  0
SECTION
  2
HEADER
  9
$ACADVER
  1
AC1018
  9
$ACADMAINTVER
 70
     0
  9
$DWGCODEPAGE
  3
ANSI_1252
  9
$INSBASE
 10
0.0
 20
0.0
 30
0.0
  9
$EXTMIN
 10
-10.04038552857051
 20
-0.0000000000000183
 30
0.0
  9
$EXTMAX
 10
40.9300885327361
 20
66.14713777835794
 30
0.0
  9
$LIMMIN
 10
0.0
 20
0.0
  9
$LIMMAX
 10
12.0
 20
9.0
  9
$ORTHOMODE
 70
     0
  9
$REGENMODE
 70
     1
  9
$FILLMODE
 70
     1
  9
$QTEXTMODE
 70
     0
  9
$MIRRTEXT
 70
     1
  9
$LTSCALE
 40
0.0393700787401575
  9
$ATTMODE
 70
     1
  9
$TEXTSIZE
 40
0.2
  9
$TRACEWID
 40
0.05
  9
$TEXTSTYLE
  7
Standard
  9
$CLAYER
  8
0
  9
$CELTYPE
  6
ByLayer
  9
$CECOLOR
 62
   256
  9
$CELTSCALE
 40
1.0
  9
$DISPSILH
 70
     0
  9
$DIMSCALE
 40
1.0
  9
$DIMASZ
 40
0.18
  9
$DIMEXO
 40
0.0625
  9
$DIMDLI
 40
0.38
  9
$DIMRND
 40
0.0
  9
$DIMDLE
 40
0.0
  9
$DIMEXE
 40
0.18
  9
$DIMTP
 40
0.0
  9
$DIMTM
 40
0.0
  9
$DIMTXT
 40
0.18
  9
$DIMCEN
 40
0.09
  9
$DIMTSZ
 40
0.0
  9
$DIMTOL
 70
     0
  9
$DIMLIM
 70
     0
  9
$DIMTIH
 70
     1
  9
$DIMTOH
 70
     1
  9
$DIMSE1
 70
     0
  9
$DIMSE2
 70
     0
  9
$DIMTAD
 70
     0
  9
$DIMZIN
 70
     0
  9
$DIMBLK
  1

  9
$DIMASO
 70
     1
  9
$DIMSHO
 70
     1
  9
$DIMPOST
  1

  9
$DIMAPOST
  1

  9
$DIMALT
 70
     0
  9
$DIMALTD
 70
     2
  9
$DIMALTF
 40
25.4
  9
$DIMLFAC
 40
1.0
  9
$DIMTOFL
 70
     0
  9
$DIMTVP
 40
0.0
  9
$DIMTIX
 70
     0
  9
$DIMSOXD
 70
     0
  9
$DIMSAH
 70
     0
  9
$DIMBLK1
  1

  9
$DIMBLK2
  1

  9
$DIMSTYLE
  2
Standard
  9
$DIMCLRD
 70
     0
  9
$DIMCLRE
 70
     0
  9
$DIMCLRT
 70
     0
  9
$DIMTFAC
 40
1.0
  9
$DIMGAP
 40
0.09
  9
$DIMJUST
 70
     0
  9
$DIMSD1
 70
     0
  9
$DIMSD2
 70
     0
  9
$DIMTOLJ
 70
     1
  9
$DIMTZIN
 70
     0
  9
$DIMALTZ
 70
     0
  9
$DIMALTTZ
 70
     0
  9
$DIMUPT
 70
     0
  9
$DIMDEC
 70
     4
  9
$DIMTDEC
 70
     4
  9
$DIMALTU
 70
     2
  9
$DIMALTTD
 70
     2
  9
$DIMTXSTY
  7
Standard
  9
$DIMAUNIT
 70
     0
  9
$DIMADEC
 70
     0
  9
$DIMALTRND
 40
0.0
  9
$DIMAZIN
 70
     0
  9
$DIMDSEP
 70
    46
  9
$DIMATFIT
 70
     3
  9
$DIMFRAC
 70
     0
  9
$DIMLDRBLK
  1

  9
$DIMLUNIT
 70
     2
  9
$DIMLWD
 70
    -2
  9
$DIMLWE
 70
    -2
  9
$DIMTMOVE
 70
     2
  9
$LUNITS
 70
     2
  9
$LUPREC
 70
     3
  9
$SKETCHINC
 40
0.1
  9
$FILLETRAD
 40
0.5
  9
$AUNITS
 70
     0
  9
$AUPREC
 70
     0
  9
$MENU
  1
.
  9
$ELEVATION
 40
0.0
  9
$PELEVATION
 40
0.0
  9
$THICKNESS
 40
0.0
  9
$LIMCHECK
 70
     0
  9
$CHAMFERA
 40
0.5
  9
$CHAMFERB
 40
0.5
  9
$CHAMFERC
 40
1.0
  9
$CHAMFERD
 40
0.0
  9
$SKPOLY
 70
     0
  9
$TDCREATE
 40
2457900.394528403
  9
$TDUCREATE
 40
2457900.561195069
  9
$TDUPDATE
 40
2457900.394528414
  9
$TDUUPDATE
 40
2457900.561195081
  9
$TDINDWG
 40
0.0000000116
  9
$TDUSRTIMER
 40
0.0000000116
  9
$USRTIMER
 70
     1
  9
$ANGBASE
 50
0.0
  9
$ANGDIR
 70
     0
  9
$PDMODE
 70
     0
  9
$PDSIZE
 40
0.0
  9
$PLINEWID
 40
0.0
  9
$SPLFRAME
 70
     0
  9
$SPLINETYPE
 70
     6
  9
$SPLINESEGS
 70
     8
  9
$HANDSEED
  5
BB
  9
$SURFTAB1
 70
     6
  9
$SURFTAB2
 70
     6
  9
$SURFTYPE
 70
     6
  9
$SURFU
 70
     6
  9
$SURFV
 70
     6
  9
$UCSBASE
  2

  9
$UCSNAME
  2

  9
$UCSORG
 10
0.0
 20
0.0
 30
0.0
  9
$UCSXDIR
 10
1.0
 20
0.0
 30
0.0
  9
$UCSYDIR
 10
0.0
 20
1.0
 30
0.0
  9
$UCSORTHOREF
  2

  9
$UCSORTHOVIEW
 70
     0
  9
$UCSORGTOP
 10
0.0
 20
0.0
 30
0.0
  9
$UCSORGBOTTOM
 10
0.0
 20
0.0
 30
0.0
  9
$UCSORGLEFT
 10
0.0
 20
0.0
 30
0.0
  9
$UCSORGRIGHT
 10
0.0
 20
0.0
 30
0.0
  9
$UCSORGFRONT
 10
0.0
 20
0.0
 30
0.0
  9
$UCSORGBACK
 10
0.0
 20
0.0
 30
0.0
  9
$PUCSBASE
  2

  9
$PUCSNAME
  2

  9
$PUCSORG
 10
0.0
 20
0.0
 30
0.0
  9
$PUCSXDIR
 10
1.0
 20
0.0
 30
0.0
  9
$PUCSYDIR
 10
0.0
 20
1.0
 30
0.0
  9
$PUCSORTHOREF
  2

  9
$PUCSORTHOVIEW
 70
     0
  9
$PUCSORGTOP
 10
0.0
 20
0.0
 30
0.0
  9
$PUCSORGBOTTOM
 10
0.0
 20
0.0
 30
0.0
  9
$PUCSORGLEFT
 10
0.0
 20
0.0
 30
0.0
  9
$PUCSORGRIGHT
 10
0.0
 20
0.0
 30
0.0
  9
$PUCSORGFRONT
 10
0.0
 20
0.0
 30
0.0
  9
$PUCSORGBACK
 10
0.0
 20
0.0
 30
0.0
  9
$USERI1
 70
     0
  9
$USERI2
 70
     0
  9
$USERI3
 70
     0
  9
$USERI4
 70
     0
  9
$USERI5
 70
     0
  9
$USERR1
 40
0.0
  9
$USERR2
 40
0.0
  9
$USERR3
 40
0.0
  9
$USERR4
 40
0.0
  9
$USERR5
 40
0.0
  9
$WORLDVIEW
 70
     1
  9
$SHADEDGE
 70
     3
  9
$SHADEDIF
 70
    70
  9
$TILEMODE
 70
     1
  9
$MAXACTVP
 70
    64
  9
$PINSBASE
 10
0.0
 20
0.0
 30
0.0
  9
$PLIMCHECK
 70
     0
  9
$PEXTMIN
 10
1.000000000000000E+20
 20
1.000000000000000E+20
 30
1.000000000000000E+20
  9
$PEXTMAX
 10
-1.000000000000000E+20
 20
-1.000000000000000E+20
 30
-1.000000000000000E+20
  9
$PLIMMIN
 10
0.0
 20
0.0
  9
$PLIMMAX
 10
12.0
 20
9.0
  9
$UNITMODE
 70
     0
  9
$VISRETAIN
 70
     1
  9
$PLINEGEN
 70
     0
  9
$PSLTSCALE
 70
     1
  9
$TREEDEPTH
 70
  3020
  9
$CMLSTYLE
  2
Standard
  9
$CMLJUST
 70
     0
  9
$CMLSCALE
 40
1.0
  9
$PROXYGRAPHICS
 70
     1
  9
$MEASUREMENT
 70
     0
  9
$CELWEIGHT
370
    -1
  9
$ENDCAPS
280
     0
  9
$JOINSTYLE
280
     0
  9
$LWDISPLAY
290
     0
  9
$INSUNITS
 70
     1
  9
$HYPERLINKBASE
  1

  9
$STYLESHEET
  1

  9
$XEDIT
290
     1
  9
$CEPSNTYPE
380
     0
  9
$PSTYLEMODE
290
     1
  9
$FINGERPRINTGUID
  2
{42CC777C-814E-4C31-98E9-EF7678FB985F}
  9
$VERSIONGUID
  2
{FAEB1C32-E019-11D5-929B-00C0DF256EC4}
  9
$EXTNAMES
290
     1
  9
$PSVPSCALE
 40
0.0
  9
$OLESTARTUP
290
     0
  9
$SORTENTS
280
   127
  9
$INDEXCTL
280
     0
  9
$HIDETEXT
280
     1
  9
$XCLIPFRAME
290
     0
  9
$HALOGAP
280
     0
  9
$OBSCOLOR
 70
   257
  9
$OBSLTYPE
280
     0
  9
$INTERSECTIONDISPLAY
280
     0
  9
$INTERSECTIONCOLOR
 70
   257
  9
$DIMASSOC
280
     2
  9
$PROJECTNAME
  1

  0
ENDSEC
  0
SECTION
  2
CLASSES
  0
CLASS
  1
ACDBDICTIONARYWDFLT
  2
AcDbDictionaryWithDefault
  3
ObjectDBX Classes
 90
        0
 91
        4
280
     0
281
     0
  0
CLASS
  1
VISUALSTYLE
  2
AcDbVisualStyle
  3
ObjectDBX Classes
 90
     4095
 91
        4
280
     0
281
     0
  0
ENDSEC
  0
SECTION
  2
TABLES
  0
TABLE
  2
VPORT
  5
8
330
0
100
AcDbSymbolTable
 70
     1
  0
VPORT
  5
29
330
8
100
AcDbSymbolTableRecord
100
AcDbViewportTableRecord
  2
*Active
 70
     0
 10
0.0
 20
0.0
 11
1.0
 21
1.0
 12
15.44485150208279
 22
33.07356888917896
 13
0.0
 23
0.0
 14
0.5
 24
0.5
 15
0.5
 25
0.5
 16
0.0
 26
0.0
 36
1.0
 17
0.0
 27
0.0
 37
0.0
 40
67.47008053392511
 41
0.7705620495945805
 42
50.0
 43
0.0
 44
0.0
 50
0.0
 51
0.0
 71
     0
 72
   100
 73
     1
 74
     3
 75
     0
 76
     0
 77
     0
 78
     0
281
     0
 65
     1
110
0.0
120
0.0
130
0.0
111
1.0
121
0.0
131
0.0
112
0.0
122
1.0
132
0.0
 79
     0
146
0.0
  0
ENDTAB
  0
TABLE
  2
LTYPE
  5
5
330
0
100
AcDbSymbolTable
 70
     1
  0
LTYPE
  5
14
330
5
100
AcDbSymbolTableRecord
100
AcDbLinetypeTableRecord
  2
ByBlock
 70
     0
  3

 72
    65
 73
     0
 40
0.0
  0
LTYPE
  5
15
330
5
100
AcDbSymbolTableRecord
100
AcDbLinetypeTableRecord
  2
ByLayer
 70
     0
  3

 72
    65
 73
     0
 40
0.0
  0
LTYPE
  5
16
330
5
100
AcDbSymbolTableRecord
100
AcDbLinetypeTableRecord
  2
Continuous
 70
     0
  3
Solid line
 72
    65
 73
     0
 40
0.0
  0
ENDTAB
  0
TABLE
  2
LAYER
  5
2
330
0
100
AcDbSymbolTable
 70
     2
  0
LAYER
  5
10
330
2
100
AcDbSymbolTableRecord
100
AcDbLayerTableRecord
  2
0
 70
     0
 62
     7
  6
Continuous
370
    -3
390
F
  0
LAYER
  5
3B
330
2
100
AcDbSymbolTableRecord
100
AcDbLayerTableRecord
  2
WOOD B - 2D
 70
     0
 62
     7
  6
Continuous
370
    -3
390
F
  0
ENDTAB
  0
TABLE
  2
STYLE
  5
3
330
0
100
AcDbSymbolTable
 70
     1
  0
STYLE
  5
11
330
3
100
AcDbSymbolTableRecord
100
AcDbTextStyleTableRecord
  2
Standard
 70
     0
 40
0.0
 41
1.0
 50
0.0
 71
     0
 42
0.2
  3
txt
  4

  0
ENDTAB
  0
TABLE
  2
VIEW
  5
6
330
0
100
AcDbSymbolTable
 70
     0
  0
ENDTAB
  0
TABLE
  2
UCS
  5
7
330
0
100
AcDbSymbolTable
 70
     0
  0
ENDTAB
  0
TABLE
  2
APPID
  5
9
330
0
100
AcDbSymbolTable
 70
     1
  0
APPID
  5
12
330
9
100
AcDbSymbolTableRecord
100
AcDbRegAppTableRecord
  2
ACAD
 70
     0
  0
ENDTAB
  0
TABLE
  2
DIMSTYLE
  5
A
330
0
100
AcDbSymbolTable
 70
     1
100
AcDbDimStyleTable
  0
DIMSTYLE
105
27
330
A
100
AcDbSymbolTableRecord
100
AcDbDimStyleTableRecord
  2
Standard
 70
     0
340
11
  0
ENDTAB
  0
TABLE
  2
BLOCK_RECORD
  5
1
330
0
100
AcDbSymbolTable
 70
     1
  0
BLOCK_RECORD
  5
1F
330
1
100
AcDbSymbolTableRecord
100
AcDbBlockTableRecord
  2
*Model_Space
340
22
  0
BLOCK_RECORD
  5
1B
330
1
100
AcDbSymbolTableRecord
100
AcDbBlockTableRecord
  2
*Paper_Space
340
1E
  0
BLOCK_RECORD
  5
23
330
1
100
AcDbSymbolTableRecord
100
AcDbBlockTableRecord
  2
*Paper_Space0
340
26
  0
ENDTAB
  0
ENDSEC
  0
SECTION
  2
BLOCKS
  0
BLOCK
  5
20
330
1F
100
AcDbEntity
  8
0
100
AcDbBlockBegin
  2
*Model_Space
 70
     0
 10
0.0
 20
0.0
 30
0.0
  3
*Model_Space
  1

  0
ENDBLK
  5
21
330
1F
100
AcDbEntity
  8
0
100
AcDbBlockEnd
  0
BLOCK
  5
1C
330
1B
100
AcDbEntity
 67
     1
  8
0
100
AcDbBlockBegin
  2
*Paper_Space
 70
     0
 10
0.0
 20
0.0
 30
0.0
  3
*Paper_Space
  1

  0
ENDBLK
  5
1D
330
1B
100
AcDbEntity
 67
     1
  8
0
100
AcDbBlockEnd
  0
BLOCK
  5
24
330
23
100
AcDbEntity
  8
0
100
AcDbBlockBegin
  2
*Paper_Space0
 70
     0
 10
0.0
 20
0.0
 30
0.0
  3
*Paper_Space0
  1

  0
ENDBLK
  5
25
330
23
100
AcDbEntity
  8
0
100
AcDbBlockEnd
  0
ENDSEC
  0
SECTION
  2
ENTITIES
  0
SPLINE
  5
3C
330
1F
100
AcDbEntity
  8
WOOD B - 2D
 62
     7
100
AcDbSpline
210
0.0
220
0.0
230
1.0
 70
    24
 71
     2
 72
     6
 73
     3
 74
     0
 42
0.0000000001
 43
0.0000000001
 40
0.0
 40
0.0
 40
0.0
 40
14.44475543953741
 40
14.44475543953741
 40
14.44475543953741
 10
-5.302444212548201
 20
11.76049999999975
 30
0.0
 10
-4.854962128111435
 20
18.96900190477299
 30
0.0
 10
-4.40748004367467
 20
26.17750380954624
 30
0.0
  0
SPLINE
  5
3D
330
1F
100
AcDbEntity
  8
WOOD B - 2D
 62
     7
100
AcDbSpline
210
0.0
220
0.0
230
1.0
 70
     8
 71
     3
 72
    24
 73
    20
 74
     0
 42
0.0000000001
 43
0.0000000001
 40
0.0
 40
0.0
 40
0.0
 40
0.0
 40
1.0
 40
2.0
 40
3.0
 40
4.0
 40
5.0
 40
6.0
 40
7.0
 40
8.0
 40
9.0
 40
10.0
 40
11.0
 40
12.0
 40
13.0
 40
14.0
 40
15.0
 40
16.0
 40
17.0
 40
17.0
 40
17.0
 40
17.0
 10
0.000000000000018
 20
62.23286769572798
 30
0.0
 10
0.5042271187832935
 20
62.23292735661582
 30
0.0
 10
1.512527863514646
 20
62.22457503966577
 30
0.0
 10
3.024353397868764
 20
62.14411945393959
 30
0.0
 10
4.520555807248327
 20
61.91181669675778
 30
0.0
 10
5.95758978625359
 20
61.37757133327149
 30
0.0
 10
7.053084774122546
 20
60.25804081766911
 30
0.0
 10
7.418269381227449
 20
58.76012127499093
 30
0.0
 10
7.557667419052377
 20
57.25794385017926
 30
0.0
 10
7.654105209472701
 20
55.74695030134279
 30
0.0
 10
7.668673137218128
 20
54.23448746736358
 30
0.0
 10
7.59738005871498
 20
52.72103649233924
 30
0.0
 10
7.326596697429262
 20
51.23104025776004
 30
0.0
 10
6.797258277872011
 20
49.79586038174905
 30
0.0
 10
5.774250595105023
 20
48.65068684438054
 30
0.0
 10
4.482039069091145
 20
47.83583266950779
 30
0.0
 10
3.01342159808443
 20
47.43047398761599
 30
0.0
 10
1.512026175577707
 20
47.24051310099309
 30
0.0
 10
0.5041543355987438
 20
47.18951941749049
 30
0.0
 10
0.000000000000018
 20
47.18232829332855
 30
0.0
  0
SPLINE
  5
3E
330
1F
100
AcDbEntity
  8
WOOD B - 2D
 62
     7
100
AcDbSpline
210
0.0
220
0.0
230
1.0
 70
     8
 71
     3
 72
    24
 73
    20
 74
     0
 42
0.0000000001
 43
0.0000000001
 40
-17.0
 40
-17.0
 40
-17.0
 40
-17.0
 40
-16.0
 40
-15.0
 40
-14.0
 40
-13.0
 40
-12.0
 40
-11.0
 40
-10.0
 40
-9.0
 40
-8.0
 40
-7.0
 40
-6.0
 40
-5.0
 40
-4.0
 40
-3.0
 40
-2.0
 40
-1.0
 40
0.0
 40
0.0
 40
0.0
 40
0.0
 10
0.000000000000018
 20
47.18232829332855
 30
0.0
 10
-0.5041543355987078
 20
47.18951941749049
 30
0.0
 10
-1.512026175577671
 20
47.24051310099309
 30
0.0
 10
-3.013421598084394
 20
47.43047398761599
 30
0.0
 10
-4.482039069091109
 20
47.83583266950779
 30
0.0
 10
-5.774250595104988
 20
48.65068684438054
 30
0.0
 10
-6.797258277871975
 20
49.79586038174905
 30
0.0
 10
-7.326596697429227
 20
51.23104025776004
 30
0.0
 10
-7.597380058714944
 20
52.72103649233924
 30
0.0
 10
-7.668673137218092
 20
54.23448746736358
 30
0.0
 10
-7.654105209472665
 20
55.74695030134279
 30
0.0
 10
-7.557667419052342
 20
57.25794385017926
 30
0.0
 10
-7.418269381227414
 20
58.76012127499093
 30
0.0
 10
-7.05308477412251
 20
60.25804081766911
 30
0.0
 10
-5.957589786253554
 20
61.37757133327149
 30
0.0
 10
-4.520555807248291
 20
61.91181669675778
 30
0.0
 10
-3.024353397868727
 20
62.14411945393959
 30
0.0
 10
-1.51252786351461
 20
62.22457503966577
 30
0.0
 10
-0.5042271187832575
 20
62.23292735661582
 30
0.0
 10
0.000000000000018
 20
62.23286769572798
 30
0.0
  0
SPLINE
  5
3F
330
1F
100
AcDbEntity
  8
WOOD B - 2D
 62
     7
100
AcDbSpline
210
0.0
220
0.0
230
1.0
 70
     8
 71
     3
 72
    24
 73
    20
 74
     0
 42
0.0000000001
 43
0.0000000001
 40
0.0
 40
0.0
 40
0.0
 40
0.0
 40
1.0
 40
2.0
 40
3.0
 40
4.0
 40
5.0
 40
6.0
 40
7.0
 40
8.0
 40
9.0
 40
10.0
 40
11.0
 40
12.0
 40
13.0
 40
14.0
 40
15.0
 40
16.0
 40
17.0
 40
17.0
 40
17.0
 40
17.0
 10
0.0000000000000145
 20
65.59123897955973
 30
0.0
 10
0.6154564249465377
 20
65.58869411429714
 30
0.0
 10
1.84686925382277
 20
65.52440581716232
 30
0.0
 10
3.676626902492658
 20
65.2879028046579
 30
0.0
 10
5.489786683424566
 20
64.86748472984296
 30
0.0
 10
7.057394086183635
 20
63.82027243538468
 30
0.0
 10
8.11059682798111
 20
62.27950309140329
 30
0.0
 10
8.86271770330404
 20
60.5925310240667
 30
0.0
 10
9.62113029625711
 20
58.90460533527572
 30
0.0
 10
10.01922260915393
 20
57.08973968835286
 30
0.0
 10
10.07187038101629
 20
55.24010677311337
 30
0.0
 10
9.928770388226745
 20
53.39159872237108
 30
0.0
 10
9.354616978924394
 20
51.62249692218041
 30
0.0
 10
8.386775793729075
 20
50.03559808626687
 30
0.0
 10
7.080406478515918
 20
48.70902509413819
 30
0.0
 10
5.461560056702272
 20
47.78698863476298
 30
0.0
 10
3.681512219876971
 20
47.2631233410181
 30
0.0
 10
1.84740758012981
 20
47.02054848630871
 30
0.0
 10
0.6155025334888043
 20
46.98718285722597
 30
0.0
 10
0.0000000000001345
 20
46.98946628718753
 30
0.0
  0
SPLINE
  5
40
330
1F
100
AcDbEntity
  8
WOOD B - 2D
 62
     7
100
AcDbSpline
210
0.0
220
0.0
230
1.0
 70
     8
 71
     3
 72
    24
 73
    20
 74
     0
 42
0.0000000001
 43
0.0000000001
 40
-17.0
 40
-17.0
 40
-17.0
 40
-17.0
 40
-16.0
 40
-15.0
 40
-14.0
 40
-13.0
 40
-12.0
 40
-11.0
 40
-10.0
 40
-9.0
 40
-8.0
 40
-7.0
 40
-6.0
 40
-5.0
 40
-4.0
 40
-3.0
 40
-2.0
 40
-1.0
 40
0.0
 40
0.0
 40
0.0
 40
0.0
 10
0.0000000000000251
 20
46.98946628718753
 30
0.0
 10
-0.6155025334886447
 20
46.98718285722596
 30
0.0
 10
-1.84740758012965
 20
47.0205484863087
 30
0.0
 10
-3.681512219876813
 20
47.26312334101807
 30
0.0
 10
-5.461560056702118
 20
47.78698863476294
 30
0.0
 10
-7.08040647851577
 20
48.70902509413814
 30
0.0
 10
-8.386775793728937
 20
50.03559808626682
 30
0.0
 10
-9.354616978924268
 20
51.62249692218035
 30
0.0
 10
-9.928770388226631
 20
53.39159872237101
 30
0.0
 10
-10.07187038101619
 20
55.2401067731133
 30
0.0
 10
-10.01922260915384
 20
57.08973968835279
 30
0.0
 10
-9.621130296257036
 20
58.90460533527565
 30
0.0
 10
-8.862717703303977
 20
60.59253102406664
 30
0.0
 10
-8.110596827981059
 20
62.27950309140324
 30
0.0
 10
-7.057394086183594
 20
63.82027243538464
 30
0.0
 10
-5.489786683424533
 20
64.86748472984291
 30
0.0
 10
-3.676626902492627
 20
65.28790280465788
 30
0.0
 10
-1.84686925382274
 20
65.5244058171623
 30
0.0
 10
-0.6154564249465089
 20
65.58869411429714
 30
0.0
 10
0.0000000000000145
 20
65.59123897955973
 30
0.0
  0
SPLINE
  5
41
330
1F
100
AcDbEntity
  8
WOOD B - 2D
 62
     7
100
AcDbSpline
210
0.0
220
0.0
230
1.0
 70
    24
 71
     2
 72
     6
 73
     3
 74
     0
 42
0.0000000001
 43
0.0000000001
 40
0.0
 40
0.0
 40
0.0
 40
26.34577709495621
 40
26.34577709495621
 40
26.34577709495621
 10
-6.948412044489714
 20
0.3650716271357743
 30
0.0
 10
-5.902124064916085
 20
13.49634247759345
 30
0.0
 10
-4.855836085342455
 20
26.62761332805113
 30
0.0
  0
ARC
  5
42
330
1F
100
AcDbEntity
  8
WOOD B - 2D
 62
     7
100
AcDbCircle
 10
-6.445067361483377
 20
24.40172068849835
 30
0.0
 40
2.735005318437195
100
AcDbArc
 50
54.47411934095842
 51
88.51982971666153
  0
SPLINE
  5
43
330
1F
100
AcDbEntity
  8
WOOD B - 2D
 62
     7
100
AcDbSpline
210
0.0
220
0.0
230
1.0
 70
    24
 71
     2
 72
     6
 73
     3
 74
     0
 42
0.0000000001
 43
0.0000000001
 40
0.0
 40
0.0
 40
0.0
 40
26.80706222188624
 40
26.80706222188624
 40
26.80706222188624
 10
-6.374419517052486
 20
27.13581340345097
 30
0.0
 10
-7.226266617285333
 20
13.75937879777802
 30
0.0
 10
-8.07811371751818
 20
0.3829441921050665
 30
0.0
  0
SPLINE
  5
44
330
1F
100
AcDbEntity
  8
WOOD B - 2D
 62
     7
100
AcDbSpline
210
0.0
220
0.0
230
1.0
 70
    12
 71
     2
 72
     8
 73
     5
 74
     0
 42
0.0000000001
 43
0.0000000001
 40
-0.2042990906077621
 40
-0.2042990906077621
 40
-0.2042990906077621
 40
-0.1021495453038811
 40
-0.1021495453038811
 40
0.0
 40
0.0
 40
0.0
 10
-8.07811371751818
 20
0.3829441921050665
 30
0.0
 41
1.0
 10
-8.08155327940548
 20
0.3289329021041723
 30
0.0
 41
0.9176786993781615
 10
-8.04452019592298
 20
0.2894664510182766
 30
0.0
 41
1.0
 10
-8.00748711244048
 20
0.249999999932381
 30
0.0
 41
0.9176786993781615
 10
-7.951144843952711
 20
0.2499999999999969
 30
0.0
 41
1.0
  0
SPLINE
  5
45
330
1F
100
AcDbEntity
  8
WOOD B - 2D
 62
     7
100
AcDbSpline
210
0.0
220
0.0
230
1.0
 70
    24
 71
     2
 72
     6
 73
     3
 74
     0
 42
0.0000000001
 43
0.0000000001
 40
0.0
 40
0.0
 40
0.0
 40
0.875906143902859
 40
0.875906143902859
 40
0.875906143902859
 10
-7.951144843952711
 20
0.2499999999999969
 30
0.0
 10
-7.512080987134011
 20
0.249999999999997
 30
0.0
 10
-7.073017130315311
 20
0.2499999999999971
 30
0.0
  0
SPLINE
  5
46
330
1F
100
AcDbEntity
  8
WOOD B - 2D
 62
     7
100
AcDbSpline
210
0.0
220
0.0
230
1.0
 70
    12
 71
     2
 72
     6
 73
     3
 74
     0
 42
0.0000000001
 43
0.0000000001
 40
-0.1864106990901103
 40
-0.1864106990901103
 40
-0.1864106990901103
 40
0.0
 40
0.0
 40
0.0
 10
-7.073017130315311
 20
0.2499999999999971
 30
0.0
 41
1.0
 10
-6.957580803759376
 20
0.2500000001281442
 30
0.0
 41
0.7346519533662575
 10
-6.948412044489714
 20
0.3650716271357743
 30
0.0
 41
1.0
  0
SPLINE
  5
47
330
1F
100
AcDbEntity
  8
WOOD B - 2D
 62
     7
100
AcDbSpline
210
0.0
220
0.0
230
1.0
 70
    24
 71
     2
 72
     6
 73
     3
 74
     0
 42
0.0000000001
 43
0.0000000001
 40
0.0
 40
0.0
 40
0.0
 40
26.34577709495621
 40
26.34577709495621
 40
26.34577709495621
 10
6.948412044489714
 20
0.3650716271357743
 30
0.0
 10
5.902124064916085
 20
13.49634247759345
 30
0.0
 10
4.855836085342455
 20
26.62761332805113
 30
0.0
  0
ARC
  5
48
330
1F
100
AcDbEntity
  8
WOOD B - 2D
 62
     7
100
AcDbCircle
 10
6.445067361483377
 20
24.40172068849835
 30
0.0
 40
2.735005318437195
100
AcDbArc
 50
91.48017028333848
 51
125.5258806590416
  0
SPLINE
  5
49
330
1F
100
AcDbEntity
  8
WOOD B - 2D
 62
     7
100
AcDbSpline
210
0.0
220
0.0
230
1.0
 70
    24
 71
     2
 72
     6
 73
     3
 74
     0
 42
0.0000000001
 43
0.0000000001
 40
0.0
 40
0.0
 40
0.0
 40
26.80706222188624
 40
26.80706222188624
 40
26.80706222188624
 10
6.374419517052486
 20
27.13581340345097
 30
0.0
 10
7.226266617285333
 20
13.75937879777802
 30
0.0
 10
8.07811371751818
 20
0.3829441921050665
 30
0.0
  0
SPLINE
  5
4A
330
1F
100
AcDbEntity
  8
WOOD B - 2D
 62
     7
100
AcDbSpline
210
0.0
220
0.0
230
1.0
 70
    12
 71
     2
 72
     8
 73
     5
 74
     0
 42
0.0000000001
 43
0.0000000001
 40
-0.2042990906077621
 40
-0.2042990906077621
 40
-0.2042990906077621
 40
-0.1021495453038811
 40
-0.1021495453038811
 40
0.0
 40
0.0
 40
0.0
 10
8.07811371751818
 20
0.3829441921050665
 30
0.0
 41
1.0
 10
8.08155327940548
 20
0.3289329021041723
 30
0.0
 41
0.9176786993781615
 10
8.04452019592298
 20
0.2894664510182766
 30
0.0
 41
1.0
 10
8.00748711244048
 20
0.249999999932381
 30
0.0
 41
0.9176786993781615
 10
7.951144843952711
 20
0.2499999999999969
 30
0.0
 41
1.0
  0
SPLINE
  5
4B
330
1F
100
AcDbEntity
  8
WOOD B - 2D
 62
     7
100
AcDbSpline
210
0.0
220
0.0
230
1.0
 70
    24
 71
     2
 72
     6
 73
     3
 74
     0
 42
0.0000000001
 43
0.0000000001
 40
0.0
 40
0.0
 40
0.0
 40
0.875906143902859
 40
0.875906143902859
 40
0.875906143902859
 10
7.951144843952711
 20
0.2499999999999969
 30
0.0
 10
7.512080987134011
 20
0.249999999999997
 30
0.0
 10
7.073017130315311
 20
0.2499999999999971
 30
0.0
  0
SPLINE
  5
4C
330
1F
100
AcDbEntity
  8
WOOD B - 2D
 62
     7
100
AcDbSpline
210
0.0
220
0.0
230
1.0
 70
    12
 71
     2
 72
     6
 73
     3
 74
     0
 42
0.0000000001
 43
0.0000000001
 40
-0.1864106990901103
 40
-0.1864106990901103
 40
-0.1864106990901103
 40
0.0
 40
0.0
 40
0.0
 10
7.073017130315311
 20
0.2499999999999971
 30
0.0
 41
1.0
 10
6.957580803759376
 20
0.2500000001281442
 30
0.0
 41
0.7346519533662575
 10
6.948412044489714
 20
0.3650716271357743
 30
0.0
 41
1.0
  0
LINE
  5
4D
330
1F
100
AcDbEntity
  8
WOOD B - 2D
 62
     7
100
AcDbLine
 10
-7.073017130315311
 20
0.2499999999999994
 30
0.0
 11
-6.134462372007675
 21
0.2499999999999995
 31
0.0
  0
SPLINE
  5
4E
330
1F
100
AcDbEntity
  8
WOOD B - 2D
 62
     7
100
AcDbSpline
210
0.0
220
0.0
230
1.0
 70
    12
 71
     2
 72
     6
 73
     3
 74
     0
 42
0.0000000001
 43
0.0000000001
 40
-0.188600019568006
 40
-0.188600019568006
 40
-0.188600019568006
 40
0.0
 40
0.0
 40
0.0
 10
-6.134462372007675
 20
0.2499999999999995
 30
0.0
 41
1.0
 10
-6.016981231534356
 20
0.250000000176476
 30
0.0
 41
0.7286825324569939
 10
-6.009702515399757
 20
0.3672554420900305
 30
0.0
 41
1.0
  0
SPLINE
  5
4F
330
1F
100
AcDbEntity
  8
WOOD B - 2D
 62
     7
100
AcDbSpline
210
0.0
220
0.0
230
1.0
 70
    24
 71
     2
 72
     6
 73
     3
 74
     0
 42
0.0000000001
 43
0.0000000001
 40
0.0
 40
0.0
 40
0.0
 40
11.03945383621473
 40
11.03945383621473
 40
11.03945383621473
 10
-6.009702515399757
 20
0.3672554420900305
 30
0.0
 10
-5.66771279917706
 20
5.876377721044903
 30
0.0
 10
-5.325723082954363
 20
11.38549999999977
 30
0.0
  0
SPLINE
  5
50
330
1F
100
AcDbEntity
  8
WOOD B - 2D
 62
     7
100
AcDbSpline
210
0.0
220
0.0
230
1.0
 70
    24
 71
     2
 72
     6
 73
     3
 74
     0
 42
0.0000000001
 43
0.0000000001
 40
0.0
 40
0.0
 40
0.0
 40
0.0300000000000114
 40
0.0300000000000114
 40
0.0300000000000114
 10
-7.196704327365005
 20
0.2500000000000111
 30
0.0
 10
-7.196657273914992
 20
0.2350000000000055
 30
0.0
 10
-7.196610220464978
 20
0.22
 30
0.0
  0
SPLINE
  5
51
330
1F
100
AcDbEntity
  8
WOOD B - 2D
 62
     7
100
AcDbSpline
210
0.0
220
0.0
230
1.0
 70
    12
 71
     2
 72
     6
 73
     3
 74
     0
 42
0.0000000001
 43
0.0000000001
 40
0.0
 40
0.0
 40
0.0
 40
0.3456699723273154
 40
0.3456699723273154
 40
0.3456699723273154
 10
-7.196610220464978
 20
0.22
 30
0.0
 41
0.9999999292147955
 10
-7.196604069300359
 20
-0.0000445713233525
 30
0.0
 41
0.707176459975526
 10
-7.416648708418602
 20
-0.0000000000000001
 30
0.0
 41
1.0
  0
SPLINE
  5
52
330
1F
100
AcDbEntity
  8
WOOD B - 2D
 62
     7
100
AcDbSpline
210
0.0
220
0.0
230
1.0
 70
    28
 71
     3
 72
    11
 73
     7
 74
     0
 42
0.0000000001
 43
0.0000000001
 40
0.2905879006863338
 40
0.2905879006863338
 40
0.2905879006863338
 40
0.2905879006863338
 40
0.360855055839873
 40
0.4359674364246133
 40
0.5062873544361419
 40
0.5811758012481886
 40
0.5811758012481886
 40
0.5811758012481886
 40
0.5811758012481886
 10
-7.416648708418602
 20
-0.0000000000000001
 30
0.0
 41
1.0
 10
-7.416614776061556
 20
0.0
 30
0.0
 41
1.0
 10
-7.435873387671425
 20
0.0
 30
0.0
 41
1.0
 10
-7.507427438253805
 20
0.0
 30
0.0
 41
1.0
 10
-7.580781660563413
 20
0.0
 30
0.0
 41
1.0
 10
-7.601751697410063
 20
0.0
 30
0.0
 41
1.0
 10
-7.601704944109692
 20
0.0000000000003563
 30
0.0
 41
1.0
  0
SPLINE
  5
53
330
1F
100
AcDbEntity
  8
WOOD B - 2D
 62
     7
100
AcDbSpline
210
0.0
220
0.0
230
1.0
 70
    12
 71
     2
 72
     6
 73
     3
 74
     0
 42
0.0000000001
 43
0.0000000001
 40
0.0
 40
0.0
 40
0.0
 40
0.3455711248854073
 40
0.3455711248854073
 40
0.3455711248854073
 10
-7.601704944109692
 20
0.0000000000003563
 30
0.0
 41
1.0
 10
-7.821694495852365
 20
0.000011159205961
 30
0.0
 41
0.7071446834702688
 10
-7.821706920929364
 20
0.2199999999999998
 30
0.0
 41
1.0
  0
SPLINE
  5
54
330
1F
100
AcDbEntity
  8
WOOD B - 2D
 62
     7
100
AcDbSpline
210
0.0
220
0.0
230
1.0
 70
    24
 71
     2
 72
     6
 73
     3
 74
     0
 42
0.0000000001
 43
0.0000000001
 40
0.0
 40
0.0
 40
0.0
 40
0.0300000000000114
 40
0.0300000000000114
 40
0.0300000000000114
 10
-6.25906568587772
 20
0.2500000000000111
 30
0.0
 10
-6.259018632427707
 20
0.2350000000000055
 30
0.0
 10
-6.258971578977693
 20
0.22
 30
0.0
  0
SPLINE
  5
55
330
1F
100
AcDbEntity
  8
WOOD B - 2D
 62
     7
100
AcDbSpline
210
0.0
220
0.0
230
1.0
 70
    12
 71
     2
 72
     6
 73
     3
 74
     0
 42
0.0000000001
 43
0.0000000001
 40
0.0
 40
0.0
 40
0.0
 40
0.3456699721523052
 40
0.3456699721523052
 40
0.3456699721523052
 10
-6.258971578977693
 20
0.22
 30
0.0
 41
0.9999999292147955
 10
-6.258965427812996
 20
-0.0000445711484011
 30
0.0
 41
0.7071764602565305
 10
-6.479010066843821
 20
0.0000000000000002
 30
0.0
 41
1.0
  0
SPLINE
  5
56
330
1F
100
AcDbEntity
  8
WOOD B - 2D
 62
     7
100
AcDbSpline
210
0.0
220
0.0
230
1.0
 70
    28
 71
     3
 72
    11
 73
     7
 74
     0
 42
0.0000000001
 43
0.0000000001
 40
0.2905879006872004
 40
0.2905879006872004
 40
0.2905879006872004
 40
0.2905879006872004
 40
0.3608550104299992
 40
0.4359674064703898
 40
0.506287338951438
 40
0.5811758012481886
 40
0.5811758012481886
 40
0.5811758012481886
 40
0.5811758012481886
 10
-6.479010066843821
 20
0.0000000000000002
 30
0.0
 41
1.0
 10
-6.478976150436226
 20
0.0
 30
0.0
 41
1.0
 10
-6.498234766044632
 20
0.0
 30
0.0
 41
1.0
 10
-6.569788796766522
 20
0.0
 30
0.0
 41
1.0
 10
-6.643143019101145
 20
0.0
 30
0.0
 41
1.0
 10
-6.664113055944481
 20
0.0
 30
0.0
 41
1.0
 10
-6.664066302622267
 20
0.0000000000003563
 30
0.0
 41
1.0
  0
SPLINE
  5
57
330
1F
100
AcDbEntity
  8
WOOD B - 2D
 62
     7
100
AcDbSpline
210
0.0
220
0.0
230
1.0
 70
    12
 71
     2
 72
     6
 73
     3
 74
     0
 42
0.0000000001
 43
0.0000000001
 40
0.0
 40
0.0
 40
0.0
 40
0.3455711248856935
 40
0.3455711248856935
 40
0.3455711248856935
 10
-6.664066302622267
 20
0.0000000000003563
 30
0.0
 41
1.0
 10
-6.884055854282877
 20
0.0000111592056634
 30
0.0
 41
0.7071446835471724
 10
-6.884066823641703
 20
0.2199999999999998
 30
0.0
 41
0.9999999998452085
  0
SPLINE
  5
58
330
1F
100
AcDbEntity
  8
WOOD B - 2D
 62
     7
100
AcDbSpline
210
0.0
220
0.0
230
1.0
 70
    24
 71
     2
 72
     6
 73
     3
 74
     0
 42
0.0000000001
 43
0.0000000001
 40
0.0
 40
0.0
 40
0.0
 40
0.0300000000000114
 40
0.0300000000000114
 40
0.0300000000000114
 10
-6.884066823641703
 20
0.2199999999999998
 30
0.0
 10
-6.884066095741515
 20
0.2350000000000054
 30
0.0
 10
-6.884065367841327
 20
0.2500000000000111
 30
0.0
  0
SPLINE
  5
59
330
1F
100
AcDbEntity
  8
WOOD B - 2D
 62
     7
100
AcDbSpline
210
0.0
220
0.0
230
1.0
 70
    24
 71
     2
 72
     6
 73
     3
 74
     0
 42
0.0000000001
 43
0.0000000001
 40
0.0
 40
0.0
 40
0.0
 40
0.0300000000000114
 40
0.0300000000000114
 40
0.0300000000000114
 10
-7.821704009328611
 20
0.2199999999999998
 30
0.0
 10
-7.821704088837699
 20
0.2350000000000054
 30
0.0
 10
-7.821704168346785
 20
0.2500000000000111
 30
0.0
  0
SPLINE
  5
5A
330
1F
100
AcDbEntity
  8
WOOD B - 2D
 62
     7
100
AcDbSpline
210
0.0
220
0.0
230
1.0
 70
    24
 71
     2
 72
     6
 73
     3
 74
     0
 42
0.0000000001
 43
0.0000000001
 40
-0.0300000000000114
 40
-0.0300000000000114
 40
-0.0300000000000114
 40
0.0
 40
0.0
 40
0.0
 10
-7.821704168346785
 20
0.2500000000000111
 30
0.0
 10
-7.821704247855871
 20
0.2350000000000054
 30
0.0
 10
-7.821704327364959
 20
0.2199999999999998
 30
0.0
  0
SPLINE
  5
5B
330
1F
100
AcDbEntity
  8
WOOD B - 2D
 62
     7
100
AcDbSpline
210
0.0
220
0.0
230
1.0
 70
    24
 71
     2
 72
     6
 73
     3
 74
     0
 42
0.0000000001
 43
0.0000000001
 40
0.0
 40
0.0
 40
0.0
 40
0.0300000000000114
 40
0.0300000000000114
 40
0.0300000000000114
 10
7.196704327365005
 20
0.2500000000000111
 30
0.0
 10
7.196657273914992
 20
0.2350000000000055
 30
0.0
 10
7.196610220464978
 20
0.22
 30
0.0
  0
SPLINE
  5
5C
330
1F
100
AcDbEntity
  8
WOOD B - 2D
 62
     7
100
AcDbSpline
210
0.0
220
0.0
230
1.0
 70
    12
 71
     2
 72
     6
 73
     3
 74
     0
 42
0.0000000001
 43
0.0000000001
 40
0.0
 40
0.0
 40
0.0
 40
0.3456699723273154
 40
0.3456699723273154
 40
0.3456699723273154
 10
7.196610220464978
 20
0.22
 30
0.0
 41
0.9999999292147955
 10
7.196604069300359
 20
-0.0000445713233525
 30
0.0
 41
0.707176459975526
 10
7.416648708418602
 20
-0.0000000000000001
 30
0.0
 41
1.0
  0
SPLINE
  5
5D
330
1F
100
AcDbEntity
  8
WOOD B - 2D
 62
     7
100
AcDbSpline
210
0.0
220
0.0
230
1.0
 70
    28
 71
     3
 72
    11
 73
     7
 74
     0
 42
0.0000000001
 43
0.0000000001
 40
0.2905879006863338
 40
0.2905879006863338
 40
0.2905879006863338
 40
0.2905879006863338
 40
0.360855055839873
 40
0.4359674364246133
 40
0.5062873544361419
 40
0.5811758012481886
 40
0.5811758012481886
 40
0.5811758012481886
 40
0.5811758012481886
 10
7.416648708418602
 20
-0.0000000000000001
 30
0.0
 41
1.0
 10
7.416614776061556
 20
0.0
 30
0.0
 41
1.0
 10
7.435873387671425
 20
0.0
 30
0.0
 41
1.0
 10
7.507427438253805
 20
0.0
 30
0.0
 41
1.0
 10
7.580781660563413
 20
0.0
 30
0.0
 41
1.0
 10
7.601751697410063
 20
0.0
 30
0.0
 41
1.0
 10
7.601704944109692
 20
0.0000000000003563
 30
0.0
 41
1.0
  0
SPLINE
  5
5E
330
1F
100
AcDbEntity
  8
WOOD B - 2D
 62
     7
100
AcDbSpline
210
0.0
220
0.0
230
1.0
 70
    12
 71
     2
 72
     6
 73
     3
 74
     0
 42
0.0000000001
 43
0.0000000001
 40
0.0
 40
0.0
 40
0.0
 40
0.3455711248854073
 40
0.3455711248854073
 40
0.3455711248854073
 10
7.601704944109692
 20
0.0000000000003563
 30
0.0
 41
1.0
 10
7.821694495852365
 20
0.000011159205961
 30
0.0
 41
0.7071446834702688
 10
7.821706920929364
 20
0.2199999999999998
 30
0.0
 41
1.0
  0
SPLINE
  5
5F
330
1F
100
AcDbEntity
  8
WOOD B - 2D
 62
     7
100
AcDbSpline
210
0.0
220
0.0
230
1.0
 70
    24
 71
     2
 72
     6
 73
     3
 74
     0
 42
0.0000000001
 43
0.0000000001
 40
0.0
 40
0.0
 40
0.0
 40
0.0300000000000114
 40
0.0300000000000114
 40
0.0300000000000114
 10
6.25906568587772
 20
0.2500000000000111
 30
0.0
 10
6.259018632427707
 20
0.2350000000000055
 30
0.0
 10
6.258971578977693
 20
0.22
 30
0.0
  0
SPLINE
  5
60
330
1F
100
AcDbEntity
  8
WOOD B - 2D
 62
     7
100
AcDbSpline
210
0.0
220
0.0
230
1.0
 70
    12
 71
     2
 72
     6
 73
     3
 74
     0
 42
0.0000000001
 43
0.0000000001
 40
0.0
 40
0.0
 40
0.0
 40
0.3456699721523052
 40
0.3456699721523052
 40
0.3456699721523052
 10
6.258971578977693
 20
0.22
 30
0.0
 41
0.9999999292147955
 10
6.258965427812996
 20
-0.0000445711484011
 30
0.0
 41
0.7071764602565305
 10
6.479010066843821
 20
0.0000000000000002
 30
0.0
 41
1.0
  0
SPLINE
  5
61
330
1F
100
AcDbEntity
  8
WOOD B - 2D
 62
     7
100
AcDbSpline
210
0.0
220
0.0
230
1.0
 70
    28
 71
     3
 72
    11
 73
     7
 74
     0
 42
0.0000000001
 43
0.0000000001
 40
0.2905879006872004
 40
0.2905879006872004
 40
0.2905879006872004
 40
0.2905879006872004
 40
0.3608550104299992
 40
0.4359674064703898
 40
0.506287338951438
 40
0.5811758012481886
 40
0.5811758012481886
 40
0.5811758012481886
 40
0.5811758012481886
 10
6.479010066843821
 20
0.0000000000000002
 30
0.0
 41
1.0
 10
6.478976150436226
 20
0.0
 30
0.0
 41
1.0
 10
6.498234766044632
 20
0.0
 30
0.0
 41
1.0
 10
6.569788796766522
 20
0.0
 30
0.0
 41
1.0
 10
6.643143019101145
 20
0.0
 30
0.0
 41
1.0
 10
6.664113055944481
 20
0.0
 30
0.0
 41
1.0
 10
6.664066302622267
 20
0.0000000000003563
 30
0.0
 41
1.0
  0
SPLINE
  5
62
330
1F
100
AcDbEntity
  8
WOOD B - 2D
 62
     7
100
AcDbSpline
210
0.0
220
0.0
230
1.0
 70
    12
 71
     2
 72
     6
 73
     3
 74
     0
 42
0.0000000001
 43
0.0000000001
 40
0.0
 40
0.0
 40
0.0
 40
0.3455711248856935
 40
0.3455711248856935
 40
0.3455711248856935
 10
6.664066302622267
 20
0.0000000000003563
 30
0.0
 41
1.0
 10
6.884055854282877
 20
0.0000111592056634
 30
0.0
 41
0.7071446835471724
 10
6.884066823641703
 20
0.2199999999999998
 30
0.0
 41
0.9999999998452085
  0
SPLINE
  5
63
330
1F
100
AcDbEntity
  8
WOOD B - 2D
 62
     7
100
AcDbSpline
210
0.0
220
0.0
230
1.0
 70
    24
 71
     2
 72
     6
 73
     3
 74
     0
 42
0.0000000001
 43
0.0000000001
 40
0.0
 40
0.0
 40
0.0
 40
0.0300000000000114
 40
0.0300000000000114
 40
0.0300000000000114
 10
6.884066823641703
 20
0.2199999999999998
 30
0.0
 10
6.884066095741515
 20
0.2350000000000054
 30
0.0
 10
6.884065367841327
 20
0.2500000000000111
 30
0.0
  0
SPLINE
  5
64
330
1F
100
AcDbEntity
  8
WOOD B - 2D
 62
     7
100
AcDbSpline
210
0.0
220
0.0
230
1.0
 70
    24
 71
     2
 72
     6
 73
     3
 74
     0
 42
0.0000000001
 43
0.0000000001
 40
0.0
 40
0.0
 40
0.0
 40
0.0300000000000114
 40
0.0300000000000114
 40
0.0300000000000114
 10
7.821704009328611
 20
0.2199999999999998
 30
0.0
 10
7.821704088837699
 20
0.2350000000000054
 30
0.0
 10
7.821704168346785
 20
0.2500000000000111
 30
0.0
  0
SPLINE
  5
65
330
1F
100
AcDbEntity
  8
WOOD B - 2D
 62
     7
100
AcDbSpline
210
0.0
220
0.0
230
1.0
 70
    24
 71
     2
 72
     6
 73
     3
 74
     0
 42
0.0000000001
 43
0.0000000001
 40
-0.0300000000000114
 40
-0.0300000000000114
 40
-0.0300000000000114
 40
0.0
 40
0.0
 40
0.0
 10
7.821704168346785
 20
0.2500000000000111
 30
0.0
 10
7.821704247855871
 20
0.2350000000000054
 30
0.0
 10
7.821704327364959
 20
0.2199999999999998
 30
0.0
  0
LINE
  5
66
330
1F
100
AcDbEntity
  8
WOOD B - 2D
 62
     7
100
AcDbLine
 10
7.073017130315311
 20
0.2499999999999994
 30
0.0
 11
6.134462372007675
 21
0.2499999999999995
 31
0.0
  0
SPLINE
  5
67
330
1F
100
AcDbEntity
  8
WOOD B - 2D
 62
     7
100
AcDbSpline
210
0.0
220
0.0
230
1.0
 70
    12
 71
     2
 72
     6
 73
     3
 74
     0
 42
0.0000000001
 43
0.0000000001
 40
-0.188600019568006
 40
-0.188600019568006
 40
-0.188600019568006
 40
0.0
 40
0.0
 40
0.0
 10
6.134462372007675
 20
0.2499999999999995
 30
0.0
 41
1.0
 10
6.016981231534356
 20
0.250000000176476
 30
0.0
 41
0.7286825324569939
 10
6.009702515399757
 20
0.3672554420900305
 30
0.0
 41
1.0
  0
SPLINE
  5
68
330
1F
100
AcDbEntity
  8
WOOD B - 2D
 62
     7
100
AcDbSpline
210
0.0
220
0.0
230
1.0
 70
    24
 71
     2
 72
     6
 73
     3
 74
     0
 42
0.0000000001
 43
0.0000000001
 40
0.0
 40
0.0
 40
0.0
 40
11.03945383621473
 40
11.03945383621473
 40
11.03945383621473
 10
6.009702515399757
 20
0.3672554420900305
 30
0.0
 10
5.66771279917706
 20
5.876377721044903
 30
0.0
 10
5.325723082954363
 20
11.38549999999977
 30
0.0
  0
SPLINE
  5
69
330
1F
100
AcDbEntity
  8
WOOD B - 2D
 62
     7
100
AcDbSpline
210
0.0
220
0.0
230
1.0
 70
    24
 71
     2
 72
     6
 73
     3
 74
     0
 42
0.0000000001
 43
0.0000000001
 40
0.0
 40
0.0
 40
0.0
 40
0.6078518697588824
 40
0.6078518697588824
 40
0.6078518697588824
 10
-5.31384553992648
 20
11.76049999999999
 30
0.0
 10
-5.295681277553806
 20
12.06388265188503
 30
0.0
 10
-5.277517015181131
 20
12.36726530377007
 30
0.0
  0
SPLINE
  5
6A
330
1F
100
AcDbEntity
  8
WOOD B - 2D
 62
     7
100
AcDbSpline
210
0.0
220
0.0
230
1.0
 70
     8
 71
     3
 72
     8
 73
     4
 74
     0
 42
0.0000000001
 43
0.0000000001
 40
0.0
 40
0.0
 40
0.0
 40
0.0
 40
1.0
 40
1.0
 40
1.0
 40
1.0
 10
-5.277517015181131
 20
12.36726530377007
 30
0.0
 10
-5.257257354383637
 20
12.70564566257182
 30
0.0
 10
-5.667956570477345
 20
12.66008292576494
 30
0.0
 10
-5.688216231274739
 20
12.32170256696316
 30
0.0
  0
SPLINE
  5
6B
330
1F
100
AcDbEntity
  8
WOOD B - 2D
 62
     7
100
AcDbSpline
210
0.0
220
0.0
230
1.0
 70
    24
 71
     2
 72
     6
 73
     3
 74
     0
 42
0.0000000001
 43
0.0000000001
 40
0.0
 40
0.0
 40
0.0
 40
0.5622075414043417
 40
0.5622075414043417
 40
0.5622075414043417
 10
-5.688216231274739
 20
12.32170256696316
 30
0.0
 10
-5.705016517327927
 20
12.04110128348158
 30
0.0
 10
-5.721816803381114
 20
11.7605
 30
0.0
  0
SPLINE
  5
6C
330
1F
100
AcDbEntity
  8
WOOD B - 2D
 62
     7
100
AcDbSpline
210
0.0
220
0.0
230
1.0
 70
    24
 71
     2
 72
     6
 73
     3
 74
     0
 42
0.0000000001
 43
0.0000000001
 40
0.0
 40
0.0
 40
0.0
 40
0.6658081744361188
 40
0.6658081744361188
 40
0.6658081744361188
 10
-5.744268971763089
 20
11.38550000029871
 30
0.0
 10
-5.764165125697874
 20
11.05319099598933
 30
0.0
 10
-5.784061279632658
 20
10.72088199167995
 30
0.0
  0
SPLINE
  5
6D
330
1F
100
AcDbEntity
  8
WOOD B - 2D
 62
     7
100
AcDbSpline
210
0.0
220
0.0
230
1.0
 70
     8
 71
     3
 72
     8
 73
     4
 74
     0
 42
0.0000000001
 43
0.0000000001
 40
0.0
 40
0.0
 40
0.0
 40
0.0
 40
1.0
 40
1.0
 40
1.0
 40
1.0
 10
-5.784061279632658
 20
10.72088199167995
 30
0.0
 10
-5.804320940385309
 20
10.38250163362547
 30
0.0
 10
-5.39362172420434
 20
10.42806437190118
 30
0.0
 10
-5.373362063451589
 20
10.76644472995564
 30
0.0
  0
SPLINE
  5
6E
330
1F
100
AcDbEntity
  8
WOOD B - 2D
 62
     7
100
AcDbSpline
210
0.0
220
0.0
230
1.0
 70
    24
 71
     2
 72
     6
 73
     3
 74
     0
 42
0.0000000001
 43
0.0000000001
 40
0.0
 40
0.0
 40
0.0
 40
0.6201638443109704
 40
0.6201638443109704
 40
0.6201638443109704
 10
-5.373362063451589
 20
10.76644472995564
 30
0.0
 10
-5.35482988588902
 20
11.07597236497783
 30
0.0
 10
-5.336297708326451
 20
11.38550000000002
 30
0.0
  0
SPLINE
  5
6F
330
1F
100
AcDbEntity
  8
WOOD B - 2D
 62
     7
100
AcDbSpline
210
0.0
220
0.0
230
1.0
 70
    24
 71
     2
 72
     6
 73
     3
 74
     0
 42
0.0000000001
 43
0.0000000001
 40
0.0
 40
0.0
 40
0.0
 40
0.6078518697588824
 40
0.6078518697588824
 40
0.6078518697588824
 10
5.31384553992648
 20
11.76049999999999
 30
0.0
 10
5.295681277553806
 20
12.06388265188503
 30
0.0
 10
5.277517015181131
 20
12.36726530377007
 30
0.0
  0
SPLINE
  5
70
330
1F
100
AcDbEntity
  8
WOOD B - 2D
 62
     7
100
AcDbSpline
210
0.0
220
0.0
230
1.0
 70
     8
 71
     3
 72
     8
 73
     4
 74
     0
 42
0.0000000001
 43
0.0000000001
 40
0.0
 40
0.0
 40
0.0
 40
0.0
 40
1.0
 40
1.0
 40
1.0
 40
1.0
 10
5.277517015181131
 20
12.36726530377007
 30
0.0
 10
5.257257354383637
 20
12.70564566257182
 30
0.0
 10
5.667956570477345
 20
12.66008292576494
 30
0.0
 10
5.688216231274739
 20
12.32170256696316
 30
0.0
  0
SPLINE
  5
71
330
1F
100
AcDbEntity
  8
WOOD B - 2D
 62
     7
100
AcDbSpline
210
0.0
220
0.0
230
1.0
 70
    24
 71
     2
 72
     6
 73
     3
 74
     0
 42
0.0000000001
 43
0.0000000001
 40
0.0
 40
0.0
 40
0.0
 40
0.5622075414043417
 40
0.5622075414043417
 40
0.5622075414043417
 10
5.688216231274739
 20
12.32170256696316
 30
0.0
 10
5.705016517327927
 20
12.04110128348158
 30
0.0
 10
5.721816803381114
 20
11.7605
 30
0.0
  0
SPLINE
  5
72
330
1F
100
AcDbEntity
  8
WOOD B - 2D
 62
     7
100
AcDbSpline
210
0.0
220
0.0
230
1.0
 70
    24
 71
     2
 72
     6
 73
     3
 74
     0
 42
0.0000000001
 43
0.0000000001
 40
0.0
 40
0.0
 40
0.0
 40
0.6658081744361188
 40
0.6658081744361188
 40
0.6658081744361188
 10
5.744268971763089
 20
11.38550000029871
 30
0.0
 10
5.764165125697874
 20
11.05319099598933
 30
0.0
 10
5.784061279632658
 20
10.72088199167995
 30
0.0
  0
SPLINE
  5
73
330
1F
100
AcDbEntity
  8
WOOD B - 2D
 62
     7
100
AcDbSpline
210
0.0
220
0.0
230
1.0
 70
     8
 71
     3
 72
     8
 73
     4
 74
     0
 42
0.0000000001
 43
0.0000000001
 40
0.0
 40
0.0
 40
0.0
 40
0.0
 40
1.0
 40
1.0
 40
1.0
 40
1.0
 10
5.784061279632658
 20
10.72088199167995
 30
0.0
 10
5.804320940385309
 20
10.38250163362547
 30
0.0
 10
5.39362172420434
 20
10.42806437190118
 30
0.0
 10
5.373362063451589
 20
10.76644472995564
 30
0.0
  0
SPLINE
  5
74
330
1F
100
AcDbEntity
  8
WOOD B - 2D
 62
     7
100
AcDbSpline
210
0.0
220
0.0
230
1.0
 70
    24
 71
     2
 72
     6
 73
     3
 74
     0
 42
0.0000000001
 43
0.0000000001
 40
0.0
 40
0.0
 40
0.0
 40
0.6201638443109704
 40
0.6201638443109704
 40
0.6201638443109704
 10
5.373362063451589
 20
10.76644472995564
 30
0.0
 10
5.35482988588902
 20
11.07597236497783
 30
0.0
 10
5.336297708326451
 20
11.38550000000002
 30
0.0
  0
SPLINE
  5
75
330
1F
100
AcDbEntity
  8
WOOD B - 2D
 62
     7
100
AcDbSpline
210
0.0
220
0.0
230
1.0
 70
    24
 71
     2
 72
     6
 73
     3
 74
     0
 42
0.0000000001
 43
0.0000000001
 40
0.0
 40
0.0
 40
0.0
 40
14.44475543953741
 40
14.44475543953741
 40
14.44475543953741
 10
5.302444212548201
 20
11.76049999999975
 30
0.0
 10
4.854962128111435
 20
18.96900190477299
 30
0.0
 10
4.40748004367467
 20
26.17750380954624
 30
0.0
  0
SPLINE
  5
76
330
1F
100
AcDbEntity
  8
WOOD B - 2D
 62
     7
100
AcDbSpline
210
0.0
220
0.0
230
1.0
 70
    24
 71
     2
 72
     6
 73
     3
 74
     0
 42
0.0000000001
 43
0.0000000001
 40
0.0
 40
0.0
 40
0.0
 40
9.20332836999448
 40
9.20332836999448
 40
9.20332836999448
 10
26.80694968640913
 20
24.89999999998745
 30
0.0
 10
31.40861387140637
 20
24.89999999999108
 30
0.0
 10
36.01027805640361
 20
24.89999999999472
 30
0.0
  0
SPLINE
  5
77
330
1F
100
AcDbEntity
  8
WOOD B - 2D
 62
     7
100
AcDbSpline
210
0.0
220
0.0
230
1.0
 70
    12
 71
     2
 72
     6
 73
     3
 74
     0
 42
0.0000000001
 43
0.0000000001
 40
0.0
 40
0.0
 40
0.0
 40
0.2724044182056036
 40
0.2724044182056036
 40
0.2724044182056036
 10
36.01027805640361
 20
24.89999999999472
 30
0.0
 41
1.0
 10
36.17016938075628
 20
24.92889417260232
 30
0.0
 41
0.7741534033963837
 10
36.17360965140637
 20
25.09133885042153
 30
0.0
 41
1.0
  0
SPLINE
  5
78
330
1F
100
AcDbEntity
  8
WOOD B - 2D
 62
     7
100
AcDbSpline
210
0.0
220
0.0
230
1.0
 70
    12
 71
     2
 72
     6
 73
     3
 74
     0
 42
0.0000000001
 43
0.0000000001
 40
-1.923145650470831
 40
-1.923145650470831
 40
-1.923145650470831
 40
0.0
 40
0.0
 40
0.0
 10
36.17360965140637
 20
25.09133885042153
 30
0.0
 41
1.0
 10
36.07659019124355
 20
26.04800478377728
 30
0.0
 41
0.9999998495635791
 10
35.98059770958757
 20
27.00500165116139
 30
0.0
 41
1.0
  0
SPLINE
  5
79
330
1F
100
AcDbEntity
  8
WOOD B - 2D
 62
     7
100
AcDbSpline
210
0.0
220
0.0
230
1.0
 70
    12
 71
     3
 72
    12
 73
     8
 74
     0
 42
0.0000000001
 43
0.0000000001
 40
0.0
 40
0.0
 40
0.0
 40
0.0
 40
0.5005731009593293
 40
0.5005731009593293
 40
0.7518287650615413
 40
0.7518287650615413
 40
1.0
 40
1.0
 40
1.0
 40
1.0
 10
35.98059770958757
 20
27.00500165116139
 30
0.0
 41
1.0
 10
34.63959807585351
 20
26.7979855960676
 30
0.0
 41
1.0
 10
33.11216111767742
 20
26.64806625372406
 30
0.0
 41
1.0
 10
30.5516590120696
 20
26.63012830784842
 30
0.0
 41
1.0
 10
29.7141703473944
 20
26.65496133676055
 30
0.0
 41
1.0
 10
28.09731362159305
 20
26.84449234907984
 30
0.0
 41
1.0
 10
27.42962390132246
 20
27.00946172826919
 30
0.0
 41
1.0
 10
26.92304652333624
 20
27.21454242889127
 30
0.0
 41
1.0
  0
SPLINE
  5
7A
330
1F
100
AcDbEntity
  8
WOOD B - 2D
 62
     7
100
AcDbSpline
210
0.0
220
0.0
230
1.0
 70
    12
 71
     2
 72
     6
 73
     3
 74
     0
 42
0.0000000001
 43
0.0000000001
 40
-2.149346551438081
 40
-2.149346551438081
 40
-2.149346551438081
 40
0.0
 40
0.0
 40
0.0
 10
26.92304652333624
 20
27.21454242889127
 30
0.0
 41
1.0
 10
26.76539250753437
 20
26.15149590774756
 30
0.0
 41
0.9999999706021243
 10
26.60825404178985
 20
25.08837305623981
 30
0.0
 41
1.0
  0
SPLINE
  5
7B
330
1F
100
AcDbEntity
  8
WOOD B - 2D
 62
     7
100
AcDbSpline
210
0.0
220
0.0
230
1.0
 70
    12
 71
     3
 72
    10
 73
     6
 74
     0
 42
0.0000000001
 43
0.0000000001
 40
0.0
 40
0.0
 40
0.0
 40
0.0
 40
0.499936857110072
 40
0.499936857110072
 40
1.0
 40
1.0
 40
1.0
 40
1.0
 10
26.60825404178985
 20
25.08837305623981
 30
0.0
 41
1.0
 10
26.60182251809245
 20
25.04486894314674
 30
0.0
 41
1.0
 10
26.63107358893527
 20
24.99262293567721
 30
0.0
 41
1.0
 10
26.71967263323563
 20
24.91843471341744
 30
0.0
 41
1.0
 10
26.77134411196169
 20
24.89999999784454
 30
0.0
 41
1.0
 10
26.80694968640913
 20
24.89999999998745
 30
0.0
 41
1.0
  0
SPLINE
  5
7C
330
1F
100
AcDbEntity
  8
WOOD B - 2D
 62
     7
100
AcDbSpline
210
0.0
220
0.0
230
1.0
 70
    24
 71
     2
 72
     6
 73
     3
 74
     0
 42
0.0000000001
 43
0.0000000001
 40
0.0
 40
0.0
 40
0.0
 40
0.0300000000000114
 40
0.0300000000000114
 40
0.0300000000000114
 10
22.04338689118531
 20
0.2500000000000111
 30
0.0
 10
22.04333697490485
 20
0.2350000000000054
 30
0.0
 10
22.0432870586244
 20
0.2199999999999998
 30
0.0
  0
SPLINE
  5
7D
330
1F
100
AcDbEntity
  8
WOOD B - 2D
 62
     7
100
AcDbSpline
210
0.0
220
0.0
230
1.0
 70
    12
 71
     2
 72
     6
 73
     3
 74
     0
 42
0.0000000001
 43
0.0000000001
 40
0.0
 40
0.0
 40
0.0
 40
0.345675601487819
 40
0.345675601487819
 40
0.345675601487819
 10
22.0432870586244
 20
0.2199999999999997
 30
0.0
 41
0.9999999214462855
 10
22.04327923992112
 20
-0.0000478839386404
 30
0.0
 41
0.7071776538702471
 10
22.26332709614243
 20
0.0000000000010971
 30
0.0
 41
1.0
  0
POLYLINE
  5
7E
330
1F
100
AcDbEntity
  8
WOOD B - 2D
 62
     7
100
AcDb2dPolyline
 66
     1
 10
0.0
 20
0.0
 30
0.0
  0
VERTEX
  5
7F
330
7E
100
AcDbEntity
  8
WOOD B - 2D
 62
     7
100
AcDbVertex
100
AcDb2dVertex
 10
22.26332709614243
 20
0.0000000000010971
 30
0.0
  0
VERTEX
  5
80
330
7E
100
AcDbEntity
  8
WOOD B - 2D
 62
     7
100
AcDbVertex
100
AcDb2dVertex
 10
22.4484501790641
 20
0.0000000000004965
 30
0.0
  0
SEQEND
  5
81
330
7E
100
AcDbEntity
  8
WOOD B - 2D
 62
     7
  0
SPLINE
  5
82
330
1F
100
AcDbEntity
  8
WOOD B - 2D
 62
     7
100
AcDbSpline
210
0.0
220
0.0
230
1.0
 70
    12
 71
     2
 72
     6
 73
     3
 74
     0
 42
0.0000000001
 43
0.0000000001
 40
0.0
 40
0.0
 40
0.0
 40
0.3456871564076135
 40
0.3456871564076135
 40
0.3456871564076135
 10
22.4484501790641
 20
0.0000000000004965
 30
0.0
 41
1.0
 10
22.66851288364627
 20
-0.0000627382120258
 30
0.0
 41
0.7071445064902965
 10
22.66849300616022
 20
0.2199999999999998
 30
0.0
 41
0.9999999217426843
  0
SPLINE
  5
83
330
1F
100
AcDbEntity
  8
WOOD B - 2D
 62
     7
100
AcDbSpline
210
0.0
220
0.0
230
1.0
 70
    24
 71
     2
 72
     6
 73
     3
 74
     0
 42
0.0000000001
 43
0.0000000001
 40
0.0
 40
0.0
 40
0.0
 40
0.0300000000000114
 40
0.0300000000000114
 40
0.0300000000000114
 10
22.66849300616022
 20
0.2199999999999998
 30
0.0
 10
22.66843994867274
 20
0.2350000000000054
 30
0.0
 10
22.66838689118526
 20
0.2500000000000111
 30
0.0
  0
SPLINE
  5
84
330
1F
100
AcDbEntity
  8
WOOD B - 2D
 62
     7
100
AcDbSpline
210
0.0
220
0.0
230
1.0
 70
    24
 71
     2
 72
     6
 73
     3
 74
     0
 42
0.0000000001
 43
0.0000000001
 40
0.0
 40
0.0
 40
0.0
 40
0.0300000000000114
 40
0.0300000000000114
 40
0.0300000000000114
 10
38.64887633807956
 20
0.2500000000000111
 30
0.0
 10
38.64882642179911
 20
0.2350000000000054
 30
0.0
 10
38.64877650551865
 20
0.2199999999999998
 30
0.0
  0
SPLINE
  5
85
330
1F
100
AcDbEntity
  8
WOOD B - 2D
 62
     7
100
AcDbSpline
210
0.0
220
0.0
230
1.0
 70
    12
 71
     2
 72
     6
 73
     3
 74
     0
 42
0.0000000001
 43
0.0000000001
 40
0.0
 40
0.0
 40
0.0
 40
0.3456756014878374
 40
0.3456756014878374
 40
0.3456756014878374
 10
38.64877650551865
 20
0.2199999999999997
 30
0.0
 41
0.9999999214462855
 10
38.64876868681535
 20
-0.000047883938671
 30
0.0
 41
0.7071776538701636
 10
38.86881654303669
 20
0.0000000000010948
 30
0.0
 41
1.0
  0
POLYLINE
  5
86
330
1F
100
AcDbEntity
  8
WOOD B - 2D
 62
     7
100
AcDb2dPolyline
 66
     1
 10
0.0
 20
0.0
 30
0.0
  0
VERTEX
  5
87
330
86
100
AcDbEntity
  8
WOOD B - 2D
 62
     7
100
AcDbVertex
100
AcDb2dVertex
 10
38.86881654303669
 20
0.0000000000010948
 30
0.0
  0
VERTEX
  5
88
330
86
100
AcDbEntity
  8
WOOD B - 2D
 62
     7
100
AcDbVertex
100
AcDb2dVertex
 10
39.05393962595831
 20
0.0000000000004965
 30
0.0
  0
SEQEND
  5
89
330
86
100
AcDbEntity
  8
WOOD B - 2D
 62
     7
  0
SPLINE
  5
8A
330
1F
100
AcDbEntity
  8
WOOD B - 2D
 62
     7
100
AcDbSpline
210
0.0
220
0.0
230
1.0
 70
    12
 71
     2
 72
     6
 73
     3
 74
     0
 42
0.0000000001
 43
0.0000000001
 40
0.0
 40
0.0
 40
0.0
 40
0.3456871564076633
 40
0.3456871564076633
 40
0.3456871564076633
 10
39.05393962595831
 20
0.0000000000004965
 30
0.0
 41
1.0
 10
39.27400233054051
 20
-0.0000627382120684
 30
0.0
 41
0.7071445064902478
 10
39.27398245305448
 20
0.2199999999999998
 30
0.0
 41
0.9999999217426843
  0
SPLINE
  5
8B
330
1F
100
AcDbEntity
  8
WOOD B - 2D
 62
     7
100
AcDbSpline
210
0.0
220
0.0
230
1.0
 70
    24
 71
     2
 72
     6
 73
     3
 74
     0
 42
0.0000000001
 43
0.0000000001
 40
0.0
 40
0.0
 40
0.0
 40
0.0300000000000114
 40
0.0300000000000114
 40
0.0300000000000114
 10
39.27398245305447
 20
0.2199999999999998
 30
0.0
 10
39.273929395567
 20
0.2350000000000054
 30
0.0
 10
39.27387633807952
 20
0.2500000000000111
 30
0.0
  0
LINE
  5
8C
330
1F
100
AcDbEntity
  8
WOOD B - 2D
 62
     7
100
AcDbLine
 10
24.74325753665951
 20
11.38550000000001
 30
0.0
 11
37.26156490977819
 21
11.38549999999998
 31
0.0
  0
LINE
  5
8D
330
1F
100
AcDbEntity
  8
WOOD B - 2D
 62
     7
100
AcDbLine
 10
37.22357939652899
 20
11.76049999999998
 30
0.0
 11
24.80562175155805
 21
11.76050000000001
 31
0.0
  0
SPLINE
  5
8E
330
1F
100
AcDbEntity
  8
WOOD B - 2D
 62
     7
100
AcDbSpline
210
0.0
220
0.0
230
1.0
 70
     8
 71
     3
 72
    11
 73
     7
 74
     0
 42
0.0000000001
 43
0.0000000001
 40
0.0
 40
0.0
 40
0.0
 40
0.0
 40
1.000008318864469
 40
2.000016637728937
 40
3.000024956593406
 40
4.0
 40
4.0
 40
4.0
 40
4.0
 10
35.98050162989075
 20
27.00540207381048
 30
0.0
 10
36.08421852403238
 20
27.04975368557018
 30
0.0
 10
36.2990341356177
 20
27.11848071541511
 30
0.0
 10
36.63723069853071
 20
27.16590621758801
 30
0.0
 10
36.96866779323314
 20
27.15304732604834
 30
0.0
 10
37.2058078365102
 20
27.07935613913357
 30
0.0
 10
37.23996089296956
 20
26.96334164527445
 30
0.0
  0
SPLINE
  5
8F
330
1F
100
AcDbEntity
  8
WOOD B - 2D
 62
     7
100
AcDbSpline
210
0.0
220
0.0
230
1.0
 70
    24
 71
     2
 72
     6
 73
     3
 74
     0
 42
0.0000000001
 43
0.0000000001
 40
-26.67626630653086
 40
-26.67626630653086
 40
-26.67626630653086
 40
0.0
 40
0.0
 40
0.0
 10
37.23996089296956
 20
26.96334164527445
 30
0.0
 10
38.37352506561862
 20
13.67346744911267
 30
0.0
 10
39.50708923826767
 20
0.3835932529508836
 30
0.0
  0
SPLINE
  5
90
330
1F
100
AcDbEntity
  8
WOOD B - 2D
 62
     7
100
AcDbSpline
210
0.0
220
0.0
230
1.0
 70
    12
 71
     2
 72
     8
 73
     5
 74
     0
 42
0.0000000001
 43
0.0000000001
 40
-0.2049377434706386
 40
-0.2049377434706386
 40
-0.2049377434706386
 40
-0.1024688717353193
 40
-0.1024688717353193
 40
0.0
 40
0.0
 40
0.0
 10
39.50708923826767
 20
0.3835932529508836
 30
0.0
 41
1.0
 10
39.51080739265443
 20
0.329408541845089
 30
0.0
 41
0.9171600662025758
 10
39.473749092133
 20
0.2897053032216784
 30
0.0
 41
1.0
 10
39.4366907916116
 20
0.2500020645982678
 30
0.0
 41
0.9171600662025758
 10
39.38237997509719
 20
0.2500000000020712
 30
0.0
 41
1.0
  0
POLYLINE
  5
91
330
1F
100
AcDbEntity
  8
WOOD B - 2D
 62
     7
100
AcDb2dPolyline
 66
     1
 10
0.0
 20
0.0
 30
0.0
  0
VERTEX
  5
92
330
91
100
AcDbEntity
  8
WOOD B - 2D
 62
     7
100
AcDbVertex
100
AcDb2dVertex
 10
39.38237997509719
 20
0.2500000000020712
 30
0.0
  0
VERTEX
  5
93
330
91
100
AcDbEntity
  8
WOOD B - 2D
 62
     7
100
AcDbVertex
100
AcDb2dVertex
 10
38.50248798610879
 20
0.2500000000029887
 30
0.0
  0
SEQEND
  5
94
330
91
100
AcDbEntity
  8
WOOD B - 2D
 62
     7
  0
SPLINE
  5
95
330
1F
100
AcDbEntity
  8
WOOD B - 2D
 62
     7
100
AcDbSpline
210
0.0
220
0.0
230
1.0
 70
    12
 71
     2
 72
     6
 73
     3
 74
     0
 42
0.0000000001
 43
0.0000000001
 40
-0.1835763279795626
 40
-0.1835763279795626
 40
-0.1835763279795626
 40
0.0
 40
0.0
 40
0.0
 10
38.50248798610879
 20
0.2500000000029887
 30
0.0
 41
1.0
 10
38.38979977992746
 20
0.2503279807371322
 30
0.0
 41
0.7436623081535678
 10
38.37804333148215
 20
0.3634188873338486
 30
0.0
 41
1.0
  0
SPLINE
  5
96
330
1F
100
AcDbEntity
  8
WOOD B - 2D
 62
     7
100
AcDbSpline
210
0.0
220
0.0
230
1.0
 70
    24
 71
     2
 72
     6
 73
     3
 74
     0
 42
0.0000000001
 43
0.0000000001
 40
-24.65891496027552
 40
-24.65891496027552
 40
-24.65891496027552
 40
0.0
 40
0.0
 40
0.0
 10
38.37804333148215
 20
0.3634188873338486
 30
0.0
 10
37.13544203444271
 20
12.63060831117426
 30
0.0
 10
35.89284073740328
 20
24.89779773501466
 30
0.0
  0
SPLINE
  5
97
330
1F
100
AcDbEntity
  8
WOOD B - 2D
 62
     7
100
AcDbSpline
210
0.0
220
0.0
230
1.0
 70
    24
 71
     2
 72
     6
 73
     3
 74
     0
 42
0.0000000001
 43
0.0000000001
 40
-24.88260478706236
 40
-24.88260478706236
 40
-24.88260478706236
 40
0.0
 40
0.0
 40
0.0
 10
26.99078068931379
 20
24.89999999998658
 30
0.0
 10
24.9497669167763
 20
12.62725406793459
 30
0.0
 10
22.90875314423882
 20
0.3545081358825983
 30
0.0
  0
SPLINE
  5
98
330
1F
100
AcDbEntity
  8
WOOD B - 2D
 62
     7
100
AcDbSpline
210
0.0
220
0.0
230
1.0
 70
    12
 71
     2
 72
     6
 73
     3
 74
     0
 42
0.0000000001
 43
0.0000000001
 40
-0.1755160198333342
 40
-0.1755160198333342
 40
-0.1755160198333342
 40
0.0
 40
0.0
 40
0.0
 10
22.90875314423882
 20
0.3545081358825983
 30
0.0
 41
1.0
 10
22.89093718734257
 20
0.2505460332210041
 30
0.0
 41
0.7660726023093509
 10
22.78546311069598
 20
0.2500000000002318
 30
0.0
 41
1.0
  0
POLYLINE
  5
99
330
1F
100
AcDbEntity
  8
WOOD B - 2D
 62
     7
100
AcDb2dPolyline
 66
     1
 10
0.0
 20
0.0
 30
0.0
  0
VERTEX
  5
9A
330
99
100
AcDbEntity
  8
WOOD B - 2D
 62
     7
100
AcDbVertex
100
AcDb2dVertex
 10
22.78546311069598
 20
0.2500000000002318
 30
0.0
  0
VERTEX
  5
9B
330
99
100
AcDbEntity
  8
WOOD B - 2D
 62
     7
100
AcDbVertex
100
AcDb2dVertex
 10
21.90766583222749
 20
0.250000000000603
 30
0.0
  0
SEQEND
  5
9C
330
99
100
AcDbEntity
  8
WOOD B - 2D
 62
     7
  0
SPLINE
  5
9D
330
1F
100
AcDbEntity
  8
WOOD B - 2D
 62
     7
100
AcDbSpline
210
0.0
220
0.0
230
1.0
 70
    12
 71
     2
 72
     8
 73
     5
 74
     0
 42
0.0000000001
 43
0.0000000001
 40
-0.2143379841393021
 40
-0.2143379841393021
 40
-0.2143379841393021
 40
-0.1071689920696511
 40
-0.1071689920696511
 40
0.0
 40
0.0
 40
0.0
 10
21.90766583222749
 20
0.250000000000603
 30
0.0
 41
1.0
 10
21.85053860042681
 20
0.2500063971681453
 30
0.0
 41
0.9095216149248996
 10
21.81315599854025
 20
0.2932043338124469
 30
0.0
 41
1.0
 10
21.7757733966537
 20
0.3364022704567485
 30
0.0
 41
0.9095216149248996
 10
21.78396073644701
 20
0.3929417761700879
 30
0.0
 41
1.0
  0
SPLINE
  5
9E
330
1F
100
AcDbEntity
  8
WOOD B - 2D
 62
     7
100
AcDbSpline
210
0.0
220
0.0
230
1.0
 70
    24
 71
     2
 72
     6
 73
     3
 74
     0
 42
0.0000000001
 43
0.0000000001
 40
-27.3584057549409
 40
-27.3584057549409
 40
-27.3584057549409
 40
0.0
 40
0.0
 40
0.0
 10
21.78396073644701
 20
0.3929417761700879
 30
0.0
 10
23.81938890860719
 20
13.92048803700983
 30
0.0
 10
25.85481708076738
 20
27.44803429784957
 30
0.0
  0
SPLINE
  5
9F
330
1F
100
AcDbEntity
  8
WOOD B - 2D
 62
     7
100
AcDbSpline
210
0.0
220
0.0
230
1.0
 70
     8
 71
     3
 72
    11
 73
     7
 74
     0
 42
0.0000000001
 43
0.0000000001
 40
0.0
 40
0.0
 40
0.0
 40
0.0
 40
1.0
 40
2.0
 40
3.0
 40
4.0
 40
4.0
 40
4.0
 40
4.0
 10
25.85481708076738
 20
27.44803429784957
 30
0.0
 10
25.87844456331013
 20
27.56321652623658
 30
0.0
 10
26.10875222281578
 20
27.59651598215117
 30
0.0
 10
26.39056756608548
 20
27.50452174947509
 30
0.0
 10
26.66597760071476
 20
27.37663519929684
 30
0.0
 10
26.83805626835228
 20
27.27292449156428
 30
0.0
 10
26.92135746297291
 20
27.21649579447873
 30
0.0
  0
LINE
  5
A0
330
1F
100
AcDbEntity
  8
WOOD B - 2D
 62
     7
100
AcDbLine
 10
6.070314115691138
 20
11.3855
 30
0.0
 11
-6.070314115691138
 21
11.3855
 31
0.0
  0
LINE
  5
A1
330
1F
100
AcDbEntity
  8
WOOD B - 2D
 62
     7
100
AcDbLine
 10
-6.0404344492972
 20
11.7605
 30
0.0
 11
6.0404344492972
 21
11.7605
 31
0.0
  0
LINE
  5
A2
330
1F
100
AcDbEntity
  8
WOOD B - 2D
 62
     7
100
AcDbLine
 10
-6.970308539881021
 20
48.73235093730373
 30
0.0
 11
-7.113211489180568
 21
48.58901890948251
 31
0.0
  0
ARC
  5
A3
330
1F
100
AcDbEntity
  8
WOOD B - 2D
 62
     7
100
AcDbCircle
 10
-7.513513111561233
 20
48.9881221895878
 30
0.0
 40
0.5652652625727066
100
AcDbArc
 50
146.1383771601136
 51
315.0858887694441
  0
LINE
  5
A4
330
1F
100
AcDbEntity
  8
WOOD B - 2D
 62
     7
100
AcDbLine
 10
-7.982901291513666
 20
49.3030817958746
 30
0.0
 11
-7.842583785995866
 21
49.51219870234701
 31
0.0
  0
LINE
  5
A5
330
1F
100
AcDbEntity
  8
WOOD B - 2D
 62
     7
100
AcDbLine
 10
-6.688780036649371
 20
63.99594243757521
 30
0.0
 11
-7.11772705339906
 21
65.42857103833325
 31
0.0
  0
ARC
  5
A6
330
1F
100
AcDbEntity
  8
WOOD B - 2D
 62
     7
100
AcDbCircle
 10
-6.573608041190955
 20
65.58184327329352
 30
0.0
 40
0.565294505064434
100
AcDbArc
 50
21.86485343750055
 51
195.7319339353907
  0
LINE
  5
A7
330
1F
100
AcDbEntity
  8
WOOD B - 2D
 62
     7
100
AcDbLine
 10
-6.048978064923958
 20
65.79236943665127
 30
0.0
 11
-5.607051752197119
 21
64.69109163222157
 31
0.0
  0
LINE
  5
A8
330
1F
100
AcDbEntity
  8
WOOD B - 2D
 62
     7
100
AcDbLine
 10
6.970308539881021
 20
48.73235093730373
 30
0.0
 11
7.113211489180568
 21
48.58901890948251
 31
0.0
  0
ARC
  5
A9
330
1F
100
AcDbEntity
  8
WOOD B - 2D
 62
     7
100
AcDbCircle
 10
7.513513111561233
 20
48.9881221895878
 30
0.0
 40
0.5652652625727066
100
AcDbArc
 50
224.9141112305559
 51
33.8616228398864
  0
LINE
  5
AA
330
1F
100
AcDbEntity
  8
WOOD B - 2D
 62
     7
100
AcDbLine
 10
7.982901291513666
 20
49.3030817958746
 30
0.0
 11
7.842583785995866
 21
49.51219870234701
 31
0.0
  0
LINE
  5
AB
330
1F
100
AcDbEntity
  8
WOOD B - 2D
 62
     7
100
AcDbLine
 10
6.688780036649371
 20
63.99594243757521
 30
0.0
 11
7.11772705339906
 21
65.42857103833325
 31
0.0
  0
ARC
  5
AC
330
1F
100
AcDbEntity
  8
WOOD B - 2D
 62
     7
100
AcDbCircle
 10
6.573608041190955
 20
65.58184327329352
 30
0.0
 40
0.565294505064434
100
AcDbArc
 50
344.2680660646093
 51
158.1351465624995
  0
LINE
  5
AD
330
1F
100
AcDbEntity
  8
WOOD B - 2D
 62
     7
100
AcDbLine
 10
6.048978064923958
 20
65.79236943665127
 30
0.0
 11
5.607051752197119
 21
64.69109163222157
 31
0.0
  0
SPLINE
  5
AE
330
1F
100
AcDbEntity
  8
WOOD B - 2D
 62
     7
100
AcDbSpline
210
0.0
220
0.0
230
1.0
 70
     8
 71
     3
 72
    24
 73
    20
 74
     0
 42
0.0000000001
 43
0.0000000001
 40
0.0
 40
0.0
 40
0.0
 40
0.0
 40
1.0
 40
2.0
 40
3.0
 40
4.0
 40
5.0
 40
6.0
 40
7.0
 40
8.0
 40
9.0
 40
10.0
 40
11.0
 40
12.0
 40
13.0
 40
14.0
 40
15.0
 40
16.0
 40
17.0
 40
17.0
 40
17.0
 40
17.0
 10
40.48845185245378
 20
28.00387128472585
 30
0.0
 10
40.621973721585
 20
28.1431022882396
 30
0.0
 10
40.78362936343836
 20
28.50771492785433
 30
0.0
 10
40.72866873627044
 20
29.09638703987502
 30
0.0
 10
40.40129268451854
 20
29.59948336794371
 30
0.0
 10
39.85084344077399
 20
29.81841745693441
 30
0.0
 10
39.27527704332936
 20
29.8602907876175
 30
0.0
 10
38.70078866893912
 20
29.88281698666588
 30
0.0
 10
38.12526377155924
 20
29.89696526604412
 30
0.0
 10
37.55004581109475
 20
29.87667159932063
 30
0.0
 10
36.97510856697473
 20
29.85350099920397
 30
0.0
 10
36.40029644778874
 20
29.82640171163102
 30
0.0
 10
35.82555748923433
 20
29.79810285748302
 30
0.0
 10
35.25079351015724
 20
29.77021878540289
 30
0.0
 10
34.67590489016548
 20
29.74503785391625
 30
0.0
 10
34.10092573208163
 20
29.72203986102008
 30
0.0
 10
33.52591794589057
 20
29.69978195844949
 30
0.0
 10
32.95092863028202
 20
29.67705150475502
 30
0.0
 10
32.5676495071485
 20
29.66073279088815
 30
0.0
 10
32.37603219208183
 20
29.65207297715511
 30
0.0
  0
SPLINE
  5
AF
330
1F
100
AcDbEntity
  8
WOOD B - 2D
 62
     7
100
AcDbSpline
210
0.0
220
0.0
230
1.0
 70
     8
 71
     3
 72
    85
 73
    81
 74
     0
 42
0.0000000001
 43
0.0000000001
 40
47.68730761333832
 40
47.68730761333832
 40
47.68730761333832
 40
47.68730761333832
 40
48.0
 40
49.0
 40
50.0
 40
51.0
 40
52.0
 40
53.0
 40
54.0
 40
55.0
 40
56.0
 40
57.0
 40
58.0
 40
59.0
 40
60.0
 40
61.0
 40
62.0
 40
63.0
 40
64.0
 40
65.0
 40
66.0
 40
67.0
 40
68.0
 40
69.0
 40
70.0
 40
71.0
 40
72.0
 40
73.0
 40
74.0
 40
75.0
 40
76.0
 40
77.0
 40
78.0
 40
79.0
 40
80.0
 40
81.0
 40
82.0
 40
83.0
 40
84.0
 40
85.0
 40
86.0
 40
87.0
 40
88.0
 40
89.0
 40
90.0
 40
91.0
 40
92.0
 40
93.0
 40
94.0
 40
95.0
 40
96.0
 40
97.0
 40
98.0
 40
99.0
 40
100.0
 40
100.0
 40
100.0
 40
101.0
 40
102.0
 40
103.0
 40
104.0
 40
105.0
 40
106.0
 40
107.0
 40
108.0
 40
109.0
 40
110.0
 40
111.0
 40
112.0
 40
113.0
 40
114.0
 40
115.0
 40
116.0
 40
117.0
 40
118.0
 40
119.0
 40
120.0
 40
121.0
 40
122.0
 40
122.0832465457796
 40
122.0832465457796
 40
122.0832465457796
 40
122.0832465457796
 10
25.70246742458405
 20
26.43556202631384
 30
0.0
 10
25.65930436337216
 20
26.45583800047465
 30
0.0
 10
25.47949569658074
 20
26.54390616660902
 30
0.0
 10
25.1742126432645
 20
26.72176820043047
 30
0.0
 10
24.80888979229517
 20
26.99876148863227
 30
0.0
 10
24.48233317205871
 20
27.32062874915053
 30
0.0
 10
24.1993356160814
 20
27.68119270230521
 30
0.0
 10
23.95850534460845
 20
28.0709118426551
 30
0.0
 10
23.75208533165724
 20
28.47974111037081
 30
0.0
 10
23.58454404986479
 20
28.90590423987311
 30
0.0
 10
23.44023042048997
 20
29.34017623328748
 30
0.0
 10
23.312592809743
 20
29.77962546514816
 30
0.0
 10
23.19497014386636
 20
30.22179705426415
 30
0.0
 10
23.08015274618596
 20
30.6647163037966
 30
0.0
 10
22.97398358978399
 20
31.10978756310737
 30
0.0
 10
22.87254943502476
 20
31.55596415587656
 30
0.0
 10
22.77514180823244
 20
32.00298067437102
 30
0.0
 10
22.68120132885156
 20
32.45094524125261
 30
0.0
 10
22.59095045256286
 20
32.89889923215088
 30
0.0
 10
22.49431952344919
 20
33.3484134926406
 30
0.0
 10
22.42943690236405
 20
33.79370660914622
 30
0.0
 10
22.25381964725511
 20
34.2562948236327
 30
0.0
 10
22.61025466079741
 20
34.66580367057913
 30
0.0
 10
23.08243467099751
 20
34.47839323350816
 30
0.0
 10
23.50709337001301
 20
34.34470235151887
 30
0.0
 10
23.90167141825649
 20
34.09969447669267
 30
0.0
 10
24.24798004351044
 20
33.80126404945831
 30
0.0
 10
24.56167457664336
 20
33.4671761359447
 30
0.0
 10
24.85414581441756
 20
33.11532554288769
 30
0.0
 10
25.13698632924351
 20
32.75562106661214
 30
0.0
 10
25.4159011513043
 20
32.39292662455195
 30
0.0
 10
25.6957224645254
 20
32.03091123118066
 30
0.0
 10
25.98163075544864
 20
31.67366002254722
 30
0.0
 10
26.27805701852162
 20
31.3250083542811
 30
0.0
 10
26.59177213319245
 20
30.9916460494089
 30
0.0
 10
26.93007609721193
 20
30.68290173952719
 30
0.0
 10
27.29755751764241
 20
30.40928687527316
 30
0.0
 10
27.69380975240681
 20
30.17857632790553
 30
0.0
 10
28.11797272967331
 20
30.00444621513981
 30
0.0
 10
28.55785291778313
 20
29.87755574010594
 30
0.0
 10
29.00416252999743
 20
29.77449812176731
 30
0.0
 10
29.45930439280406
 20
29.72327432930306
 30
0.0
 10
29.9148774575017
 20
29.68162716991863
 30
0.0
 10
30.37191913192025
 20
29.65738114164917
 30
0.0
 10
30.82946750982848
 20
29.6516452338239
 30
0.0
 10
31.28700309909298
 20
29.64982355357378
 30
0.0
 10
31.74455048135314
 20
29.64995847890442
 30
0.0
 10
32.20209665879705
 20
29.64981857557686
 30
0.0
 10
32.65963774753249
 20
29.64722317643526
 30
0.0
 10
33.11713728194618
 20
29.64006045828286
 30
0.0
 10
33.57447730858779
 20
29.62589031748173
 30
0.0
 10
34.03157956454567
 20
29.60562162364108
 30
0.0
 10
34.48850025499937
 20
29.58160264490335
 30
0.0
 10
34.9450605043369
 20
29.55139416605099
 30
0.0
 10
35.24906395277976
 20
29.5262537139649
 30
0.0
 10
35.40096626543738
 20
29.51258625696304
 30
0.0
 10
35.55286857809499
 20
29.49891879996118
 30
0.0
 10
35.85647438028261
 20
29.46938942403983
 30
0.0
 10
36.31108670298993
 20
29.41750363595851
 30
0.0
 10
36.76451094085696
 20
29.35591589495682
 30
0.0
 10
37.21579046387216
 20
29.28008408567345
 30
0.0
 10
37.66410044379906
 20
29.18811978640269
 30
0.0
 10
38.10772271271407
 20
29.07552338828535
 30
0.0
 10
38.54435490776624
 20
28.93807108738397
 30
0.0
 10
38.97242016617577
 20
28.77613894481327
 30
0.0
 10
39.38973784262159
 20
28.58725673563987
 30
0.0
 10
39.79037081185857
 20
28.36728329489922
 30
0.0
 10
40.19612565463985
 20
28.15074631362139
 30
0.0
 10
40.60001364652344
 20
27.955284372187
 30
0.0
 10
41.00597138978714
 20
27.67207737352797
 30
0.0
 10
40.89020619015344
 20
27.14194646345244
 30
0.0
 10
40.43215158617595
 20
26.97672693019117
 30
0.0
 10
40.02090372481203
 20
26.79404262779195
 30
0.0
 10
39.58133585852065
 20
26.65752630720609
 30
0.0
 10
39.14076327759847
 20
26.53647442125002
 30
0.0
 10
38.69472406953467
 20
26.43329230049655
 30
0.0
 10
38.24635574213963
 20
26.34223584402213
 30
0.0
 10
37.79591804249019
 20
26.26166983822968
 30
0.0
 10
37.482242896731
 20
26.21106049003488
 30
0.0
 10
37.31895944221307
 20
26.18589525610944
 30
0.0
 10
37.30641020981338
 20
26.18396809119906
 30
0.0
  0
SPLINE
  5
B0
330
1F
100
AcDbEntity
  8
WOOD B - 2D
 62
     7
100
AcDbSpline
210
0.0
220
0.0
230
1.0
 70
     8
 71
     3
 72
    51
 73
    47
 74
     0
 42
0.0000000001
 43
0.0000000001
 40
-43.65611613304807
 40
-43.65611613304807
 40
-43.65611613304807
 40
-43.65611613304807
 40
-43.0
 40
-42.0
 40
-41.0
 40
-40.0
 40
-39.0
 40
-38.0
 40
-37.0
 40
-36.0
 40
-35.0
 40
-34.0
 40
-33.0
 40
-32.0
 40
-31.0
 40
-30.0
 40
-29.0
 40
-28.0
 40
-27.0
 40
-26.0
 40
-25.0
 40
-24.0
 40
-23.0
 40
-22.0
 40
-21.0
 40
-20.0
 40
-19.0
 40
-18.0
 40
-17.0
 40
-16.0
 40
-15.0
 40
-14.0
 40
-13.0
 40
-12.0
 40
-11.0
 40
-10.0
 40
-9.0
 40
-8.0
 40
-7.0
 40
-6.0
 40
-5.0
 40
-4.0
 40
-3.0
 40
-2.0
 40
-1.0
 40
0.0
 40
0.0
 40
0.0
 40
0.0
 10
6.398624311195638
 20
26.75572894238851
 30
0.0
 10
6.479213414454627
 20
26.78468469138943
 30
0.0
 10
6.681890958832457
 20
26.85982948847692
 30
0.0
 10
7.003675285659519
 20
26.98891121641087
 30
0.0
 10
7.362045286656457
 20
27.14678613671117
 30
0.0
 10
7.714649974960011
 20
27.31715763957018
 30
0.0
 10
8.060786086502446
 20
27.50033401180153
 30
0.0
 10
8.399248825955587
 20
27.6973623485993
 30
0.0
 10
8.728706902985797
 20
27.9091270426019
 30
0.0
 10
9.047404442474694
 20
28.13685130602594
 30
0.0
 10
9.354579598064422
 20
28.37961570089714
 30
0.0
 10
9.641760432204766
 20
28.64770216754323
 30
0.0
 10
9.912929622142864
 20
28.92425679444391
 30
0.0
 10
10.11836039642719
 20
29.28968440880026
 30
0.0
 10
9.858813582643943
 20
29.67083849972511
 30
0.0
 10
9.442265929626721
 20
29.65496676877467
 30
0.0
 10
9.085317097922957
 20
29.83104482844034
 30
0.0
 10
8.793611675859493
 20
30.09547450198983
 30
0.0
 10
8.561532922777147
 20
30.41254248641186
 30
0.0
 10
8.365234557419072
 20
30.7515614593535
 30
0.0
 10
8.193031811769027
 20
31.10336424027976
 30
0.0
 10
8.028014066947419
 20
31.45841324141668
 30
0.0
 10
7.858532517956799
 20
31.8114007328367
 30
0.0
 10
7.679988257080446
 20
32.15993690071421
 30
0.0
 10
7.486247272039521
 20
32.50032005084954
 30
0.0
 10
7.275552208319125
 20
32.83051416677966
 30
0.0
 10
7.045029413077562
 20
33.1473096019351
 30
0.0
 10
6.788259487248729
 20
33.44353119659208
 30
0.0
 10
6.500059435273349
 20
33.70967635684352
 30
0.0
 10
6.179574612271189
 20
33.93605081065611
 30
0.0
 10
5.832605043816715
 20
34.11943356191425
 30
0.0
 10
5.463556028688783
 20
34.25283825761547
 30
0.0
 10
5.081570799909223
 20
34.34102062096895
 30
0.0
 10
4.694030215638056
 20
34.39842849727179
 30
0.0
 10
4.303998086093377
 20
34.43349618577471
 30
0.0
 10
3.913472192273591
 20
34.46173789188672
 30
0.0
 10
3.522588021805794
 20
34.4846307371991
 30
0.0
 10
3.131559548384061
 20
34.50477136388997
 30
0.0
 10
2.740386771669805
 20
34.52191631860328
 30
0.0
 10
2.34910273499007
 20
34.53628423523475
 30
0.0
 10
1.957730831972967
 20
34.54801630972146
 30
0.0
 10
1.566295670812684
 20
34.5573840848042
 30
0.0
 10
1.174816154031739
 20
34.5646334601159
 30
0.0
 10
0.7833067220361694
 20
34.57001732966396
 30
0.0
 10
0.3917786852919519
 20
34.57378668302461
 30
0.0
 10
0.1307527955948935
 20
34.57539085322829
 30
0.0
 10
0.0002393015893762
 20
34.57600761838523
 30
0.0
  0
SPLINE
  5
B1
330
1F
100
AcDbEntity
  8
WOOD B - 2D
 62
     7
100
AcDbSpline
210
0.0
220
0.0
230
1.0
 70
     8
 71
     3
 72
    51
 73
    47
 74
     0
 42
0.0000000001
 43
0.0000000001
 40
0.0
 40
0.0
 40
0.0
 40
0.0
 40
1.0
 40
2.0
 40
3.0
 40
4.0
 40
5.0
 40
6.0
 40
7.0
 40
8.0
 40
9.0
 40
10.0
 40
11.0
 40
12.0
 40
13.0
 40
14.0
 40
15.0
 40
16.0
 40
17.0
 40
18.0
 40
19.0
 40
20.0
 40
21.0
 40
22.0
 40
23.0
 40
24.0
 40
25.0
 40
26.0
 40
27.0
 40
28.0
 40
29.0
 40
30.0
 40
31.0
 40
32.0
 40
33.0
 40
34.0
 40
35.0
 40
36.0
 40
37.0
 40
38.0
 40
39.0
 40
40.0
 40
41.0
 40
42.0
 40
43.0
 40
43.65484633119725
 40
43.65484633119725
 40
43.65484633119725
 40
43.65484633119725
 10
0.0002393015893762
 20
34.57600761838523
 30
0.0
 10
-0.130274192416141
 20
34.57539085322829
 30
0.0
 10
-0.3913000821131994
 20
34.57378668302461
 30
0.0
 10
-0.7828281188574169
 20
34.57001732966396
 30
0.0
 10
-1.174337550852987
 20
34.5646334601159
 30
0.0
 10
-1.565817067633931
 20
34.5573840848042
 30
0.0
 10
-1.957252228794214
 20
34.54801630972146
 30
0.0
 10
-2.348624131811318
 20
34.53628423523475
 30
0.0
 10
-2.739908168491053
 20
34.52191631860328
 30
0.0
 10
-3.131080945205309
 20
34.50477136388997
 30
0.0
 10
-3.522109418627041
 20
34.4846307371991
 30
0.0
 10
-3.912993589094839
 20
34.46173789188672
 30
0.0
 10
-4.303519482914624
 20
34.43349618577471
 30
0.0
 10
-4.693551612459303
 20
34.39842849727179
 30
0.0
 10
-5.081092196730471
 20
34.34102062096895
 30
0.0
 10
-5.463077425510031
 20
34.25283825761547
 30
0.0
 10
-5.832126440637962
 20
34.11943356191425
 30
0.0
 10
-6.179096009092437
 20
33.93605081065611
 30
0.0
 10
-6.499580832094597
 20
33.70967635684352
 30
0.0
 10
-6.787780884069976
 20
33.44353119659208
 30
0.0
 10
-7.044550809898809
 20
33.1473096019351
 30
0.0
 10
-7.275073605140372
 20
32.83051416677966
 30
0.0
 10
-7.485768668860769
 20
32.50032005084954
 30
0.0
 10
-7.679509653901693
 20
32.15993690071421
 30
0.0
 10
-7.858053914778046
 20
31.8114007328367
 30
0.0
 10
-8.027535463768666
 20
31.45841324141668
 30
0.0
 10
-8.192553208590274
 20
31.10336424027976
 30
0.0
 10
-8.36475595424032
 20
30.7515614593535
 30
0.0
 10
-8.561054319598394
 20
30.41254248641186
 30
0.0
 10
-8.79313307268074
 20
30.09547450198983
 30
0.0
 10
-9.084838494744204
 20
29.83104482844034
 30
0.0
 10
-9.441787326447969
 20
29.65496676877467
 30
0.0
 10
-9.85833497946519
 20
29.67083849972511
 30
0.0
 10
-10.11788179324844
 20
29.28968440880026
 30
0.0
 10
-9.912451018964111
 20
28.92425679444391
 30
0.0
 10
-9.641281829026013
 20
28.64770216754323
 30
0.0
 10
-9.35410099488567
 20
28.37961570089714
 30
0.0
 10
-9.046925839295941
 20
28.13685130602594
 30
0.0
 10
-8.728228299807045
 20
27.9091270426019
 30
0.0
 10
-8.398770222776834
 20
27.6973623485993
 30
0.0
 10
-8.060307483323694
 20
27.50033401180153
 30
0.0
 10
-7.714171371781259
 20
27.31715763957018
 30
0.0
 10
-7.361566683477704
 20
27.14678613671117
 30
0.0
 10
-7.003196682480766
 20
26.98891121641087
 30
0.0
 10
-6.681566190167446
 20
26.85989119820978
 30
0.0
 10
-6.479045609923329
 20
26.78479992678814
 30
0.0
 10
-6.39861360448092
 20
26.7558970684163
 30
0.0
  0
SPLINE
  5
B2
330
1F
100
AcDbEntity
  8
WOOD B - 2D
 62
     7
100
AcDbSpline
210
0.0
220
0.0
230
1.0
 70
     8
 71
     3
 72
    17
 73
    13
 74
     0
 42
0.0000000001
 43
0.0000000001
 40
47.70315798345325
 40
47.70315798345325
 40
47.70315798345325
 40
47.70315798345325
 40
48.0
 40
49.0
 40
50.0
 40
51.0
 40
52.0
 40
53.0
 40
54.0
 40
55.0
 40
56.0
 40
57.0
 40
57.0
 40
57.0
 40
57.0
 10
-4.882264739087382
 20
26.29592471333627
 30
0.0
 10
-4.844775105502739
 20
26.2861521033618
 30
0.0
 10
-4.680889393230125
 20
26.24384260678783
 30
0.0
 10
-4.389903069964961
 20
26.17172697060281
 30
0.0
 10
-4.007615030719556
 20
26.08692423480287
 30
0.0
 10
-3.623022912735156
 20
26.01325326548137
 30
0.0
 10
-3.236718713071893
 20
25.94923872430615
 30
0.0
 10
-2.849030722466691
 20
25.89423604319115
 30
0.0
 10
-2.460276605277937
 20
25.84740435340492
 30
0.0
 10
-2.070705100908299
 20
25.80797898811116
 30
0.0
 10
-1.680511598002422
 20
25.77530010544414
 30
0.0
 10
-1.420051646631417
 20
25.75791362968795
 30
0.0
 10
-1.289760698380045
 20
25.75026735903844
 30
0.0
  0
SPLINE
  5
B3
330
1F
100
AcDbEntity
  8
WOOD B - 2D
 62
     7
100
AcDbSpline
210
0.0
220
0.0
230
1.0
 70
     8
 71
     3
 72
     8
 73
     4
 74
     0
 42
0.0000000001
 43
0.0000000001
 40
0.0
 40
0.0
 40
0.0
 40
0.0
 40
1.0
 40
1.0
 40
1.0
 40
1.0
 10
-1.289760698380045
 20
25.75026735903844
 30
0.0
 10
-0.5999932144037127
 20
25.70978757944902
 30
0.0
 10
0.6004718175824646
 20
25.70978757944902
 30
0.0
 10
1.290239301558797
 20
25.75026735903844
 30
0.0
  0
SPLINE
  5
B4
330
1F
100
AcDbEntity
  8
WOOD B - 2D
 62
     7
100
AcDbSpline
210
0.0
220
0.0
230
1.0
 70
     8
 71
     3
 72
    17
 73
    13
 74
     0
 42
0.0000000001
 43
0.0000000001
 40
-57.0
 40
-57.0
 40
-57.0
 40
-57.0
 40
-56.0
 40
-55.0
 40
-54.0
 40
-53.0
 40
-52.0
 40
-51.0
 40
-50.0
 40
-49.0
 40
-48.0
 40
-47.70439546773344
 40
-47.70439546773344
 40
-47.70439546773344
 40
-47.70439546773344
 10
1.290239301558797
 20
25.75026735903844
 30
0.0
 10
1.42053024981017
 20
25.75791362968795
 30
0.0
 10
1.680990201181175
 20
25.77530010544414
 30
0.0
 10
2.071183704087051
 20
25.80797898811116
 30
0.0
 10
2.460755208456689
 20
25.84740435340492
 30
0.0
 10
2.849509325645444
 20
25.89423604319115
 30
0.0
 10
3.237197316250645
 20
25.94923872430615
 30
0.0
 10
3.623501515913908
 20
26.01325326548137
 30
0.0
 10
4.008093633898309
 20
26.08692423480287
 30
0.0
 10
4.390381673143714
 20
26.17172697060281
 30
0.0
 10
4.681211219844274
 20
26.24380375258476
 30
0.0
 10
4.844940939303752
 20
26.28607135891254
 30
0.0
 10
4.882274477188689
 20
26.29580249684489
 30
0.0
  0
SPLINE
  5
B5
330
1F
100
AcDbEntity
  8
WOOD B - 2D
 62
     7
100
AcDbSpline
210
0.0
220
0.0
230
1.0
 70
     8
 71
     3
 72
    16
 73
    12
 74
     0
 42
0.0000000001
 43
0.0000000001
 40
-9.0
 40
-9.0
 40
-9.0
 40
-9.0
 40
-8.0
 40
-7.0
 40
-6.0
 40
-5.0
 40
-4.0
 40
-3.0
 40
-2.0
 40
-1.0
 40
0.0
 40
0.0
 40
0.0
 40
0.0
 10
-9.662923413614827
 20
29.6507965752277
 30
0.0
 10
-9.319761635549902
 20
29.52510140821461
 30
0.0
 10
-8.60459816870183
 20
29.36376597640668
 30
0.0
 10
-7.549186481801777
 20
29.06260372110911
 30
0.0
 10
-6.508539877109436
 20
28.71376953285566
 30
0.0
 10
-5.457849220491502
 20
28.39372779832849
 30
0.0
 10
-4.378817878343472
 20
28.18617654423305
 30
0.0
 10
-3.288875741200983
 20
28.05449735713842
 30
0.0
 10
-2.194235939805999
 20
27.97202379871576
 30
0.0
 10
-1.097296652865388
 20
27.93198284084186
 30
0.0
 10
-0.3655943368460645
 20
27.92600701327862
 30
0.0
 10
0.0002393015893585
 20
27.92600000000188
 30
0.0
  0
SPLINE
  5
B6
330
1F
100
AcDbEntity
  8
WOOD B - 2D
 62
     7
100
AcDbSpline
210
0.0
220
0.0
230
1.0
 70
     8
 71
     3
 72
    16
 73
    12
 74
     0
 42
0.0000000001
 43
0.0000000001
 40
0.0
 40
0.0
 40
0.0
 40
0.0
 40
1.0
 40
2.0
 40
3.0
 40
4.0
 40
5.0
 40
6.0
 40
7.0
 40
8.0
 40
9.0
 40
9.0
 40
9.0
 40
9.0
 10
0.0002393015893585
 20
27.92600000000188
 30
0.0
 10
0.3660729400247815
 20
27.92600701327862
 30
0.0
 10
1.097775256044105
 20
27.93198284084186
 30
0.0
 10
2.194714542984716
 20
27.97202379871576
 30
0.0
 10
3.2893543443797
 20
28.05449735713842
 30
0.0
 10
4.379296481522189
 20
28.18617654423305
 30
0.0
 10
5.458327823670219
 20
28.39372779832849
 30
0.0
 10
6.509018480288153
 20
28.71376953285566
 30
0.0
 10
7.549665084980494
 20
29.06260372110911
 30
0.0
 10
8.605076771880547
 20
29.36376597640668
 30
0.0
 10
9.32024023872862
 20
29.52510140821461
 30
0.0
 10
9.663402016793544
 20
29.6507965752277
 30
0.0
  0
SPLINE
  5
B7
330
1F
100
AcDbEntity
  8
WOOD B - 2D
 62
     7
100
AcDbSpline
210
0.0
220
0.0
230
1.0
 70
     8
 71
     3
 72
    16
 73
    12
 74
     0
 42
0.0000000001
 43
0.0000000001
 40
0.0
 40
0.0
 40
0.0
 40
0.0
 40
1.0
 40
2.0
 40
3.0
 40
4.0
 40
5.0
 40
6.0
 40
7.0
 40
8.0
 40
9.0
 40
9.0
 40
9.0
 40
9.0
 10
7.650074607377135
 20
29.11493023309798
 30
0.0
 10
7.600771329819921
 20
29.43149106774938
 30
0.0
 10
7.038598728865412
 20
29.7340472985999
 30
0.0
 10
6.16474116265234
 20
29.79856928380224
 30
0.0
 10
5.284914346318131
 20
29.86244007123416
 30
0.0
 10
4.404647435390271
 20
29.89139705779467
 30
0.0
 10
3.523652248227979
 20
29.89157725382875
 30
0.0
 10
2.642828723773921
 20
29.88670303958873
 30
0.0
 10
1.761973525680377
 20
29.88030967615035
 30
0.0
 10
0.8811081966857913
 20
29.87805601798727
 30
0.0
 10
0.2938620281671375
 20
29.87812474389641
 30
0.0
 10
0.0002393015893567
 20
29.87784611041153
 30
0.0
  0
SPLINE
  5
B8
330
1F
100
AcDbEntity
  8
WOOD B - 2D
 62
     7
100
AcDbSpline
210
0.0
220
0.0
230
1.0
 70
     8
 71
     3
 72
    16
 73
    12
 74
     0
 42
0.0000000001
 43
0.0000000001
 40
-9.0
 40
-9.0
 40
-9.0
 40
-9.0
 40
-8.0
 40
-7.0
 40
-6.0
 40
-5.0
 40
-4.0
 40
-3.0
 40
-2.0
 40
-1.0
 40
0.0
 40
0.0
 40
0.0
 40
0.0
 10
0.0002393015893567
 20
29.87784611041153
 30
0.0
 10
-0.2933834249884241
 20
29.87812474389641
 30
0.0
 10
-0.8806295935070779
 20
29.87805601798727
 30
0.0
 10
-1.761494922501663
 20
29.88030967615035
 30
0.0
 10
-2.642350120595208
 20
29.88670303958873
 30
0.0
 10
-3.523173645049266
 20
29.89157725382875
 30
0.0
 10
-4.404168832211558
 20
29.89139705779467
 30
0.0
 10
-5.284435743139418
 20
29.86244007123416
 30
0.0
 10
-6.164262559473626
 20
29.79856928380224
 30
0.0
 10
-7.038120125686699
 20
29.7340472985999
 30
0.0
 10
-7.600292726641207
 20
29.43149106774938
 30
0.0
 10
-7.649596004198422
 20
29.11493023309798
 30
0.0
  0
ENDSEC
  0
SECTION
  2
OBJECTS
  0
DICTIONARY
  5
C
330
0
100
AcDbDictionary
281
     1
  3
ACAD_GROUP
350
D
  3
ACAD_LAYOUT
350
1A
  3
ACAD_MLEADERSTYLE
350
BA
  3
ACAD_MLINESTYLE
350
17
  3
ACAD_PLOTSETTINGS
350
19
  3
ACAD_PLOTSTYLENAME
350
E
  3
ACAD_TABLESTYLE
350
B9
  3
ACAD_VISUALSTYLE
350
2A
  0
DICTIONARY
  5
D
102
{ACAD_REACTORS
330
C
102
}
330
C
100
AcDbDictionary
281
     1
  0
DICTIONARY
  5
1A
102
{ACAD_REACTORS
330
C
102
}
330
C
100
AcDbDictionary
281
     1
  3
Layout1
350
1E
  3
Layout2
350
26
  3
Model
350
22
  0
DICTIONARY
  5
BA
102
{ACAD_REACTORS
330
C
102
}
330
C
100
AcDbDictionary
281
     1
  0
DICTIONARY
  5
17
102
{ACAD_REACTORS
330
C
102
}
330
C
100
AcDbDictionary
281
     1
  3
Standard
350
18
  0
DICTIONARY
  5
19
102
{ACAD_REACTORS
330
C
102
}
330
C
100
AcDbDictionary
281
     1
  0
ACDBDICTIONARYWDFLT
  5
E
102
{ACAD_REACTORS
330
C
102
}
330
C
100
AcDbDictionary
281
     1
  3
Normal
350
F
100
AcDbDictionaryWithDefault
340
F
  0
DICTIONARY
  5
B9
102
{ACAD_REACTORS
330
C
102
}
330
C
100
AcDbDictionary
281
     1
  0
DICTIONARY
  5
2A
102
{ACAD_REACTORS
330
C
102
}
330
C
100
AcDbDictionary
281
     1
  3
2dWireframe
350
2F
  3
3D Hidden
350
31
  3
3dWireframe
350
30
  3
Basic
350
32
  3
Brighten
350
36
  3
ColorChange
350
3A
  3
Conceptual
350
34
  3
Dim
350
35
  3
Facepattern
350
39
  3
Flat
350
2B
  3
FlatWithEdges
350
2C
  3
Gouraud
350
2D
  3
GouraudWithEdges
350
2E
  3
Linepattern
350
38
  3
Realistic
350
33
  3
Thicken
350
37
  0
LAYOUT
  5
1E
102
{ACAD_REACTORS
330
1A
102
}
330
1A
100
AcDbPlotSettings
  1

  2
none_device
  4

  6

 40
0.0
 41
0.0
 42
0.0
 43
0.0
 44
0.0
 45
0.0
 46
0.0
 47
0.0
 48
0.0
 49
0.0
140
0.0
141
0.0
142
1.0
143
1.0
 70
   688
 72
     0
 73
     0
 74
     5
  7

 75
    16
 76
     0
 77
     2
 78
   300
147
1.0
148
0.0
149
0.0
100
AcDbLayout
  1
Layout1
 70
     1
 71
     1
 10
0.0
 20
0.0
 11
12.0
 21
9.0
 12
0.0
 22
0.0
 32
0.0
 14
1.000000000000000E+20
 24
1.000000000000000E+20
 34
1.000000000000000E+20
 15
-1.000000000000000E+20
 25
-1.000000000000000E+20
 35
-1.000000000000000E+20
146
0.0
 13
0.0
 23
0.0
 33
0.0
 16
1.0
 26
0.0
 36
0.0
 17
0.0
 27
1.0
 37
0.0
 76
     0
330
1B
  0
LAYOUT
  5
26
102
{ACAD_REACTORS
330
1A
102
}
330
1A
100
AcDbPlotSettings
  1

  2
none_device
  4

  6

 40
0.0
 41
0.0
 42
0.0
 43
0.0
 44
0.0
 45
0.0
 46
0.0
 47
0.0
 48
0.0
 49
0.0
140
0.0
141
0.0
142
1.0
143
1.0
 70
   688
 72
     0
 73
     0
 74
     5
  7

 75
    16
 76
     0
 77
     2
 78
   300
147
1.0
148
0.0
149
0.0
100
AcDbLayout
  1
Layout2
 70
     1
 71
     2
 10
0.0
 20
0.0
 11
0.0
 21
0.0
 12
0.0
 22
0.0
 32
0.0
 14
0.0
 24
0.0
 34
0.0
 15
0.0
 25
0.0
 35
0.0
146
0.0
 13
0.0
 23
0.0
 33
0.0
 16
1.0
 26
0.0
 36
0.0
 17
0.0
 27
1.0
 37
0.0
 76
     0
330
23
  0
LAYOUT
  5
22
102
{ACAD_REACTORS
330
1A
102
}
330
1A
100
AcDbPlotSettings
  1

  2
none_device
  4

  6

 40
0.0
 41
0.0
 42
0.0
 43
0.0
 44
0.0
 45
0.0
 46
0.0
 47
0.0
 48
0.0
 49
0.0
140
0.0
141
0.0
142
1.0
143
1.0
 70
  1712
 72
     0
 73
     0
 74
     0
  7

 75
     0
 76
     0
 77
     2
 78
   300
147
1.0
148
0.0
149
0.0
100
AcDbLayout
  1
Model
 70
     1
 71
     0
 10
0.0
 20
0.0
 11
12.0
 21
9.0
 12
0.0
 22
0.0
 32
0.0
 14
-10.04038552857051
 24
-0.0000000000000183
 34
0.0
 15
40.9300885327361
 25
66.14713777835794
 35
0.0
146
0.0
 13
0.0
 23
0.0
 33
0.0
 16
1.0
 26
0.0
 36
0.0
 17
0.0
 27
1.0
 37
0.0
 76
     0
330
1F
331
29
  0
MLINESTYLE
  5
18
102
{ACAD_REACTORS
330
17
102
}
330
17
100
AcDbMlineStyle
  2
Standard
 70
     0
  3

 62
   256
 51
90.0
 52
90.0
 71
     2
 49
0.5
 62
   256
  6
BYLAYER
 49
-0.5
 62
   256
  6
BYLAYER
  0
ACDBPLACEHOLDER
  5
F
102
{ACAD_REACTORS
330
E
102
}
330
E
  0
VISUALSTYLE
  5
2F
102
{ACAD_REACTORS
330
2A
102
}
330
2A
100
AcDbVisualStyle
  2
2dWireframe
 70
     4
 71
     0
 72
     2
 73
     0
 90
        0
 40
-0.6
 41
-30.0
 62
     5
 63
     7
421
 16777215
 74
     1
 91
        4
 64
     7
 65
   257
 75
     1
175
     1
 42
1.0
 92
        0
 66
   257
 43
1.0
 76
     1
 77
     6
 78
     2
 67
     7
 79
     5
170
     0
171
     0
290
     0
174
     0
 93
        1
 44
0.0
173
     0
291
     0
 45
0.0
1001
ACAD
1000
AcDbSavedByObjectVersion
1070
     0
  0
VISUALSTYLE
  5
31
102
{ACAD_REACTORS
330
2A
102
}
330
2A
100
AcDbVisualStyle
  2
3D Hidden
 70
     6
 71
     1
 72
     2
 73
     2
 90
        0
 40
-0.6
 41
-30.0
 62
     5
 63
     7
421
 16777215
 74
     2
 91
        2
 64
     7
 65
   257
 75
     2
175
     1
 42
40.0
 92
        0
 66
   257
 43
1.0
 76
     1
 77
     6
 78
     2
 67
     7
 79
     3
170
     0
171
     0
290
     0
174
     0
 93
        1
 44
0.0
173
     0
291
     0
 45
0.0
1001
ACAD
1000
AcDbSavedByObjectVersion
1070
     0
  0
VISUALSTYLE
  5
30
102
{ACAD_REACTORS
330
2A
102
}
330
2A
100
AcDbVisualStyle
  2
3dWireframe
 70
     5
 71
     0
 72
     2
 73
     0
 90
        0
 40
-0.6
 41
-30.0
 62
     5
 63
     7
421
 16777215
 74
     1
 91
        4
 64
     7
 65
   257
 75
     1
175
     1
 42
1.0
 92
        0
 66
   257
 43
1.0
 76
     1
 77
     6
 78
     2
 67
     7
 79
     5
170
     0
171
     0
290
     0
174
     0
 93
        1
 44
0.0
173
     0
291
     0
 45
0.0
1001
ACAD
1000
AcDbSavedByObjectVersion
1070
     0
  0
VISUALSTYLE
  5
32
102
{ACAD_REACTORS
330
2A
102
}
330
2A
100
AcDbVisualStyle
  2
Basic
 70
     7
 71
     1
 72
     0
 73
     1
 90
        0
 40
-0.6
 41
-30.0
 62
     5
 63
     7
421
 16777215
 74
     0
 91
        4
 64
     7
 65
   257
 75
     1
175
     1
 42
1.0
 92
        8
 66
     7
 43
1.0
 76
     1
 77
     6
 78
     2
 67
     7
 79
     5
170
     0
171
     0
290
     0
174
     0
 93
        1
 44
0.0
173
     0
291
     1
 45
0.0
1001
ACAD
1000
AcDbSavedByObjectVersion
1070
     0
  0
VISUALSTYLE
  5
36
102
{ACAD_REACTORS
330
2A
102
}
330
2A
100
AcDbVisualStyle
  2
Brighten
 70
    12
 71
     2
 72
     2
 73
     0
 90
        0
 40
-0.6
 41
-30.0
 62
     5
 63
     7
421
 16777215
 74
     1
 91
        4
 64
     7
 65
   257
 75
     1
175
     1
 42
1.0
 92
        8
 66
     7
 43
1.0
 76
     1
 77
     6
 78
     2
 67
     7
 79
     5
170
     0
171
     0
290
     0
174
     0
 93
        1
 44
50.0
173
     0
291
     1
 45
0.0
1001
ACAD
1000
AcDbSavedByObjectVersion
1070
     0
  0
VISUALSTYLE
  5
3A
102
{ACAD_REACTORS
330
2A
102
}
330
2A
100
AcDbVisualStyle
  2
ColorChange
 70
    16
 71
     2
 72
     2
 73
     3
 90
        0
 40
-0.6
 41
-30.0
 62
     5
 63
     8
421
  8421504
 74
     1
 91
        4
 64
     7
 65
   257
 75
     1
175
     1
 42
1.0
 92
        8
 66
     8
424
  8421504
 43
1.0
 76
     1
 77
     6
 78
     2
 67
     7
 79
     5
170
     0
171
     0
290
     0
174
     0
 93
        1
 44
0.0
173
     0
291
     1
 45
0.0
1001
ACAD
1000
AcDbSavedByObjectVersion
1070
     0
  0
VISUALSTYLE
  5
34
102
{ACAD_REACTORS
330
2A
102
}
330
2A
100
AcDbVisualStyle
  2
Conceptual
 70
     9
 71
     3
 72
     2
 73
     0
 90
        0
 40
-0.6
 41
-30.0
 62
     5
 63
     7
421
 16777215
 74
     2
 91
        2
 64
     7
 65
   257
 75
     1
175
     1
 42
40.0
 92
        8
 66
     7
 43
1.0
 76
     1
 77
     6
 78
     2
 67
     7
 79
     3
170
     0
171
     0
290
     0
174
     0
 93
        1
 44
0.0
173
     0
291
     0
 45
0.0
1001
ACAD
1000
AcDbSavedByObjectVersion
1070
     0
  0
VISUALSTYLE
  5
35
102
{ACAD_REACTORS
330
2A
102
}
330
2A
100
AcDbVisualStyle
  2
Dim
 70
    11
 71
     2
 72
     2
 73
     0
 90
        0
 40
-0.6
 41
-30.0
 62
     5
 63
     7
421
 16777215
 74
     1
 91
        4
 64
     7
 65
   257
 75
     1
175
     1
 42
1.0
 92
        8
 66
     7
 43
1.0
 76
     1
 77
     6
 78
     2
 67
     7
 79
     5
170
     0
171
     0
290
     0
174
     0
 93
        1
 44
-50.0
173
     0
291
     1
 45
0.0
1001
ACAD
1000
AcDbSavedByObjectVersion
1070
     0
  0
VISUALSTYLE
  5
39
102
{ACAD_REACTORS
330
2A
102
}
330
2A
100
AcDbVisualStyle
  2
Facepattern
 70
    15
 71
     2
 72
     2
 73
     0
 90
        0
 40
-0.6
 41
-30.0
 62
     5
 63
     7
421
 16777215
 74
     1
 91
        4
 64
     7
 65
   257
 75
     1
175
     1
 42
1.0
 92
        8
 66
     7
 43
1.0
 76
     1
 77
     6
 78
     2
 67
     7
 79
     5
170
     0
171
     0
290
     0
174
     0
 93
        1
 44
0.0
173
     0
291
     1
 45
0.0
1001
ACAD
1000
AcDbSavedByObjectVersion
1070
     0
  0
VISUALSTYLE
  5
2B
102
{ACAD_REACTORS
330
2A
102
}
330
2A
100
AcDbVisualStyle
  2
Flat
 70
     0
 71
     2
 72
     1
 73
     1
 90
        2
 40
-0.6
 41
30.0
 62
     5
 63
     7
421
 16777215
 74
     0
 91
        4
 64
     7
 65
   257
 75
     1
175
     1
 42
1.0
 92
        8
 66
     7
 43
1.0
 76
     1
 77
     6
 78
     2
 67
     7
 79
     5
170
     0
171
     0
290
     0
174
     0
 93
       13
 44
0.0
173
     0
291
     1
 45
0.0
1001
ACAD
1000
AcDbSavedByObjectVersion
1070
     0
  0
VISUALSTYLE
  5
2C
102
{ACAD_REACTORS
330
2A
102
}
330
2A
100
AcDbVisualStyle
  2
FlatWithEdges
 70
     1
 71
     2
 72
     1
 73
     1
 90
        2
 40
-0.6
 41
30.0
 62
     5
 63
     7
421
 16777215
 74
     1
 91
        4
 64
     7
 65
   257
 75
     1
175
     1
 42
1.0
 92
        0
 66
   257
 43
1.0
 76
     1
 77
     6
 78
     2
 67
     7
 79
     5
170
     0
171
     0
290
     0
174
     0
 93
       13
 44
0.0
173
     0
291
     1
 45
0.0
1001
ACAD
1000
AcDbSavedByObjectVersion
1070
     0
  0
VISUALSTYLE
  5
2D
102
{ACAD_REACTORS
330
2A
102
}
330
2A
100
AcDbVisualStyle
  2
Gouraud
 70
     2
 71
     2
 72
     2
 73
     1
 90
        2
 40
-0.6
 41
30.0
 62
     5
 63
     7
421
 16777215
 74
     0
 91
        4
 64
     7
 65
   257
 75
     1
175
     1
 42
1.0
 92
        0
 66
     7
 43
1.0
 76
     1
 77
     6
 78
     2
 67
     7
 79
     5
170
     0
171
     0
290
     0
174
     0
 93
       13
 44
0.0
173
     0
291
     1
 45
0.0
1001
ACAD
1000
AcDbSavedByObjectVersion
1070
     0
  0
VISUALSTYLE
  5
2E
102
{ACAD_REACTORS
330
2A
102
}
330
2A
100
AcDbVisualStyle
  2
GouraudWithEdges
 70
     3
 71
     2
 72
     2
 73
     1
 90
        2
 40
-0.6
 41
30.0
 62
     5
 63
     7
421
 16777215
 74
     1
 91
        4
 64
     7
 65
   257
 75
     1
175
     1
 42
1.0
 92
        0
 66
   257
 43
1.0
 76
     1
 77
     6
 78
     2
 67
     7
 79
     5
170
     0
171
     0
290
     0
174
     0
 93
       13
 44
0.0
173
     0
291
     1
 45
0.0
1001
ACAD
1000
AcDbSavedByObjectVersion
1070
     0
  0
VISUALSTYLE
  5
38
102
{ACAD_REACTORS
330
2A
102
}
330
2A
100
AcDbVisualStyle
  2
Linepattern
 70
    14
 71
     2
 72
     2
 73
     0
 90
        0
 40
-0.6
 41
-30.0
 62
     5
 63
     7
421
 16777215
 74
     1
 91
        4
 64
     7
 65
   257
 75
     7
175
     7
 42
1.0
 92
        8
 66
     7
 43
1.0
 76
     1
 77
     6
 78
     2
 67
     7
 79
     5
170
     0
171
     0
290
     0
174
     0
 93
        1
 44
0.0
173
     0
291
     1
 45
0.0
1001
ACAD
1000
AcDbSavedByObjectVersion
1070
     0
  0
VISUALSTYLE
  5
33
102
{ACAD_REACTORS
330
2A
102
}
330
2A
100
AcDbVisualStyle
  2
Realistic
 70
     8
 71
     2
 72
     2
 73
     0
 90
        0
 40
-0.6
 41
-30.0
 62
     5
 63
     7
421
 16777215
 74
     1
 91
        0
 64
     7
 65
   257
 75
     1
175
     1
 42
1.0
 92
        8
 66
     8
424
  7895160
 43
1.0
 76
     1
 77
     6
 78
     2
 67
     7
 79
     5
170
     0
171
     0
290
     0
174
     0
 93
       13
 44
0.0
173
     0
291
     0
 45
0.0
1001
ACAD
1000
AcDbSavedByObjectVersion
1070
     0
  0
VISUALSTYLE
  5
37
102
{ACAD_REACTORS
330
2A
102
}
330
2A
100
AcDbVisualStyle
  2
Thicken
 70
    13
 71
     2
 72
     2
 73
     0
 90
        0
 40
-0.6
 41
-30.0
 62
     5
 63
     7
421
 16777215
 74
     1
 91
        4
 64
     7
 65
   257
 75
     1
175
     1
 42
1.0
 92
       12
 66
     7
 43
1.0
 76
     1
 77
     6
 78
     2
 67
     7
 79
     5
170
     0
171
     0
290
     0
174
     0
 93
        1
 44
0.0
173
     0
291
     1
 45
0.0
1001
ACAD
1000
AcDbSavedByObjectVersion
1070
     0
  0
ENDSEC
  0
EOF
