  0
SECTION
  2
HEADER
  9
$ACADVER
  1
AC1021
  9
$ACADMAINTVER
 70
    25
  9
$DWGCODEPAGE
  3
ANSI_1252
  9
$INSBASE
 10
0.0
 20
0.0
 30
0.0
  9
$EXTMIN
 10
1.000000000000000E+20
 20
1.000000000000000E+20
 30
1.000000000000000E+20
  9
$EXTMAX
 10
-1.000000000000000E+20
 20
-1.000000000000000E+20
 30
-1.000000000000000E+20
  9
$LIMMIN
 10
0.0
 20
0.0
  9
$LIMMAX
 10
12.0
 20
9.0
  9
$ORTHOMODE
 70
     0
  9
$REGENMODE
 70
     1
  9
$FILLMODE
 70
     1
  9
$QTEXTMODE
 70
     0
  9
$MIRRTEXT
 70
     1
  9
$LTSCALE
 40
1.0
  9
$ATTMODE
 70
     1
  9
$TEXTSIZE
 40
0.2
  9
$TRACEWID
 40
0.05
  9
$TEXTSTYLE
  7
Standard
  9
$CLAYER
  8
0
  9
$CELTYPE
  6
ByLayer
  9
$CECOLOR
 62
   256
  9
$CELTSCALE
 40
1.0
  9
$DISPSILH
 70
     0
  9
$DIMSCALE
 40
1.0
  9
$DIMASZ
 40
0.18
  9
$DIMEXO
 40
0.0625
  9
$DIMDLI
 40
0.38
  9
$DIMRND
 40
0.0
  9
$DIMDLE
 40
0.0
  9
$DIMEXE
 40
0.18
  9
$DIMTP
 40
0.0
  9
$DIMTM
 40
0.0
  9
$DIMTXT
 40
0.18
  9
$DIMCEN
 40
0.09
  9
$DIMTSZ
 40
0.0
  9
$DIMTOL
 70
     0
  9
$DIMLIM
 70
     0
  9
$DIMTIH
 70
     1
  9
$DIMTOH
 70
     1
  9
$DIMSE1
 70
     0
  9
$DIMSE2
 70
     0
  9
$DIMTAD
 70
     0
  9
$DIMZIN
 70
     0
  9
$DIMBLK
  1

  9
$DIMASO
 70
     1
  9
$DIMSHO
 70
     1
  9
$DIMPOST
  1

  9
$DIMAPOST
  1

  9
$DIMALT
 70
     0
  9
$DIMALTD
 70
     2
  9
$DIMALTF
 40
25.4
  9
$DIMLFAC
 40
1.0
  9
$DIMTOFL
 70
     0
  9
$DIMTVP
 40
0.0
  9
$DIMTIX
 70
     0
  9
$DIMSOXD
 70
     0
  9
$DIMSAH
 70
     0
  9
$DIMBLK1
  1

  9
$DIMBLK2
  1

  9
$DIMSTYLE
  2
STANDARD_ACAD
  9
$DIMCLRD
 70
     0
  9
$DIMCLRE
 70
     0
  9
$DIMCLRT
 70
     0
  9
$DIMTFAC
 40
1.0
  9
$DIMGAP
 40
0.09
  9
$DIMJUST
 70
     0
  9
$DIMSD1
 70
     0
  9
$DIMSD2
 70
     0
  9
$DIMTOLJ
 70
     1
  9
$DIMTZIN
 70
     0
  9
$DIMALTZ
 70
     0
  9
$DIMALTTZ
 70
     0
  9
$DIMUPT
 70
     0
  9
$DIMDEC
 70
     4
  9
$DIMTDEC
 70
     4
  9
$DIMALTU
 70
     2
  9
$DIMALTTD
 70
     2
  9
$DIMTXSTY
  7
Standard
  9
$DIMAUNIT
 70
     0
  9
$DIMADEC
 70
     0
  9
$DIMALTRND
 40
0.0
  9
$DIMAZIN
 70
     0
  9
$DIMDSEP
 70
    46
  9
$DIMATFIT
 70
     3
  9
$DIMFRAC
 70
     0
  9
$DIMLDRBLK
  1

  9
$DIMLUNIT
 70
     2
  9
$DIMLWD
 70
    -2
  9
$DIMLWE
 70
    -2
  9
$DIMTMOVE
 70
     2
  9
$DIMFXL
 40
1.0
  9
$DIMFXLON
 70
     0
  9
$DIMJOGANG
 40
0.7853981633974483
  9
$DIMTFILL
 70
     0
  9
$DIMTFILLCLR
 70
     0
  9
$DIMARCSYM
 70
     0
  9
$DIMLTYPE
  6

  9
$DIMLTEX1
  6

  9
$DIMLTEX2
  6

  9
$LUNITS
 70
     2
  9
$LUPREC
 70
     3
  9
$SKETCHINC
 40
0.1
  9
$FILLETRAD
 40
0.5
  9
$AUNITS
 70
     0
  9
$AUPREC
 70
     0
  9
$MENU
  1
.
  9
$ELEVATION
 40
0.0
  9
$PELEVATION
 40
0.0
  9
$THICKNESS
 40
0.0
  9
$LIMCHECK
 70
     0
  9
$CHAMFERA
 40
0.0
  9
$CHAMFERB
 40
0.0
  9
$CHAMFERC
 40
0.0
  9
$CHAMFERD
 40
0.0
  9
$SKPOLY
 70
     0
  9
$TDCREATE
 40
2458516.635237026
  9
$TDUCREATE
 40
2458516.843570359
  9
$TDUPDATE
 40
2458516.63526375
  9
$TDUUPDATE
 40
2458516.843597083
  9
$TDINDWG
 40
0.0000000116
  9
$TDUSRTIMER
 40
0.0000000116
  9
$USRTIMER
 70
     1
  9
$ANGBASE
 50
0.0
  9
$ANGDIR
 70
     0
  9
$PDMODE
 70
     0
  9
$PDSIZE
 40
0.0
  9
$PLINEWID
 40
0.0
  9
$SPLFRAME
 70
     0
  9
$SPLINETYPE
 70
     6
  9
$SPLINESEGS
 70
     8
  9
$HANDSEED
  5
12E
  9
$SURFTAB1
 70
     6
  9
$SURFTAB2
 70
     6
  9
$SURFTYPE
 70
     6
  9
$SURFU
 70
     6
  9
$SURFV
 70
     6
  9
$UCSBASE
  2

  9
$UCSNAME
  2

  9
$UCSORG
 10
0.0
 20
0.0
 30
0.0
  9
$UCSXDIR
 10
1.0
 20
0.0
 30
0.0
  9
$UCSYDIR
 10
0.0
 20
1.0
 30
0.0
  9
$UCSORTHOREF
  2

  9
$UCSORTHOVIEW
 70
     0
  9
$UCSORGTOP
 10
0.0
 20
0.0
 30
0.0
  9
$UCSORGBOTTOM
 10
0.0
 20
0.0
 30
0.0
  9
$UCSORGLEFT
 10
0.0
 20
0.0
 30
0.0
  9
$UCSORGRIGHT
 10
0.0
 20
0.0
 30
0.0
  9
$UCSORGFRONT
 10
0.0
 20
0.0
 30
0.0
  9
$UCSORGBACK
 10
0.0
 20
0.0
 30
0.0
  9
$PUCSBASE
  2

  9
$PUCSNAME
  2

  9
$PUCSORG
 10
0.0
 20
0.0
 30
0.0
  9
$PUCSXDIR
 10
1.0
 20
0.0
 30
0.0
  9
$PUCSYDIR
 10
0.0
 20
1.0
 30
0.0
  9
$PUCSORTHOREF
  2

  9
$PUCSORTHOVIEW
 70
     0
  9
$PUCSORGTOP
 10
0.0
 20
0.0
 30
0.0
  9
$PUCSORGBOTTOM
 10
0.0
 20
0.0
 30
0.0
  9
$PUCSORGLEFT
 10
0.0
 20
0.0
 30
0.0
  9
$PUCSORGRIGHT
 10
0.0
 20
0.0
 30
0.0
  9
$PUCSORGFRONT
 10
0.0
 20
0.0
 30
0.0
  9
$PUCSORGBACK
 10
0.0
 20
0.0
 30
0.0
  9
$USERI1
 70
     0
  9
$USERI2
 70
     0
  9
$USERI3
 70
     0
  9
$USERI4
 70
     0
  9
$USERI5
 70
     0
  9
$USERR1
 40
0.0
  9
$USERR2
 40
0.0
  9
$USERR3
 40
0.0
  9
$USERR4
 40
0.0
  9
$USERR5
 40
0.0
  9
$WORLDVIEW
 70
     1
  9
$SHADEDGE
 70
     3
  9
$SHADEDIF
 70
    70
  9
$TILEMODE
 70
     1
  9
$MAXACTVP
 70
    64
  9
$PINSBASE
 10
0.0
 20
0.0
 30
0.0
  9
$PLIMCHECK
 70
     0
  9
$PEXTMIN
 10
1.000000000000000E+20
 20
1.000000000000000E+20
 30
1.000000000000000E+20
  9
$PEXTMAX
 10
-1.000000000000000E+20
 20
-1.000000000000000E+20
 30
-1.000000000000000E+20
  9
$PLIMMIN
 10
0.0
 20
0.0
  9
$PLIMMAX
 10
12.0
 20
9.0
  9
$UNITMODE
 70
     0
  9
$VISRETAIN
 70
     1
  9
$PLINEGEN
 70
     0
  9
$PSLTSCALE
 70
     1
  9
$TREEDEPTH
 70
  3020
  9
$CMLSTYLE
  2
Standard
  9
$CMLJUST
 70
     0
  9
$CMLSCALE
 40
1.0
  9
$PROXYGRAPHICS
 70
     1
  9
$MEASUREMENT
 70
     0
  9
$CELWEIGHT
370
    -1
  9
$ENDCAPS
280
     0
  9
$JOINSTYLE
280
     0
  9
$LWDISPLAY
290
     0
  9
$INSUNITS
 70
     1
  9
$HYPERLINKBASE
  1

  9
$STYLESHEET
  1

  9
$XEDIT
290
     1
  9
$CEPSNTYPE
380
     0
  9
$PSTYLEMODE
290
     1
  9
$FINGERPRINTGUID
  2
{94a5de8b-ca81-48cc-8a37-41d49275e08a}
  9
$VERSIONGUID
  2
{FAEB1C32-E019-11D5-929B-00C0DF256EC4}
  9
$EXTNAMES
290
     1
  9
$PSVPSCALE
 40
0.0
  9
$OLESTARTUP
290
     0
  9
$SORTENTS
280
   127
  9
$INDEXCTL
280
     0
  9
$HIDETEXT
280
     1
  9
$XCLIPFRAME
290
     0
  9
$HALOGAP
280
     0
  9
$OBSCOLOR
 70
   257
  9
$OBSLTYPE
280
     0
  9
$INTERSECTIONDISPLAY
280
     0
  9
$INTERSECTIONCOLOR
 70
   257
  9
$DIMASSOC
280
     2
  9
$PROJECTNAME
  1

  9
$CAMERADISPLAY
290
     0
  9
$LENSLENGTH
 40
50.0
  9
$CAMERAHEIGHT
 40
0.0
  9
$STEPSPERSEC
 40
2.0
  9
$STEPSIZE
 40
6.0
  9
$3DDWFPREC
 40
2.0
  9
$PSOLWIDTH
 40
0.25
  9
$PSOLHEIGHT
 40
4.0
  9
$LOFTANG1
 40
1.570796326794897
  9
$LOFTANG2
 40
1.570796326794897
  9
$LOFTMAG1
 40
0.0
  9
$LOFTMAG2
 40
0.0
  9
$LOFTPARAM
 70
     7
  9
$LOFTNORMALS
280
     1
  9
$LATITUDE
 40
37.795
  9
$LONGITUDE
 40
-122.394
  9
$NORTHDIRECTION
 40
0.0
  9
$TIMEZONE
 70
 -8000
  9
$LIGHTGLYPHDISPLAY
280
     1
  9
$TILEMODELIGHTSYNCH
280
     1
  9
$CMATERIAL
347
44
  9
$SOLIDHIST
280
     0
  9
$SHOWHIST
280
     1
  9
$DWFFRAME
280
     2
  9
$DGNFRAME
280
     2
  9
$REALWORLDSCALE
290
     1
  9
$INTERFERECOLOR
 62
   256
  9
$CSHADOW
280
     0
  9
$SHADOWPLANELOCATION
 40
0.0
  0
ENDSEC
  0
SECTION
  2
CLASSES
  0
CLASS
  1
ACDBDICTIONARYWDFLT
  2
AcDbDictionaryWithDefault
  3
ObjectDBX Classes
 90
        0
 91
        3
280
     0
281
     0
  0
CLASS
  1
VISUALSTYLE
  2
AcDbVisualStyle
  3
ObjectDBX Classes
 90
     4095
 91
        3
280
     0
281
     0
  0
CLASS
  1
MATERIAL
  2
AcDbMaterial
  3
ObjectDBX Classes
 90
     1153
 91
        3
280
     0
281
     0
  0
CLASS
  1
SCALE
  2
AcDbScale
  3
ObjectDBX Classes
 90
     1153
 91
        3
280
     0
281
     0
  0
CLASS
  1
TABLESTYLE
  2
AcDbTableStyle
  3
ObjectDBX Classes
 90
     4095
 91
        3
280
     0
281
     0
  0
CLASS
  1
MLEADERSTYLE
  2
AcDbMLeaderStyle
  3
ACDB_MLEADERSTYLE_CLASS
 90
     4095
 91
        3
280
     0
281
     0
  0
CLASS
  1
SUN
  2
AcDbSun
  3
SCENEOE
 90
     1153
 91
        3
280
     0
281
     0
  0
CLASS
  1
DICTIONARYVAR
  2
AcDbDictionaryVar
  3
ObjectDBX Classes
 90
        0
 91
        3
280
     0
281
     0
  0
CLASS
  1
CELLSTYLEMAP
  2
AcDbCellStyleMap
  3
ObjectDBX Classes
 90
     1152
 91
        3
280
     0
281
     0
  0
ENDSEC
  0
SECTION
  2
TABLES
  0
TABLE
  2
VPORT
  5
8
330
0
100
AcDbSymbolTable
 70
     1
  0
VPORT
  5
29
330
8
100
AcDbSymbolTableRecord
100
AcDbViewportTableRecord
  2
*Active
 70
     0
 10
0.0
 20
0.0
 11
1.0
 21
1.0
 12
10.42990654205607
 22
4.5
 13
0.0
 23
0.0
 14
0.5
 24
0.5
 15
0.5
 25
0.5
 16
0.0
 26
0.0
 36
1.0
 17
0.0
 27
0.0
 37
0.0
 40
9.0
 41
1.972972972850329
 42
50.0
 43
0.0
 44
0.0
 50
0.0
 51
0.0
 71
     0
 72
   100
 73
     1
 74
     3
 75
     0
 76
     0
 77
     0
 78
     0
281
     0
 65
     1
110
0.0
120
0.0
130
0.0
111
1.0
121
0.0
131
0.0
112
0.0
122
1.0
132
0.0
 79
     0
146
0.0
348
2F
 60
     3
 61
     5
292
     1
282
     1
141
0.0
142
0.0
 63
   250
361
6D
  0
ENDTAB
  0
TABLE
  2
LTYPE
  5
5
330
0
100
AcDbSymbolTable
 70
     1
  0
LTYPE
  5
14
330
5
100
AcDbSymbolTableRecord
100
AcDbLinetypeTableRecord
  2
ByBlock
 70
     0
  3

 72
    65
 73
     0
 40
0.0
  0
LTYPE
  5
15
330
5
100
AcDbSymbolTableRecord
100
AcDbLinetypeTableRecord
  2
ByLayer
 70
     0
  3

 72
    65
 73
     0
 40
0.0
  0
LTYPE
  5
16
330
5
100
AcDbSymbolTableRecord
100
AcDbLinetypeTableRecord
  2
Continuous
 70
     0
  3
Solid line
 72
    65
 73
     0
 40
0.0
  0
ENDTAB
  0
TABLE
  2
LAYER
  5
2
330
0
100
AcDbSymbolTable
 70
     1
  0
LAYER
  5
10
330
2
100
AcDbSymbolTableRecord
100
AcDbLayerTableRecord
  2
0
 70
     0
 62
    18
420
        0
  6
Continuous
370
    -3
390
F
347
46
  0
ENDTAB
  0
TABLE
  2
STYLE
  5
3
330
0
100
AcDbSymbolTable
 70
     1
  0
STYLE
  5
11
330
3
100
AcDbSymbolTableRecord
100
AcDbTextStyleTableRecord
  2
Standard
 70
     0
 40
0.0
 41
1.0
 50
0.0
 71
     0
 42
0.2
  3
txt
  4

  0
ENDTAB
  0
TABLE
  2
VIEW
  5
6
330
0
100
AcDbSymbolTable
 70
     0
  0
ENDTAB
  0
TABLE
  2
UCS
  5
7
330
0
100
AcDbSymbolTable
 70
     0
  0
ENDTAB
  0
TABLE
  2
APPID
  5
9
330
0
100
AcDbSymbolTable
 70
     2
  0
APPID
  5
12
330
9
100
AcDbSymbolTableRecord
100
AcDbRegAppTableRecord
  2
ACAD
 70
     0
  0
APPID
  5
126
330
9
100
AcDbSymbolTableRecord
100
AcDbRegAppTableRecord
  2
ACAD_MLEADERVER
 70
     0
  0
ENDTAB
  0
TABLE
  2
DIMSTYLE
  5
A
330
0
100
AcDbSymbolTable
 70
     1
100
AcDbDimStyleTable
  0
DIMSTYLE
105
27
330
A
100
AcDbSymbolTableRecord
100
AcDbDimStyleTableRecord
  2
STANDARD_ACAD
 70
     0
178
     0
340
11
  0
ENDTAB
  0
TABLE
  2
BLOCK_RECORD
  5
1
330
0
100
AcDbSymbolTable
 70
     1
  0
BLOCK_RECORD
  5
1F
330
1
100
AcDbSymbolTableRecord
100
AcDbBlockTableRecord
  2
*Model_Space
340
22
 70
     0
280
     1
281
     0
  0
BLOCK_RECORD
  5
1B
330
1
100
AcDbSymbolTableRecord
100
AcDbBlockTableRecord
  2
*Paper_Space
340
1E
 70
     0
280
     1
281
     0
  0
BLOCK_RECORD
  5
23
330
1
100
AcDbSymbolTableRecord
100
AcDbBlockTableRecord
  2
*Paper_Space0
340
26
 70
     0
280
     1
281
     0
  0
ENDTAB
  0
ENDSEC
  0
SECTION
  2
BLOCKS
  0
BLOCK
  5
20
330
1F
100
AcDbEntity
  8
0
100
AcDbBlockBegin
  2
*Model_Space
 70
     0
 10
0.0
 20
0.0
 30
0.0
  3
*Model_Space
  1

  0
ENDBLK
  5
21
330
1F
100
AcDbEntity
  8
0
100
AcDbBlockEnd
  0
BLOCK
  5
1C
330
1B
100
AcDbEntity
 67
     1
  8
0
100
AcDbBlockBegin
  2
*Paper_Space
 70
     0
 10
0.0
 20
0.0
 30
0.0
  3
*Paper_Space
  1

  0
ENDBLK
  5
1D
330
1B
100
AcDbEntity
 67
     1
  8
0
100
AcDbBlockEnd
  0
BLOCK
  5
24
330
23
100
AcDbEntity
  8
0
100
AcDbBlockBegin
  2
*Paper_Space0
 70
     0
 10
0.0
 20
0.0
 30
0.0
  3
*Paper_Space0
  1

  0
ENDBLK
  5
25
330
23
100
AcDbEntity
  8
0
100
AcDbBlockEnd
  0
ENDSEC
  0
SECTION
  2
ENTITIES
  0
SPLINE
  5
6E
330
1F
100
AcDbEntity
  8
0
100
AcDbSpline
210
0.0
220
0.0
230
1.0
 70
     8
 71
     3
 72
    12
 73
     8
 74
     0
 42
0.000000001
 43
0.0000000001
 40
4.39629610557806
 40
4.39629610557806
 40
4.39629610557806
 40
4.39629610557806
 40
5.00000013245477
 40
6.000000158945724
 40
7.000000185436678
 40
8.000000211927631
 40
9.0
 40
9.0
 40
9.0
 40
9.0
 10
51.41698981039826
 20
11.36737430683667
 30
0.0
 10
51.67933024288211
 20
11.42568657484249
 30
0.0
 10
52.37538012028641
 20
11.58438573229075
 30
0.0
 10
53.50205815942662
 20
11.85659745543822
 30
0.0
 10
54.79473160168583
 20
12.19217678934524
 30
0.0
 10
56.08191683585269
 20
12.54820193833415
 30
0.0
 10
56.93609683124873
 20
12.79938306470832
 30
0.0
 10
57.36215248159698
 20
12.92838715390297
 30
0.0
  0
SPLINE
  5
6F
330
1F
100
AcDbEntity
  8
0
100
AcDbSpline
210
0.0
220
0.0
230
1.0
 70
     8
 71
     3
 72
    16
 73
    12
 74
     0
 42
0.000000001
 43
0.0000000001
 40
9.0
 40
9.0
 40
9.0
 40
9.0
 40
9.999999059422425
 40
10.99999917699462
 40
11.99999929456682
 40
12.99999941213902
 40
13.99999952971121
 40
14.99999964728341
 40
15.99999976485561
 40
16.9999998824278
 40
18.0
 40
18.0
 40
18.0
 40
18.0
 10
57.36215248159698
 20
12.92838715390297
 30
0.0
 10
57.43107900748452
 20
12.94924836417539
 30
0.0
 10
57.5626633149047
 20
13.01165597538435
 30
0.0
 10
57.72392272342715
 20
13.15902696894928
 30
0.0
 10
57.83465712462235
 20
13.347366095679
 30
0.0
 10
57.88520063060646
 20
13.55984067322233
 30
0.0
 10
57.87192194706129
 20
13.77785815273121
 30
0.0
 10
57.79452588601119
 20
13.98236406694376
 30
0.0
 10
57.65500574018019
 20
14.15159109128231
 30
0.0
 10
57.46503046152205
 20
14.26140326383101
 30
0.0
 10
57.32146474324173
 20
14.28828624365675
 30
0.0
 10
57.24942960335287
 20
14.28906848745521
 30
0.0
  0
SPLINE
  5
70
330
1F
100
AcDbEntity
  8
0
100
AcDbSpline
210
0.0
220
0.0
230
1.0
 70
     8
 71
     3
 72
    34
 73
    30
 74
     0
 42
0.000000001
 43
0.0000000001
 40
18.0
 40
18.0
 40
18.0
 40
18.0
 40
19.0
 40
20.0
 40
21.0
 40
22.0
 40
23.0
 40
24.0
 40
25.0
 40
26.0
 40
27.0
 40
28.0
 40
29.0
 40
30.0
 40
31.0
 40
32.0
 40
33.0
 40
34.0
 40
35.0
 40
36.0
 40
37.0
 40
38.0
 40
39.0
 40
40.0
 40
41.0
 40
42.0
 40
43.0
 40
44.0
 40
45.0
 40
45.0
 40
45.0
 40
45.0
 10
57.24942960335287
 20
14.28906848745521
 30
0.0
 10
56.82061034810371
 20
14.48987506253736
 30
0.0
 10
56.00922178928565
 20
15.00317499512028
 30
0.0
 10
54.8881100795255
 20
15.88855330781152
 30
0.0
 10
53.84910031110728
 20
16.87558061531842
 30
0.0
 10
52.73369510521076
 20
17.77345480886597
 30
0.0
 10
51.56633327641405
 20
18.60138233604879
 30
0.0
 10
50.38060313727816
 20
19.40330410657905
 30
0.0
 10
49.12422058579705
 20
20.0940991201156
 30
0.0
 10
47.78688475125003
 20
20.60929517378414
 30
0.0
 10
46.41847880339729
 20
21.03382094965417
 30
0.0
 10
45.00511334958584
 20
21.27134127429975
 30
0.0
 10
43.5871896746184
 20
21.46079857513955
 30
0.0
 10
42.16217828958068
 20
21.59820274843473
 30
0.0
 10
40.73861308704104
 20
21.72965751049725
 30
0.0
 10
39.30651225751547
 20
21.83564917703021
 30
0.0
 10
37.93627513297706
 20
22.28855463743787
 30
0.0
 10
36.71227986623965
 20
23.04708486965689
 30
0.0
 10
35.68889405452443
 20
24.05787859805627
 30
0.0
 10
34.87822724999459
 20
25.24343678039936
 30
0.0
 10
34.22954620678849
 20
26.52019199854063
 30
0.0
 10
33.6215167888828
 20
27.81539331006417
 30
0.0
 10
33.01439716896842
 20
29.11122806506177
 30
0.0
 10
32.38552724722532
 20
30.39686572581796
 30
0.0
 10
31.79967087844302
 20
31.70219319196795
 30
0.0
 10
31.1756160053066
 20
32.99147478328657
 30
0.0
 10
30.52268435651625
 20
34.25926250232846
 30
0.0
 10
29.36750119416372
 20
35.26178222044654
 30
0.0
 10
28.34027764750399
 20
35.03577303796562
 30
0.0
 10
27.88439297749578
 20
34.97067310903994
 30
0.0
  0
SPLINE
  5
71
330
1F
100
AcDbEntity
  8
0
100
AcDbSpline
210
0.0
220
0.0
230
1.0
 70
     8
 71
     3
 72
     8
 73
     4
 74
     0
 42
0.000000001
 43
0.0000000001
 40
45.0
 40
45.0
 40
45.0
 40
45.0
 40
46.0
 40
46.0
 40
46.0
 40
46.0
 10
27.88439297749578
 20
34.97067310903994
 30
0.0
 10
27.63034343668411
 20
34.93439505860641
 30
0.0
 10
27.51657530706077
 20
34.76306047520929
 30
0.0
 10
27.53192356503257
 20
34.49911966260921
 30
0.0
  0
SPLINE
  5
72
330
1F
100
AcDbEntity
  8
0
100
AcDbSpline
210
0.0
220
0.0
230
1.0
 70
     8
 71
     3
 72
    16
 73
    12
 74
     0
 42
0.000000001
 43
0.0000000001
 40
46.0
 40
46.0
 40
46.0
 40
46.0
 40
47.0
 40
48.0
 40
49.0
 40
50.0
 40
51.0
 40
52.0
 40
53.0
 40
54.0
 40
54.09335140114986
 40
54.09335140114986
 40
54.09335140114986
 40
54.09335140114986
 10
27.53192356503257
 20
34.49911966260921
 30
0.0
 10
27.59121364394631
 20
33.47952045881829
 30
0.0
 10
28.05657006047921
 20
31.49000534115098
 30
0.0
 10
28.75398343909388
 20
28.51553616625554
 30
0.0
 10
29.5406125244673
 20
25.56049306598227
 30
0.0
 10
30.38266845036735
 20
22.62150527381019
 30
0.0
 10
31.30850483777514
 20
19.70796118346023
 30
0.0
 10
32.36337805385811
 20
16.83542996153247
 30
0.0
 10
33.8143768905997
 20
14.13027268603779
 30
0.0
 10
35.27399028339686
 20
12.53645309471234
 30
0.0
 10
36.17619203994853
 20
11.88514797908949
 30
0.0
 10
36.25418331629351
 20
11.8308730680838
 30
0.0
  0
LINE
  5
73
330
1F
100
AcDbEntity
  8
0
100
AcDbLine
 10
45.57397398490652
 20
10.36911162420112
 30
0.0
 11
45.63443513516832
 21
10.36671779756014
 31
0.0
  0
SPLINE
  5
74
330
1F
100
AcDbEntity
  8
0
100
AcDbSpline
210
0.0
220
0.0
230
1.0
 70
     8
 71
     3
 72
    12
 73
     8
 74
     0
 42
0.000000001
 43
0.0000000001
 40
0.0
 40
0.0
 40
0.0
 40
0.0
 40
1.000000026490954
 40
2.000000052981908
 40
3.000000079472862
 40
4.000000105963815
 40
4.068298159492585
 40
4.068298159492585
 40
4.068298159492585
 40
4.068298159492585
 10
45.63443513516832
 20
10.36671779756014
 30
0.0
 10
46.0767979564858
 20
10.4165659406688
 30
0.0
 10
46.95969052897749
 20
10.53211885662153
 30
0.0
 10
48.27856528516932
 20
10.74269052225481
 30
0.0
 10
49.59236310014375
 20
10.98273423470378
 30
0.0
 10
50.49447512677257
 20
11.16715059350149
 30
0.0
 10
50.95939130533127
 20
11.26720443462303
 30
0.0
 10
50.98910996328364
 20
11.27362043377234
 30
0.0
  0
LINE
  5
75
330
1F
100
AcDbEntity
  8
0
100
AcDbLine
 10
40.10304467269982
 20
10.58572107145349
 30
0.0
 11
44.29442854499585
 21
10.41977241959011
 31
0.0
  0
SPLINE
  5
76
330
1F
100
AcDbEntity
  8
0
100
AcDbSpline
210
0.0
220
0.0
230
1.0
 70
     8
 71
     3
 72
     8
 73
     4
 74
     0
 42
0.000000001
 43
0.0000000001
 40
54.23866417390798
 40
54.23866417390798
 40
54.23866417390798
 40
54.23866417390798
 40
55.0
 40
55.0
 40
55.0
 40
55.0
 10
36.62515059316932
 20
11.58716629539837
 30
0.0
 10
37.28443339344123
 20
11.17866639038628
 30
0.0
 10
38.00148049496755
 20
10.86031790383402
 30
0.0
 10
38.74424554975652
 20
10.63951974260266
 30
0.0
  0
LINE
  5
77
330
1F
100
AcDbEntity
  8
0
100
AcDbLine
 10
38.74424554975652
 20
10.63951974260266
 30
0.0
 11
39.46239178088319
 21
10.61108631762244
 31
0.0
  0
SPLINE
  5
78
330
1F
100
AcDbEntity
  8
0
100
AcDbSpline
210
0.0
220
0.0
230
1.0
 70
    12
 71
     3
 72
    44
 73
    40
 74
     0
 42
0.000000001
 43
0.0000000001
 40
-7.313371819832852
 40
-7.313371819832852
 40
-7.313371819832852
 40
-7.313371819832852
 40
0.0
 40
0.0
 40
0.0
 40
0.3440043955680823
 40
0.3440043955680823
 40
0.3440043955680823
 40
0.6880087911195449
 40
0.6880087911195449
 40
0.6880087911195449
 40
9.955708551626346
 40
9.955708551626346
 40
9.955708551626346
 40
10.21196654995651
 40
10.21196654995651
 40
10.21196654995651
 40
10.41795593476039
 40
10.41795593476039
 40
10.41795593476039
 40
10.59087400578117
 40
10.59087400578117
 40
10.59087400578117
 40
10.75203800357184
 40
10.75203800357184
 40
10.75203800357184
 40
10.92236162461806
 40
10.92236162461806
 40
10.92236162461806
 40
11.11673688530609
 40
11.11673688530609
 40
11.11673688530609
 40
11.34321195145412
 40
11.34321195145412
 40
11.34321195145412
 40
11.60573346176564
 40
11.60573346176564
 40
11.60573346176564
 40
22.74206711200856
 40
22.74206711200856
 40
22.74206711200856
 40
22.74206711200856
 10
34.56297982856569
 20
0.1509999999961309
 30
0.0
 41
1.0
 10
37.00077043517664
 20
0.1509999999961309
 30
0.0
 41
1.0
 10
39.43856104178759
 20
0.1509999999961309
 30
0.0
 41
1.0
 10
41.87635164839854
 20
0.1509999999961309
 30
0.0
 41
1.0
 10
42.00463887823886
 20
0.1509999999961312
 30
0.0
 41
0.8047378541243649
 10
42.09535164839856
 20
0.241712770155838
 30
0.0
 41
0.8047378541243649
 10
42.09535164839853
 20
0.3699999999961285
 30
0.0
 41
1.0
 10
42.09535164839854
 20
0.4982872298287196
 30
0.0
 41
0.8047378541337986
 10
42.0046388782476
 20
0.5889999999873644
 30
0.0
 41
0.8047378541243649
 10
41.8763516484135
 20
0.5889999999961296
 30
0.0
 41
0.9999999999716991
 10
38.78702210074392
 20
0.5890055735647077
 30
0.0
 41
0.9999999999716991
 10
35.69769255307433
 20
0.5890111471332858
 30
0.0
 41
0.9999999999716991
 10
32.60836300540474
 20
0.5890167207018638
 30
0.0
 41
0.9999999999716991
 10
32.54512883229377
 20
0.589082393907038
 30
0.0
 41
0.9999999999716991
 10
32.48299680842071
 20
0.5958253110325202
 30
0.0
 41
0.9999999999716991
 10
32.42507756578443
 20
0.6116427447423725
 30
0.0
 41
0.9999999999716991
 10
32.37873354055638
 20
0.6242990488224542
 30
0.0
 41
0.9999999999716991
 10
32.33367829050378
 20
0.643169850419298
 30
0.0
 41
0.9999999999716991
 10
32.2931633427594
 20
0.6696011357315577
 30
0.0
 41
0.9999999999716991
 10
32.25909852623737
 20
0.6918244615589586
 30
0.0
 41
0.9999999999716991
 10
32.22697334597719
 20
0.7201773718432065
 30
0.0
 41
0.9999999999716991
 10
32.19872483070391
 20
0.7560290818007402
 30
0.0
 41
0.9999999999716991
 10
32.17214290800003
 20
0.7897656294979889
 30
0.0
 41
0.9999999999716991
 10
32.14970476699359
 20
0.8291192137877843
 30
0.0
 41
0.9999999999716991
 10
32.13190314548673
 20
0.875251978650919
 30
0.0
 41
0.9999999999716991
 10
32.11324538539581
 20
0.9236034200527854
 30
0.0
 41
0.9999999999716991
 10
32.10084523348367
 20
0.9768956252147696
 30
0.0
 41
0.9999999999716991
 10
32.09436067955541
 20
1.032217600955228
 30
0.0
 41
0.9999999999716991
 10
32.08699377463741
 20
1.095067218625811
 30
0.0
 41
0.9999999999716991
 10
32.08726021934091
 20
1.160818263409574
 30
0.0
 41
0.9999999999716991
 10
32.09309244577226
 20
1.224710625277631
 30
0.0
 41
0.9999999999716991
 10
32.09990858453519
 20
1.29938180094473
 30
0.0
 41
0.9999999999716991
 10
32.1145175812788
 20
1.374236393391929
 30
0.0
 41
0.9999999999716991
 10
32.13396186612205
 20
1.44560990882858
 30
0.0
 41
0.9999999999716991
 10
32.15658055189127
 20
1.528635596372302
 30
0.0
 41
0.9999999999716991
 10
32.18643182172877
 20
1.609633536579852
 30
0.0
 41
0.9999999999716991
 10
32.22055210919926
 20
1.686359631374106
 30
0.0
 41
0.9999999999716991
 10
33.686817552308
 20
4.98227975608396
 30
0.0
 41
0.999999999971699
 10
35.15308334543948
 20
8.278200667736753
 30
0.0
 41
0.9999999999716993
 10
36.84378575847754
 20
12.07862224672561
 30
0.0
 41
0.999999999971699
  0
SPLINE
  5
79
330
1F
100
AcDbEntity
  8
0
100
AcDbSpline
210
0.0
220
0.0
230
1.0
 70
     8
 71
     3
 72
    11
 73
     7
 74
     0
 42
0.000000001
 43
0.0000000001
 40
22.74206711200856
 40
22.74206711200856
 40
22.74206711200856
 40
22.74206711200856
 40
23.74206711200856
 40
24.74206711200856
 40
25.74206711200856
 40
26.74206711200856
 40
26.74206711200856
 40
26.74206711200856
 40
26.74206711200856
 10
36.84378575847754
 20
12.07862224672561
 30
0.0
 10
36.88242477940238
 20
12.16508062495386
 30
0.0
 10
36.98733152064978
 20
12.32584163957547
 30
0.0
 10
37.22999975702887
 20
12.48806636091643
 30
0.0
 10
37.52584065650917
 20
12.49992028139029
 30
0.0
 10
37.69305612595528
 20
12.39532921437647
 30
0.0
 10
37.76196696583668
 20
12.33184494653699
 30
0.0
  0
ARC
  5
7A
330
1F
100
AcDbEntity
  8
0
100
AcDbCircle
 10
4435.552587577946
 20
-4409.859373116025
 30
0.0
 40
6290.176330835478
210
0.0
220
0.0
230
-1.0
100
AcDbArc
 50
135.3292807898069
 51
135.3454008611249
  0
ARC
  5
7B
330
1F
100
AcDbEntity
  8
0
100
AcDbCircle
 10
2893.06508657735
 20
-2885.92692126859
 30
0.0
 40
4121.85029334128
210
0.0
220
0.0
230
-1.0
100
AcDbArc
 50
135.3447199741719
 51
135.36029790787
  0
SPLINE
  5
7C
330
1F
100
AcDbEntity
  8
0
100
AcDbSpline
210
0.0
220
0.0
230
1.0
 70
     8
 71
     3
 72
    11
 73
     7
 74
     0
 42
0.000000001
 43
0.0000000001
 40
30.14632806061951
 40
30.14632806061951
 40
30.14632806061951
 40
30.14632806061951
 40
31.14632806061951
 40
32.14632806061951
 40
33.14632806061951
 40
34.14632806061951
 40
34.14632806061951
 40
34.14632806061951
 40
34.14632806061951
 10
39.79351201867254
 20
10.27581358250749
 30
0.0
 10
39.83170045079289
 20
10.23568943774528
 30
0.0
 10
39.94024780334578
 20
10.18734896318733
 30
0.0
 10
40.10865143612688
 20
10.24574941250391
 30
0.0
 10
40.19056701956475
 20
10.40415667023633
 30
0.0
 10
40.15803598984487
 20
10.51837983695318
 30
0.0
 10
40.12523190645902
 20
10.5632528851666
 30
0.0
  0
ARC
  5
7D
330
1F
100
AcDbEntity
  8
0
100
AcDbCircle
 10
-2893.052954396349
 20
-2885.91493630207
 30
0.0
 40
4122.271239625069
100
AcDbArc
 50
44.63930512721797
 51
44.65528001041142
  0
ARC
  5
7E
330
1F
100
AcDbEntity
  8
0
100
AcDbCircle
 10
-4435.54574117462
 20
-4409.852606784244
 30
0.0
 40
6290.604705011744
100
AcDbArc
 50
44.65459914974882
 51
44.6707192220293
  0
SPLINE
  5
7F
330
1F
100
AcDbEntity
  8
0
100
AcDbSpline
210
0.0
220
0.0
230
1.0
 70
     8
 71
     3
 72
    11
 73
     7
 74
     0
 42
0.000000001
 43
0.0000000001
 40
37.11646447716645
 40
37.11646447716645
 40
37.11646447716645
 40
37.11646447716645
 40
38.11646447716645
 40
39.11646447716645
 40
40.11646447716645
 40
41.11646447716645
 40
41.11646447716645
 40
41.11646447716645
 40
41.11646447716645
 10
38.07345454135793
 20
12.6397726820469
 30
0.0
 10
37.95297368743347
 20
12.75138495028584
 30
0.0
 10
37.66281481855555
 20
12.9346826321906
 30
0.0
 10
37.14745797313817
 20
12.93874894703033
 30
0.0
 10
36.70335556537751
 20
12.68572765160787
 30
0.0
 10
36.51080977289914
 20
12.40788198425675
 30
0.0
 10
36.44370435314104
 20
12.25688487988035
 30
0.0
  0
SPLINE
  5
80
330
1F
100
AcDbEntity
  8
0
100
AcDbSpline
210
0.0
220
0.0
230
1.0
 70
    12
 71
     3
 72
     8
 73
     4
 74
     0
 42
0.000000001
 43
0.0000000001
 40
41.11646447716645
 40
41.11646447716645
 40
41.11646447716645
 40
41.11646447716645
 40
52.3282618710124
 40
52.3282618710124
 40
52.3282618710124
 40
52.3282618710124
 10
36.44370435314104
 20
12.25688487988035
 30
0.0
 41
0.8583079285532571
 10
34.77260468157301
 20
8.500530343174418
 30
0.0
 41
0.8583079285532571
 10
33.29640295177317
 20
5.182275103328481
 30
0.0
 41
0.8583079285532573
 10
31.82019992155997
 20
1.864016938295487
 30
0.0
 41
0.8583079285532571
  0
SPLINE
  5
81
330
1F
100
AcDbEntity
  8
0
100
AcDbSpline
210
0.0
220
0.0
230
1.0
 70
     8
 71
     3
 72
    29
 73
    25
 74
     0
 42
0.000000001
 43
0.0000000001
 40
52.3282618710124
 40
52.3282618710124
 40
52.3282618710124
 40
52.3282618710124
 40
52.65641830012537
 40
52.65641830012537
 40
52.65641830012537
 40
52.9593035795518
 40
52.9593035795518
 40
52.9593035795518
 40
53.24449659297261
 40
53.24449659297261
 40
53.24449659297261
 40
53.52210313060863
 40
53.52210313060863
 40
53.52210313060863
 40
53.80362293955756
 40
53.80362293955756
 40
53.80362293955756
 40
54.09929296447501
 40
54.09929296447501
 40
54.09929296447501
 40
54.41739633219973
 40
54.41739633219973
 40
54.41739633219973
 40
54.7673726991497
 40
54.7673726991497
 40
54.7673726991497
 40
54.7673726991497
 10
31.82019992155997
 20
1.864016938295486
 30
0.0
 10
31.77679091556446
 20
1.766302135270433
 30
0.0
 10
31.7398515196091
 20
1.665332209287934
 30
0.0
 10
31.7112682399265
 20
1.560393087045858
 30
0.0
 10
31.68490355367074
 20
1.46359918989387
 30
0.0
 10
31.66604583801343
 20
1.364904802141528
 30
0.0
 10
31.65687624477412
 20
1.26419409297187
 30
0.0
 10
31.64826465511898
 20
1.169612002075233
 30
0.0
 10
31.64831691862493
 20
1.074600038126185
 30
0.0
 10
31.65939109629359
 20
0.9808118419620158
 30
0.0
 10
31.67010854508503
 20
0.8900448144044013
 30
0.0
 10
31.69114073744269
 20
0.8005029476372094
 30
0.0
 10
31.72347220861288
 20
0.7170524100302131
 30
0.0
 10
31.75611893319991
 20
0.6327881739997743
 30
0.0
 10
31.80079791981895
 20
0.5534073139348976
 30
0.0
 10
31.85488190443071
 20
0.4847114989780081
 30
0.0
 10
31.91195472240896
 20
0.4122193597422665
 30
0.0
 10
31.97993334043629
 20
0.351083979182345
 30
0.0
 10
32.0540883609245
 20
0.3026185820501048
 30
0.0
 10
32.13454532996828
 20
0.2500344288654226
 30
0.0
 10
32.22086319516798
 20
0.2132946823453707
 30
0.0
 10
32.31017438656546
 20
0.1889806836751227
 30
0.0
 10
32.40877644506703
 20
0.1621373476745873
 30
0.0
 10
32.50821405691967
 20
0.1511892455594754
 30
0.0
 10
32.6079439794221
 20
0.1510179157511793
 30
0.0
  0
POLYLINE
  5
82
330
1F
100
AcDbEntity
  8
0
100
AcDb2dPolyline
 66
     1
 10
0.0
 20
0.0
 30
0.0
  0
VERTEX
  5
83
330
82
100
AcDbEntity
  8
0
100
AcDbVertex
100
AcDb2dVertex
 10
32.6079439794221
 20
0.1510179157511793
 30
0.0
  0
VERTEX
  5
84
330
82
100
AcDbEntity
  8
0
100
AcDbVertex
100
AcDb2dVertex
 10
32.80710625689421
 20
0.151017404196535
 30
0.0
  0
SEQEND
  5
85
330
82
100
AcDbEntity
  8
0
  0
POLYLINE
  5
86
330
1F
100
AcDbEntity
  8
0
100
AcDb2dPolyline
 66
     1
 10
0.0
 20
0.0
 30
0.0
  0
VERTEX
  5
87
330
86
100
AcDbEntity
  8
0
100
AcDbVertex
100
AcDb2dVertex
 10
52.43496693132187
 20
0.151017404196535
 30
0.0
  0
VERTEX
  5
88
330
86
100
AcDbEntity
  8
0
100
AcDbVertex
100
AcDb2dVertex
 10
52.64252382034859
 20
0.1510000803721141
 30
0.0
  0
SEQEND
  5
89
330
86
100
AcDbEntity
  8
0
  0
SPLINE
  5
8A
330
1F
100
AcDbEntity
  8
0
100
AcDbSpline
210
0.0
220
0.0
230
1.0
 70
    12
 71
     3
 72
    51
 73
    47
 74
     0
 42
0.000000001
 43
0.0000000001
 40
0.0
 40
0.0
 40
0.0
 40
0.0
 40
0.0014554177380575
 40
0.0014554177380575
 40
0.0014554177380575
 40
0.5745363572156421
 40
0.5745363572156421
 40
0.5745363572156421
 40
1.138546517136223
 40
1.138546517136223
 40
1.138546517136223
 40
1.693852624370663
 40
1.693852624370663
 40
1.693852624370663
 40
2.247013322078214
 40
2.247013322078214
 40
2.247013322078214
 40
12.32443792791337
 40
12.32443792791337
 40
12.32443792791337
 40
13.32443792791337
 40
14.32443792791337
 40
14.32443792791337
 40
14.32443792791337
 40
19.65095405718318
 40
19.65095405718318
 40
19.65095405718318
 40
20.5009964047733
 40
20.5009964047733
 40
20.5009964047733
 40
20.50547794491435
 40
20.50547794491435
 40
20.50547794491435
 40
20.68193710268987
 40
20.68193710268987
 40
20.68193710268987
 40
20.85839649816899
 40
20.85839649816899
 40
20.85839649816899
 40
21.03494198672595
 40
21.03494198672595
 40
21.03494198672595
 40
21.04807426228068
 40
21.04807426228068
 40
21.04807426228068
 40
21.06120653783542
 40
21.06120653783542
 40
21.06120653783542
 40
21.06120653783542
 10
52.64252382034859
 20
0.1510000803721141
 30
0.0
 41
1.0
 10
52.6429531132829
 20
0.1509994418227407
 30
0.0
 41
1.0
 10
52.6433824045708
 20
0.1509991226082192
 30
0.0
 41
1.0
 10
52.64381169308682
 20
0.1509991226223129
 30
0.0
 41
1.0
 10
52.81137402803184
 20
0.1509991281237575
 30
0.0
 41
1.0
 10
52.97757380602182
 20
0.1996193171761327
 30
0.0
 41
1.0
 10
53.1244190237352
 20
0.2891487092362972
 30
0.0
 41
1.0
 10
53.26895505439664
 20
0.3772702235587353
 30
0.0
 41
1.0
 10
53.39428122912598
 20
0.5046213767330769
 30
0.0
 41
1.0
 10
53.48868116382995
 20
0.6565104443574441
 30
0.0
 41
1.0
 10
53.58175864138708
 20
0.8062716844187747
 30
0.0
 41
1.0
 10
53.64514360636748
 20
0.980243499630749
 30
0.0
 41
1.0
 10
53.67356905884675
 20
1.161030843002862
 30
0.0
 41
1.0
 10
53.70189445173991
 20
1.341181802248278
 30
0.0
 41
1.0
 10
53.69556782013566
 20
1.528374312738534
 30
0.0
 41
1.0
 10
53.65461748786332
 20
1.704399772703702
 30
0.0
 41
1.0
 10
52.90922739522679
 20
4.92329340732373
 30
0.0
 41
1.0
 10
52.16383719976115
 20
8.142187484971116
 30
0.0
 41
1.0
 10
51.3608333175177
 20
11.60988058507409
 30
0.0
 41
1.0
 10
51.30002504213734
 20
11.87626029965354
 30
0.0
 41
1.0
 10
50.99657127080584
 20
12.39111643818584
 30
0.0
 41
1.0
 10
50.39631003755362
 20
12.50222150002127
 30
0.0
 41
1.0
 10
50.13436461287013
 20
12.40587373064099
 30
0.0
 41
1.0
 10
48.45594939057329
 20
11.82678679133898
 30
0.0
 41
1.0
 10
46.77753416827644
 20
11.24769985203697
 30
0.0
 41
1.0
 10
45.09911894597958
 20
10.66861291273497
 30
0.0
 41
1.0
 10
44.83121832216856
 20
10.57618182046477
 30
0.0
 41
0.9996454853802437
 10
44.56044619650945
 20
10.49253549943004
 30
0.0
 41
0.9996454853802437
 10
44.28709054703377
 20
10.41776291116186
 30
0.0
 41
1.0
 10
44.28572982203515
 20
10.41629292560459
 30
0.0
 41
1.0
 10
44.28438874963341
 20
10.41480371445224
 30
0.0
 41
1.0
 10
44.28306775662104
 20
10.41329564720207
 30
0.0
 41
1.0
 10
44.24473421535517
 20
10.36953344889825
 30
0.0
 41
1.0
 10
44.22545513534571
 20
10.31240594812364
 30
0.0
 41
1.0
 10
44.22928167715564
 20
10.25454388757436
 30
0.0
 41
1.0
 10
44.23310822335161
 20
10.19668176070284
 30
0.0
 41
1.0
 10
44.2597425736884
 20
10.1425906278739
 30
0.0
 41
1.0
 10
44.30350509189891
 20
10.10425791461961
 30
0.0
 41
1.0
 10
44.34718052480257
 20
10.06600148162141
 30
0.0
 41
1.0
 10
44.40458090189911
 20
10.04665866984864
 30
0.0
 41
1.0
 10
44.46225930017475
 20
10.05047315362571
 30
0.0
 41
1.0
 10
44.4642603970906
 20
10.05060549349557
 30
0.0
 41
1.0
 10
44.47330016928437
 20
10.05147559543439
 30
0.0
 41
1.0
 10
44.47525946172017
 20
10.05172312338347
 30
0.0
 41
1.0
 10
44.47330016928437
 20
10.05147559543439
 30
0.0
 41
1.0
 10
44.48570537799937
 20
10.05329515490842
 30
0.0
 41
1.0
 10
44.4876779556145
 20
10.05365687339017
 30
0.0
 41
1.0
  0
SPLINE
  5
8B
330
1F
100
AcDbEntity
  8
0
100
AcDbSpline
210
0.0
220
0.0
230
1.0
 70
    12
 71
     3
 72
    31
 73
    27
 74
     0
 42
0.000000001
 43
0.0000000001
 40
21.06120653783542
 40
21.06120653783542
 40
21.06120653783542
 40
21.06120653783542
 40
21.09468962171611
 40
21.09468962171611
 40
21.16507685634077
 40
21.16507685634077
 40
21.44980158723349
 40
21.44980158723349
 40
21.44980158723349
 40
21.81259749793688
 40
21.81259749793688
 40
21.81259749793688
 40
22.17874770143873
 40
22.17874770143873
 40
22.17874770143873
 40
22.55023208124456
 40
22.55023208124456
 40
22.55023208124456
 40
28.51925678658904
 40
28.51925678658904
 40
28.51925678658904
 40
29.51925678658904
 40
30.51925678658904
 40
30.51925678658904
 40
30.51925678658904
 40
40.68686310129702
 40
40.68686310129702
 40
40.68686310129702
 40
40.68686310129702
 10
44.4876779556145
 20
10.05365687339017
 30
0.0
 41
1.0
 10
44.48776742441605
 20
10.05367327959837
 30
0.0
 41
1.0
 10
44.48831055469675
 20
10.05377254831877
 30
0.0
 41
1.0
 10
44.49016789346219
 20
10.05411322229761
 30
0.0
 41
1.0
 10
44.49216803515161
 20
10.05448189294718
 30
0.0
 41
1.0
 10
44.50471688688337
 20
10.05682956330528
 30
0.0
 41
1.0
 10
44.52400199403279
 20
10.06052626291722
 30
0.0
 41
1.0
 10
44.55162527944238
 20
10.06621082810122
 30
0.0
 41
1.0
 10
44.59142991597473
 20
10.07440217998566
 30
0.0
 41
1.0
 10
44.64904030689972
 20
10.08682476926017
 30
0.0
 41
1.0
 10
44.71797129137117
 20
10.10326889780426
 30
0.0
 41
1.0
 10
44.78777350062053
 20
10.11992086513593
 30
0.0
 41
1.0
 10
44.86947732517298
 20
10.14076524851957
 30
0.0
 41
1.0
 10
44.95732779048082
 20
10.16559839960085
 30
0.0
 41
1.0
 10
45.04663939391729
 20
10.19084457824859
 30
0.0
 41
1.0
 10
45.14269543680003
 20
10.22032966388496
 30
0.0
 41
1.0
 10
45.24163880607743
 20
10.25444937965952
 30
0.0
 41
1.0
 10
47.13462577388238
 20
10.90756752191288
 30
0.0
 41
0.9999999999999994
 10
48.70592111269294
 20
11.44969565668032
 30
0.0
 41
0.9999999999999997
 10
50.2772186168828
 20
11.99182453864601
 30
0.0
 41
1.0
 10
50.42486365953255
 20
12.04789799401542
 30
0.0
 41
1.0
 10
50.75329166510234
 20
11.95310222465122
 30
0.0
 41
1.0
 10
50.89914237460401
 20
11.65866175101717
 30
0.0
 41
1.0
 10
50.93412348799678
 20
11.51107410636442
 30
0.0
 41
1.0
 10
51.6987191590668
 20
8.209243079798794
 30
0.0
 41
1.0
 10
52.46331483013682
 20
4.90741205323317
 30
0.0
 41
1.0
 10
53.22791050120684
 20
1.605581026667545
 30
0.0
 41
1.0
  0
SPLINE
  5
8C
330
1F
100
AcDbEntity
  8
0
100
AcDbSpline
210
0.0
220
0.0
230
1.0
 70
     8
 71
     3
 72
    17
 73
    13
 74
     0
 42
0.000000001
 43
0.0000000001
 40
40.68686310129702
 40
40.68686310129702
 40
40.68686310129702
 40
40.68686310129702
 40
41.07240364238241
 40
41.07240364238241
 40
41.07240364238241
 40
41.45644552464148
 40
41.45644552464148
 40
41.45644552464148
 40
41.8353685218407
 40
41.8353685218407
 40
41.8353685218407
 40
42.20836625756232
 40
42.20836625756232
 40
42.20836625756232
 40
42.20836625756232
 10
53.22791050120684
 20
1.605581026667545
 30
0.0
 10
53.25600897833728
 20
1.484763225588413
 30
0.0
 10
53.26051746857566
 20
1.353915436197166
 30
0.0
 10
53.24086746752015
 20
1.228952362195624
 30
0.0
 10
53.2212856600229
 20
1.104422961283625
 30
0.0
 10
53.1777497896028
 20
0.9859837735482735
 30
0.0
 10
53.11667493055462
 20
0.8877146017688062
 30
0.0
 10
53.05621433061914
 20
0.7904337701214672
 30
0.0
 10
52.97922435964155
 20
0.7136151060248217
 30
0.0
 10
52.8965057965279
 20
0.6631802002985943
 30
0.0
 10
52.81507936002753
 20
0.613533126003091
 30
0.0
 10
52.7279376750745
 20
0.5889995308386062
 30
0.0
 10
52.64332502392203
 20
0.5889995281294595
 30
0.0
  0
POLYLINE
  5
8D
330
1F
100
AcDbEntity
  8
0
100
AcDb2dPolyline
 66
     1
 10
0.0
 20
0.0
 30
0.0
  0
VERTEX
  5
8E
330
8D
100
AcDbEntity
  8
0
100
AcDbVertex
100
AcDb2dVertex
 10
52.64332502392203
 20
0.5889995281294595
 30
0.0
  0
VERTEX
  5
8F
330
8D
100
AcDbEntity
  8
0
100
AcDbVertex
100
AcDb2dVertex
 10
42.31462778370222
 20
0.5889999999961155
 30
0.0
  0
SEQEND
  5
90
330
8D
100
AcDbEntity
  8
0
  0
SPLINE
  5
91
330
1F
100
AcDbEntity
  8
0
100
AcDbSpline
210
0.0
220
0.0
230
1.0
 70
    12
 71
     2
 72
     8
 73
     5
 74
     0
 42
0.000000001
 43
0.0000000001
 40
52.53706349778214
 40
52.53706349778214
 40
52.53706349778214
 40
52.88106789335022
 40
52.88106789335022
 40
53.22507228891831
 40
53.22507228891831
 40
53.22507228891831
 10
42.31462778370222
 20
0.5889999999961155
 30
0.0
 41
1.0
 10
42.09562778370225
 20
0.5889999999961162
 30
0.0
 41
0.7071067811865476
 10
42.0956277837022
 20
0.3699999999961179
 30
0.0
 41
1.0
 10
42.09562778370225
 20
0.1509999999961163
 30
0.0
 41
0.7071067811865476
 10
42.31462778370222
 20
0.1509999999961167
 30
0.0
 41
1.0
  0
POLYLINE
  5
92
330
1F
100
AcDbEntity
  8
0
100
AcDb2dPolyline
 66
     1
 10
0.0
 20
0.0
 30
0.0
  0
VERTEX
  5
93
330
92
100
AcDbEntity
  8
0
100
AcDbVertex
100
AcDb2dVertex
 10
42.31462778370222
 20
0.1509999999961167
 30
0.0
  0
VERTEX
  5
94
330
92
100
AcDbEntity
  8
0
100
AcDbVertex
100
AcDb2dVertex
 10
50.6700162454204
 20
0.1509999999961167
 30
0.0
  0
SEQEND
  5
95
330
92
100
AcDbEntity
  8
0
  0
SPLINE
  5
96
330
1F
100
AcDbEntity
  8
0
100
AcDbSpline
210
0.0
220
0.0
230
1.0
 70
     8
 71
     3
 72
    44
 73
    40
 74
     0
 42
0.000000001
 43
0.0000000001
 40
0.0248221286013547
 40
0.0248221286013547
 40
0.0248221286013547
 40
0.0248221286013547
 40
0.0283601141344437
 40
0.0283601141344437
 40
0.0283601141344437
 40
0.0572662725137309
 40
0.0572662725137309
 40
0.0572662725137309
 40
0.0862893085098977
 40
0.0862893085098977
 40
0.0862893085098977
 40
0.1104408838149351
 40
0.1104408838149351
 40
0.1104408838149351
 40
0.1148003218478428
 40
0.1148003218478428
 40
0.1148003218478428
 40
0.1421716353948577
 40
0.1421716353948577
 40
0.1421716353948577
 40
0.1680670650774958
 40
0.1680670650774958
 40
0.1680670650774958
 40
0.1926651822423336
 40
0.1926651822423336
 40
0.1926651822423336
 40
0.2164496850270221
 40
0.2164496850270221
 40
0.2164496850270221
 40
0.2398905650495513
 40
0.2398905650495513
 40
0.2398905650495513
 40
0.2632735243789997
 40
0.2632735243789997
 40
0.2632735243789997
 40
0.286683353102767
 40
0.286683353102767
 40
0.286683353102767
 40
0.3100686234150149
 40
0.3100686234150149
 40
0.3100686234150149
 40
0.3100686234150149
 10
52.57437182831057
 20
0.1510176841980417
 30
0.0
 10
52.57403893286207
 20
0.149888845848654
 30
0.0
 10
52.57369429329304
 20
0.1487634491406666
 30
0.0
 10
52.57333807007416
 20
0.1476417036619821
 30
0.0
 10
52.57042541010748
 20
0.1384697491817271
 30
0.0
 10
52.56674614575905
 20
0.1295687338967575
 30
0.0
 10
52.56239458664285
 20
0.120994203127534
 30
0.0
 10
52.55802241628567
 20
0.1123790589332856
 30
0.0
 10
52.55299309027299
 20
0.1041366818191669
 30
0.0
 10
52.54738791039188
 20
0.0962777096904297
 30
0.0
 10
52.54272159691635
 20
0.0897351136763831
 30
0.0
 10
52.53767914780204
 20
0.0834905993553434
 30
0.0
 10
52.5322916859576
 20
0.0775333251355299
 30
0.0
 10
52.5313195234022
 20
0.0764583404589096
 30
0.0
 10
52.53033663951939
 20
0.0753932728830797
 30
0.0
 10
52.52934327072694
 20
0.0743380452752795
 30
0.0
 10
52.52310157872512
 20
0.067707672175306
 30
0.0
 10
52.51647266773864
 20
0.0614945006197729
 30
0.0
 10
52.50947848932464
 20
0.0556701457669249
 30
0.0
 10
52.50286144998202
 20
0.050159850929461
 30
0.0
 10
52.49596154741462
 20
0.0450344646109535
 30
0.0
 10
52.48878541113498
 20
0.0402774768337189
 30
0.0
 10
52.48197293749391
 20
0.0357615573220755
 30
0.0
 10
52.47493869614163
 20
0.0315959918254514
 30
0.0
 10
52.46770462297934
 20
0.0277897013952888
 30
0.0
 10
52.46071534812836
 20
0.0241122143997536
 30
0.0
 10
52.45353727494989
 20
0.0207691765741203
 30
0.0
 10
52.44622166454047
 20
0.017788286716403
 30
0.0
 10
52.43901485196636
 20
0.0148517286841354
 30
0.0
 10
52.43164686307267
 20
0.0122553618467407
 30
0.0
 10
52.42418848985483
 20
0.0100287659958411
 30
0.0
 10
52.41674815923798
 20
0.0078075565180029
 30
0.0
 10
52.40918148904012
 20
0.0059433618120508
 30
0.0
 10
52.40155996339752
 20
0.0044559962708348
 30
0.0
 10
52.39393223908183
 20
0.0029674210383881
 30
0.0
 10
52.38620625009463
 20
0.0018478079140039
 30
0.0
 10
52.37847112750862
 20
0.0011069365443781
 30
0.0
 10
52.37073935679877
 20
0.0003663862180261
 30
0.0
 10
52.36296024417777
 20
0.000001240764238
 30
0.0
 10
52.35519695161332
 20
0.0000000000000284
 30
0.0
  0
SPLINE
  5
97
330
1F
100
AcDbEntity
  8
0
100
AcDbSpline
210
0.0
220
0.0
230
1.0
 70
     8
 71
     3
 72
    38
 73
    34
 74
     0
 42
0.000000001
 43
0.0000000001
 40
0.3100686234150149
 40
0.3100686234150149
 40
0.3100686234150149
 40
0.3100686234150149
 40
1.934068623415015
 40
1.934068623415015
 40
1.934068623415015
 40
2.934068623415015
 40
3.934068623415015
 40
4.934068623415016
 40
5.934068623415016
 40
5.934068623415016
 40
5.934068623415016
 40
5.947845137672517
 40
5.947845137672517
 40
5.947845137672517
 40
5.965599719582693
 40
5.965599719582693
 40
5.965599719582693
 40
5.986337314048282
 40
5.986337314048282
 40
5.986337314048282
 40
6.009139196952105
 40
6.009139196952105
 40
6.009139196952105
 40
6.03313421977026
 40
6.03313421977026
 40
6.03313421977026
 40
6.057500655044627
 40
6.057500655044627
 40
6.057500655044627
 40
6.081488854035181
 40
6.081488854035181
 40
6.081488854035181
 40
6.104459251368568
 40
6.104459251368568
 40
6.104459251368568
 40
6.104459251368568
 10
52.35519695161332
 20
0.0000000000000284
 30
0.0
 10
51.77373118236068
 20
0.0000000000000219
 30
0.0
 10
51.33552399897229
 20
0.0000000000000154
 30
0.0
 10
50.89731681558391
 20
0.0000000000000089
 30
0.0
 10
50.87155146360387
 20
-0.000039369201009
 30
0.0
 10
50.82002189938272
 20
0.0083007262329119
 30
0.0
 10
50.75060736803268
 20
0.0444012200876224
 30
0.0
 10
50.69594085865198
 20
0.1007211033791933
 30
0.0
 10
50.67639512982875
 20
0.1496545166463444
 30
0.0
 10
50.67292071339466
 20
0.1752435512782284
 30
0.0
 10
50.67229840683262
 20
0.1797789127057712
 30
0.0
 10
50.67171265426816
 20
0.1843250631977149
 30
0.0
 10
50.67116133584162
 20
0.1888796474325609
 30
0.0
 10
50.67045137172533
 20
0.1947448447766753
 30
0.0
 10
50.66979935863606
 20
0.2006173825609352
 30
0.0
 10
50.66919807416807
 20
0.2064972967707313
 30
0.0
 10
50.66849546892348
 20
0.213368019002413
 30
0.0
 10
50.66786329238909
 20
0.2202375263492762
 30
0.0
 10
50.66728565261178
 20
0.2271224457971641
 30
0.0
 10
50.66665214803675
 20
0.2346732207616213
 30
0.0
 10
50.66608407234804
 20
0.242247549361263
 30
0.0
 10
50.66555985691002
 20
0.2498401686656493
 30
0.0
 10
50.66501058477945
 20
0.257795703507913
 30
0.0
 10
50.66450929375497
 20
0.2657740417719054
 30
0.0
 10
50.66402660304027
 20
0.2737715193298804
 30
0.0
 10
50.66353869614227
 20
0.2818554213995625
 30
0.0
 10
50.66306973329739
 20
0.2899598306153166
 30
0.0
 10
50.66258535531574
 20
0.2980820274113682
 30
0.0
 10
50.66211067372012
 20
0.3060416322681938
 30
0.0
 10
50.66162116940865
 20
0.314018071840735
 30
0.0
 10
50.66108180207925
 20
0.3220075004606784
 30
0.0
 10
50.66056693354733
 20
0.3296340383692034
 30
0.0
 10
50.66000599553999
 20
0.3372774737809365
 30
0.0
 10
50.65937114778656
 20
0.3448990668116334
 30
0.0
  0
SPLINE
  5
98
330
1F
100
AcDbEntity
  8
0
100
AcDbSpline
210
0.0
220
0.0
230
1.0
 70
     8
 71
     3
 72
    20
 73
    16
 74
     0
 42
0.000000001
 43
0.0000000001
 40
6.104459251368568
 40
6.104459251368568
 40
6.104459251368568
 40
6.104459251368568
 40
7.104459251368568
 40
8.104459251368567
 40
9.104459251368567
 40
10.10445925136857
 40
10.10445925136857
 40
10.10445925136857
 40
11.72411845248964
 40
11.72411845248964
 40
11.72411845248964
 40
12.72411845248964
 40
13.72411845248964
 40
14.72411845248964
 40
15.72411845248964
 40
15.72411845248964
 40
15.72411845248964
 40
15.72411845248964
 10
50.65937114778656
 20
0.3448990668116334
 30
0.0
 10
50.65682907144095
 20
0.369228048384451
 30
0.0
 10
50.66091607021949
 20
0.4193435686973997
 30
0.0
 10
50.69991445523164
 20
0.4836881216696809
 30
0.0
 10
50.7602020014713
 20
0.5281276711194907
 30
0.0
 10
50.80881745215861
 20
0.5398760447000794
 30
0.0
 10
50.83337361616282
 20
0.5400000000000237
 30
0.0
 10
51.27045549224397
 20
0.5400000000000255
 30
0.0
 10
51.70753736832511
 20
0.5400000000000273
 30
0.0
 10
52.14461924440626
 20
0.5400000000000291
 30
0.0
 10
52.16845765790995
 20
0.5398710540677136
 30
0.0
 10
52.21546134423656
 20
0.5329267928446128
 30
0.0
 10
52.27906343470675
 20
0.4930926271994209
 30
0.0
 10
52.29551939074372
 20
0.4201383816927426
 30
0.0
 10
52.30208445269299
 20
0.374342672477201
 30
0.0
 10
52.30311752093596
 20
0.3505118145591304
 30
0.0
  0
SPLINE
  5
99
330
1F
100
AcDbEntity
  8
0
100
AcDbSpline
210
0.0
220
0.0
230
1.0
 70
     8
 71
     3
 72
    11
 73
     7
 74
     0
 42
0.000000001
 43
0.0000000001
 40
15.72411845248964
 40
15.72411845248964
 40
15.72411845248964
 40
15.72411845248964
 40
16.72411845248964
 40
17.72411845248964
 40
18.72411845248964
 40
19.72411845248964
 40
19.72411845248964
 40
19.72411845248964
 40
19.72411845248964
 10
52.30311752093596
 20
0.3505118145591304
 30
0.0
 10
52.30426878376733
 20
0.3285071830553363
 30
0.0
 10
52.3102403115093
 20
0.2845415088799984
 30
0.0
 10
52.33241247850995
 20
0.2220106718749595
 30
0.0
 10
52.36981387362752
 20
0.1658141520674789
 30
0.0
 10
52.41250328391155
 20
0.1461151209643468
 30
0.0
 10
52.43496693132187
 20
0.151017404196535
 30
0.0
  0
SPLINE
  5
9A
330
1F
100
AcDbEntity
  8
0
100
AcDbSpline
210
0.0
220
0.0
230
1.0
 70
     8
 71
     3
 72
    44
 73
    40
 74
     0
 42
0.000000001
 43
0.0000000001
 40
0.0248221286013547
 40
0.0248221286013547
 40
0.0248221286013547
 40
0.0248221286013547
 40
0.0283601141344437
 40
0.0283601141344437
 40
0.0283601141344437
 40
0.0572662725137309
 40
0.0572662725137309
 40
0.0572662725137309
 40
0.0862893085098977
 40
0.0862893085098977
 40
0.0862893085098977
 40
0.1104408838149351
 40
0.1104408838149351
 40
0.1104408838149351
 40
0.1148003218478428
 40
0.1148003218478428
 40
0.1148003218478428
 40
0.1421716353948577
 40
0.1421716353948577
 40
0.1421716353948577
 40
0.1680670650774958
 40
0.1680670650774958
 40
0.1680670650774958
 40
0.1926651822423336
 40
0.1926651822423336
 40
0.1926651822423336
 40
0.2164496850270221
 40
0.2164496850270221
 40
0.2164496850270221
 40
0.2398905650495513
 40
0.2398905650495513
 40
0.2398905650495513
 40
0.2632735243789997
 40
0.2632735243789997
 40
0.2632735243789997
 40
0.286683353102767
 40
0.286683353102767
 40
0.286683353102767
 40
0.3100686234150149
 40
0.3100686234150149
 40
0.3100686234150149
 40
0.3100686234150149
 10
32.66770135990551
 20
0.1510176841980417
 30
0.0
 10
32.66803425535402
 20
0.149888845848654
 30
0.0
 10
32.66837889492304
 20
0.1487634491406666
 30
0.0
 10
32.66873511814192
 20
0.1476417036619821
 30
0.0
 10
32.67164777810861
 20
0.1384697491817271
 30
0.0
 10
32.67532704245703
 20
0.1295687338967575
 30
0.0
 10
32.67967860157323
 20
0.120994203127534
 30
0.0
 10
32.68405077193042
 20
0.1123790589332856
 30
0.0
 10
32.68908009794309
 20
0.1041366818191669
 30
0.0
 10
32.69468527782421
 20
0.0962777096904297
 30
0.0
 10
32.69935159129973
 20
0.0897351136763831
 30
0.0
 10
32.70439404041404
 20
0.0834905993553434
 30
0.0
 10
32.70978150225848
 20
0.0775333251355299
 30
0.0
 10
32.71075366481388
 20
0.0764583404589096
 30
0.0
 10
32.71173654869669
 20
0.0753932728830797
 30
0.0
 10
32.71272991748914
 20
0.0743380452752795
 30
0.0
 10
32.71897160949096
 20
0.067707672175306
 30
0.0
 10
32.72560052047744
 20
0.0614945006197729
 30
0.0
 10
32.73259469889145
 20
0.0556701457669249
 30
0.0
 10
32.73921173823406
 20
0.050159850929461
 30
0.0
 10
32.74611164080146
 20
0.0450344646109535
 30
0.0
 10
32.7532877770811
 20
0.0402774768337189
 30
0.0
 10
32.76010025072218
 20
0.0357615573220755
 30
0.0
 10
32.76713449207445
 20
0.0315959918254514
 30
0.0
 10
32.77436856523674
 20
0.0277897013952888
 30
0.0
 10
32.78135784008772
 20
0.0241122143997536
 30
0.0
 10
32.78853591326619
 20
0.0207691765741203
 30
0.0
 10
32.79585152367561
 20
0.017788286716403
 30
0.0
 10
32.80305833624972
 20
0.0148517286841354
 30
0.0
 10
32.81042632514341
 20
0.0122553618467407
 30
0.0
 10
32.81788469836125
 20
0.0100287659958411
 30
0.0
 10
32.8253250289781
 20
0.0078075565180029
 30
0.0
 10
32.83289169917596
 20
0.0059433618120508
 30
0.0
 10
32.84051322481857
 20
0.0044559962708348
 30
0.0
 10
32.84814094913425
 20
0.0029674210383881
 30
0.0
 10
32.85586693812145
 20
0.0018478079140039
 30
0.0
 10
32.86360206070746
 20
0.0011069365443781
 30
0.0
 10
32.87133383141732
 20
0.0003663862180261
 30
0.0
 10
32.87911294403831
 20
0.000001240764238
 30
0.0
 10
32.88687623660276
 20
0.0000000000000284
 30
0.0
  0
SPLINE
  5
9B
330
1F
100
AcDbEntity
  8
0
100
AcDbSpline
210
0.0
220
0.0
230
1.0
 70
     8
 71
     3
 72
    38
 73
    34
 74
     0
 42
0.000000001
 43
0.0000000001
 40
0.3100686234150149
 40
0.3100686234150149
 40
0.3100686234150149
 40
0.3100686234150149
 40
1.934068623415015
 40
1.934068623415015
 40
1.934068623415015
 40
2.934068623415015
 40
3.934068623415015
 40
4.934068623415016
 40
5.934068623415016
 40
5.934068623415016
 40
5.934068623415016
 40
5.947845137672517
 40
5.947845137672517
 40
5.947845137672517
 40
5.965599719582693
 40
5.965599719582693
 40
5.965599719582693
 40
5.986337314048282
 40
5.986337314048282
 40
5.986337314048282
 40
6.009139196952105
 40
6.009139196952105
 40
6.009139196952105
 40
6.03313421977026
 40
6.03313421977026
 40
6.03313421977026
 40
6.057500655044627
 40
6.057500655044627
 40
6.057500655044627
 40
6.081488854035181
 40
6.081488854035181
 40
6.081488854035181
 40
6.104459251368568
 40
6.104459251368568
 40
6.104459251368568
 40
6.104459251368568
 10
32.88687623660276
 20
0.0000000000000284
 30
0.0
 10
33.4683420058554
 20
0.0000000000000219
 30
0.0
 10
33.90654918924379
 20
0.0000000000000154
 30
0.0
 10
34.34475637263218
 20
0.0000000000000089
 30
0.0
 10
34.37052172461221
 20
-0.000039369201009
 30
0.0
 10
34.42205128883336
 20
0.0083007262329119
 30
0.0
 10
34.4914658201834
 20
0.0444012200876224
 30
0.0
 10
34.5461323295641
 20
0.1007211033791933
 30
0.0
 10
34.56567805838733
 20
0.1496545166463444
 30
0.0
 10
34.56915247482142
 20
0.1752435512782284
 30
0.0
 10
34.56977478138346
 20
0.1797789127057712
 30
0.0
 10
34.57036053394792
 20
0.1843250631977149
 30
0.0
 10
34.57091185237446
 20
0.1888796474325609
 30
0.0
 10
34.57162181649075
 20
0.1947448447766753
 30
0.0
 10
34.57227382958003
 20
0.2006173825609352
 30
0.0
 10
34.57287511404802
 20
0.2064972967707313
 30
0.0
 10
34.5735777192926
 20
0.213368019002413
 30
0.0
 10
34.574209895827
 20
0.2202375263492762
 30
0.0
 10
34.5747875356043
 20
0.2271224457971641
 30
0.0
 10
34.57542104017934
 20
0.2346732207616213
 30
0.0
 10
34.57598911586804
 20
0.242247549361263
 30
0.0
 10
34.57651333130606
 20
0.2498401686656493
 30
0.0
 10
34.57706260343663
 20
0.257795703507913
 30
0.0
 10
34.57756389446111
 20
0.2657740417719054
 30
0.0
 10
34.57804658517581
 20
0.2737715193298804
 30
0.0
 10
34.57853449207381
 20
0.2818554213995625
 30
0.0
 10
34.57900345491869
 20
0.2899598306153166
 30
0.0
 10
34.57948783290034
 20
0.2980820274113682
 30
0.0
 10
34.57996251449596
 20
0.3060416322681938
 30
0.0
 10
34.58045201880743
 20
0.314018071840735
 30
0.0
 10
34.58099138613683
 20
0.3220075004606784
 30
0.0
 10
34.58150625466875
 20
0.3296340383692034
 30
0.0
 10
34.58206719267609
 20
0.3372774737809365
 30
0.0
 10
34.58270204042952
 20
0.3448990668116334
 30
0.0
  0
SPLINE
  5
9C
330
1F
100
AcDbEntity
  8
0
100
AcDbSpline
210
0.0
220
0.0
230
1.0
 70
     8
 71
     3
 72
    20
 73
    16
 74
     0
 42
0.000000001
 43
0.0000000001
 40
6.104459251368568
 40
6.104459251368568
 40
6.104459251368568
 40
6.104459251368568
 40
7.104459251368568
 40
8.104459251368567
 40
9.104459251368567
 40
10.10445925136857
 40
10.10445925136857
 40
10.10445925136857
 40
11.72411845248964
 40
11.72411845248964
 40
11.72411845248964
 40
12.72411845248964
 40
13.72411845248964
 40
14.72411845248964
 40
15.72411845248964
 40
15.72411845248964
 40
15.72411845248964
 40
15.72411845248964
 10
34.58270204042952
 20
0.3448990668116334
 30
0.0
 10
34.58524411677513
 20
0.369228048384451
 30
0.0
 10
34.5811571179966
 20
0.4193435686973997
 30
0.0
 10
34.54215873298445
 20
0.4836881216696809
 30
0.0
 10
34.48187118674478
 20
0.5281276711194907
 30
0.0
 10
34.43325573605748
 20
0.5398760447000794
 30
0.0
 10
34.40869957205326
 20
0.5400000000000237
 30
0.0
 10
33.97161769597211
 20
0.5400000000000255
 30
0.0
 10
33.53453581989098
 20
0.5400000000000273
 30
0.0
 10
33.09745394380982
 20
0.5400000000000291
 30
0.0
 10
33.07361553030613
 20
0.5398710540677136
 30
0.0
 10
33.02661184397952
 20
0.5329267928446128
 30
0.0
 10
32.96300975350933
 20
0.4930926271994209
 30
0.0
 10
32.94655379747236
 20
0.4201383816927426
 30
0.0
 10
32.93998873552309
 20
0.374342672477201
 30
0.0
 10
32.93895566728013
 20
0.3505118145591304
 30
0.0
  0
SPLINE
  5
9D
330
1F
100
AcDbEntity
  8
0
100
AcDbSpline
210
0.0
220
0.0
230
1.0
 70
     8
 71
     3
 72
    11
 73
     7
 74
     0
 42
0.000000001
 43
0.0000000001
 40
15.72411845248964
 40
15.72411845248964
 40
15.72411845248964
 40
15.72411845248964
 40
16.72411845248964
 40
17.72411845248964
 40
18.72411845248964
 40
19.72411845248964
 40
19.72411845248964
 40
19.72411845248964
 40
19.72411845248964
 10
32.93895566728013
 20
0.3505118145591304
 30
0.0
 10
32.93780440444876
 20
0.3285071830553363
 30
0.0
 10
32.93183287670678
 20
0.2845415088799984
 30
0.0
 10
32.90966070970613
 20
0.2220106718749595
 30
0.0
 10
32.87225931458856
 20
0.1658141520674789
 30
0.0
 10
32.82956990430453
 20
0.1461151209643468
 30
0.0
 10
32.80710625689421
 20
0.151017404196535
 30
0.0
  0
SPLINE
  5
9E
330
1F
100
AcDbEntity
  8
0
100
AcDbSpline
210
0.0
220
0.0
230
1.0
 70
     8
 71
     3
 72
    29
 73
    25
 74
     0
 42
0.000000001
 43
0.0000000001
 40
0.0
 40
0.0
 40
0.0
 40
0.0
 40
1.0
 40
2.0
 40
3.0
 40
4.0
 40
5.0
 40
6.0
 40
7.0
 40
8.0
 40
9.0
 40
10.0
 40
11.0
 40
12.0
 40
13.0
 40
14.0
 40
15.0
 40
16.0
 40
17.0
 40
18.0
 40
19.0
 40
20.0
 40
21.0
 40
22.0
 40
22.0
 40
22.0
 40
22.0
 10
54.25810300107936
 20
16.48842386727027
 30
0.0
 10
54.32723485679295
 20
16.49623028752787
 30
0.0
 10
54.4657108372129
 20
16.50985773786858
 30
0.0
 10
54.6736926363593
 20
16.52733544338723
 30
0.0
 10
54.88194493099476
 20
16.54122199727989
 30
0.0
 10
55.09031086035115
 20
16.55320704342653
 30
0.0
 10
55.29877420611282
 20
16.56337768780302
 30
0.0
 10
55.50735329565853
 20
16.57099185249382
 30
0.0
 10
55.71614932465165
 20
16.57053802520998
 30
0.0
 10
55.92441913150512
 20
16.55406179632774
 30
0.0
 10
56.12993793004622
 20
16.51579358608329
 30
0.0
 10
56.32954538944502
 20
16.45347967729028
 30
0.0
 10
56.51933304163821
 20
16.36543777183938
 30
0.0
 10
56.69443372463853
 20
16.2508049700081
 30
0.0
 10
56.8504116660291
 20
16.11126398804643
 30
0.0
 10
56.98405542148416
 20
15.95024268714267
 30
0.0
 10
57.09398402024764
 20
15.77225326962749
 30
0.0
 10
57.17847825472667
 20
15.58087341989969
 30
0.0
 10
57.2360080395603
 20
15.37973378602481
 30
0.0
 10
57.26518585498453
 20
15.17256473666991
 30
0.0
 10
57.26473939085949
 20
14.96328119130515
 30
0.0
 10
57.23344970421661
 20
14.75642133142564
 30
0.0
 10
57.17726454553807
 20
14.555143308694
 30
0.0
 10
57.12936960046284
 20
14.42444151006103
 30
0.0
 10
57.10427645920025
 20
14.35955956943282
 30
0.0
  0
SPLINE
  5
9F
330
1F
100
AcDbEntity
  8
0
100
AcDbSpline
210
0.0
220
0.0
230
1.0
 70
     8
 71
     3
 72
    16
 73
    12
 74
     0
 42
0.000000001
 43
0.0000000001
 40
184.4846121594529
 40
184.4846121594529
 40
184.4846121594529
 40
184.4846121594529
 40
185.0
 40
186.0
 40
187.0
 40
188.0
 40
189.0
 40
190.0
 40
191.0
 40
192.0
 40
192.0052031833595
 40
192.0052031833595
 40
192.0052031833595
 40
192.0052031833595
 10
7.275391861745391
 20
11.83552311877911
 30
0.0
 10
7.210936411222703
 20
11.80228002307568
 30
0.0
 10
7.020776192661891
 20
11.70578214912496
 30
0.0
 10
6.70206250019482
 20
11.55174997348344
 30
0.0
 10
6.317332497550158
 20
11.37790711795245
 30
0.0
 10
5.928159015486697
 20
11.2142500599816
 30
0.0
 10
5.534729024462844
 20
11.06110371326252
 30
0.0
 10
5.137245824476588
 20
10.9188028114587
 30
0.0
 10
4.735934531724281
 20
10.78768221831333
 30
0.0
 10
4.465344256465558
 20
10.70760214156299
 30
0.0
 10
4.329156610239281
 20
10.66938638674205
 30
0.0
 10
4.328451654384073
 20
10.66918862409277
 30
0.0
  0
SPLINE
  5
A0
330
1F
100
AcDbEntity
  8
0
100
AcDbSpline
210
0.0
220
0.0
230
1.0
 70
     8
 71
     3
 72
    94
 73
    90
 74
     0
 42
0.000000001
 43
0.0000000001
 40
10.55315220120083
 40
10.55315220120083
 40
10.55315220120083
 40
10.55315220120083
 40
11.0
 40
12.0
 40
13.0
 40
14.0
 40
15.0
 40
16.0
 40
17.0
 40
18.0
 40
19.0
 40
20.0
 40
21.0
 40
22.0
 40
23.0
 40
24.0
 40
25.0
 40
26.0
 40
27.0
 40
28.0
 40
29.0
 40
30.0
 40
31.0
 40
32.0
 40
33.0
 40
34.0
 40
35.0
 40
36.0
 40
37.0
 40
38.0
 40
39.0
 40
40.0
 40
41.0
 40
42.0
 40
43.0
 40
44.0
 40
45.0
 40
46.0
 40
47.0
 40
48.0
 40
49.0
 40
50.0
 40
51.0
 40
52.0
 40
53.0
 40
54.0
 40
55.0
 40
56.0
 40
57.0
 40
58.0
 40
59.0
 40
60.0
 40
61.0
 40
62.0
 40
63.0
 40
64.0
 40
65.0
 40
66.0
 40
67.0
 40
68.0
 40
69.0
 40
70.0
 40
71.0
 40
72.0
 40
73.0
 40
74.0
 40
75.0
 40
76.0
 40
77.0
 40
78.0
 40
79.0
 40
80.0
 40
81.0
 40
82.0
 40
83.0
 40
84.0
 40
85.0
 40
86.0
 40
87.0
 40
88.0
 40
89.0
 40
90.0
 40
91.0
 40
92.0
 40
93.0
 40
94.0
 40
95.0
 40
96.0
 40
97.0
 40
97.0
 40
97.0
 40
97.0
 10
-7.662048268148944
 20
12.04145492386546
 30
0.0
 10
-7.717151746765426
 20
12.07174209840806
 30
0.0
 10
-7.895015598281694
 20
12.17081967889628
 30
0.0
 10
-8.192713867291339
 20
12.34386108902552
 30
0.0
 10
-8.552264717502421
 20
12.56513125246758
 30
0.0
 10
-8.90610733674098
 20
12.79541776981978
 30
0.0
 10
-9.253974486951295
 20
13.03463668296933
 30
0.0
 10
-9.5955973730583
 20
13.28269253691675
 30
0.0
 10
-9.930684933370907
 20
13.53950736936235
 30
0.0
 10
-10.25917341452564
 20
13.80470748487965
 30
0.0
 10
-10.58104373640345
 20
14.07789959028945
 30
0.0
 10
-10.89627859577709
 20
14.35871954050597
 30
0.0
 10
-11.20490447948006
 20
14.64678602779834
 30
0.0
 10
-11.50662845610294
 20
14.94207647776785
 30
0.0
 10
-11.80110027648313
 20
15.24460141763864
 30
0.0
 10
-12.08797041545369
 20
15.55434618712597
 30
0.0
 10
-12.36687536468943
 20
15.8712840285244
 30
0.0
 10
-12.63744978684654
 20
16.19536512103375
 30
0.0
 10
-12.8993077775905
 20
16.52653037409802
 30
0.0
 10
-13.15206704038491
 20
16.86469586234907
 30
0.0
 10
-13.39526205710182
 20
17.20980158254415
 30
0.0
 10
-13.62900213072002
 20
17.56137720478078
 30
0.0
 10
-13.8535187725153
 20
17.91890911125029
 30
0.0
 10
-14.069100078005
 20
18.28189537486758
 30
0.0
 10
-14.27580712455075
 20
18.65001046466235
 30
0.0
 10
-14.47484771423958
 20
19.02228045292263
 30
0.0
 10
-14.66476493725114
 20
19.39948059690953
 30
0.0
 10
-14.85452216552924
 20
19.77591571645786
 30
0.0
 10
-15.01421717449208
 20
20.17031194602538
 30
0.0
 10
-15.01114817229647
 20
20.59982308608164
 30
0.0
 10
-14.90418087457947
 20
21.01383639014815
 30
0.0
 10
-14.60456291695335
 20
21.3345330704688
 30
0.0
 10
-14.1992200781114
 20
21.47225366834762
 30
0.0
 10
-13.78748740435154
 20
21.55794860968196
 30
0.0
 10
-13.3663945337084
 20
21.62021610506209
 30
0.0
 10
-12.98864416099456
 20
21.81962733205219
 30
0.0
 10
-12.66113442428998
 20
22.0896043288422
 30
0.0
 10
-12.40933596818072
 20
22.43086921366976
 30
0.0
 10
-12.17866214017125
 20
22.78413657473891
 30
0.0
 10
-11.97780648563383
 20
23.15598167088915
 30
0.0
 10
-11.80207251924524
 20
23.53996818642403
 30
0.0
 10
-11.64894939441174
 20
23.93355235029036
 30
0.0
 10
-11.51592353522968
 20
24.33430093651108
 30
0.0
 10
-11.40006671843784
 20
24.74034374707113
 30
0.0
 10
-11.3010146711331
 20
25.15076115896925
 30
0.0
 10
-11.21157811135666
 20
25.56334653280762
 30
0.0
 10
-11.13069105791137
 20
25.97768918477418
 30
0.0
 10
-11.05520858474356
 20
26.39303759704936
 30
0.0
 10
-10.98300537129992
 20
26.80896611962125
 30
0.0
 10
-10.91286741534469
 20
27.2252467863038
 30
0.0
 10
-10.84390402911778
 20
27.64172302477122
 30
0.0
 10
-10.77590020376753
 20
28.0583564676695
 30
0.0
 10
-10.70906052301493
 20
28.47517901961176
 30
0.0
 10
-10.64365334806868
 20
28.89222967942129
 30
0.0
 10
-10.57991048988718
 20
29.30953695270497
 30
0.0
 10
-10.51765745204385
 20
29.72707024782603
 30
0.0
 10
-10.4563445247848
 20
30.14473708927578
 30
0.0
 10
-10.39706433783911
 20
30.56272058981162
 30
0.0
 10
-10.3283862865084
 20
30.97925259764824
 30
0.0
 10
-10.25742843939062
 20
31.39539702826658
 30
0.0
 10
-10.18889288231003
 20
31.81192862874535
 30
0.0
 10
-10.12064501321513
 20
32.22858360307821
 30
0.0
 10
-10.03846723613382
 20
32.64260198155553
 30
0.0
 10
-9.950087056503708
 20
33.0557067678306
 30
0.0
 10
-9.804136166028444
 20
33.45417512206865
 30
0.0
 10
-9.553052053002643
 20
33.79974239130082
 30
0.0
 10
-9.2150900689592
 20
34.05827738845691
 30
0.0
 10
-8.833816989649655
 20
34.24259494926626
 30
0.0
 10
-8.431603959732094
 20
34.37311559280303
 30
0.0
 10
-8.017928391466304
 20
34.46013164442124
 30
0.0
 10
-7.597444109339034
 20
34.50295574124594
 30
0.0
 10
-7.175378715691448
 20
34.51435712262347
 30
0.0
 10
-6.753224683008063
 20
34.51604035412392
 30
0.0
 10
-6.331078846365312
 20
34.5129395788198
 30
0.0
 10
-5.909050086540834
 20
34.50256414703577
 30
0.0
 10
-5.487052160861353
 20
34.49142985675536
 30
0.0
 10
-5.065059642748095
 20
34.4799828030483
 30
0.0
 10
-4.643070985496728
 20
34.46843095638221
 30
0.0
 10
-4.221072221689464
 20
34.45723822640909
 30
0.0
 10
-3.799062666240631
 20
34.44645420149999
 30
0.0
 10
-3.377028228225494
 20
34.43667917871743
 30
0.0
 10
-2.954958985527601
 20
34.42852996323849
 30
0.0
 10
-2.532862914307075
 20
34.42192222874355
 30
0.0
 10
-2.110747566871995
 20
34.41672779538956
 30
0.0
 10
-1.688618097760773
 20
34.41282541459081
 30
0.0
 10
-1.266479688071346
 20
34.41002626102899
 30
0.0
 10
-0.8443366204759202
 20
34.40815266998901
 30
0.0
 10
-0.4221907508446708
 20
34.40707296345509
 30
0.0
 10
-0.1407594302893182
 20
34.40678898128729
 30
0.0
 10
0.0
 20
34.406733465672
 30
0.0
  0
SPLINE
  5
A1
330
1F
100
AcDbEntity
  8
0
100
AcDbSpline
210
0.0
220
0.0
230
1.0
 70
     8
 71
     3
 72
    94
 73
    90
 74
     0
 42
0.000000001
 43
0.0000000001
 40
97.0
 40
97.0
 40
97.0
 40
97.0
 40
98.0
 40
99.0
 40
100.0
 40
101.0
 40
102.0
 40
103.0
 40
104.0
 40
105.0
 40
106.0
 40
107.0
 40
108.0
 40
109.0
 40
110.0
 40
111.0
 40
112.0
 40
113.0
 40
114.0
 40
115.0
 40
116.0
 40
117.0
 40
118.0
 40
119.0
 40
120.0
 40
121.0
 40
122.0
 40
123.0
 40
124.0
 40
125.0
 40
126.0
 40
127.0
 40
128.0
 40
129.0
 40
130.0
 40
131.0
 40
132.0
 40
133.0
 40
134.0
 40
135.0
 40
136.0
 40
137.0
 40
138.0
 40
139.0
 40
140.0
 40
141.0
 40
142.0
 40
143.0
 40
144.0
 40
145.0
 40
146.0
 40
147.0
 40
148.0
 40
149.0
 40
150.0
 40
151.0
 40
152.0
 40
153.0
 40
154.0
 40
155.0
 40
156.0
 40
157.0
 40
158.0
 40
159.0
 40
160.0
 40
161.0
 40
162.0
 40
163.0
 40
164.0
 40
165.0
 40
166.0
 40
167.0
 40
168.0
 40
169.0
 40
170.0
 40
171.0
 40
172.0
 40
173.0
 40
174.0
 40
175.0
 40
176.0
 40
177.0
 40
178.0
 40
179.0
 40
180.0
 40
181.0
 40
182.0
 40
183.0
 40
183.4468477987992
 40
183.4468477987992
 40
183.4468477987992
 40
183.4468477987992
 10
0.0
 20
34.406733465672
 30
0.0
 10
0.1407594302893182
 20
34.40678898128729
 30
0.0
 10
0.4221907508446708
 20
34.40707296345509
 30
0.0
 10
0.8443366204759202
 20
34.40815266998901
 30
0.0
 10
1.266479688071346
 20
34.41002626102899
 30
0.0
 10
1.688618097760773
 20
34.41282541459081
 30
0.0
 10
2.110747566871995
 20
34.41672779538956
 30
0.0
 10
2.532862914307075
 20
34.42192222874355
 30
0.0
 10
2.954958985527601
 20
34.42852996323849
 30
0.0
 10
3.377028228225494
 20
34.43667917871743
 30
0.0
 10
3.799062666240631
 20
34.44645420149999
 30
0.0
 10
4.221072221689464
 20
34.45723822640909
 30
0.0
 10
4.643070985496728
 20
34.46843095638221
 30
0.0
 10
5.065059642748095
 20
34.4799828030483
 30
0.0
 10
5.487052160861353
 20
34.49142985675536
 30
0.0
 10
5.909050086540834
 20
34.50256414703577
 30
0.0
 10
6.331078846365312
 20
34.5129395788198
 30
0.0
 10
6.753224683008063
 20
34.51604035412392
 30
0.0
 10
7.175378715691448
 20
34.51435712262347
 30
0.0
 10
7.597444109339034
 20
34.50295574124594
 30
0.0
 10
8.017928391466304
 20
34.46013164442124
 30
0.0
 10
8.431603959732094
 20
34.37311559280303
 30
0.0
 10
8.833816989649655
 20
34.24259494926626
 30
0.0
 10
9.2150900689592
 20
34.05827738845691
 30
0.0
 10
9.553052053002643
 20
33.79974239130082
 30
0.0
 10
9.804136166028444
 20
33.45417512206865
 30
0.0
 10
9.950087056503708
 20
33.0557067678306
 30
0.0
 10
10.03846723613382
 20
32.64260198155553
 30
0.0
 10
10.12064501321513
 20
32.22858360307821
 30
0.0
 10
10.18889288231003
 20
31.81192862874535
 30
0.0
 10
10.25742843939062
 20
31.39539702826658
 30
0.0
 10
10.3283862865084
 20
30.97925259764824
 30
0.0
 10
10.39706433783911
 20
30.56272058981162
 30
0.0
 10
10.4563445247848
 20
30.14473708927578
 30
0.0
 10
10.51765745204385
 20
29.72707024782603
 30
0.0
 10
10.57991048988718
 20
29.30953695270497
 30
0.0
 10
10.64365334806868
 20
28.89222967942129
 30
0.0
 10
10.70906052301493
 20
28.47517901961176
 30
0.0
 10
10.77590020376753
 20
28.0583564676695
 30
0.0
 10
10.84390402911778
 20
27.64172302477122
 30
0.0
 10
10.91286741534469
 20
27.2252467863038
 30
0.0
 10
10.98300537129992
 20
26.80896611962125
 30
0.0
 10
11.05520858474356
 20
26.39303759704936
 30
0.0
 10
11.13069105791137
 20
25.97768918477418
 30
0.0
 10
11.21157811135666
 20
25.56334653280762
 30
0.0
 10
11.3010146711331
 20
25.15076115896925
 30
0.0
 10
11.40006671843784
 20
24.74034374707113
 30
0.0
 10
11.51592353522968
 20
24.33430093651108
 30
0.0
 10
11.64894939441174
 20
23.93355235029036
 30
0.0
 10
11.80207251924524
 20
23.53996818642403
 30
0.0
 10
11.97780648563383
 20
23.15598167088915
 30
0.0
 10
12.17866214017125
 20
22.78413657473891
 30
0.0
 10
12.40933596818072
 20
22.43086921366976
 30
0.0
 10
12.66113442428998
 20
22.0896043288422
 30
0.0
 10
12.98864416099456
 20
21.81962733205219
 30
0.0
 10
13.3663945337084
 20
21.62021610506209
 30
0.0
 10
13.78748740435154
 20
21.55794860968196
 30
0.0
 10
14.1992200781114
 20
21.47225366834762
 30
0.0
 10
14.60456291695335
 20
21.3345330704688
 30
0.0
 10
14.90418087457947
 20
21.01383639014815
 30
0.0
 10
15.01114817229647
 20
20.59982308608164
 30
0.0
 10
15.01421717449208
 20
20.17031194602538
 30
0.0
 10
14.85452216552924
 20
19.77591571645786
 30
0.0
 10
14.66476493725114
 20
19.39948059690953
 30
0.0
 10
14.47484771423958
 20
19.02228045292263
 30
0.0
 10
14.27580712455075
 20
18.65001046466235
 30
0.0
 10
14.069100078005
 20
18.28189537486758
 30
0.0
 10
13.8535187725153
 20
17.91890911125029
 30
0.0
 10
13.62900213072002
 20
17.56137720478078
 30
0.0
 10
13.39526205710182
 20
17.20980158254415
 30
0.0
 10
13.15206704038491
 20
16.86469586234907
 30
0.0
 10
12.8993077775905
 20
16.52653037409802
 30
0.0
 10
12.63744978684654
 20
16.19536512103375
 30
0.0
 10
12.36687536468943
 20
15.8712840285244
 30
0.0
 10
12.08797041545369
 20
15.55434618712597
 30
0.0
 10
11.80110027648313
 20
15.24460141763864
 30
0.0
 10
11.50662845610294
 20
14.94207647776785
 30
0.0
 10
11.20490447948006
 20
14.64678602779834
 30
0.0
 10
10.89627859577709
 20
14.35871954050597
 30
0.0
 10
10.58104373640345
 20
14.07789959028945
 30
0.0
 10
10.25917341452564
 20
13.80470748487965
 30
0.0
 10
9.930684933370907
 20
13.53950736936235
 30
0.0
 10
9.5955973730583
 20
13.28269253691675
 30
0.0
 10
9.253974486951295
 20
13.03463668296933
 30
0.0
 10
8.90610733674098
 20
12.79541776981978
 30
0.0
 10
8.552264717502421
 20
12.56513125246758
 30
0.0
 10
8.192713867291339
 20
12.34386108902552
 30
0.0
 10
7.895015598281693
 20
12.17081967889628
 30
0.0
 10
7.717151746765422
 20
12.07174209840805
 30
0.0
 10
7.66204826814894
 20
12.04145492386546
 30
0.0
  0
SPLINE
  5
A2
330
1F
100
AcDbEntity
  8
0
100
AcDbSpline
210
0.0
220
0.0
230
1.0
 70
     8
 71
     3
 72
    16
 73
    12
 74
     0
 42
0.000000001
 43
0.0000000001
 40
1.994796816640536
 40
1.994796816640536
 40
1.994796816640536
 40
1.994796816640536
 40
2.0
 40
3.0
 40
4.0
 40
5.0
 40
6.0
 40
7.0
 40
8.0
 40
9.0
 40
9.51538784054707
 40
9.51538784054707
 40
9.51538784054707
 40
9.51538784054707
 10
-4.328451654384075
 20
10.66918862409277
 30
0.0
 10
-4.329156610239282
 20
10.66938638674205
 30
0.0
 10
-4.465344256465559
 20
10.70760214156299
 30
0.0
 10
-4.735934531724281
 20
10.78768221831333
 30
0.0
 10
-5.137245824476588
 20
10.9188028114587
 30
0.0
 10
-5.534729024462844
 20
11.06110371326252
 30
0.0
 10
-5.928159015486697
 20
11.2142500599816
 30
0.0
 10
-6.317332497550158
 20
11.37790711795245
 30
0.0
 10
-6.70206250019482
 20
11.55174997348344
 30
0.0
 10
-7.02077619266189
 20
11.70578214912496
 30
0.0
 10
-7.210936411222701
 20
11.80228002307569
 30
0.0
 10
-7.275391861745387
 20
11.83552311877911
 30
0.0
  0
POLYLINE
  5
A3
330
1F
100
AcDbEntity
  8
0
100
AcDb2dPolyline
 66
     1
 10
0.0
 20
0.0
 30
0.0
  0
VERTEX
  5
A4
330
A3
100
AcDbEntity
  8
0
100
AcDbVertex
100
AcDb2dVertex
 10
-7.420301235757691
 20
0.1510000000403906
 30
0.0
  0
VERTEX
  5
A5
330
A3
100
AcDbEntity
  8
0
100
AcDbVertex
100
AcDb2dVertex
 10
7.420301235757691
 20
0.1510000000403906
 30
0.0
  0
SEQEND
  5
A6
330
A3
100
AcDbEntity
  8
0
  0
SPLINE
  5
A7
330
1F
100
AcDbEntity
  8
0
100
AcDbSpline
210
0.0
220
0.0
230
1.0
 70
     8
 71
     3
 72
    14
 73
    10
 74
     0
 42
0.000000001
 43
0.0000000001
 40
-29.78716541677643
 40
-29.78716541677643
 40
-29.78716541677643
 40
-29.78716541677643
 40
-28.7880757737158
 40
-27.78792404755924
 40
-26.78777232140268
 40
-25.78762059524611
 40
-24.78746886908955
 40
-23.78731714293299
 40
-22.78716541677643
 40
-22.78716541677643
 40
-22.78716541677643
 40
-22.78716541677643
 10
8.934732968318848
 20
0.5889997640628726
 30
0.0
 10
8.991849168470756
 20
0.5902443339111374
 30
0.0
 10
9.081847278626697
 20
0.6634890162525738
 30
0.0
 10
9.16927988438686
 20
0.8033780768782808
 30
0.0
 10
9.226720637107737
 20
0.9592021804433116
 30
0.0
 10
9.261409464752983
 20
1.120903244990337
 30
0.0
 10
9.276609684742962
 20
1.285640799821445
 30
0.0
 10
9.273449025364055
 20
1.450992236265702
 30
0.0
 10
9.25962020249359
 20
1.560384687331446
 30
0.0
 10
9.249410672477715
 20
1.614487352441816
 30
0.0
  0
SPLINE
  5
A8
330
1F
100
AcDbEntity
  8
0
100
AcDbSpline
210
0.0
220
0.0
230
1.0
 70
    12
 71
     3
 72
     8
 73
     4
 74
     0
 42
0.000000001
 43
0.0000000001
 40
-22.78716541677643
 40
-22.78716541677643
 40
-22.78716541677643
 40
-22.78716541677643
 40
-12.45009783133422
 40
-12.45009783133422
 40
-12.45009783133422
 40
-12.45009783133422
 10
9.249410672477714
 20
1.614487352441816
 30
0.0
 41
0.8600509947258432
 10
8.628041798359307
 20
4.916319304970058
 30
0.0
 41
0.8600509947258435
 10
8.006673615226507
 20
8.218147592704277
 30
0.0
 41
0.8600509947258432
 10
7.385305090753419
 20
11.51997769596718
 30
0.0
 41
0.8600509947258432
  0
SPLINE
  5
A9
330
1F
100
AcDbEntity
  8
0
100
AcDbSpline
210
0.0
220
0.0
230
1.0
 70
     8
 71
     3
 72
    14
 73
    10
 74
     0
 42
0.000000001
 43
0.0000000001
 40
-12.45009783133422
 40
-12.45009783133422
 40
-12.45009783133422
 40
-12.45009783133422
 40
-11.45009783133422
 40
-10.45009783133422
 40
-9.450097831334215
 40
-8.450097831334215
 40
-7.450097831334216
 40
-6.450097831334216
 40
-5.450097831334216
 40
-5.450097831334216
 40
-5.450097831334216
 40
-5.450097831334216
 10
7.38530509075342
 20
11.51997769596719
 30
0.0
 10
7.379388512678408
 20
11.5514695575296
 30
0.0
 10
7.365148659033073
 20
11.61399366299288
 30
0.0
 10
7.336319666902297
 20
11.70579501774759
 30
0.0
 10
7.299112531756817
 20
11.79450686626611
 30
0.0
 10
7.251767410106376
 20
11.87859580751749
 30
0.0
 10
7.19194447658276
 20
11.9536113275648
 30
0.0
 10
7.11559751125681
 20
12.016439552867
 30
0.0
 10
7.046820727657128
 20
12.01898088804824
 30
0.0
 10
7.018301811510661
 20
12.00263752935047
 30
0.0
  0
LINE
  5
AA
330
1F
100
AcDbEntity
  8
0
100
AcDbLine
 10
7.018301811510661
 20
12.00263752935047
 30
0.0
 11
3.513625770958916
 21
10.26525211508306
 31
0.0
  0
SPLINE
  5
AB
330
1F
100
AcDbEntity
  8
0
100
AcDbSpline
210
0.0
220
0.0
230
1.0
 70
     8
 71
     3
 72
    17
 73
    13
 74
     0
 42
0.000000001
 43
0.0000000001
 40
-1.538415044230103
 40
-1.538415044230103
 40
-1.538415044230103
 40
-1.538415044230103
 40
-1.151355366589899
 40
-1.151355366589899
 40
-1.151355366589899
 40
-0.7697599514994377
 40
-0.7697599514994377
 40
-0.7697599514994377
 40
-0.3920733779100014
 40
-0.3920733779100014
 40
-0.3920733779100014
 40
0.0
 40
0.0
 40
0.0
 40
0.0
 10
3.513625770958916
 20
10.26525211508306
 30
0.0
 10
3.435239481490257
 20
10.22643159329699
 30
0.0
 10
3.350272439490951
 20
10.19375933079295
 30
0.0
 10
3.258275498606068
 20
10.16641518010968
 30
0.0
 10
3.16764414230299
 20
10.13947692064644
 30
0.0
 10
3.069597014886497
 20
10.11747943187462
 30
0.0
 10
2.963184375502934
 20
10.10014664398531
 30
0.0
 10
2.858231824066948
 20
10.0830516792986
 30
0.0
 10
2.744851518000118
 20
10.07043483383329
 30
0.0
 10
2.62547991377231
 20
10.06223111614855
 30
0.0
 10
2.501899850900188
 20
10.05373817552148
 30
0.0
 10
2.3714450692881
 20
10.04996266909093
 30
0.0
 10
2.241453878446478
 20
10.04999599466738
 30
0.0
  0
LINE
  5
AC
330
1F
100
AcDbEntity
  8
0
100
AcDbLine
 10
2.241453878446478
 20
10.04999599466738
 30
0.0
 11
-2.241453878446478
 21
10.04999599466738
 31
0.0
  0
SPLINE
  5
AD
330
1F
100
AcDbEntity
  8
0
100
AcDbSpline
210
0.0
220
0.0
230
1.0
 70
     8
 71
     3
 72
    17
 73
    13
 74
     0
 42
0.000000001
 43
0.0000000001
 40
4.482907756892956
 40
4.482907756892956
 40
4.482907756892956
 40
4.482907756892956
 40
4.874981134802958
 40
4.874981134802958
 40
4.874981134802958
 40
5.252667708392394
 40
5.252667708392394
 40
5.252667708392394
 40
5.634263123482856
 40
5.634263123482856
 40
5.634263123482856
 40
6.021322801123059
 40
6.021322801123059
 40
6.021322801123059
 40
6.021322801123059
 10
-2.241453878446478
 20
10.04999599466738
 30
0.0
 10
-2.3714450692881
 20
10.04996266909093
 30
0.0
 10
-2.501899850900188
 20
10.05373817552148
 30
0.0
 10
-2.62547991377231
 20
10.06223111614855
 30
0.0
 10
-2.744851518000118
 20
10.07043483383329
 30
0.0
 10
-2.858231824066948
 20
10.0830516792986
 30
0.0
 10
-2.963184375502934
 20
10.10014664398531
 30
0.0
 10
-3.069597014886497
 20
10.11747943187462
 30
0.0
 10
-3.16764414230299
 20
10.13947692064644
 30
0.0
 10
-3.258275498606068
 20
10.16641518010968
 30
0.0
 10
-3.350272439490951
 20
10.19375933079295
 30
0.0
 10
-3.435239481490257
 20
10.22643159329699
 30
0.0
 10
-3.513625770958916
 20
10.26525211508306
 30
0.0
  0
LINE
  5
AE
330
1F
100
AcDbEntity
  8
0
100
AcDbLine
 10
-3.513625770958916
 20
10.26525211508306
 30
0.0
 11
-7.018301811510661
 21
12.00263752935047
 31
0.0
  0
SPLINE
  5
AF
330
1F
100
AcDbEntity
  8
0
100
AcDbSpline
210
0.0
220
0.0
230
1.0
 70
     8
 71
     3
 72
    14
 73
    10
 74
     0
 42
0.000000001
 43
0.0000000001
 40
9.933005588227172
 40
9.933005588227172
 40
9.933005588227172
 40
9.933005588227172
 40
10.93300558822717
 40
11.93300558822717
 40
12.93300558822717
 40
13.93300558822717
 40
14.93300558822717
 40
15.93300558822717
 40
16.93300558822717
 40
16.93300558822717
 40
16.93300558822717
 40
16.93300558822717
 10
-7.018301811510661
 20
12.00263752935047
 30
0.0
 10
-7.046820727657128
 20
12.01898088804824
 30
0.0
 10
-7.11559751125681
 20
12.016439552867
 30
0.0
 10
-7.19194447658276
 20
11.9536113275648
 30
0.0
 10
-7.251767410106376
 20
11.87859580751749
 30
0.0
 10
-7.299112531756817
 20
11.79450686626611
 30
0.0
 10
-7.336319666902297
 20
11.70579501774759
 30
0.0
 10
-7.365148659033073
 20
11.61399366299288
 30
0.0
 10
-7.379388512678408
 20
11.5514695575296
 30
0.0
 10
-7.38530509075342
 20
11.51997769596719
 30
0.0
  0
SPLINE
  5
B0
330
1F
100
AcDbEntity
  8
0
100
AcDbSpline
210
0.0
220
0.0
230
1.0
 70
    12
 71
     3
 72
     8
 73
     4
 74
     0
 42
0.000000001
 43
0.0000000001
 40
16.93300558822717
 40
16.93300558822717
 40
16.93300558822717
 40
16.93300558822717
 40
27.27007317366939
 40
27.27007317366939
 40
27.27007317366939
 40
27.27007317366939
 10
-7.385305090753419
 20
11.51997769596718
 30
0.0
 41
0.8600509947258432
 10
-8.006673615226507
 20
8.218147592704277
 30
0.0
 41
0.8600509947258432
 10
-8.628041798359307
 20
4.916319304970058
 30
0.0
 41
0.8600509947258435
 10
-9.249410672477714
 20
1.614487352441816
 30
0.0
 41
0.8600509947258432
  0
SPLINE
  5
B1
330
1F
100
AcDbEntity
  8
0
100
AcDbSpline
210
0.0
220
0.0
230
1.0
 70
     8
 71
     3
 72
    14
 73
    10
 74
     0
 42
0.000000001
 43
0.0000000001
 40
27.27007317366939
 40
27.27007317366939
 40
27.27007317366939
 40
27.27007317366939
 40
28.27022489982595
 40
29.27037662598251
 40
30.27052835213907
 40
31.27068007829563
 40
32.2708318044522
 40
33.27098353060876
 40
34.27007317366939
 40
34.27007317366939
 40
34.27007317366939
 40
34.27007317366939
 10
-9.249410672477715
 20
1.614487352441816
 30
0.0
 10
-9.25962020249359
 20
1.560384687331446
 30
0.0
 10
-9.273449025364055
 20
1.450992236265702
 30
0.0
 10
-9.276609684742962
 20
1.285640799821445
 30
0.0
 10
-9.261409464752983
 20
1.120903244990337
 30
0.0
 10
-9.226720637107737
 20
0.9592021804433116
 30
0.0
 10
-9.16927988438686
 20
0.8033780768782808
 30
0.0
 10
-9.081847278626697
 20
0.6634890162525738
 30
0.0
 10
-8.991849168470756
 20
0.5902443339111374
 30
0.0
 10
-8.934732968318848
 20
0.5889997640628726
 30
0.0
  0
POLYLINE
  5
B2
330
1F
100
AcDbEntity
  8
0
100
AcDb2dPolyline
 66
     1
 10
0.0
 20
0.0
 30
0.0
  0
VERTEX
  5
B3
330
B2
100
AcDbEntity
  8
0
100
AcDbVertex
100
AcDb2dVertex
 10
-8.934732968318848
 20
0.5889997640628726
 30
0.0
  0
VERTEX
  5
B4
330
B2
100
AcDbEntity
  8
0
100
AcDbVertex
100
AcDb2dVertex
 10
8.934732968318848
 20
0.5889997640628726
 30
0.0
  0
SEQEND
  5
B5
330
B2
100
AcDbEntity
  8
0
  0
SPLINE
  5
B6
330
1F
100
AcDbEntity
  8
0
100
AcDbSpline
210
0.0
220
0.0
230
1.0
 70
     8
 71
     3
 72
    14
 73
    10
 74
     0
 42
0.000000001
 43
0.0000000001
 40
0.0
 40
0.0
 40
0.0
 40
0.0
 40
1.000002035903504
 40
2.000004071807007
 40
3.000006107710511
 40
4.000008143614014
 40
5.000010179517518
 40
6.000012215421021
 40
7.0
 40
7.0
 40
7.0
 40
7.0
 10
-8.933753397367369
 20
0.1510003260405632
 30
0.0
 10
-9.025624962158767
 20
0.1505175742086494
 30
0.0
 10
-9.20797232410422
 20
0.199168853022637
 30
0.0
 10
-9.422331859724183
 20
0.3794646624959825
 30
0.0
 10
-9.569399935441847
 20
0.6146846838164927
 30
0.0
 10
-9.66193303886989
 20
0.8750637518640019
 30
0.0
 10
-9.709539199001968
 20
1.14689541562354
 30
0.0
 10
-9.71729577022167
 20
1.422610515797266
 30
0.0
 10
-9.696859948041386
 20
1.605366147910688
 30
0.0
 10
-9.679853447984177
 20
1.695499787867806
 30
0.0
  0
SPLINE
  5
B7
330
1F
100
AcDbEntity
  8
0
100
AcDbSpline
210
0.0
220
0.0
230
1.0
 70
    12
 71
     3
 72
     8
 73
     4
 74
     0
 42
0.000000001
 43
0.0000000001
 40
7.0
 40
7.0
 40
7.0
 40
7.0
 40
17.33706758544223
 40
17.33706758544223
 40
17.33706758544223
 40
17.33706758544223
 10
-9.679853447984177
 20
1.695499787867806
 30
0.0
 41
0.860050994725843
 10
-9.05848565615844
 20
4.997326003991172
 30
0.0
 41
0.860050994725843
 10
-8.437117862929217
 20
8.299152219854399
 30
0.0
 41
0.8600509947258428
 10
-7.815749992776814
 20
11.60097884249089
 30
0.0
 41
0.860050994725843
  0
SPLINE
  5
B8
330
1F
100
AcDbEntity
  8
0
100
AcDbSpline
210
0.0
220
0.0
230
1.0
 70
     8
 71
     3
 72
    14
 73
    10
 74
     0
 42
0.000000001
 43
0.0000000001
 40
17.33706758544223
 40
17.33706758544223
 40
17.33706758544223
 40
17.33706758544223
 40
18.33705952596728
 40
19.33706086921311
 40
20.33706221245893
 40
21.33706355570476
 40
22.33706489895058
 40
23.3370662421964
 40
24.33706758544223
 40
24.33706758544223
 40
24.33706758544223
 40
24.33706758544223
 10
-7.815749992776814
 20
11.60097884249089
 30
0.0
 10
-7.802727337670014
 20
11.67028093559991
 30
0.0
 10
-7.768249565227889
 20
11.80734610992053
 30
0.0
 10
-7.688675128785511
 20
12.00400995323768
 30
0.0
 10
-7.576933050102126
 20
12.18479148035284
 30
0.0
 10
-7.427798520400994
 20
12.33722908387378
 30
0.0
 10
-7.239241220210516
 20
12.4399088708751
 30
0.0
 10
-7.025101538295496
 20
12.46617481769275
 30
0.0
 10
-6.886852354454352
 20
12.42643791744181
 30
0.0
 10
-6.823764224161069
 20
12.3950647542886
 30
0.0
  0
LINE
  5
B9
330
1F
100
AcDbEntity
  8
0
100
AcDbLine
 10
-6.823764224161069
 20
12.3950647542886
 30
0.0
 11
-3.319163542294254
 21
10.65771667945059
 31
0.0
  0
SPLINE
  5
BA
330
1F
100
AcDbEntity
  8
0
100
AcDbSpline
210
0.0
220
0.0
230
1.0
 70
     8
 71
     3
 72
    11
 73
     7
 74
     0
 42
0.000000001
 43
0.0000000001
 40
28.24875037254634
 40
28.24875037254634
 40
28.24875037254634
 40
28.24875037254634
 40
28.44796012379166
 40
28.69480184999609
 40
28.99410406377321
 40
29.34826069637663
 40
29.34826069637663
 40
29.34826069637663
 40
29.34826069637663
 10
-3.319163542294254
 20
10.65771667945059
 30
0.0
 10
-3.259659977765544
 20
10.62825457855251
 30
0.0
 10
-3.119652940645011
 20
10.57662629110786
 30
0.0
 10
-2.876212561903279
 20
10.52495846459894
 30
0.0
 10
-2.577446152307842
 20
10.49382651397363
 30
0.0
 10
-2.359609176860932
 20
10.4879657178282
 30
0.0
 10
-2.241566167609363
 20
10.4879959802737
 30
0.0
  0
LINE
  5
BB
330
1F
100
AcDbEntity
  8
0
100
AcDbLine
 10
-2.241566167609363
 20
10.4879959802737
 30
0.0
 11
2.241566167609363
 21
10.4879959802737
 31
0.0
  0
SPLINE
  5
BC
330
1F
100
AcDbEntity
  8
0
100
AcDbSpline
210
0.0
220
0.0
230
1.0
 70
     8
 71
     3
 72
    11
 73
     7
 74
     0
 42
0.000000001
 43
0.0000000001
 40
33.83139303159536
 40
33.83139303159536
 40
33.83139303159536
 40
33.83139303159536
 40
34.18554966419878
 40
34.48485187797591
 40
34.73169360418034
 40
34.93090335542566
 40
34.93090335542566
 40
34.93090335542566
 40
34.93090335542566
 10
2.241566167609363
 20
10.4879959802737
 30
0.0
 10
2.359609176860932
 20
10.4879657178282
 30
0.0
 10
2.577446152307842
 20
10.49382651397363
 30
0.0
 10
2.876212561903279
 20
10.52495846459894
 30
0.0
 10
3.119652940645011
 20
10.57662629110786
 30
0.0
 10
3.259659977765544
 20
10.62825457855251
 30
0.0
 10
3.319163542294254
 20
10.65771667945059
 30
0.0
  0
LINE
  5
BD
330
1F
100
AcDbEntity
  8
0
100
AcDbLine
 10
3.319163542294254
 20
10.65771667945059
 30
0.0
 11
6.823764224161069
 21
12.3950647542886
 31
0.0
  0
SPLINE
  5
BE
330
1F
100
AcDbEntity
  8
0
100
AcDbSpline
210
0.0
220
0.0
230
1.0
 70
     8
 71
     3
 72
    14
 73
    10
 74
     0
 42
0.000000001
 43
0.0000000001
 40
38.84258614252977
 40
38.84258614252977
 40
38.84258614252977
 40
38.84258614252977
 40
39.8425874857756
 40
40.84258882902142
 40
41.84259017226724
 40
42.84259151551306
 40
43.84259285875889
 40
44.84259420200471
 40
45.84258614252977
 40
45.84258614252977
 40
45.84258614252977
 40
45.84258614252977
 10
6.823764224161069
 20
12.3950647542886
 30
0.0
 10
6.886852354454352
 20
12.42643791744181
 30
0.0
 10
7.025101538295496
 20
12.46617481769275
 30
0.0
 10
7.239241220210516
 20
12.4399088708751
 30
0.0
 10
7.427798520400994
 20
12.33722908387378
 30
0.0
 10
7.576933050102126
 20
12.18479148035284
 30
0.0
 10
7.688675128785511
 20
12.00400995323768
 30
0.0
 10
7.768249565227889
 20
11.80734610992053
 30
0.0
 10
7.802727337670014
 20
11.67028093559991
 30
0.0
 10
7.815749992776814
 20
11.60097884249089
 30
0.0
  0
SPLINE
  5
BF
330
1F
100
AcDbEntity
  8
0
100
AcDbSpline
210
0.0
220
0.0
230
1.0
 70
    12
 71
     3
 72
     8
 73
     4
 74
     0
 42
0.000000001
 43
0.0000000001
 40
45.84258614252977
 40
45.84258614252977
 40
45.84258614252977
 40
45.84258614252977
 40
56.179653727972
 40
56.179653727972
 40
56.179653727972
 40
56.179653727972
 10
7.815749992776814
 20
11.60097884249089
 30
0.0
 41
0.860050994725843
 10
8.437117862929217
 20
8.299152219854399
 30
0.0
 41
0.8600509947258428
 10
9.05848565615844
 20
4.997326003991172
 30
0.0
 41
0.860050994725843
 10
9.679853447984177
 20
1.695499787867806
 30
0.0
 41
0.860050994725843
  0
SPLINE
  5
C0
330
1F
100
AcDbEntity
  8
0
100
AcDbSpline
210
0.0
220
0.0
230
1.0
 70
     8
 71
     3
 72
    14
 73
    10
 74
     0
 42
0.000000001
 43
0.0000000001
 40
56.179653727972
 40
56.179653727972
 40
56.179653727972
 40
56.179653727972
 40
57.17964151255097
 40
58.17964354845448
 40
59.17964558435798
 40
60.17964762026148
 40
61.17964965616499
 40
62.17965169206849
 40
63.179653727972
 40
63.179653727972
 40
63.179653727972
 40
63.179653727972
 10
9.679853447984177
 20
1.695499787867806
 30
0.0
 10
9.696859948041386
 20
1.605366147910688
 30
0.0
 10
9.71729577022167
 20
1.422610515797266
 30
0.0
 10
9.709539199001968
 20
1.14689541562354
 30
0.0
 10
9.66193303886989
 20
0.8750637518640019
 30
0.0
 10
9.569399935441847
 20
0.6146846838164927
 30
0.0
 10
9.422331859724183
 20
0.3794646624959825
 30
0.0
 10
9.20797232410422
 20
0.199168853022637
 30
0.0
 10
9.025624962158767
 20
0.1505175742086494
 30
0.0
 10
8.933753397367369
 20
0.1510003260405632
 30
0.0
  0
SPLINE
  5
C1
330
1F
100
AcDbEntity
  8
0
100
AcDbSpline
210
0.0
220
0.0
230
1.0
 70
    12
 71
     3
 72
     8
 73
     4
 74
     0
 42
0.000000001
 43
0.0000000001
 40
0.8952369098215354
 40
0.8952369098215354
 40
0.8952369098215354
 40
0.8952369098215354
 40
11.70399999999822
 40
11.70399999999822
 40
11.70399999999822
 40
11.70399999999822
 10
6.144245563974968
 20
11.31596142740544
 30
0.0
 41
0.8539748779917495
 10
6.994125415182571
 20
8.116990059804328
 30
0.0
 41
0.8539748779917495
 10
7.844005266390189
 20
4.91801869220323
 30
0.0
 41
0.8539748779917498
 10
8.69388511814953
 20
1.719047324748685
 30
0.0
 41
0.8539748779917495
  0
SPLINE
  5
C2
330
1F
100
AcDbEntity
  8
0
100
AcDbSpline
210
0.0
220
0.0
230
1.0
 70
     8
 71
     3
 72
    32
 73
    28
 74
     0
 42
0.000000001
 43
0.0000000001
 40
11.70399999999822
 40
11.70399999999822
 40
11.70399999999822
 40
11.70399999999822
 40
11.97457109508498
 40
11.97457109508498
 40
11.97457109508498
 40
12.21113491499184
 40
12.21113491499184
 40
12.21113491499184
 40
12.41795244757384
 40
12.41795244757384
 40
12.41795244757384
 40
12.60269356852625
 40
12.60269356852625
 40
12.60269356852625
 40
12.71864252980158
 40
12.71864252980158
 40
12.71864252980158
 40
12.77773670152034
 40
12.77773670152034
 40
12.77773670152034
 40
12.96326411191396
 40
12.96326411191396
 40
12.96326411191396
 40
13.1786629008656
 40
13.1786629008656
 40
13.1786629008656
 40
13.43474498824368
 40
13.43474498824368
 40
13.43474498824368
 40
13.43474498824368
 10
8.69388511814953
 20
1.719047324748685
 30
0.0
 10
8.714694915651267
 20
1.640636190650792
 30
0.0
 10
8.732071041288995
 20
1.557825480784627
 30
0.0
 10
8.744007666074495
 20
1.472650396944637
 30
0.0
 10
8.754412301429923
 20
1.398406990232186
 30
0.0
 10
8.760909359296576
 20
1.320617747243801
 30
0.0
 10
8.76156033124947
 20
1.242647094698217
 30
0.0
 10
8.762127567592657
 20
1.174705937433167
 30
0.0
 10
8.758238577357403
 20
1.104787093155277
 30
0.0
 10
8.748607441967764
 20
1.037639467657968
 30
0.0
 10
8.739996387389127
 20
0.9776037766837469
 30
0.0
 10
8.726680877079914
 20
0.9191505762080929
 30
0.0
 10
8.708844321086374
 20
0.8665397020955012
 30
0.0
 10
8.697606322733535
 20
0.8333919959558429
 30
0.0
 10
8.684753805802941
 20
0.8030176766156636
 30
0.0
 10
8.670757344593042
 20
0.7758809771113206
 30
0.0
 10
8.663625018352903
 20
0.7620526392876705
 30
0.0
 10
8.656274434364335
 20
0.7492112037709795
 30
0.0
 10
8.648764350582937
 20
0.7373147461078986
 30
0.0
 10
8.625130991670474
 20
0.6998779794989254
 30
0.0
 10
8.600649337138478
 20
0.672713397578093
 30
0.0
 10
8.577306674586012
 20
0.6528176638771157
 30
0.0
 10
8.550727499109442
 20
0.630163341728398
 30
0.0
 10
8.523516905023754
 20
0.6153721664425866
 30
0.0
 10
8.497844043663392
 20
0.6059441536763259
 30
0.0
 10
8.466805908270501
 20
0.5945458162406361
 30
0.0
 10
8.433847020359408
 20
0.5893064039597604
 30
0.0
 10
8.398750188364758
 20
0.5890290212602771
 30
0.0
  0
SPLINE
  5
C3
330
1F
100
AcDbEntity
  8
0
100
AcDbSpline
210
0.0
220
0.0
230
1.0
 70
     8
 71
     3
 72
    17
 73
    13
 74
     0
 42
0.000000001
 43
0.0000000001
 40
1.239289649600744
 40
1.239289649600744
 40
1.239289649600744
 40
1.239289649600744
 40
1.483685354419175
 40
1.483685354419175
 40
1.483685354419175
 40
1.756384026355136
 40
1.756384026355136
 40
1.756384026355136
 40
2.049246587162829
 40
2.049246587162829
 40
2.049246587162829
 40
2.36947441133271
 40
2.36947441133271
 40
2.36947441133271
 40
2.36947441133271
 10
9.12917060890517
 20
0.7425603351411034
 30
0.0
 10
9.153198123176722
 20
0.8168878798837724
 30
0.0
 10
9.17067291183811
 20
0.895485593510088
 30
0.0
 10
9.182159993805627
 20
0.975392731639559
 30
0.0
 10
9.195036379994107
 20
1.064964232276683
 30
0.0
 10
9.2002983972843
 20
1.155702560850759
 30
0.0
 10
9.199545157323442
 20
1.246257571973043
 30
0.0
 10
9.198734594188167
 20
1.343704013402615
 30
0.0
 10
9.19095329814364
 20
1.439395845923723
 30
0.0
 10
9.177781504613549
 20
1.533353443089265
 30
0.0
 10
9.163371595832942
 20
1.6361428165568
 30
0.0
 10
9.142718134923896
 20
1.735291554973122
 30
0.0
 10
9.117248974386765
 20
1.83132840903193
 30
0.0
  0
SPLINE
  5
C4
330
1F
100
AcDbEntity
  8
0
100
AcDbSpline
210
0.0
220
0.0
230
1.0
 70
    12
 71
     3
 72
     8
 73
     4
 74
     0
 42
0.000000001
 43
0.0000000001
 40
2.36947441133271
 40
2.36947441133271
 40
2.36947441133271
 40
2.36947441133271
 40
13.24689239546116
 40
13.24689239546116
 40
13.24689239546116
 40
13.24689239546116
 10
9.117248974386765
 20
1.83132840903193
 30
0.0
 41
0.8539748779917498
 10
8.261968573015011
 20
5.05062760387683
 30
0.0
 41
0.8539748779917498
 10
7.406690091694117
 20
8.269919565185402
 30
0.0
 41
0.8539748779917495
 10
6.551411610373237
 20
11.48921152649399
 30
0.0
 41
0.8539748779917496
  0
POLYLINE
  5
C5
330
1F
100
AcDbEntity
  8
0
370
    -3
100
AcDb2dPolyline
 66
     1
 10
0.0
 20
0.0
 30
0.0
  0
VERTEX
  5
C6
330
C5
100
AcDbEntity
  8
0
370
    -3
100
AcDbVertex
100
AcDb2dVertex
 10
8.933753397367369
 20
0.1510003260405632
 30
0.0
  0
VERTEX
  5
C7
330
C5
100
AcDbEntity
  8
0
370
    -3
100
AcDbVertex
100
AcDb2dVertex
 10
8.775879596432404
 20
0.1500008526253893
 30
0.0
  0
SEQEND
  5
C8
330
C5
100
AcDbEntity
  8
0
370
    -3
  0
SPLINE
  5
C9
330
1F
100
AcDbEntity
  8
0
370
    -3
100
AcDbSpline
210
0.0
220
0.0
230
1.0
 70
     8
 71
     3
 72
    15
 73
    11
 74
     0
 42
0.000000001
 43
0.0000000001
 40
0.0
 40
0.0
 40
0.0
 40
0.0
 40
1.0
 40
2.0
 40
3.0
 40
4.0
 40
5.0
 40
6.0
 40
7.0
 40
8.0
 40
8.0
 40
8.0
 40
8.0
 10
8.775879596432404
 20
0.1500008526253893
 30
0.0
 10
8.758381549108847
 20
0.1499416143448569
 30
0.0
 10
8.72328904690342
 20
0.1567956398377817
 30
0.0
 10
8.678755612863675
 20
0.1859237850930611
 30
0.0
 10
8.64327391479318
 20
0.2251485040975509
 30
0.0
 10
8.618623937386719
 20
0.2719202105862546
 30
0.0
 10
8.604137736631328
 20
0.3227522016172696
 30
0.0
 10
8.600927153770344
 20
0.3753147215940972
 30
0.0
 10
8.597856527275127
 20
0.4277041878307147
 30
0.0
 10
8.595403932675717
 20
0.4626619218472331
 30
0.0
 10
8.592855817132445
 20
0.4799910636819789
 30
0.0
  0
SPLINE
  5
CA
330
1F
100
AcDbEntity
  8
0
370
    -3
100
AcDbSpline
210
0.0
220
0.0
230
1.0
 70
     8
 71
     3
 72
     8
 73
     4
 74
     0
 42
0.000000001
 43
0.0000000001
 40
8.0
 40
8.0
 40
8.0
 40
8.0
 40
9.0
 40
9.0
 40
9.0
 40
9.0
 10
8.592855817132445
 20
0.4799910636819789
 30
0.0
 10
8.585507952257812
 20
0.5284058812635073
 30
0.0
 10
8.541351496604166
 20
0.5400000000000226
 30
0.0
 10
8.484988109842645
 20
0.5400000000000227
 30
0.0
  0
SPLINE
  5
CB
330
1F
100
AcDbEntity
  8
0
370
    -3
100
AcDbSpline
210
0.0
220
0.0
230
1.0
 70
    28
 71
     2
 72
     6
 73
     3
 74
     0
 42
0.000000001
 43
0.0000000001
 40
9.0
 40
9.0
 40
9.0
 40
10.61999999594996
 40
10.61999999594996
 40
10.61999999594996
 10
8.484988109842645
 20
0.5400000000000227
 30
0.0
 41
0.8722904123741109
 10
8.017303963354424
 20
0.5400000000000237
 30
0.0
 41
0.8722904123741109
 10
7.549619816866204
 20
0.5400000000000247
 30
0.0
 41
0.8722904123741109
  0
SPLINE
  5
CC
330
1F
100
AcDbEntity
  8
0
370
    -3
100
AcDbSpline
210
0.0
220
0.0
230
1.0
 70
     8
 71
     3
 72
     8
 73
     4
 74
     0
 42
0.000000001
 43
0.0000000001
 40
10.61999999594996
 40
10.61999999594996
 40
10.61999999594996
 40
10.61999999594996
 40
11.61999999594996
 40
11.61999999594996
 40
11.61999999594996
 40
11.61999999594996
 10
7.549619816866204
 20
0.5400000000000247
 30
0.0
 10
7.441931774074861
 20
0.5400000000000249
 30
0.0
 10
7.392466860748899
 20
0.4788252732463513
 30
0.0
 10
7.40075042408337
 20
0.3696346157705968
 30
0.0
  0
LINE
  5
CD
330
1F
100
AcDbEntity
  8
0
370
    -3
100
AcDbLine
 10
7.40075042408337
 20
0.3696346157705968
 30
0.0
 11
7.415493430422501
 21
0.1752981339524524
 31
0.0
  0
SPLINE
  5
CE
330
1F
100
AcDbEntity
  8
0
370
    -3
100
AcDbSpline
210
0.0
220
0.0
230
1.0
 70
     8
 71
     3
 72
     9
 73
     5
 74
     0
 42
0.000000001
 43
0.0000000001
 40
11.8148949019926
 40
11.8148949019926
 40
11.8148949019926
 40
11.8148949019926
 40
12.8148949019926
 40
13.8148949019926
 40
13.8148949019926
 40
13.8148949019926
 40
13.8148949019926
 10
7.415493430422501
 20
0.1752981339524524
 30
0.0
 10
7.422533272924912
 20
0.1235728394263591
 30
0.0
 10
7.485674742484967
 20
0.0339199908771595
 30
0.0
 10
7.588027750127645
 20
-0.0001710426496402
 30
0.0
 10
7.639637332134967
 20
0.0
 30
0.0
  0
LINE
  5
CF
330
1F
100
AcDbEntity
  8
0
370
    -3
100
AcDbLine
 10
7.639637332134967
 20
0.0
 30
0.0
 11
8.776533862566296
 21
0.0000000000000284
 31
0.0
  0
SPLINE
  5
D0
330
1F
100
AcDbEntity
  8
0
370
    -3
100
AcDbSpline
210
0.0
220
0.0
230
1.0
 70
     8
 71
     3
 72
     9
 73
     5
 74
     0
 42
0.000000001
 43
0.0000000001
 40
14.95179143242393
 40
14.95179143242393
 40
14.95179143242393
 40
14.95179143242393
 40
15.95179143242392
 40
16.95179143242392
 40
16.95179143242392
 40
16.95179143242392
 40
16.95179143242392
 10
8.776533862566296
 20
0.0000000000000284
 30
0.0
 10
8.824541701579864
 20
-0.000180321323741
 30
0.0
 10
8.919758127979996
 20
0.0294325655575838
 30
0.0
 10
8.983554559118941
 20
0.1075543684278978
 30
0.0
 10
8.996357272957667
 20
0.1541765347039963
 30
0.0
  0
SPLINE
  5
D1
330
1F
100
AcDbEntity
  8
0
100
AcDbSpline
210
0.0
220
0.0
230
1.0
 70
    12
 71
     3
 72
     8
 73
     4
 74
     0
 42
0.000000001
 43
0.0000000001
 40
0.8952369098215354
 40
0.8952369098215354
 40
0.8952369098215354
 40
0.8952369098215354
 40
11.70399999999822
 40
11.70399999999822
 40
11.70399999999822
 40
11.70399999999822
 10
-6.144245563974968
 20
11.31596142740544
 30
0.0
 41
0.8539748779917495
 10
-6.994125415182571
 20
8.116990059804328
 30
0.0
 41
0.8539748779917495
 10
-7.844005266390189
 20
4.91801869220323
 30
0.0
 41
0.8539748779917498
 10
-8.69388511814953
 20
1.719047324748685
 30
0.0
 41
0.8539748779917495
  0
SPLINE
  5
D2
330
1F
100
AcDbEntity
  8
0
100
AcDbSpline
210
0.0
220
0.0
230
1.0
 70
     8
 71
     3
 72
    32
 73
    28
 74
     0
 42
0.000000001
 43
0.0000000001
 40
11.70399999999822
 40
11.70399999999822
 40
11.70399999999822
 40
11.70399999999822
 40
11.97457109508498
 40
11.97457109508498
 40
11.97457109508498
 40
12.21113491499184
 40
12.21113491499184
 40
12.21113491499184
 40
12.41795244757384
 40
12.41795244757384
 40
12.41795244757384
 40
12.60269356852625
 40
12.60269356852625
 40
12.60269356852625
 40
12.71864252980158
 40
12.71864252980158
 40
12.71864252980158
 40
12.77773670152034
 40
12.77773670152034
 40
12.77773670152034
 40
12.96326411191396
 40
12.96326411191396
 40
12.96326411191396
 40
13.1786629008656
 40
13.1786629008656
 40
13.1786629008656
 40
13.43474498824368
 40
13.43474498824368
 40
13.43474498824368
 40
13.43474498824368
 10
-8.69388511814953
 20
1.719047324748685
 30
0.0
 10
-8.714694915651267
 20
1.640636190650792
 30
0.0
 10
-8.732071041288995
 20
1.557825480784627
 30
0.0
 10
-8.744007666074495
 20
1.472650396944637
 30
0.0
 10
-8.754412301429923
 20
1.398406990232186
 30
0.0
 10
-8.760909359296576
 20
1.320617747243801
 30
0.0
 10
-8.76156033124947
 20
1.242647094698217
 30
0.0
 10
-8.762127567592657
 20
1.174705937433167
 30
0.0
 10
-8.758238577357403
 20
1.104787093155277
 30
0.0
 10
-8.748607441967764
 20
1.037639467657968
 30
0.0
 10
-8.739996387389127
 20
0.9776037766837469
 30
0.0
 10
-8.726680877079914
 20
0.9191505762080929
 30
0.0
 10
-8.708844321086374
 20
0.8665397020955012
 30
0.0
 10
-8.697606322733535
 20
0.8333919959558429
 30
0.0
 10
-8.684753805802941
 20
0.8030176766156636
 30
0.0
 10
-8.670757344593042
 20
0.7758809771113206
 30
0.0
 10
-8.663625018352903
 20
0.7620526392876705
 30
0.0
 10
-8.656274434364335
 20
0.7492112037709795
 30
0.0
 10
-8.648764350582937
 20
0.7373147461078986
 30
0.0
 10
-8.625130991670474
 20
0.6998779794989254
 30
0.0
 10
-8.600649337138478
 20
0.672713397578093
 30
0.0
 10
-8.577306674586012
 20
0.6528176638771157
 30
0.0
 10
-8.550727499109442
 20
0.630163341728398
 30
0.0
 10
-8.523516905023754
 20
0.6153721664425866
 30
0.0
 10
-8.497844043663392
 20
0.6059441536763259
 30
0.0
 10
-8.466805908270501
 20
0.5945458162406361
 30
0.0
 10
-8.433847020359408
 20
0.5893064039597604
 30
0.0
 10
-8.398750188364758
 20
0.5890290212602771
 30
0.0
  0
SPLINE
  5
D3
330
1F
100
AcDbEntity
  8
0
100
AcDbSpline
210
0.0
220
0.0
230
1.0
 70
     8
 71
     3
 72
    17
 73
    13
 74
     0
 42
0.000000001
 43
0.0000000001
 40
1.239289649600744
 40
1.239289649600744
 40
1.239289649600744
 40
1.239289649600744
 40
1.483685354419175
 40
1.483685354419175
 40
1.483685354419175
 40
1.756384026355136
 40
1.756384026355136
 40
1.756384026355136
 40
2.049246587162829
 40
2.049246587162829
 40
2.049246587162829
 40
2.36947441133271
 40
2.36947441133271
 40
2.36947441133271
 40
2.36947441133271
 10
-9.12917060890517
 20
0.7425603351411034
 30
0.0
 10
-9.153198123176722
 20
0.8168878798837724
 30
0.0
 10
-9.17067291183811
 20
0.895485593510088
 30
0.0
 10
-9.182159993805627
 20
0.975392731639559
 30
0.0
 10
-9.195036379994107
 20
1.064964232276683
 30
0.0
 10
-9.2002983972843
 20
1.155702560850759
 30
0.0
 10
-9.199545157323442
 20
1.246257571973043
 30
0.0
 10
-9.198734594188167
 20
1.343704013402615
 30
0.0
 10
-9.19095329814364
 20
1.439395845923723
 30
0.0
 10
-9.177781504613549
 20
1.533353443089265
 30
0.0
 10
-9.163371595832942
 20
1.6361428165568
 30
0.0
 10
-9.142718134923896
 20
1.735291554973122
 30
0.0
 10
-9.117248974386765
 20
1.83132840903193
 30
0.0
  0
SPLINE
  5
D4
330
1F
100
AcDbEntity
  8
0
100
AcDbSpline
210
0.0
220
0.0
230
1.0
 70
    12
 71
     3
 72
     8
 73
     4
 74
     0
 42
0.000000001
 43
0.0000000001
 40
2.36947441133271
 40
2.36947441133271
 40
2.36947441133271
 40
2.36947441133271
 40
13.24689239546116
 40
13.24689239546116
 40
13.24689239546116
 40
13.24689239546116
 10
-9.117248974386765
 20
1.83132840903193
 30
0.0
 41
0.8539748779917498
 10
-8.261968573015011
 20
5.05062760387683
 30
0.0
 41
0.8539748779917498
 10
-7.406690091694117
 20
8.269919565185402
 30
0.0
 41
0.8539748779917495
 10
-6.551411610373237
 20
11.48921152649399
 30
0.0
 41
0.8539748779917496
  0
POLYLINE
  5
D5
330
1F
100
AcDbEntity
  8
0
370
    -3
100
AcDb2dPolyline
 66
     1
 10
0.0
 20
0.0
 30
0.0
  0
VERTEX
  5
D6
330
D5
100
AcDbEntity
  8
0
370
    -3
100
AcDbVertex
100
AcDb2dVertex
 10
-8.933753397367369
 20
0.1510003260405632
 30
0.0
  0
VERTEX
  5
D7
330
D5
100
AcDbEntity
  8
0
370
    -3
100
AcDbVertex
100
AcDb2dVertex
 10
-8.775879596432404
 20
0.1500008526253893
 30
0.0
  0
SEQEND
  5
D8
330
D5
100
AcDbEntity
  8
0
370
    -3
  0
SPLINE
  5
D9
330
1F
100
AcDbEntity
  8
0
370
    -3
100
AcDbSpline
210
0.0
220
0.0
230
1.0
 70
     8
 71
     3
 72
    15
 73
    11
 74
     0
 42
0.000000001
 43
0.0000000001
 40
0.0
 40
0.0
 40
0.0
 40
0.0
 40
1.0
 40
2.0
 40
3.0
 40
4.0
 40
5.0
 40
6.0
 40
7.0
 40
8.0
 40
8.0
 40
8.0
 40
8.0
 10
-8.775879596432404
 20
0.1500008526253893
 30
0.0
 10
-8.758381549108847
 20
0.1499416143448569
 30
0.0
 10
-8.72328904690342
 20
0.1567956398377817
 30
0.0
 10
-8.678755612863675
 20
0.1859237850930611
 30
0.0
 10
-8.64327391479318
 20
0.2251485040975509
 30
0.0
 10
-8.618623937386719
 20
0.2719202105862546
 30
0.0
 10
-8.604137736631328
 20
0.3227522016172696
 30
0.0
 10
-8.600927153770344
 20
0.3753147215940972
 30
0.0
 10
-8.597856527275127
 20
0.4277041878307147
 30
0.0
 10
-8.595403932675717
 20
0.4626619218472331
 30
0.0
 10
-8.592855817132445
 20
0.4799910636819789
 30
0.0
  0
SPLINE
  5
DA
330
1F
100
AcDbEntity
  8
0
370
    -3
100
AcDbSpline
210
0.0
220
0.0
230
1.0
 70
     8
 71
     3
 72
     8
 73
     4
 74
     0
 42
0.000000001
 43
0.0000000001
 40
8.0
 40
8.0
 40
8.0
 40
8.0
 40
9.0
 40
9.0
 40
9.0
 40
9.0
 10
-8.592855817132445
 20
0.4799910636819789
 30
0.0
 10
-8.585507952257812
 20
0.5284058812635073
 30
0.0
 10
-8.541351496604166
 20
0.5400000000000226
 30
0.0
 10
-8.484988109842645
 20
0.5400000000000227
 30
0.0
  0
SPLINE
  5
DB
330
1F
100
AcDbEntity
  8
0
370
    -3
100
AcDbSpline
210
0.0
220
0.0
230
1.0
 70
    28
 71
     2
 72
     6
 73
     3
 74
     0
 42
0.000000001
 43
0.0000000001
 40
9.0
 40
9.0
 40
9.0
 40
10.61999999594996
 40
10.61999999594996
 40
10.61999999594996
 10
-8.484988109842645
 20
0.5400000000000227
 30
0.0
 41
0.8722904123741109
 10
-8.017303963354424
 20
0.5400000000000237
 30
0.0
 41
0.8722904123741109
 10
-7.549619816866204
 20
0.5400000000000247
 30
0.0
 41
0.8722904123741109
  0
SPLINE
  5
DC
330
1F
100
AcDbEntity
  8
0
370
    -3
100
AcDbSpline
210
0.0
220
0.0
230
1.0
 70
     8
 71
     3
 72
     8
 73
     4
 74
     0
 42
0.000000001
 43
0.0000000001
 40
10.61999999594996
 40
10.61999999594996
 40
10.61999999594996
 40
10.61999999594996
 40
11.61999999594996
 40
11.61999999594996
 40
11.61999999594996
 40
11.61999999594996
 10
-7.549619816866204
 20
0.5400000000000247
 30
0.0
 10
-7.441931774074861
 20
0.5400000000000249
 30
0.0
 10
-7.392466860748899
 20
0.4788252732463513
 30
0.0
 10
-7.40075042408337
 20
0.3696346157705968
 30
0.0
  0
LINE
  5
DD
330
1F
100
AcDbEntity
  8
0
370
    -3
100
AcDbLine
 10
-7.40075042408337
 20
0.3696346157705968
 30
0.0
 11
-7.415493430422501
 21
0.1752981339524524
 31
0.0
  0
SPLINE
  5
DE
330
1F
100
AcDbEntity
  8
0
370
    -3
100
AcDbSpline
210
0.0
220
0.0
230
1.0
 70
     8
 71
     3
 72
     9
 73
     5
 74
     0
 42
0.000000001
 43
0.0000000001
 40
11.8148949019926
 40
11.8148949019926
 40
11.8148949019926
 40
11.8148949019926
 40
12.8148949019926
 40
13.8148949019926
 40
13.8148949019926
 40
13.8148949019926
 40
13.8148949019926
 10
-7.415493430422501
 20
0.1752981339524524
 30
0.0
 10
-7.422533272924912
 20
0.1235728394263591
 30
0.0
 10
-7.485674742484967
 20
0.0339199908771595
 30
0.0
 10
-7.588027750127645
 20
-0.0001710426496402
 30
0.0
 10
-7.639637332134967
 20
0.0
 30
0.0
  0
LINE
  5
DF
330
1F
100
AcDbEntity
  8
0
370
    -3
100
AcDbLine
 10
-7.639637332134967
 20
0.0
 30
0.0
 11
-8.776533862566296
 21
0.0000000000000284
 31
0.0
  0
SPLINE
  5
E0
330
1F
100
AcDbEntity
  8
0
370
    -3
100
AcDbSpline
210
0.0
220
0.0
230
1.0
 70
     8
 71
     3
 72
     9
 73
     5
 74
     0
 42
0.000000001
 43
0.0000000001
 40
14.95179143242393
 40
14.95179143242393
 40
14.95179143242393
 40
14.95179143242393
 40
15.95179143242392
 40
16.95179143242392
 40
16.95179143242392
 40
16.95179143242392
 40
16.95179143242392
 10
-8.776533862566296
 20
0.0000000000000284
 30
0.0
 10
-8.824541701579864
 20
-0.000180321323741
 30
0.0
 10
-8.919758127979996
 20
0.0294325655575838
 30
0.0
 10
-8.983554559118941
 20
0.1075543684278978
 30
0.0
 10
-8.996357272957667
 20
0.1541765347039963
 30
0.0
  0
SPLINE
  5
E1
330
1F
100
AcDbEntity
  8
0
100
AcDbSpline
210
0.0
220
0.0
230
1.0
 70
     8
 71
     3
 72
    10
 73
     6
 74
     0
 42
0.000000001
 43
0.0000000001
 40
0.0
 40
0.0
 40
0.0
 40
0.0
 40
1.0
 40
2.0
 40
3.0
 40
3.0
 40
3.0
 40
3.0
 10
-8.510933999999999
 20
16.25790146567201
 30
0.0
 10
-7.706696755119075
 20
16.84602818528347
 30
0.0
 10
-5.738821261927415
 20
16.83953487797142
 30
0.0
 10
-2.895965427394978
 20
17.02142763934461
 30
0.0
 10
-0.9754545735167467
 20
17.00258926250001
 30
0.0
 10
-0.0201200000000057
 20
17.005219465672
 30
0.0
  0
SPLINE
  5
E2
330
1F
100
AcDbEntity
  8
0
100
AcDbSpline
210
0.0
220
0.0
230
1.0
 70
     8
 71
     3
 72
    10
 73
     6
 74
     0
 42
0.000000001
 43
0.0000000001
 40
0.0
 40
0.0
 40
0.0
 40
0.0
 40
1.0
 40
2.0
 40
3.0
 40
3.0
 40
3.0
 40
3.0
 10
8.510933999999999
 20
16.25790146567201
 30
0.0
 10
7.706696755119075
 20
16.84602818528347
 30
0.0
 10
5.738821261927415
 20
16.83953487797142
 30
0.0
 10
2.895965427394978
 20
17.02142763934461
 30
0.0
 10
0.9754545735167467
 20
17.00258926250001
 30
0.0
 10
0.0201200000000057
 20
17.005219465672
 30
0.0
  0
SPLINE
  5
E3
330
1F
100
AcDbEntity
  8
0
370
    -3
100
AcDbSpline
210
0.0
220
0.0
230
1.0
 70
     8
 71
     3
 72
    14
 73
    10
 74
     0
 42
0.000000001
 43
0.0000000001
 40
0.0
 40
0.0
 40
0.0
 40
0.0
 40
1.000013369693295
 40
2.000026739386589
 40
3.000040109079884
 40
4.000053478773179
 40
5.000066848466473
 40
6.000080218159768
 40
7.0
 40
7.0
 40
7.0
 40
7.0
 10
-14.83990362713267
 20
19.80919980565877
 30
0.0
 10
-14.2891979596299
 20
19.2237924712096
 30
0.0
 10
-13.22414953565947
 20
18.01431496391469
 30
0.0
 10
-11.40586148637725
 20
16.42242023396095
 30
0.0
 10
-9.434484774769865
 20
15.01881102556127
 30
0.0
 10
-7.207733581322709
 20
14.04402479687695
 30
0.0
 10
-4.820551405938762
 20
13.62382854799678
 30
0.0
 10
-2.413616719637982
 20
13.44986735439617
 30
0.0
 10
-0.8042113575629606
 20
13.4286086061742
 30
0.0
 10
0.0
 20
13.42904797996775
 30
0.0
  0
SPLINE
  5
E4
330
1F
100
AcDbEntity
  8
0
370
    -3
100
AcDbSpline
210
0.0
220
0.0
230
1.0
 70
     8
 71
     3
 72
    14
 73
    10
 74
     0
 42
0.000000001
 43
0.0000000001
 40
7.0
 40
7.0
 40
7.0
 40
7.0
 40
7.999919781840232
 40
8.999933151533526
 40
9.999946521226821
 40
10.99995989092012
 40
11.99997326061341
 40
12.9999866303067
 40
14.0
 40
14.0
 40
14.0
 40
14.0
 10
0.0
 20
13.42904797996775
 30
0.0
 10
0.8042113575629606
 20
13.4286086061742
 30
0.0
 10
2.413616719637982
 20
13.44986735439617
 30
0.0
 10
4.820551405938762
 20
13.62382854799678
 30
0.0
 10
7.207733581322709
 20
14.04402479687695
 30
0.0
 10
9.434484774769865
 20
15.01881102556127
 30
0.0
 10
11.40586148637725
 20
16.42242023396095
 30
0.0
 10
13.22414953565947
 20
18.01431496391469
 30
0.0
 10
14.2891979596299
 20
19.2237924712096
 30
0.0
 10
14.83990362713267
 20
19.80919980565877
 30
0.0
  0
SPLINE
  5
E5
330
1F
100
AcDbEntity
  8
0
370
    -3
100
AcDbSpline
210
0.0
220
0.0
230
1.0
 70
     8
 71
     3
 72
    10
 73
     6
 74
     0
 42
0.000000001
 43
0.0000000001
 40
0.0
 40
0.0
 40
0.0
 40
0.0
 40
1.0
 40
2.0
 40
3.0
 40
3.0
 40
3.0
 40
3.0
 10
-13.49990225822903
 20
21.19216939263268
 30
0.0
 10
-13.02914690804726
 20
21.12602706682321
 30
0.0
 10
-12.12879464975619
 20
20.74841975815733
 30
0.0
 10
-11.15068224396149
 20
19.68298615174965
 30
0.0
 10
-10.70169559558466
 20
18.8425729599288
 30
0.0
 10
-10.50054484363105
 20
18.41273645508034
 30
0.0
  0
SPLINE
  5
E6
330
1F
100
AcDbEntity
  8
0
370
    -3
100
AcDbSpline
210
0.0
220
0.0
230
1.0
 70
     8
 71
     3
 72
    14
 73
    10
 74
     0
 42
0.000000001
 43
0.0000000001
 40
3.0
 40
3.0
 40
3.0
 40
3.0
 40
4.000019136560711
 40
5.000038273121422
 40
6.000057409682134
 40
7.000076546242845
 40
8.000095682803556
 40
9.000114819364267
 40
10.0
 40
10.0
 40
10.0
 40
10.0
 10
-10.50054484363105
 20
18.41273645508034
 30
0.0
 10
-10.16335625313113
 20
17.96974470041321
 30
0.0
 10
-9.567474967537176
 20
17.00614973290624
 30
0.0
 10
-8.203438307434052
 20
15.99270527083504
 30
0.0
 10
-6.671792180228499
 20
15.30182043739288
 30
0.0
 10
-5.021420213298478
 20
14.96094636484259
 30
0.0
 10
-3.351787070675936
 20
14.81557865838868
 30
0.0
 10
-1.675520159157599
 20
14.78414126560973
 30
0.0
 10
-0.5585603162404995
 20
14.78466155893961
 30
0.0
 10
0.0
 20
14.78482522827401
 30
0.0
  0
SPLINE
  5
E7
330
1F
100
AcDbEntity
  8
0
370
    -3
100
AcDbSpline
210
0.0
220
0.0
230
1.0
 70
     8
 71
     3
 72
    14
 73
    10
 74
     0
 42
0.000000001
 43
0.0000000001
 40
10.0
 40
10.0
 40
10.0
 40
10.0
 40
10.99988518063574
 40
11.99990431719645
 40
12.99992345375716
 40
13.99994259031787
 40
14.99996172687858
 40
15.99998086343929
 40
17.0
 40
17.0
 40
17.0
 40
17.0
 10
0.0
 20
14.78482522827401
 30
0.0
 10
0.5585603162404856
 20
14.78466155893961
 30
0.0
 10
1.675520159157593
 20
14.78414126560973
 30
0.0
 10
3.351787070675936
 20
14.81557865838868
 30
0.0
 10
5.021420213298478
 20
14.96094636484259
 30
0.0
 10
6.671792180228499
 20
15.30182043739288
 30
0.0
 10
8.203438307434052
 20
15.99270527083504
 30
0.0
 10
9.567474967537176
 20
17.00614973290624
 30
0.0
 10
10.16335625313113
 20
17.96974470041321
 30
0.0
 10
10.50054484363105
 20
18.41273645508034
 30
0.0
  0
SPLINE
  5
E8
330
1F
100
AcDbEntity
  8
0
370
    -3
100
AcDbSpline
210
0.0
220
0.0
230
1.0
 70
     8
 71
     3
 72
    10
 73
     6
 74
     0
 42
0.000000001
 43
0.0000000001
 40
17.0
 40
17.0
 40
17.0
 40
17.0
 40
18.0
 40
19.0
 40
20.0
 40
20.0
 40
20.0
 40
20.0
 10
10.50054484363105
 20
18.41273645508034
 30
0.0
 10
10.70169559558466
 20
18.8425729599288
 30
0.0
 10
11.15068224396149
 20
19.68298615174965
 30
0.0
 10
12.12879464975619
 20
20.74841975815733
 30
0.0
 10
13.02914690804726
 20
21.12602706682321
 30
0.0
 10
13.49990225822903
 20
21.19216939263268
 30
0.0
  0
SPLINE
  5
E9
330
1F
100
AcDbEntity
  8
0
370
    -3
100
AcDbSpline
210
0.0
220
0.0
230
1.0
 70
     8
 71
     3
 72
     8
 73
     4
 74
     0
 42
0.000000001
 43
0.0000000001
 40
0.2156094077732784
 40
0.2156094077732784
 40
0.2156094077732784
 40
0.2156094077732784
 40
0.2159426301877233
 40
0.2159426301877233
 40
0.2159426301877233
 40
0.2159426301877233
 10
-7.186450227581005
 20
15.54267217818952
 30
0.0
 10
-7.186364678844782
 20
15.54263952072789
 30
0.0
 10
-7.186279124943511
 20
15.54260686330482
 30
0.0
 10
-7.186193565881325
 20
15.54257420592165
 30
0.0
  0
SPLINE
  5
EA
330
1F
100
AcDbEntity
  8
0
370
    -3
100
AcDbSpline
210
0.0
220
0.0
230
1.0
 70
     8
 71
     3
 72
     8
 73
     4
 74
     0
 42
0.000000001
 43
0.0000000001
 40
0.0
 40
0.0
 40
0.0
 40
0.0
 40
0.0159116668765594
 40
0.0159116668765594
 40
0.0159116668765594
 40
0.0159116668765594
 10
-12.08010269204723
 20
17.03112612658848
 30
0.0
 10
-12.0832320983377
 20
17.03527905148181
 30
0.0
 10
-12.08633320410993
 20
17.03940883136504
 30
0.0
 10
-12.08939853447222
 20
17.04352045070968
 30
0.0
  0
SPLINE
  5
EB
330
1F
100
AcDbEntity
  8
0
370
    -3
100
AcDbSpline
210
0.0
220
0.0
230
1.0
 70
     8
 71
     3
 72
     8
 73
     4
 74
     0
 42
0.000000001
 43
0.0000000001
 40
0.0000000039080075
 40
0.0000000039080075
 40
0.0000000039080075
 40
0.0000000039080075
 40
0.0009856168039933
 40
0.0009856168039933
 40
0.0009856168039933
 40
0.0009856168039933
 10
-8.671755292797641
 20
0.1952631669268037
 30
0.0
 10
-8.671546149982944
 20
0.1954610918597695
 30
0.0
 10
-8.67133738035163
 20
0.1956595731901878
 30
0.0
 10
-8.67112898524563
 20
0.1958586091580976
 30
0.0
  0
SPLINE
  5
EC
330
1F
100
AcDbEntity
  8
0
370
    -3
100
AcDbSpline
210
0.0
220
0.0
230
1.0
 70
    27
 71
     3
 72
     8
 73
     4
 74
     0
 42
0.000000001
 43
0.0000000001
 40
0.0777747014055827
 40
0.0777747014055827
 40
0.0777747014055827
 40
0.0777747014055827
 40
0.0777747014061446
 40
0.0777747014061446
 40
0.0777747014061446
 40
0.0777747014061446
 10
-8.553105295718765
 20
0.5246415726584956
 30
0.0
 10
-8.553105295718623
 20
0.5246415726585667
 30
0.0
 10
-8.553105295718481
 20
0.5246415726586378
 30
0.0
 10
-8.553105295718339
 20
0.5246415726587088
 30
0.0
  0
SPLINE
  5
ED
330
1F
100
AcDbEntity
  8
0
100
AcDbSpline
210
0.0
220
0.0
230
1.0
 70
     8
 71
     3
 72
    11
 73
     7
 74
     0
 42
0.000000001
 43
0.0000000001
 40
7.246129053120311
 40
7.246129053120311
 40
7.246129053120311
 40
7.246129053120311
 40
7.524021613730183
 40
7.524021613730183
 40
7.524021613730183
 40
8.056056027642244
 40
8.056056027642244
 40
8.056056027642244
 40
8.056056027642244
 10
-6.55141161037325
 20
11.489211526494
 30
0.0
 10
-6.635656212319887
 20
11.52643885177678
 30
0.0
 10
-6.718980286313311
 20
11.56414229288971
 30
0.0
 10
-6.800918063121415
 20
11.60212302513508
 30
0.0
 10
-6.959943178763822
 20
11.67583615933015
 30
0.0
 10
-7.11907179356605
 20
11.75286557936514
 30
0.0
 10
-7.27705856651734
 20
11.83249708871932
 30
0.0
  0
SPLINE
  5
EE
330
1F
100
AcDbEntity
  8
0
100
AcDbSpline
210
0.0
220
0.0
230
1.0
 70
    11
 71
     3
 72
   103
 73
    99
 74
     0
 42
0.000000001
 43
0.0000000001
 40
0.0
 40
0.0
 40
0.0
 40
0.0
 40
1.0
 40
2.0
 40
3.0
 40
4.0
 40
5.0
 40
6.0
 40
7.0
 40
8.0
 40
9.0
 40
10.0
 40
11.0
 40
12.0
 40
13.0
 40
14.0
 40
15.0
 40
16.0
 40
17.0
 40
18.0
 40
19.0
 40
20.0
 40
21.0
 40
22.0
 40
23.0
 40
24.0
 40
25.0
 40
26.0
 40
27.0
 40
28.0
 40
29.0
 40
30.0
 40
31.0
 40
32.0
 40
33.0
 40
34.0
 40
35.0
 40
36.0
 40
37.0
 40
38.0
 40
39.0
 40
40.0
 40
41.0
 40
42.0
 40
43.0
 40
44.0
 40
45.0
 40
46.0
 40
47.0
 40
47.0
 40
47.0
 40
48.0
 40
49.0
 40
50.0
 40
51.0
 40
52.0
 40
53.0
 40
54.0
 40
55.0
 40
56.0
 40
57.0
 40
58.0
 40
59.0
 40
60.0
 40
61.0
 40
62.0
 40
63.0
 40
64.0
 40
65.0
 40
66.0
 40
67.0
 40
68.0
 40
69.0
 40
70.0
 40
71.0
 40
72.0
 40
73.0
 40
74.0
 40
75.0
 40
76.0
 40
77.0
 40
78.0
 40
79.0
 40
80.0
 40
81.0
 40
82.0
 40
83.0
 40
84.0
 40
85.0
 40
86.0
 40
87.0
 40
88.0
 40
89.0
 40
90.0
 40
91.0
 40
92.0
 40
93.0
 40
94.0
 40
94.0
 40
94.0
 40
94.0
 10
0.0201250000000002
 20
64.45200908240734
 30
0.0
 10
-0.2025868928605234
 20
64.45200908240734
 30
0.0
 10
-0.6522002582131563
 20
64.45047931704927
 30
0.0
 10
-1.320315137112985
 20
64.44460239109371
 30
0.0
 10
-1.988268789586222
 20
64.42830193832951
 30
0.0
 10
-2.655669381418079
 20
64.39620100416569
 30
0.0
 10
-3.321692572253788
 20
64.34242275359973
 30
0.0
 10
-3.984990746617406
 20
64.26102113052407
 30
0.0
 10
-4.642980423938027
 20
64.1434699055148
 30
0.0
 10
-5.291913549347683
 20
63.98286424980047
 30
0.0
 10
-5.926857926495352
 20
63.77269333435123
 30
0.0
 10
-6.535282152360665
 20
63.49399573191056
 30
0.0
 10
-7.101220494845009
 20
63.13525459556881
 30
0.0
 10
-7.600959901922515
 20
62.68882939151358
 30
0.0
 10
-8.024189611609259
 20
62.16835238173441
 30
0.0
 10
-8.337341474996968
 20
61.57505333538906
 30
0.0
 10
-8.552309323129322
 20
60.94051211543739
 30
0.0
 10
-8.66795040882733
 20
60.28159658393908
 30
0.0
 10
-8.767544029256491
 20
59.62106580541604
 30
0.0
 10
-8.844568363154323
 20
58.95728033049068
 30
0.0
 10
-8.907443629202078
 20
58.29207446445722
 30
0.0
 10
-8.950159822773003
 20
57.62522876379269
 30
0.0
 10
-8.981313272339243
 20
56.9579083683233
 30
0.0
 10
-8.994800080108298
 20
56.28941357530421
 30
0.0
 10
-8.997117351871566
 20
55.62295602590417
 30
0.0
 10
-8.989931914588816
 20
54.94853389218049
 30
0.0
 10
-8.97072788682322
 20
54.30418003001337
 30
0.0
 10
-8.93767355062699
 20
53.63053173103104
 30
0.0
 10
-8.898594689662112
 20
52.96527927127281
 30
0.0
 10
-8.85142770517158
 20
52.29832937371485
 30
0.0
 10
-8.78938840997293
 20
51.63315071672558
 30
0.0
 10
-8.70858387408736
 20
50.96980384755308
 30
0.0
 10
-8.60042280564371
 20
50.31033775675009
 30
0.0
 10
-8.452712830393764
 20
49.65839565847463
 30
0.0
 10
-8.25173727098771
 20
49.02036316273751
 30
0.0
 10
-7.965462776531929
 20
48.41421037018829
 30
0.0
 10
-7.555688997438985
 20
47.88006601974169
 30
0.0
 10
-7.031664185853288
 20
47.46065591163769
 30
0.0
 10
-6.463629695016266
 20
47.10798652286492
 30
0.0
 10
-5.866158295066619
 20
46.80760545100375
 30
0.0
 10
-5.248366701265049
 20
46.55199062136329
 30
0.0
 10
-4.610883881606526
 20
46.3503709331814
 30
0.0
 10
-3.962039740048354
 20
46.19019307189113
 30
0.0
 10
-3.304993971393927
 20
46.06799836174325
 30
0.0
 10
-2.643981250386716
 20
45.97062749561179
 30
0.0
 10
-1.980377211406925
 20
45.89230350436728
 30
0.0
 10
-1.315019186036849
 20
45.83168107559972
 30
0.0
 10
-0.6480930052142639
 20
45.78691132758135
 30
0.0
 10
-0.2025171731188422
 20
45.78594189930537
 30
0.0
 10
0.0201250000000002
 20
45.78089408240734
 30
0.0
 10
0.2427671731188497
 20
45.78594189930537
 30
0.0
 10
0.6883430052142643
 20
45.78691132758135
 30
0.0
 10
1.35526918603685
 20
45.83168107559972
 30
0.0
 10
2.020627211406932
 20
45.89230350436728
 30
0.0
 10
2.684231250386716
 20
45.97062749561179
 30
0.0
 10
3.345243971393927
 20
46.06799836174325
 30
0.0
 10
4.002289740048354
 20
46.19019307189113
 30
0.0
 10
4.651133881606526
 20
46.3503709331814
 30
0.0
 10
5.288616701265042
 20
46.55199062136329
 30
0.0
 10
5.906408295066612
 20
46.80760545100375
 30
0.0
 10
6.503879695016266
 20
47.10798652286492
 30
0.0
 10
7.071914185853288
 20
47.46065591163769
 30
0.0
 10
7.595938997438978
 20
47.88006601974169
 30
0.0
 10
8.005712776531922
 20
48.41421037018829
 30
0.0
 10
8.291987270987718
 20
49.02036316273751
 30
0.0
 10
8.492962830393765
 20
49.65839565847463
 30
0.0
 10
8.640672805643717
 20
50.31033775675009
 30
0.0
 10
8.748833874087367
 20
50.96980384755308
 30
0.0
 10
8.82963840997293
 20
51.63315071672558
 30
0.0
 10
8.891677705171574
 20
52.29832937371485
 30
0.0
 10
8.938844689662105
 20
52.96527927127281
 30
0.0
 10
8.977923550626983
 20
53.63053173103104
 30
0.0
 10
9.010977886823227
 20
54.30418003001337
 30
0.0
 10
9.030181914588823
 20
54.94853389218049
 30
0.0
 10
9.037367351871566
 20
55.62295602590417
 30
0.0
 10
9.035050080108292
 20
56.28941357530421
 30
0.0
 10
9.021563272339236
 20
56.9579083683233
 30
0.0
 10
8.990409822773003
 20
57.62522876379269
 30
0.0
 10
8.947693629202078
 20
58.29207446445722
 30
0.0
 10
8.884818363154324
 20
58.95728033049068
 30
0.0
 10
8.807794029256499
 20
59.62106580541604
 30
0.0
 10
8.708200408827324
 20
60.28159658393908
 30
0.0
 10
8.592559323129322
 20
60.94051211543739
 30
0.0
 10
8.377591474996976
 20
61.57505333538906
 30
0.0
 10
8.06443961160926
 20
62.16835238173441
 30
0.0
 10
7.641209901922522
 20
62.68882939151358
 30
0.0
 10
7.141470494845009
 20
63.13525459556881
 30
0.0
 10
6.575532152360665
 20
63.49399573191056
 30
0.0
 10
5.967107926495359
 20
63.77269333435123
 30
0.0
 10
5.332163549347683
 20
63.98286424980047
 30
0.0
 10
4.683230423938028
 20
64.1434699055148
 30
0.0
 10
4.025240746617399
 20
64.26102113052407
 30
0.0
 10
3.361942572253795
 20
64.34242275359973
 30
0.0
 10
2.695919381418079
 20
64.39620100416569
 30
0.0
 10
2.028518789586215
 20
64.42830193832951
 30
0.0
 10
1.360565137112985
 20
64.44460239109371
 30
0.0
 10
0.6924502582131566
 20
64.45047931704927
 30
0.0
 10
0.242836892860538
 20
64.45200908240734
 30
0.0
 10
0.0201250000000002
 20
64.45200908240734
 30
0.0
  0
SPLINE
  5
EF
330
1F
100
AcDbEntity
  8
0
370
    -3
100
AcDbSpline
210
0.0
220
0.0
230
1.0
 70
     8
 71
     3
 72
   124
 73
   120
 74
     0
 42
0.000000001
 43
0.0000000001
 40
0.0
 40
0.0
 40
0.0
 40
0.0
 40
1.000004618761938
 40
2.000009237523876
 40
3.000013856285815
 40
4.000018475047753
 40
5.000023093809691
 40
6.000027712571629
 40
7.000032331333568
 40
8.000036950095506
 40
9.000041568857444
 40
10.00004618761938
 40
11.00005080638132
 40
12.00005542514326
 40
13.0000600439052
 40
14.00006466266714
 40
15.00006928142907
 40
16.00007390019101
 40
17.00007851895295
 40
18.00008313771489
 40
19.00008775647683
 40
20.00009237523876
 40
21.0000969940007
 40
22.00010161276264
 40
23.00010623152458
 40
24.00011085028652
 40
25.00011546904846
 40
26.00012008781039
 40
27.00012470657233
 40
28.00012932533427
 40
29.00013394409621
 40
30.00013856285815
 40
31.00014318162009
 40
32.00014780038202
 40
33.00015241914396
 40
34.0001570379059
 40
35.00016165666784
 40
36.00016627542978
 40
37.00017089419171
 40
38.00017551295365
 40
39.0001801317156
 40
40.00018475047753
 40
41.00018936923946
 40
42.00019398800141
 40
43.00019860676335
 40
44.00020322552528
 40
45.00020784428722
 40
46.00021246304916
 40
47.0002170818111
 40
48.00022170057304
 40
49.00022631933497
 40
50.00023093809691
 40
51.00023555685885
 40
52.00024017562079
 40
53.00024479438272
 40
54.00024941314467
 40
55.00025403190661
 40
56.00025865066854
 40
57.00026326943048
 40
58.00026788819242
 40
59.00027250695436
 40
60.0002771257163
 40
61.00028174447824
 40
62.00028636324018
 40
63.00029098200211
 40
64.00029560076405
 40
65.000300219526
 40
66.00030483828793
 40
67.00030945704987
 40
68.00031407581181
 40
69.00031869457374
 40
70.00032331333568
 40
71.00032793209762
 40
72.00033255085955
 40
73.0003371696215
 40
74.00034178838344
 40
75.00034640714537
 40
76.00035102590732
 40
77.00035564466924
 40
78.00036026343119
 40
79.00036488219313
 40
80.00036950095506
 40
81.00037411971701
 40
82.00037873847894
 40
83.00038335724088
 40
84.00038797600283
 40
85.00039259476475
 40
86.0003972135267
 40
87.00040183228863
 40
88.00040645105057
 40
89.00041106981251
 40
90.00041568857445
 40
91.00042030733638
 40
92.00042492609832
 40
93.00042954486025
 40
94.0004341636222
 40
95.00043878238414
 40
96.00044340114607
 40
97.00044801990802
 40
98.00045263866996
 40
99.00045725743189
 40
100.0004618761938
 40
101.0004664949558
 40
102.0004711137177
 40
103.0004757324796
 40
104.0004803512416
 40
105.0004849700035
 40
106.0004895887655
 40
107.0004942075274
 40
108.0004988262893
 40
109.0005034450513
 40
110.0005080638132
 40
111.0005126825751
 40
112.0005173013371
 40
113.000521920099
 40
114.000526538861
 40
115.0005311576229
 40
116.0005357763848
 40
117.0
 40
117.0
 40
117.0
 40
117.0
 10
0.0
 20
76.21350208240735
 30
0.0
 10
-0.1397969755224021
 20
76.21350078728173
 30
0.0
 10
-0.4192857924823675
 20
76.21124841605922
 30
0.0
 10
-0.8384137063528605
 20
76.20128505693077
 30
0.0
 10
-1.257338827038728
 20
76.18489240239572
 30
0.0
 10
-1.67597027958072
 20
76.16221534313057
 30
0.0
 10
-2.094223034914465
 20
76.13339126437812
 30
0.0
 10
-2.512014375530826
 20
76.09851523461555
 30
0.0
 10
-2.929264188842954
 20
76.05766871844719
 30
0.0
 10
-3.345904490060982
 20
76.01102643045937
 30
0.0
 10
-3.761838994930254
 20
75.95844435668918
 30
0.0
 10
-4.177022737502743
 20
75.90024999106069
 30
0.0
 10
-4.591432961942727
 20
75.83678417618414
 30
0.0
 10
-5.005023872765774
 20
75.7681824371141
 30
0.0
 10
-5.417726018568228
 20
75.69442100579596
 30
0.0
 10
-5.829422340791414
 20
75.61522486161141
 30
0.0
 10
-6.239838638311358
 20
75.52961856399347
 30
0.0
 10
-6.648466549914139
 20
75.43578931896491
 30
0.0
 10
-7.054640708962435
 20
75.33184089939604
 30
0.0
 10
-7.458083783584245
 20
75.21771603097223
 30
0.0
 10
-7.85764597581761
 20
75.09049750516154
 30
0.0
 10
-8.249388213448483
 20
74.94060432425138
 30
0.0
 10
-8.630486130717212
 20
74.76519305639003
 30
0.0
 10
-8.99540443353323
 20
74.5579630922577
 30
0.0
 10
-9.336783194296627
 20
74.31304638558842
 30
0.0
 10
-9.643515424047871
 20
74.02678529272909
 30
0.0
 10
-9.909015536072197
 20
73.6980484995899
 30
0.0
 10
-10.07572663697287
 20
73.31099715829274
 30
0.0
 10
-10.19536781431169
 20
72.90928034366469
 30
0.0
 10
-10.31461722506702
 20
72.50734808736628
 30
0.0
 10
-10.42986773353536
 20
72.10427906248326
 30
0.0
 10
-10.55635386276823
 20
71.7045381534145
 30
0.0
 10
-10.6856246952016
 20
71.3057397580881
 30
0.0
 10
-10.8190209021484
 20
70.90828885682083
 30
0.0
 10
-10.95154999692391
 20
70.5105559072112
 30
0.0
 10
-11.08451356945479
 20
70.1129635873338
 30
0.0
 10
-11.22220175146128
 20
69.71697076439588
 30
0.0
 10
-11.36816814043415
 20
69.32393549240913
 30
0.0
 10
-11.52361921273533
 20
68.93455843525854
 30
0.0
 10
-11.68773172365211
 20
68.54876204913545
 30
0.0
 10
-11.85607253945399
 20
68.1648078751499
 30
0.0
 10
-12.02828830255125
 20
67.782574284807
 30
0.0
 10
-12.20335097792386
 20
67.40164111086334
 30
0.0
 10
-12.38140475012532
 20
67.02207810034946
 30
0.0
 10
-12.55103253200951
 20
66.63868071534029
 30
0.0
 10
-12.71989752097605
 20
66.25499443623275
 30
0.0
 10
-12.90087435586622
 20
65.87677546060354
 30
0.0
 10
-13.07674719586813
 20
65.49622349631426
 30
0.0
 10
-13.25055938558033
 20
65.11470606346424
 30
0.0
 10
-13.41751817035903
 20
64.73013463911381
 30
0.0
 10
-13.57913396594334
 20
64.34330156291168
 30
0.0
 10
-13.73390309472488
 20
63.95362790302889
 30
0.0
 10
-13.87556152811795
 20
63.55902508807308
 30
0.0
 10
-14.01399629783938
 20
63.16331046198633
 30
0.0
 10
-14.15036774471806
 20
62.76687332507991
 30
0.0
 10
-14.28256463224676
 20
62.36901945910155
 30
0.0
 10
-14.40923634768751
 20
61.96936488625317
 30
0.0
 10
-14.52728182767633
 20
61.56705914144023
 30
0.0
 10
-14.63381503215305
 20
61.16153224841884
 30
0.0
 10
-14.72649410455863
 20
60.75260489027579
 30
0.0
 10
-14.8052793123234
 20
60.34079186062482
 30
0.0
 10
-14.87330977339392
 20
59.92708545344986
 30
0.0
 10
-14.93045633216888
 20
59.51171015074748
 30
0.0
 10
-14.97248696939595
 20
59.09451453406845
 30
0.0
 10
-14.99789065813377
 20
58.67595227026468
 30
0.0
 10
-15.00524018927269
 20
58.25671005898558
 30
0.0
 10
-15.00063334877538
 20
57.83747791055519
 30
0.0
 10
-14.98396910215422
 20
57.41848131671899
 30
0.0
 10
-14.94572789988714
 20
57.00083902171495
 30
0.0
 10
-14.88467361204865
 20
56.5859567397164
 30
0.0
 10
-14.81157140400537
 20
56.17312365386501
 30
0.0
 10
-14.72661009017934
 20
55.76254184229359
 30
0.0
 10
-14.63067753299443
 20
55.35438739328716
 30
0.0
 10
-14.52067483021485
 20
54.94975894586207
 30
0.0
 10
-14.39223104114029
 20
54.55052951617171
 30
0.0
 10
-14.24306389018366
 20
54.15864300186132
 30
0.0
 10
-14.08739512242289
 20
53.76937693945082
 30
0.0
 10
-13.9213357231108
 20
53.38438408613112
 30
0.0
 10
-13.74495838014148
 20
53.00401213372272
 30
0.0
 10
-13.55678300891004
 20
52.6293214983861
 30
0.0
 10
-13.35608606649942
 20
52.26116931414182
 30
0.0
 10
-13.14165647565739
 20
51.90084200275328
 30
0.0
 10
-12.91456826419511
 20
51.54836629638029
 30
0.0
 10
-12.6774522750385
 20
51.202605616763
 30
0.0
 10
-12.43356472362106
 20
50.86156377223688
 30
0.0
 10
-12.17843039453784
 20
50.52884391290443
 30
0.0
 10
-11.91623859059233
 20
50.20169012230065
 30
0.0
 10
-11.64530658498628
 20
49.88169484809102
 30
0.0
 10
-11.36423985635271
 20
49.57056926883443
 30
0.0
 10
-11.0738758253984
 20
49.26809184499439
 30
0.0
 10
-10.77372146239362
 20
48.97534015048737
 30
0.0
 10
-10.46544462940595
 20
48.69116263951233
 30
0.0
 10
-10.14786610267081
 20
48.41734909375063
 30
0.0
 10
-9.819379051481683
 20
48.15678203479264
 30
0.0
 10
-9.48515383770953
 20
47.90361868982326
 30
0.0
 10
-9.142173918593372
 20
47.66243727147263
 30
0.0
 10
-8.792549438131006
 20
47.4310299972275
 30
0.0
 10
-8.4365769270346
 20
47.20948618103569
 30
0.0
 10
-8.073672465804249
 20
46.99947846571159
 30
0.0
 10
-7.704216452939111
 20
46.8012360866301
 30
0.0
 10
-7.329421006375566
 20
46.61330702700267
 30
0.0
 10
-6.94940324674006
 20
46.43615867064311
 30
0.0
 10
-6.564377228603794
 20
46.27018123464802
 30
0.0
 10
-6.17461503907399
 20
46.11564003839499
 30
0.0
 10
-5.780202407970034
 20
45.97336600598423
 30
0.0
 10
-5.38133094998317
 20
45.84412482760314
 30
0.0
 10
-4.97864891649736
 20
45.72731437516212
 30
0.0
 10
-4.572706244229527
 20
45.62241707664664
 30
0.0
 10
-4.163993780804192
 20
45.52891303542537
 30
0.0
 10
-3.753010430754296
 20
45.44598462362324
 30
0.0
 10
-3.340119680363615
 20
45.37316305053696
 30
0.0
 10
-2.925642952007603
 20
45.31000785249523
 30
0.0
 10
-2.509874117179382
 20
45.25602589778819
 30
0.0
 10
-2.093042587960335
 20
45.21098409991756
 30
0.0
 10
-1.675345351669826
 20
45.17485003656343
 30
0.0
 10
-1.256966238879872
 20
45.14772136107206
 30
0.0
 10
-0.8381248561119375
 20
45.12913734937928
 30
0.0
 10
-0.419083816768193
 20
45.11853281846978
 30
0.0
 10
-0.13966895931572
 20
45.11631307541059
 30
0.0
 10
0.0
 20
45.1162850338097
 30
0.0
  0
SPLINE
  5
F0
330
1F
100
AcDbEntity
  8
0
370
    -3
100
AcDbSpline
210
0.0
220
0.0
230
1.0
 70
     8
 71
     3
 72
   124
 73
   120
 74
     0
 42
0.000000001
 43
0.0000000001
 40
117.0
 40
117.0
 40
117.0
 40
117.0
 40
117.9994642236149
 40
118.9994688423769
 40
119.9994734611388
 40
120.9994780799007
 40
121.9994826986627
 40
122.9994873174246
 40
123.9994919361866
 40
124.9994965549485
 40
125.9995011737104
 40
126.9995057924724
 40
127.9995104112343
 40
128.9995150299962
 40
129.9995196487582
 40
130.9995242675201
 40
131.9995288862821
 40
132.999533505044
 40
133.999538123806
 40
134.9995427425679
 40
135.9995473613299
 40
136.9995519800918
 40
137.9995565988537
 40
138.9995612176157
 40
139.9995658363776
 40
140.9995704551395
 40
141.9995750739015
 40
142.9995796926634
 40
143.9995843114254
 40
144.9995889301873
 40
145.9995935489492
 40
146.9995981677112
 40
147.9996027864731
 40
148.9996074052351
 40
149.999612023997
 40
150.999616642759
 40
151.9996212615209
 40
152.9996258802828
 40
153.9996304990448
 40
154.9996351178067
 40
155.9996397365686
 40
156.9996443553306
 40
157.9996489740925
 40
158.9996535928545
 40
159.9996582116164
 40
160.9996628303784
 40
161.9996674491403
 40
162.9996720679022
 40
163.9996766866642
 40
164.9996813054261
 40
165.999685924188
 40
166.99969054295
 40
167.9996951617119
 40
168.9996997804739
 40
169.9997043992358
 40
170.9997090179978
 40
171.9997136367597
 40
172.9997182555216
 40
173.9997228742836
 40
174.9997274930455
 40
175.9997321118075
 40
176.9997367305694
 40
177.9997413493313
 40
178.9997459680933
 40
179.9997505868552
 40
180.9997552056172
 40
181.9997598243791
 40
182.999764443141
 40
183.999769061903
 40
184.9997736806649
 40
185.9997782994269
 40
186.9997829181888
 40
187.9997875369507
 40
188.9997921557127
 40
189.9997967744746
 40
190.9998013932366
 40
191.9998060119985
 40
192.9998106307605
 40
193.9998152495224
 40
194.9998198682843
 40
195.9998244870463
 40
196.9998291058082
 40
197.9998337245702
 40
198.9998383433321
 40
199.999842962094
 40
200.999847580856
 40
201.9998521996179
 40
202.9998568183798
 40
203.9998614371418
 40
204.9998660559037
 40
205.9998706746657
 40
206.9998752934276
 40
207.9998799121896
 40
208.9998845309515
 40
209.9998891497134
 40
210.9998937684754
 40
211.9998983872373
 40
212.9999030059992
 40
213.9999076247612
 40
214.9999122435231
 40
215.9999168622851
 40
216.999921481047
 40
217.999926099809
 40
218.9999307185709
 40
219.9999353373328
 40
220.9999399560948
 40
221.9999445748567
 40
222.9999491936186
 40
223.9999538123806
 40
224.9999584311425
 40
225.9999630499045
 40
226.9999676686664
 40
227.9999722874284
 40
228.9999769061903
 40
229.9999815249522
 40
230.9999861437142
 40
231.9999907624761
 40
232.9999953812381
 40
234.0
 40
234.0
 40
234.0
 40
234.0
 10
0.0
 20
45.1162850338097
 30
0.0
 10
0.1396689593157875
 20
45.11631307541059
 30
0.0
 10
0.4190838167682267
 20
45.11853281846978
 30
0.0
 10
0.8381248561119375
 20
45.12913734937928
 30
0.0
 10
1.256966238879872
 20
45.14772136107206
 30
0.0
 10
1.675345351669826
 20
45.17485003656343
 30
0.0
 10
2.093042587960335
 20
45.21098409991756
 30
0.0
 10
2.509874117179382
 20
45.25602589778819
 30
0.0
 10
2.925642952007603
 20
45.31000785249523
 30
0.0
 10
3.340119680363615
 20
45.37316305053696
 30
0.0
 10
3.753010430754296
 20
45.44598462362324
 30
0.0
 10
4.163993780804192
 20
45.52891303542537
 30
0.0
 10
4.572706244229527
 20
45.62241707664664
 30
0.0
 10
4.97864891649736
 20
45.72731437516212
 30
0.0
 10
5.38133094998317
 20
45.84412482760314
 30
0.0
 10
5.780202407970034
 20
45.97336600598423
 30
0.0
 10
6.17461503907399
 20
46.11564003839499
 30
0.0
 10
6.564377228603794
 20
46.27018123464802
 30
0.0
 10
6.94940324674006
 20
46.43615867064311
 30
0.0
 10
7.329421006375566
 20
46.61330702700267
 30
0.0
 10
7.704216452939111
 20
46.8012360866301
 30
0.0
 10
8.073672465804249
 20
46.99947846571159
 30
0.0
 10
8.4365769270346
 20
47.20948618103569
 30
0.0
 10
8.792549438131006
 20
47.4310299972275
 30
0.0
 10
9.142173918593372
 20
47.66243727147263
 30
0.0
 10
9.48515383770953
 20
47.90361868982326
 30
0.0
 10
9.819379051481683
 20
48.15678203479264
 30
0.0
 10
10.14786610267081
 20
48.41734909375063
 30
0.0
 10
10.46544462940595
 20
48.69116263951233
 30
0.0
 10
10.77372146239362
 20
48.97534015048737
 30
0.0
 10
11.0738758253984
 20
49.26809184499439
 30
0.0
 10
11.36423985635271
 20
49.57056926883443
 30
0.0
 10
11.64530658498628
 20
49.88169484809102
 30
0.0
 10
11.91623859059233
 20
50.20169012230065
 30
0.0
 10
12.17843039453784
 20
50.52884391290443
 30
0.0
 10
12.43356472362106
 20
50.86156377223688
 30
0.0
 10
12.6774522750385
 20
51.202605616763
 30
0.0
 10
12.91456826419511
 20
51.54836629638029
 30
0.0
 10
13.14165647565739
 20
51.90084200275328
 30
0.0
 10
13.35608606649942
 20
52.26116931414182
 30
0.0
 10
13.55678300891004
 20
52.6293214983861
 30
0.0
 10
13.74495838014148
 20
53.00401213372272
 30
0.0
 10
13.9213357231108
 20
53.38438408613112
 30
0.0
 10
14.08739512242289
 20
53.76937693945082
 30
0.0
 10
14.24306389018366
 20
54.15864300186132
 30
0.0
 10
14.39223104114029
 20
54.55052951617171
 30
0.0
 10
14.52067483021485
 20
54.94975894586207
 30
0.0
 10
14.63067753299443
 20
55.35438739328716
 30
0.0
 10
14.72661009017934
 20
55.76254184229359
 30
0.0
 10
14.81157140400537
 20
56.17312365386501
 30
0.0
 10
14.88467361204865
 20
56.5859567397164
 30
0.0
 10
14.94572789988714
 20
57.00083902171495
 30
0.0
 10
14.98396910215422
 20
57.41848131671899
 30
0.0
 10
15.00063334877538
 20
57.83747791055519
 30
0.0
 10
15.00524018927269
 20
58.25671005898558
 30
0.0
 10
14.99789065813377
 20
58.67595227026468
 30
0.0
 10
14.97248696939595
 20
59.09451453406845
 30
0.0
 10
14.93045633216888
 20
59.51171015074748
 30
0.0
 10
14.87330977339392
 20
59.92708545344986
 30
0.0
 10
14.8052793123234
 20
60.34079186062482
 30
0.0
 10
14.72649410455863
 20
60.75260489027579
 30
0.0
 10
14.63381503215305
 20
61.16153224841884
 30
0.0
 10
14.52728182767633
 20
61.56705914144023
 30
0.0
 10
14.40923634768751
 20
61.96936488625317
 30
0.0
 10
14.28256463224676
 20
62.36901945910155
 30
0.0
 10
14.15036774471806
 20
62.76687332507991
 30
0.0
 10
14.01399629783938
 20
63.16331046198633
 30
0.0
 10
13.87556152811795
 20
63.55902508807308
 30
0.0
 10
13.73390309472488
 20
63.95362790302889
 30
0.0
 10
13.57913396594334
 20
64.34330156291168
 30
0.0
 10
13.41751817035903
 20
64.73013463911381
 30
0.0
 10
13.25055938558033
 20
65.11470606346424
 30
0.0
 10
13.07674719586813
 20
65.49622349631426
 30
0.0
 10
12.90087435586622
 20
65.87677546060354
 30
0.0
 10
12.71989752097605
 20
66.25499443623275
 30
0.0
 10
12.55103253200951
 20
66.63868071534029
 30
0.0
 10
12.38140475012532
 20
67.02207810034946
 30
0.0
 10
12.20335097792386
 20
67.40164111086334
 30
0.0
 10
12.02828830255125
 20
67.782574284807
 30
0.0
 10
11.85607253945399
 20
68.1648078751499
 30
0.0
 10
11.68773172365211
 20
68.54876204913545
 30
0.0
 10
11.52361921273533
 20
68.93455843525854
 30
0.0
 10
11.36816814043415
 20
69.32393549240913
 30
0.0
 10
11.22220175146128
 20
69.71697076439588
 30
0.0
 10
11.08451356945479
 20
70.1129635873338
 30
0.0
 10
10.95154999692391
 20
70.5105559072112
 30
0.0
 10
10.8190209021484
 20
70.90828885682083
 30
0.0
 10
10.6856246952016
 20
71.3057397580881
 30
0.0
 10
10.55635386276823
 20
71.7045381534145
 30
0.0
 10
10.42986773353536
 20
72.10427906248326
 30
0.0
 10
10.31461722506702
 20
72.50734808736628
 30
0.0
 10
10.19536781431169
 20
72.90928034366469
 30
0.0
 10
10.07572663697287
 20
73.31099715829274
 30
0.0
 10
9.909015536072197
 20
73.6980484995899
 30
0.0
 10
9.643515424047871
 20
74.02678529272909
 30
0.0
 10
9.336783194296627
 20
74.31304638558842
 30
0.0
 10
8.99540443353323
 20
74.5579630922577
 30
0.0
 10
8.630486130717212
 20
74.76519305639003
 30
0.0
 10
8.249388213448483
 20
74.94060432425138
 30
0.0
 10
7.85764597581761
 20
75.09049750516154
 30
0.0
 10
7.458083783584245
 20
75.21771603097223
 30
0.0
 10
7.054640708962435
 20
75.33184089939604
 30
0.0
 10
6.648466549914139
 20
75.43578931896491
 30
0.0
 10
6.239838638311358
 20
75.52961856399347
 30
0.0
 10
5.829422340791414
 20
75.61522486161141
 30
0.0
 10
5.417726018568228
 20
75.69442100579596
 30
0.0
 10
5.005023872765774
 20
75.7681824371141
 30
0.0
 10
4.591432961942727
 20
75.83678417618414
 30
0.0
 10
4.177022737502743
 20
75.90024999106069
 30
0.0
 10
3.761838994930254
 20
75.95844435668918
 30
0.0
 10
3.345904490060982
 20
76.01102643045937
 30
0.0
 10
2.929264188842954
 20
76.05766871844719
 30
0.0
 10
2.512014375530826
 20
76.09851523461555
 30
0.0
 10
2.094223034914465
 20
76.13339126437812
 30
0.0
 10
1.67597027958072
 20
76.16221534313057
 30
0.0
 10
1.257338827038728
 20
76.18489240239572
 30
0.0
 10
0.8384137063528605
 20
76.20128505693077
 30
0.0
 10
0.4192857924823675
 20
76.21124841605922
 30
0.0
 10
0.1397969755224021
 20
76.21350078728173
 30
0.0
 10
0.0
 20
76.21350208240735
 30
0.0
  0
ENDSEC
  0
SECTION
  2
OBJECTS
  0
DICTIONARY
  5
C
330
0
100
AcDbDictionary
281
     1
  3
ACAD_DETAILVIEWSTYLE
350
12C
  3
ACAD_GROUP
350
D
  3
ACAD_LAYOUT
350
1A
  3
ACAD_MATERIAL
350
43
  3
ACAD_MLEADERSTYLE
350
6B
  3
ACAD_MLINESTYLE
350
17
  3
ACAD_PLOTSETTINGS
350
19
  3
ACAD_PLOTSTYLENAME
350
E
  3
ACAD_SCALELIST
350
47
  3
ACAD_SECTIONVIEWSTYLE
350
12D
  3
ACAD_TABLESTYLE
350
69
  3
ACAD_VISUALSTYLE
350
2A
  3
ACDB_RECOMPOSE_DATA
350
129
  3
AcDbVariableDictionary
350
F1
  0
SUN
  5
6D
330
29
100
AcDbSun
 90
        1
290
     0
 63
     7
421
 16777215
 40
1.0
291
     1
 91
  2455826
 92
 54000000
292
     0
 70
     2
 71
   256
280
     1
  0
DICTIONARY
  5
12C
102
{ACAD_REACTORS
330
C
102
}
330
C
100
AcDbDictionary
281
     1
  0
DICTIONARY
  5
D
102
{ACAD_REACTORS
330
C
102
}
330
C
100
AcDbDictionary
281
     1
  0
DICTIONARY
  5
1A
102
{ACAD_REACTORS
330
C
102
}
330
C
100
AcDbDictionary
281
     1
  3
Layout1
350
1E
  3
Layout2
350
26
  3
Model
350
22
  0
DICTIONARY
  5
43
102
{ACAD_REACTORS
330
C
102
}
330
C
100
AcDbDictionary
281
     1
  3
ByBlock
350
45
  3
ByLayer
350
44
  3
Global
350
46
  0
DICTIONARY
  5
6B
102
{ACAD_REACTORS
330
C
102
}
330
C
100
AcDbDictionary
281
     1
  3
Standard
350
6C
  0
DICTIONARY
  5
17
102
{ACAD_REACTORS
330
C
102
}
330
C
100
AcDbDictionary
281
     1
  3
Standard
350
18
  0
DICTIONARY
  5
19
102
{ACAD_REACTORS
330
C
102
}
330
C
100
AcDbDictionary
281
     1
  0
ACDBDICTIONARYWDFLT
  5
E
102
{ACAD_REACTORS
330
C
102
}
330
C
100
AcDbDictionary
281
     1
  3
Normal
350
F
100
AcDbDictionaryWithDefault
340
F
  0
DICTIONARY
  5
47
102
{ACAD_REACTORS
330
C
102
}
330
C
100
AcDbDictionary
281
     1
  3
A0
350
48
  3
A1
350
49
  3
A2
350
4A
  3
A3
350
4B
  3
A4
350
4C
  3
A5
350
4D
  3
A6
350
4E
  3
A7
350
4F
  3
A8
350
50
  3
A9
350
51
  3
B0
350
52
  3
B1
350
53
  3
B2
350
54
  3
B3
350
55
  3
B4
350
56
  3
B5
350
57
  3
B6
350
58
  3
B7
350
59
  3
B8
350
5A
  3
B9
350
5B
  3
C0
350
5C
  3
C1
350
5D
  3
C2
350
5E
  3
C3
350
5F
  3
C4
350
60
  3
C5
350
61
  3
C6
350
62
  3
C7
350
63
  3
C8
350
64
  3
C9
350
65
  3
D0
350
66
  3
D1
350
67
  3
D2
350
68
  0
DICTIONARY
  5
12D
102
{ACAD_REACTORS
330
C
102
}
330
C
100
AcDbDictionary
281
     1
  0
DICTIONARY
  5
69
102
{ACAD_REACTORS
330
C
102
}
330
C
100
AcDbDictionary
281
     1
  3
Standard
350
6A
  0
DICTIONARY
  5
2A
102
{ACAD_REACTORS
330
C
102
}
330
C
100
AcDbDictionary
281
     1
  3
2dWireframe
350
2F
  3
Basic
350
32
  3
Brighten
350
36
  3
ColorChange
350
3A
  3
Conceptual
350
34
  3
Dim
350
35
  3
EdgeColorOff
350
3D
  3
Facepattern
350
39
  3
Flat
350
2B
  3
FlatWithEdges
350
2C
  3
Gouraud
350
2D
  3
GouraudWithEdges
350
2E
  3
Hidden
350
31
  3
JitterOff
350
3B
  3
Linepattern
350
38
  3
OverhangOff
350
3C
  3
Realistic
350
33
  3
Shaded
350
42
  3
Shaded with edges
350
41
  3
Shades of Gray
350
3E
  3
Sketchy
350
3F
  3
Thicken
350
37
  3
Wireframe
350
30
  3
X-Ray
350
40
  0
XRECORD
  5
129
102
{ACAD_REACTORS
330
C
102
}
330
C
100
AcDbXrecord
280
     1
 90
        1
330
6A
  0
DICTIONARY
  5
F1
102
{ACAD_REACTORS
330
C
102
}
330
C
100
AcDbDictionary
281
     1
  3
CANNOSCALE
350
F2
  3
CMLEADERSTYLE
350
12B
  3
CTABLESTYLE
350
12A
  3
XCLIPFRAME
350
F3
  0
LAYOUT
  5
1E
102
{ACAD_REACTORS
330
1A
102
}
330
1A
100
AcDbPlotSettings
  1

  2
none_device
  4

  6

 40
0.0
 41
0.0
 42
0.0
 43
0.0
 44
0.0
 45
0.0
 46
0.0
 47
0.0
 48
0.0
 49
0.0
140
0.0
141
0.0
142
1.0
143
1.0
 70
   688
 72
     0
 73
     0
 74
     5
  7

 75
    16
 76
     0
 77
     2
 78
   300
147
1.0
148
0.0
149
0.0
100
AcDbLayout
  1
Layout1
 70
     1
 71
     1
 10
0.0
 20
0.0
 11
12.0
 21
9.0
 12
0.0
 22
0.0
 32
0.0
 14
1.000000000000000E+20
 24
1.000000000000000E+20
 34
1.000000000000000E+20
 15
-1.000000000000000E+20
 25
-1.000000000000000E+20
 35
-1.000000000000000E+20
146
0.0
 13
0.0
 23
0.0
 33
0.0
 16
1.0
 26
0.0
 36
0.0
 17
0.0
 27
1.0
 37
0.0
 76
     0
330
1B
  0
LAYOUT
  5
26
102
{ACAD_REACTORS
330
1A
102
}
330
1A
100
AcDbPlotSettings
  1

  2
none_device
  4

  6

 40
0.0
 41
0.0
 42
0.0
 43
0.0
 44
0.0
 45
0.0
 46
0.0
 47
0.0
 48
0.0
 49
0.0
140
0.0
141
0.0
142
1.0
143
1.0
 70
   688
 72
     0
 73
     0
 74
     5
  7

 75
    16
 76
     0
 77
     2
 78
   300
147
1.0
148
0.0
149
0.0
100
AcDbLayout
  1
Layout2
 70
     1
 71
     2
 10
0.0
 20
0.0
 11
0.0
 21
0.0
 12
0.0
 22
0.0
 32
0.0
 14
0.0
 24
0.0
 34
0.0
 15
0.0
 25
0.0
 35
0.0
146
0.0
 13
0.0
 23
0.0
 33
0.0
 16
1.0
 26
0.0
 36
0.0
 17
0.0
 27
1.0
 37
0.0
 76
     0
330
23
  0
LAYOUT
  5
22
102
{ACAD_REACTORS
330
1A
102
}
330
1A
100
AcDbPlotSettings
  1

  2
none_device
  4
Letter_(8.50_x_11.00_Inches)
  6

 40
6.35
 41
6.35
 42
6.35000508
 43
6.35000508
 44
215.9
 45
279.4
 46
0.0
 47
0.0
 48
0.0
 49
0.0
140
0.0
141
0.0
142
1.0
143
1.0
 70
  1712
 72
     0
 73
     0
 74
     0
  7

 75
     0
 76
     0
 77
     2
 78
   300
147
1.0
148
0.0
149
0.0
100
AcDbLayout
  1
Model
 70
     1
 71
     0
 10
0.0
 20
0.0
 11
12.0
 21
9.0
 12
0.0
 22
0.0
 32
0.0
 14
1.000000000000000E+20
 24
1.000000000000000E+20
 34
1.000000000000000E+20
 15
-1.000000000000000E+20
 25
-1.000000000000000E+20
 35
-1.000000000000000E+20
146
0.0
 13
0.0
 23
0.0
 33
0.0
 16
1.0
 26
0.0
 36
0.0
 17
0.0
 27
1.0
 37
0.0
 76
     0
330
1F
331
29
  0
MATERIAL
  5
45
102
{ACAD_REACTORS
330
43
102
}
330
43
100
AcDbMaterial
  1
ByBlock
 72
     1
 94
      127
  0
MATERIAL
  5
44
102
{ACAD_REACTORS
330
43
102
}
330
43
100
AcDbMaterial
  1
ByLayer
 72
     1
 94
      127
  0
MATERIAL
  5
46
102
{ACAD_REACTORS
330
43
102
}
330
43
100
AcDbMaterial
  1
Global
 72
     1
 94
      127
  0
MLEADERSTYLE
  5
6C
102
{ACAD_REACTORS
330
6B
102
}
102
{ACAD_XDICTIONARY
360
127
102
}
330
6B
100
AcDbMLeaderStyle
170
     2
171
     1
172
     0
 90
        2
 40
0.0
 41
0.0
173
     1
 91
-1056964608
340
14
 92
       -2
290
     1
 42
0.09
291
     1
 43
0.36
  3
Standard
341
0
 44
0.18
300

342
11
174
     1
178
     6
175
     1
176
     0
 93
-1056964608
 45
0.18
292
     0
297
     0
 46
0.18
343
0
 94
-1056964608
 47
1.0
 49
1.0
140
1.0
293
     1
141
0.0
294
     1
177
     0
142
1.0
295
     0
296
     0
143
0.125
1001
ACAD_MLEADERVER
1070
     2
  0
MLINESTYLE
  5
18
102
{ACAD_REACTORS
330
17
102
}
330
17
100
AcDbMlineStyle
  2
Standard
 70
     0
  3

 62
   256
 51
90.0
 52
90.0
 71
     2
 49
0.5
 62
   256
  6
BYLAYER
 49
-0.5
 62
   256
  6
BYLAYER
  0
ACDBPLACEHOLDER
  5
F
102
{ACAD_REACTORS
330
E
102
}
330
E
  0
SCALE
  5
48
102
{ACAD_REACTORS
330
47
102
}
330
47
100
AcDbScale
 70
     0
300
1:1
140
1.0
141
1.0
290
     1
  0
SCALE
  5
49
102
{ACAD_REACTORS
330
47
102
}
330
47
100
AcDbScale
 70
     0
300
1:2
140
1.0
141
2.0
290
     0
  0
SCALE
  5
4A
102
{ACAD_REACTORS
330
47
102
}
330
47
100
AcDbScale
 70
     0
300
1:4
140
1.0
141
4.0
290
     0
  0
SCALE
  5
4B
102
{ACAD_REACTORS
330
47
102
}
330
47
100
AcDbScale
 70
     0
300
1:5
140
1.0
141
5.0
290
     0
  0
SCALE
  5
4C
102
{ACAD_REACTORS
330
47
102
}
330
47
100
AcDbScale
 70
     0
300
1:8
140
1.0
141
8.0
290
     0
  0
SCALE
  5
4D
102
{ACAD_REACTORS
330
47
102
}
330
47
100
AcDbScale
 70
     0
300
1:10
140
1.0
141
10.0
290
     0
  0
SCALE
  5
4E
102
{ACAD_REACTORS
330
47
102
}
330
47
100
AcDbScale
 70
     0
300
1:16
140
1.0
141
16.0
290
     0
  0
SCALE
  5
4F
102
{ACAD_REACTORS
330
47
102
}
330
47
100
AcDbScale
 70
     0
300
1:20
140
1.0
141
20.0
290
     0
  0
SCALE
  5
50
102
{ACAD_REACTORS
330
47
102
}
330
47
100
AcDbScale
 70
     0
300
1:30
140
1.0
141
30.0
290
     0
  0
SCALE
  5
51
102
{ACAD_REACTORS
330
47
102
}
330
47
100
AcDbScale
 70
     0
300
1:40
140
1.0
141
40.0
290
     0
  0
SCALE
  5
52
102
{ACAD_REACTORS
330
47
102
}
330
47
100
AcDbScale
 70
     0
300
1:50
140
1.0
141
50.0
290
     0
  0
SCALE
  5
53
102
{ACAD_REACTORS
330
47
102
}
330
47
100
AcDbScale
 70
     0
300
1:100
140
1.0
141
100.0
290
     0
  0
SCALE
  5
54
102
{ACAD_REACTORS
330
47
102
}
330
47
100
AcDbScale
 70
     0
300
2:1
140
2.0
141
1.0
290
     0
  0
SCALE
  5
55
102
{ACAD_REACTORS
330
47
102
}
330
47
100
AcDbScale
 70
     0
300
4:1
140
4.0
141
1.0
290
     0
  0
SCALE
  5
56
102
{ACAD_REACTORS
330
47
102
}
330
47
100
AcDbScale
 70
     0
300
8:1
140
8.0
141
1.0
290
     0
  0
SCALE
  5
57
102
{ACAD_REACTORS
330
47
102
}
330
47
100
AcDbScale
 70
     0
300
10:1
140
10.0
141
1.0
290
     0
  0
SCALE
  5
58
102
{ACAD_REACTORS
330
47
102
}
330
47
100
AcDbScale
 70
     0
300
100:1
140
100.0
141
1.0
290
     0
  0
SCALE
  5
59
102
{ACAD_REACTORS
330
47
102
}
330
47
100
AcDbScale
 70
     0
300
1/128" = 1'-0"
140
0.0078125
141
12.0
290
     0
  0
SCALE
  5
5A
102
{ACAD_REACTORS
330
47
102
}
330
47
100
AcDbScale
 70
     0
300
1/64" = 1'-0"
140
0.015625
141
12.0
290
     0
  0
SCALE
  5
5B
102
{ACAD_REACTORS
330
47
102
}
330
47
100
AcDbScale
 70
     0
300
1/32" = 1'-0"
140
0.03125
141
12.0
290
     0
  0
SCALE
  5
5C
102
{ACAD_REACTORS
330
47
102
}
330
47
100
AcDbScale
 70
     0
300
1/16" = 1'-0"
140
0.0625
141
12.0
290
     0
  0
SCALE
  5
5D
102
{ACAD_REACTORS
330
47
102
}
330
47
100
AcDbScale
 70
     0
300
3/32" = 1'-0"
140
0.09375
141
12.0
290
     0
  0
SCALE
  5
5E
102
{ACAD_REACTORS
330
47
102
}
330
47
100
AcDbScale
 70
     0
300
1/8" = 1'-0"
140
0.125
141
12.0
290
     0
  0
SCALE
  5
5F
102
{ACAD_REACTORS
330
47
102
}
330
47
100
AcDbScale
 70
     0
300
3/16" = 1'-0"
140
0.1875
141
12.0
290
     0
  0
SCALE
  5
60
102
{ACAD_REACTORS
330
47
102
}
330
47
100
AcDbScale
 70
     0
300
1/4" = 1'-0"
140
0.25
141
12.0
290
     0
  0
SCALE
  5
61
102
{ACAD_REACTORS
330
47
102
}
330
47
100
AcDbScale
 70
     0
300
3/8" = 1'-0"
140
0.375
141
12.0
290
     0
  0
SCALE
  5
62
102
{ACAD_REACTORS
330
47
102
}
330
47
100
AcDbScale
 70
     0
300
1/2" = 1'-0"
140
0.5
141
12.0
290
     0
  0
SCALE
  5
63
102
{ACAD_REACTORS
330
47
102
}
330
47
100
AcDbScale
 70
     0
300
3/4" = 1'-0"
140
0.75
141
12.0
290
     0
  0
SCALE
  5
64
102
{ACAD_REACTORS
330
47
102
}
330
47
100
AcDbScale
 70
     0
300
1" = 1'-0"
140
1.0
141
12.0
290
     0
  0
SCALE
  5
65
102
{ACAD_REACTORS
330
47
102
}
330
47
100
AcDbScale
 70
     0
300
1-1/2" = 1'-0"
140
1.5
141
12.0
290
     0
  0
SCALE
  5
66
102
{ACAD_REACTORS
330
47
102
}
330
47
100
AcDbScale
 70
     0
300
3" = 1'-0"
140
3.0
141
12.0
290
     0
  0
SCALE
  5
67
102
{ACAD_REACTORS
330
47
102
}
330
47
100
AcDbScale
 70
     0
300
6" = 1'-0"
140
6.0
141
12.0
290
     0
  0
SCALE
  5
68
102
{ACAD_REACTORS
330
47
102
}
330
47
100
AcDbScale
 70
     0
300
1'-0" = 1'-0"
140
12.0
141
12.0
290
     0
  0
TABLESTYLE
  5
6A
102
{ACAD_REACTORS
330
69
102
}
102
{ACAD_XDICTIONARY
360
124
102
}
330
69
100
AcDbTableStyle
  3
Standard
 70
     0
 71
     0
 40
0.06
 41
0.06
280
     0
281
     0
  7
Standard
140
0.18
170
     2
 62
     0
 63
   257
283
     0
 90
        4
 91
        0
  1

274
    -2
284
     1
 64
     0
275
    -2
285
     1
 65
     0
276
    -2
286
     1
 66
     0
277
    -2
287
     1
 67
     0
278
    -2
288
     1
 68
     0
279
    -2
289
     1
 69
     0
  7
Standard
140
0.25
170
     5
 62
     0
 63
   257
283
     0
 90
        4
 91
        0
  1

274
    -2
284
     1
 64
     0
275
    -2
285
     1
 65
     0
276
    -2
286
     1
 66
     0
277
    -2
287
     1
 67
     0
278
    -2
288
     1
 68
     0
279
    -2
289
     1
 69
     0
  7
Standard
140
0.18
170
     5
 62
     0
 63
   257
283
     0
 90
        4
 91
        0
  1

274
    -2
284
     1
 64
     0
275
    -2
285
     1
 65
     0
276
    -2
286
     1
 66
     0
277
    -2
287
     1
 67
     0
278
    -2
288
     1
 68
     0
279
    -2
289
     1
 69
     0
  0
VISUALSTYLE
  5
2F
102
{ACAD_REACTORS
330
2A
102
}
102
{ACAD_XDICTIONARY
360
FC
102
}
330
2A
100
AcDbVisualStyle
  2
2dWireframe
 70
     4
 71
     0
 72
     2
 73
     0
 90
        0
 40
0.6
 41
30.0
 62
     5
 63
     7
421
 16777215
 74
     1
 91
        4
 64
     7
 65
   257
 75
     1
175
     1
 42
1.0
 92
        0
 66
   257
 43
1.0
 76
     1
 77
     6
 78
     2
 67
     7
 79
     5
170
     0
171
     0
290
     0
174
     0
 93
        1
 44
0.0
173
     0
291
     0
 45
0.0
  0
VISUALSTYLE
  5
32
102
{ACAD_REACTORS
330
2A
102
}
102
{ACAD_XDICTIONARY
360
102
102
}
330
2A
100
AcDbVisualStyle
  2
Basic
 70
     7
 71
     1
 72
     0
 73
     1
 90
        0
 40
0.6
 41
30.0
 62
     5
 63
     7
421
 16777215
 74
     0
 91
        4
 64
     7
 65
   257
 75
     1
175
     1
 42
1.0
 92
        8
 66
     7
 43
1.0
 76
     1
 77
     6
 78
     2
 67
     7
 79
     5
170
     0
171
     0
290
     0
174
     0
 93
        1
 44
0.0
173
     0
291
     1
 45
0.0
  0
VISUALSTYLE
  5
36
102
{ACAD_REACTORS
330
2A
102
}
102
{ACAD_XDICTIONARY
360
10A
102
}
330
2A
100
AcDbVisualStyle
  2
Brighten
 70
    12
 71
     2
 72
     2
 73
     0
 90
        0
 40
0.6
 41
30.0
 62
     5
 63
     7
421
 16777215
 74
     1
 91
        4
 64
     7
 65
   257
 75
     1
175
     1
 42
1.0
 92
        8
 66
     7
 43
1.0
 76
     1
 77
     6
 78
     2
 67
     7
 79
     5
170
     0
171
     0
290
     0
174
     0
 93
        1
 44
50.0
173
     0
291
     1
 45
0.0
  0
VISUALSTYLE
  5
3A
102
{ACAD_REACTORS
330
2A
102
}
102
{ACAD_XDICTIONARY
360
112
102
}
330
2A
100
AcDbVisualStyle
  2
ColorChange
 70
    16
 71
     2
 72
     2
 73
     3
 90
        0
 40
0.6
 41
30.0
 62
     5
 63
     8
421
  8421504
 74
     1
 91
        4
 64
     7
 65
   257
 75
     1
175
     1
 42
1.0
 92
        8
 66
     8
424
  8421504
 43
1.0
 76
     1
 77
     6
 78
     2
 67
     7
 79
     5
170
     0
171
     0
290
     0
174
     0
 93
        1
 44
0.0
173
     0
291
     1
 45
0.0
  0
VISUALSTYLE
  5
34
102
{ACAD_REACTORS
330
2A
102
}
102
{ACAD_XDICTIONARY
360
106
102
}
330
2A
100
AcDbVisualStyle
  2
Conceptual
 70
     9
 71
     3
 72
     2
 73
     0
 90
        0
 40
0.6
 41
30.0
 62
     5
 63
     7
421
 16777215
 74
     2
 91
        2
 64
     7
 65
   257
 75
     1
175
     1
 42
179.0
 92
        8
 66
     7
 43
1.0
 76
     1
 77
     6
 78
     2
 67
     7
 79
     3
170
     0
171
     0
290
     0
174
     0
 93
        1
 44
0.0
173
     0
291
     0
 45
0.0
  0
VISUALSTYLE
  5
35
102
{ACAD_REACTORS
330
2A
102
}
102
{ACAD_XDICTIONARY
360
108
102
}
330
2A
100
AcDbVisualStyle
  2
Dim
 70
    11
 71
     2
 72
     2
 73
     0
 90
        0
 40
0.6
 41
30.0
 62
     5
 63
     7
421
 16777215
 74
     1
 91
        4
 64
     7
 65
   257
 75
     1
175
     1
 42
1.0
 92
        8
 66
     7
 43
1.0
 76
     1
 77
     6
 78
     2
 67
     7
 79
     5
170
     0
171
     0
290
     0
174
     0
 93
        1
 44
-50.0
173
     0
291
     1
 45
0.0
  0
VISUALSTYLE
  5
3D
102
{ACAD_REACTORS
330
2A
102
}
102
{ACAD_XDICTIONARY
360
118
102
}
330
2A
100
AcDbVisualStyle
  2
EdgeColorOff
 70
    22
 71
     2
 72
     2
 73
     0
 90
        0
 40
0.6
 41
30.0
 62
     5
 63
     7
421
 16777215
 74
     1
 91
        4
 64
     7
 65
   257
 75
     1
175
     1
 42
1.0
 92
        8
 66
     7
 43
1.0
 76
     1
 77
     6
 78
     2
 67
     7
 79
     5
170
     0
171
     0
290
     0
174
     0
 93
        1
 44
0.0
173
     0
291
     1
 45
0.0
  0
VISUALSTYLE
  5
39
102
{ACAD_REACTORS
330
2A
102
}
102
{ACAD_XDICTIONARY
360
110
102
}
330
2A
100
AcDbVisualStyle
  2
Facepattern
 70
    15
 71
     2
 72
     2
 73
     0
 90
        0
 40
0.6
 41
30.0
 62
     5
 63
     7
421
 16777215
 74
     1
 91
        4
 64
     7
 65
   257
 75
     1
175
     1
 42
1.0
 92
        8
 66
     7
 43
1.0
 76
     1
 77
     6
 78
     2
 67
     7
 79
     5
170
     0
171
     0
290
     0
174
     0
 93
        1
 44
0.0
173
     0
291
     1
 45
0.0
  0
VISUALSTYLE
  5
2B
102
{ACAD_REACTORS
330
2A
102
}
102
{ACAD_XDICTIONARY
360
F4
102
}
330
2A
100
AcDbVisualStyle
  2
Flat
 70
     0
 71
     2
 72
     1
 73
     1
 90
        2
 40
0.6
 41
30.0
 62
     5
 63
     7
421
 16777215
 74
     0
 91
        0
 64
     7
 65
   257
 75
     1
175
     1
 42
1.0
 92
        8
 66
     7
 43
1.0
 76
     1
 77
     6
 78
     2
 67
     7
 79
     5
170
     0
171
     0
290
     0
174
     0
 93
       13
 44
0.0
173
     0
291
     1
 45
0.0
  0
VISUALSTYLE
  5
2C
102
{ACAD_REACTORS
330
2A
102
}
102
{ACAD_XDICTIONARY
360
F6
102
}
330
2A
100
AcDbVisualStyle
  2
FlatWithEdges
 70
     1
 71
     2
 72
     1
 73
     1
 90
        2
 40
0.6
 41
30.0
 62
     5
 63
     7
421
 16777215
 74
     1
 91
        0
 64
     7
 65
   257
 75
     1
175
     1
 42
1.0
 92
        0
 66
   257
 43
1.0
 76
     1
 77
     6
 78
     2
 67
     7
 79
     5
170
     0
171
     0
290
     0
174
     0
 93
       13
 44
0.0
173
     0
291
     1
 45
0.0
  0
VISUALSTYLE
  5
2D
102
{ACAD_REACTORS
330
2A
102
}
102
{ACAD_XDICTIONARY
360
F8
102
}
330
2A
100
AcDbVisualStyle
  2
Gouraud
 70
     2
 71
     2
 72
     2
 73
     1
 90
        2
 40
0.6
 41
30.0
 62
     5
 63
     7
421
 16777215
 74
     0
 91
        0
 64
     7
 65
   257
 75
     1
175
     1
 42
1.0
 92
        0
 66
     7
 43
1.0
 76
     1
 77
     6
 78
     2
 67
     7
 79
     5
170
     0
171
     0
290
     0
174
     0
 93
       13
 44
0.0
173
     0
291
     1
 45
0.0
  0
VISUALSTYLE
  5
2E
102
{ACAD_REACTORS
330
2A
102
}
102
{ACAD_XDICTIONARY
360
FA
102
}
330
2A
100
AcDbVisualStyle
  2
GouraudWithEdges
 70
     3
 71
     2
 72
     2
 73
     1
 90
        2
 40
0.6
 41
30.0
 62
     5
 63
     7
421
 16777215
 74
     1
 91
        0
 64
     7
 65
   257
 75
     1
175
     1
 42
1.0
 92
        0
 66
   257
 43
1.0
 76
     1
 77
     6
 78
     2
 67
     7
 79
     5
170
     0
171
     0
290
     0
174
     0
 93
       13
 44
0.0
173
     0
291
     1
 45
0.0
  0
VISUALSTYLE
  5
31
102
{ACAD_REACTORS
330
2A
102
}
102
{ACAD_XDICTIONARY
360
100
102
}
330
2A
100
AcDbVisualStyle
  2
Hidden
 70
     6
 71
     1
 72
     2
 73
     2
 90
        0
 40
0.6
 41
30.0
 62
     5
 63
     7
421
 16777215
 74
     2
 91
        2
 64
     7
 65
   257
 75
     2
175
     1
 42
40.0
 92
        0
 66
   257
 43
1.0
 76
     1
 77
     6
 78
     2
 67
     7
 79
     3
170
     0
171
     0
290
     0
174
     0
 93
        1
 44
0.0
173
     0
291
     0
 45
0.0
  0
VISUALSTYLE
  5
3B
102
{ACAD_REACTORS
330
2A
102
}
102
{ACAD_XDICTIONARY
360
114
102
}
330
2A
100
AcDbVisualStyle
  2
JitterOff
 70
    20
 71
     2
 72
     2
 73
     0
 90
        0
 40
0.6
 41
30.0
 62
     5
 63
     7
421
 16777215
 74
     1
 91
        4
 64
     7
 65
   257
 75
     1
175
     1
 42
1.0
 92
       10
 66
     7
 43
1.0
 76
     1
 77
     6
 78
     2
 67
     7
 79
     5
170
     0
171
     0
290
     0
174
     0
 93
        1
 44
0.0
173
     0
291
     1
 45
0.0
  0
VISUALSTYLE
  5
38
102
{ACAD_REACTORS
330
2A
102
}
102
{ACAD_XDICTIONARY
360
10E
102
}
330
2A
100
AcDbVisualStyle
  2
Linepattern
 70
    14
 71
     2
 72
     2
 73
     0
 90
        0
 40
0.6
 41
30.0
 62
     5
 63
     7
421
 16777215
 74
     1
 91
        4
 64
     7
 65
   257
 75
     7
175
     7
 42
1.0
 92
        8
 66
     7
 43
1.0
 76
     1
 77
     6
 78
     2
 67
     7
 79
     5
170
     0
171
     0
290
     0
174
     0
 93
        1
 44
0.0
173
     0
291
     1
 45
0.0
  0
VISUALSTYLE
  5
3C
102
{ACAD_REACTORS
330
2A
102
}
102
{ACAD_XDICTIONARY
360
116
102
}
330
2A
100
AcDbVisualStyle
  2
OverhangOff
 70
    21
 71
     2
 72
     2
 73
     0
 90
        0
 40
0.6
 41
30.0
 62
     5
 63
     7
421
 16777215
 74
     1
 91
        4
 64
     7
 65
   257
 75
     1
175
     1
 42
1.0
 92
        9
 66
     7
 43
1.0
 76
     1
 77
     6
 78
     2
 67
     7
 79
     5
170
     0
171
     0
290
     0
174
     0
 93
        1
 44
0.0
173
     0
291
     1
 45
0.0
  0
VISUALSTYLE
  5
33
102
{ACAD_REACTORS
330
2A
102
}
102
{ACAD_XDICTIONARY
360
104
102
}
330
2A
100
AcDbVisualStyle
  2
Realistic
 70
     8
 71
     2
 72
     3
 73
     0
 90
        2
 40
0.6
 41
30.0
 62
     5
 63
     7
421
 16777215
 74
     0
 91
        0
 64
     7
 65
   257
 75
     1
175
     1
 42
1.0
 92
        8
 66
   257
 43
1.0
 76
     1
 77
     6
 78
     2
 67
     7
 79
     3
170
     0
171
     0
290
     0
174
     0
 93
       13
 44
0.0
173
     0
291
     0
 45
0.0
  0
VISUALSTYLE
  5
42
102
{ACAD_REACTORS
330
2A
102
}
102
{ACAD_XDICTIONARY
360
122
102
}
330
2A
100
AcDbVisualStyle
  2
Shaded
 70
    27
 71
     2
 72
     2
 73
     1
 90
        2
 40
0.6
 41
30.0
 62
     5
 63
     7
421
 16777215
 74
     0
 91
        4
 64
     7
 65
   257
 75
     1
175
     1
 42
1.0
 92
        8
 66
   257
 43
1.0
 76
     1
 77
     6
 78
     2
 67
     8
425
  7895160
 79
     3
170
     0
171
     0
290
     0
174
     0
 93
        5
 44
0.0
173
     0
291
     0
 45
0.0
  0
VISUALSTYLE
  5
41
102
{ACAD_REACTORS
330
2A
102
}
102
{ACAD_XDICTIONARY
360
120
102
}
330
2A
100
AcDbVisualStyle
  2
Shaded with edges
 70
    26
 71
     2
 72
     2
 73
     1
 90
        2
 40
0.6
 41
30.0
 62
     5
 63
     7
421
 16777215
 74
     1
 91
       10
 64
     7
 65
   257
 75
     2
175
     1
 42
1.0
 92
        8
 66
   257
 43
1.0
 76
     1
 77
     6
 78
     2
 67
     7
 79
     3
170
     0
171
     0
290
     0
174
     0
 93
        5
 44
0.0
173
     0
291
     0
 45
0.0
  0
VISUALSTYLE
  5
3E
102
{ACAD_REACTORS
330
2A
102
}
102
{ACAD_XDICTIONARY
360
11A
102
}
330
2A
100
AcDbVisualStyle
  2
Shades of Gray
 70
    23
 71
     2
 72
     2
 73
     3
 90
        0
 40
0.6
 41
30.0
 62
     5
 63
     7
421
 16777215
 74
     2
 91
        2
 64
     7
 65
     7
 75
     1
175
     1
 42
40.0
 92
        8
 66
     7
 43
1.0
 76
     1
 77
     6
 78
     2
 67
     7
 79
     3
170
     0
171
     0
290
     0
174
     0
 93
        1
 44
0.0
173
     0
291
     0
 45
0.0
  0
VISUALSTYLE
  5
3F
102
{ACAD_REACTORS
330
2A
102
}
102
{ACAD_XDICTIONARY
360
11C
102
}
330
2A
100
AcDbVisualStyle
  2
Sketchy
 70
    24
 71
     1
 72
     2
 73
     2
 90
        0
 40
0.6
 41
30.0
 62
     5
 63
     7
421
 16777215
 74
     2
 91
        2
 64
     7
 65
     7
 75
     1
175
     1
 42
40.0
 92
       11
 66
     7
 43
1.0
 76
     1
 77
     6
 78
     2
 67
     7
 79
     6
170
     0
171
     0
290
     0
174
     0
 93
        1
 44
0.0
173
     0
291
     0
 45
0.0
  0
VISUALSTYLE
  5
37
102
{ACAD_REACTORS
330
2A
102
}
102
{ACAD_XDICTIONARY
360
10C
102
}
330
2A
100
AcDbVisualStyle
  2
Thicken
 70
    13
 71
     2
 72
     2
 73
     0
 90
        0
 40
0.6
 41
30.0
 62
     5
 63
     7
421
 16777215
 74
     1
 91
        4
 64
     7
 65
   257
 75
     1
175
     1
 42
1.0
 92
       12
 66
     7
 43
1.0
 76
     1
 77
     6
 78
     2
 67
     7
 79
     5
170
     0
171
     0
290
     0
174
     0
 93
        1
 44
0.0
173
     0
291
     1
 45
0.0
  0
VISUALSTYLE
  5
30
102
{ACAD_REACTORS
330
2A
102
}
102
{ACAD_XDICTIONARY
360
FE
102
}
330
2A
100
AcDbVisualStyle
  2
Wireframe
 70
     5
 71
     0
 72
     2
 73
     0
 90
        0
 40
0.6
 41
30.0
 62
     5
 63
     7
421
 16777215
 74
     1
 91
        4
 64
     7
 65
   257
 75
     1
175
     1
 42
1.0
 92
        0
 66
   257
 43
1.0
 76
     1
 77
     6
 78
     2
 67
     7
 79
     3
170
     0
171
     0
290
     0
174
     0
 93
        1
 44
0.0
173
     0
291
     0
 45
0.0
  0
VISUALSTYLE
  5
40
102
{ACAD_REACTORS
330
2A
102
}
102
{ACAD_XDICTIONARY
360
11E
102
}
330
2A
100
AcDbVisualStyle
  2
X-Ray
 70
    25
 71
     2
 72
     2
 73
     1
 90
        1
 40
0.5
 41
30.0
 62
     5
 63
     7
421
 16777215
 74
     1
 91
        0
 64
     7
 65
   257
 75
     1
175
     1
 42
1.0
 92
        8
 66
     7
 43
1.0
 76
     1
 77
     6
 78
     2
 67
     7
 79
     3
170
     0
171
     0
290
     0
174
     0
 93
       13
 44
0.0
173
     0
291
     0
 45
0.0
  0
DICTIONARYVAR
  5
F2
102
{ACAD_REACTORS
330
F1
102
}
330
F1
100
DictionaryVariables
280
     0
  1
1:1
  0
DICTIONARYVAR
  5
12B
102
{ACAD_REACTORS
330
F1
102
}
330
F1
100
DictionaryVariables
280
     0
  1
Standard
  0
DICTIONARYVAR
  5
12A
102
{ACAD_REACTORS
330
F1
102
}
330
F1
100
DictionaryVariables
280
     0
  1
Standard
  0
DICTIONARYVAR
  5
F3
102
{ACAD_REACTORS
330
F1
102
}
330
F1
100
DictionaryVariables
280
     0
  1
2
  0
DICTIONARY
  5
127
330
6C
100
AcDbDictionary
280
     1
281
     1
  3
ACAD_XREC_ROUNDTRIP
360
128
  0
DICTIONARY
  5
124
330
6A
100
AcDbDictionary
280
     1
281
     1
  3
ACAD_ROUNDTRIP_2008_TABLESTYLE_CELLSTYLEMAP
360
125
  0
DICTIONARY
  5
FC
330
2F
100
AcDbDictionary
280
     1
281
     1
  3
ACAD_XREC_ROUNDTRIP
360
FD
  0
DICTIONARY
  5
102
330
32
100
AcDbDictionary
280
     1
281
     1
  3
ACAD_XREC_ROUNDTRIP
360
103
  0
DICTIONARY
  5
10A
330
36
100
AcDbDictionary
280
     1
281
     1
  3
ACAD_XREC_ROUNDTRIP
360
10B
  0
DICTIONARY
  5
112
330
3A
100
AcDbDictionary
280
     1
281
     1
  3
ACAD_XREC_ROUNDTRIP
360
113
  0
DICTIONARY
  5
106
330
34
100
AcDbDictionary
280
     1
281
     1
  3
ACAD_XREC_ROUNDTRIP
360
107
  0
DICTIONARY
  5
108
330
35
100
AcDbDictionary
280
     1
281
     1
  3
ACAD_XREC_ROUNDTRIP
360
109
  0
DICTIONARY
  5
118
330
3D
100
AcDbDictionary
280
     1
281
     1
  3
ACAD_XREC_ROUNDTRIP
360
119
  0
DICTIONARY
  5
110
330
39
100
AcDbDictionary
280
     1
281
     1
  3
ACAD_XREC_ROUNDTRIP
360
111
  0
DICTIONARY
  5
F4
330
2B
100
AcDbDictionary
280
     1
281
     1
  3
ACAD_XREC_ROUNDTRIP
360
F5
  0
DICTIONARY
  5
F6
330
2C
100
AcDbDictionary
280
     1
281
     1
  3
ACAD_XREC_ROUNDTRIP
360
F7
  0
DICTIONARY
  5
F8
330
2D
100
AcDbDictionary
280
     1
281
     1
  3
ACAD_XREC_ROUNDTRIP
360
F9
  0
DICTIONARY
  5
FA
330
2E
100
AcDbDictionary
280
     1
281
     1
  3
ACAD_XREC_ROUNDTRIP
360
FB
  0
DICTIONARY
  5
100
330
31
100
AcDbDictionary
280
     1
281
     1
  3
ACAD_XREC_ROUNDTRIP
360
101
  0
DICTIONARY
  5
114
330
3B
100
AcDbDictionary
280
     1
281
     1
  3
ACAD_XREC_ROUNDTRIP
360
115
  0
DICTIONARY
  5
10E
330
38
100
AcDbDictionary
280
     1
281
     1
  3
ACAD_XREC_ROUNDTRIP
360
10F
  0
DICTIONARY
  5
116
330
3C
100
AcDbDictionary
280
     1
281
     1
  3
ACAD_XREC_ROUNDTRIP
360
117
  0
DICTIONARY
  5
104
330
33
100
AcDbDictionary
280
     1
281
     1
  3
ACAD_XREC_ROUNDTRIP
360
105
  0
DICTIONARY
  5
122
330
42
100
AcDbDictionary
280
     1
281
     1
  3
ACAD_XREC_ROUNDTRIP
360
123
  0
DICTIONARY
  5
120
330
41
100
AcDbDictionary
280
     1
281
     1
  3
ACAD_XREC_ROUNDTRIP
360
121
  0
DICTIONARY
  5
11A
330
3E
100
AcDbDictionary
280
     1
281
     1
  3
ACAD_XREC_ROUNDTRIP
360
11B
  0
DICTIONARY
  5
11C
330
3F
100
AcDbDictionary
280
     1
281
     1
  3
ACAD_XREC_ROUNDTRIP
360
11D
  0
DICTIONARY
  5
10C
330
37
100
AcDbDictionary
280
     1
281
     1
  3
ACAD_XREC_ROUNDTRIP
360
10D
  0
DICTIONARY
  5
FE
330
30
100
AcDbDictionary
280
     1
281
     1
  3
ACAD_XREC_ROUNDTRIP
360
FF
  0
DICTIONARY
  5
11E
330
40
100
AcDbDictionary
280
     1
281
     1
  3
ACAD_XREC_ROUNDTRIP
360
11F
  0
XRECORD
  5
128
102
{ACAD_REACTORS
330
127
102
}
330
127
100
AcDbXrecord
280
     1
102
ACAD_ROUNDTRIP_2010_MLEADER_STYLE
  0
CELLSTYLEMAP
  5
125
102
{ACAD_REACTORS
330
124
102
}
330
124
100
AcDbCellStyleMap
 90
        3
300
CELLSTYLE
  1
TABLEFORMAT_BEGIN
 90
        5
170
     1
 91
        0
 92
    32768
 62
   257
 93
        1
300
CONTENTFORMAT
  1
CONTENTFORMAT_BEGIN
 90
        0
 91
        0
 92
        4
 93
        0
300

 40
0.0
140
1.0
 94
        5
 62
     0
340
11
144
0.25
309
CONTENTFORMAT_END
171
     1
301
MARGIN
  1
CELLMARGIN_BEGIN
 40
0.06
 40
0.06
 40
0.06
 40
0.06
 40
0.06
 40
0.06
309
CELLMARGIN_END
 94
        6
 95
        1
302
GRIDFORMAT
  1
GRIDFORMAT_BEGIN
 90
        0
 91
        1
 62
     0
 92
       -2
340
14
 93
        0
 40
0.045
309
GRIDFORMAT_END
 95
        2
302
GRIDFORMAT
  1
GRIDFORMAT_BEGIN
 90
        0
 91
        1
 62
     0
 92
       -2
340
14
 93
        0
 40
0.045
309
GRIDFORMAT_END
 95
        4
302
GRIDFORMAT
  1
GRIDFORMAT_BEGIN
 90
        0
 91
        1
 62
     0
 92
       -2
340
14
 93
        0
 40
0.045
309
GRIDFORMAT_END
 95
        8
302
GRIDFORMAT
  1
GRIDFORMAT_BEGIN
 90
        0
 91
        1
 62
     0
 92
       -2
340
14
 93
        0
 40
0.045
309
GRIDFORMAT_END
 95
       16
302
GRIDFORMAT
  1
GRIDFORMAT_BEGIN
 90
        0
 91
        1
 62
     0
 92
       -2
340
14
 93
        0
 40
0.045
309
GRIDFORMAT_END
 95
       32
302
GRIDFORMAT
  1
GRIDFORMAT_BEGIN
 90
        0
 91
        1
 62
     0
 92
       -2
340
14
 93
        0
 40
0.045
309
GRIDFORMAT_END
309
TABLEFORMAT_END
  1
CELLSTYLE_BEGIN
 90
        1
 91
        1
300
_TITLE
309
CELLSTYLE_END
300
CELLSTYLE
  1
TABLEFORMAT_BEGIN
 90
        5
170
     1
 91
        0
 92
        0
 62
   257
 93
        1
300
CONTENTFORMAT
  1
CONTENTFORMAT_BEGIN
 90
        0
 91
        0
 92
        4
 93
        0
300

 40
0.0
140
1.0
 94
        5
 62
     0
340
11
144
0.18
309
CONTENTFORMAT_END
171
     1
301
MARGIN
  1
CELLMARGIN_BEGIN
 40
0.06
 40
0.06
 40
0.06
 40
0.06
 40
0.06
 40
0.06
309
CELLMARGIN_END
 94
        6
 95
        1
302
GRIDFORMAT
  1
GRIDFORMAT_BEGIN
 90
        0
 91
        1
 62
     0
 92
       -2
340
14
 93
        0
 40
0.045
309
GRIDFORMAT_END
 95
        2
302
GRIDFORMAT
  1
GRIDFORMAT_BEGIN
 90
        0
 91
        1
 62
     0
 92
       -2
340
14
 93
        0
 40
0.045
309
GRIDFORMAT_END
 95
        4
302
GRIDFORMAT
  1
GRIDFORMAT_BEGIN
 90
        0
 91
        1
 62
     0
 92
       -2
340
14
 93
        0
 40
0.045
309
GRIDFORMAT_END
 95
        8
302
GRIDFORMAT
  1
GRIDFORMAT_BEGIN
 90
        0
 91
        1
 62
     0
 92
       -2
340
14
 93
        0
 40
0.045
309
GRIDFORMAT_END
 95
       16
302
GRIDFORMAT
  1
GRIDFORMAT_BEGIN
 90
        0
 91
        1
 62
     0
 92
       -2
340
14
 93
        0
 40
0.045
309
GRIDFORMAT_END
 95
       32
302
GRIDFORMAT
  1
GRIDFORMAT_BEGIN
 90
        0
 91
        1
 62
     0
 92
       -2
340
14
 93
        0
 40
0.045
309
GRIDFORMAT_END
309
TABLEFORMAT_END
  1
CELLSTYLE_BEGIN
 90
        2
 91
        1
300
_HEADER
309
CELLSTYLE_END
300
CELLSTYLE
  1
TABLEFORMAT_BEGIN
 90
        5
170
     1
 91
        0
 92
        0
 62
   257
 93
        1
300
CONTENTFORMAT
  1
CONTENTFORMAT_BEGIN
 90
        0
 91
        0
 92
        4
 93
        0
300

 40
0.0
140
1.0
 94
        2
 62
     0
340
11
144
0.18
309
CONTENTFORMAT_END
171
     1
301
MARGIN
  1
CELLMARGIN_BEGIN
 40
0.06
 40
0.06
 40
0.06
 40
0.06
 40
0.06
 40
0.06
309
CELLMARGIN_END
 94
        6
 95
        1
302
GRIDFORMAT
  1
GRIDFORMAT_BEGIN
 90
        0
 91
        1
 62
     0
 92
       -2
340
14
 93
        0
 40
0.045
309
GRIDFORMAT_END
 95
        2
302
GRIDFORMAT
  1
GRIDFORMAT_BEGIN
 90
        0
 91
        1
 62
     0
 92
       -2
340
14
 93
        0
 40
0.045
309
GRIDFORMAT_END
 95
        4
302
GRIDFORMAT
  1
GRIDFORMAT_BEGIN
 90
        0
 91
        1
 62
     0
 92
       -2
340
14
 93
        0
 40
0.045
309
GRIDFORMAT_END
 95
        8
302
GRIDFORMAT
  1
GRIDFORMAT_BEGIN
 90
        0
 91
        1
 62
     0
 92
       -2
340
14
 93
        0
 40
0.045
309
GRIDFORMAT_END
 95
       16
302
GRIDFORMAT
  1
GRIDFORMAT_BEGIN
 90
        0
 91
        1
 62
     0
 92
       -2
340
14
 93
        0
 40
0.045
309
GRIDFORMAT_END
 95
       32
302
GRIDFORMAT
  1
GRIDFORMAT_BEGIN
 90
        0
 91
        1
 62
     0
 92
       -2
340
14
 93
        0
 40
0.045
309
GRIDFORMAT_END
309
TABLEFORMAT_END
  1
CELLSTYLE_BEGIN
 90
        3
 91
        2
300
_DATA
309
CELLSTYLE_END
  0
XRECORD
  5
FD
102
{ACAD_REACTORS
330
FC
102
}
330
FC
100
AcDbXrecord
280
     1
102
RTVSPropertyOp0
 70
     1
102
RTVSPropertyOp1
 70
     1
102
RTVSPropertyOp2
 70
     1
102
RTVSPropertyOp3
 70
     1
102
RTVSPropertyOp4
 70
     1
102
RTVSPropertyOp5
 70
     1
102
RTVSPropertyOp6
 70
     1
102
RTVSPropertyOp7
 70
     1
102
RTVSPropertyOp8
 70
     1
102
RTVSPropertyOp9
 70
     1
102
RTVSPropertyOp10
 70
     1
102
RTVSPropertyOp11
 70
     1
102
RTVSPropertyOp12
 70
     1
102
RTVSPropertyOp13
 70
     1
102
RTVSPropertyOp14
 70
     1
102
RTVSPropertyOp15
 70
     1
102
RTVSPropertyOp16
 70
     1
102
RTVSPropertyOp17
 70
     1
102
RTVSPropertyOp18
 70
     1
102
RTVSPropertyOp19
 70
     1
102
RTVSPropertyOp20
 70
     1
102
RTVSPropertyOp21
 70
     1
102
RTVSPropertyOp22
 70
     1
102
RTVSPropertyOp23
 70
     1
102
RTVSPropertyOp24
 70
     1
102
RTVSPropertyOp25
 70
     1
102
RTVSPropertyOp26
 70
     1
102
RTVSPropertyOp27
 70
     1
102
RTVSPropertyOp28
 70
     1
102
RTVSPropertyOp29
 70
     1
102
RTVSPropertyOp30
 70
     1
102
RTVSPropertyOp31
 70
     1
102
RTVSPropertyOp32
 70
     1
102
RTVSPropertyOp33
 70
     1
102
RTVSPropertyOp34
 70
     1
102
RTVSPropertyOp35
 70
     1
102
RTVSPropertyOp36
 70
     1
102
RTVSPropertyOp37
 70
     1
102
RTVSPropertyOp38
 70
     1
102
RTVSPropertyOp39
 70
     1
102
RTVSPropertyOp40
 70
     1
102
RTVSPropertyOp41
 70
     1
102
RTVSPropertyOp42
 70
     1
102
RTVSPropertyOp43
 70
     1
102
RTVSPropertyOp44
 70
     1
102
RTVSPropertyOp45
 70
     1
102
RTVSPropertyOp46
 70
     1
102
RTVSPropertyOp47
 70
     1
102
RTVSPropertyOp48
 70
     1
102
RTVSPropertyOp49
 70
     1
102
RTVSPropertyOp50
 70
     1
102
RTVSPropertyOp51
 70
     0
102
RTVSPropertyOp52
 70
     0
102
RTVSPropertyOp53
 70
     1
102
RTVSPropertyOp54
 70
     1
102
RTVSPropertyOp55
 70
     1
102
RTVSPropertyOp56
 70
     1
102
RTVSPropertyOp57
 70
     1
102
RTVSPost2010Prop28
280
     1
102
RTVSPost2010PropOp28
 70
     1
102
RTVSPost2010Prop29
280
     1
102
RTVSPost2010PropOp29
 70
     1
102
RTVSPost2010Prop30
280
     0
102
RTVSPost2010PropOp30
 70
     1
102
RTVSPost2010Prop31
280
     0
102
RTVSPost2010PropOp31
 70
     1
102
RTVSPost2010Prop32
280
     0
102
RTVSPost2010PropOp32
 70
     1
102
RTVSPost2010Prop33
280
     0
102
RTVSPost2010PropOp33
 70
     1
102
RTVSPost2010Prop34
280
     0
102
RTVSPost2010PropOp34
 70
     1
102
RTVSPost2010Prop35
280
     0
102
RTVSPost2010PropOp35
 70
     1
102
RTVSPost2010Prop36
280
     0
102
RTVSPost2010PropOp36
 70
     1
102
RTVSPost2010Prop37
 90
       50
102
RTVSPost2010PropOp37
 70
     1
102
RTVSPost2010Prop38
140
0.0
102
RTVSPost2010PropOp38
 70
     1
102
RTVSPost2010Prop39
140
1.0
102
RTVSPost2010PropOp39
 70
     1
102
RTVSPost2010Prop40
 90
        0
102
RTVSPost2010PropOp40
 70
     1
102
RTVSPost2010Prop41ColorIndex
 90
       18
102
RTVSPost2010Prop41ColorRGB
 90
        0
102
RTVSPost2010PropOp41
 70
     1
102
RTVSPost2010Prop42
 90
       50
102
RTVSPost2010PropOp42
 70
     1
102
RTVSPost2010Prop43
 90
        3
102
RTVSPost2010PropOp43
 70
     1
102
RTVSPost2010Prop44ColorIndex
 90
        5
102
RTVSPost2010Prop44ColorRGB
 90
      255
102
RTVSPost2010PropOp44
 70
     1
102
RTVSPost2010Prop45
280
     0
102
RTVSPost2010PropOp45
 70
     1
102
RTVSPost2010Prop46
 90
       50
102
RTVSPost2010PropOp46
 70
     1
102
RTVSPost2010Prop47
 90
       50
102
RTVSPost2010PropOp47
 70
     1
102
RTVSPost2010Prop48
 90
       50
102
RTVSPost2010PropOp48
 70
     1
102
RTVSPost2010Prop49
280
     0
102
RTVSPost2010PropOp49
 70
     1
102
RTVSPost2010Prop50
 90
       50
102
RTVSPost2010PropOp50
 70
     1
102
RTVSPost2010Prop51ColorIndex
 90
      256
102
RTVSPost2010Prop51ColorRGB
 90
-16777216
102
RTVSPost2010PropOp51
 70
     0
102
RTVSPost2010Prop52
140
1.0
102
RTVSPost2010PropOp52
 70
     0
102
RTVSPost2010Prop53
 90
        2
102
RTVSPost2010PropOp53
 70
     1
102
RTVSPost2010Prop54
  1
strokes_ogs.tif
102
RTVSPost2010PropOp54
 70
     1
102
RTVSPost2010Prop55
280
     0
102
RTVSPost2010PropOp55
 70
     1
102
RTVSPost2010Prop56
140
1.0
102
RTVSPost2010PropOp56
 70
     1
102
RTVSPost2010Prop57
140
1.0
102
RTVSPost2010PropOp57
 70
     1
  0
XRECORD
  5
103
102
{ACAD_REACTORS
330
102
102
}
330
102
100
AcDbXrecord
280
     1
102
RTVSPropertyOp0
 70
     1
102
RTVSPropertyOp1
 70
     1
102
RTVSPropertyOp2
 70
     1
102
RTVSPropertyOp3
 70
     1
102
RTVSPropertyOp4
 70
     1
102
RTVSPropertyOp5
 70
     1
102
RTVSPropertyOp6
 70
     1
102
RTVSPropertyOp7
 70
     1
102
RTVSPropertyOp8
 70
     1
102
RTVSPropertyOp9
 70
     1
102
RTVSPropertyOp10
 70
     1
102
RTVSPropertyOp11
 70
     1
102
RTVSPropertyOp12
 70
     1
102
RTVSPropertyOp13
 70
     1
102
RTVSPropertyOp14
 70
     1
102
RTVSPropertyOp15
 70
     1
102
RTVSPropertyOp16
 70
     1
102
RTVSPropertyOp17
 70
     1
102
RTVSPropertyOp18
 70
     1
102
RTVSPropertyOp19
 70
     1
102
RTVSPropertyOp20
 70
     1
102
RTVSPropertyOp21
 70
     1
102
RTVSPropertyOp22
 70
     1
102
RTVSPropertyOp23
 70
     1
102
RTVSPropertyOp24
 70
     1
102
RTVSPropertyOp25
 70
     1
102
RTVSPropertyOp26
 70
     1
102
RTVSPropertyOp27
 70
     1
102
RTVSPropertyOp28
 70
     1
102
RTVSPropertyOp29
 70
     1
102
RTVSPropertyOp30
 70
     1
102
RTVSPropertyOp31
 70
     1
102
RTVSPropertyOp32
 70
     1
102
RTVSPropertyOp33
 70
     1
102
RTVSPropertyOp34
 70
     1
102
RTVSPropertyOp35
 70
     1
102
RTVSPropertyOp36
 70
     1
102
RTVSPropertyOp37
 70
     1
102
RTVSPropertyOp38
 70
     1
102
RTVSPropertyOp39
 70
     1
102
RTVSPropertyOp40
 70
     1
102
RTVSPropertyOp41
 70
     1
102
RTVSPropertyOp42
 70
     1
102
RTVSPropertyOp43
 70
     1
102
RTVSPropertyOp44
 70
     1
102
RTVSPropertyOp45
 70
     1
102
RTVSPropertyOp46
 70
     1
102
RTVSPropertyOp47
 70
     1
102
RTVSPropertyOp48
 70
     1
102
RTVSPropertyOp49
 70
     1
102
RTVSPropertyOp50
 70
     1
102
RTVSPropertyOp51
 70
     0
102
RTVSPropertyOp52
 70
     0
102
RTVSPropertyOp53
 70
     1
102
RTVSPropertyOp54
 70
     1
102
RTVSPropertyOp55
 70
     1
102
RTVSPropertyOp56
 70
     1
102
RTVSPropertyOp57
 70
     1
102
RTVSPost2010Prop28
280
     0
102
RTVSPost2010PropOp28
 70
     1
102
RTVSPost2010Prop29
280
     1
102
RTVSPost2010PropOp29
 70
     1
102
RTVSPost2010Prop30
280
     1
102
RTVSPost2010PropOp30
 70
     1
102
RTVSPost2010Prop31
280
     0
102
RTVSPost2010PropOp31
 70
     1
102
RTVSPost2010Prop32
280
     0
102
RTVSPost2010PropOp32
 70
     1
102
RTVSPost2010Prop33
280
     0
102
RTVSPost2010PropOp33
 70
     1
102
RTVSPost2010Prop34
280
     0
102
RTVSPost2010PropOp34
 70
     1
102
RTVSPost2010Prop35
280
     0
102
RTVSPost2010PropOp35
 70
     1
102
RTVSPost2010Prop36
280
     0
102
RTVSPost2010PropOp36
 70
     1
102
RTVSPost2010Prop37
 90
       50
102
RTVSPost2010PropOp37
 70
     1
102
RTVSPost2010Prop38
140
0.0
102
RTVSPost2010PropOp38
 70
     1
102
RTVSPost2010Prop39
140
1.0
102
RTVSPost2010PropOp39
 70
     1
102
RTVSPost2010Prop40
 90
        0
102
RTVSPost2010PropOp40
 70
     1
102
RTVSPost2010Prop41ColorIndex
 90
       18
102
RTVSPost2010Prop41ColorRGB
 90
        0
102
RTVSPost2010PropOp41
 70
     1
102
RTVSPost2010Prop42
 90
       50
102
RTVSPost2010PropOp42
 70
     1
102
RTVSPost2010Prop43
 90
        3
102
RTVSPost2010PropOp43
 70
     1
102
RTVSPost2010Prop44ColorIndex
 90
        5
102
RTVSPost2010Prop44ColorRGB
 90
      255
102
RTVSPost2010PropOp44
 70
     1
102
RTVSPost2010Prop45
280
     0
102
RTVSPost2010PropOp45
 70
     1
102
RTVSPost2010Prop46
 90
       50
102
RTVSPost2010PropOp46
 70
     1
102
RTVSPost2010Prop47
 90
       50
102
RTVSPost2010PropOp47
 70
     1
102
RTVSPost2010Prop48
 90
       50
102
RTVSPost2010PropOp48
 70
     1
102
RTVSPost2010Prop49
280
     0
102
RTVSPost2010PropOp49
 70
     1
102
RTVSPost2010Prop50
 90
       50
102
RTVSPost2010PropOp50
 70
     1
102
RTVSPost2010Prop51ColorIndex
 90
      256
102
RTVSPost2010Prop51ColorRGB
 90
-16777216
102
RTVSPost2010PropOp51
 70
     0
102
RTVSPost2010Prop52
140
1.0
102
RTVSPost2010PropOp52
 70
     0
102
RTVSPost2010Prop53
 90
        2
102
RTVSPost2010PropOp53
 70
     1
102
RTVSPost2010Prop54
  1
strokes_ogs.tif
102
RTVSPost2010PropOp54
 70
     1
102
RTVSPost2010Prop55
280
     0
102
RTVSPost2010PropOp55
 70
     1
102
RTVSPost2010Prop56
140
1.0
102
RTVSPost2010PropOp56
 70
     1
102
RTVSPost2010Prop57
140
1.0
102
RTVSPost2010PropOp57
 70
     1
  0
XRECORD
  5
10B
102
{ACAD_REACTORS
330
10A
102
}
330
10A
100
AcDbXrecord
280
     1
102
RTVSPropertyOp0
 70
     1
102
RTVSPropertyOp1
 70
     1
102
RTVSPropertyOp2
 70
     1
102
RTVSPropertyOp3
 70
     1
102
RTVSPropertyOp4
 70
     1
102
RTVSPropertyOp5
 70
     1
102
RTVSPropertyOp6
 70
     1
102
RTVSPropertyOp7
 70
     1
102
RTVSPropertyOp8
 70
     1
102
RTVSPropertyOp9
 70
     1
102
RTVSPropertyOp10
 70
     1
102
RTVSPropertyOp11
 70
     1
102
RTVSPropertyOp12
 70
     1
102
RTVSPropertyOp13
 70
     1
102
RTVSPropertyOp14
 70
     1
102
RTVSPropertyOp15
 70
     1
102
RTVSPropertyOp16
 70
     1
102
RTVSPropertyOp17
 70
     1
102
RTVSPropertyOp18
 70
     1
102
RTVSPropertyOp19
 70
     1
102
RTVSPropertyOp20
 70
     1
102
RTVSPropertyOp21
 70
     1
102
RTVSPropertyOp22
 70
     1
102
RTVSPropertyOp23
 70
     1
102
RTVSPropertyOp24
 70
     1
102
RTVSPropertyOp25
 70
     1
102
RTVSPropertyOp26
 70
     1
102
RTVSPropertyOp27
 70
     1
102
RTVSPropertyOp28
 70
     1
102
RTVSPropertyOp29
 70
     1
102
RTVSPropertyOp30
 70
     1
102
RTVSPropertyOp31
 70
     1
102
RTVSPropertyOp32
 70
     1
102
RTVSPropertyOp33
 70
     1
102
RTVSPropertyOp34
 70
     1
102
RTVSPropertyOp35
 70
     1
102
RTVSPropertyOp36
 70
     1
102
RTVSPropertyOp37
 70
     1
102
RTVSPropertyOp38
 70
     1
102
RTVSPropertyOp39
 70
     1
102
RTVSPropertyOp40
 70
     1
102
RTVSPropertyOp41
 70
     1
102
RTVSPropertyOp42
 70
     1
102
RTVSPropertyOp43
 70
     1
102
RTVSPropertyOp44
 70
     1
102
RTVSPropertyOp45
 70
     1
102
RTVSPropertyOp46
 70
     1
102
RTVSPropertyOp47
 70
     1
102
RTVSPropertyOp48
 70
     1
102
RTVSPropertyOp49
 70
     1
102
RTVSPropertyOp50
 70
     1
102
RTVSPropertyOp51
 70
     0
102
RTVSPropertyOp52
 70
     0
102
RTVSPropertyOp53
 70
     1
102
RTVSPropertyOp54
 70
     1
102
RTVSPropertyOp55
 70
     1
102
RTVSPropertyOp56
 70
     1
102
RTVSPropertyOp57
 70
     1
102
RTVSPost2010Prop28
280
     0
102
RTVSPost2010PropOp28
 70
     1
102
RTVSPost2010Prop29
280
     1
102
RTVSPost2010PropOp29
 70
     1
102
RTVSPost2010Prop30
280
     1
102
RTVSPost2010PropOp30
 70
     1
102
RTVSPost2010Prop31
280
     0
102
RTVSPost2010PropOp31
 70
     1
102
RTVSPost2010Prop32
280
     0
102
RTVSPost2010PropOp32
 70
     1
102
RTVSPost2010Prop33
280
     0
102
RTVSPost2010PropOp33
 70
     1
102
RTVSPost2010Prop34
280
     0
102
RTVSPost2010PropOp34
 70
     1
102
RTVSPost2010Prop35
280
     0
102
RTVSPost2010PropOp35
 70
     1
102
RTVSPost2010Prop36
280
     0
102
RTVSPost2010PropOp36
 70
     1
102
RTVSPost2010Prop37
 90
       50
102
RTVSPost2010PropOp37
 70
     1
102
RTVSPost2010Prop38
140
0.0
102
RTVSPost2010PropOp38
 70
     1
102
RTVSPost2010Prop39
140
1.0
102
RTVSPost2010PropOp39
 70
     1
102
RTVSPost2010Prop40
 90
        0
102
RTVSPost2010PropOp40
 70
     1
102
RTVSPost2010Prop41ColorIndex
 90
       18
102
RTVSPost2010Prop41ColorRGB
 90
        0
102
RTVSPost2010PropOp41
 70
     1
102
RTVSPost2010Prop42
 90
       50
102
RTVSPost2010PropOp42
 70
     1
102
RTVSPost2010Prop43
 90
        3
102
RTVSPost2010PropOp43
 70
     1
102
RTVSPost2010Prop44ColorIndex
 90
        5
102
RTVSPost2010Prop44ColorRGB
 90
      255
102
RTVSPost2010PropOp44
 70
     1
102
RTVSPost2010Prop45
280
     0
102
RTVSPost2010PropOp45
 70
     1
102
RTVSPost2010Prop46
 90
       50
102
RTVSPost2010PropOp46
 70
     1
102
RTVSPost2010Prop47
 90
       50
102
RTVSPost2010PropOp47
 70
     1
102
RTVSPost2010Prop48
 90
       50
102
RTVSPost2010PropOp48
 70
     1
102
RTVSPost2010Prop49
280
     0
102
RTVSPost2010PropOp49
 70
     1
102
RTVSPost2010Prop50
 90
       50
102
RTVSPost2010PropOp50
 70
     1
102
RTVSPost2010Prop51ColorIndex
 90
      256
102
RTVSPost2010Prop51ColorRGB
 90
-16777216
102
RTVSPost2010PropOp51
 70
     0
102
RTVSPost2010Prop52
140
1.0
102
RTVSPost2010PropOp52
 70
     0
102
RTVSPost2010Prop53
 90
        2
102
RTVSPost2010PropOp53
 70
     1
102
RTVSPost2010Prop54
  1
strokes_ogs.tif
102
RTVSPost2010PropOp54
 70
     1
102
RTVSPost2010Prop55
280
     0
102
RTVSPost2010PropOp55
 70
     1
102
RTVSPost2010Prop56
140
1.0
102
RTVSPost2010PropOp56
 70
     1
102
RTVSPost2010Prop57
140
1.0
102
RTVSPost2010PropOp57
 70
     1
  0
XRECORD
  5
113
102
{ACAD_REACTORS
330
112
102
}
330
112
100
AcDbXrecord
280
     1
102
RTVSPropertyOp0
 70
     1
102
RTVSPropertyOp1
 70
     1
102
RTVSPropertyOp2
 70
     1
102
RTVSPropertyOp3
 70
     1
102
RTVSPropertyOp4
 70
     1
102
RTVSPropertyOp5
 70
     1
102
RTVSPropertyOp6
 70
     1
102
RTVSPropertyOp7
 70
     1
102
RTVSPropertyOp8
 70
     1
102
RTVSPropertyOp9
 70
     1
102
RTVSPropertyOp10
 70
     1
102
RTVSPropertyOp11
 70
     1
102
RTVSPropertyOp12
 70
     1
102
RTVSPropertyOp13
 70
     1
102
RTVSPropertyOp14
 70
     1
102
RTVSPropertyOp15
 70
     1
102
RTVSPropertyOp16
 70
     1
102
RTVSPropertyOp17
 70
     1
102
RTVSPropertyOp18
 70
     1
102
RTVSPropertyOp19
 70
     1
102
RTVSPropertyOp20
 70
     1
102
RTVSPropertyOp21
 70
     1
102
RTVSPropertyOp22
 70
     1
102
RTVSPropertyOp23
 70
     1
102
RTVSPropertyOp24
 70
     1
102
RTVSPropertyOp25
 70
     1
102
RTVSPropertyOp26
 70
     1
102
RTVSPropertyOp27
 70
     1
102
RTVSPropertyOp28
 70
     1
102
RTVSPropertyOp29
 70
     1
102
RTVSPropertyOp30
 70
     1
102
RTVSPropertyOp31
 70
     1
102
RTVSPropertyOp32
 70
     1
102
RTVSPropertyOp33
 70
     1
102
RTVSPropertyOp34
 70
     1
102
RTVSPropertyOp35
 70
     1
102
RTVSPropertyOp36
 70
     1
102
RTVSPropertyOp37
 70
     1
102
RTVSPropertyOp38
 70
     1
102
RTVSPropertyOp39
 70
     1
102
RTVSPropertyOp40
 70
     1
102
RTVSPropertyOp41
 70
     1
102
RTVSPropertyOp42
 70
     1
102
RTVSPropertyOp43
 70
     1
102
RTVSPropertyOp44
 70
     1
102
RTVSPropertyOp45
 70
     1
102
RTVSPropertyOp46
 70
     1
102
RTVSPropertyOp47
 70
     1
102
RTVSPropertyOp48
 70
     1
102
RTVSPropertyOp49
 70
     1
102
RTVSPropertyOp50
 70
     1
102
RTVSPropertyOp51
 70
     0
102
RTVSPropertyOp52
 70
     0
102
RTVSPropertyOp53
 70
     1
102
RTVSPropertyOp54
 70
     1
102
RTVSPropertyOp55
 70
     1
102
RTVSPropertyOp56
 70
     1
102
RTVSPropertyOp57
 70
     1
102
RTVSPost2010Prop28
280
     0
102
RTVSPost2010PropOp28
 70
     1
102
RTVSPost2010Prop29
280
     1
102
RTVSPost2010PropOp29
 70
     1
102
RTVSPost2010Prop30
280
     1
102
RTVSPost2010PropOp30
 70
     1
102
RTVSPost2010Prop31
280
     0
102
RTVSPost2010PropOp31
 70
     1
102
RTVSPost2010Prop32
280
     0
102
RTVSPost2010PropOp32
 70
     1
102
RTVSPost2010Prop33
280
     0
102
RTVSPost2010PropOp33
 70
     1
102
RTVSPost2010Prop34
280
     0
102
RTVSPost2010PropOp34
 70
     1
102
RTVSPost2010Prop35
280
     0
102
RTVSPost2010PropOp35
 70
     1
102
RTVSPost2010Prop36
280
     0
102
RTVSPost2010PropOp36
 70
     1
102
RTVSPost2010Prop37
 90
       50
102
RTVSPost2010PropOp37
 70
     1
102
RTVSPost2010Prop38
140
0.0
102
RTVSPost2010PropOp38
 70
     1
102
RTVSPost2010Prop39
140
1.0
102
RTVSPost2010PropOp39
 70
     1
102
RTVSPost2010Prop40
 90
        0
102
RTVSPost2010PropOp40
 70
     1
102
RTVSPost2010Prop41ColorIndex
 90
       18
102
RTVSPost2010Prop41ColorRGB
 90
        0
102
RTVSPost2010PropOp41
 70
     1
102
RTVSPost2010Prop42
 90
       50
102
RTVSPost2010PropOp42
 70
     1
102
RTVSPost2010Prop43
 90
        3
102
RTVSPost2010PropOp43
 70
     1
102
RTVSPost2010Prop44ColorIndex
 90
        5
102
RTVSPost2010Prop44ColorRGB
 90
      255
102
RTVSPost2010PropOp44
 70
     1
102
RTVSPost2010Prop45
280
     0
102
RTVSPost2010PropOp45
 70
     1
102
RTVSPost2010Prop46
 90
       50
102
RTVSPost2010PropOp46
 70
     1
102
RTVSPost2010Prop47
 90
       50
102
RTVSPost2010PropOp47
 70
     1
102
RTVSPost2010Prop48
 90
       50
102
RTVSPost2010PropOp48
 70
     1
102
RTVSPost2010Prop49
280
     0
102
RTVSPost2010PropOp49
 70
     1
102
RTVSPost2010Prop50
 90
       50
102
RTVSPost2010PropOp50
 70
     1
102
RTVSPost2010Prop51ColorIndex
 90
      256
102
RTVSPost2010Prop51ColorRGB
 90
-16777216
102
RTVSPost2010PropOp51
 70
     0
102
RTVSPost2010Prop52
140
1.0
102
RTVSPost2010PropOp52
 70
     0
102
RTVSPost2010Prop53
 90
        2
102
RTVSPost2010PropOp53
 70
     1
102
RTVSPost2010Prop54
  1
strokes_ogs.tif
102
RTVSPost2010PropOp54
 70
     1
102
RTVSPost2010Prop55
280
     0
102
RTVSPost2010PropOp55
 70
     1
102
RTVSPost2010Prop56
140
1.0
102
RTVSPost2010PropOp56
 70
     1
102
RTVSPost2010Prop57
140
1.0
102
RTVSPost2010PropOp57
 70
     1
  0
XRECORD
  5
107
102
{ACAD_REACTORS
330
106
102
}
330
106
100
AcDbXrecord
280
     1
102
RTVSPropertyOp0
 70
     1
102
RTVSPropertyOp1
 70
     1
102
RTVSPropertyOp2
 70
     1
102
RTVSPropertyOp3
 70
     1
102
RTVSPropertyOp4
 70
     1
102
RTVSPropertyOp5
 70
     1
102
RTVSPropertyOp6
 70
     1
102
RTVSPropertyOp7
 70
     1
102
RTVSPropertyOp8
 70
     1
102
RTVSPropertyOp9
 70
     1
102
RTVSPropertyOp10
 70
     1
102
RTVSPropertyOp11
 70
     1
102
RTVSPropertyOp12
 70
     1
102
RTVSPropertyOp13
 70
     1
102
RTVSPropertyOp14
 70
     1
102
RTVSPropertyOp15
 70
     1
102
RTVSPropertyOp16
 70
     1
102
RTVSPropertyOp17
 70
     1
102
RTVSPropertyOp18
 70
     1
102
RTVSPropertyOp19
 70
     1
102
RTVSPropertyOp20
 70
     1
102
RTVSPropertyOp21
 70
     1
102
RTVSPropertyOp22
 70
     1
102
RTVSPropertyOp23
 70
     1
102
RTVSPropertyOp24
 70
     1
102
RTVSPropertyOp25
 70
     1
102
RTVSPropertyOp26
 70
     1
102
RTVSPropertyOp27
 70
     1
102
RTVSPropertyOp28
 70
     1
102
RTVSPropertyOp29
 70
     1
102
RTVSPropertyOp30
 70
     1
102
RTVSPropertyOp31
 70
     1
102
RTVSPropertyOp32
 70
     1
102
RTVSPropertyOp33
 70
     1
102
RTVSPropertyOp34
 70
     1
102
RTVSPropertyOp35
 70
     1
102
RTVSPropertyOp36
 70
     1
102
RTVSPropertyOp37
 70
     1
102
RTVSPropertyOp38
 70
     1
102
RTVSPropertyOp39
 70
     1
102
RTVSPropertyOp40
 70
     1
102
RTVSPropertyOp41
 70
     1
102
RTVSPropertyOp42
 70
     1
102
RTVSPropertyOp43
 70
     1
102
RTVSPropertyOp44
 70
     1
102
RTVSPropertyOp45
 70
     1
102
RTVSPropertyOp46
 70
     1
102
RTVSPropertyOp47
 70
     1
102
RTVSPropertyOp48
 70
     1
102
RTVSPropertyOp49
 70
     1
102
RTVSPropertyOp50
 70
     1
102
RTVSPropertyOp51
 70
     0
102
RTVSPropertyOp52
 70
     0
102
RTVSPropertyOp53
 70
     1
102
RTVSPropertyOp54
 70
     1
102
RTVSPropertyOp55
 70
     1
102
RTVSPropertyOp56
 70
     1
102
RTVSPropertyOp57
 70
     1
102
RTVSPost2010Prop28
280
     0
102
RTVSPost2010PropOp28
 70
     1
102
RTVSPost2010Prop29
280
     1
102
RTVSPost2010PropOp29
 70
     1
102
RTVSPost2010Prop30
280
     1
102
RTVSPost2010PropOp30
 70
     1
102
RTVSPost2010Prop31
280
     0
102
RTVSPost2010PropOp31
 70
     1
102
RTVSPost2010Prop32
280
     0
102
RTVSPost2010PropOp32
 70
     1
102
RTVSPost2010Prop33
280
     0
102
RTVSPost2010PropOp33
 70
     1
102
RTVSPost2010Prop34
280
     0
102
RTVSPost2010PropOp34
 70
     1
102
RTVSPost2010Prop35
280
     0
102
RTVSPost2010PropOp35
 70
     1
102
RTVSPost2010Prop36
280
     0
102
RTVSPost2010PropOp36
 70
     1
102
RTVSPost2010Prop37
 90
       50
102
RTVSPost2010PropOp37
 70
     1
102
RTVSPost2010Prop38
140
0.0
102
RTVSPost2010PropOp38
 70
     1
102
RTVSPost2010Prop39
140
1.0
102
RTVSPost2010PropOp39
 70
     1
102
RTVSPost2010Prop40
 90
        0
102
RTVSPost2010PropOp40
 70
     1
102
RTVSPost2010Prop41ColorIndex
 90
       18
102
RTVSPost2010Prop41ColorRGB
 90
        0
102
RTVSPost2010PropOp41
 70
     1
102
RTVSPost2010Prop42
 90
       50
102
RTVSPost2010PropOp42
 70
     1
102
RTVSPost2010Prop43
 90
        3
102
RTVSPost2010PropOp43
 70
     1
102
RTVSPost2010Prop44ColorIndex
 90
        5
102
RTVSPost2010Prop44ColorRGB
 90
      255
102
RTVSPost2010PropOp44
 70
     1
102
RTVSPost2010Prop45
280
     0
102
RTVSPost2010PropOp45
 70
     1
102
RTVSPost2010Prop46
 90
       50
102
RTVSPost2010PropOp46
 70
     1
102
RTVSPost2010Prop47
 90
       50
102
RTVSPost2010PropOp47
 70
     1
102
RTVSPost2010Prop48
 90
       50
102
RTVSPost2010PropOp48
 70
     1
102
RTVSPost2010Prop49
280
     0
102
RTVSPost2010PropOp49
 70
     1
102
RTVSPost2010Prop50
 90
       50
102
RTVSPost2010PropOp50
 70
     1
102
RTVSPost2010Prop51ColorIndex
 90
      256
102
RTVSPost2010Prop51ColorRGB
 90
-16777216
102
RTVSPost2010PropOp51
 70
     0
102
RTVSPost2010Prop52
140
1.0
102
RTVSPost2010PropOp52
 70
     0
102
RTVSPost2010Prop53
 90
        2
102
RTVSPost2010PropOp53
 70
     1
102
RTVSPost2010Prop54
  1
strokes_ogs.tif
102
RTVSPost2010PropOp54
 70
     1
102
RTVSPost2010Prop55
280
     0
102
RTVSPost2010PropOp55
 70
     1
102
RTVSPost2010Prop56
140
1.0
102
RTVSPost2010PropOp56
 70
     1
102
RTVSPost2010Prop57
140
1.0
102
RTVSPost2010PropOp57
 70
     1
  0
XRECORD
  5
109
102
{ACAD_REACTORS
330
108
102
}
330
108
100
AcDbXrecord
280
     1
102
RTVSPropertyOp0
 70
     1
102
RTVSPropertyOp1
 70
     1
102
RTVSPropertyOp2
 70
     1
102
RTVSPropertyOp3
 70
     1
102
RTVSPropertyOp4
 70
     1
102
RTVSPropertyOp5
 70
     1
102
RTVSPropertyOp6
 70
     1
102
RTVSPropertyOp7
 70
     1
102
RTVSPropertyOp8
 70
     1
102
RTVSPropertyOp9
 70
     1
102
RTVSPropertyOp10
 70
     1
102
RTVSPropertyOp11
 70
     1
102
RTVSPropertyOp12
 70
     1
102
RTVSPropertyOp13
 70
     1
102
RTVSPropertyOp14
 70
     1
102
RTVSPropertyOp15
 70
     1
102
RTVSPropertyOp16
 70
     1
102
RTVSPropertyOp17
 70
     1
102
RTVSPropertyOp18
 70
     1
102
RTVSPropertyOp19
 70
     1
102
RTVSPropertyOp20
 70
     1
102
RTVSPropertyOp21
 70
     1
102
RTVSPropertyOp22
 70
     1
102
RTVSPropertyOp23
 70
     1
102
RTVSPropertyOp24
 70
     1
102
RTVSPropertyOp25
 70
     1
102
RTVSPropertyOp26
 70
     1
102
RTVSPropertyOp27
 70
     1
102
RTVSPropertyOp28
 70
     1
102
RTVSPropertyOp29
 70
     1
102
RTVSPropertyOp30
 70
     1
102
RTVSPropertyOp31
 70
     1
102
RTVSPropertyOp32
 70
     1
102
RTVSPropertyOp33
 70
     1
102
RTVSPropertyOp34
 70
     1
102
RTVSPropertyOp35
 70
     1
102
RTVSPropertyOp36
 70
     1
102
RTVSPropertyOp37
 70
     1
102
RTVSPropertyOp38
 70
     1
102
RTVSPropertyOp39
 70
     1
102
RTVSPropertyOp40
 70
     1
102
RTVSPropertyOp41
 70
     1
102
RTVSPropertyOp42
 70
     1
102
RTVSPropertyOp43
 70
     1
102
RTVSPropertyOp44
 70
     1
102
RTVSPropertyOp45
 70
     1
102
RTVSPropertyOp46
 70
     1
102
RTVSPropertyOp47
 70
     1
102
RTVSPropertyOp48
 70
     1
102
RTVSPropertyOp49
 70
     1
102
RTVSPropertyOp50
 70
     1
102
RTVSPropertyOp51
 70
     0
102
RTVSPropertyOp52
 70
     0
102
RTVSPropertyOp53
 70
     1
102
RTVSPropertyOp54
 70
     1
102
RTVSPropertyOp55
 70
     1
102
RTVSPropertyOp56
 70
     1
102
RTVSPropertyOp57
 70
     1
102
RTVSPost2010Prop28
280
     0
102
RTVSPost2010PropOp28
 70
     1
102
RTVSPost2010Prop29
280
     1
102
RTVSPost2010PropOp29
 70
     1
102
RTVSPost2010Prop30
280
     1
102
RTVSPost2010PropOp30
 70
     1
102
RTVSPost2010Prop31
280
     0
102
RTVSPost2010PropOp31
 70
     1
102
RTVSPost2010Prop32
280
     0
102
RTVSPost2010PropOp32
 70
     1
102
RTVSPost2010Prop33
280
     0
102
RTVSPost2010PropOp33
 70
     1
102
RTVSPost2010Prop34
280
     0
102
RTVSPost2010PropOp34
 70
     1
102
RTVSPost2010Prop35
280
     0
102
RTVSPost2010PropOp35
 70
     1
102
RTVSPost2010Prop36
280
     0
102
RTVSPost2010PropOp36
 70
     1
102
RTVSPost2010Prop37
 90
       50
102
RTVSPost2010PropOp37
 70
     1
102
RTVSPost2010Prop38
140
0.0
102
RTVSPost2010PropOp38
 70
     1
102
RTVSPost2010Prop39
140
1.0
102
RTVSPost2010PropOp39
 70
     1
102
RTVSPost2010Prop40
 90
        0
102
RTVSPost2010PropOp40
 70
     1
102
RTVSPost2010Prop41ColorIndex
 90
       18
102
RTVSPost2010Prop41ColorRGB
 90
        0
102
RTVSPost2010PropOp41
 70
     1
102
RTVSPost2010Prop42
 90
       50
102
RTVSPost2010PropOp42
 70
     1
102
RTVSPost2010Prop43
 90
        3
102
RTVSPost2010PropOp43
 70
     1
102
RTVSPost2010Prop44ColorIndex
 90
        5
102
RTVSPost2010Prop44ColorRGB
 90
      255
102
RTVSPost2010PropOp44
 70
     1
102
RTVSPost2010Prop45
280
     0
102
RTVSPost2010PropOp45
 70
     1
102
RTVSPost2010Prop46
 90
       50
102
RTVSPost2010PropOp46
 70
     1
102
RTVSPost2010Prop47
 90
       50
102
RTVSPost2010PropOp47
 70
     1
102
RTVSPost2010Prop48
 90
       50
102
RTVSPost2010PropOp48
 70
     1
102
RTVSPost2010Prop49
280
     0
102
RTVSPost2010PropOp49
 70
     1
102
RTVSPost2010Prop50
 90
       50
102
RTVSPost2010PropOp50
 70
     1
102
RTVSPost2010Prop51ColorIndex
 90
      256
102
RTVSPost2010Prop51ColorRGB
 90
-16777216
102
RTVSPost2010PropOp51
 70
     0
102
RTVSPost2010Prop52
140
1.0
102
RTVSPost2010PropOp52
 70
     0
102
RTVSPost2010Prop53
 90
        2
102
RTVSPost2010PropOp53
 70
     1
102
RTVSPost2010Prop54
  1
strokes_ogs.tif
102
RTVSPost2010PropOp54
 70
     1
102
RTVSPost2010Prop55
280
     0
102
RTVSPost2010PropOp55
 70
     1
102
RTVSPost2010Prop56
140
1.0
102
RTVSPost2010PropOp56
 70
     1
102
RTVSPost2010Prop57
140
1.0
102
RTVSPost2010PropOp57
 70
     1
  0
XRECORD
  5
119
102
{ACAD_REACTORS
330
118
102
}
330
118
100
AcDbXrecord
280
     1
102
RTVSPropertyOp0
 70
     0
102
RTVSPropertyOp1
 70
     0
102
RTVSPropertyOp2
 70
     0
102
RTVSPropertyOp3
 70
     0
102
RTVSPropertyOp4
 70
     0
102
RTVSPropertyOp5
 70
     0
102
RTVSPropertyOp6
 70
     0
102
RTVSPropertyOp7
 70
     0
102
RTVSPropertyOp8
 70
     0
102
RTVSPropertyOp9
 70
     0
102
RTVSPropertyOp10
 70
     0
102
RTVSPropertyOp11
 70
     0
102
RTVSPropertyOp12
 70
     0
102
RTVSPropertyOp13
 70
     0
102
RTVSPropertyOp14
 70
     2
102
RTVSPropertyOp15
 70
     0
102
RTVSPropertyOp16
 70
     0
102
RTVSPropertyOp17
 70
     0
102
RTVSPropertyOp18
 70
     0
102
RTVSPropertyOp19
 70
     0
102
RTVSPropertyOp20
 70
     0
102
RTVSPropertyOp21
 70
     0
102
RTVSPropertyOp22
 70
     0
102
RTVSPropertyOp23
 70
     0
102
RTVSPropertyOp24
 70
     0
102
RTVSPropertyOp25
 70
     0
102
RTVSPropertyOp26
 70
     0
102
RTVSPropertyOp27
 70
     0
102
RTVSPropertyOp28
 70
     0
102
RTVSPropertyOp29
 70
     0
102
RTVSPropertyOp30
 70
     0
102
RTVSPropertyOp31
 70
     0
102
RTVSPropertyOp32
 70
     0
102
RTVSPropertyOp33
 70
     0
102
RTVSPropertyOp34
 70
     0
102
RTVSPropertyOp35
 70
     0
102
RTVSPropertyOp36
 70
     0
102
RTVSPropertyOp37
 70
     0
102
RTVSPropertyOp38
 70
     0
102
RTVSPropertyOp39
 70
     0
102
RTVSPropertyOp40
 70
     0
102
RTVSPropertyOp41
 70
     0
102
RTVSPropertyOp42
 70
     0
102
RTVSPropertyOp43
 70
     0
102
RTVSPropertyOp44
 70
     0
102
RTVSPropertyOp45
 70
     0
102
RTVSPropertyOp46
 70
     0
102
RTVSPropertyOp47
 70
     0
102
RTVSPropertyOp48
 70
     0
102
RTVSPropertyOp49
 70
     0
102
RTVSPropertyOp50
 70
     0
102
RTVSPropertyOp51
 70
     0
102
RTVSPropertyOp52
 70
     0
102
RTVSPropertyOp53
 70
     0
102
RTVSPropertyOp54
 70
     0
102
RTVSPropertyOp55
 70
     0
102
RTVSPropertyOp56
 70
     0
102
RTVSPropertyOp57
 70
     0
102
RTVSPost2010Prop28
280
     0
102
RTVSPost2010PropOp28
 70
     0
102
RTVSPost2010Prop29
280
     1
102
RTVSPost2010PropOp29
 70
     0
102
RTVSPost2010Prop30
280
     1
102
RTVSPost2010PropOp30
 70
     0
102
RTVSPost2010Prop31
280
     0
102
RTVSPost2010PropOp31
 70
     0
102
RTVSPost2010Prop32
280
     0
102
RTVSPost2010PropOp32
 70
     0
102
RTVSPost2010Prop33
280
     0
102
RTVSPost2010PropOp33
 70
     0
102
RTVSPost2010Prop34
280
     0
102
RTVSPost2010PropOp34
 70
     0
102
RTVSPost2010Prop35
280
     0
102
RTVSPost2010PropOp35
 70
     0
102
RTVSPost2010Prop36
280
     0
102
RTVSPost2010PropOp36
 70
     0
102
RTVSPost2010Prop37
 90
       50
102
RTVSPost2010PropOp37
 70
     0
102
RTVSPost2010Prop38
140
0.0
102
RTVSPost2010PropOp38
 70
     0
102
RTVSPost2010Prop39
140
1.0
102
RTVSPost2010PropOp39
 70
     0
102
RTVSPost2010Prop40
 90
        0
102
RTVSPost2010PropOp40
 70
     0
102
RTVSPost2010Prop41ColorIndex
 90
       18
102
RTVSPost2010Prop41ColorRGB
 90
        0
102
RTVSPost2010PropOp41
 70
     0
102
RTVSPost2010Prop42
 90
       50
102
RTVSPost2010PropOp42
 70
     0
102
RTVSPost2010Prop43
 90
        3
102
RTVSPost2010PropOp43
 70
     0
102
RTVSPost2010Prop44ColorIndex
 90
        5
102
RTVSPost2010Prop44ColorRGB
 90
      255
102
RTVSPost2010PropOp44
 70
     0
102
RTVSPost2010Prop45
280
     0
102
RTVSPost2010PropOp45
 70
     0
102
RTVSPost2010Prop46
 90
       50
102
RTVSPost2010PropOp46
 70
     0
102
RTVSPost2010Prop47
 90
       50
102
RTVSPost2010PropOp47
 70
     0
102
RTVSPost2010Prop48
 90
       50
102
RTVSPost2010PropOp48
 70
     0
102
RTVSPost2010Prop49
280
     0
102
RTVSPost2010PropOp49
 70
     0
102
RTVSPost2010Prop50
 90
       50
102
RTVSPost2010PropOp50
 70
     0
102
RTVSPost2010Prop51ColorIndex
 90
      256
102
RTVSPost2010Prop51ColorRGB
 90
-16777216
102
RTVSPost2010PropOp51
 70
     0
102
RTVSPost2010Prop52
140
1.0
102
RTVSPost2010PropOp52
 70
     0
102
RTVSPost2010Prop53
 90
        2
102
RTVSPost2010PropOp53
 70
     0
102
RTVSPost2010Prop54
  1
strokes_ogs.tif
102
RTVSPost2010PropOp54
 70
     0
102
RTVSPost2010Prop55
280
     0
102
RTVSPost2010PropOp55
 70
     0
102
RTVSPost2010Prop56
140
1.0
102
RTVSPost2010PropOp56
 70
     0
102
RTVSPost2010Prop57
140
1.0
102
RTVSPost2010PropOp57
 70
     0
  0
XRECORD
  5
111
102
{ACAD_REACTORS
330
110
102
}
330
110
100
AcDbXrecord
280
     1
102
RTVSPropertyOp0
 70
     1
102
RTVSPropertyOp1
 70
     1
102
RTVSPropertyOp2
 70
     1
102
RTVSPropertyOp3
 70
     1
102
RTVSPropertyOp4
 70
     1
102
RTVSPropertyOp5
 70
     1
102
RTVSPropertyOp6
 70
     1
102
RTVSPropertyOp7
 70
     1
102
RTVSPropertyOp8
 70
     1
102
RTVSPropertyOp9
 70
     1
102
RTVSPropertyOp10
 70
     1
102
RTVSPropertyOp11
 70
     1
102
RTVSPropertyOp12
 70
     1
102
RTVSPropertyOp13
 70
     1
102
RTVSPropertyOp14
 70
     1
102
RTVSPropertyOp15
 70
     1
102
RTVSPropertyOp16
 70
     1
102
RTVSPropertyOp17
 70
     1
102
RTVSPropertyOp18
 70
     1
102
RTVSPropertyOp19
 70
     1
102
RTVSPropertyOp20
 70
     1
102
RTVSPropertyOp21
 70
     1
102
RTVSPropertyOp22
 70
     1
102
RTVSPropertyOp23
 70
     1
102
RTVSPropertyOp24
 70
     1
102
RTVSPropertyOp25
 70
     1
102
RTVSPropertyOp26
 70
     1
102
RTVSPropertyOp27
 70
     1
102
RTVSPropertyOp28
 70
     1
102
RTVSPropertyOp29
 70
     1
102
RTVSPropertyOp30
 70
     1
102
RTVSPropertyOp31
 70
     1
102
RTVSPropertyOp32
 70
     1
102
RTVSPropertyOp33
 70
     1
102
RTVSPropertyOp34
 70
     1
102
RTVSPropertyOp35
 70
     1
102
RTVSPropertyOp36
 70
     1
102
RTVSPropertyOp37
 70
     1
102
RTVSPropertyOp38
 70
     1
102
RTVSPropertyOp39
 70
     1
102
RTVSPropertyOp40
 70
     1
102
RTVSPropertyOp41
 70
     1
102
RTVSPropertyOp42
 70
     1
102
RTVSPropertyOp43
 70
     1
102
RTVSPropertyOp44
 70
     1
102
RTVSPropertyOp45
 70
     1
102
RTVSPropertyOp46
 70
     1
102
RTVSPropertyOp47
 70
     1
102
RTVSPropertyOp48
 70
     1
102
RTVSPropertyOp49
 70
     1
102
RTVSPropertyOp50
 70
     1
102
RTVSPropertyOp51
 70
     0
102
RTVSPropertyOp52
 70
     0
102
RTVSPropertyOp53
 70
     1
102
RTVSPropertyOp54
 70
     1
102
RTVSPropertyOp55
 70
     1
102
RTVSPropertyOp56
 70
     1
102
RTVSPropertyOp57
 70
     1
102
RTVSPost2010Prop28
280
     0
102
RTVSPost2010PropOp28
 70
     1
102
RTVSPost2010Prop29
280
     1
102
RTVSPost2010PropOp29
 70
     1
102
RTVSPost2010Prop30
280
     1
102
RTVSPost2010PropOp30
 70
     1
102
RTVSPost2010Prop31
280
     0
102
RTVSPost2010PropOp31
 70
     1
102
RTVSPost2010Prop32
280
     0
102
RTVSPost2010PropOp32
 70
     1
102
RTVSPost2010Prop33
280
     0
102
RTVSPost2010PropOp33
 70
     1
102
RTVSPost2010Prop34
280
     0
102
RTVSPost2010PropOp34
 70
     1
102
RTVSPost2010Prop35
280
     0
102
RTVSPost2010PropOp35
 70
     1
102
RTVSPost2010Prop36
280
     0
102
RTVSPost2010PropOp36
 70
     1
102
RTVSPost2010Prop37
 90
       50
102
RTVSPost2010PropOp37
 70
     1
102
RTVSPost2010Prop38
140
0.0
102
RTVSPost2010PropOp38
 70
     1
102
RTVSPost2010Prop39
140
1.0
102
RTVSPost2010PropOp39
 70
     1
102
RTVSPost2010Prop40
 90
        0
102
RTVSPost2010PropOp40
 70
     1
102
RTVSPost2010Prop41ColorIndex
 90
       18
102
RTVSPost2010Prop41ColorRGB
 90
        0
102
RTVSPost2010PropOp41
 70
     1
102
RTVSPost2010Prop42
 90
       50
102
RTVSPost2010PropOp42
 70
     1
102
RTVSPost2010Prop43
 90
        3
102
RTVSPost2010PropOp43
 70
     1
102
RTVSPost2010Prop44ColorIndex
 90
        5
102
RTVSPost2010Prop44ColorRGB
 90
      255
102
RTVSPost2010PropOp44
 70
     1
102
RTVSPost2010Prop45
280
     0
102
RTVSPost2010PropOp45
 70
     1
102
RTVSPost2010Prop46
 90
       50
102
RTVSPost2010PropOp46
 70
     1
102
RTVSPost2010Prop47
 90
       50
102
RTVSPost2010PropOp47
 70
     1
102
RTVSPost2010Prop48
 90
       50
102
RTVSPost2010PropOp48
 70
     1
102
RTVSPost2010Prop49
280
     0
102
RTVSPost2010PropOp49
 70
     1
102
RTVSPost2010Prop50
 90
       50
102
RTVSPost2010PropOp50
 70
     1
102
RTVSPost2010Prop51ColorIndex
 90
      256
102
RTVSPost2010Prop51ColorRGB
 90
-16777216
102
RTVSPost2010PropOp51
 70
     0
102
RTVSPost2010Prop52
140
1.0
102
RTVSPost2010PropOp52
 70
     0
102
RTVSPost2010Prop53
 90
        2
102
RTVSPost2010PropOp53
 70
     1
102
RTVSPost2010Prop54
  1
strokes_ogs.tif
102
RTVSPost2010PropOp54
 70
     1
102
RTVSPost2010Prop55
280
     0
102
RTVSPost2010PropOp55
 70
     1
102
RTVSPost2010Prop56
140
1.0
102
RTVSPost2010PropOp56
 70
     1
102
RTVSPost2010Prop57
140
1.0
102
RTVSPost2010PropOp57
 70
     1
  0
XRECORD
  5
F5
102
{ACAD_REACTORS
330
F4
102
}
330
F4
100
AcDbXrecord
280
     1
102
RTVSPropertyOp0
 70
     1
102
RTVSPropertyOp1
 70
     1
102
RTVSPropertyOp2
 70
     1
102
RTVSPropertyOp3
 70
     1
102
RTVSPropertyOp4
 70
     1
102
RTVSPropertyOp5
 70
     1
102
RTVSPropertyOp6
 70
     1
102
RTVSPropertyOp7
 70
     1
102
RTVSPropertyOp8
 70
     1
102
RTVSPropertyOp9
 70
     1
102
RTVSPropertyOp10
 70
     1
102
RTVSPropertyOp11
 70
     1
102
RTVSPropertyOp12
 70
     1
102
RTVSPropertyOp13
 70
     1
102
RTVSPropertyOp14
 70
     1
102
RTVSPropertyOp15
 70
     1
102
RTVSPropertyOp16
 70
     1
102
RTVSPropertyOp17
 70
     1
102
RTVSPropertyOp18
 70
     1
102
RTVSPropertyOp19
 70
     1
102
RTVSPropertyOp20
 70
     1
102
RTVSPropertyOp21
 70
     1
102
RTVSPropertyOp22
 70
     1
102
RTVSPropertyOp23
 70
     1
102
RTVSPropertyOp24
 70
     1
102
RTVSPropertyOp25
 70
     1
102
RTVSPropertyOp26
 70
     1
102
RTVSPropertyOp27
 70
     1
102
RTVSPropertyOp28
 70
     1
102
RTVSPropertyOp29
 70
     1
102
RTVSPropertyOp30
 70
     1
102
RTVSPropertyOp31
 70
     1
102
RTVSPropertyOp32
 70
     1
102
RTVSPropertyOp33
 70
     1
102
RTVSPropertyOp34
 70
     1
102
RTVSPropertyOp35
 70
     1
102
RTVSPropertyOp36
 70
     1
102
RTVSPropertyOp37
 70
     1
102
RTVSPropertyOp38
 70
     1
102
RTVSPropertyOp39
 70
     1
102
RTVSPropertyOp40
 70
     1
102
RTVSPropertyOp41
 70
     1
102
RTVSPropertyOp42
 70
     1
102
RTVSPropertyOp43
 70
     1
102
RTVSPropertyOp44
 70
     1
102
RTVSPropertyOp45
 70
     1
102
RTVSPropertyOp46
 70
     1
102
RTVSPropertyOp47
 70
     1
102
RTVSPropertyOp48
 70
     1
102
RTVSPropertyOp49
 70
     1
102
RTVSPropertyOp50
 70
     1
102
RTVSPropertyOp51
 70
     0
102
RTVSPropertyOp52
 70
     0
102
RTVSPropertyOp53
 70
     1
102
RTVSPropertyOp54
 70
     1
102
RTVSPropertyOp55
 70
     1
102
RTVSPropertyOp56
 70
     1
102
RTVSPropertyOp57
 70
     1
102
RTVSPost2010Prop28
280
     0
102
RTVSPost2010PropOp28
 70
     1
102
RTVSPost2010Prop29
280
     1
102
RTVSPost2010PropOp29
 70
     1
102
RTVSPost2010Prop30
280
     1
102
RTVSPost2010PropOp30
 70
     1
102
RTVSPost2010Prop31
280
     0
102
RTVSPost2010PropOp31
 70
     1
102
RTVSPost2010Prop32
280
     0
102
RTVSPost2010PropOp32
 70
     1
102
RTVSPost2010Prop33
280
     0
102
RTVSPost2010PropOp33
 70
     1
102
RTVSPost2010Prop34
280
     0
102
RTVSPost2010PropOp34
 70
     1
102
RTVSPost2010Prop35
280
     0
102
RTVSPost2010PropOp35
 70
     1
102
RTVSPost2010Prop36
280
     0
102
RTVSPost2010PropOp36
 70
     1
102
RTVSPost2010Prop37
 90
       50
102
RTVSPost2010PropOp37
 70
     1
102
RTVSPost2010Prop38
140
0.0
102
RTVSPost2010PropOp38
 70
     1
102
RTVSPost2010Prop39
140
1.0
102
RTVSPost2010PropOp39
 70
     1
102
RTVSPost2010Prop40
 90
        0
102
RTVSPost2010PropOp40
 70
     1
102
RTVSPost2010Prop41ColorIndex
 90
       18
102
RTVSPost2010Prop41ColorRGB
 90
        0
102
RTVSPost2010PropOp41
 70
     1
102
RTVSPost2010Prop42
 90
       50
102
RTVSPost2010PropOp42
 70
     1
102
RTVSPost2010Prop43
 90
        3
102
RTVSPost2010PropOp43
 70
     1
102
RTVSPost2010Prop44ColorIndex
 90
        5
102
RTVSPost2010Prop44ColorRGB
 90
      255
102
RTVSPost2010PropOp44
 70
     1
102
RTVSPost2010Prop45
280
     0
102
RTVSPost2010PropOp45
 70
     1
102
RTVSPost2010Prop46
 90
       50
102
RTVSPost2010PropOp46
 70
     1
102
RTVSPost2010Prop47
 90
       50
102
RTVSPost2010PropOp47
 70
     1
102
RTVSPost2010Prop48
 90
       50
102
RTVSPost2010PropOp48
 70
     1
102
RTVSPost2010Prop49
280
     0
102
RTVSPost2010PropOp49
 70
     1
102
RTVSPost2010Prop50
 90
       50
102
RTVSPost2010PropOp50
 70
     1
102
RTVSPost2010Prop51ColorIndex
 90
      256
102
RTVSPost2010Prop51ColorRGB
 90
-16777216
102
RTVSPost2010PropOp51
 70
     0
102
RTVSPost2010Prop52
140
1.0
102
RTVSPost2010PropOp52
 70
     0
102
RTVSPost2010Prop53
 90
        2
102
RTVSPost2010PropOp53
 70
     1
102
RTVSPost2010Prop54
  1
strokes_ogs.tif
102
RTVSPost2010PropOp54
 70
     1
102
RTVSPost2010Prop55
280
     0
102
RTVSPost2010PropOp55
 70
     1
102
RTVSPost2010Prop56
140
1.0
102
RTVSPost2010PropOp56
 70
     1
102
RTVSPost2010Prop57
140
1.0
102
RTVSPost2010PropOp57
 70
     1
  0
XRECORD
  5
F7
102
{ACAD_REACTORS
330
F6
102
}
330
F6
100
AcDbXrecord
280
     1
102
RTVSPropertyOp0
 70
     1
102
RTVSPropertyOp1
 70
     1
102
RTVSPropertyOp2
 70
     1
102
RTVSPropertyOp3
 70
     1
102
RTVSPropertyOp4
 70
     1
102
RTVSPropertyOp5
 70
     1
102
RTVSPropertyOp6
 70
     1
102
RTVSPropertyOp7
 70
     1
102
RTVSPropertyOp8
 70
     1
102
RTVSPropertyOp9
 70
     1
102
RTVSPropertyOp10
 70
     1
102
RTVSPropertyOp11
 70
     1
102
RTVSPropertyOp12
 70
     1
102
RTVSPropertyOp13
 70
     1
102
RTVSPropertyOp14
 70
     1
102
RTVSPropertyOp15
 70
     1
102
RTVSPropertyOp16
 70
     1
102
RTVSPropertyOp17
 70
     1
102
RTVSPropertyOp18
 70
     1
102
RTVSPropertyOp19
 70
     1
102
RTVSPropertyOp20
 70
     1
102
RTVSPropertyOp21
 70
     1
102
RTVSPropertyOp22
 70
     1
102
RTVSPropertyOp23
 70
     1
102
RTVSPropertyOp24
 70
     1
102
RTVSPropertyOp25
 70
     1
102
RTVSPropertyOp26
 70
     1
102
RTVSPropertyOp27
 70
     1
102
RTVSPropertyOp28
 70
     1
102
RTVSPropertyOp29
 70
     1
102
RTVSPropertyOp30
 70
     1
102
RTVSPropertyOp31
 70
     1
102
RTVSPropertyOp32
 70
     1
102
RTVSPropertyOp33
 70
     1
102
RTVSPropertyOp34
 70
     1
102
RTVSPropertyOp35
 70
     1
102
RTVSPropertyOp36
 70
     1
102
RTVSPropertyOp37
 70
     1
102
RTVSPropertyOp38
 70
     1
102
RTVSPropertyOp39
 70
     1
102
RTVSPropertyOp40
 70
     1
102
RTVSPropertyOp41
 70
     1
102
RTVSPropertyOp42
 70
     1
102
RTVSPropertyOp43
 70
     1
102
RTVSPropertyOp44
 70
     1
102
RTVSPropertyOp45
 70
     1
102
RTVSPropertyOp46
 70
     1
102
RTVSPropertyOp47
 70
     1
102
RTVSPropertyOp48
 70
     1
102
RTVSPropertyOp49
 70
     1
102
RTVSPropertyOp50
 70
     1
102
RTVSPropertyOp51
 70
     0
102
RTVSPropertyOp52
 70
     0
102
RTVSPropertyOp53
 70
     1
102
RTVSPropertyOp54
 70
     1
102
RTVSPropertyOp55
 70
     1
102
RTVSPropertyOp56
 70
     1
102
RTVSPropertyOp57
 70
     1
102
RTVSPost2010Prop28
280
     0
102
RTVSPost2010PropOp28
 70
     1
102
RTVSPost2010Prop29
280
     1
102
RTVSPost2010PropOp29
 70
     1
102
RTVSPost2010Prop30
280
     1
102
RTVSPost2010PropOp30
 70
     1
102
RTVSPost2010Prop31
280
     0
102
RTVSPost2010PropOp31
 70
     1
102
RTVSPost2010Prop32
280
     0
102
RTVSPost2010PropOp32
 70
     1
102
RTVSPost2010Prop33
280
     0
102
RTVSPost2010PropOp33
 70
     1
102
RTVSPost2010Prop34
280
     0
102
RTVSPost2010PropOp34
 70
     1
102
RTVSPost2010Prop35
280
     0
102
RTVSPost2010PropOp35
 70
     1
102
RTVSPost2010Prop36
280
     0
102
RTVSPost2010PropOp36
 70
     1
102
RTVSPost2010Prop37
 90
       50
102
RTVSPost2010PropOp37
 70
     1
102
RTVSPost2010Prop38
140
0.0
102
RTVSPost2010PropOp38
 70
     1
102
RTVSPost2010Prop39
140
1.0
102
RTVSPost2010PropOp39
 70
     1
102
RTVSPost2010Prop40
 90
        0
102
RTVSPost2010PropOp40
 70
     1
102
RTVSPost2010Prop41ColorIndex
 90
       18
102
RTVSPost2010Prop41ColorRGB
 90
        0
102
RTVSPost2010PropOp41
 70
     1
102
RTVSPost2010Prop42
 90
       50
102
RTVSPost2010PropOp42
 70
     1
102
RTVSPost2010Prop43
 90
        3
102
RTVSPost2010PropOp43
 70
     1
102
RTVSPost2010Prop44ColorIndex
 90
        5
102
RTVSPost2010Prop44ColorRGB
 90
      255
102
RTVSPost2010PropOp44
 70
     1
102
RTVSPost2010Prop45
280
     0
102
RTVSPost2010PropOp45
 70
     1
102
RTVSPost2010Prop46
 90
       50
102
RTVSPost2010PropOp46
 70
     1
102
RTVSPost2010Prop47
 90
       50
102
RTVSPost2010PropOp47
 70
     1
102
RTVSPost2010Prop48
 90
       50
102
RTVSPost2010PropOp48
 70
     1
102
RTVSPost2010Prop49
280
     0
102
RTVSPost2010PropOp49
 70
     1
102
RTVSPost2010Prop50
 90
       50
102
RTVSPost2010PropOp50
 70
     1
102
RTVSPost2010Prop51ColorIndex
 90
      256
102
RTVSPost2010Prop51ColorRGB
 90
-16777216
102
RTVSPost2010PropOp51
 70
     0
102
RTVSPost2010Prop52
140
1.0
102
RTVSPost2010PropOp52
 70
     0
102
RTVSPost2010Prop53
 90
        2
102
RTVSPost2010PropOp53
 70
     1
102
RTVSPost2010Prop54
  1
strokes_ogs.tif
102
RTVSPost2010PropOp54
 70
     1
102
RTVSPost2010Prop55
280
     0
102
RTVSPost2010PropOp55
 70
     1
102
RTVSPost2010Prop56
140
1.0
102
RTVSPost2010PropOp56
 70
     1
102
RTVSPost2010Prop57
140
1.0
102
RTVSPost2010PropOp57
 70
     1
  0
XRECORD
  5
F9
102
{ACAD_REACTORS
330
F8
102
}
330
F8
100
AcDbXrecord
280
     1
102
RTVSPropertyOp0
 70
     1
102
RTVSPropertyOp1
 70
     1
102
RTVSPropertyOp2
 70
     1
102
RTVSPropertyOp3
 70
     1
102
RTVSPropertyOp4
 70
     1
102
RTVSPropertyOp5
 70
     1
102
RTVSPropertyOp6
 70
     1
102
RTVSPropertyOp7
 70
     1
102
RTVSPropertyOp8
 70
     1
102
RTVSPropertyOp9
 70
     1
102
RTVSPropertyOp10
 70
     1
102
RTVSPropertyOp11
 70
     1
102
RTVSPropertyOp12
 70
     1
102
RTVSPropertyOp13
 70
     1
102
RTVSPropertyOp14
 70
     1
102
RTVSPropertyOp15
 70
     1
102
RTVSPropertyOp16
 70
     1
102
RTVSPropertyOp17
 70
     1
102
RTVSPropertyOp18
 70
     1
102
RTVSPropertyOp19
 70
     1
102
RTVSPropertyOp20
 70
     1
102
RTVSPropertyOp21
 70
     1
102
RTVSPropertyOp22
 70
     1
102
RTVSPropertyOp23
 70
     1
102
RTVSPropertyOp24
 70
     1
102
RTVSPropertyOp25
 70
     1
102
RTVSPropertyOp26
 70
     1
102
RTVSPropertyOp27
 70
     1
102
RTVSPropertyOp28
 70
     1
102
RTVSPropertyOp29
 70
     1
102
RTVSPropertyOp30
 70
     1
102
RTVSPropertyOp31
 70
     1
102
RTVSPropertyOp32
 70
     1
102
RTVSPropertyOp33
 70
     1
102
RTVSPropertyOp34
 70
     1
102
RTVSPropertyOp35
 70
     1
102
RTVSPropertyOp36
 70
     1
102
RTVSPropertyOp37
 70
     1
102
RTVSPropertyOp38
 70
     1
102
RTVSPropertyOp39
 70
     1
102
RTVSPropertyOp40
 70
     1
102
RTVSPropertyOp41
 70
     1
102
RTVSPropertyOp42
 70
     1
102
RTVSPropertyOp43
 70
     1
102
RTVSPropertyOp44
 70
     1
102
RTVSPropertyOp45
 70
     1
102
RTVSPropertyOp46
 70
     1
102
RTVSPropertyOp47
 70
     1
102
RTVSPropertyOp48
 70
     1
102
RTVSPropertyOp49
 70
     1
102
RTVSPropertyOp50
 70
     1
102
RTVSPropertyOp51
 70
     0
102
RTVSPropertyOp52
 70
     0
102
RTVSPropertyOp53
 70
     1
102
RTVSPropertyOp54
 70
     1
102
RTVSPropertyOp55
 70
     1
102
RTVSPropertyOp56
 70
     1
102
RTVSPropertyOp57
 70
     1
102
RTVSPost2010Prop28
280
     0
102
RTVSPost2010PropOp28
 70
     1
102
RTVSPost2010Prop29
280
     1
102
RTVSPost2010PropOp29
 70
     1
102
RTVSPost2010Prop30
280
     1
102
RTVSPost2010PropOp30
 70
     1
102
RTVSPost2010Prop31
280
     0
102
RTVSPost2010PropOp31
 70
     1
102
RTVSPost2010Prop32
280
     0
102
RTVSPost2010PropOp32
 70
     1
102
RTVSPost2010Prop33
280
     0
102
RTVSPost2010PropOp33
 70
     1
102
RTVSPost2010Prop34
280
     0
102
RTVSPost2010PropOp34
 70
     1
102
RTVSPost2010Prop35
280
     0
102
RTVSPost2010PropOp35
 70
     1
102
RTVSPost2010Prop36
280
     0
102
RTVSPost2010PropOp36
 70
     1
102
RTVSPost2010Prop37
 90
       50
102
RTVSPost2010PropOp37
 70
     1
102
RTVSPost2010Prop38
140
0.0
102
RTVSPost2010PropOp38
 70
     1
102
RTVSPost2010Prop39
140
1.0
102
RTVSPost2010PropOp39
 70
     1
102
RTVSPost2010Prop40
 90
        0
102
RTVSPost2010PropOp40
 70
     1
102
RTVSPost2010Prop41ColorIndex
 90
       18
102
RTVSPost2010Prop41ColorRGB
 90
        0
102
RTVSPost2010PropOp41
 70
     1
102
RTVSPost2010Prop42
 90
       50
102
RTVSPost2010PropOp42
 70
     1
102
RTVSPost2010Prop43
 90
        3
102
RTVSPost2010PropOp43
 70
     1
102
RTVSPost2010Prop44ColorIndex
 90
        5
102
RTVSPost2010Prop44ColorRGB
 90
      255
102
RTVSPost2010PropOp44
 70
     1
102
RTVSPost2010Prop45
280
     0
102
RTVSPost2010PropOp45
 70
     1
102
RTVSPost2010Prop46
 90
       50
102
RTVSPost2010PropOp46
 70
     1
102
RTVSPost2010Prop47
 90
       50
102
RTVSPost2010PropOp47
 70
     1
102
RTVSPost2010Prop48
 90
       50
102
RTVSPost2010PropOp48
 70
     1
102
RTVSPost2010Prop49
280
     0
102
RTVSPost2010PropOp49
 70
     1
102
RTVSPost2010Prop50
 90
       50
102
RTVSPost2010PropOp50
 70
     1
102
RTVSPost2010Prop51ColorIndex
 90
      256
102
RTVSPost2010Prop51ColorRGB
 90
-16777216
102
RTVSPost2010PropOp51
 70
     0
102
RTVSPost2010Prop52
140
1.0
102
RTVSPost2010PropOp52
 70
     0
102
RTVSPost2010Prop53
 90
        2
102
RTVSPost2010PropOp53
 70
     1
102
RTVSPost2010Prop54
  1
strokes_ogs.tif
102
RTVSPost2010PropOp54
 70
     1
102
RTVSPost2010Prop55
280
     0
102
RTVSPost2010PropOp55
 70
     1
102
RTVSPost2010Prop56
140
1.0
102
RTVSPost2010PropOp56
 70
     1
102
RTVSPost2010Prop57
140
1.0
102
RTVSPost2010PropOp57
 70
     1
  0
XRECORD
  5
FB
102
{ACAD_REACTORS
330
FA
102
}
330
FA
100
AcDbXrecord
280
     1
102
RTVSPropertyOp0
 70
     1
102
RTVSPropertyOp1
 70
     1
102
RTVSPropertyOp2
 70
     1
102
RTVSPropertyOp3
 70
     1
102
RTVSPropertyOp4
 70
     1
102
RTVSPropertyOp5
 70
     1
102
RTVSPropertyOp6
 70
     1
102
RTVSPropertyOp7
 70
     1
102
RTVSPropertyOp8
 70
     1
102
RTVSPropertyOp9
 70
     1
102
RTVSPropertyOp10
 70
     1
102
RTVSPropertyOp11
 70
     1
102
RTVSPropertyOp12
 70
     1
102
RTVSPropertyOp13
 70
     1
102
RTVSPropertyOp14
 70
     1
102
RTVSPropertyOp15
 70
     1
102
RTVSPropertyOp16
 70
     1
102
RTVSPropertyOp17
 70
     1
102
RTVSPropertyOp18
 70
     1
102
RTVSPropertyOp19
 70
     1
102
RTVSPropertyOp20
 70
     1
102
RTVSPropertyOp21
 70
     1
102
RTVSPropertyOp22
 70
     1
102
RTVSPropertyOp23
 70
     1
102
RTVSPropertyOp24
 70
     1
102
RTVSPropertyOp25
 70
     1
102
RTVSPropertyOp26
 70
     1
102
RTVSPropertyOp27
 70
     1
102
RTVSPropertyOp28
 70
     1
102
RTVSPropertyOp29
 70
     1
102
RTVSPropertyOp30
 70
     1
102
RTVSPropertyOp31
 70
     1
102
RTVSPropertyOp32
 70
     1
102
RTVSPropertyOp33
 70
     1
102
RTVSPropertyOp34
 70
     1
102
RTVSPropertyOp35
 70
     1
102
RTVSPropertyOp36
 70
     1
102
RTVSPropertyOp37
 70
     1
102
RTVSPropertyOp38
 70
     1
102
RTVSPropertyOp39
 70
     1
102
RTVSPropertyOp40
 70
     1
102
RTVSPropertyOp41
 70
     1
102
RTVSPropertyOp42
 70
     1
102
RTVSPropertyOp43
 70
     1
102
RTVSPropertyOp44
 70
     1
102
RTVSPropertyOp45
 70
     1
102
RTVSPropertyOp46
 70
     1
102
RTVSPropertyOp47
 70
     1
102
RTVSPropertyOp48
 70
     1
102
RTVSPropertyOp49
 70
     1
102
RTVSPropertyOp50
 70
     1
102
RTVSPropertyOp51
 70
     0
102
RTVSPropertyOp52
 70
     0
102
RTVSPropertyOp53
 70
     1
102
RTVSPropertyOp54
 70
     1
102
RTVSPropertyOp55
 70
     1
102
RTVSPropertyOp56
 70
     1
102
RTVSPropertyOp57
 70
     1
102
RTVSPost2010Prop28
280
     0
102
RTVSPost2010PropOp28
 70
     1
102
RTVSPost2010Prop29
280
     1
102
RTVSPost2010PropOp29
 70
     1
102
RTVSPost2010Prop30
280
     1
102
RTVSPost2010PropOp30
 70
     1
102
RTVSPost2010Prop31
280
     0
102
RTVSPost2010PropOp31
 70
     1
102
RTVSPost2010Prop32
280
     0
102
RTVSPost2010PropOp32
 70
     1
102
RTVSPost2010Prop33
280
     0
102
RTVSPost2010PropOp33
 70
     1
102
RTVSPost2010Prop34
280
     0
102
RTVSPost2010PropOp34
 70
     1
102
RTVSPost2010Prop35
280
     0
102
RTVSPost2010PropOp35
 70
     1
102
RTVSPost2010Prop36
280
     0
102
RTVSPost2010PropOp36
 70
     1
102
RTVSPost2010Prop37
 90
       50
102
RTVSPost2010PropOp37
 70
     1
102
RTVSPost2010Prop38
140
0.0
102
RTVSPost2010PropOp38
 70
     1
102
RTVSPost2010Prop39
140
1.0
102
RTVSPost2010PropOp39
 70
     1
102
RTVSPost2010Prop40
 90
        0
102
RTVSPost2010PropOp40
 70
     1
102
RTVSPost2010Prop41ColorIndex
 90
       18
102
RTVSPost2010Prop41ColorRGB
 90
        0
102
RTVSPost2010PropOp41
 70
     1
102
RTVSPost2010Prop42
 90
       50
102
RTVSPost2010PropOp42
 70
     1
102
RTVSPost2010Prop43
 90
        3
102
RTVSPost2010PropOp43
 70
     1
102
RTVSPost2010Prop44ColorIndex
 90
        5
102
RTVSPost2010Prop44ColorRGB
 90
      255
102
RTVSPost2010PropOp44
 70
     1
102
RTVSPost2010Prop45
280
     0
102
RTVSPost2010PropOp45
 70
     1
102
RTVSPost2010Prop46
 90
       50
102
RTVSPost2010PropOp46
 70
     1
102
RTVSPost2010Prop47
 90
       50
102
RTVSPost2010PropOp47
 70
     1
102
RTVSPost2010Prop48
 90
       50
102
RTVSPost2010PropOp48
 70
     1
102
RTVSPost2010Prop49
280
     0
102
RTVSPost2010PropOp49
 70
     1
102
RTVSPost2010Prop50
 90
       50
102
RTVSPost2010PropOp50
 70
     1
102
RTVSPost2010Prop51ColorIndex
 90
      256
102
RTVSPost2010Prop51ColorRGB
 90
-16777216
102
RTVSPost2010PropOp51
 70
     0
102
RTVSPost2010Prop52
140
1.0
102
RTVSPost2010PropOp52
 70
     0
102
RTVSPost2010Prop53
 90
        2
102
RTVSPost2010PropOp53
 70
     1
102
RTVSPost2010Prop54
  1
strokes_ogs.tif
102
RTVSPost2010PropOp54
 70
     1
102
RTVSPost2010Prop55
280
     0
102
RTVSPost2010PropOp55
 70
     1
102
RTVSPost2010Prop56
140
1.0
102
RTVSPost2010PropOp56
 70
     1
102
RTVSPost2010Prop57
140
1.0
102
RTVSPost2010PropOp57
 70
     1
  0
XRECORD
  5
101
102
{ACAD_REACTORS
330
100
102
}
330
100
100
AcDbXrecord
280
     1
102
RTVSPropertyOp0
 70
     1
102
RTVSPropertyOp1
 70
     1
102
RTVSPropertyOp2
 70
     1
102
RTVSPropertyOp3
 70
     1
102
RTVSPropertyOp4
 70
     1
102
RTVSPropertyOp5
 70
     1
102
RTVSPropertyOp6
 70
     1
102
RTVSPropertyOp7
 70
     1
102
RTVSPropertyOp8
 70
     1
102
RTVSPropertyOp9
 70
     1
102
RTVSPropertyOp10
 70
     1
102
RTVSPropertyOp11
 70
     1
102
RTVSPropertyOp12
 70
     1
102
RTVSPropertyOp13
 70
     1
102
RTVSPropertyOp14
 70
     1
102
RTVSPropertyOp15
 70
     1
102
RTVSPropertyOp16
 70
     1
102
RTVSPropertyOp17
 70
     1
102
RTVSPropertyOp18
 70
     1
102
RTVSPropertyOp19
 70
     1
102
RTVSPropertyOp20
 70
     1
102
RTVSPropertyOp21
 70
     1
102
RTVSPropertyOp22
 70
     1
102
RTVSPropertyOp23
 70
     1
102
RTVSPropertyOp24
 70
     1
102
RTVSPropertyOp25
 70
     1
102
RTVSPropertyOp26
 70
     1
102
RTVSPropertyOp27
 70
     1
102
RTVSPropertyOp28
 70
     1
102
RTVSPropertyOp29
 70
     1
102
RTVSPropertyOp30
 70
     1
102
RTVSPropertyOp31
 70
     1
102
RTVSPropertyOp32
 70
     1
102
RTVSPropertyOp33
 70
     1
102
RTVSPropertyOp34
 70
     1
102
RTVSPropertyOp35
 70
     1
102
RTVSPropertyOp36
 70
     1
102
RTVSPropertyOp37
 70
     1
102
RTVSPropertyOp38
 70
     1
102
RTVSPropertyOp39
 70
     1
102
RTVSPropertyOp40
 70
     1
102
RTVSPropertyOp41
 70
     1
102
RTVSPropertyOp42
 70
     1
102
RTVSPropertyOp43
 70
     1
102
RTVSPropertyOp44
 70
     1
102
RTVSPropertyOp45
 70
     1
102
RTVSPropertyOp46
 70
     1
102
RTVSPropertyOp47
 70
     1
102
RTVSPropertyOp48
 70
     1
102
RTVSPropertyOp49
 70
     1
102
RTVSPropertyOp50
 70
     1
102
RTVSPropertyOp51
 70
     0
102
RTVSPropertyOp52
 70
     0
102
RTVSPropertyOp53
 70
     1
102
RTVSPropertyOp54
 70
     1
102
RTVSPropertyOp55
 70
     1
102
RTVSPropertyOp56
 70
     1
102
RTVSPropertyOp57
 70
     1
102
RTVSPost2010Prop28
280
     0
102
RTVSPost2010PropOp28
 70
     1
102
RTVSPost2010Prop29
280
     1
102
RTVSPost2010PropOp29
 70
     1
102
RTVSPost2010Prop30
280
     1
102
RTVSPost2010PropOp30
 70
     1
102
RTVSPost2010Prop31
280
     0
102
RTVSPost2010PropOp31
 70
     1
102
RTVSPost2010Prop32
280
     0
102
RTVSPost2010PropOp32
 70
     1
102
RTVSPost2010Prop33
280
     0
102
RTVSPost2010PropOp33
 70
     1
102
RTVSPost2010Prop34
280
     0
102
RTVSPost2010PropOp34
 70
     1
102
RTVSPost2010Prop35
280
     0
102
RTVSPost2010PropOp35
 70
     1
102
RTVSPost2010Prop36
280
     0
102
RTVSPost2010PropOp36
 70
     1
102
RTVSPost2010Prop37
 90
       50
102
RTVSPost2010PropOp37
 70
     1
102
RTVSPost2010Prop38
140
0.0
102
RTVSPost2010PropOp38
 70
     1
102
RTVSPost2010Prop39
140
1.0
102
RTVSPost2010PropOp39
 70
     1
102
RTVSPost2010Prop40
 90
        0
102
RTVSPost2010PropOp40
 70
     1
102
RTVSPost2010Prop41ColorIndex
 90
       18
102
RTVSPost2010Prop41ColorRGB
 90
        0
102
RTVSPost2010PropOp41
 70
     1
102
RTVSPost2010Prop42
 90
       50
102
RTVSPost2010PropOp42
 70
     1
102
RTVSPost2010Prop43
 90
        3
102
RTVSPost2010PropOp43
 70
     1
102
RTVSPost2010Prop44ColorIndex
 90
        5
102
RTVSPost2010Prop44ColorRGB
 90
      255
102
RTVSPost2010PropOp44
 70
     1
102
RTVSPost2010Prop45
280
     0
102
RTVSPost2010PropOp45
 70
     1
102
RTVSPost2010Prop46
 90
       50
102
RTVSPost2010PropOp46
 70
     1
102
RTVSPost2010Prop47
 90
       50
102
RTVSPost2010PropOp47
 70
     1
102
RTVSPost2010Prop48
 90
       50
102
RTVSPost2010PropOp48
 70
     1
102
RTVSPost2010Prop49
280
     0
102
RTVSPost2010PropOp49
 70
     1
102
RTVSPost2010Prop50
 90
       50
102
RTVSPost2010PropOp50
 70
     1
102
RTVSPost2010Prop51ColorIndex
 90
      256
102
RTVSPost2010Prop51ColorRGB
 90
-16777216
102
RTVSPost2010PropOp51
 70
     0
102
RTVSPost2010Prop52
140
1.0
102
RTVSPost2010PropOp52
 70
     0
102
RTVSPost2010Prop53
 90
        2
102
RTVSPost2010PropOp53
 70
     1
102
RTVSPost2010Prop54
  1
strokes_ogs.tif
102
RTVSPost2010PropOp54
 70
     1
102
RTVSPost2010Prop55
280
     0
102
RTVSPost2010PropOp55
 70
     1
102
RTVSPost2010Prop56
140
1.0
102
RTVSPost2010PropOp56
 70
     1
102
RTVSPost2010Prop57
140
1.0
102
RTVSPost2010PropOp57
 70
     1
  0
XRECORD
  5
115
102
{ACAD_REACTORS
330
114
102
}
330
114
100
AcDbXrecord
280
     1
102
RTVSPropertyOp0
 70
     0
102
RTVSPropertyOp1
 70
     0
102
RTVSPropertyOp2
 70
     0
102
RTVSPropertyOp3
 70
     0
102
RTVSPropertyOp4
 70
     0
102
RTVSPropertyOp5
 70
     0
102
RTVSPropertyOp6
 70
     0
102
RTVSPropertyOp7
 70
     0
102
RTVSPropertyOp8
 70
     0
102
RTVSPropertyOp9
 70
     0
102
RTVSPropertyOp10
 70
     0
102
RTVSPropertyOp11
 70
     0
102
RTVSPropertyOp12
 70
     0
102
RTVSPropertyOp13
 70
     0
102
RTVSPropertyOp14
 70
     2
102
RTVSPropertyOp15
 70
     0
102
RTVSPropertyOp16
 70
     0
102
RTVSPropertyOp17
 70
     0
102
RTVSPropertyOp18
 70
     0
102
RTVSPropertyOp19
 70
     0
102
RTVSPropertyOp20
 70
     0
102
RTVSPropertyOp21
 70
     0
102
RTVSPropertyOp22
 70
     0
102
RTVSPropertyOp23
 70
     0
102
RTVSPropertyOp24
 70
     0
102
RTVSPropertyOp25
 70
     0
102
RTVSPropertyOp26
 70
     0
102
RTVSPropertyOp27
 70
     0
102
RTVSPropertyOp28
 70
     0
102
RTVSPropertyOp29
 70
     0
102
RTVSPropertyOp30
 70
     0
102
RTVSPropertyOp31
 70
     0
102
RTVSPropertyOp32
 70
     0
102
RTVSPropertyOp33
 70
     0
102
RTVSPropertyOp34
 70
     0
102
RTVSPropertyOp35
 70
     0
102
RTVSPropertyOp36
 70
     0
102
RTVSPropertyOp37
 70
     0
102
RTVSPropertyOp38
 70
     0
102
RTVSPropertyOp39
 70
     0
102
RTVSPropertyOp40
 70
     0
102
RTVSPropertyOp41
 70
     0
102
RTVSPropertyOp42
 70
     0
102
RTVSPropertyOp43
 70
     0
102
RTVSPropertyOp44
 70
     0
102
RTVSPropertyOp45
 70
     0
102
RTVSPropertyOp46
 70
     0
102
RTVSPropertyOp47
 70
     0
102
RTVSPropertyOp48
 70
     0
102
RTVSPropertyOp49
 70
     0
102
RTVSPropertyOp50
 70
     0
102
RTVSPropertyOp51
 70
     0
102
RTVSPropertyOp52
 70
     0
102
RTVSPropertyOp53
 70
     0
102
RTVSPropertyOp54
 70
     0
102
RTVSPropertyOp55
 70
     0
102
RTVSPropertyOp56
 70
     0
102
RTVSPropertyOp57
 70
     0
102
RTVSPost2010Prop28
280
     0
102
RTVSPost2010PropOp28
 70
     0
102
RTVSPost2010Prop29
280
     1
102
RTVSPost2010PropOp29
 70
     0
102
RTVSPost2010Prop30
280
     1
102
RTVSPost2010PropOp30
 70
     0
102
RTVSPost2010Prop31
280
     0
102
RTVSPost2010PropOp31
 70
     0
102
RTVSPost2010Prop32
280
     0
102
RTVSPost2010PropOp32
 70
     0
102
RTVSPost2010Prop33
280
     0
102
RTVSPost2010PropOp33
 70
     0
102
RTVSPost2010Prop34
280
     0
102
RTVSPost2010PropOp34
 70
     0
102
RTVSPost2010Prop35
280
     0
102
RTVSPost2010PropOp35
 70
     0
102
RTVSPost2010Prop36
280
     0
102
RTVSPost2010PropOp36
 70
     0
102
RTVSPost2010Prop37
 90
       50
102
RTVSPost2010PropOp37
 70
     0
102
RTVSPost2010Prop38
140
0.0
102
RTVSPost2010PropOp38
 70
     0
102
RTVSPost2010Prop39
140
1.0
102
RTVSPost2010PropOp39
 70
     0
102
RTVSPost2010Prop40
 90
        0
102
RTVSPost2010PropOp40
 70
     0
102
RTVSPost2010Prop41ColorIndex
 90
       18
102
RTVSPost2010Prop41ColorRGB
 90
        0
102
RTVSPost2010PropOp41
 70
     0
102
RTVSPost2010Prop42
 90
       50
102
RTVSPost2010PropOp42
 70
     0
102
RTVSPost2010Prop43
 90
        3
102
RTVSPost2010PropOp43
 70
     0
102
RTVSPost2010Prop44ColorIndex
 90
        5
102
RTVSPost2010Prop44ColorRGB
 90
      255
102
RTVSPost2010PropOp44
 70
     0
102
RTVSPost2010Prop45
280
     0
102
RTVSPost2010PropOp45
 70
     0
102
RTVSPost2010Prop46
 90
       50
102
RTVSPost2010PropOp46
 70
     0
102
RTVSPost2010Prop47
 90
       50
102
RTVSPost2010PropOp47
 70
     0
102
RTVSPost2010Prop48
 90
       50
102
RTVSPost2010PropOp48
 70
     0
102
RTVSPost2010Prop49
280
     0
102
RTVSPost2010PropOp49
 70
     0
102
RTVSPost2010Prop50
 90
       50
102
RTVSPost2010PropOp50
 70
     0
102
RTVSPost2010Prop51ColorIndex
 90
      256
102
RTVSPost2010Prop51ColorRGB
 90
-16777216
102
RTVSPost2010PropOp51
 70
     0
102
RTVSPost2010Prop52
140
1.0
102
RTVSPost2010PropOp52
 70
     0
102
RTVSPost2010Prop53
 90
        2
102
RTVSPost2010PropOp53
 70
     0
102
RTVSPost2010Prop54
  1
strokes_ogs.tif
102
RTVSPost2010PropOp54
 70
     0
102
RTVSPost2010Prop55
280
     0
102
RTVSPost2010PropOp55
 70
     0
102
RTVSPost2010Prop56
140
1.0
102
RTVSPost2010PropOp56
 70
     0
102
RTVSPost2010Prop57
140
1.0
102
RTVSPost2010PropOp57
 70
     0
  0
XRECORD
  5
10F
102
{ACAD_REACTORS
330
10E
102
}
330
10E
100
AcDbXrecord
280
     1
102
RTVSPropertyOp0
 70
     1
102
RTVSPropertyOp1
 70
     1
102
RTVSPropertyOp2
 70
     1
102
RTVSPropertyOp3
 70
     1
102
RTVSPropertyOp4
 70
     1
102
RTVSPropertyOp5
 70
     1
102
RTVSPropertyOp6
 70
     1
102
RTVSPropertyOp7
 70
     1
102
RTVSPropertyOp8
 70
     1
102
RTVSPropertyOp9
 70
     1
102
RTVSPropertyOp10
 70
     1
102
RTVSPropertyOp11
 70
     1
102
RTVSPropertyOp12
 70
     1
102
RTVSPropertyOp13
 70
     1
102
RTVSPropertyOp14
 70
     1
102
RTVSPropertyOp15
 70
     1
102
RTVSPropertyOp16
 70
     1
102
RTVSPropertyOp17
 70
     1
102
RTVSPropertyOp18
 70
     1
102
RTVSPropertyOp19
 70
     1
102
RTVSPropertyOp20
 70
     1
102
RTVSPropertyOp21
 70
     1
102
RTVSPropertyOp22
 70
     1
102
RTVSPropertyOp23
 70
     1
102
RTVSPropertyOp24
 70
     1
102
RTVSPropertyOp25
 70
     1
102
RTVSPropertyOp26
 70
     1
102
RTVSPropertyOp27
 70
     1
102
RTVSPropertyOp28
 70
     1
102
RTVSPropertyOp29
 70
     1
102
RTVSPropertyOp30
 70
     1
102
RTVSPropertyOp31
 70
     1
102
RTVSPropertyOp32
 70
     1
102
RTVSPropertyOp33
 70
     1
102
RTVSPropertyOp34
 70
     1
102
RTVSPropertyOp35
 70
     1
102
RTVSPropertyOp36
 70
     1
102
RTVSPropertyOp37
 70
     1
102
RTVSPropertyOp38
 70
     1
102
RTVSPropertyOp39
 70
     1
102
RTVSPropertyOp40
 70
     1
102
RTVSPropertyOp41
 70
     1
102
RTVSPropertyOp42
 70
     1
102
RTVSPropertyOp43
 70
     1
102
RTVSPropertyOp44
 70
     1
102
RTVSPropertyOp45
 70
     1
102
RTVSPropertyOp46
 70
     1
102
RTVSPropertyOp47
 70
     1
102
RTVSPropertyOp48
 70
     1
102
RTVSPropertyOp49
 70
     1
102
RTVSPropertyOp50
 70
     1
102
RTVSPropertyOp51
 70
     0
102
RTVSPropertyOp52
 70
     0
102
RTVSPropertyOp53
 70
     1
102
RTVSPropertyOp54
 70
     1
102
RTVSPropertyOp55
 70
     1
102
RTVSPropertyOp56
 70
     1
102
RTVSPropertyOp57
 70
     1
102
RTVSPost2010Prop28
280
     0
102
RTVSPost2010PropOp28
 70
     1
102
RTVSPost2010Prop29
280
     1
102
RTVSPost2010PropOp29
 70
     1
102
RTVSPost2010Prop30
280
     1
102
RTVSPost2010PropOp30
 70
     1
102
RTVSPost2010Prop31
280
     0
102
RTVSPost2010PropOp31
 70
     1
102
RTVSPost2010Prop32
280
     0
102
RTVSPost2010PropOp32
 70
     1
102
RTVSPost2010Prop33
280
     0
102
RTVSPost2010PropOp33
 70
     1
102
RTVSPost2010Prop34
280
     0
102
RTVSPost2010PropOp34
 70
     1
102
RTVSPost2010Prop35
280
     0
102
RTVSPost2010PropOp35
 70
     1
102
RTVSPost2010Prop36
280
     0
102
RTVSPost2010PropOp36
 70
     1
102
RTVSPost2010Prop37
 90
       50
102
RTVSPost2010PropOp37
 70
     1
102
RTVSPost2010Prop38
140
0.0
102
RTVSPost2010PropOp38
 70
     1
102
RTVSPost2010Prop39
140
1.0
102
RTVSPost2010PropOp39
 70
     1
102
RTVSPost2010Prop40
 90
        0
102
RTVSPost2010PropOp40
 70
     1
102
RTVSPost2010Prop41ColorIndex
 90
       18
102
RTVSPost2010Prop41ColorRGB
 90
        0
102
RTVSPost2010PropOp41
 70
     1
102
RTVSPost2010Prop42
 90
       50
102
RTVSPost2010PropOp42
 70
     1
102
RTVSPost2010Prop43
 90
        3
102
RTVSPost2010PropOp43
 70
     1
102
RTVSPost2010Prop44ColorIndex
 90
        5
102
RTVSPost2010Prop44ColorRGB
 90
      255
102
RTVSPost2010PropOp44
 70
     1
102
RTVSPost2010Prop45
280
     0
102
RTVSPost2010PropOp45
 70
     1
102
RTVSPost2010Prop46
 90
       50
102
RTVSPost2010PropOp46
 70
     1
102
RTVSPost2010Prop47
 90
       50
102
RTVSPost2010PropOp47
 70
     1
102
RTVSPost2010Prop48
 90
       50
102
RTVSPost2010PropOp48
 70
     1
102
RTVSPost2010Prop49
280
     0
102
RTVSPost2010PropOp49
 70
     1
102
RTVSPost2010Prop50
 90
       50
102
RTVSPost2010PropOp50
 70
     1
102
RTVSPost2010Prop51ColorIndex
 90
      256
102
RTVSPost2010Prop51ColorRGB
 90
-16777216
102
RTVSPost2010PropOp51
 70
     0
102
RTVSPost2010Prop52
140
1.0
102
RTVSPost2010PropOp52
 70
     0
102
RTVSPost2010Prop53
 90
        2
102
RTVSPost2010PropOp53
 70
     1
102
RTVSPost2010Prop54
  1
strokes_ogs.tif
102
RTVSPost2010PropOp54
 70
     1
102
RTVSPost2010Prop55
280
     0
102
RTVSPost2010PropOp55
 70
     1
102
RTVSPost2010Prop56
140
1.0
102
RTVSPost2010PropOp56
 70
     1
102
RTVSPost2010Prop57
140
1.0
102
RTVSPost2010PropOp57
 70
     1
  0
XRECORD
  5
117
102
{ACAD_REACTORS
330
116
102
}
330
116
100
AcDbXrecord
280
     1
102
RTVSPropertyOp0
 70
     0
102
RTVSPropertyOp1
 70
     0
102
RTVSPropertyOp2
 70
     0
102
RTVSPropertyOp3
 70
     0
102
RTVSPropertyOp4
 70
     0
102
RTVSPropertyOp5
 70
     0
102
RTVSPropertyOp6
 70
     0
102
RTVSPropertyOp7
 70
     0
102
RTVSPropertyOp8
 70
     0
102
RTVSPropertyOp9
 70
     0
102
RTVSPropertyOp10
 70
     0
102
RTVSPropertyOp11
 70
     0
102
RTVSPropertyOp12
 70
     0
102
RTVSPropertyOp13
 70
     0
102
RTVSPropertyOp14
 70
     2
102
RTVSPropertyOp15
 70
     0
102
RTVSPropertyOp16
 70
     0
102
RTVSPropertyOp17
 70
     0
102
RTVSPropertyOp18
 70
     0
102
RTVSPropertyOp19
 70
     0
102
RTVSPropertyOp20
 70
     0
102
RTVSPropertyOp21
 70
     0
102
RTVSPropertyOp22
 70
     0
102
RTVSPropertyOp23
 70
     0
102
RTVSPropertyOp24
 70
     0
102
RTVSPropertyOp25
 70
     0
102
RTVSPropertyOp26
 70
     0
102
RTVSPropertyOp27
 70
     0
102
RTVSPropertyOp28
 70
     0
102
RTVSPropertyOp29
 70
     0
102
RTVSPropertyOp30
 70
     0
102
RTVSPropertyOp31
 70
     0
102
RTVSPropertyOp32
 70
     0
102
RTVSPropertyOp33
 70
     0
102
RTVSPropertyOp34
 70
     0
102
RTVSPropertyOp35
 70
     0
102
RTVSPropertyOp36
 70
     0
102
RTVSPropertyOp37
 70
     0
102
RTVSPropertyOp38
 70
     0
102
RTVSPropertyOp39
 70
     0
102
RTVSPropertyOp40
 70
     0
102
RTVSPropertyOp41
 70
     0
102
RTVSPropertyOp42
 70
     0
102
RTVSPropertyOp43
 70
     0
102
RTVSPropertyOp44
 70
     0
102
RTVSPropertyOp45
 70
     0
102
RTVSPropertyOp46
 70
     0
102
RTVSPropertyOp47
 70
     0
102
RTVSPropertyOp48
 70
     0
102
RTVSPropertyOp49
 70
     0
102
RTVSPropertyOp50
 70
     0
102
RTVSPropertyOp51
 70
     0
102
RTVSPropertyOp52
 70
     0
102
RTVSPropertyOp53
 70
     0
102
RTVSPropertyOp54
 70
     0
102
RTVSPropertyOp55
 70
     0
102
RTVSPropertyOp56
 70
     0
102
RTVSPropertyOp57
 70
     0
102
RTVSPost2010Prop28
280
     0
102
RTVSPost2010PropOp28
 70
     0
102
RTVSPost2010Prop29
280
     1
102
RTVSPost2010PropOp29
 70
     0
102
RTVSPost2010Prop30
280
     1
102
RTVSPost2010PropOp30
 70
     0
102
RTVSPost2010Prop31
280
     0
102
RTVSPost2010PropOp31
 70
     0
102
RTVSPost2010Prop32
280
     0
102
RTVSPost2010PropOp32
 70
     0
102
RTVSPost2010Prop33
280
     0
102
RTVSPost2010PropOp33
 70
     0
102
RTVSPost2010Prop34
280
     0
102
RTVSPost2010PropOp34
 70
     0
102
RTVSPost2010Prop35
280
     0
102
RTVSPost2010PropOp35
 70
     0
102
RTVSPost2010Prop36
280
     0
102
RTVSPost2010PropOp36
 70
     0
102
RTVSPost2010Prop37
 90
       50
102
RTVSPost2010PropOp37
 70
     0
102
RTVSPost2010Prop38
140
0.0
102
RTVSPost2010PropOp38
 70
     0
102
RTVSPost2010Prop39
140
1.0
102
RTVSPost2010PropOp39
 70
     0
102
RTVSPost2010Prop40
 90
        0
102
RTVSPost2010PropOp40
 70
     0
102
RTVSPost2010Prop41ColorIndex
 90
       18
102
RTVSPost2010Prop41ColorRGB
 90
        0
102
RTVSPost2010PropOp41
 70
     0
102
RTVSPost2010Prop42
 90
       50
102
RTVSPost2010PropOp42
 70
     0
102
RTVSPost2010Prop43
 90
        3
102
RTVSPost2010PropOp43
 70
     0
102
RTVSPost2010Prop44ColorIndex
 90
        5
102
RTVSPost2010Prop44ColorRGB
 90
      255
102
RTVSPost2010PropOp44
 70
     0
102
RTVSPost2010Prop45
280
     0
102
RTVSPost2010PropOp45
 70
     0
102
RTVSPost2010Prop46
 90
       50
102
RTVSPost2010PropOp46
 70
     0
102
RTVSPost2010Prop47
 90
       50
102
RTVSPost2010PropOp47
 70
     0
102
RTVSPost2010Prop48
 90
       50
102
RTVSPost2010PropOp48
 70
     0
102
RTVSPost2010Prop49
280
     0
102
RTVSPost2010PropOp49
 70
     0
102
RTVSPost2010Prop50
 90
       50
102
RTVSPost2010PropOp50
 70
     0
102
RTVSPost2010Prop51ColorIndex
 90
      256
102
RTVSPost2010Prop51ColorRGB
 90
-16777216
102
RTVSPost2010PropOp51
 70
     0
102
RTVSPost2010Prop52
140
1.0
102
RTVSPost2010PropOp52
 70
     0
102
RTVSPost2010Prop53
 90
        2
102
RTVSPost2010PropOp53
 70
     0
102
RTVSPost2010Prop54
  1
strokes_ogs.tif
102
RTVSPost2010PropOp54
 70
     0
102
RTVSPost2010Prop55
280
     0
102
RTVSPost2010PropOp55
 70
     0
102
RTVSPost2010Prop56
140
1.0
102
RTVSPost2010PropOp56
 70
     0
102
RTVSPost2010Prop57
140
1.0
102
RTVSPost2010PropOp57
 70
     0
  0
XRECORD
  5
105
102
{ACAD_REACTORS
330
104
102
}
330
104
100
AcDbXrecord
280
     1
102
RTVSPropertyOp0
 70
     1
102
RTVSPropertyOp1
 70
     1
102
RTVSPropertyOp2
 70
     1
102
RTVSPropertyOp3
 70
     1
102
RTVSPropertyOp4
 70
     1
102
RTVSPropertyOp5
 70
     1
102
RTVSPropertyOp6
 70
     1
102
RTVSPropertyOp7
 70
     1
102
RTVSPropertyOp8
 70
     1
102
RTVSPropertyOp9
 70
     1
102
RTVSPropertyOp10
 70
     1
102
RTVSPropertyOp11
 70
     1
102
RTVSPropertyOp12
 70
     1
102
RTVSPropertyOp13
 70
     1
102
RTVSPropertyOp14
 70
     1
102
RTVSPropertyOp15
 70
     1
102
RTVSPropertyOp16
 70
     1
102
RTVSPropertyOp17
 70
     1
102
RTVSPropertyOp18
 70
     1
102
RTVSPropertyOp19
 70
     1
102
RTVSPropertyOp20
 70
     1
102
RTVSPropertyOp21
 70
     1
102
RTVSPropertyOp22
 70
     1
102
RTVSPropertyOp23
 70
     1
102
RTVSPropertyOp24
 70
     1
102
RTVSPropertyOp25
 70
     1
102
RTVSPropertyOp26
 70
     1
102
RTVSPropertyOp27
 70
     1
102
RTVSPropertyOp28
 70
     1
102
RTVSPropertyOp29
 70
     1
102
RTVSPropertyOp30
 70
     1
102
RTVSPropertyOp31
 70
     1
102
RTVSPropertyOp32
 70
     1
102
RTVSPropertyOp33
 70
     1
102
RTVSPropertyOp34
 70
     1
102
RTVSPropertyOp35
 70
     1
102
RTVSPropertyOp36
 70
     1
102
RTVSPropertyOp37
 70
     1
102
RTVSPropertyOp38
 70
     1
102
RTVSPropertyOp39
 70
     1
102
RTVSPropertyOp40
 70
     1
102
RTVSPropertyOp41
 70
     1
102
RTVSPropertyOp42
 70
     1
102
RTVSPropertyOp43
 70
     1
102
RTVSPropertyOp44
 70
     1
102
RTVSPropertyOp45
 70
     1
102
RTVSPropertyOp46
 70
     1
102
RTVSPropertyOp47
 70
     1
102
RTVSPropertyOp48
 70
     1
102
RTVSPropertyOp49
 70
     1
102
RTVSPropertyOp50
 70
     1
102
RTVSPropertyOp51
 70
     0
102
RTVSPropertyOp52
 70
     0
102
RTVSPropertyOp53
 70
     1
102
RTVSPropertyOp54
 70
     1
102
RTVSPropertyOp55
 70
     1
102
RTVSPropertyOp56
 70
     1
102
RTVSPropertyOp57
 70
     1
102
RTVSPost2010Prop28
280
     0
102
RTVSPost2010PropOp28
 70
     1
102
RTVSPost2010Prop29
280
     1
102
RTVSPost2010PropOp29
 70
     1
102
RTVSPost2010Prop30
280
     1
102
RTVSPost2010PropOp30
 70
     1
102
RTVSPost2010Prop31
280
     0
102
RTVSPost2010PropOp31
 70
     1
102
RTVSPost2010Prop32
280
     0
102
RTVSPost2010PropOp32
 70
     1
102
RTVSPost2010Prop33
280
     0
102
RTVSPost2010PropOp33
 70
     1
102
RTVSPost2010Prop34
280
     0
102
RTVSPost2010PropOp34
 70
     1
102
RTVSPost2010Prop35
280
     0
102
RTVSPost2010PropOp35
 70
     1
102
RTVSPost2010Prop36
280
     0
102
RTVSPost2010PropOp36
 70
     1
102
RTVSPost2010Prop37
 90
       50
102
RTVSPost2010PropOp37
 70
     1
102
RTVSPost2010Prop38
140
0.0
102
RTVSPost2010PropOp38
 70
     1
102
RTVSPost2010Prop39
140
1.0
102
RTVSPost2010PropOp39
 70
     1
102
RTVSPost2010Prop40
 90
        0
102
RTVSPost2010PropOp40
 70
     1
102
RTVSPost2010Prop41ColorIndex
 90
       18
102
RTVSPost2010Prop41ColorRGB
 90
        0
102
RTVSPost2010PropOp41
 70
     1
102
RTVSPost2010Prop42
 90
       50
102
RTVSPost2010PropOp42
 70
     1
102
RTVSPost2010Prop43
 90
        3
102
RTVSPost2010PropOp43
 70
     1
102
RTVSPost2010Prop44ColorIndex
 90
        5
102
RTVSPost2010Prop44ColorRGB
 90
      255
102
RTVSPost2010PropOp44
 70
     1
102
RTVSPost2010Prop45
280
     0
102
RTVSPost2010PropOp45
 70
     1
102
RTVSPost2010Prop46
 90
       50
102
RTVSPost2010PropOp46
 70
     1
102
RTVSPost2010Prop47
 90
       50
102
RTVSPost2010PropOp47
 70
     1
102
RTVSPost2010Prop48
 90
       50
102
RTVSPost2010PropOp48
 70
     1
102
RTVSPost2010Prop49
280
     0
102
RTVSPost2010PropOp49
 70
     1
102
RTVSPost2010Prop50
 90
       50
102
RTVSPost2010PropOp50
 70
     1
102
RTVSPost2010Prop51ColorIndex
 90
      256
102
RTVSPost2010Prop51ColorRGB
 90
-16777216
102
RTVSPost2010PropOp51
 70
     0
102
RTVSPost2010Prop52
140
1.0
102
RTVSPost2010PropOp52
 70
     0
102
RTVSPost2010Prop53
 90
        2
102
RTVSPost2010PropOp53
 70
     1
102
RTVSPost2010Prop54
  1
strokes_ogs.tif
102
RTVSPost2010PropOp54
 70
     1
102
RTVSPost2010Prop55
280
     0
102
RTVSPost2010PropOp55
 70
     1
102
RTVSPost2010Prop56
140
1.0
102
RTVSPost2010PropOp56
 70
     1
102
RTVSPost2010Prop57
140
1.0
102
RTVSPost2010PropOp57
 70
     1
  0
XRECORD
  5
123
102
{ACAD_REACTORS
330
122
102
}
330
122
100
AcDbXrecord
280
     1
102
RTVSPropertyOp0
 70
     1
102
RTVSPropertyOp1
 70
     1
102
RTVSPropertyOp2
 70
     1
102
RTVSPropertyOp3
 70
     1
102
RTVSPropertyOp4
 70
     1
102
RTVSPropertyOp5
 70
     1
102
RTVSPropertyOp6
 70
     1
102
RTVSPropertyOp7
 70
     1
102
RTVSPropertyOp8
 70
     1
102
RTVSPropertyOp9
 70
     1
102
RTVSPropertyOp10
 70
     1
102
RTVSPropertyOp11
 70
     1
102
RTVSPropertyOp12
 70
     1
102
RTVSPropertyOp13
 70
     1
102
RTVSPropertyOp14
 70
     1
102
RTVSPropertyOp15
 70
     1
102
RTVSPropertyOp16
 70
     1
102
RTVSPropertyOp17
 70
     1
102
RTVSPropertyOp18
 70
     1
102
RTVSPropertyOp19
 70
     1
102
RTVSPropertyOp20
 70
     1
102
RTVSPropertyOp21
 70
     1
102
RTVSPropertyOp22
 70
     1
102
RTVSPropertyOp23
 70
     1
102
RTVSPropertyOp24
 70
     1
102
RTVSPropertyOp25
 70
     1
102
RTVSPropertyOp26
 70
     1
102
RTVSPropertyOp27
 70
     1
102
RTVSPropertyOp28
 70
     1
102
RTVSPropertyOp29
 70
     1
102
RTVSPropertyOp30
 70
     1
102
RTVSPropertyOp31
 70
     1
102
RTVSPropertyOp32
 70
     1
102
RTVSPropertyOp33
 70
     1
102
RTVSPropertyOp34
 70
     1
102
RTVSPropertyOp35
 70
     1
102
RTVSPropertyOp36
 70
     1
102
RTVSPropertyOp37
 70
     1
102
RTVSPropertyOp38
 70
     1
102
RTVSPropertyOp39
 70
     1
102
RTVSPropertyOp40
 70
     1
102
RTVSPropertyOp41
 70
     1
102
RTVSPropertyOp42
 70
     1
102
RTVSPropertyOp43
 70
     1
102
RTVSPropertyOp44
 70
     1
102
RTVSPropertyOp45
 70
     1
102
RTVSPropertyOp46
 70
     1
102
RTVSPropertyOp47
 70
     1
102
RTVSPropertyOp48
 70
     1
102
RTVSPropertyOp49
 70
     1
102
RTVSPropertyOp50
 70
     1
102
RTVSPropertyOp51
 70
     0
102
RTVSPropertyOp52
 70
     0
102
RTVSPropertyOp53
 70
     1
102
RTVSPropertyOp54
 70
     1
102
RTVSPropertyOp55
 70
     1
102
RTVSPropertyOp56
 70
     1
102
RTVSPropertyOp57
 70
     1
102
RTVSPost2010Prop28
280
     0
102
RTVSPost2010PropOp28
 70
     1
102
RTVSPost2010Prop29
280
     1
102
RTVSPost2010PropOp29
 70
     1
102
RTVSPost2010Prop30
280
     1
102
RTVSPost2010PropOp30
 70
     1
102
RTVSPost2010Prop31
280
     0
102
RTVSPost2010PropOp31
 70
     1
102
RTVSPost2010Prop32
280
     0
102
RTVSPost2010PropOp32
 70
     1
102
RTVSPost2010Prop33
280
     0
102
RTVSPost2010PropOp33
 70
     1
102
RTVSPost2010Prop34
280
     0
102
RTVSPost2010PropOp34
 70
     1
102
RTVSPost2010Prop35
280
     0
102
RTVSPost2010PropOp35
 70
     1
102
RTVSPost2010Prop36
280
     0
102
RTVSPost2010PropOp36
 70
     1
102
RTVSPost2010Prop37
 90
       50
102
RTVSPost2010PropOp37
 70
     1
102
RTVSPost2010Prop38
140
0.0
102
RTVSPost2010PropOp38
 70
     1
102
RTVSPost2010Prop39
140
1.0
102
RTVSPost2010PropOp39
 70
     1
102
RTVSPost2010Prop40
 90
        0
102
RTVSPost2010PropOp40
 70
     1
102
RTVSPost2010Prop41ColorIndex
 90
       18
102
RTVSPost2010Prop41ColorRGB
 90
        0
102
RTVSPost2010PropOp41
 70
     1
102
RTVSPost2010Prop42
 90
       50
102
RTVSPost2010PropOp42
 70
     1
102
RTVSPost2010Prop43
 90
        3
102
RTVSPost2010PropOp43
 70
     1
102
RTVSPost2010Prop44ColorIndex
 90
        5
102
RTVSPost2010Prop44ColorRGB
 90
      255
102
RTVSPost2010PropOp44
 70
     1
102
RTVSPost2010Prop45
280
     0
102
RTVSPost2010PropOp45
 70
     1
102
RTVSPost2010Prop46
 90
       50
102
RTVSPost2010PropOp46
 70
     1
102
RTVSPost2010Prop47
 90
       50
102
RTVSPost2010PropOp47
 70
     1
102
RTVSPost2010Prop48
 90
       50
102
RTVSPost2010PropOp48
 70
     1
102
RTVSPost2010Prop49
280
     0
102
RTVSPost2010PropOp49
 70
     1
102
RTVSPost2010Prop50
 90
       50
102
RTVSPost2010PropOp50
 70
     1
102
RTVSPost2010Prop51ColorIndex
 90
      256
102
RTVSPost2010Prop51ColorRGB
 90
-16777216
102
RTVSPost2010PropOp51
 70
     0
102
RTVSPost2010Prop52
140
1.0
102
RTVSPost2010PropOp52
 70
     0
102
RTVSPost2010Prop53
 90
        2
102
RTVSPost2010PropOp53
 70
     1
102
RTVSPost2010Prop54
  1
strokes_ogs.tif
102
RTVSPost2010PropOp54
 70
     1
102
RTVSPost2010Prop55
280
     0
102
RTVSPost2010PropOp55
 70
     1
102
RTVSPost2010Prop56
140
1.0
102
RTVSPost2010PropOp56
 70
     1
102
RTVSPost2010Prop57
140
1.0
102
RTVSPost2010PropOp57
 70
     1
  0
XRECORD
  5
121
102
{ACAD_REACTORS
330
120
102
}
330
120
100
AcDbXrecord
280
     1
102
RTVSPropertyOp0
 70
     1
102
RTVSPropertyOp1
 70
     1
102
RTVSPropertyOp2
 70
     1
102
RTVSPropertyOp3
 70
     1
102
RTVSPropertyOp4
 70
     1
102
RTVSPropertyOp5
 70
     1
102
RTVSPropertyOp6
 70
     1
102
RTVSPropertyOp7
 70
     1
102
RTVSPropertyOp8
 70
     1
102
RTVSPropertyOp9
 70
     1
102
RTVSPropertyOp10
 70
     1
102
RTVSPropertyOp11
 70
     1
102
RTVSPropertyOp12
 70
     1
102
RTVSPropertyOp13
 70
     1
102
RTVSPropertyOp14
 70
     1
102
RTVSPropertyOp15
 70
     1
102
RTVSPropertyOp16
 70
     1
102
RTVSPropertyOp17
 70
     1
102
RTVSPropertyOp18
 70
     1
102
RTVSPropertyOp19
 70
     1
102
RTVSPropertyOp20
 70
     1
102
RTVSPropertyOp21
 70
     1
102
RTVSPropertyOp22
 70
     1
102
RTVSPropertyOp23
 70
     1
102
RTVSPropertyOp24
 70
     1
102
RTVSPropertyOp25
 70
     1
102
RTVSPropertyOp26
 70
     1
102
RTVSPropertyOp27
 70
     1
102
RTVSPropertyOp28
 70
     1
102
RTVSPropertyOp29
 70
     1
102
RTVSPropertyOp30
 70
     1
102
RTVSPropertyOp31
 70
     1
102
RTVSPropertyOp32
 70
     1
102
RTVSPropertyOp33
 70
     1
102
RTVSPropertyOp34
 70
     1
102
RTVSPropertyOp35
 70
     1
102
RTVSPropertyOp36
 70
     1
102
RTVSPropertyOp37
 70
     1
102
RTVSPropertyOp38
 70
     1
102
RTVSPropertyOp39
 70
     1
102
RTVSPropertyOp40
 70
     1
102
RTVSPropertyOp41
 70
     1
102
RTVSPropertyOp42
 70
     1
102
RTVSPropertyOp43
 70
     1
102
RTVSPropertyOp44
 70
     1
102
RTVSPropertyOp45
 70
     1
102
RTVSPropertyOp46
 70
     1
102
RTVSPropertyOp47
 70
     1
102
RTVSPropertyOp48
 70
     1
102
RTVSPropertyOp49
 70
     1
102
RTVSPropertyOp50
 70
     1
102
RTVSPropertyOp51
 70
     0
102
RTVSPropertyOp52
 70
     0
102
RTVSPropertyOp53
 70
     1
102
RTVSPropertyOp54
 70
     1
102
RTVSPropertyOp55
 70
     1
102
RTVSPropertyOp56
 70
     1
102
RTVSPropertyOp57
 70
     1
102
RTVSPost2010Prop28
280
     0
102
RTVSPost2010PropOp28
 70
     1
102
RTVSPost2010Prop29
280
     1
102
RTVSPost2010PropOp29
 70
     1
102
RTVSPost2010Prop30
280
     1
102
RTVSPost2010PropOp30
 70
     1
102
RTVSPost2010Prop31
280
     0
102
RTVSPost2010PropOp31
 70
     1
102
RTVSPost2010Prop32
280
     0
102
RTVSPost2010PropOp32
 70
     1
102
RTVSPost2010Prop33
280
     0
102
RTVSPost2010PropOp33
 70
     1
102
RTVSPost2010Prop34
280
     0
102
RTVSPost2010PropOp34
 70
     1
102
RTVSPost2010Prop35
280
     0
102
RTVSPost2010PropOp35
 70
     1
102
RTVSPost2010Prop36
280
     0
102
RTVSPost2010PropOp36
 70
     1
102
RTVSPost2010Prop37
 90
       50
102
RTVSPost2010PropOp37
 70
     1
102
RTVSPost2010Prop38
140
0.0
102
RTVSPost2010PropOp38
 70
     1
102
RTVSPost2010Prop39
140
1.0
102
RTVSPost2010PropOp39
 70
     1
102
RTVSPost2010Prop40
 90
        0
102
RTVSPost2010PropOp40
 70
     1
102
RTVSPost2010Prop41ColorIndex
 90
       18
102
RTVSPost2010Prop41ColorRGB
 90
        0
102
RTVSPost2010PropOp41
 70
     1
102
RTVSPost2010Prop42
 90
       50
102
RTVSPost2010PropOp42
 70
     1
102
RTVSPost2010Prop43
 90
        3
102
RTVSPost2010PropOp43
 70
     1
102
RTVSPost2010Prop44ColorIndex
 90
        5
102
RTVSPost2010Prop44ColorRGB
 90
      255
102
RTVSPost2010PropOp44
 70
     1
102
RTVSPost2010Prop45
280
     0
102
RTVSPost2010PropOp45
 70
     1
102
RTVSPost2010Prop46
 90
       50
102
RTVSPost2010PropOp46
 70
     1
102
RTVSPost2010Prop47
 90
       50
102
RTVSPost2010PropOp47
 70
     1
102
RTVSPost2010Prop48
 90
       50
102
RTVSPost2010PropOp48
 70
     1
102
RTVSPost2010Prop49
280
     0
102
RTVSPost2010PropOp49
 70
     1
102
RTVSPost2010Prop50
 90
       50
102
RTVSPost2010PropOp50
 70
     1
102
RTVSPost2010Prop51ColorIndex
 90
      256
102
RTVSPost2010Prop51ColorRGB
 90
-16777216
102
RTVSPost2010PropOp51
 70
     0
102
RTVSPost2010Prop52
140
1.0
102
RTVSPost2010PropOp52
 70
     0
102
RTVSPost2010Prop53
 90
        2
102
RTVSPost2010PropOp53
 70
     1
102
RTVSPost2010Prop54
  1
strokes_ogs.tif
102
RTVSPost2010PropOp54
 70
     1
102
RTVSPost2010Prop55
280
     0
102
RTVSPost2010PropOp55
 70
     1
102
RTVSPost2010Prop56
140
1.0
102
RTVSPost2010PropOp56
 70
     1
102
RTVSPost2010Prop57
140
1.0
102
RTVSPost2010PropOp57
 70
     1
  0
XRECORD
  5
11B
102
{ACAD_REACTORS
330
11A
102
}
330
11A
100
AcDbXrecord
280
     1
102
RTVSPropertyOp0
 70
     1
102
RTVSPropertyOp1
 70
     1
102
RTVSPropertyOp2
 70
     1
102
RTVSPropertyOp3
 70
     1
102
RTVSPropertyOp4
 70
     1
102
RTVSPropertyOp5
 70
     1
102
RTVSPropertyOp6
 70
     1
102
RTVSPropertyOp7
 70
     1
102
RTVSPropertyOp8
 70
     1
102
RTVSPropertyOp9
 70
     1
102
RTVSPropertyOp10
 70
     1
102
RTVSPropertyOp11
 70
     1
102
RTVSPropertyOp12
 70
     1
102
RTVSPropertyOp13
 70
     1
102
RTVSPropertyOp14
 70
     1
102
RTVSPropertyOp15
 70
     1
102
RTVSPropertyOp16
 70
     1
102
RTVSPropertyOp17
 70
     1
102
RTVSPropertyOp18
 70
     1
102
RTVSPropertyOp19
 70
     1
102
RTVSPropertyOp20
 70
     1
102
RTVSPropertyOp21
 70
     1
102
RTVSPropertyOp22
 70
     1
102
RTVSPropertyOp23
 70
     1
102
RTVSPropertyOp24
 70
     1
102
RTVSPropertyOp25
 70
     1
102
RTVSPropertyOp26
 70
     1
102
RTVSPropertyOp27
 70
     1
102
RTVSPropertyOp28
 70
     1
102
RTVSPropertyOp29
 70
     1
102
RTVSPropertyOp30
 70
     1
102
RTVSPropertyOp31
 70
     1
102
RTVSPropertyOp32
 70
     1
102
RTVSPropertyOp33
 70
     1
102
RTVSPropertyOp34
 70
     1
102
RTVSPropertyOp35
 70
     1
102
RTVSPropertyOp36
 70
     1
102
RTVSPropertyOp37
 70
     1
102
RTVSPropertyOp38
 70
     1
102
RTVSPropertyOp39
 70
     1
102
RTVSPropertyOp40
 70
     1
102
RTVSPropertyOp41
 70
     1
102
RTVSPropertyOp42
 70
     1
102
RTVSPropertyOp43
 70
     1
102
RTVSPropertyOp44
 70
     1
102
RTVSPropertyOp45
 70
     1
102
RTVSPropertyOp46
 70
     1
102
RTVSPropertyOp47
 70
     1
102
RTVSPropertyOp48
 70
     1
102
RTVSPropertyOp49
 70
     1
102
RTVSPropertyOp50
 70
     1
102
RTVSPropertyOp51
 70
     0
102
RTVSPropertyOp52
 70
     0
102
RTVSPropertyOp53
 70
     1
102
RTVSPropertyOp54
 70
     1
102
RTVSPropertyOp55
 70
     1
102
RTVSPropertyOp56
 70
     1
102
RTVSPropertyOp57
 70
     1
102
RTVSPost2010Prop28
280
     0
102
RTVSPost2010PropOp28
 70
     1
102
RTVSPost2010Prop29
280
     1
102
RTVSPost2010PropOp29
 70
     1
102
RTVSPost2010Prop30
280
     1
102
RTVSPost2010PropOp30
 70
     1
102
RTVSPost2010Prop31
280
     0
102
RTVSPost2010PropOp31
 70
     1
102
RTVSPost2010Prop32
280
     0
102
RTVSPost2010PropOp32
 70
     1
102
RTVSPost2010Prop33
280
     0
102
RTVSPost2010PropOp33
 70
     1
102
RTVSPost2010Prop34
280
     0
102
RTVSPost2010PropOp34
 70
     1
102
RTVSPost2010Prop35
280
     0
102
RTVSPost2010PropOp35
 70
     1
102
RTVSPost2010Prop36
280
     0
102
RTVSPost2010PropOp36
 70
     1
102
RTVSPost2010Prop37
 90
       50
102
RTVSPost2010PropOp37
 70
     1
102
RTVSPost2010Prop38
140
0.0
102
RTVSPost2010PropOp38
 70
     1
102
RTVSPost2010Prop39
140
1.0
102
RTVSPost2010PropOp39
 70
     1
102
RTVSPost2010Prop40
 90
        0
102
RTVSPost2010PropOp40
 70
     1
102
RTVSPost2010Prop41ColorIndex
 90
       18
102
RTVSPost2010Prop41ColorRGB
 90
        0
102
RTVSPost2010PropOp41
 70
     1
102
RTVSPost2010Prop42
 90
       50
102
RTVSPost2010PropOp42
 70
     1
102
RTVSPost2010Prop43
 90
        3
102
RTVSPost2010PropOp43
 70
     1
102
RTVSPost2010Prop44ColorIndex
 90
        5
102
RTVSPost2010Prop44ColorRGB
 90
      255
102
RTVSPost2010PropOp44
 70
     1
102
RTVSPost2010Prop45
280
     0
102
RTVSPost2010PropOp45
 70
     1
102
RTVSPost2010Prop46
 90
       50
102
RTVSPost2010PropOp46
 70
     1
102
RTVSPost2010Prop47
 90
       50
102
RTVSPost2010PropOp47
 70
     1
102
RTVSPost2010Prop48
 90
       50
102
RTVSPost2010PropOp48
 70
     1
102
RTVSPost2010Prop49
280
     0
102
RTVSPost2010PropOp49
 70
     1
102
RTVSPost2010Prop50
 90
       50
102
RTVSPost2010PropOp50
 70
     1
102
RTVSPost2010Prop51ColorIndex
 90
      256
102
RTVSPost2010Prop51ColorRGB
 90
-16777216
102
RTVSPost2010PropOp51
 70
     0
102
RTVSPost2010Prop52
140
1.0
102
RTVSPost2010PropOp52
 70
     0
102
RTVSPost2010Prop53
 90
        2
102
RTVSPost2010PropOp53
 70
     1
102
RTVSPost2010Prop54
  1
strokes_ogs.tif
102
RTVSPost2010PropOp54
 70
     1
102
RTVSPost2010Prop55
280
     0
102
RTVSPost2010PropOp55
 70
     1
102
RTVSPost2010Prop56
140
1.0
102
RTVSPost2010PropOp56
 70
     1
102
RTVSPost2010Prop57
140
1.0
102
RTVSPost2010PropOp57
 70
     1
  0
XRECORD
  5
11D
102
{ACAD_REACTORS
330
11C
102
}
330
11C
100
AcDbXrecord
280
     1
102
RTVSPropertyOp0
 70
     1
102
RTVSPropertyOp1
 70
     1
102
RTVSPropertyOp2
 70
     1
102
RTVSPropertyOp3
 70
     1
102
RTVSPropertyOp4
 70
     1
102
RTVSPropertyOp5
 70
     1
102
RTVSPropertyOp6
 70
     1
102
RTVSPropertyOp7
 70
     1
102
RTVSPropertyOp8
 70
     1
102
RTVSPropertyOp9
 70
     1
102
RTVSPropertyOp10
 70
     1
102
RTVSPropertyOp11
 70
     1
102
RTVSPropertyOp12
 70
     1
102
RTVSPropertyOp13
 70
     1
102
RTVSPropertyOp14
 70
     1
102
RTVSPropertyOp15
 70
     1
102
RTVSPropertyOp16
 70
     1
102
RTVSPropertyOp17
 70
     1
102
RTVSPropertyOp18
 70
     1
102
RTVSPropertyOp19
 70
     1
102
RTVSPropertyOp20
 70
     1
102
RTVSPropertyOp21
 70
     1
102
RTVSPropertyOp22
 70
     1
102
RTVSPropertyOp23
 70
     1
102
RTVSPropertyOp24
 70
     1
102
RTVSPropertyOp25
 70
     1
102
RTVSPropertyOp26
 70
     1
102
RTVSPropertyOp27
 70
     1
102
RTVSPropertyOp28
 70
     1
102
RTVSPropertyOp29
 70
     1
102
RTVSPropertyOp30
 70
     1
102
RTVSPropertyOp31
 70
     1
102
RTVSPropertyOp32
 70
     1
102
RTVSPropertyOp33
 70
     1
102
RTVSPropertyOp34
 70
     1
102
RTVSPropertyOp35
 70
     1
102
RTVSPropertyOp36
 70
     1
102
RTVSPropertyOp37
 70
     1
102
RTVSPropertyOp38
 70
     1
102
RTVSPropertyOp39
 70
     1
102
RTVSPropertyOp40
 70
     1
102
RTVSPropertyOp41
 70
     1
102
RTVSPropertyOp42
 70
     1
102
RTVSPropertyOp43
 70
     1
102
RTVSPropertyOp44
 70
     1
102
RTVSPropertyOp45
 70
     1
102
RTVSPropertyOp46
 70
     1
102
RTVSPropertyOp47
 70
     1
102
RTVSPropertyOp48
 70
     1
102
RTVSPropertyOp49
 70
     1
102
RTVSPropertyOp50
 70
     1
102
RTVSPropertyOp51
 70
     0
102
RTVSPropertyOp52
 70
     0
102
RTVSPropertyOp53
 70
     1
102
RTVSPropertyOp54
 70
     1
102
RTVSPropertyOp55
 70
     1
102
RTVSPropertyOp56
 70
     1
102
RTVSPropertyOp57
 70
     1
102
RTVSPost2010Prop28
280
     0
102
RTVSPost2010PropOp28
 70
     1
102
RTVSPost2010Prop29
280
     1
102
RTVSPost2010PropOp29
 70
     1
102
RTVSPost2010Prop30
280
     1
102
RTVSPost2010PropOp30
 70
     1
102
RTVSPost2010Prop31
280
     0
102
RTVSPost2010PropOp31
 70
     1
102
RTVSPost2010Prop32
280
     0
102
RTVSPost2010PropOp32
 70
     1
102
RTVSPost2010Prop33
280
     0
102
RTVSPost2010PropOp33
 70
     1
102
RTVSPost2010Prop34
280
     0
102
RTVSPost2010PropOp34
 70
     1
102
RTVSPost2010Prop35
280
     0
102
RTVSPost2010PropOp35
 70
     1
102
RTVSPost2010Prop36
280
     0
102
RTVSPost2010PropOp36
 70
     1
102
RTVSPost2010Prop37
 90
       50
102
RTVSPost2010PropOp37
 70
     1
102
RTVSPost2010Prop38
140
0.0
102
RTVSPost2010PropOp38
 70
     1
102
RTVSPost2010Prop39
140
1.0
102
RTVSPost2010PropOp39
 70
     1
102
RTVSPost2010Prop40
 90
        0
102
RTVSPost2010PropOp40
 70
     1
102
RTVSPost2010Prop41ColorIndex
 90
       18
102
RTVSPost2010Prop41ColorRGB
 90
        0
102
RTVSPost2010PropOp41
 70
     1
102
RTVSPost2010Prop42
 90
       50
102
RTVSPost2010PropOp42
 70
     1
102
RTVSPost2010Prop43
 90
        3
102
RTVSPost2010PropOp43
 70
     1
102
RTVSPost2010Prop44ColorIndex
 90
        5
102
RTVSPost2010Prop44ColorRGB
 90
      255
102
RTVSPost2010PropOp44
 70
     1
102
RTVSPost2010Prop45
280
     0
102
RTVSPost2010PropOp45
 70
     1
102
RTVSPost2010Prop46
 90
       50
102
RTVSPost2010PropOp46
 70
     1
102
RTVSPost2010Prop47
 90
       50
102
RTVSPost2010PropOp47
 70
     1
102
RTVSPost2010Prop48
 90
       50
102
RTVSPost2010PropOp48
 70
     1
102
RTVSPost2010Prop49
280
     0
102
RTVSPost2010PropOp49
 70
     1
102
RTVSPost2010Prop50
 90
       50
102
RTVSPost2010PropOp50
 70
     1
102
RTVSPost2010Prop51ColorIndex
 90
      256
102
RTVSPost2010Prop51ColorRGB
 90
-16777216
102
RTVSPost2010PropOp51
 70
     0
102
RTVSPost2010Prop52
140
1.0
102
RTVSPost2010PropOp52
 70
     0
102
RTVSPost2010Prop53
 90
        2
102
RTVSPost2010PropOp53
 70
     1
102
RTVSPost2010Prop54
  1
strokes_ogs.tif
102
RTVSPost2010PropOp54
 70
     1
102
RTVSPost2010Prop55
280
     0
102
RTVSPost2010PropOp55
 70
     1
102
RTVSPost2010Prop56
140
1.0
102
RTVSPost2010PropOp56
 70
     1
102
RTVSPost2010Prop57
140
1.0
102
RTVSPost2010PropOp57
 70
     1
  0
XRECORD
  5
10D
102
{ACAD_REACTORS
330
10C
102
}
330
10C
100
AcDbXrecord
280
     1
102
RTVSPropertyOp0
 70
     1
102
RTVSPropertyOp1
 70
     1
102
RTVSPropertyOp2
 70
     1
102
RTVSPropertyOp3
 70
     1
102
RTVSPropertyOp4
 70
     1
102
RTVSPropertyOp5
 70
     1
102
RTVSPropertyOp6
 70
     1
102
RTVSPropertyOp7
 70
     1
102
RTVSPropertyOp8
 70
     1
102
RTVSPropertyOp9
 70
     1
102
RTVSPropertyOp10
 70
     1
102
RTVSPropertyOp11
 70
     1
102
RTVSPropertyOp12
 70
     1
102
RTVSPropertyOp13
 70
     1
102
RTVSPropertyOp14
 70
     1
102
RTVSPropertyOp15
 70
     1
102
RTVSPropertyOp16
 70
     1
102
RTVSPropertyOp17
 70
     1
102
RTVSPropertyOp18
 70
     1
102
RTVSPropertyOp19
 70
     1
102
RTVSPropertyOp20
 70
     1
102
RTVSPropertyOp21
 70
     1
102
RTVSPropertyOp22
 70
     1
102
RTVSPropertyOp23
 70
     1
102
RTVSPropertyOp24
 70
     1
102
RTVSPropertyOp25
 70
     1
102
RTVSPropertyOp26
 70
     1
102
RTVSPropertyOp27
 70
     1
102
RTVSPropertyOp28
 70
     1
102
RTVSPropertyOp29
 70
     1
102
RTVSPropertyOp30
 70
     1
102
RTVSPropertyOp31
 70
     1
102
RTVSPropertyOp32
 70
     1
102
RTVSPropertyOp33
 70
     1
102
RTVSPropertyOp34
 70
     1
102
RTVSPropertyOp35
 70
     1
102
RTVSPropertyOp36
 70
     1
102
RTVSPropertyOp37
 70
     1
102
RTVSPropertyOp38
 70
     1
102
RTVSPropertyOp39
 70
     1
102
RTVSPropertyOp40
 70
     1
102
RTVSPropertyOp41
 70
     1
102
RTVSPropertyOp42
 70
     1
102
RTVSPropertyOp43
 70
     1
102
RTVSPropertyOp44
 70
     1
102
RTVSPropertyOp45
 70
     1
102
RTVSPropertyOp46
 70
     1
102
RTVSPropertyOp47
 70
     1
102
RTVSPropertyOp48
 70
     1
102
RTVSPropertyOp49
 70
     1
102
RTVSPropertyOp50
 70
     1
102
RTVSPropertyOp51
 70
     0
102
RTVSPropertyOp52
 70
     0
102
RTVSPropertyOp53
 70
     1
102
RTVSPropertyOp54
 70
     1
102
RTVSPropertyOp55
 70
     1
102
RTVSPropertyOp56
 70
     1
102
RTVSPropertyOp57
 70
     1
102
RTVSPost2010Prop28
280
     0
102
RTVSPost2010PropOp28
 70
     1
102
RTVSPost2010Prop29
280
     1
102
RTVSPost2010PropOp29
 70
     1
102
RTVSPost2010Prop30
280
     1
102
RTVSPost2010PropOp30
 70
     1
102
RTVSPost2010Prop31
280
     0
102
RTVSPost2010PropOp31
 70
     1
102
RTVSPost2010Prop32
280
     0
102
RTVSPost2010PropOp32
 70
     1
102
RTVSPost2010Prop33
280
     0
102
RTVSPost2010PropOp33
 70
     1
102
RTVSPost2010Prop34
280
     0
102
RTVSPost2010PropOp34
 70
     1
102
RTVSPost2010Prop35
280
     0
102
RTVSPost2010PropOp35
 70
     1
102
RTVSPost2010Prop36
280
     0
102
RTVSPost2010PropOp36
 70
     1
102
RTVSPost2010Prop37
 90
       50
102
RTVSPost2010PropOp37
 70
     1
102
RTVSPost2010Prop38
140
0.0
102
RTVSPost2010PropOp38
 70
     1
102
RTVSPost2010Prop39
140
1.0
102
RTVSPost2010PropOp39
 70
     1
102
RTVSPost2010Prop40
 90
        0
102
RTVSPost2010PropOp40
 70
     1
102
RTVSPost2010Prop41ColorIndex
 90
       18
102
RTVSPost2010Prop41ColorRGB
 90
        0
102
RTVSPost2010PropOp41
 70
     1
102
RTVSPost2010Prop42
 90
       50
102
RTVSPost2010PropOp42
 70
     1
102
RTVSPost2010Prop43
 90
        3
102
RTVSPost2010PropOp43
 70
     1
102
RTVSPost2010Prop44ColorIndex
 90
        5
102
RTVSPost2010Prop44ColorRGB
 90
      255
102
RTVSPost2010PropOp44
 70
     1
102
RTVSPost2010Prop45
280
     0
102
RTVSPost2010PropOp45
 70
     1
102
RTVSPost2010Prop46
 90
       50
102
RTVSPost2010PropOp46
 70
     1
102
RTVSPost2010Prop47
 90
       50
102
RTVSPost2010PropOp47
 70
     1
102
RTVSPost2010Prop48
 90
       50
102
RTVSPost2010PropOp48
 70
     1
102
RTVSPost2010Prop49
280
     0
102
RTVSPost2010PropOp49
 70
     1
102
RTVSPost2010Prop50
 90
       50
102
RTVSPost2010PropOp50
 70
     1
102
RTVSPost2010Prop51ColorIndex
 90
      256
102
RTVSPost2010Prop51ColorRGB
 90
-16777216
102
RTVSPost2010PropOp51
 70
     0
102
RTVSPost2010Prop52
140
1.0
102
RTVSPost2010PropOp52
 70
     0
102
RTVSPost2010Prop53
 90
        2
102
RTVSPost2010PropOp53
 70
     1
102
RTVSPost2010Prop54
  1
strokes_ogs.tif
102
RTVSPost2010PropOp54
 70
     1
102
RTVSPost2010Prop55
280
     0
102
RTVSPost2010PropOp55
 70
     1
102
RTVSPost2010Prop56
140
1.0
102
RTVSPost2010PropOp56
 70
     1
102
RTVSPost2010Prop57
140
1.0
102
RTVSPost2010PropOp57
 70
     1
  0
XRECORD
  5
FF
102
{ACAD_REACTORS
330
FE
102
}
330
FE
100
AcDbXrecord
280
     1
102
RTVSPropertyOp0
 70
     1
102
RTVSPropertyOp1
 70
     1
102
RTVSPropertyOp2
 70
     1
102
RTVSPropertyOp3
 70
     1
102
RTVSPropertyOp4
 70
     1
102
RTVSPropertyOp5
 70
     1
102
RTVSPropertyOp6
 70
     1
102
RTVSPropertyOp7
 70
     1
102
RTVSPropertyOp8
 70
     1
102
RTVSPropertyOp9
 70
     1
102
RTVSPropertyOp10
 70
     1
102
RTVSPropertyOp11
 70
     1
102
RTVSPropertyOp12
 70
     1
102
RTVSPropertyOp13
 70
     1
102
RTVSPropertyOp14
 70
     1
102
RTVSPropertyOp15
 70
     1
102
RTVSPropertyOp16
 70
     1
102
RTVSPropertyOp17
 70
     1
102
RTVSPropertyOp18
 70
     1
102
RTVSPropertyOp19
 70
     1
102
RTVSPropertyOp20
 70
     1
102
RTVSPropertyOp21
 70
     1
102
RTVSPropertyOp22
 70
     1
102
RTVSPropertyOp23
 70
     1
102
RTVSPropertyOp24
 70
     1
102
RTVSPropertyOp25
 70
     1
102
RTVSPropertyOp26
 70
     1
102
RTVSPropertyOp27
 70
     1
102
RTVSPropertyOp28
 70
     1
102
RTVSPropertyOp29
 70
     1
102
RTVSPropertyOp30
 70
     1
102
RTVSPropertyOp31
 70
     1
102
RTVSPropertyOp32
 70
     1
102
RTVSPropertyOp33
 70
     1
102
RTVSPropertyOp34
 70
     1
102
RTVSPropertyOp35
 70
     1
102
RTVSPropertyOp36
 70
     1
102
RTVSPropertyOp37
 70
     1
102
RTVSPropertyOp38
 70
     1
102
RTVSPropertyOp39
 70
     1
102
RTVSPropertyOp40
 70
     1
102
RTVSPropertyOp41
 70
     1
102
RTVSPropertyOp42
 70
     1
102
RTVSPropertyOp43
 70
     1
102
RTVSPropertyOp44
 70
     1
102
RTVSPropertyOp45
 70
     1
102
RTVSPropertyOp46
 70
     1
102
RTVSPropertyOp47
 70
     1
102
RTVSPropertyOp48
 70
     1
102
RTVSPropertyOp49
 70
     1
102
RTVSPropertyOp50
 70
     1
102
RTVSPropertyOp51
 70
     0
102
RTVSPropertyOp52
 70
     0
102
RTVSPropertyOp53
 70
     1
102
RTVSPropertyOp54
 70
     1
102
RTVSPropertyOp55
 70
     1
102
RTVSPropertyOp56
 70
     1
102
RTVSPropertyOp57
 70
     1
102
RTVSPost2010Prop28
280
     0
102
RTVSPost2010PropOp28
 70
     1
102
RTVSPost2010Prop29
280
     1
102
RTVSPost2010PropOp29
 70
     1
102
RTVSPost2010Prop30
280
     1
102
RTVSPost2010PropOp30
 70
     1
102
RTVSPost2010Prop31
280
     0
102
RTVSPost2010PropOp31
 70
     1
102
RTVSPost2010Prop32
280
     0
102
RTVSPost2010PropOp32
 70
     1
102
RTVSPost2010Prop33
280
     0
102
RTVSPost2010PropOp33
 70
     1
102
RTVSPost2010Prop34
280
     0
102
RTVSPost2010PropOp34
 70
     1
102
RTVSPost2010Prop35
280
     0
102
RTVSPost2010PropOp35
 70
     1
102
RTVSPost2010Prop36
280
     0
102
RTVSPost2010PropOp36
 70
     1
102
RTVSPost2010Prop37
 90
       50
102
RTVSPost2010PropOp37
 70
     1
102
RTVSPost2010Prop38
140
0.0
102
RTVSPost2010PropOp38
 70
     1
102
RTVSPost2010Prop39
140
1.0
102
RTVSPost2010PropOp39
 70
     1
102
RTVSPost2010Prop40
 90
        0
102
RTVSPost2010PropOp40
 70
     1
102
RTVSPost2010Prop41ColorIndex
 90
       18
102
RTVSPost2010Prop41ColorRGB
 90
        0
102
RTVSPost2010PropOp41
 70
     1
102
RTVSPost2010Prop42
 90
       50
102
RTVSPost2010PropOp42
 70
     1
102
RTVSPost2010Prop43
 90
        3
102
RTVSPost2010PropOp43
 70
     1
102
RTVSPost2010Prop44ColorIndex
 90
        5
102
RTVSPost2010Prop44ColorRGB
 90
      255
102
RTVSPost2010PropOp44
 70
     1
102
RTVSPost2010Prop45
280
     0
102
RTVSPost2010PropOp45
 70
     1
102
RTVSPost2010Prop46
 90
       50
102
RTVSPost2010PropOp46
 70
     1
102
RTVSPost2010Prop47
 90
       50
102
RTVSPost2010PropOp47
 70
     1
102
RTVSPost2010Prop48
 90
       50
102
RTVSPost2010PropOp48
 70
     1
102
RTVSPost2010Prop49
280
     0
102
RTVSPost2010PropOp49
 70
     1
102
RTVSPost2010Prop50
 90
       50
102
RTVSPost2010PropOp50
 70
     1
102
RTVSPost2010Prop51ColorIndex
 90
      256
102
RTVSPost2010Prop51ColorRGB
 90
-16777216
102
RTVSPost2010PropOp51
 70
     0
102
RTVSPost2010Prop52
140
1.0
102
RTVSPost2010PropOp52
 70
     0
102
RTVSPost2010Prop53
 90
        2
102
RTVSPost2010PropOp53
 70
     1
102
RTVSPost2010Prop54
  1
strokes_ogs.tif
102
RTVSPost2010PropOp54
 70
     1
102
RTVSPost2010Prop55
280
     0
102
RTVSPost2010PropOp55
 70
     1
102
RTVSPost2010Prop56
140
1.0
102
RTVSPost2010PropOp56
 70
     1
102
RTVSPost2010Prop57
140
1.0
102
RTVSPost2010PropOp57
 70
     1
  0
XRECORD
  5
11F
102
{ACAD_REACTORS
330
11E
102
}
330
11E
100
AcDbXrecord
280
     1
102
RTVSPropertyOp0
 70
     1
102
RTVSPropertyOp1
 70
     1
102
RTVSPropertyOp2
 70
     1
102
RTVSPropertyOp3
 70
     1
102
RTVSPropertyOp4
 70
     1
102
RTVSPropertyOp5
 70
     1
102
RTVSPropertyOp6
 70
     1
102
RTVSPropertyOp7
 70
     1
102
RTVSPropertyOp8
 70
     1
102
RTVSPropertyOp9
 70
     1
102
RTVSPropertyOp10
 70
     1
102
RTVSPropertyOp11
 70
     1
102
RTVSPropertyOp12
 70
     1
102
RTVSPropertyOp13
 70
     1
102
RTVSPropertyOp14
 70
     1
102
RTVSPropertyOp15
 70
     1
102
RTVSPropertyOp16
 70
     1
102
RTVSPropertyOp17
 70
     1
102
RTVSPropertyOp18
 70
     1
102
RTVSPropertyOp19
 70
     1
102
RTVSPropertyOp20
 70
     1
102
RTVSPropertyOp21
 70
     1
102
RTVSPropertyOp22
 70
     1
102
RTVSPropertyOp23
 70
     1
102
RTVSPropertyOp24
 70
     1
102
RTVSPropertyOp25
 70
     1
102
RTVSPropertyOp26
 70
     1
102
RTVSPropertyOp27
 70
     1
102
RTVSPropertyOp28
 70
     1
102
RTVSPropertyOp29
 70
     1
102
RTVSPropertyOp30
 70
     1
102
RTVSPropertyOp31
 70
     1
102
RTVSPropertyOp32
 70
     1
102
RTVSPropertyOp33
 70
     1
102
RTVSPropertyOp34
 70
     1
102
RTVSPropertyOp35
 70
     1
102
RTVSPropertyOp36
 70
     1
102
RTVSPropertyOp37
 70
     1
102
RTVSPropertyOp38
 70
     1
102
RTVSPropertyOp39
 70
     1
102
RTVSPropertyOp40
 70
     1
102
RTVSPropertyOp41
 70
     1
102
RTVSPropertyOp42
 70
     1
102
RTVSPropertyOp43
 70
     1
102
RTVSPropertyOp44
 70
     1
102
RTVSPropertyOp45
 70
     1
102
RTVSPropertyOp46
 70
     1
102
RTVSPropertyOp47
 70
     1
102
RTVSPropertyOp48
 70
     1
102
RTVSPropertyOp49
 70
     1
102
RTVSPropertyOp50
 70
     1
102
RTVSPropertyOp51
 70
     0
102
RTVSPropertyOp52
 70
     0
102
RTVSPropertyOp53
 70
     1
102
RTVSPropertyOp54
 70
     1
102
RTVSPropertyOp55
 70
     1
102
RTVSPropertyOp56
 70
     1
102
RTVSPropertyOp57
 70
     1
102
RTVSPost2010Prop28
280
     0
102
RTVSPost2010PropOp28
 70
     1
102
RTVSPost2010Prop29
280
     1
102
RTVSPost2010PropOp29
 70
     1
102
RTVSPost2010Prop30
280
     1
102
RTVSPost2010PropOp30
 70
     1
102
RTVSPost2010Prop31
280
     0
102
RTVSPost2010PropOp31
 70
     1
102
RTVSPost2010Prop32
280
     0
102
RTVSPost2010PropOp32
 70
     1
102
RTVSPost2010Prop33
280
     0
102
RTVSPost2010PropOp33
 70
     1
102
RTVSPost2010Prop34
280
     0
102
RTVSPost2010PropOp34
 70
     1
102
RTVSPost2010Prop35
280
     0
102
RTVSPost2010PropOp35
 70
     1
102
RTVSPost2010Prop36
280
     0
102
RTVSPost2010PropOp36
 70
     1
102
RTVSPost2010Prop37
 90
       50
102
RTVSPost2010PropOp37
 70
     1
102
RTVSPost2010Prop38
140
0.0
102
RTVSPost2010PropOp38
 70
     1
102
RTVSPost2010Prop39
140
1.0
102
RTVSPost2010PropOp39
 70
     1
102
RTVSPost2010Prop40
 90
        0
102
RTVSPost2010PropOp40
 70
     1
102
RTVSPost2010Prop41ColorIndex
 90
       18
102
RTVSPost2010Prop41ColorRGB
 90
        0
102
RTVSPost2010PropOp41
 70
     1
102
RTVSPost2010Prop42
 90
       50
102
RTVSPost2010PropOp42
 70
     1
102
RTVSPost2010Prop43
 90
        3
102
RTVSPost2010PropOp43
 70
     1
102
RTVSPost2010Prop44ColorIndex
 90
        5
102
RTVSPost2010Prop44ColorRGB
 90
      255
102
RTVSPost2010PropOp44
 70
     1
102
RTVSPost2010Prop45
280
     0
102
RTVSPost2010PropOp45
 70
     1
102
RTVSPost2010Prop46
 90
       50
102
RTVSPost2010PropOp46
 70
     1
102
RTVSPost2010Prop47
 90
       50
102
RTVSPost2010PropOp47
 70
     1
102
RTVSPost2010Prop48
 90
       50
102
RTVSPost2010PropOp48
 70
     1
102
RTVSPost2010Prop49
280
     0
102
RTVSPost2010PropOp49
 70
     1
102
RTVSPost2010Prop50
 90
       50
102
RTVSPost2010PropOp50
 70
     1
102
RTVSPost2010Prop51ColorIndex
 90
      256
102
RTVSPost2010Prop51ColorRGB
 90
-16777216
102
RTVSPost2010PropOp51
 70
     0
102
RTVSPost2010Prop52
140
1.0
102
RTVSPost2010PropOp52
 70
     0
102
RTVSPost2010Prop53
 90
        2
102
RTVSPost2010PropOp53
 70
     1
102
RTVSPost2010Prop54
  1
strokes_ogs.tif
102
RTVSPost2010PropOp54
 70
     1
102
RTVSPost2010Prop55
280
     0
102
RTVSPost2010PropOp55
 70
     1
102
RTVSPost2010Prop56
140
1.0
102
RTVSPost2010PropOp56
 70
     1
102
RTVSPost2010Prop57
140
1.0
102
RTVSPost2010PropOp57
 70
     1
  0
ENDSEC
  0
EOF
