  0
SECTION
  2
HEADER
  9
$ACADVER
  1
AC1014
  9
$ACADMAINTVER
 70
     9
  9
$DWGCODEPAGE
  3
ANSI_1252
  9
$INSBASE
 10
0.0
 20
0.0
 30
0.0
  9
$EXTMIN
 10
1.000000000000000E+20
 20
1.000000000000000E+20
 30
1.000000000000000E+20
  9
$EXTMAX
 10
-1.000000000000000E+20
 20
-1.000000000000000E+20
 30
-1.000000000000000E+20
  9
$LIMMIN
 10
0.0
 20
0.0
  9
$LIMMAX
 10
12.0
 20
9.0
  9
$ORTHOMODE
 70
     0
  9
$REGENMODE
 70
     1
  9
$FILLMODE
 70
     1
  9
$QTEXTMODE
 70
     0
  9
$MIRRTEXT
 70
     1
  9
$DRAGMODE
 70
     2
  9
$LTSCALE
 40
1.0
  9
$OSMODE
 70
    37
  9
$ATTMODE
 70
     1
  9
$TEXTSIZE
 40
0.2
  9
$TRACEWID
 40
0.05
  9
$TEXTSTYLE
  7
STANDARD
  9
$CLAYER
  8
DEFAULT
  9
$CELTYPE
  6
BYLAYER
  9
$CECOLOR
 62
   256
  9
$CELTSCALE
 40
1.0
  9
$DELOBJ
 70
     1
  9
$DISPSILH
 70
     0
  9
$DIMSCALE
 40
1.0
  9
$DIMASZ
 40
0.18
  9
$DIMEXO
 40
0.0625
  9
$DIMDLI
 40
0.38
  9
$DIMRND
 40
0.0
  9
$DIMDLE
 40
0.0
  9
$DIMEXE
 40
0.18
  9
$DIMTP
 40
0.0
  9
$DIMTM
 40
0.0
  9
$DIMTXT
 40
0.18
  9
$DIMCEN
 40
0.09
  9
$DIMTSZ
 40
0.0
  9
$DIMTOL
 70
     0
  9
$DIMLIM
 70
     0
  9
$DIMTIH
 70
     1
  9
$DIMTOH
 70
     1
  9
$DIMSE1
 70
     0
  9
$DIMSE2
 70
     0
  9
$DIMTAD
 70
     0
  9
$DIMZIN
 70
     0
  9
$DIMBLK
  1

  9
$DIMASO
 70
     1
  9
$DIMSHO
 70
     1
  9
$DIMPOST
  1

  9
$DIMAPOST
  1

  9
$DIMALT
 70
     0
  9
$DIMALTD
 70
     2
  9
$DIMALTF
 40
25.4
  9
$DIMLFAC
 40
1.0
  9
$DIMTOFL
 70
     0
  9
$DIMTVP
 40
0.0
  9
$DIMTIX
 70
     0
  9
$DIMSOXD
 70
     0
  9
$DIMSAH
 70
     0
  9
$DIMBLK1
  1

  9
$DIMBLK2
  1

  9
$DIMSTYLE
  2
STANDARD
  9
$DIMCLRD
 70
     0
  9
$DIMCLRE
 70
     0
  9
$DIMCLRT
 70
     0
  9
$DIMTFAC
 40
1.0
  9
$DIMGAP
 40
0.09
  9
$DIMJUST
 70
     0
  9
$DIMSD1
 70
     0
  9
$DIMSD2
 70
     0
  9
$DIMTOLJ
 70
     1
  9
$DIMTZIN
 70
     0
  9
$DIMALTZ
 70
     0
  9
$DIMALTTZ
 70
     0
  9
$DIMFIT
 70
     3
  9
$DIMUPT
 70
     0
  9
$DIMUNIT
 70
     2
  9
$DIMDEC
 70
     4
  9
$DIMTDEC
 70
     4
  9
$DIMALTU
 70
     2
  9
$DIMALTTD
 70
     2
  9
$DIMTXSTY
  7
STANDARD
  9
$DIMAUNIT
 70
     0
  9
$LUNITS
 70
     2
  9
$LUPREC
 70
     3
  9
$SKETCHINC
 40
0.1
  9
$FILLETRAD
 40
0.5
  9
$AUNITS
 70
     0
  9
$AUPREC
 70
     0
  9
$MENU
  1
.
  9
$ELEVATION
 40
0.0
  9
$PELEVATION
 40
0.0
  9
$THICKNESS
 40
0.0
  9
$LIMCHECK
 70
     0
  9
$CHAMFERA
 40
0.5
  9
$CHAMFERB
 40
0.5
  9
$CHAMFERC
 40
1.0
  9
$CHAMFERD
 40
0.0
  9
$SKPOLY
 70
     0
  9
$TDCREATE
 40
2453766.487089317
  9
$TDUPDATE
 40
2453766.487089329
  9
$TDINDWG
 40
0.0000000116
  9
$TDUSRTIMER
 40
0.0000000116
  9
$USRTIMER
 70
     1
  9
$ANGBASE
 50
0.0
  9
$ANGDIR
 70
     0
  9
$PDMODE
 70
     0
  9
$PDSIZE
 40
0.0
  9
$PLINEWID
 40
0.0
  9
$COORDS
 70
     1
  9
$SPLFRAME
 70
     0
  9
$SPLINETYPE
 70
     6
  9
$SPLINESEGS
 70
     8
  9
$ATTDIA
 70
     0
  9
$ATTREQ
 70
     1
  9
$HANDLING
 70
     1
  9
$HANDSEED
  5
110
  9
$SURFTAB1
 70
     6
  9
$SURFTAB2
 70
     6
  9
$SURFTYPE
 70
     6
  9
$SURFU
 70
     6
  9
$SURFV
 70
     6
  9
$UCSNAME
  2

  9
$UCSORG
 10
0.0
 20
0.0
 30
0.0
  9
$UCSXDIR
 10
1.0
 20
0.0
 30
0.0
  9
$UCSYDIR
 10
0.0
 20
1.0
 30
0.0
  9
$PUCSNAME
  2

  9
$PUCSORG
 10
0.0
 20
0.0
 30
0.0
  9
$PUCSXDIR
 10
1.0
 20
0.0
 30
0.0
  9
$PUCSYDIR
 10
0.0
 20
1.0
 30
0.0
  9
$USERI1
 70
     0
  9
$USERI2
 70
     0
  9
$USERI3
 70
     0
  9
$USERI4
 70
     0
  9
$USERI5
 70
     0
  9
$USERR1
 40
0.0
  9
$USERR2
 40
0.0
  9
$USERR3
 40
0.0
  9
$USERR4
 40
0.0
  9
$USERR5
 40
0.0
  9
$WORLDVIEW
 70
     1
  9
$SHADEDGE
 70
     3
  9
$SHADEDIF
 70
    70
  9
$TILEMODE
 70
     1
  9
$MAXACTVP
 70
    64
  9
$PINSBASE
 10
0.0
 20
0.0
 30
0.0
  9
$PLIMCHECK
 70
     0
  9
$PEXTMIN
 10
1.000000000000000E+20
 20
1.000000000000000E+20
 30
1.000000000000000E+20
  9
$PEXTMAX
 10
-1.000000000000000E+20
 20
-1.000000000000000E+20
 30
-1.000000000000000E+20
  9
$PLIMMIN
 10
0.0
 20
0.0
  9
$PLIMMAX
 10
12.0
 20
9.0
  9
$UNITMODE
 70
     0
  9
$VISRETAIN
 70
     1
  9
$PLINEGEN
 70
     0
  9
$PSLTSCALE
 70
     1
  9
$TREEDEPTH
 70
  3020
  9
$PICKSTYLE
 70
     1
  9
$CMLSTYLE
  2
STANDARD
  9
$CMLJUST
 70
     0
  9
$CMLSCALE
 40
1.0
  9
$PROXYGRAPHICS
 70
     1
  9
$MEASUREMENT
 70
     0
  0
ENDSEC
  0
SECTION
  2
CLASSES
  0
CLASS
  1
ACDBDICTIONARYWDFLT
  2
AcDbDictionaryWithDefault
  3
ObjectDBX Classes
 90
        0
280
     0
281
     0
  0
CLASS
  1
XRECORD
  2
AcDbXrecord
  3
AutoCAD 2000
 90
        0
280
     0
281
     0
  0
CLASS
  1
LWPOLYLINE
  2
AcDbPolyline
  3
AutoCAD 2000
 90
        0
280
     0
281
     1
  0
CLASS
  1
HATCH
  2
AcDbHatch
  3
AutoCAD 2000
 90
        0
280
     0
281
     1
  0
CLASS
  1
ACDBPLACEHOLDER
  2
AcDbPlaceHolder
  3
ObjectDBX Classes
 90
        0
280
     0
281
     0
  0
CLASS
  1
LAYOUT
  2
AcDbLayout
  3
ObjectDBX Classes
 90
        0
280
     0
281
     0
  0
ENDSEC
  0
SECTION
  2
TABLES
  0
TABLE
  2
VPORT
  5
8
330
0
100
AcDbSymbolTable
 70
     2
  0
VPORT
  5
29
102
{ACAD_XDICTIONARY
360
10E
102
}
330
8
100
AcDbSymbolTableRecord
100
AcDbViewportTableRecord
  2
*ACTIVE
 70
     0
 10
0.0
 20
0.0
 11
1.0
 21
1.0
 12
28.79475698560226
 22
34.34475792885268
 13
0.0
 23
0.0
 14
0.5
 24
0.5
 15
0.5
 25
0.5
 16
0.0
 26
0.0
 36
80.21230066091221
 17
0.0
 27
0.0
 37
0.0
 40
68.67397957034194
 41
1.972972972850329
 42
50.0
 43
0.0
 44
0.0
 50
0.0
 51
0.0
 71
     0
 72
   100
 73
     1
 74
     3
 75
     0
 76
     0
 77
     0
 78
     0
  0
ENDTAB
  0
TABLE
  2
LTYPE
  5
5
330
0
100
AcDbSymbolTable
 70
     1
  0
LTYPE
  5
14
330
5
100
AcDbSymbolTableRecord
100
AcDbLinetypeTableRecord
  2
BYBLOCK
 70
     0
  3

 72
    65
 73
     0
 40
0.0
  0
LTYPE
  5
15
330
5
100
AcDbSymbolTableRecord
100
AcDbLinetypeTableRecord
  2
BYLAYER
 70
     0
  3

 72
    65
 73
     0
 40
0.0
  0
LTYPE
  5
16
330
5
100
AcDbSymbolTableRecord
100
AcDbLinetypeTableRecord
  2
CONTINUOUS
 70
     0
  3
Solid line
 72
    65
 73
     0
 40
0.0
  0
ENDTAB
  0
TABLE
  2
LAYER
  5
2
330
0
100
AcDbSymbolTable
 70
     3
  0
LAYER
  5
10
330
2
100
AcDbSymbolTableRecord
100
AcDbLayerTableRecord
  2
0
 70
     0
 62
     7
  6
CONTINUOUS
  0
LAYER
  5
2A
330
2
100
AcDbSymbolTableRecord
100
AcDbLayerTableRecord
  2
DEFAULT
 70
     0
 62
     7
  6
CONTINUOUS
  0
LAYER
  5
2D
330
2
100
AcDbSymbolTableRecord
100
AcDbLayerTableRecord
  2
IGES_LEVEL_0
 70
     0
 62
   255
  6
CONTINUOUS
  0
ENDTAB
  0
TABLE
  2
STYLE
  5
3
330
0
100
AcDbSymbolTable
 70
     1
  0
STYLE
  5
11
330
3
100
AcDbSymbolTableRecord
100
AcDbTextStyleTableRecord
  2
STANDARD
 70
     0
 40
0.0
 41
1.0
 50
0.0
 71
     0
 42
0.2
  3
txt
  4

  0
ENDTAB
  0
TABLE
  2
VIEW
  5
6
330
0
100
AcDbSymbolTable
 70
     0
  0
ENDTAB
  0
TABLE
  2
UCS
  5
7
330
0
100
AcDbSymbolTable
 70
     0
  0
ENDTAB
  0
TABLE
  2
APPID
  5
9
330
0
100
AcDbSymbolTable
 70
     1
  0
APPID
  5
12
330
9
100
AcDbSymbolTableRecord
100
AcDbRegAppTableRecord
  2
ACAD
 70
     0
  0
ENDTAB
  0
TABLE
  2
DIMSTYLE
  5
A
330
0
100
AcDbSymbolTable
 70
     1
  0
DIMSTYLE
105
27
330
A
100
AcDbSymbolTableRecord
100
AcDbDimStyleTableRecord
  2
STANDARD
 70
     0
  3

  4

  5

  6

  7

 40
1.0
 41
0.18
 42
0.0625
 43
0.38
 44
0.18
 45
0.0
 46
0.0
 47
0.0
 48
0.0
140
0.18
141
0.09
142
0.0
143
25.4
144
1.0
145
0.0
146
1.0
147
0.09
 71
     0
 72
     0
 73
     1
 74
     1
 75
     0
 76
     0
 77
     0
 78
     0
170
     0
171
     2
172
     0
173
     0
174
     0
175
     0
176
     0
177
     0
178
     0
270
     2
271
     4
272
     4
273
     2
274
     2
340
11
275
     0
280
     0
281
     0
282
     0
283
     1
284
     0
285
     0
286
     0
287
     3
288
     0
  0
ENDTAB
  0
TABLE
  2
BLOCK_RECORD
  5
1
330
0
100
AcDbSymbolTable
 70
     1
  0
BLOCK_RECORD
  5
1F
330
1
100
AcDbSymbolTableRecord
100
AcDbBlockTableRecord
  2
*MODEL_SPACE
  0
BLOCK_RECORD
  5
1B
330
1
100
AcDbSymbolTableRecord
100
AcDbBlockTableRecord
  2
*PAPER_SPACE
  0
ENDTAB
  0
ENDSEC
  0
SECTION
  2
BLOCKS
  0
BLOCK
  5
20
330
1F
100
AcDbEntity
  8
0
100
AcDbBlockBegin
  2
*MODEL_SPACE
 70
     0
 71
     0
 10
0.0
 20
0.0
 30
0.0
  3
*MODEL_SPACE
  1

  0
ENDBLK
  5
21
330
1F
100
AcDbEntity
  8
0
100
AcDbBlockEnd
  0
BLOCK
  5
1C
330
1B
100
AcDbEntity
 67
     1
  8
0
100
AcDbBlockBegin
  2
*PAPER_SPACE
 70
     0
 71
     0
 10
0.0
 20
0.0
 30
0.0
  3
*PAPER_SPACE
  1

  0
ENDBLK
  5
1D
330
1B
100
AcDbEntity
 67
     1
  8
0
100
AcDbBlockEnd
  0
ENDSEC
  0
SECTION
  2
ENTITIES
  0
ARC
  5
2B
330
1F
100
AcDbEntity
  8
DEFAULT
 62
     7
100
AcDbCircle
 10
1.386360141404722
 20
65.53313867341808
 30
0.0
 40
0.5012619398680813
100
AcDbArc
 50
141.4309437082196
 51
218.5643950559691
  0
ARC
  5
2C
330
1F
100
AcDbEntity
  8
DEFAULT
 62
     7
100
AcDbCircle
 10
21.35403646931055
 20
65.53313867341808
 30
0.0
 40
0.5012619398680813
100
AcDbArc
 50
321.435604944031
 51
38.56905629178046
  0
LINE
  5
2E
330
1F
100
AcDbEntity
  8
IGES_LEVEL_0
 62
     7
100
AcDbLine
 10
21.25206444241763
 20
63.86003162115681
 30
0.0
 11
21.14990922615764
 21
63.86007511321681
 31
0.0
  0
LINE
  5
2F
330
1F
100
AcDbEntity
  8
IGES_LEVEL_0
 62
     7
100
AcDbLine
 10
1.604219658678636
 20
63.86007511321681
 30
0.0
 11
1.502064442419636
 21
63.86003162115681
 31
0.0
  0
LINE
  5
30
330
1F
100
AcDbEntity
  8
IGES_LEVEL_0
 62
     7
100
AcDbLine
 10
21.06393719967764
 20
46.1208879336268
 30
0.0
 11
21.25206444241763
 21
46.1210491563168
 31
0.0
  0
LINE
  5
31
330
1F
100
AcDbEntity
  8
IGES_LEVEL_0
 62
     7
100
AcDbLine
 10
1.502064442419636
 20
46.1210491563168
 30
0.0
 11
1.690191685162636
 21
46.1208879336268
 31
0.0
  0
LINE
  5
32
330
1F
100
AcDbEntity
  8
IGES_LEVEL_0
 62
     7
100
AcDbLine
 10
2.931310155968636
 20
64.34866264896681
 30
0.0
 11
2.957063807157636
 21
64.3492387982768
 31
0.0
  0
ARC
  5
33
330
1F
100
AcDbEntity
  8
IGES_LEVEL_0
 62
     7
100
AcDbCircle
 10
11.36033154362777
 20
-28.72764666862868
 30
0.0
 40
97.40905101618816
100
AcDbArc
 50
84.18382202228897
 51
95.82070999376883
  0
ARC
  5
34
330
1F
100
AcDbEntity
  8
IGES_LEVEL_0
 62
     7
100
AcDbCircle
 10
11.71407914362706
 20
-121.8533629368271
 30
0.0
 40
186.3782641767162
100
AcDbArc
 50
87.0698126010676
 51
87.51860153661359
  0
ARC
  5
35
330
1F
100
AcDbEntity
  8
IGES_LEVEL_0
 62
     7
100
AcDbCircle
 10
11.03450122968208
 20
-121.8868220502686
 30
0.0
 40
186.4116882189014
100
AcDbArc
 50
92.49239712934597
 51
92.93440721263428
  0
ARC
  5
36
330
1F
100
AcDbEntity
  8
IGES_LEVEL_0
 62
     7
100
AcDbCircle
 10
0.5020641976776357
 20
48.04320407735681
 30
0.0
 40
0.5
100
AcDbArc
 50
180.0
 51
0.0
  0
ARC
  5
37
330
1F
100
AcDbEntity
  8
IGES_LEVEL_0
 62
     7
100
AcDbCircle
 10
3.502064197677635
 20
65.04320407735681
 30
0.0
 40
2.500000018330401
100
AcDbArc
 50
143.9286113590702
 51
161.2973020210414
  0
ARC
  5
38
330
1F
100
AcDbEntity
  8
IGES_LEVEL_0
 62
     7
100
AcDbCircle
 10
3.502064197677635
 20
65.04320407735681
 30
0.0
 40
3.499999870483211
100
AcDbArc
 50
90.0
 51
114.1853465345723
  0
ARC
  5
39
330
1F
100
AcDbEntity
  8
IGES_LEVEL_0
 62
     7
100
AcDbCircle
 10
19.25206419767764
 20
65.04320407735681
 30
0.0
 40
2.50000028939028
100
AcDbArc
 50
18.72236762906201
 51
37.61811007020103
  0
ARC
  5
3A
330
1F
100
AcDbEntity
  8
IGES_LEVEL_0
 62
     7
100
AcDbCircle
 10
19.25206419767764
 20
65.04320407735681
 30
0.0
 40
3.499999858984638
100
AcDbArc
 50
65.65916930092173
 51
90.0
  0
ARC
  5
3B
330
1F
100
AcDbEntity
  8
IGES_LEVEL_0
 62
     7
100
AcDbCircle
 10
22.25206419767763
 20
48.04320407735681
 30
0.0
 40
0.4999999999999991
100
AcDbArc
 50
180.0
 51
0.0
  0
ARC
  5
3C
330
1F
100
AcDbEntity
  8
IGES_LEVEL_0
 62
     7
100
AcDbCircle
 10
0.5017521976776356
 20
48.95837207735681
 30
0.0
 40
0.4999998949084539
100
AcDbArc
 50
321.3177856962673
 51
2.982101348767027
  0
LINE
  5
3D
330
1F
100
AcDbEntity
  8
IGES_LEVEL_0
 62
     7
100
AcDbLine
 10
16.52327119767763
 20
68.54320407735681
 30
0.0
 11
19.25206419767764
 21
68.54320407735681
 31
0.0
  0
LINE
  5
3E
330
1F
100
AcDbEntity
  8
IGES_LEVEL_0
 62
     7
100
AcDbLine
 10
3.502064197677635
 20
68.54320407735681
 30
0.0
 11
6.197163197677636
 21
68.54320407735681
 31
0.0
  0
LINE
  5
3F
330
1F
100
AcDbEntity
  8
IGES_LEVEL_0
 62
     7
100
AcDbLine
 10
22.75206419767763
 20
48.04320407735681
 30
0.0
 11
22.75206419767763
 21
66.2829720773568
 31
0.0
  0
LINE
  5
40
330
1F
100
AcDbEntity
  8
IGES_LEVEL_0
 62
     7
100
AcDbLine
 10
21.24564019767763
 20
65.8456350773568
 30
0.0
 11
21.24551719767763
 21
65.82574807735681
 31
0.0
  0
LINE
  5
41
330
1F
100
AcDbEntity
  8
IGES_LEVEL_0
 62
     7
100
AcDbLine
 10
21.24551719767763
 20
65.82574807735681
 30
0.0
 11
21.24536219767763
 21
65.7206350773568
 31
0.0
  0
LINE
  5
42
330
1F
100
AcDbEntity
  8
IGES_LEVEL_0
 62
     7
100
AcDbLine
 10
21.23149219767764
 20
68.17990407735681
 30
0.0
 11
21.23094919767764
 21
67.7489240773568
 31
0.0
  0
LINE
  5
43
330
1F
100
AcDbEntity
  8
IGES_LEVEL_0
 62
     7
100
AcDbLine
 10
21.24534019767764
 20
65.6893930773568
 30
0.0
 11
21.24529919767764
 21
65.5331350773568
 31
0.0
  0
LINE
  5
44
330
1F
100
AcDbEntity
  8
IGES_LEVEL_0
 62
     7
100
AcDbLine
 10
21.24536219767763
 20
65.7206350773568
 30
0.0
 11
21.24534019767764
 21
65.6893930773568
 31
0.0
  0
LINE
  5
45
330
1F
100
AcDbEntity
  8
IGES_LEVEL_0
 62
     7
100
AcDbLine
 10
21.23094919767764
 20
67.7489240773568
 30
0.0
 11
21.23090219767763
 21
67.36949207735681
 31
0.0
  0
LINE
  5
46
330
1F
100
AcDbEntity
  8
IGES_LEVEL_0
 62
     7
100
AcDbLine
 10
21.75206419767764
 20
65.8356330773568
 30
0.0
 11
21.75206419767764
 21
66.2829720773568
 31
0.0
  0
LINE
  5
47
330
1F
100
AcDbEntity
  8
IGES_LEVEL_0
 62
     7
100
AcDbLine
 10
21.75206419767764
 20
48.97921207735681
 30
0.0
 11
21.75206419767764
 21
65.2306370773568
 31
0.0
  0
LINE
  5
48
330
1F
100
AcDbEntity
  8
IGES_LEVEL_0
 62
     7
100
AcDbLine
 10
21.75206419767764
 20
48.04320407735681
 30
0.0
 11
21.75206419767764
 21
48.64587207735681
 31
0.0
  0
LINE
  5
49
330
1F
100
AcDbEntity
  8
IGES_LEVEL_0
 62
     7
100
AcDbLine
 10
21.25206419767764
 20
46.1210490773568
 30
0.0
 11
21.25206419767764
 21
63.86003207735681
 31
0.0
  0
LINE
  5
4A
330
1F
100
AcDbEntity
  8
IGES_LEVEL_0
 62
     7
100
AcDbLine
 10
21.24529919767764
 20
65.5331350773568
 30
0.0
 11
21.24535219767764
 21
65.3768760773568
 31
0.0
  0
LINE
  5
4B
330
1F
100
AcDbEntity
  8
IGES_LEVEL_0
 62
     7
100
AcDbLine
 10
21.24535219767764
 20
65.3768760773568
 30
0.0
 11
21.24537719767763
 21
65.3456350773568
 31
0.0
  0
LINE
  5
4C
330
1F
100
AcDbEntity
  8
IGES_LEVEL_0
 62
     7
100
AcDbLine
 10
21.23090219767763
 20
67.36949207735681
 30
0.0
 11
21.23130619767764
 21
66.8203740773568
 31
0.0
  0
LINE
  5
4D
330
1F
100
AcDbEntity
  8
IGES_LEVEL_0
 62
     7
100
AcDbLine
 10
21.24537719767763
 20
65.3456350773568
 30
0.0
 11
21.24553219767764
 21
65.2430260773568
 31
0.0
  0
LINE
  5
4E
330
1F
100
AcDbEntity
  8
IGES_LEVEL_0
 62
     7
100
AcDbLine
 10
21.24553219767764
 20
65.2430260773568
 30
0.0
 11
21.24566419767763
 21
65.2206350773568
 31
0.0
  0
LINE
  5
4F
330
1F
100
AcDbEntity
  8
IGES_LEVEL_0
 62
     7
100
AcDbLine
 10
21.23872819767763
 20
64.6827210773568
 30
0.0
 11
21.23130619767764
 21
66.8203740773568
 31
0.0
  0
LINE
  5
50
330
1F
100
AcDbEntity
  8
IGES_LEVEL_0
 62
     7
100
AcDbLine
 10
21.23872819767763
 20
64.6827210773568
 30
0.0
 11
21.24157319767764
 21
64.2812210773568
 31
0.0
  0
LINE
  5
51
330
1F
100
AcDbEntity
  8
IGES_LEVEL_0
 62
     7
100
AcDbLine
 10
21.24564019767763
 20
65.8456350773568
 30
0.0
 11
21.74595219767764
 21
65.84565507735681
 31
0.0
  0
LINE
  5
52
330
1F
100
AcDbEntity
  8
IGES_LEVEL_0
 62
     7
100
AcDbLine
 10
1.484703197677636
 20
65.8448420773568
 30
0.0
 11
1.002064197677636
 21
65.84482307735681
 31
0.0
  0
LINE
  5
53
330
1F
100
AcDbEntity
  8
IGES_LEVEL_0
 62
     7
100
AcDbLine
 10
21.24566419767763
 20
65.2206350773568
 30
0.0
 11
21.74597719767764
 21
65.22065507735681
 31
0.0
  0
LINE
  5
54
330
1F
100
AcDbEntity
  8
IGES_LEVEL_0
 62
     7
100
AcDbLine
 10
1.486873197677636
 20
65.2198420773568
 30
0.0
 11
1.002064197677636
 21
65.21982307735681
 31
0.0
  0
LINE
  5
55
330
1F
100
AcDbEntity
  8
IGES_LEVEL_0
 62
     7
100
AcDbLine
 10
18.06456319767763
 20
63.86007507735681
 30
0.0
 11
21.14990919767763
 21
63.86007507735681
 31
0.0
  0
LINE
  5
56
330
1F
100
AcDbEntity
  8
IGES_LEVEL_0
 62
     7
100
AcDbLine
 10
5.064571197677636
 20
63.86007507735681
 30
0.0
 11
17.68956319767763
 21
63.86007507735681
 31
0.0
  0
LINE
  5
57
330
1F
100
AcDbEntity
  8
IGES_LEVEL_0
 62
     7
100
AcDbLine
 10
1.604219197677635
 20
63.86007507735681
 30
0.0
 11
4.689571197677636
 21
63.86007507735681
 31
0.0
  0
LINE
  5
58
330
1F
100
AcDbEntity
  8
IGES_LEVEL_0
 62
     7
100
AcDbLine
 10
1.502064197677636
 20
63.8120150773568
 30
0.0
 11
21.25206419767764
 21
63.8120150773568
 31
0.0
  0
LINE
  5
59
330
1F
100
AcDbEntity
  8
IGES_LEVEL_0
 62
     7
100
AcDbLine
 10
18.06456319767763
 20
63.84176007735681
 30
0.0
 11
18.06456319767763
 21
64.3536780773568
 31
0.0
  0
LINE
  5
5A
330
1F
100
AcDbEntity
  8
IGES_LEVEL_0
 62
     7
100
AcDbLine
 10
17.68956319767763
 20
63.84176007735681
 30
0.0
 11
17.68956319767763
 21
64.35438107735681
 31
0.0
  0
LINE
  5
5B
330
1F
100
AcDbEntity
  8
IGES_LEVEL_0
 62
     7
100
AcDbLine
 10
5.064571197677636
 20
63.84176007735681
 30
0.0
 11
5.064571197677636
 21
64.35387807735681
 31
0.0
  0
LINE
  5
5C
330
1F
100
AcDbEntity
  8
IGES_LEVEL_0
 62
     7
100
AcDbLine
 10
4.689571197677636
 20
63.84176007735681
 30
0.0
 11
4.689571197677636
 21
64.35315207735681
 31
0.0
  0
LINE
  5
5D
330
1F
100
AcDbEntity
  8
IGES_LEVEL_0
 62
     7
100
AcDbLine
 10
21.25206419767764
 20
49.27087207735681
 30
0.0
 11
21.75206419767764
 21
49.27087207735681
 31
0.0
  0
LINE
  5
5E
330
1F
100
AcDbEntity
  8
IGES_LEVEL_0
 62
     7
100
AcDbLine
 10
1.502064197677636
 20
49.27087207735681
 30
0.0
 11
1.002064197677636
 21
49.27087207735681
 31
0.0
  0
LINE
  5
5F
330
1F
100
AcDbEntity
  8
IGES_LEVEL_0
 62
     7
100
AcDbLine
 10
21.25206419767764
 20
48.64587207735681
 30
0.0
 11
21.86206419767763
 21
48.64587207735681
 31
0.0
  0
LINE
  5
60
330
1F
100
AcDbEntity
  8
IGES_LEVEL_0
 62
     7
100
AcDbLine
 10
1.502064197677636
 20
48.64587207735681
 30
0.0
 11
0.8920641976776353
 21
48.64587207735681
 31
0.0
  0
LINE
  5
61
330
1F
100
AcDbEntity
  8
IGES_LEVEL_0
 62
     7
100
AcDbLine
 10
1.480962197677636
 20
67.7481430773568
 30
0.0
 11
1.481505197677636
 21
68.17915007735681
 31
0.0
  0
LINE
  5
62
330
1F
100
AcDbEntity
  8
IGES_LEVEL_0
 62
     7
100
AcDbLine
 10
1.480962197677636
 20
67.7481430773568
 30
0.0
 11
1.480915197677635
 21
67.36871107735681
 31
0.0
  0
LINE
  5
63
330
1F
100
AcDbEntity
  8
IGES_LEVEL_0
 62
     7
100
AcDbLine
 10
1.502064197677636
 20
46.1210490773568
 30
0.0
 11
1.502064197677636
 21
63.86003207735681
 31
0.0
  0
LINE
  5
64
330
1F
100
AcDbEntity
  8
IGES_LEVEL_0
 62
     7
100
AcDbLine
 10
1.481319197677636
 20
66.8195930773568
 30
0.0
 11
1.480915197677635
 21
67.36871107735681
 31
0.0
  0
LINE
  5
65
330
1F
100
AcDbEntity
  8
IGES_LEVEL_0
 62
     7
100
AcDbLine
 10
1.481319197677636
 20
66.8195930773568
 30
0.0
 11
1.488741197677636
 21
64.6819400773568
 31
0.0
  0
LINE
  5
66
330
1F
100
AcDbEntity
  8
IGES_LEVEL_0
 62
     7
100
AcDbLine
 10
1.491587197677636
 20
64.2804400773568
 30
0.0
 11
1.488741197677636
 21
64.6819400773568
 31
0.0
  0
LINE
  5
67
330
1F
100
AcDbEntity
  8
IGES_LEVEL_0
 62
     7
100
AcDbLine
 10
1.002064197677636
 20
48.64587207735681
 30
0.0
 11
1.002064197677636
 21
48.04320407735681
 31
0.0
  0
LINE
  5
68
330
1F
100
AcDbEntity
  8
IGES_LEVEL_0
 62
     7
100
AcDbLine
 10
1.002064197677636
 20
65.21982207735681
 30
0.0
 11
1.002064197677636
 21
48.97921207735681
 31
0.0
  0
LINE
  5
69
330
1F
100
AcDbEntity
  8
IGES_LEVEL_0
 62
     7
100
AcDbLine
 10
1.002064197677636
 20
66.2829720773568
 30
0.0
 11
1.002064197677636
 21
65.84482207735681
 31
0.0
  0
LINE
  5
6A
330
1F
100
AcDbEntity
  8
IGES_LEVEL_0
 62
     7
100
AcDbLine
 10
1.502064197677636
 20
46.2168610773568
 30
0.0
 11
21.25206419767764
 21
46.2168610773568
 31
0.0
  0
LINE
  5
6B
330
1F
100
AcDbEntity
  8
IGES_LEVEL_0
 62
     7
100
AcDbLine
 10
1.690191197677635
 20
46.12088807735681
 30
0.0
 11
21.06393719767764
 21
46.12088807735681
 31
0.0
  0
LINE
  5
6C
330
1F
100
AcDbEntity
  8
IGES_LEVEL_0
 62
     7
100
AcDbLine
 10
0.0020641976776356
 20
66.2829720773568
 30
0.0
 11
0.0020641976776356
 21
48.04320407735681
 31
0.0
  0
ARC
  5
6D
330
1F
100
AcDbEntity
  8
IGES_LEVEL_0
 62
     7
100
AcDbCircle
 10
22.25237719767764
 20
48.95837207735681
 30
0.0
 40
0.5000006024846255
100
AcDbArc
 50
177.018705666268
 51
218.6821426840362
  0
ARC
  5
6E
330
1F
100
AcDbEntity
  8
DEFAULT
 62
     7
100
AcDbCircle
 10
22.25206419767763
 20
63.9188450339313
 30
0.0
 40
2.416422288726831
100
AcDbArc
 50
78.05823067264289
 51
101.9417693273569
  0
ARC
  5
6F
330
1F
100
AcDbEntity
  8
DEFAULT
 62
     7
100
AcDbCircle
 10
0.5020701976776358
 20
63.9188450339313
 30
0.0
 40
2.416422288726831
100
AcDbArc
 50
78.05823067264318
 51
101.9417693273571
  0
ARC
  5
70
330
1F
100
AcDbEntity
  8
IGES_LEVEL_0
 62
     7
100
AcDbCircle
 10
19.25206419767764
 20
65.04320407735681
 30
0.0
 40
3.500000159217613
100
AcDbArc
 50
21.42032091089668
 51
55.55601030799757
  0
ARC
  5
71
330
1F
100
AcDbEntity
  8
IGES_LEVEL_0
 62
     7
100
AcDbCircle
 10
3.502064197677635
 20
65.04320407735681
 30
0.0
 40
3.49999988915585
100
AcDbArc
 50
125.2921425078018
 51
158.5796886223565
  0
LINE
  5
72
330
1F
100
AcDbEntity
  8
DEFAULT
 62
     7
100
AcDbLine
 10
2.957063807157636
 20
64.3492387982768
 30
0.0
 11
19.78333280355763
 21
64.3501399918168
 31
0.0
  0
LINE
  5
73
330
1F
100
AcDbEntity
  8
IGES_LEVEL_0
 62
     7
100
AcDbLine
 10
37.47731118747688
 20
26.37857374869398
 30
0.0
 11
37.50594629344688
 21
26.25994438821999
 31
0.0
  0
ARC
  5
74
330
1F
100
AcDbEntity
  8
IGES_LEVEL_0
 62
     7
100
AcDbCircle
 10
36.02974807754186
 20
33.75967875888429
 30
0.0
 40
0.5004080803134515
100
AcDbArc
 50
107.2518570337932
 51
195.2493778808751
  0
ARC
  5
75
330
1F
100
AcDbEntity
  8
IGES_LEVEL_0
 62
     7
100
AcDbCircle
 10
-412.1965528490634
 20
-89.47731938289
 30
0.0
 40
464.3588915468198
100
AcDbArc
 50
14.44771674738305
 51
15.37338580303345
  0
SPLINE
  5
76
330
1F
100
AcDbEntity
  8
IGES_LEVEL_0
 62
     7
100
AcDbSpline
210
0.0
220
0.0
230
1.0
 70
     8
 71
     3
 72
    14
 73
    10
 74
     0
 42
0.0000000001
 43
0.0000000001
 40
0.0
 40
0.0
 40
0.0
 40
0.0
 40
0.09072141796718
 40
0.1818081329144
 40
0.3641226103638
 40
0.546370412345
 40
0.7285002656395
 40
0.8813527473005
 40
1.0
 40
1.0
 40
1.0
 40
1.0
 10
37.85853912653688
 20
16.97649382390699
 30
0.0
 10
37.84730977624688
 20
17.22691517555099
 30
0.0
 10
37.82847265288688
 20
17.72892260316299
 30
0.0
 10
37.80099860122689
 20
18.73465636473948
 30
0.0
 10
37.77754588856688
 20
19.99343719870598
 30
0.0
 10
37.74030235069689
 20
21.50353730031998
 30
0.0
 10
37.69713131521689
 20
22.93203697878798
 30
0.0
 10
37.65341790260688
 20
24.18468970932798
 30
0.0
 10
37.62464158838689
 20
24.93431286873598
 30
0.0
 10
37.61160043287688
 20
25.26188462451498
 30
0.0
  0
LINE
  5
77
330
1F
100
AcDbEntity
  8
IGES_LEVEL_0
 62
     7
100
AcDbLine
 10
35.04629171132688
 20
33.56108588471098
 30
0.0
 11
37.11797991815688
 21
26.33330554450899
 31
0.0
  0
LINE
  5
78
330
1F
100
AcDbEntity
  8
IGES_LEVEL_0
 62
     7
100
AcDbLine
 10
37.26309200198688
 20
25.50980320022399
 30
0.0
 11
37.85693417043688
 21
17.00427661646398
 31
0.0
  0
ARC
  5
79
330
1F
100
AcDbEntity
  8
IGES_LEVEL_0
 62
     7
100
AcDbCircle
 10
74.20264968737854
 20
18.50731718086925
 30
0.0
 40
36.37633561271535
100
AcDbArc
 50
182.4118874350358
 51
185.5933631963753
  0
ARC
  5
7A
330
1F
100
AcDbEntity
  8
IGES_LEVEL_0
 62
     7
100
AcDbCircle
 10
33.27310439065648
 20
25.23125126102504
 30
0.0
 40
3.999698642424172
100
AcDbArc
 50
3.993494984875015
 51
15.99385810664068
  0
ARC
  5
7B
330
1F
100
AcDbEntity
  8
IGES_LEVEL_0
 62
     7
100
AcDbCircle
 10
31.43034123238051
 20
24.98081888526637
 30
0.0
 40
7.997509272768138
100
AcDbArc
 50
9.47841835995807
 51
18.23103584088575
  0
ARC
  5
7C
330
1F
100
AcDbEntity
  8
IGES_LEVEL_0
 62
     7
100
AcDbCircle
 10
31.42147876314363
 20
24.9797480394895
 30
0.0
 40
8.006415574952365
100
AcDbArc
 50
359.5979946222891
 51
2.289678334171946
  0
ARC
  5
7D
330
1F
100
AcDbEntity
  8
IGES_LEVEL_0
 62
     7
100
AcDbCircle
 10
36.41245659656187
 20
33.81387430744288
 30
0.0
 40
0.5018313939680708
100
AcDbArc
 50
18.35927410069175
 51
97.70409660705909
  0
ARC
  5
7E
330
1F
100
AcDbEntity
  8
IGES_LEVEL_0
 62
     7
100
AcDbCircle
 10
38.5071592953301
 20
14.91252946967278
 30
0.0
 40
0.4999733895129678
100
AcDbArc
 50
185.9593223006106
 51
215.3875322507145
  0
ARC
  5
7F
330
1F
100
AcDbEntity
  8
IGES_LEVEL_0
 62
     7
100
AcDbCircle
 10
38.85741567157222
 20
14.92466495093768
 30
0.0
 40
0.4999920476416059
100
AcDbArc
 50
271.9844028183283
 51
313.0094228501279
  0
LINE
  5
80
330
1F
100
AcDbEntity
  8
IGES_LEVEL_0
 62
     7
100
AcDbLine
 10
36.87453029241689
 20
34.03028408715098
 30
0.0
 11
36.88796372562688
 21
33.99426871282098
 31
0.0
  0
ARC
  5
81
330
1F
100
AcDbEntity
  8
IGES_LEVEL_0
 62
     7
100
AcDbCircle
 10
36.41194729586741
 20
33.8363195343042
 30
0.0
 40
0.5016027077855015
100
AcDbArc
 50
22.74867312011533
 51
89.52778581788442
  0
LINE
  5
82
330
1F
100
AcDbEntity
  8
IGES_LEVEL_0
 62
     7
100
AcDbLine
 10
36.37748359192688
 20
34.33680710012099
 30
0.0
 11
36.41608130421688
 21
34.33790520638098
 31
0.0
  0
LINE
  5
83
330
1F
100
AcDbEntity
  8
IGES_LEVEL_0
 62
     7
100
AcDbLine
 10
36.33884565547688
 20
34.33273444249099
 30
0.0
 11
36.37748359192688
 21
34.33680710012099
 31
0.0
  0
ARC
  5
84
330
1F
100
AcDbEntity
  8
IGES_LEVEL_0
 62
     7
100
AcDbCircle
 10
31.42957011876357
 20
25.0031579226646
 30
0.0
 40
7.99749772380528
100
AcDbArc
 50
9.316826843370059
 51
18.07654016101882
  0
LINE
  5
85
330
1F
100
AcDbEntity
  8
IGES_LEVEL_0
 62
     7
100
AcDbLine
 10
39.02561629322688
 20
27.50516538291898
 30
0.0
 11
39.03233421861689
 21
27.48467920692799
 31
0.0
  0
ARC
  5
86
330
1F
100
AcDbEntity
  8
IGES_LEVEL_0
 62
     7
100
AcDbCircle
 10
38.8574129572097
 20
14.9246771646033
 30
0.0
 40
0.500002830338671
100
AcDbArc
 50
313.0086956202007
 51
359.5968657799184
  0
ARC
  5
87
330
1F
100
AcDbEntity
  8
IGES_LEVEL_0
 62
     7
100
AcDbCircle
 10
38.50718407405871
 20
14.91253439681402
 30
0.0
 40
0.4999964438992637
100
AcDbArc
 50
215.3863482152993
 51
271.9845683285205
  0
LINE
  5
88
330
1F
100
AcDbEntity
  8
IGES_LEVEL_0
 62
     7
100
AcDbLine
 10
38.00702068689689
 20
14.88821983356099
 30
0.0
 11
37.99951284036688
 21
14.96180240224398
 31
0.0
  0
LINE
  5
89
330
1F
100
AcDbEntity
  8
IGES_LEVEL_0
 62
     7
100
AcDbLine
 10
38.00988786954688
 20
14.86062105291698
 30
0.0
 11
38.00702068689689
 21
14.88821983356099
 31
0.0
  0
SPLINE
  5
8A
330
1F
100
AcDbEntity
  8
IGES_LEVEL_0
 62
     7
100
AcDbSpline
210
0.0
220
0.0
230
1.0
 70
     8
 71
     3
 72
    53
 73
    49
 74
     0
 42
0.0000000001
 43
0.0000000001
 40
0.0
 40
0.0
 40
0.0
 40
0.0
 40
0.01479979665834
 40
0.03605602441591
 40
0.05622821842287
 40
0.07536860092369
 40
0.09352698655162
 40
0.1107508728604
 40
0.1270855408924
 40
0.1425741546205
 40
0.157257860687
 40
0.1711758914371
 40
0.1843656729489
 40
0.1968629403064
 40
0.2087018631105
 40
0.2199142829939
 40
0.2305221858215
 40
0.2405432084926
 40
0.249996446338
 40
0.25890255303
 40
0.2672838008047
 40
0.2751642020196
 40
0.2825696726049
 40
0.2895282510304
 40
0.2960700326601
 40
0.3022253937314
 40
0.3080272806531
 40
0.3135129676662
 40
0.3187246636931
 40
0.323715177352
 40
0.328559355051
 40
0.3333456201724
 40
0.3381801848319
 40
0.3431985356368
 40
0.3485853758896
 40
0.354584488242
 40
0.3615314953235
 40
0.3699534212546
 40
0.380724835513
 40
0.3953976807053
 40
0.4169904497294
 40
0.4516261256141
 40
0.5079457191772
 40
0.5900326701316
 40
0.6889933817615001
 40
0.7984031185779
 40
0.9153947830968
 40
1.0
 40
1.0
 40
1.0
 40
1.0
 10
35.85754360763689
 20
34.26196484993098
 30
0.0
 10
35.85140680555688
 20
34.26100152585099
 30
0.0
 10
35.83645633203688
 20
34.25865259580098
 30
0.0
 10
35.81314284174689
 20
34.25498127498099
 30
0.0
 10
35.78803142913689
 20
34.25101523906098
 30
0.0
 10
35.76420614828688
 20
34.24724074795098
 30
0.0
 10
35.74160491932688
 20
34.24364857634099
 30
0.0
 10
35.72016854710689
 20
34.24022991000098
 30
0.0
 10
35.69984060069688
 20
34.23697632729098
 30
0.0
 10
35.68056728911689
 20
34.23387977977099
 30
0.0
 10
35.66229733617688
 20
34.23093257239098
 30
0.0
 10
35.64498185173688
 20
34.22812734265099
 30
0.0
 10
35.62857419671688
 20
34.22545703829098
 30
0.0
 10
35.61302983881689
 20
34.22291489277099
 30
0.0
 10
35.59830656907688
 20
34.22049445930098
 30
0.0
 10
35.58436788320689
 20
34.21819016915099
 30
0.0
 10
35.57118413148688
 20
34.21599754074099
 30
0.0
 10
35.55873094654688
 20
34.21391294692099
 30
0.0
 10
35.54698451524688
 20
34.21193284312098
 30
0.0
 10
35.53591910972688
 20
34.21005334639099
 30
0.0
 10
35.52550697332688
 20
34.20827020255099
 30
0.0
 10
35.51571818097688
 20
34.20657874467099
 30
0.0
 10
35.50652043504689
 20
34.20497383486099
 30
0.0
 10
35.49787894007688
 20
34.20344981230099
 30
0.0
 10
35.48975708065688
 20
34.20200057582098
 30
0.0
 10
35.48211624443689
 20
34.20061951292098
 30
0.0
 10
35.47491489471688
 20
34.19929928062098
 30
0.0
 10
35.46810666616688
 20
34.19803137287099
 30
0.0
 10
35.46163707957688
 20
34.19680537039098
 30
0.0
 10
35.45543628975688
 20
34.19560731276098
 30
0.0
 10
35.44941562209689
 20
34.19441854606099
 30
0.0
 10
35.44346476886688
 20
34.19321442434099
 30
0.0
 10
35.43744905162689
 20
34.19196266511099
 30
0.0
 10
35.43119517901689
 20
34.19061861909098
 30
0.0
 10
35.42447505884689
 20
34.18911858506098
 30
0.0
 10
35.41698159350688
 20
34.18736864380098
 30
0.0
 10
35.40827340390688
 20
34.18522086667098
 30
0.0
 10
35.39766365954689
 20
34.18242264206099
 30
0.0
 10
35.38399848877689
 20
34.17850319145099
 30
0.0
 10
35.36518794588688
 20
34.17249447642098
 30
0.0
 10
35.33725246697689
 20
34.16219651365098
 30
0.0
 10
35.29411930737688
 20
34.14279137746098
 30
0.0
 10
35.23148721177689
 20
34.10554460095099
 30
0.0
 10
35.15541976623688
 20
34.04008793194099
 30
0.0
 10
35.08264444024689
 20
33.94069132625099
 30
0.0
 10
35.03278100143688
 20
33.81164983995099
 30
0.0
 10
35.02176789246688
 20
33.67975608651098
 30
0.0
 10
35.03650885360688
 20
33.59536573731099
 30
0.0
 10
35.04631400766689
 20
33.56109180231098
 30
0.0
  0
LINE
  5
8B
330
1F
100
AcDbEntity
  8
IGES_LEVEL_0
 62
     7
100
AcDbLine
 10
55.36855864355689
 20
15.36110875490398
 30
5.998853047385
 11
55.44314793508688
 21
15.37406992779398
 31
5.998853047385
  0
ARC
  5
8C
330
1F
100
AcDbEntity
  8
IGES_LEVEL_0
 62
     7
100
AcDbCircle
 10
57.42948840941336
 20
17.14535960460558
 30
0.0
 40
1.34119347329613
100
AcDbArc
 50
272.0045763591099
 51
276.7568598109691
  0
LINE
  5
8D
330
1F
100
AcDbEntity
  8
IGES_LEVEL_0
 62
     7
100
AcDbLine
 10
39.84830579685688
 20
15.19189033317798
 30
0.0
 11
39.94542329205688
 21
15.19279161101299
 31
0.0
  0
LINE
  5
8E
330
1F
100
AcDbEntity
  8
IGES_LEVEL_0
 62
     7
100
AcDbLine
 10
44.83490332211688
 20
14.86323124392798
 30
0.0
 11
44.73765524994689
 21
14.86233209338099
 31
0.0
  0
ARC
  5
8F
330
1F
100
AcDbEntity
  8
IGES_LEVEL_0
 62
     7
100
AcDbCircle
 10
49.51130277352689
 20
21.75903451043098
 30
0.0
 40
4.749999903609632
100
AcDbArc
 50
11.44470352160514
 51
91.19375649504057
  0
ARC
  5
90
330
1F
100
AcDbEntity
  8
IGES_LEVEL_0
 62
     7
100
AcDbCircle
 10
49.51130277352689
 20
21.75903451043098
 30
0.0
 40
3.749999722005254
100
AcDbArc
 50
11.44470621485937
 51
91.19374847202604
  0
ARC
  5
91
330
1F
100
AcDbEntity
  8
IGES_LEVEL_0
 62
     7
100
AcDbCircle
 10
-44.33486622647312
 20
2.760111510430985
 30
0.0
 40
100.499999972326
100
AcDbArc
 50
359.998827859476
 51
11.44470693684741
  0
ARC
  5
92
330
1F
100
AcDbEntity
  8
IGES_LEVEL_0
 62
     7
100
AcDbCircle
 10
-44.33486622647312
 20
2.760111510430985
 30
0.0
 40
99.49999981628282
100
AcDbArc
 50
359.9988275959088
 51
11.44470707267603
  0
ARC
  5
93
330
1F
100
AcDbEntity
  8
IGES_LEVEL_0
 62
     7
100
AcDbCircle
 10
53.41513377352688
 20
2.758111510430983
 30
0.0
 40
2.750000000285091
100
AcDbArc
 50
270.0
 51
359.9988332495811
  0
ARC
  5
94
330
1F
100
AcDbEntity
  8
IGES_LEVEL_0
 62
     7
100
AcDbCircle
 10
53.41513377352688
 20
2.758111510430983
 30
0.0
 40
1.750000000185143
100
AcDbArc
 50
270.0
 51
359.9988213439645
  0
ARC
  5
95
330
1F
100
AcDbEntity
  8
IGES_LEVEL_0
 62
     7
100
AcDbCircle
 10
35.66513377352688
 20
0.5081115104309827
 30
0.0
 40
0.5
100
AcDbArc
 50
90.0
 51
270.0
  0
LINE
  5
96
330
1F
100
AcDbEntity
  8
IGES_LEVEL_0
 62
     7
100
AcDbLine
 10
36.34518177352688
 20
34.31118251043098
 30
0.0
 11
36.33962677352688
 21
34.31040451043099
 31
0.0
  0
LINE
  5
97
330
1F
100
AcDbEntity
  8
IGES_LEVEL_0
 62
     7
100
AcDbLine
 10
35.96019377352689
 20
34.25552551043099
 30
0.0
 11
36.33962677352688
 21
34.31040451043099
 31
0.0
  0
LINE
  5
98
330
1F
100
AcDbEntity
  8
IGES_LEVEL_0
 62
     7
100
AcDbLine
 10
57.58728777352689
 20
15.81348151043098
 30
0.0
 11
57.49147577352688
 21
18.55718951043098
 31
0.0
  0
LINE
  5
99
330
1F
100
AcDbEntity
  8
IGES_LEVEL_0
 62
     7
100
AcDbLine
 10
37.41494877352688
 20
26.25800351043099
 30
0.0
 11
49.41234377352688
 21
26.50800351043099
 31
0.0
  0
LINE
  5
9A
330
1F
100
AcDbEntity
  8
IGES_LEVEL_0
 62
     7
100
AcDbLine
 10
37.43578177352688
 20
25.25822051043098
 30
0.0
 11
49.43317777352689
 21
25.50822051043098
 31
0.0
  0
LINE
  5
9B
330
1F
100
AcDbEntity
  8
IGES_LEVEL_0
 62
     7
100
AcDbLine
 10
54.92659877352688
 20
18.46762251043099
 30
0.0
 11
57.49147577352688
 21
18.55718951043098
 31
0.0
  0
LINE
  5
9C
330
1F
100
AcDbEntity
  8
IGES_LEVEL_0
 62
     7
100
AcDbLine
 10
39.89632277352688
 20
17.94275351043098
 30
0.0
 11
53.91960777352688
 21
18.43245751043098
 31
0.0
  0
LINE
  5
9D
330
1F
100
AcDbEntity
  8
IGES_LEVEL_0
 62
     7
100
AcDbLine
 10
39.86112177352688
 20
15.92611151043099
 30
0.0
 11
39.36434377352688
 21
15.90876351043098
 31
0.0
  0
LINE
  5
9E
330
1F
100
AcDbEntity
  8
IGES_LEVEL_0
 62
     7
100
AcDbLine
 10
39.85431077352688
 20
15.53592851043099
 30
0.0
 11
39.36160277352688
 21
15.51872351043098
 31
0.0
  0
LINE
  5
9F
330
1F
100
AcDbEntity
  8
IGES_LEVEL_0
 62
     7
100
AcDbLine
 10
44.73765477352688
 20
14.86233251043099
 30
0.0
 11
44.73774277352688
 21
14.85983851043098
 31
0.0
  0
LINE
  5
A0
330
1F
100
AcDbEntity
  8
IGES_LEVEL_0
 62
     7
100
AcDbLine
 10
39.02561677352689
 20
27.50516551043098
 30
0.0
 11
36.88796377352688
 21
33.99426851043099
 31
0.0
  0
LINE
  5
A1
330
1F
100
AcDbEntity
  8
IGES_LEVEL_0
 62
     7
100
AcDbLine
 10
36.88874477352689
 20
33.97193851043099
 30
0.0
 11
39.02639777352689
 21
27.48283551043098
 31
0.0
  0
LINE
  5
A2
330
1F
100
AcDbEntity
  8
IGES_LEVEL_0
 62
     7
100
AcDbLine
 10
44.73774277352688
 20
14.85983851043098
 30
0.0
 11
39.84826277352689
 21
15.18939851043098
 31
0.0
  0
LINE
  5
A3
330
1F
100
AcDbEntity
  8
IGES_LEVEL_0
 62
     7
100
AcDbLine
 10
38.52449877352688
 20
14.41283751043098
 30
0.0
 11
38.87472877352688
 21
14.42497251043098
 31
0.0
  0
LINE
  5
A4
330
1F
100
AcDbEntity
  8
IGES_LEVEL_0
 62
     7
100
AcDbLine
 10
54.31888677352688
 20
15.69472351043098
 30
0.0
 11
39.94542377352689
 21
15.19279151043098
 31
0.0
  0
LINE
  5
A5
330
1F
100
AcDbEntity
  8
IGES_LEVEL_0
 62
     7
100
AcDbLine
 10
57.47640277352688
 20
15.80498651043099
 30
0.0
 11
55.32229677352688
 21
15.72976351043099
 31
0.0
  0
LINE
  5
A6
330
1F
100
AcDbEntity
  8
IGES_LEVEL_0
 62
     7
100
AcDbLine
 10
54.38139477352689
 20
15.19660251043099
 30
0.0
 11
44.83490377352688
 21
14.86323151043098
 31
0.0
  0
LINE
  5
A7
330
1F
100
AcDbEntity
  8
IGES_LEVEL_0
 62
     7
100
AcDbLine
 10
55.36882377352688
 20
15.35899951043098
 30
0.0
 11
57.58744977352688
 21
15.80886451043098
 31
0.0
  0
LINE
  5
A8
330
1F
100
AcDbEntity
  8
IGES_LEVEL_0
 62
     7
100
AcDbLine
 10
39.89632277352688
 20
17.94275351043098
 30
0.0
 11
39.84830577352688
 21
15.19189051043098
 31
0.0
  0
LINE
  5
A9
330
1F
100
AcDbEntity
  8
IGES_LEVEL_0
 62
     7
100
AcDbLine
 10
39.42769777352688
 20
24.92357251043098
 30
0.0
 11
39.35740377352688
 21
14.92115951043098
 31
0.0
  0
LINE
  5
AA
330
1F
100
AcDbEntity
  8
IGES_LEVEL_0
 62
     7
100
AcDbLine
 10
37.41494877352688
 20
26.25800351043099
 30
0.0
 11
37.43578177352688
 21
25.25822051043098
 31
0.0
  0
LINE
  5
AB
330
1F
100
AcDbEntity
  8
IGES_LEVEL_0
 62
     7
100
AcDbLine
 10
53.41513377352688
 20
1.008111510430983
 30
0.0
 11
35.66513377352688
 21
1.008111510430983
 31
0.0
  0
LINE
  5
AC
330
1F
100
AcDbEntity
  8
IGES_LEVEL_0
 62
     7
100
AcDbLine
 10
53.41513377352688
 20
0.0081115104309827
 30
0.0
 11
35.66513377352688
 21
0.0081115104309827
 31
0.0
  0
ARC
  5
AD
330
1F
100
AcDbEntity
  8
IGES_LEVEL_0
 62
     7
100
AcDbCircle
 10
36.03277492346119
 20
33.75455764901557
 30
0.0
 40
0.5061983315357853
100
AcDbArc
 50
98.24372729895934
 51
107.407139103297
  0
LINE
  5
AE
330
1F
100
AcDbEntity
  8
IGES_LEVEL_0
 62
     7
100
AcDbLine
 10
35.89205327172689
 20
34.25387955027098
 30
0.0
 11
35.89188916297689
 21
34.25386576861099
 31
0.0
  0
SPLINE
  5
AF
330
1F
100
AcDbEntity
  8
IGES_LEVEL_0
 62
     7
100
AcDbSpline
210
0.0
220
0.0
230
1.0
 70
     8
 71
     3
 72
    28
 73
    24
 74
     0
 42
0.0000000001
 43
0.0000000001
 40
0.0
 40
0.0
 40
0.0
 40
0.0
 40
0.06714232265119
 40
0.1378201624857
 40
0.2099394211308
 40
0.2826009599489
 40
0.3539230298181
 40
0.4215728683723
 40
0.4815433419359
 40
0.5309625071009
 40
0.5690447916211
 40
0.5957852021151
 40
0.6118001558039
 40
0.617097925157
 40
0.6223937414076
 40
0.6384070460747
 40
0.665146061476
 40
0.7032332493513001
 40
0.7526512530128
 40
0.8126209089959
 40
0.8802615020322
 40
0.9515775642804
 40
1.0
 40
1.0
 40
1.0
 40
1.0
 10
21.86206395419363
 20
16.25811165859498
 30
0.0
 10
21.86206395419363
 20
16.27028197449198
 30
0.0
 10
21.86088882126663
 20
16.29527838787498
 30
0.0
 10
21.85553487125863
 20
16.33300746748098
 30
0.0
 10
21.84659240947864
 20
16.37107330700398
 30
0.0
 10
21.83459887168863
 20
16.40840311798499
 30
0.0
 10
21.82041075822563
 20
16.44406155942899
 30
0.0
 10
21.80523655279363
 20
16.47681905002099
 30
0.0
 10
21.79056782276264
 20
16.50527582309898
 30
0.0
 10
21.77745604632263
 20
16.52883975301699
 30
0.0
 10
21.76731244177163
 20
16.54621469764398
 30
0.0
 10
21.75903338016063
 20
16.55986326802098
 30
0.0
 10
21.75566551439464
 20
16.56534115704898
 30
0.0
 10
21.75155891338963
 20
16.57192146062299
 30
0.0
 10
21.75566465201764
 20
16.56534254104698
 30
0.0
 10
21.75903254647763
 20
16.55986463434799
 30
0.0
 10
21.76731161089063
 20
16.54621610230499
 30
0.0
 10
21.77745550475164
 20
16.52884072099299
 30
0.0
 10
21.79056751546863
 20
16.50527638216198
 30
0.0
 10
21.80523535526464
 20
16.47682141033998
 30
0.0
 10
21.82040847764964
 20
16.44406664691199
 30
0.0
 10
21.83297093823164
 20
16.41249501459798
 30
0.0
 10
21.83984933913663
 20
16.39189705256099
 30
0.0
 10
21.84241724397764
 20
16.38350167555998
 30
0.0
  0
SPLINE
  5
B0
330
1F
100
AcDbEntity
  8
IGES_LEVEL_0
 62
     7
100
AcDbSpline
210
0.0
220
0.0
230
1.0
 70
     8
 71
     3
 72
    28
 73
    24
 74
     0
 42
0.0000000001
 43
0.0000000001
 40
0.0
 40
0.0
 40
0.0
 40
0.0
 40
0.06714232265119
 40
0.1378201624857
 40
0.2099394211308
 40
0.2826009599489
 40
0.3539230298181
 40
0.4215728683723
 40
0.4815433419359
 40
0.5309625071009
 40
0.5690447916211
 40
0.5957852021151
 40
0.6118001558039
 40
0.617097925157
 40
0.6223937414076
 40
0.6384070460747
 40
0.665146061476
 40
0.7032332493513001
 40
0.7526512530128
 40
0.8126209089959
 40
0.8802615020322
 40
0.9515775642804
 40
1.0
 40
1.0
 40
1.0
 40
1.0
 10
21.86206395419363
 20
16.25811165859498
 30
0.0
 10
21.86206395419363
 20
16.24594134269799
 30
0.0
 10
21.86088882126663
 20
16.22094492931499
 30
0.0
 10
21.85553487125863
 20
16.18321584970899
 30
0.0
 10
21.84659240947864
 20
16.14515001018599
 30
0.0
 10
21.83459887168863
 20
16.10782019920498
 30
0.0
 10
21.82041075822563
 20
16.07216175776098
 30
0.0
 10
21.80523655279363
 20
16.03940426716898
 30
0.0
 10
21.79056782276264
 20
16.01094749409099
 30
0.0
 10
21.77745604632263
 20
15.98738356417298
 30
0.0
 10
21.76731244177163
 20
15.97000861954599
 30
0.0
 10
21.75903338016063
 20
15.95636004916899
 30
0.0
 10
21.75566551439464
 20
15.95088216014099
 30
0.0
 10
21.75155891338963
 20
15.94430185656698
 30
0.0
 10
21.75566465201764
 20
15.95088077614298
 30
0.0
 10
21.75903254647763
 20
15.95635868284198
 30
0.0
 10
21.76731161089063
 20
15.97000721488498
 30
0.0
 10
21.77745550475164
 20
15.98738259619698
 30
0.0
 10
21.79056751546863
 20
16.01094693502798
 30
0.0
 10
21.80523535526464
 20
16.03940190684999
 30
0.0
 10
21.82040847764964
 20
16.07215667027798
 30
0.0
 10
21.83297093823164
 20
16.10372830259199
 30
0.0
 10
21.83984933913663
 20
16.12432626462898
 30
0.0
 10
21.84241724397764
 20
16.13272164162999
 30
0.0
  0
SPLINE
  5
B1
330
1F
100
AcDbEntity
  8
IGES_LEVEL_0
 62
     7
100
AcDbSpline
210
0.0
220
0.0
230
1.0
 70
     8
 71
     3
 72
    28
 73
    24
 74
     0
 42
0.0000000001
 43
0.0000000001
 40
0.0
 40
0.0
 40
0.0
 40
0.0
 40
0.06714232265119
 40
0.1378201624857
 40
0.2099394211308
 40
0.2826009599489
 40
0.3539230298181
 40
0.4215728683723
 40
0.4815433419359
 40
0.5309625071009
 40
0.5690447916211
 40
0.5957852021151
 40
0.6118001558039
 40
0.617097925157
 40
0.6223937414076
 40
0.6384070460747
 40
0.665146061476
 40
0.7032332493513001
 40
0.7526512530128
 40
0.8126209089959
 40
0.8802615020322
 40
0.9515775642804
 40
1.0
 40
1.0
 40
1.0
 40
1.0
 10
0.8920644411616354
 20
16.25811165859498
 30
0.0
 10
0.8920644411616354
 20
16.24594134269799
 30
0.0
 10
0.8932395740886354
 20
16.22094492931499
 30
0.0
 10
0.8985935240966361
 20
16.18321584970899
 30
0.0
 10
0.9075359858766354
 20
16.14515001018599
 30
0.0
 10
0.9195295236666359
 20
16.10782019920498
 30
0.0
 10
0.9337176371296356
 20
16.07216175776098
 30
0.0
 10
0.948891842561636
 20
16.03940426716898
 30
0.0
 10
0.9635605725926355
 20
16.01094749409099
 30
0.0
 10
0.9766723490326361
 20
15.98738356417298
 30
0.0
 10
0.9868159535836358
 20
15.97000861954599
 30
0.0
 10
0.9950950151946356
 20
15.95636004916899
 30
0.0
 10
0.9984628809606357
 20
15.95088216014099
 30
0.0
 10
1.002569481965635
 20
15.94430185656698
 30
0.0
 10
0.9984637433376358
 20
15.95088077614298
 30
0.0
 10
0.9950958488776356
 20
15.95635868284198
 30
0.0
 10
0.9868167844646354
 20
15.97000721488498
 30
0.0
 10
0.9766728906036357
 20
15.98738259619698
 30
0.0
 10
0.9635608798866355
 20
16.01094693502798
 30
0.0
 10
0.9488930400906355
 20
16.03940190684999
 30
0.0
 10
0.9337199177056357
 20
16.07215667027798
 30
0.0
 10
0.9211574571236356
 20
16.10372830259199
 30
0.0
 10
0.9142790562186354
 20
16.12432626462898
 30
0.0
 10
0.9117111513776359
 20
16.13272164162999
 30
0.0
  0
LINE
  5
B2
330
1F
100
AcDbEntity
  8
IGES_LEVEL_0
 62
     7
100
AcDbLine
 10
0.5020641976776357
 20
0.0081115104309827
 30
0.0
 11
3.931752197677636
 21
0.0081115104309827
 31
0.0
  0
LINE
  5
B3
330
1F
100
AcDbEntity
  8
IGES_LEVEL_0
 62
     7
100
AcDbLine
 10
4.072377197677636
 20
0.0081115104309827
 30
0.0
 11
18.68175219767764
 21
0.0081115104309827
 31
0.0
  0
LINE
  5
B4
330
1F
100
AcDbEntity
  8
IGES_LEVEL_0
 62
     7
100
AcDbLine
 10
18.82237719767764
 20
0.0081115104309827
 30
0.0
 11
22.25206419767763
 21
0.0081115104309827
 31
0.0
  0
LINE
  5
B5
330
1F
100
AcDbEntity
  8
IGES_LEVEL_0
 62
     7
100
AcDbLine
 10
1.002064197677636
 20
1.008111510430983
 30
0.0
 11
21.75206419767764
 21
1.008111510430983
 31
0.0
  0
LINE
  5
B6
330
1F
100
AcDbEntity
  8
IGES_LEVEL_0
 62
     7
100
AcDbLine
 10
0.0020641976776356
 20
26.00811151043099
 30
0.0
 11
0.0020641976776356
 21
0.5081115104309824
 31
0.0
  0
LINE
  5
B7
330
1F
100
AcDbEntity
  8
IGES_LEVEL_0
 62
     7
100
AcDbLine
 10
1.002064197677636
 20
26.00811151043099
 30
0.0
 11
1.002064197677636
 21
16.57061151043099
 31
0.0
  0
LINE
  5
B8
330
1F
100
AcDbEntity
  8
IGES_LEVEL_0
 62
     7
100
AcDbLine
 10
1.002064197677636
 20
15.94561151043099
 30
0.0
 11
1.002064197677636
 21
0.5081115104309824
 31
0.0
  0
LINE
  5
B9
330
1F
100
AcDbEntity
  8
IGES_LEVEL_0
 62
     7
100
AcDbLine
 10
1.481319197677636
 20
33.97193851043099
 30
0.0
 11
1.480912197677636
 21
34.31566351043098
 31
0.0
  0
LINE
  5
BA
330
1F
100
AcDbEntity
  8
IGES_LEVEL_0
 62
     7
100
AcDbLine
 10
1.491650197677636
 20
24.92357251043098
 30
0.0
 11
1.498846197677636
 21
18.55718551043098
 31
0.0
  0
LINE
  5
BB
330
1F
100
AcDbEntity
  8
IGES_LEVEL_0
 62
     7
100
AcDbLine
 10
1.502649197677636
 20
15.19279251043098
 30
0.0
 11
1.502956197677636
 21
14.92115951043098
 31
0.0
  0
LINE
  5
BC
330
1F
100
AcDbEntity
  8
IGES_LEVEL_0
 62
     7
100
AcDbLine
 10
1.491650197677636
 20
24.92357251043098
 30
0.0
 11
1.488741197677636
 21
27.48283551043098
 31
0.0
  0
LINE
  5
BD
330
1F
100
AcDbEntity
  8
IGES_LEVEL_0
 62
     7
100
AcDbLine
 10
1.481319197677636
 20
33.97193851043099
 30
0.0
 11
1.488741197677636
 21
27.48283551043098
 31
0.0
  0
LINE
  5
BE
330
1F
100
AcDbEntity
  8
IGES_LEVEL_0
 62
     7
100
AcDbLine
 10
1.503498197677635
 20
14.42497251043098
 30
0.0
 11
1.502956197677636
 21
14.92115951043098
 31
0.0
  0
LINE
  5
BF
330
1F
100
AcDbEntity
  8
IGES_LEVEL_0
 62
     7
100
AcDbLine
 10
1.502064197677636
 20
18.55718951043098
 30
0.0
 11
1.502064197677636
 21
15.19163851043098
 31
0.0
  0
LINE
  5
C0
330
1F
100
AcDbEntity
  8
IGES_LEVEL_0
 62
     7
100
AcDbLine
 10
1.503498197677635
 20
14.41249051043099
 30
0.0
 11
1.503498197677635
 21
14.42497251043098
 31
0.0
  0
LINE
  5
C1
330
1F
100
AcDbEntity
  8
IGES_LEVEL_0
 62
     7
100
AcDbLine
 10
1.690191197677635
 20
15.80886451043098
 30
0.0
 11
21.06393719767764
 21
15.80886451043098
 31
0.0
  0
LINE
  5
C2
330
1F
100
AcDbEntity
  8
IGES_LEVEL_0
 62
     7
100
AcDbLine
 10
1.502064197677636
 20
15.94561151043099
 30
0.0
 11
1.002064197677636
 21
15.94561151043099
 31
0.0
  0
LINE
  5
C3
330
1F
100
AcDbEntity
  8
IGES_LEVEL_0
 62
     7
100
AcDbLine
 10
21.25206419767764
 20
15.94561151043099
 30
0.0
 11
21.75206419767764
 21
15.94561151043099
 31
0.0
  0
LINE
  5
C4
330
1F
100
AcDbEntity
  8
IGES_LEVEL_0
 62
     7
100
AcDbLine
 10
1.502064197677636
 20
16.57061151043099
 30
0.0
 11
1.001752197677636
 21
16.57061151043099
 31
0.0
  0
LINE
  5
C5
330
1F
100
AcDbEntity
  8
IGES_LEVEL_0
 62
     7
100
AcDbLine
 10
21.25206419767764
 20
16.57061151043099
 30
0.0
 11
21.75237719767764
 21
16.57061151043099
 31
0.0
  0
LINE
  5
C6
330
1F
100
AcDbEntity
  8
IGES_LEVEL_0
 62
     7
100
AcDbLine
 10
1.502064197677636
 20
18.55718951043098
 30
0.0
 11
21.25206419767764
 21
18.55718951043098
 31
0.0
  0
LINE
  5
C7
330
1F
100
AcDbEntity
  8
IGES_LEVEL_0
 62
     7
100
AcDbLine
 10
1.491018197677636
 20
25.43857351043098
 30
0.0
 11
1.002064197677636
 21
25.43802151043099
 31
0.0
  0
LINE
  5
C8
330
1F
100
AcDbEntity
  8
IGES_LEVEL_0
 62
     7
100
AcDbLine
 10
21.24600519767764
 20
25.46123651043099
 30
0.0
 11
21.75206419767764
 21
25.46180951043099
 31
0.0
  0
LINE
  5
C9
330
1F
100
AcDbEntity
  8
IGES_LEVEL_0
 62
     7
100
AcDbLine
 10
1.490312197677636
 20
26.06357351043098
 30
0.0
 11
0.9990531976776358
 21
26.06301851043099
 31
0.0
  0
LINE
  5
CA
330
1F
100
AcDbEntity
  8
IGES_LEVEL_0
 62
     7
100
AcDbLine
 10
21.24529919767764
 20
26.08623651043099
 30
0.0
 11
21.75884519767763
 21
26.08681751043098
 31
0.0
  0
LINE
  5
CB
330
1F
100
AcDbEntity
  8
IGES_LEVEL_0
 62
     7
100
AcDbLine
 10
21.23089919767763
 20
34.33799451043099
 30
0.0
 11
21.23130619767764
 21
33.99426851043099
 31
0.0
  0
LINE
  5
CC
330
1F
100
AcDbEntity
  8
IGES_LEVEL_0
 62
     7
100
AcDbLine
 10
21.25294419767763
 20
14.94348951043098
 30
0.0
 11
21.25266219767763
 21
15.19279251043098
 31
0.0
  0
LINE
  5
CD
330
1F
100
AcDbEntity
  8
IGES_LEVEL_0
 62
     7
100
AcDbLine
 10
21.24885919767764
 20
18.55718551043098
 30
0.0
 11
21.24163719767764
 21
24.94590351043098
 31
0.0
  0
LINE
  5
CE
330
1F
100
AcDbEntity
  8
IGES_LEVEL_0
 62
     7
100
AcDbLine
 10
21.23872819767763
 20
27.50516551043098
 30
0.0
 11
21.24163719767764
 21
24.94590351043098
 31
0.0
  0
LINE
  5
CF
330
1F
100
AcDbEntity
  8
IGES_LEVEL_0
 62
     7
100
AcDbLine
 10
21.23872819767763
 20
27.50516551043098
 30
0.0
 11
21.23130619767764
 21
33.99426851043099
 31
0.0
  0
LINE
  5
D0
330
1F
100
AcDbEntity
  8
IGES_LEVEL_0
 62
     7
100
AcDbLine
 10
21.25294419767763
 20
14.94348951043098
 30
0.0
 11
21.25348619767764
 21
14.44730351043098
 31
0.0
  0
LINE
  5
D1
330
1F
100
AcDbEntity
  8
IGES_LEVEL_0
 62
     7
100
AcDbLine
 10
21.24529919767764
 20
26.08623651043099
 30
0.0
 11
21.24600519767764
 21
25.46123651043099
 31
0.0
  0
LINE
  5
D2
330
1F
100
AcDbEntity
  8
IGES_LEVEL_0
 62
     7
100
AcDbLine
 10
21.25206419767764
 20
18.55718951043098
 30
0.0
 11
21.25206419767764
 21
15.19163851043098
 31
0.0
  0
LINE
  5
D3
330
1F
100
AcDbEntity
  8
IGES_LEVEL_0
 62
     7
100
AcDbLine
 10
21.75206419767764
 20
0.5081115104309827
 30
0.0
 11
21.75206419767764
 21
15.94561151043099
 31
0.0
  0
LINE
  5
D4
330
1F
100
AcDbEntity
  8
IGES_LEVEL_0
 62
     7
100
AcDbLine
 10
21.75206419767764
 20
16.57061151043099
 30
0.0
 11
21.75206419767764
 21
26.00811151043099
 31
0.0
  0
LINE
  5
D5
330
1F
100
AcDbEntity
  8
IGES_LEVEL_0
 62
     7
100
AcDbLine
 10
21.25348619767764
 20
14.44730351043098
 30
0.0
 11
21.25348519767763
 21
14.43482151043098
 31
0.0
  0
LINE
  5
D6
330
1F
100
AcDbEntity
  8
IGES_LEVEL_0
 62
     7
100
AcDbLine
 10
22.75206419767763
 20
0.5081115104309827
 30
0.0
 11
22.75206419767763
 21
26.00811151043099
 31
0.0
  0
ARC
  5
D7
330
1F
100
AcDbEntity
  8
IGES_LEVEL_0
 62
     7
100
AcDbCircle
 10
22.24597119767763
 20
25.77486751043098
 30
0.0
 40
0.5000002362484384
100
AcDbArc
 50
171.053281804564
 51
188.9444007864003
  0
ARC
  5
D8
330
1F
100
AcDbEntity
  8
IGES_LEVEL_0
 62
     7
100
AcDbCircle
 10
22.25206419767763
 20
26.00903451043098
 30
0.0
 40
0.4999999999999991
100
AcDbArc
 50
0.0
 51
180.0
  0
ARC
  5
D9
330
1F
100
AcDbEntity
  8
IGES_LEVEL_0
 62
     7
100
AcDbCircle
 10
22.25206419767763
 20
0.5081115104309827
 30
0.0
 40
0.4999999999999991
100
AcDbArc
 50
180.0
 51
360.0
  0
ARC
  5
DA
330
1F
100
AcDbEntity
  8
IGES_LEVEL_0
 62
     7
100
AcDbCircle
 10
0.5020641976776357
 20
26.00903451043098
 30
0.0
 40
0.5
100
AcDbArc
 50
0.0
 51
180.0
  0
ARC
  5
DB
330
1F
100
AcDbEntity
  8
IGES_LEVEL_0
 62
     7
100
AcDbCircle
 10
0.5020641976776357
 20
0.5081115104309827
 30
0.0
 40
0.5
100
AcDbArc
 50
180.0
 51
360.0
  0
SPLINE
  5
DC
330
1F
100
AcDbEntity
  8
IGES_LEVEL_0
 62
     7
100
AcDbSpline
210
0.0
220
0.0
230
1.0
 70
     8
 71
     3
 72
    28
 73
    24
 74
     0
 42
0.0000000001
 43
0.0000000001
 40
0.0
 40
0.0
 40
0.0
 40
0.0
 40
0.06714232265119
 40
0.1378201624857
 40
0.2099394211308
 40
0.2826009599489
 40
0.3539230298181
 40
0.4215728683723
 40
0.4815433419359
 40
0.5309625071009
 40
0.5690447916211
 40
0.5957852021151
 40
0.6118001558039
 40
0.617097925157
 40
0.6223937414076
 40
0.6384070460747
 40
0.665146061476
 40
0.7032332493513001
 40
0.7526512530128
 40
0.8126209089959
 40
0.8802615020322
 40
0.9515775642804
 40
1.0
 40
1.0
 40
1.0
 40
1.0
 10
0.8920644411616354
 20
16.25811165859498
 30
0.0
 10
0.8920644411616354
 20
16.27028197449198
 30
0.0
 10
0.8932395740886354
 20
16.29527838787498
 30
0.0
 10
0.8985935240966361
 20
16.33300746748098
 30
0.0
 10
0.9075359858766354
 20
16.37107330700398
 30
0.0
 10
0.9195295236666359
 20
16.40840311798499
 30
0.0
 10
0.9337176371296356
 20
16.44406155942899
 30
0.0
 10
0.948891842561636
 20
16.47681905002099
 30
0.0
 10
0.9635605725926355
 20
16.50527582309898
 30
0.0
 10
0.9766723490326361
 20
16.52883975301699
 30
0.0
 10
0.9868159535836358
 20
16.54621469764398
 30
0.0
 10
0.9950950151946356
 20
16.55986326802098
 30
0.0
 10
0.9984628809606357
 20
16.56534115704898
 30
0.0
 10
1.002569481965635
 20
16.57192146062299
 30
0.0
 10
0.9984637433376358
 20
16.56534254104698
 30
0.0
 10
0.9950958488776356
 20
16.55986463434799
 30
0.0
 10
0.9868167844646354
 20
16.54621610230499
 30
0.0
 10
0.9766728906036357
 20
16.52884072099299
 30
0.0
 10
0.9635608798866355
 20
16.50527638216198
 30
0.0
 10
0.9488930400906355
 20
16.47682141033998
 30
0.0
 10
0.9337199177056357
 20
16.44406664691199
 30
0.0
 10
0.9211574571236356
 20
16.41249501459798
 30
0.0
 10
0.9142790562186354
 20
16.39189705256099
 30
0.0
 10
0.9117111513776359
 20
16.38350167555998
 30
0.0
  0
ARC
  5
DD
330
1F
100
AcDbEntity
  8
IGES_LEVEL_0
 62
     7
100
AcDbCircle
 10
1.690717563717376
 20
19.66553301015028
 30
0.0
 40
3.856668304960558
100
AcDbArc
 50
267.1961957715997
 51
269.9921873961062
  0
ARC
  5
DE
330
1F
100
AcDbEntity
  8
IGES_LEVEL_0
 62
     7
100
AcDbCircle
 10
21.06341132112843
 20
19.66553300980201
 30
0.0
 40
3.856668304612285
100
AcDbArc
 50
270.0078126038123
 51
272.8038042285267
  0
ARC
  5
DF
330
1F
100
AcDbEntity
  8
IGES_LEVEL_0
 62
     7
100
AcDbCircle
 10
10.58557298814863
 20
715.6454600285541
 30
0.0
 40
681.3906845346637
100
AcDbArc
 50
269.234397841017
 51
270.8951649829156
  0
LINE
  5
E0
330
1F
100
AcDbEntity
  8
IGES_LEVEL_0
 62
     7
100
AcDbLine
 10
1.503498141626636
 20
14.41253799792898
 30
0.0
 11
21.25348550230764
 21
14.43486830697398
 31
0.0
  0
SPLINE
  5
E1
330
1F
100
AcDbEntity
  8
IGES_LEVEL_0
 62
     7
100
AcDbSpline
210
0.0
220
0.0
230
1.0
 70
     8
 71
     3
 72
    11
 73
     7
 74
     0
 42
0.0000000001
 43
0.0000000001
 40
0.0
 40
0.0
 40
0.0
 40
0.0
 40
0.1454446403761
 40
0.3660041452191
 40
0.6630681042426
 40
1.0
 40
1.0
 40
1.0
 40
1.0
 10
22.18176444241763
 20
0.200729941700985
 30
0.0
 10
22.18176444241763
 20
0.2045273570209826
 30
0.0
 10
22.18811231836763
 20
0.2134590860009847
 30
0.0
 10
22.20470208497763
 20
0.219162982180983
 30
0.0
 10
22.22666980217764
 20
0.2231655111209857
 30
0.0
 10
22.24326748476764
 20
0.223885315110984
 30
0.0
 10
22.25206444241763
 20
0.223885315110984
 30
0.0
  0
ARC
  5
E2
330
1F
100
AcDbEntity
  8
IGES_LEVEL_0
 62
     7
100
AcDbCircle
 10
22.25386263386503
 20
0.0132790195698257
 30
0.0
 40
0.2106139720295195
100
AcDbArc
 50
81.00448752357204
 51
90.4891889719085
  0
ARC
  5
E3
330
1F
100
AcDbEntity
  8
IGES_LEVEL_0
 62
     7
100
AcDbCircle
 10
22.28005203632741
 20
0.1542236097433631
 30
0.0
 40
0.0674168756358284
100
AcDbArc
 50
56.78729313911521
 51
84.2609138391786
  0
ARC
  5
E4
330
1F
100
AcDbEntity
  8
IGES_LEVEL_0
 62
     7
100
AcDbCircle
 10
22.30821218581564
 20
0.1994438151339004
 30
0.0
 40
0.0142105766411927
100
AcDbArc
 50
5.192653258873964
 51
51.90549933337765
  0
LINE
  5
E5
330
1F
100
AcDbEntity
  8
IGES_LEVEL_0
 62
     7
100
AcDbLine
 10
18.68175194241763
 20
0.0081116585909843
 30
0.0
 11
18.68868982121763
 21
0.0090400255109845
 31
0.0
  0
ARC
  5
E6
330
1F
100
AcDbEntity
  8
IGES_LEVEL_0
 62
     7
100
AcDbCircle
 10
18.75206444238357
 20
-0.4860125116045648
 30
0.0
 40
0.4990925336172326
100
AcDbArc
 50
82.70490451073245
 51
97.29509548022612
  0
LINE
  5
E7
330
1F
100
AcDbEntity
  8
IGES_LEVEL_0
 62
     7
100
AcDbLine
 10
18.81543906362763
 20
0.0090400255009836
 30
0.0
 11
18.82237694241763
 21
0.0081116585909843
 31
0.0
  0
LINE
  5
E8
330
1F
100
AcDbEntity
  8
IGES_LEVEL_0
 62
     7
100
AcDbLine
 10
3.931751942419635
 20
0.0081116585909843
 30
0.0
 11
3.938689821212635
 21
0.0090400255109845
 31
0.0
  0
ARC
  5
E9
330
1F
100
AcDbEntity
  8
IGES_LEVEL_0
 62
     7
100
AcDbCircle
 10
4.002064442379575
 20
-0.4860125116202853
 30
0.0
 40
0.4990925336329529
100
AcDbArc
 50
82.70490451084743
 51
97.29509548011099
  0
LINE
  5
EA
330
1F
100
AcDbEntity
  8
IGES_LEVEL_0
 62
     7
100
AcDbLine
 10
4.065439063624636
 20
0.0090400255009836
 30
0.0
 11
4.072376942419636
 21
0.0081116585909843
 31
0.0
  0
ARC
  5
EB
330
1F
100
AcDbEntity
  8
IGES_LEVEL_0
 62
     7
100
AcDbCircle
 10
22.25137281399888
 20
0.2969705378906514
 30
0.0
 40
0.1278374129340152
100
AcDbArc
 50
254.7499865215067
 51
270.3099842354272
  0
SPLINE
  5
EC
330
1F
100
AcDbEntity
  8
IGES_LEVEL_0
 62
     7
100
AcDbSpline
210
0.0
220
0.0
230
1.0
 70
     8
 71
     3
 72
    10
 73
     6
 74
     0
 42
0.0000000001
 43
0.0000000001
 40
0.0
 40
0.0
 40
0.0
 40
0.0
 40
0.3282076751666
 40
0.731645262741
 40
1.0
 40
1.0
 40
1.0
 40
1.0
 10
22.21774755500763
 20
0.173634630290984
 30
0.0
 10
22.21276665013764
 20
0.1750242923409825
 30
0.0
 10
22.20188694538764
 20
0.1788851330409859
 30
0.0
 10
22.18819624359763
 20
0.1866595102509837
 30
0.0
 10
22.18176444241763
 20
0.1965142181609852
 30
0.0
 10
22.18176444241763
 20
0.200729941700985
 30
0.0
  0
SPLINE
  5
ED
330
1F
100
AcDbEntity
  8
IGES_LEVEL_0
 62
     7
100
AcDbSpline
210
0.0
220
0.0
230
1.0
 70
     8
 71
     3
 72
    11
 73
     7
 74
     0
 42
0.0000000001
 43
0.0000000001
 40
0.0
 40
0.0
 40
0.0
 40
0.0
 40
0.1557860827182
 40
0.3864071916239
 40
0.6793496909273
 40
1.0
 40
1.0
 40
1.0
 40
1.0
 10
22.32236444241763
 20
0.200729941700985
 30
0.0
 10
22.32236444241763
 20
0.196483543590983
 30
0.0
 10
22.31590718969763
 20
0.1866583927909854
 30
0.0
 10
22.29978869303763
 20
0.1774931865309849
 30
0.0
 10
22.27757723027763
 20
0.170652258400985
 30
0.0
 10
22.26080468957763
 20
0.169134995900983
 30
0.0
 10
22.25206444241763
 20
0.169134995900983
 30
0.0
  0
ENDSEC
  0
SECTION
  2
OBJECTS
  0
DICTIONARY
  5
C
330
0
100
AcDbDictionary
  3
ACAD_GROUP
350
D
  3
ACAD_LAYOUT
350
1A
  3
ACAD_MLINESTYLE
350
17
  3
ACAD_PLOTSETTINGS
350
19
  3
ACDBHEADERROUNDTRIPXREC
350
EE
  0
DICTIONARY
  5
10E
330
29
100
AcDbDictionary
280
     1
  3
ACAD_XREC_ROUNDTRIP
360
10F
  0
DICTIONARY
  5
D
102
{ACAD_REACTORS
330
C
102
}
330
C
100
AcDbDictionary
  0
DICTIONARY
  5
1A
102
{ACAD_REACTORS
330
C
102
}
330
C
100
AcDbDictionary
  0
DICTIONARY
  5
17
102
{ACAD_REACTORS
330
C
102
}
330
C
100
AcDbDictionary
  3
STANDARD
350
18
  0
DICTIONARY
  5
19
102
{ACAD_REACTORS
330
C
102
}
330
C
100
AcDbDictionary
  0
DICTIONARY
  5
EE
102
{ACAD_REACTORS
330
C
102
}
330
C
100
AcDbDictionary
  3
CEPSNTYPE
350
F7
  3
DIMSTYLEDATA
350
10D
  3
FINGERPRINTGUID
350
F8
  3
HYPERLINKBASE
350
F1
  3
INSUNITS
350
F6
  3
LAYOUTDICT
350
F3
  3
LWETCUNION
350
F5
  3
PLOTSETDICT
350
F4
  3
PSVPSCALE
350
FA
  3
PUCSBASE
350
FD
  3
PUCSORGBACK
350
103
  3
PUCSORGBOTTOM
350
FF
  3
PUCSORGFRONT
350
102
  3
PUCSORGLEFT
350
100
  3
PUCSORGRIGHT
350
101
  3
PUCSORGTOP
350
FE
  3
PUCSORTHOREF
350
FB
  3
PUCSORTHOVIEW
350
FC
  3
STYLESHEET
350
F2
  3
TSTACKALIGN
350
EF
  3
TSTACKSIZE
350
F0
  3
UCSBASE
350
106
  3
UCSORGBACK
350
10C
  3
UCSORGBOTTOM
350
108
  3
UCSORGFRONT
350
10B
  3
UCSORGLEFT
350
109
  3
UCSORGRIGHT
350
10A
  3
UCSORGTOP
350
107
  3
UCSORTHOREF
350
104
  3
UCSORTHOVIEW
350
105
  3
VERSIONGUID
350
F9
  0
XRECORD
  5
10F
102
{ACAD_REACTORS
330
10E
102
}
330
10E
100
AcDbXrecord
102
UCS
 74
     0
 71
     1
 10
0.0
 20
0.0
 30
0.0
 10
1.0
 20
0.0
 30
0.0
 10
0.0
 20
1.0
 30
0.0
146
0.0
 79
     0
102
VIEW
281
     0
  0
MLINESTYLE
  5
18
102
{ACAD_REACTORS
330
17
102
}
330
17
100
AcDbMlineStyle
  2
Standard
 70
     0
  3

 62
   256
 51
90.0
 52
90.0
 71
     2
 49
0.5
 62
   256
  6
BYLAYER
 49
-0.5
 62
   256
  6
BYLAYER
  0
XRECORD
  5
F7
102
{ACAD_REACTORS
330
EE
102
}
330
EE
100
AcDbXrecord
 90
        0
  0
XRECORD
  5
10D
102
{ACAD_REACTORS
330
EE
102
}
330
EE
100
AcDbXrecord
1000
DSTYLE
1002
{
1070
   340
340
11
1002
}
  0
XRECORD
  5
F8
102
{ACAD_REACTORS
330
EE
102
}
330
EE
100
AcDbXrecord
  1
{FAEB1C30-E019-11D5-929B-00C0DF256EC4}
  0
XRECORD
  5
F1
102
{ACAD_REACTORS
330
EE
102
}
330
EE
100
AcDbXrecord
  1

  0
XRECORD
  5
F6
102
{ACAD_REACTORS
330
EE
102
}
330
EE
100
AcDbXrecord
 90
        1
  0
XRECORD
  5
F3
102
{ACAD_REACTORS
330
EE
102
}
330
EE
100
AcDbXrecord
340
1A
  0
XRECORD
  5
F5
102
{ACAD_REACTORS
330
EE
102
}
330
EE
100
AcDbXrecord
 90
     2560
  0
XRECORD
  5
F4
102
{ACAD_REACTORS
330
EE
102
}
330
EE
100
AcDbXrecord
340
19
  0
XRECORD
  5
FA
102
{ACAD_REACTORS
330
EE
102
}
330
EE
100
AcDbXrecord
 40
0.0
  0
XRECORD
  5
FD
102
{ACAD_REACTORS
330
EE
102
}
330
EE
100
AcDbXrecord
340
0
  0
XRECORD
  5
103
102
{ACAD_REACTORS
330
EE
102
}
330
EE
100
AcDbXrecord
 10
0.0
 20
0.0
 30
0.0
  0
XRECORD
  5
FF
102
{ACAD_REACTORS
330
EE
102
}
330
EE
100
AcDbXrecord
 10
0.0
 20
0.0
 30
0.0
  0
XRECORD
  5
102
102
{ACAD_REACTORS
330
EE
102
}
330
EE
100
AcDbXrecord
 10
0.0
 20
0.0
 30
0.0
  0
XRECORD
  5
100
102
{ACAD_REACTORS
330
EE
102
}
330
EE
100
AcDbXrecord
 10
0.0
 20
0.0
 30
0.0
  0
XRECORD
  5
101
102
{ACAD_REACTORS
330
EE
102
}
330
EE
100
AcDbXrecord
 10
0.0
 20
0.0
 30
0.0
  0
XRECORD
  5
FE
102
{ACAD_REACTORS
330
EE
102
}
330
EE
100
AcDbXrecord
 10
0.0
 20
0.0
 30
0.0
  0
XRECORD
  5
FB
102
{ACAD_REACTORS
330
EE
102
}
330
EE
100
AcDbXrecord
340
0
  0
XRECORD
  5
FC
102
{ACAD_REACTORS
330
EE
102
}
330
EE
100
AcDbXrecord
 70
     0
  0
XRECORD
  5
F2
102
{ACAD_REACTORS
330
EE
102
}
330
EE
100
AcDbXrecord
  1

  0
XRECORD
  5
EF
102
{ACAD_REACTORS
330
EE
102
}
330
EE
100
AcDbXrecord
 90
        1
  0
XRECORD
  5
F0
102
{ACAD_REACTORS
330
EE
102
}
330
EE
100
AcDbXrecord
 90
       70
  0
XRECORD
  5
106
102
{ACAD_REACTORS
330
EE
102
}
330
EE
100
AcDbXrecord
340
0
  0
XRECORD
  5
10C
102
{ACAD_REACTORS
330
EE
102
}
330
EE
100
AcDbXrecord
 10
0.0
 20
0.0
 30
0.0
  0
XRECORD
  5
108
102
{ACAD_REACTORS
330
EE
102
}
330
EE
100
AcDbXrecord
 10
0.0
 20
0.0
 30
0.0
  0
XRECORD
  5
10B
102
{ACAD_REACTORS
330
EE
102
}
330
EE
100
AcDbXrecord
 10
0.0
 20
0.0
 30
0.0
  0
XRECORD
  5
109
102
{ACAD_REACTORS
330
EE
102
}
330
EE
100
AcDbXrecord
 10
0.0
 20
0.0
 30
0.0
  0
XRECORD
  5
10A
102
{ACAD_REACTORS
330
EE
102
}
330
EE
100
AcDbXrecord
 10
0.0
 20
0.0
 30
0.0
  0
XRECORD
  5
107
102
{ACAD_REACTORS
330
EE
102
}
330
EE
100
AcDbXrecord
 10
0.0
 20
0.0
 30
0.0
  0
XRECORD
  5
104
102
{ACAD_REACTORS
330
EE
102
}
330
EE
100
AcDbXrecord
340
0
  0
XRECORD
  5
105
102
{ACAD_REACTORS
330
EE
102
}
330
EE
100
AcDbXrecord
 70
     0
  0
XRECORD
  5
F9
102
{ACAD_REACTORS
330
EE
102
}
330
EE
100
AcDbXrecord
  1
{FAEB1C32-E019-11D5-929B-00C0DF256EC4}
  0
ENDSEC
  0
EOF
