  0
SECTION
  2
HEADER
  9
$ACADVER
  1
AC1009
  9
$DWGCODEPAGE
  3
ansi_1252
  9
$INSBASE
 10
0.0
 20
0.0
 30
0.0
  9
$EXTMIN
 10
0.0020641976776355
 20
0.0081115101458917
 30
0.0
  9
$EXTMAX
 10
57.58744977352688
 20
69.17450345428861
 30
5.998853047385
  9
$LIMMIN
 10
0.0
 20
0.0
  9
$LIMMAX
 10
12.0
 20
9.0
  9
$ORTHOMODE
 70
     0
  9
$REGENMODE
 70
     1
  9
$FILLMODE
 70
     1
  9
$QTEXTMODE
 70
     0
  9
$MIRRTEXT
 70
     1
  9
$DRAGMODE
 70
     2
  9
$LTSCALE
 40
1.0
  9
$OSMODE
 70
    37
  9
$ATTMODE
 70
     1
  9
$TEXTSIZE
 40
0.2
  9
$TRACEWID
 40
0.05
  9
$TEXTSTYLE
  7
STANDARD
  9
$CLAYER
  8
DEFAULT
  9
$CELTYPE
  6
BYLAYER
  9
$CECOLOR
 62
   256
  9
$DIMSCALE
 40
1.0
  9
$DIMASZ
 40
0.18
  9
$DIMEXO
 40
0.0625
  9
$DIMDLI
 40
0.38
  9
$DIMRND
 40
0.0
  9
$DIMDLE
 40
0.0
  9
$DIMEXE
 40
0.18
  9
$DIMTP
 40
0.0
  9
$DIMTM
 40
0.0
  9
$DIMTXT
 40
0.18
  9
$DIMCEN
 40
0.09
  9
$DIMTSZ
 40
0.0
  9
$DIMTOL
 70
     0
  9
$DIMLIM
 70
     0
  9
$DIMTIH
 70
     1
  9
$DIMTOH
 70
     1
  9
$DIMSE1
 70
     0
  9
$DIMSE2
 70
     0
  9
$DIMTAD
 70
     0
  9
$DIMZIN
 70
     0
  9
$DIMBLK
  1

  9
$DIMASO
 70
     1
  9
$DIMSHO
 70
     1
  9
$DIMPOST
  1

  9
$DIMAPOST
  1

  9
$DIMALT
 70
     0
  9
$DIMALTD
 70
     2
  9
$DIMALTF
 40
25.4
  9
$DIMLFAC
 40
1.0
  9
$DIMTOFL
 70
     0
  9
$DIMTVP
 40
0.0
  9
$DIMTIX
 70
     0
  9
$DIMSOXD
 70
     0
  9
$DIMSAH
 70
     0
  9
$DIMBLK1
  1

  9
$DIMBLK2
  1

  9
$DIMSTYLE
  2
STANDARD
  9
$DIMCLRD
 70
     0
  9
$DIMCLRE
 70
     0
  9
$DIMCLRT
 70
     0
  9
$DIMTFAC
 40
1.0
  9
$DIMGAP
 40
0.09
  9
$LUNITS
 70
     2
  9
$LUPREC
 70
     3
  9
$SKETCHINC
 40
0.1
  9
$FILLETRAD
 40
0.5
  9
$AUNITS
 70
     0
  9
$AUPREC
 70
     0
  9
$MENU
  1
.
  9
$ELEVATION
 40
0.0
  9
$PELEVATION
 40
0.0
  9
$THICKNESS
 40
0.0
  9
$LIMCHECK
 70
     0
  9
$CHAMFERA
 40
0.5
  9
$CHAMFERB
 40
0.5
  9
$SKPOLY
 70
     0
  9
$TDCREATE
 40
2453971.434235532
  9
$TDUPDATE
 40
2453971.475902211
  9
$TDINDWG
 40
0.0000000116
  9
$TDUSRTIMER
 40
0.0000000116
  9
$USRTIMER
 70
     1
  9
$ANGBASE
 50
0.0
  9
$ANGDIR
 70
     0
  9
$PDMODE
 70
     0
  9
$PDSIZE
 40
0.0
  9
$PLINEWID
 40
0.0
  9
$COORDS
 70
     1
  9
$SPLFRAME
 70
     0
  9
$SPLINETYPE
 70
     6
  9
$SPLINESEGS
 70
     8
  9
$ATTDIA
 70
     0
  9
$ATTREQ
 70
     1
  9
$HANDLING
 70
     1
  9
$HANDSEED
  5
178
  9
$SURFTAB1
 70
     6
  9
$SURFTAB2
 70
     6
  9
$SURFTYPE
 70
     6
  9
$SURFU
 70
     6
  9
$SURFV
 70
     6
  9
$UCSNAME
  2

  9
$UCSORG
 10
0.0
 20
0.0
 30
0.0
  9
$UCSXDIR
 10
1.0
 20
0.0
 30
0.0
  9
$UCSYDIR
 10
0.0
 20
1.0
 30
0.0
  9
$PUCSNAME
  2

  9
$PUCSORG
 10
0.0
 20
0.0
 30
0.0
  9
$PUCSXDIR
 10
1.0
 20
0.0
 30
0.0
  9
$PUCSYDIR
 10
0.0
 20
1.0
 30
0.0
  9
$USERI1
 70
     0
  9
$USERI2
 70
     0
  9
$USERI3
 70
     0
  9
$USERI4
 70
     0
  9
$USERI5
 70
     0
  9
$USERR1
 40
0.0
  9
$USERR2
 40
0.0
  9
$USERR3
 40
0.0
  9
$USERR4
 40
0.0
  9
$USERR5
 40
0.0
  9
$WORLDVIEW
 70
     1
  9
$SHADEDGE
 70
     3
  9
$SHADEDIF
 70
    70
  9
$TILEMODE
 70
     1
  9
$MAXACTVP
 70
    64
  9
$PLIMCHECK
 70
     0
  9
$PEXTMIN
 10
1.000000000000000E+20
 20
1.000000000000000E+20
 30
1.000000000000000E+20
  9
$PEXTMAX
 10
-1.000000000000000E+20
 20
-1.000000000000000E+20
 30
-1.000000000000000E+20
  9
$PLIMMIN
 10
0.0
 20
0.0
  9
$PLIMMAX
 10
12.0
 20
9.0
  9
$UNITMODE
 70
     0
  9
$VISRETAIN
 70
     1
  9
$PLINEGEN
 70
     0
  9
$PSLTSCALE
 70
     1
  0
ENDSEC
  0
SECTION
  2
TABLES
  0
TABLE
  2
VPORT
 70
     2
  0
VPORT
  2
*ACTIVE
 70
     0
 10
0.0
 20
0.0
 11
1.0
 21
1.0
 12
28.79475698560226
 22
34.59130748221725
 13
0.0
 23
0.0
 14
0.5
 24
0.5
 15
0.5
 25
0.5
 16
0.0
 26
0.0
 36
100.0
 17
0.0
 27
0.0
 37
0.0
 40
69.16708360806216
 41
1.521167883211678
 42
50.0
 43
0.0
 44
0.0
 50
0.0
 51
0.0
 71
     0
 72
   100
 73
     1
 74
     3
 75
     0
 76
     0
 77
     0
 78
     0
  0
ENDTAB
  0
TABLE
  2
LTYPE
 70
     1
  0
LTYPE
  2
CONTINUOUS
 70
     0
  3
Solid line
 72
    65
 73
     0
 40
0.0
  0
ENDTAB
  0
TABLE
  2
LAYER
 70
     2
  0
LAYER
  2
0
 70
     0
 62
     7
  6
CONTINUOUS
  0
LAYER
  2
DEFAULT
 70
     0
 62
     7
  6
CONTINUOUS
  0
ENDTAB
  0
TABLE
  2
STYLE
 70
     1
  0
STYLE
  2
STANDARD
 70
     0
 40
0.0
 41
1.0
 50
0.0
 71
     0
 42
0.2
  3
txt
  4

  0
ENDTAB
  0
TABLE
  2
VIEW
 70
     0
  0
ENDTAB
  0
TABLE
  2
UCS
 70
     0
  0
ENDTAB
  0
TABLE
  2
APPID
 70
     1
  0
APPID
  2
ACAD
 70
     0
  0
ENDTAB
  0
TABLE
  2
DIMSTYLE
 70
     1
  0
DIMSTYLE
  2
STANDARD
 70
     0
  3

  4

  5

  6

  7

 40
1.0
 41
0.18
 42
0.0625
 43
0.38
 44
0.18
 45
0.0
 46
0.0
 47
0.0
 48
0.0
140
0.18
141
0.09
142
0.0
143
25.4
144
1.0
145
0.0
146
1.0
147
0.09
 71
     0
 72
     0
 73
     1
 74
     1
 75
     0
 76
     0
 77
     0
 78
     0
170
     0
171
     2
172
     0
173
     0
174
     0
175
     0
176
     0
177
     0
178
     0
  0
ENDTAB
  0
ENDSEC
  0
SECTION
  2
BLOCKS
  0
BLOCK
  8
0
  2
$MODEL_SPACE
 70
     0
 10
0.0
 20
0.0
 30
0.0
  3
$MODEL_SPACE
  1

  0
ENDBLK
  5
21
  8
0
  0
BLOCK
 67
     1
  8
0
  2
$PAPER_SPACE
 70
     0
 10
0.0
 20
0.0
 30
0.0
  3
$PAPER_SPACE
  1

  0
ENDBLK
  5
1D
 67
     1
  8
0
  0
BLOCK
  8
0
  2
$PAPER_SPACE0
 70
     0
 10
0.0
 20
0.0
 30
0.0
  3
$PAPER_SPACE0
  1

  0
ENDBLK
  5
25
  8
0
  0
ENDSEC
  0
SECTION
  2
ENTITIES
  0
ARC
  5
2B
  8
DEFAULT
 10
11.37706296658918
 20
959.5326370079825
 30
0.0
 40
922.2610144939008
 50
269.3865004704325
 51
270.6134995295676
  0
POLYLINE
  5
2C
  8
DEFAULT
 66
     1
 10
0.0
 20
0.0
 30
0.0
  0
VERTEX
  5
2E
  8
DEFAULT
 10
21.25206419767764
 20
18.55718951043098
 30
0.0
  0
VERTEX
  5
2F
  8
DEFAULT
 10
21.25206419767772
 20
14.43486669997685
 30
0.0
  0
VERTEX
  5
30
  8
DEFAULT
 10
1.502064197677643
 20
14.43486669997685
 30
0.0
  0
VERTEX
  5
31
  8
DEFAULT
 10
1.502064197677636
 20
18.55718951043098
 30
0.0
  0
SEQEND
  5
2D
  8
DEFAULT
  0
LINE
  5
32
  8
DEFAULT
 10
1.502992178791133
 20
15.80886451043098
 30
0.0
 11
21.24758651395286
 21
15.80886451043098
 31
0.0
  0
LINE
  5
33
  8
DEFAULT
 10
0.5020641976776357
 20
0.0081115104309827
 30
0.0
 11
22.25206419767767
 21
0.0081115104309836
 31
0.0
  0
LINE
  5
34
  8
DEFAULT
 10
37.87758819097905
 20
17.04942538296734
 30
0.0
 11
37.56175601628222
 21
25.26084554345389
 31
0.0
  0
ARC
  5
35
  8
DEFAULT
 10
33.55358770148661
 20
25.39622632785529
 30
0.0
 40
4.000000918937604
 50
12.45519360477244
 51
14.20252653182175
  0
ARC
  5
36
  8
DEFAULT
 10
35.3284119024031
 20
36.72450761025755
 30
0.0
 40
0.4999986628654551
 50
96.43798571310587
 51
194.2032225575872
  0
LINE
  5
37
  8
DEFAULT
 10
35.74409994946049
 20
37.27305167235471
 30
0.0
 11
35.7840359539814
 21
37.27909967303937
 31
0.0
  0
LINE
  5
38
  8
DEFAULT
 10
36.1575399962634
 20
37.32125167781112
 30
0.0
 11
35.27234789605646
 21
37.22135566650255
 31
0.0
  0
LINE
  5
39
  8
DEFAULT
 10
36.68446805591356
 20
36.99991564143474
 30
0.0
 11
36.69655605728195
 21
36.96327563728696
 31
0.0
  0
LINE
  5
3A
  8
DEFAULT
 10
36.66958805422908
 20
37.03532364544304
 30
0.0
 11
36.68446805591356
 21
36.99991564143474
 31
0.0
  0
LINE
  5
3B
  8
DEFAULT
 10
36.65193205223036
 20
37.06949964931189
 30
0.0
 11
36.66958805422908
 21
37.03532364544304
 31
0.0
  0
LINE
  5
3C
  8
DEFAULT
 10
36.63129204989383
 20
37.1027556530766
 30
0.0
 11
36.65193205223036
 21
37.06949964931189
 31
0.0
  0
LINE
  5
3D
  8
DEFAULT
 10
36.60786804724215
 20
37.13477965670182
 30
0.0
 11
36.63129204989383
 21
37.1027556530766
 31
0.0
  0
LINE
  5
3E
  8
DEFAULT
 10
36.58228404434595
 20
37.16463566008163
 30
0.0
 11
36.60786804724215
 21
37.13477965670182
 31
0.0
  0
LINE
  5
3F
  8
DEFAULT
 10
36.55458804121066
 20
37.19212366319337
 30
0.0
 11
36.58228404434595
 21
37.16463566008163
 31
0.0
  0
LINE
  5
40
  8
DEFAULT
 10
36.52472403782994
 20
37.21743566605879
 30
0.0
 11
36.55458804121066
 21
37.19212366319337
 31
0.0
  0
LINE
  5
41
  8
DEFAULT
 10
36.49318003425906
 20
37.24023566863983
 30
0.0
 11
36.52472403782994
 21
37.21743566605879
 31
0.0
  0
LINE
  5
42
  8
DEFAULT
 10
36.45994803049707
 20
37.26051567093559
 30
0.0
 11
36.49318003425906
 21
37.24023566863983
 31
0.0
  0
LINE
  5
43
  8
DEFAULT
 10
36.42503602654492
 20
37.27827567294609
 30
0.0
 11
36.45994803049707
 21
37.26051567093559
 31
0.0
  0
LINE
  5
44
  8
DEFAULT
 10
36.38891602245599
 20
37.29322767463872
 30
0.0
 11
36.42503602654492
 21
37.27827567294609
 31
0.0
  0
LINE
  5
45
  8
DEFAULT
 10
36.35140401820951
 20
37.30533967600984
 30
0.0
 11
36.38891602245599
 21
37.29322767463872
 31
0.0
  0
LINE
  5
46
  8
DEFAULT
 10
36.31268401382627
 20
37.31463567706217
 30
0.0
 11
36.35140401820951
 21
37.30533967600984
 31
0.0
  0
LINE
  5
47
  8
DEFAULT
 10
36.2738280094276
 20
37.32089967777128
 30
0.0
 11
36.31268401382627
 21
37.31463567706217
 31
0.0
  0
LINE
  5
48
  8
DEFAULT
 10
36.23520400505524
 20
37.3240516781281
 30
0.0
 11
36.2738280094276
 21
37.32089967777128
 31
0.0
  0
LINE
  5
49
  8
DEFAULT
 10
36.19643600066658
 20
37.32417167814168
 30
0.0
 11
36.23520400505524
 21
37.3240516781281
 31
0.0
  0
LINE
  5
4A
  8
DEFAULT
 10
36.1575399962634
 20
37.32125167781112
 30
0.0
 11
36.19643600066658
 21
37.32417167814168
 31
0.0
  0
LINE
  5
4B
  8
DEFAULT
 10
37.95661219992485
 20
15.00722515178291
 30
0.0
 11
37.96416420077976
 21
14.8938011389429
 31
0.0
  0
LINE
  5
4C
  8
DEFAULT
 10
37.93626019762093
 20
15.34212918969525
 30
0.0
 11
37.95661219992485
 21
15.00722515178291
 31
0.0
  0
LINE
  5
4D
  8
DEFAULT
 10
37.91351619504624
 20
15.79090524049832
 30
0.0
 11
37.93626019762093
 21
15.34212918969525
 31
0.0
  0
LINE
  5
4E
  8
DEFAULT
 10
37.89594019305656
 20
16.2401292913521
 30
0.0
 11
37.91351619504624
 21
15.79090524049832
 31
0.0
  0
LINE
  5
4F
  8
DEFAULT
 10
37.88423619173163
 20
16.6900893422892
 30
0.0
 11
37.89594019305656
 21
16.2401292913521
 31
0.0
  0
LINE
  5
50
  8
DEFAULT
 10
37.87918019115926
 20
17.01119337863933
 30
0.0
 11
37.88423619173163
 21
16.6900893422892
 31
0.0
  0
LINE
  5
51
  8
DEFAULT
 10
37.87770019099173
 20
17.14050539327792
 30
0.0
 11
37.87918019115926
 21
17.01119337863933
 31
0.0
  0
LINE
  5
52
  8
DEFAULT
 10
37.87418819059415
 20
17.59046544421502
 30
0.0
 11
37.87770019099173
 21
17.14050539327792
 31
0.0
  0
LINE
  5
53
  8
DEFAULT
 10
37.87368419053711
 20
18.03984149508601
 30
0.0
 11
37.87418819059415
 21
17.59046544421502
 31
0.0
  0
LINE
  5
54
  8
DEFAULT
 10
37.87619619082147
 20
18.48876954590628
 30
0.0
 11
37.87368419053711
 21
18.03984149508601
 31
0.0
  0
LINE
  5
55
  8
DEFAULT
 10
37.87961219120817
 20
18.93678559662331
 30
0.0
 11
37.87619619082147
 21
18.48876954590628
 31
0.0
  0
LINE
  5
56
  8
DEFAULT
 10
37.88370019167095
 20
19.38377764722442
 30
0.0
 11
37.87961219120817
 21
18.93678559662331
 31
0.0
  0
LINE
  5
57
  8
DEFAULT
 10
37.88869219223606
 20
19.82985769772229
 30
0.0
 11
37.88370019167095
 21
19.38377764722442
 31
0.0
  0
LINE
  5
58
  8
DEFAULT
 10
37.89308419273326
 20
20.27489774810243
 30
0.0
 11
37.88869219223606
 21
19.82985769772229
 31
0.0
  0
LINE
  5
59
  8
DEFAULT
 10
37.89643619311272
 20
20.71868179834038
 30
0.0
 11
37.89308419273326
 21
20.27489774810243
 31
0.0
  0
LINE
  5
5A
  8
DEFAULT
 10
37.89919619342516
 20
21.16143384846151
 30
0.0
 11
37.89643619311272
 21
20.71868179834038
 31
0.0
  0
LINE
  5
5B
  8
DEFAULT
 10
37.90122019365428
 20
21.60366589852378
 30
0.0
 11
37.89919619342516
 21
21.16143384846151
 31
0.0
  0
LINE
  5
5C
  8
DEFAULT
 10
37.90246819379556
 20
22.04534594852355
 30
0.0
 11
37.90122019365428
 21
21.60366589852378
 31
0.0
  0
LINE
  5
5D
  8
DEFAULT
 10
37.90298819385443
 20
22.48652199846627
 30
0.0
 11
37.90246819379556
 21
22.04534594852355
 31
0.0
  0
LINE
  5
5E
  8
DEFAULT
 10
37.90282819383631
 20
22.92780204842076
 30
0.0
 11
37.90298819385443
 21
22.48652199846627
 31
0.0
  0
LINE
  5
5F
  8
DEFAULT
 10
37.90198819374122
 20
23.36918609838703
 30
0.0
 11
37.90282819383631
 21
22.92780204842076
 31
0.0
  0
LINE
  5
60
  8
DEFAULT
 10
37.90047619357006
 20
23.81067414836506
 30
0.0
 11
37.90198819374122
 21
23.36918609838703
 31
0.0
  0
LINE
  5
61
  8
DEFAULT
 10
37.89831619332554
 20
24.25293819843095
 30
0.0
 11
37.90047619357006
 21
23.81067414836506
 31
0.0
  0
LINE
  5
62
  8
DEFAULT
 10
37.89551619300858
 20
24.69617824860732
 30
0.0
 11
37.89831619332554
 21
24.25293819843095
 31
0.0
  0
LINE
  5
63
  8
DEFAULT
 10
37.89208419262005
 20
25.14018629887063
 30
0.0
 11
37.89551619300858
 21
24.69617824860732
 31
0.0
  0
LINE
  5
64
  8
DEFAULT
 10
37.89096419249326
 20
25.26155431260993
 30
0.0
 11
37.89208419262005
 21
25.14018629887063
 31
0.0
  0
LINE
  5
65
  8
DEFAULT
 10
37.43132414046036
 20
26.37762643895331
 30
0.0
 11
34.84369984753195
 21
36.60182759636973
 31
0.0
  0
LINE
  5
66
  8
DEFAULT
 10
37.53266015193196
 20
27.561066572923
 30
0.0
 11
37.79064418113669
 21
26.42293044408189
 31
0.0
  0
LINE
  5
67
  8
DEFAULT
 10
37.27144412236136
 20
28.699042701746
 30
0.0
 11
37.53266015193196
 21
27.561066572923
 31
0.0
  0
LINE
  5
68
  8
DEFAULT
 10
37.00699609242489
 20
29.83688283055361
 30
0.0
 11
37.27144412236136
 21
28.699042701746
 31
0.0
  0
LINE
  5
69
  8
DEFAULT
 10
36.73930806212164
 20
30.974570959344
 30
0.0
 11
37.00699609242489
 21
29.83688283055361
 31
0.0
  0
LINE
  5
6A
  8
DEFAULT
 10
36.46839603145341
 20
32.11212308811899
 30
0.0
 11
36.73930806212164
 21
30.974570959344
 31
0.0
  0
LINE
  5
6B
  8
DEFAULT
 10
36.19424400041842
 20
33.24949121687317
 30
0.0
 11
36.46839603145341
 21
32.11212308811899
 31
0.0
  0
LINE
  5
6C
  8
DEFAULT
 10
35.91685996901755
 20
34.38667534560651
 30
0.0
 11
36.19424400041842
 21
33.24949121687317
 31
0.0
  0
LINE
  5
6D
  8
DEFAULT
 10
35.6362519372517
 20
35.52368347431992
 30
0.0
 11
35.91685996901755
 21
34.38667534560651
 31
0.0
  0
LINE
  5
6E
  8
DEFAULT
 10
35.35240390511908
 20
36.66051560301342
 30
0.0
 11
35.6362519372517
 21
35.52368347431992
 31
0.0
  0
LINE
  5
6F
  8
DEFAULT
 10
35.70497994503197
 20
37.26381167130872
 30
0.0
 11
35.74409994946049
 21
37.27305167235471
 31
0.0
  0
LINE
  5
70
  8
DEFAULT
 10
35.66667594069581
 20
37.25137166990047
 30
0.0
 11
35.70497994503197
 21
37.26381167130872
 31
0.0
  0
LINE
  5
71
  8
DEFAULT
 10
35.62880393640857
 20
37.23557966811275
 30
0.0
 11
35.66667594069581
 21
37.25137166990047
 31
0.0
  0
LINE
  5
72
  8
DEFAULT
 10
35.59174793221369
 20
37.21658766596278
 30
0.0
 11
35.62880393640857
 21
37.23557966811275
 31
0.0
  0
LINE
  5
73
  8
DEFAULT
 10
35.55665192824071
 20
37.194867663504
 30
0.0
 11
35.59174793221369
 21
37.21658766596278
 31
0.0
  0
LINE
  5
74
  8
DEFAULT
 10
35.5236679245068
 20
37.17032366072554
 30
0.0
 11
35.55665192824071
 21
37.194867663504
 31
0.0
  0
LINE
  5
75
  8
DEFAULT
 10
35.49264392099477
 20
37.14305165763824
 30
0.0
 11
35.5236679245068
 21
37.17032366072554
 31
0.0
  0
LINE
  5
76
  8
DEFAULT
 10
35.4642759177834
 20
37.11387565433542
 30
0.0
 11
35.49264392099477
 21
37.14305165763824
 31
0.0
  0
LINE
  5
77
  8
DEFAULT
 10
35.43877991489717
 20
37.0830196508424
 30
0.0
 11
35.4642759177834
 21
37.11387565433542
 31
0.0
  0
LINE
  5
78
  8
DEFAULT
 10
35.41593991231159
 20
37.05025164713295
 30
0.0
 11
35.43877991489717
 21
37.0830196508424
 31
0.0
  0
LINE
  5
79
  8
DEFAULT
 10
35.39583591003574
 20
37.01566764321791
 30
0.0
 11
35.41593991231159
 21
37.05025164713295
 31
0.0
  0
LINE
  5
7A
  8
DEFAULT
 10
35.37830790805151
 20
36.9789796390647
 30
0.0
 11
35.39583591003574
 21
37.01566764321791
 31
0.0
  0
LINE
  5
7B
  8
DEFAULT
 10
35.36351590637702
 20
36.940467634705
 30
0.0
 11
35.37830790805151
 21
36.9789796390647
 31
0.0
  0
LINE
  5
7C
  8
DEFAULT
 10
35.35197990507109
 20
36.90111563025022
 30
0.0
 11
35.36351590637702
 21
36.940467634705
 31
0.0
  0
LINE
  5
7D
  8
DEFAULT
 10
35.34386790415277
 20
36.86082762568947
 30
0.0
 11
35.35197990507109
 21
36.90111563025022
 31
0.0
  0
LINE
  5
7E
  8
DEFAULT
 10
35.33901190360307
 20
36.81969162103272
 30
0.0
 11
35.34386790415277
 21
36.86082762568947
 31
0.0
  0
LINE
  5
7F
  8
DEFAULT
 10
35.33743590342465
 20
36.77897161642306
 30
0.0
 11
35.33901190360307
 21
36.81969162103272
 31
0.0
  0
LINE
  5
80
  8
DEFAULT
 10
35.33914790361845
 20
36.7390756119067
 30
0.0
 11
35.33743590342465
 21
36.77897161642306
 31
0.0
  0
LINE
  5
81
  8
DEFAULT
 10
35.34413190418266
 20
36.69958760743651
 30
0.0
 11
35.33914790361845
 21
36.7390756119067
 31
0.0
  0
LINE
  5
82
  8
DEFAULT
 10
35.35240390511908
 20
36.66051560301342
 30
0.0
 11
35.34413190418266
 21
36.69958760743651
 31
0.0
  0
LINE
  5
83
  8
DEFAULT
 10
37.81019618335003
 20
26.3311224336889
 30
0.0
 11
37.79064418113669
 21
26.42293044408189
 31
0.0
  0
LINE
  5
84
  8
DEFAULT
 10
37.82352418485881
 20
26.26036242567861
 30
0.0
 11
37.81019618335003
 21
26.3311224336889
 31
0.0
  0
LINE
  5
85
  8
DEFAULT
 10
39.75427640342693
 20
25.20369830606042
 30
0.0
 11
39.74690040259193
 21
24.91462627333642
 31
0.0
  0
LINE
  5
86
  8
DEFAULT
 10
39.75324440331011
 20
25.30035431700223
 30
0.0
 11
39.75427640342693
 21
25.20369830606042
 31
0.0
  0
LINE
  5
87
  8
DEFAULT
 10
39.31150835330398
 20
14.9095771407288
 30
0.0
 11
39.74690040259193
 21
24.91462627333642
 31
0.0
  0
LINE
  5
88
  8
DEFAULT
 10
38.85558030169128
 20
14.43312908679316
 30
0.0
 11
38.8136682969467
 21
14.43132108658849
 31
0.0
  0
LINE
  5
89
  8
DEFAULT
 10
38.8969483063743
 20
14.43848108739903
 30
0.0
 11
38.85558030169128
 21
14.43312908679316
 31
0.0
  0
LINE
  5
8A
  8
DEFAULT
 10
38.93777231099571
 20
14.44740108840881
 30
0.0
 11
38.8969483063743
 21
14.43848108739903
 31
0.0
  0
LINE
  5
8B
  8
DEFAULT
 10
38.97852431560898
 20
14.46003308983879
 30
0.0
 11
38.93777231099571
 21
14.44740108840881
 31
0.0
  0
LINE
  5
8C
  8
DEFAULT
 10
39.01874032016158
 20
14.47621709167088
 30
0.0
 11
38.97852431560898
 21
14.46003308983879
 31
0.0
  0
LINE
  5
8D
  8
DEFAULT
 10
39.05700432449321
 20
14.49546509384982
 30
0.0
 11
39.01874032016158
 21
14.47621709167088
 31
0.0
  0
LINE
  5
8E
  8
DEFAULT
 10
39.09302832857125
 20
14.51777709637562
 30
0.0
 11
39.05700432449321
 21
14.49546509384982
 31
0.0
  0
LINE
  5
8F
  8
DEFAULT
 10
39.12711633243015
 20
14.54315309924827
 30
0.0
 11
39.09302832857125
 21
14.51777709637562
 31
0.0
  0
LINE
  5
90
  8
DEFAULT
 10
39.15870833600647
 20
14.57106510240802
 30
0.0
 11
39.12711633243015
 21
14.54315309924827
 31
0.0
  0
LINE
  5
91
  8
DEFAULT
 10
39.18778833929844
 20
14.60152910585665
 30
0.0
 11
39.15870833600647
 21
14.57106510240802
 31
0.0
  0
LINE
  5
92
  8
DEFAULT
 10
39.21438034230874
 20
14.63453710959328
 30
0.0
 11
39.18778833929844
 21
14.60152910585665
 31
0.0
  0
LINE
  5
93
  8
DEFAULT
 10
39.23798834498126
 20
14.66955311355721
 30
0.0
 11
39.21438034230874
 21
14.63453710959328
 31
0.0
  0
LINE
  5
94
  8
DEFAULT
 10
39.25861234731596
 20
14.70680911777473
 30
0.0
 11
39.23798834498126
 21
14.66955311355721
 31
0.0
  0
LINE
  5
95
  8
DEFAULT
 10
39.27626034931379
 20
14.74606512221865
 30
0.0
 11
39.25861234731596
 21
14.70680911777473
 31
0.0
  0
LINE
  5
96
  8
DEFAULT
 10
39.29042835091765
 20
14.78609712675042
 30
0.0
 11
39.27626034931379
 21
14.74606512221865
 31
0.0
  0
LINE
  5
97
  8
DEFAULT
 10
39.30094035210765
 20
14.82648913132294
 30
0.0
 11
39.29042835091765
 21
14.78609712675042
 31
0.0
  0
LINE
  5
98
  8
DEFAULT
 10
39.30796435290279
 20
14.8676491359824
 30
0.0
 11
39.30094035210765
 21
14.82648913132294
 31
0.0
  0
LINE
  5
99
  8
DEFAULT
 10
39.31150835330398
 20
14.9095771407288
 30
0.0
 11
39.30796435290279
 21
14.8676491359824
 31
0.0
  0
LINE
  5
9A
  8
DEFAULT
 10
39.43922836776235
 20
27.48649056448073
 30
0.0
 11
36.69655605728195
 21
36.96327563728696
 31
0.0
  0
LINE
  5
9B
  8
DEFAULT
 10
39.67917239492488
 20
26.35740243666389
 30
0.0
 11
39.68614039571368
 21
26.29917843007272
 31
0.0
  0
LINE
  5
9C
  8
DEFAULT
 10
39.63446838986422
 20
26.64338646903831
 30
0.0
 11
39.67917239492488
 21
26.35740243666389
 31
0.0
  0
LINE
  5
9D
  8
DEFAULT
 10
39.57961238365432
 20
26.92659450109848
 30
0.0
 11
39.63446838986422
 21
26.64338646903831
 31
0.0
  0
LINE
  5
9E
  8
DEFAULT
 10
39.51453237628704
 20
27.20762653291232
 30
0.0
 11
39.57961238365432
 21
26.92659450109848
 31
0.0
  0
LINE
  5
9F
  8
DEFAULT
 10
39.43922836776235
 20
27.48649056448073
 30
0.0
 11
39.51453237628704
 21
27.20762653291232
 31
0.0
  0
LINE
  5
A0
  8
DEFAULT
 10
38.46453225742323
 20
14.43014508645536
 30
0.0
 11
38.8136682969467
 21
14.43132108658849
 31
0.0
  0
LINE
  5
A1
  8
DEFAULT
 10
37.96886020131137
 20
14.85254513427257
 30
0.0
 11
37.96416420077976
 21
14.8938011389429
 31
0.0
  0
LINE
  5
A2
  8
DEFAULT
 10
37.97690820222243
 20
14.81216112970096
 30
0.0
 11
37.96886020131137
 21
14.85254513427257
 31
0.0
  0
LINE
  5
A3
  8
DEFAULT
 10
37.98830020351205
 20
14.77264112522715
 30
0.0
 11
37.97690820222243
 21
14.81216112970096
 31
0.0
  0
LINE
  5
A4
  8
DEFAULT
 10
38.00320420519924
 20
14.73360912080858
 30
0.0
 11
37.98830020351205
 21
14.77264112522715
 31
0.0
  0
LINE
  5
A5
  8
DEFAULT
 10
38.02146020726588
 20
14.69544111648783
 30
0.0
 11
38.00320420519924
 21
14.73360912080858
 31
0.0
  0
LINE
  5
A6
  8
DEFAULT
 10
38.04257220965585
 20
14.65926511239258
 30
0.0
 11
38.02146020726588
 21
14.69544111648783
 31
0.0
  0
LINE
  5
A7
  8
DEFAULT
 10
38.0665322123682
 20
14.62528110854546
 30
0.0
 11
38.04257220965585
 21
14.65926511239258
 31
0.0
  0
LINE
  5
A8
  8
DEFAULT
 10
38.09335621540477
 20
14.59328910492385
 30
0.0
 11
38.0665322123682
 21
14.62528110854546
 31
0.0
  0
LINE
  5
A9
  8
DEFAULT
 10
38.12255621871032
 20
14.56380110158571
 30
0.0
 11
38.09335621540477
 21
14.59328910492385
 31
0.0
  0
LINE
  5
AA
  8
DEFAULT
 10
38.15416422228846
 20
14.53682509853192
 30
0.0
 11
38.12255621871032
 21
14.56380110158571
 31
0.0
  0
LINE
  5
AB
  8
DEFAULT
 10
38.18815622613647
 20
14.5123530957616
 30
0.0
 11
38.15416422228846
 21
14.53682509853192
 31
0.0
  0
LINE
  5
AC
  8
DEFAULT
 10
38.22399623019369
 20
14.4908810933309
 30
0.0
 11
38.18815622613647
 21
14.5123530957616
 31
0.0
  0
LINE
  5
AD
  8
DEFAULT
 10
38.26196423449181
 20
14.4724170912407
 30
0.0
 11
38.22399623019369
 21
14.4908810933309
 31
0.0
  0
LINE
  5
AE
  8
DEFAULT
 10
38.30178023899913
 20
14.45694508948922
 30
0.0
 11
38.26196423449181
 21
14.4724170912407
 31
0.0
  0
LINE
  5
AF
  8
DEFAULT
 10
38.34208424356169
 20
14.44493708812987
 30
0.0
 11
38.30178023899913
 21
14.45694508948922
 31
0.0
  0
LINE
  5
B0
  8
DEFAULT
 10
38.38242024812786
 20
14.43654508717987
 30
0.0
 11
38.34208424356169
 21
14.44493708812987
 31
0.0
  0
LINE
  5
B1
  8
DEFAULT
 10
38.42323625274838
 20
14.431617086622
 30
0.0
 11
38.38242024812786
 21
14.43654508717987
 31
0.0
  0
LINE
  5
B2
  8
DEFAULT
 10
38.46453225742323
 20
14.43014508645536
 30
0.0
 11
38.42323625274838
 21
14.431617086622
 31
0.0
  0
POLYLINE
  5
B3
  8
DEFAULT
 66
     1
 10
0.0
 20
0.0
 30
0.0
  0
VERTEX
  5
B5
  8
DEFAULT
 10
1.480962197677636
 20
67.7481430773568
 30
0.0
  0
VERTEX
  5
B6
  8
DEFAULT
 10
1.482115513305886
 20
68.6635889502864
 30
0.0
  0
VERTEX
  5
B7
  8
DEFAULT
 10
3.055136430092809
 20
68.81328741339767
 30
0.0
  0
VERTEX
  5
B8
  8
DEFAULT
 10
4.717016618223639
 20
68.94331142811684
 30
0.0
  0
VERTEX
  5
B9
  8
DEFAULT
 10
6.380928806584493
 20
69.04447143956851
 30
0.0
  0
VERTEX
  5
BA
  8
DEFAULT
 10
8.046320995112893
 20
69.11673544774908
 30
0.0
  0
VERTEX
  5
BB
  8
DEFAULT
 10
9.712681183750874
 20
69.16007945265577
 30
0.0
  0
VERTEX
  5
BC
  8
DEFAULT
 10
11.379537372445
 20
69.17450345428861
 30
0.0
  0
VERTEX
  5
BD
  8
DEFAULT
 10
13.04639356113913
 20
69.1599914526458
 30
0.0
  0
VERTEX
  5
BE
  8
DEFAULT
 10
14.71275374977711
 20
69.11655944772915
 30
0.0
  0
VERTEX
  5
BF
  8
DEFAULT
 10
16.3781379383046
 20
69.04421543953956
 30
0.0
  0
VERTEX
  5
C0
  8
DEFAULT
 10
18.04205012666546
 20
68.94296742807792
 30
0.0
  0
VERTEX
  5
C1
  8
DEFAULT
 10
19.70392231479539
 20
68.81286341334966
 30
0.0
  0
VERTEX
  5
C2
  8
DEFAULT
 10
21.23210638743283
 20
68.66738750420362
 30
0.0
  0
VERTEX
  5
C3
  8
DEFAULT
 10
21.23094919767764
 20
67.7489240773568
 30
0.0
  0
SEQEND
  5
B4
  8
DEFAULT
  0
POLYLINE
  5
C4
  8
DEFAULT
 66
     1
 10
0.0
 20
0.0
 30
0.0
  0
VERTEX
  5
C6
  8
DEFAULT
 10
1.502064254279439
 20
67.30635924280799
 30
0.0
  0
VERTEX
  5
C7
  8
DEFAULT
 10
3.141808439904395
 20
67.45995926019604
 30
0.0
  0
VERTEX
  5
C8
  8
DEFAULT
 10
4.784632625878018
 20
67.58580727444249
 30
0.0
  0
VERTEX
  5
C9
  8
DEFAULT
 10
6.430040812144149
 20
67.68380728553645
 30
0.0
  0
VERTEX
  5
CA
  8
DEFAULT
 10
8.07778499867473
 20
67.75389529347066
 30
0.0
  0
VERTEX
  5
CB
  8
DEFAULT
 10
9.72716118539006
 20
67.79597529823427
 30
0.0
  0
VERTEX
  5
CC
  8
DEFAULT
 10
11.37702537216063
 20
67.80999929982184
 30
0.0
  0
VERTEX
  5
CD
  8
DEFAULT
 10
13.02688955893121
 20
67.79597529823427
 30
0.0
  0
VERTEX
  5
CE
  8
DEFAULT
 10
14.67627374564744
 20
67.75389529347066
 30
0.0
  0
VERTEX
  5
CF
  8
DEFAULT
 10
16.32402593217893
 20
67.68381528553736
 30
0.0
  0
VERTEX
  5
D0
  8
DEFAULT
 10
17.96945811844779
 20
67.58580727444249
 30
0.0
  0
VERTEX
  5
D1
  8
DEFAULT
 10
19.61229830442322
 20
67.45995926019604
 30
0.0
  0
VERTEX
  5
D2
  8
DEFAULT
 10
21.25206649005089
 20
67.30635924280799
 30
0.0
  0
SEQEND
  5
C5
  8
DEFAULT
  0
LINE
  5
D3
  8
DEFAULT
 10
1.502061848703448
 20
18.55718951043098
 30
0.0
 11
1.502061848703448
 21
37.32449173477972
 31
0.0
  0
LINE
  5
D4
  8
DEFAULT
 10
21.2520640844749
 20
18.55718951043098
 30
0.0
 11
21.2520640844749
 21
37.32449173477972
 31
0.0
  0
POLYLINE
  5
D5
  8
DEFAULT
 66
     1
 10
0.0
 20
0.0
 30
0.0
  0
VERTEX
  5
D7
  8
DEFAULT
 10
0.8920644411616354
 20
16.25811165859498
 30
0.0
  0
VERTEX
  5
D8
  8
DEFAULT
 10
0.8937647055839495
 20
16.29458299531593
 30
0.0
  0
VERTEX
  5
D9
  8
DEFAULT
 10
0.8991165480451915
 20
16.33264205765336
 30
0.0
  0
VERTEX
  5
DA
  8
DEFAULT
 10
0.9200270854961976
 20
16.40847867846192
 30
0.0
  0
VERTEX
  5
DB
  8
DEFAULT
 10
0.9776769734533308
 20
16.53043640240047
 30
0.0
  0
VERTEX
  5
DC
  8
DEFAULT
 10
1.001254998432181
 20
16.56981489013692
 30
0.0
  0
VERTEX
  5
DD
  8
DEFAULT
 10
1.001752067505151
 20
16.57061165857247
 30
0.0
  0
VERTEX
  5
DE
  8
DEFAULT
 10
0.9343042370686401
 20
16.44454563989075
 30
0.0
  0
VERTEX
  5
DF
  8
DEFAULT
 10
0.9117111513776359
 20
16.38350167555998
 30
0.0
  0
SEQEND
  5
D6
  8
DEFAULT
  0
ARC
  5
E0
  8
DEFAULT
 10
0.5020641976776357
 20
0.5081115104309827
 30
0.0
 40
0.5
 50
180.0
 51
360.0
  0
ARC
  5
E1
  8
DEFAULT
 10
0.5020641976776357
 20
26.00903451043098
 30
0.0
 40
0.5
 50
0.0
 51
180.0
  0
ARC
  5
E2
  8
DEFAULT
 10
22.25206419767763
 20
0.5081115104309827
 30
0.0
 40
0.4999999999999991
 50
180.0
 51
360.0
  0
ARC
  5
E3
  8
DEFAULT
 10
22.25206419767763
 20
26.00903451043098
 30
0.0
 40
0.4999999999999991
 50
0.0
 51
180.0
  0
ARC
  5
E4
  8
DEFAULT
 10
22.24597119767763
 20
25.77486751043098
 30
0.0
 40
0.5000002362484384
 50
171.053281804564
 51
188.9444007864003
  0
LINE
  5
E5
  8
DEFAULT
 10
22.75206419767763
 20
0.5081115104309827
 30
0.0
 11
22.75206419767763
 21
26.00811151043099
 31
0.0
  0
LINE
  5
E6
  8
DEFAULT
 10
21.75206419767764
 20
16.57061151043099
 30
0.0
 11
21.75206419767764
 21
26.00811151043099
 31
0.0
  0
LINE
  5
E7
  8
DEFAULT
 10
21.75206419767764
 20
0.5081115104309827
 30
0.0
 11
21.75206419767764
 21
15.94561151043099
 31
0.0
  0
LINE
  5
E8
  8
DEFAULT
 10
21.24529919767764
 20
26.08623651043099
 30
0.0
 11
21.75884519767763
 21
26.08681751043098
 31
0.0
  0
LINE
  5
E9
  8
DEFAULT
 10
1.490312197677636
 20
26.06357351043098
 30
0.0
 11
0.9990531976776358
 21
26.06301851043099
 31
0.0
  0
LINE
  5
EA
  8
DEFAULT
 10
21.24600519767764
 20
25.46123651043099
 30
0.0
 11
21.75206419767764
 21
25.46180951043099
 31
0.0
  0
LINE
  5
EB
  8
DEFAULT
 10
1.491018197677636
 20
25.43857351043098
 30
0.0
 11
1.002064197677636
 21
25.43802151043099
 31
0.0
  0
LINE
  5
EC
  8
DEFAULT
 10
1.502064197677636
 20
18.55718951043098
 30
0.0
 11
21.25206419767764
 21
18.55718951043098
 31
0.0
  0
LINE
  5
ED
  8
DEFAULT
 10
21.25206419767764
 20
16.57061151043099
 30
0.0
 11
21.75237719767764
 21
16.57061151043099
 31
0.0
  0
LINE
  5
EE
  8
DEFAULT
 10
1.502064197677636
 20
16.57061151043099
 30
0.0
 11
1.001752197677636
 21
16.57061151043099
 31
0.0
  0
LINE
  5
EF
  8
DEFAULT
 10
21.25206419767764
 20
15.94561151043099
 30
0.0
 11
21.75206419767764
 21
15.94561151043099
 31
0.0
  0
LINE
  5
F0
  8
DEFAULT
 10
1.502064197677636
 20
15.94561151043099
 30
0.0
 11
1.002064197677636
 21
15.94561151043099
 31
0.0
  0
LINE
  5
F1
  8
DEFAULT
 10
1.002064197677636
 20
15.94561151043099
 30
0.0
 11
1.002064197677636
 21
0.5081115104309824
 31
0.0
  0
LINE
  5
F2
  8
DEFAULT
 10
1.002064197677636
 20
26.00811151043099
 30
0.0
 11
1.002064197677636
 21
16.57061151043099
 31
0.0
  0
LINE
  5
F3
  8
DEFAULT
 10
0.0020641976776356
 20
26.00811151043099
 30
0.0
 11
0.0020641976776356
 21
0.5081115104309824
 31
0.0
  0
LINE
  5
F4
  8
DEFAULT
 10
1.002064197677636
 20
1.008111510430983
 30
0.0
 11
21.75206419767764
 21
1.008111510430983
 31
0.0
  0
POLYLINE
  5
F5
  8
DEFAULT
 66
     1
 10
0.0
 20
0.0
 30
0.0
  0
VERTEX
  5
F7
  8
DEFAULT
 10
0.8920644411616354
 20
16.25811165859498
 30
0.0
  0
VERTEX
  5
F8
  8
DEFAULT
 10
0.8937647055839495
 20
16.22164032187404
 30
0.0
  0
VERTEX
  5
F9
  8
DEFAULT
 10
0.8991165480451915
 20
16.18358125953661
 30
0.0
  0
VERTEX
  5
FA
  8
DEFAULT
 10
0.9200270854961976
 20
16.10774463872805
 30
0.0
  0
VERTEX
  5
FB
  8
DEFAULT
 10
0.9776769734533308
 20
15.9857869147895
 30
0.0
  0
VERTEX
  5
FC
  8
DEFAULT
 10
1.001254998432181
 20
15.94640842705305
 30
0.0
  0
VERTEX
  5
FD
  8
DEFAULT
 10
1.001752067505151
 20
15.9456116586175
 30
0.0
  0
VERTEX
  5
FE
  8
DEFAULT
 10
0.9343042370686401
 20
16.07167767729922
 30
0.0
  0
VERTEX
  5
FF
  8
DEFAULT
 10
0.9117111513776359
 20
16.13272164162999
 30
0.0
  0
SEQEND
  5
F6
  8
DEFAULT
  0
POLYLINE
  5
100
  8
DEFAULT
 66
     1
 10
0.0
 20
0.0
 30
0.0
  0
VERTEX
  5
102
  8
DEFAULT
 10
21.86206395419363
 20
16.25811165859498
 30
0.0
  0
VERTEX
  5
103
  8
DEFAULT
 10
21.86036368977132
 20
16.22164032187404
 30
0.0
  0
VERTEX
  5
104
  8
DEFAULT
 10
21.85501184731008
 20
16.18358125953661
 30
0.0
  0
VERTEX
  5
105
  8
DEFAULT
 10
21.83410130985907
 20
16.10774463872805
 30
0.0
  0
VERTEX
  5
106
  8
DEFAULT
 10
21.77645142190194
 20
15.9857869147895
 30
0.0
  0
VERTEX
  5
107
  8
DEFAULT
 10
21.75287339692309
 20
15.94640842705305
 30
0.0
  0
VERTEX
  5
108
  8
DEFAULT
 10
21.75237632785012
 20
15.9456116586175
 30
0.0
  0
VERTEX
  5
109
  8
DEFAULT
 10
21.81982415828663
 20
16.07167767729922
 30
0.0
  0
VERTEX
  5
10A
  8
DEFAULT
 10
21.84241724397764
 20
16.13272164162999
 30
0.0
  0
SEQEND
  5
101
  8
DEFAULT
  0
POLYLINE
  5
10B
  8
DEFAULT
 66
     1
 10
0.0
 20
0.0
 30
0.0
  0
VERTEX
  5
10D
  8
DEFAULT
 10
21.86206395419363
 20
16.25811165859498
 30
0.0
  0
VERTEX
  5
10E
  8
DEFAULT
 10
21.86036368977132
 20
16.29458299531593
 30
0.0
  0
VERTEX
  5
10F
  8
DEFAULT
 10
21.85501184731008
 20
16.33264205765336
 30
0.0
  0
VERTEX
  5
110
  8
DEFAULT
 10
21.83410130985907
 20
16.40847867846192
 30
0.0
  0
VERTEX
  5
111
  8
DEFAULT
 10
21.77645142190194
 20
16.53043640240047
 30
0.0
  0
VERTEX
  5
112
  8
DEFAULT
 10
21.75287339692309
 20
16.56981489013692
 30
0.0
  0
VERTEX
  5
113
  8
DEFAULT
 10
21.75237632785012
 20
16.57061165857247
 30
0.0
  0
VERTEX
  5
114
  8
DEFAULT
 10
21.81982415828663
 20
16.44454563989075
 30
0.0
  0
VERTEX
  5
115
  8
DEFAULT
 10
21.84241724397764
 20
16.38350167555998
 30
0.0
  0
SEQEND
  5
10C
  8
DEFAULT
  0
LINE
  5
116
  8
DEFAULT
 10
53.41513377352688
 20
0.0081115104309827
 30
0.0
 11
35.66513377352688
 21
0.0081115104309827
 31
0.0
  0
LINE
  5
117
  8
DEFAULT
 10
53.41513377352688
 20
1.008111510430983
 30
0.0
 11
35.66513377352688
 21
1.008111510430983
 31
0.0
  0
LINE
  5
118
  8
DEFAULT
 10
37.41494877352688
 20
26.25800351043099
 30
0.0
 11
37.43578177352688
 21
25.25822051043098
 31
0.0
  0
LINE
  5
119
  8
DEFAULT
 10
39.89632277352688
 20
17.94275351043098
 30
0.0
 11
39.84830577352688
 21
15.19189051043098
 31
0.0
  0
LINE
  5
11A
  8
DEFAULT
 10
55.36882377352688
 20
15.35899951043098
 30
0.0
 11
57.58744977352688
 21
15.80886451043098
 31
0.0
  0
LINE
  5
11B
  8
DEFAULT
 10
54.38139477352689
 20
15.19660251043099
 30
0.0
 11
44.83490377352688
 21
14.86323151043098
 31
0.0
  0
LINE
  5
11C
  8
DEFAULT
 10
57.47640277352688
 20
15.80498651043099
 30
0.0
 11
55.32229677352688
 21
15.72976351043099
 31
0.0
  0
LINE
  5
11D
  8
DEFAULT
 10
54.31888677352688
 20
15.69472351043098
 30
0.0
 11
39.94542377352689
 21
15.19279151043098
 31
0.0
  0
LINE
  5
11E
  8
DEFAULT
 10
44.73774277352688
 20
14.85983851043098
 30
0.0
 11
39.84826277352689
 21
15.18939851043098
 31
0.0
  0
LINE
  5
11F
  8
DEFAULT
 10
44.73765477352688
 20
14.86233251043099
 30
0.0
 11
44.73774277352688
 21
14.85983851043098
 31
0.0
  0
LINE
  5
120
  8
DEFAULT
 10
39.85431077352688
 20
15.53592851043099
 30
0.0
 11
39.36160277352688
 21
15.51872351043098
 31
0.0
  0
LINE
  5
121
  8
DEFAULT
 10
39.86112177352688
 20
15.92611151043099
 30
0.0
 11
39.36434377352688
 21
15.90876351043098
 31
0.0
  0
LINE
  5
122
  8
DEFAULT
 10
39.89632277352688
 20
17.94275351043098
 30
0.0
 11
53.91960777352688
 21
18.43245751043098
 31
0.0
  0
LINE
  5
123
  8
DEFAULT
 10
54.92659877352688
 20
18.46762251043099
 30
0.0
 11
57.49147577352688
 21
18.55718951043098
 31
0.0
  0
LINE
  5
124
  8
DEFAULT
 10
37.43578177352688
 20
25.25822051043098
 30
0.0
 11
49.43317777352689
 21
25.50822051043098
 31
0.0
  0
LINE
  5
125
  8
DEFAULT
 10
37.41494877352688
 20
26.25800351043099
 30
0.0
 11
49.41234377352688
 21
26.50800351043099
 31
0.0
  0
LINE
  5
126
  8
DEFAULT
 10
57.58728777352689
 20
15.81348151043098
 30
0.0
 11
57.49147577352688
 21
18.55718951043098
 31
0.0
  0
ARC
  5
127
  8
DEFAULT
 10
35.66513377352688
 20
0.5081115104309827
 30
0.0
 40
0.5
 50
90.0
 51
270.0
  0
ARC
  5
128
  8
DEFAULT
 10
53.41513377352688
 20
2.758111510430983
 30
0.0
 40
1.750000000185143
 50
270.0
 51
359.9988213439645
  0
ARC
  5
129
  8
DEFAULT
 10
53.41513377352688
 20
2.758111510430983
 30
0.0
 40
2.750000000285091
 50
270.0
 51
359.9988332495811
  0
ARC
  5
12A
  8
DEFAULT
 10
-44.33486622647312
 20
2.760111510430985
 30
0.0
 40
99.49999981628282
 50
359.9988275959088
 51
11.44470707267601
  0
ARC
  5
12B
  8
DEFAULT
 10
-44.33486622647312
 20
2.760111510430985
 30
0.0
 40
100.499999972326
 50
359.998827859476
 51
11.4447069368474
  0
ARC
  5
12C
  8
DEFAULT
 10
49.51130277352689
 20
21.75903451043098
 30
0.0
 40
3.749999722005254
 50
11.44470621485939
 51
91.19374847202604
  0
ARC
  5
12D
  8
DEFAULT
 10
49.51130277352689
 20
21.75903451043098
 30
0.0
 40
4.749999903609632
 50
11.44470352160514
 51
91.19375649504057
  0
LINE
  5
12E
  8
DEFAULT
 10
44.83490332211688
 20
14.86323124392798
 30
0.0
 11
44.73765524994689
 21
14.86233209338099
 31
0.0
  0
LINE
  5
12F
  8
DEFAULT
 10
39.84830579685688
 20
15.19189033317798
 30
0.0
 11
39.94542329205688
 21
15.19279161101299
 31
0.0
  0
ARC
  5
130
  8
DEFAULT
 10
57.42948840941336
 20
17.14535960460558
 30
0.0
 40
1.34119347329613
 50
272.0045763591099
 51
276.7568598109691
  0
LINE
  5
131
  8
DEFAULT
 10
55.36855864355689
 20
15.36110875490398
 30
5.998853047385
 11
55.44314793508688
 21
15.37406992779398
 31
5.998853047385
  0
LINE
  5
132
  8
DEFAULT
 10
2.957063807157636
 20
64.3492387982768
 30
0.0
 11
19.78333280355763
 21
64.3501399918168
 31
0.0
  0
ARC
  5
133
  8
DEFAULT
 10
3.502064197677635
 20
65.04320407735681
 30
0.0
 40
3.49999988915585
 50
125.2921425078018
 51
158.5796886223565
  0
ARC
  5
134
  8
DEFAULT
 10
19.25206419767764
 20
65.04320407735681
 30
0.0
 40
3.500000159217613
 50
21.4203209108967
 51
55.55601030799757
  0
ARC
  5
135
  8
DEFAULT
 10
0.5020701976776358
 20
63.9188450339313
 30
0.0
 40
2.416422288726831
 50
78.05823067264316
 51
101.9417693273571
  0
ARC
  5
136
  8
DEFAULT
 10
22.25206419767763
 20
63.9188450339313
 30
0.0
 40
2.416422288726831
 50
78.05823067264289
 51
101.9417693273569
  0
ARC
  5
137
  8
DEFAULT
 10
22.25237719767764
 20
48.95837207735681
 30
0.0
 40
0.5000006024846255
 50
177.018705666268
 51
218.6821426840362
  0
LINE
  5
138
  8
DEFAULT
 10
0.0020641976776356
 20
66.2829720773568
 30
0.0
 11
0.0020641976776356
 21
48.04320407735681
 31
0.0
  0
LINE
  5
139
  8
DEFAULT
 10
1.690191197677635
 20
46.12088807735681
 30
0.0
 11
21.06393719767764
 21
46.12088807735681
 31
0.0
  0
LINE
  5
13A
  8
DEFAULT
 10
1.502064197677636
 20
46.2168610773568
 30
0.0
 11
21.25206419767764
 21
46.2168610773568
 31
0.0
  0
LINE
  5
13B
  8
DEFAULT
 10
1.002064197677636
 20
66.2829720773568
 30
0.0
 11
1.002064197677636
 21
65.84482207735681
 31
0.0
  0
LINE
  5
13C
  8
DEFAULT
 10
1.002064197677636
 20
65.21982207735681
 30
0.0
 11
1.002064197677636
 21
48.97921207735681
 31
0.0
  0
LINE
  5
13D
  8
DEFAULT
 10
1.002064197677636
 20
48.64587207735681
 30
0.0
 11
1.002064197677636
 21
48.04320407735681
 31
0.0
  0
LINE
  5
13E
  8
DEFAULT
 10
1.491587197677636
 20
64.2804400773568
 30
0.0
 11
1.488741197677636
 21
64.6819400773568
 31
0.0
  0
LINE
  5
13F
  8
DEFAULT
 10
1.481319197677636
 20
66.8195930773568
 30
0.0
 11
1.488741197677636
 21
64.6819400773568
 31
0.0
  0
LINE
  5
140
  8
DEFAULT
 10
1.481319197677636
 20
66.8195930773568
 30
0.0
 11
1.480915197677635
 21
67.36871107735681
 31
0.0
  0
LINE
  5
141
  8
DEFAULT
 10
1.502064197677636
 20
46.1210490773568
 30
0.0
 11
1.502064197677636
 21
63.86003207735681
 31
0.0
  0
LINE
  5
142
  8
DEFAULT
 10
1.480962197677636
 20
67.7481430773568
 30
0.0
 11
1.480915197677635
 21
67.36871107735681
 31
0.0
  0
LINE
  5
143
  8
DEFAULT
 10
1.502064197677636
 20
48.64587207735681
 30
0.0
 11
0.8920641976776353
 21
48.64587207735681
 31
0.0
  0
LINE
  5
144
  8
DEFAULT
 10
21.25206419767764
 20
48.64587207735681
 30
0.0
 11
21.86206419767763
 21
48.64587207735681
 31
0.0
  0
LINE
  5
145
  8
DEFAULT
 10
1.502064197677636
 20
49.27087207735681
 30
0.0
 11
1.002064197677636
 21
49.27087207735681
 31
0.0
  0
LINE
  5
146
  8
DEFAULT
 10
21.25206419767764
 20
49.27087207735681
 30
0.0
 11
21.75206419767764
 21
49.27087207735681
 31
0.0
  0
LINE
  5
147
  8
DEFAULT
 10
4.689571197677636
 20
63.84176007735681
 30
0.0
 11
4.689571197677636
 21
64.35315207735681
 31
0.0
  0
LINE
  5
148
  8
DEFAULT
 10
5.064571197677636
 20
63.84176007735681
 30
0.0
 11
5.064571197677636
 21
64.35387807735681
 31
0.0
  0
LINE
  5
149
  8
DEFAULT
 10
17.68956319767763
 20
63.84176007735681
 30
0.0
 11
17.68956319767763
 21
64.35438107735681
 31
0.0
  0
LINE
  5
14A
  8
DEFAULT
 10
18.06456319767763
 20
63.84176007735681
 30
0.0
 11
18.06456319767763
 21
64.3536780773568
 31
0.0
  0
LINE
  5
14B
  8
DEFAULT
 10
1.502064197677636
 20
63.8120150773568
 30
0.0
 11
21.25206419767764
 21
63.8120150773568
 31
0.0
  0
LINE
  5
14C
  8
DEFAULT
 10
1.604219197677635
 20
63.86007507735681
 30
0.0
 11
4.689571197677636
 21
63.86007507735681
 31
0.0
  0
LINE
  5
14D
  8
DEFAULT
 10
5.064571197677636
 20
63.86007507735681
 30
0.0
 11
17.68956319767763
 21
63.86007507735681
 31
0.0
  0
LINE
  5
14E
  8
DEFAULT
 10
18.06456319767763
 20
63.86007507735681
 30
0.0
 11
21.14990919767763
 21
63.86007507735681
 31
0.0
  0
LINE
  5
14F
  8
DEFAULT
 10
1.486873197677636
 20
65.2198420773568
 30
0.0
 11
1.002064197677636
 21
65.21982307735681
 31
0.0
  0
LINE
  5
150
  8
DEFAULT
 10
21.24566419767763
 20
65.2206350773568
 30
0.0
 11
21.74597719767764
 21
65.22065507735681
 31
0.0
  0
LINE
  5
151
  8
DEFAULT
 10
1.484703197677636
 20
65.8448420773568
 30
0.0
 11
1.002064197677636
 21
65.84482307735681
 31
0.0
  0
LINE
  5
152
  8
DEFAULT
 10
21.24564019767763
 20
65.8456350773568
 30
0.0
 11
21.74595219767764
 21
65.84565507735681
 31
0.0
  0
LINE
  5
153
  8
DEFAULT
 10
21.23872819767763
 20
64.6827210773568
 30
0.0
 11
21.24157319767764
 21
64.2812210773568
 31
0.0
  0
LINE
  5
154
  8
DEFAULT
 10
21.23872819767763
 20
64.6827210773568
 30
0.0
 11
21.23130619767764
 21
66.8203740773568
 31
0.0
  0
LINE
  5
155
  8
DEFAULT
 10
21.24553219767764
 20
65.2430260773568
 30
0.0
 11
21.24566419767763
 21
65.2206350773568
 31
0.0
  0
LINE
  5
156
  8
DEFAULT
 10
21.24537719767763
 20
65.3456350773568
 30
0.0
 11
21.24553219767764
 21
65.2430260773568
 31
0.0
  0
LINE
  5
157
  8
DEFAULT
 10
21.23090219767763
 20
67.36949207735681
 30
0.0
 11
21.23130619767764
 21
66.8203740773568
 31
0.0
  0
LINE
  5
158
  8
DEFAULT
 10
21.24535219767764
 20
65.3768760773568
 30
0.0
 11
21.24537719767763
 21
65.3456350773568
 31
0.0
  0
LINE
  5
159
  8
DEFAULT
 10
21.24529919767764
 20
65.5331350773568
 30
0.0
 11
21.24535219767764
 21
65.3768760773568
 31
0.0
  0
LINE
  5
15A
  8
DEFAULT
 10
21.25206419767764
 20
46.1210490773568
 30
0.0
 11
21.25206419767764
 21
63.86003207735681
 31
0.0
  0
LINE
  5
15B
  8
DEFAULT
 10
21.75206419767764
 20
48.04320407735681
 30
0.0
 11
21.75206419767764
 21
48.64587207735681
 31
0.0
  0
LINE
  5
15C
  8
DEFAULT
 10
21.75206419767764
 20
48.97921207735681
 30
0.0
 11
21.75206419767764
 21
65.2306370773568
 31
0.0
  0
LINE
  5
15D
  8
DEFAULT
 10
21.75206419767764
 20
65.8356330773568
 30
0.0
 11
21.75206419767764
 21
66.2829720773568
 31
0.0
  0
LINE
  5
15E
  8
DEFAULT
 10
21.23094919767764
 20
67.7489240773568
 30
0.0
 11
21.23090219767763
 21
67.36949207735681
 31
0.0
  0
LINE
  5
15F
  8
DEFAULT
 10
21.24536219767763
 20
65.7206350773568
 30
0.0
 11
21.24534019767764
 21
65.6893930773568
 31
0.0
  0
LINE
  5
160
  8
DEFAULT
 10
21.24534019767764
 20
65.6893930773568
 30
0.0
 11
21.24529919767764
 21
65.5331350773568
 31
0.0
  0
LINE
  5
161
  8
DEFAULT
 10
21.24551719767763
 20
65.82574807735681
 30
0.0
 11
21.24536219767763
 21
65.7206350773568
 31
0.0
  0
LINE
  5
162
  8
DEFAULT
 10
21.24564019767763
 20
65.8456350773568
 30
0.0
 11
21.24551719767763
 21
65.82574807735681
 31
0.0
  0
LINE
  5
163
  8
DEFAULT
 10
22.75206419767763
 20
48.04320407735681
 30
0.0
 11
22.75206419767763
 21
66.2829720773568
 31
0.0
  0
ARC
  5
164
  8
DEFAULT
 10
0.5017521976776356
 20
48.95837207735681
 30
0.0
 40
0.4999998949084539
 50
321.3177856962674
 51
2.982101348767027
  0
ARC
  5
165
  8
DEFAULT
 10
22.25206419767763
 20
48.04320407735681
 30
0.0
 40
0.4999999999999991
 50
180.0
 51
0.0
  0
ARC
  5
166
  8
DEFAULT
 10
19.25206419767764
 20
65.04320407735681
 30
0.0
 40
2.50000028939028
 50
18.72236762906203
 51
37.61811007020108
  0
ARC
  5
167
  8
DEFAULT
 10
3.502064197677635
 20
65.04320407735681
 30
0.0
 40
2.500000018330401
 50
143.9286113590702
 51
161.2973020210414
  0
ARC
  5
168
  8
DEFAULT
 10
0.5020641976776357
 20
48.04320407735681
 30
0.0
 40
0.5
 50
180.0
 51
0.0
  0
ARC
  5
169
  8
DEFAULT
 10
11.03450122968208
 20
-121.8868220502686
 30
0.0
 40
186.4116882189014
 50
92.49239712934597
 51
92.93440721263428
  0
ARC
  5
16A
  8
DEFAULT
 10
11.71407914362706
 20
-121.8533629368271
 30
0.0
 40
186.3782641767162
 50
87.0698126010676
 51
87.51860153661359
  0
LINE
  5
16B
  8
DEFAULT
 10
2.931310155968636
 20
64.34866264896681
 30
0.0
 11
2.957063807157636
 21
64.3492387982768
 31
0.0
  0
LINE
  5
16C
  8
DEFAULT
 10
1.502064442419636
 20
46.1210491563168
 30
0.0
 11
1.690191685162636
 21
46.1208879336268
 31
0.0
  0
LINE
  5
16D
  8
DEFAULT
 10
21.06393719967764
 20
46.1208879336268
 30
0.0
 11
21.25206444241763
 21
46.1210491563168
 31
0.0
  0
LINE
  5
16E
  8
DEFAULT
 10
1.604219658678636
 20
63.86007511321681
 30
0.0
 11
1.502064442419636
 21
63.86003162115681
 31
0.0
  0
LINE
  5
16F
  8
DEFAULT
 10
21.25206444241763
 20
63.86003162115681
 30
0.0
 11
21.14990922615764
 21
63.86007511321681
 31
0.0
  0
ARC
  5
170
  8
DEFAULT
 10
21.35403646931055
 20
65.53313867341808
 30
0.0
 40
0.5012619398680813
 50
321.435604944031
 51
38.56905629178046
  0
ARC
  5
171
  8
DEFAULT
 10
1.386360141404722
 20
65.53313867341808
 30
0.0
 40
0.5012619398680813
 50
141.4309437082196
 51
218.5643950559689
  0
ENDSEC
  0
EOF
