  0
SECTION
  2
HEADER
  9
$ACADVER
  1
AC1015
  9
$ACADMAINTVER
 70
     6
  9
$DWGCODEPAGE
  3
DOS850
  9
$INSBASE
 10
0.0
 20
0.0
 30
0.0
  9
$EXTMIN
 10
1.000000E+20
 20
1.000000E+20
 30
1.000000E+20
  9
$EXTMAX
 10
-1.000000E+20
 20
-1.000000E+20
 30
-1.000000E+20
  9
$LIMMIN
 10
0.0
 20
0.0
  9
$LIMMAX
 10
0.0
 20
0.0
  9
$ORTHOMODE
 70
     0
  9
$REGENMODE
 70
     1
  9
$FILLMODE
 70
     1
  9
$QTEXTMODE
 70
     0
  9
$MIRRTEXT
 70
     1
  9
$LTSCALE
 40
1.0
  9
$ATTMODE
 70
     1
  9
$TEXTSIZE
 40
0.2
  9
$TRACEWID
 40
0.05
  9
$TEXTSTYLE
  7
Standard
  9
$CLAYER
  8
DEFAULT
  9
$CELTYPE
  6
ByLayer
  9
$CECOLOR
 62
   256
  9
$CELTSCALE
 40
1.0
  9
$DISPSILH
 70
     0
  9
$DIMSCALE
 40
1.0
  9
$DIMASZ
 40
0.18
  9
$DIMEXO
 40
0.0625
  9
$DIMDLI
 40
0.38
  9
$DIMRND
 40
0.0
  9
$DIMDLE
 40
0.0
  9
$DIMEXE
 40
0.18
  9
$DIMTP
 40
0.0
  9
$DIMTM
 40
0.0
  9
$DIMTXT
 40
0.18
  9
$DIMCEN
 40
0.09
  9
$DIMTSZ
 40
0.0
  9
$DIMTOL
 70
     0
  9
$DIMLIM
 70
     0
  9
$DIMTIH
 70
     1
  9
$DIMTOH
 70
     1
  9
$DIMSE1
 70
     0
  9
$DIMSE2
 70
     0
  9
$DIMTAD
 70
     0
  9
$DIMZIN
 70
     0
  9
$DIMBLK
  1

  9
$DIMASO
 70
     1
  9
$DIMSHO
 70
     1
  9
$DIMPOST
  1

  9
$DIMAPOST
  1

  9
$DIMALT
 70
     0
  9
$DIMALTD
 70
     2
  9
$DIMALTF
 40
25.4
  9
$DIMLFAC
 40
1.0
  9
$DIMTOFL
 70
     0
  9
$DIMTVP
 40
0.0
  9
$DIMTIX
 70
     0
  9
$DIMSOXD
 70
     0
  9
$DIMSAH
 70
     0
  9
$DIMBLK1
  1

  9
$DIMBLK2
  1

  9
$DIMSTYLE
  2
Standard
  9
$DIMCLRD
 70
     0
  9
$DIMCLRE
 70
     0
  9
$DIMCLRT
 70
     0
  9
$DIMTFAC
 40
1.0
  9
$DIMGAP
 40
0.09
  9
$DIMJUST
 70
     0
  9
$DIMSD1
 70
     0
  9
$DIMSD2
 70
     0
  9
$DIMTOLJ
 70
     1
  9
$DIMTZIN
 70
     0
  9
$DIMALTZ
 70
     0
  9
$DIMALTTZ
 70
     0
  9
$DIMUPT
 70
     0
  9
$DIMDEC
 70
     4
  9
$DIMTDEC
 70
     4
  9
$DIMALTU
 70
     2
  9
$DIMALTTD
 70
     2
  9
$DIMTXSTY
  7
Standard
  9
$DIMAUNIT
 70
     0
  9
$DIMADEC
 70
     0
  9
$DIMALTRND
 40
0.0
  9
$DIMAZIN
 70
     0
  9
$DIMDSEP
 70
     0
  9
$DIMATFIT
 70
     3
  9
$DIMFRAC
 70
     0
  9
$DIMLDRBLK
  1

  9
$DIMLUNIT
 70
     2
  9
$DIMLWD
 70
     0
  9
$DIMLWE
 70
     0
  9
$DIMTMOVE
 70
     0
  9
$LUNITS
 70
     2
  9
$LUPREC
 70
     4
  9
$SKETCHINC
 40
0.1
  9
$FILLETRAD
 40
0.0
  9
$AUNITS
 70
     0
  9
$AUPREC
 70
     0
  9
$MENU
  1
acad
  9
$ELEVATION
 40
0.0
  9
$PELEVATION
 40
0.0
  9
$THICKNESS
 40
0.0
  9
$LIMCHECK
 70
     0
  9
$CHAMFERA
 40
0.0
  9
$CHAMFERB
 40
0.0
  9
$CHAMFERC
 40
0.0
  9
$CHAMFERD
 40
0.0
  9
$SKPOLY
 70
     0
  9
$TDCREATE
 40
0.000000000
  9
$TDUCREATE
 40
0.000000000
  9
$TDUPDATE
 40
0.000000000
  9
$TDUUPDATE
 40
0.000000000
  9
$TDINDWG
 40
0.0000000000
  9
$TDUSRTIMER
 40
0.0000000000
  9
$USRTIMER
 70
     1
  9
$ANGBASE
 50
0.0
  9
$ANGDIR
 70
     0
  9
$PDMODE
 70
     0
  9
$PDSIZE
 40
0.0
  9
$PLINEWID
 40
0.0
  9
$SPLFRAME
 70
     0
  9
$SPLINETYPE
 70
     6
  9
$SPLINESEGS
 70
     8
  9
$HANDSEED
  5
4B4
  9
$SURFTAB1
 70
     6
  9
$SURFTAB2
 70
     6
  9
$SURFTYPE
 70
     6
  9
$SURFU
 70
     6
  9
$SURFV
 70
     6
  9
$UCSBASE
  2

  9
$UCSNAME
  2

  9
$UCSORG
 10
0.0
 20
0.0
 30
0.0
  9
$UCSXDIR
 10
1.0
 20
0.0
 30
0.0
  9
$UCSYDIR
 10
0.0
 20
1.0
 30
0.0
  9
$UCSORTHOREF
  2

  9
$UCSORTHOVIEW
 70
     0
  9
$UCSORGTOP
 10
0.0
 20
0.0
 30
0.0
  9
$UCSORGBOTTOM
 10
0.0
 20
0.0
 30
0.0
  9
$UCSORGLEFT
 10
0.0
 20
0.0
 30
0.0
  9
$UCSORGRIGHT
 10
0.0
 20
0.0
 30
0.0
  9
$UCSORGFRONT
 10
0.0
 20
0.0
 30
0.0
  9
$UCSORGBACK
 10
0.0
 20
0.0
 30
0.0
  9
$PUCSBASE
  2

  9
$PUCSNAME
  2

  9
$PUCSORG
 10
0.0
 20
0.0
 30
0.0
  9
$PUCSXDIR
 10
1.0
 20
0.0
 30
0.0
  9
$PUCSYDIR
 10
0.0
 20
1.0
 30
0.0
  9
$PUCSORTHOREF
  2

  9
$PUCSORTHOVIEW
 70
     0
  9
$PUCSORGTOP
 10
0.0
 20
0.0
 30
0.0
  9
$PUCSORGBOTTOM
 10
0.0
 20
0.0
 30
0.0
  9
$PUCSORGLEFT
 10
0.0
 20
0.0
 30
0.0
  9
$PUCSORGRIGHT
 10
0.0
 20
0.0
 30
0.0
  9
$PUCSORGFRONT
 10
0.0
 20
0.0
 30
0.0
  9
$PUCSORGBACK
 10
0.0
 20
0.0
 30
0.0
  9
$USERI1
 70
     0
  9
$USERI2
 70
     0
  9
$USERI3
 70
     0
  9
$USERI4
 70
     0
  9
$USERI5
 70
     0
  9
$USERR1
 40
0.0
  9
$USERR2
 40
0.0
  9
$USERR3
 40
0.0
  9
$USERR4
 40
0.0
  9
$USERR5
 40
0.0
  9
$WORLDVIEW
 70
     1
  9
$SHADEDGE
 70
     3
  9
$SHADEDIF
 70
    70
  9
$TILEMODE
 70
     1
  9
$MAXACTVP
 70
    16
  9
$PINSBASE
 10
0.0
 20
0.0
 30
0.0
  9
$PLIMCHECK
 70
     0
  9
$PEXTMIN
 10
1.000000E+20
 20
1.000000E+20
 30
1.000000E+20
  9
$PEXTMAX
 10
-1.000000E+20
 20
-1.000000E+20
 30
-1.000000E+20
  9
$PLIMMIN
 10
0.0
 20
0.0
  9
$PLIMMAX
 10
12.0
 20
9.0
  9
$UNITMODE
 70
     0
  9
$VISRETAIN
 70
     0
  9
$PLINEGEN
 70
     1
  9
$PSLTSCALE
 70
     0
  9
$TREEDEPTH
 70
  3020
  9
$CMLSTYLE
  2
Standard
  9
$CMLJUST
 70
     0
  9
$CMLSCALE
 40
1.0
  9
$PROXYGRAPHICS
 70
     0
  9
$MEASUREMENT
 70
     0
  9
$CELWEIGHT
370
     0
  9
$ENDCAPS
280
     0
  9
$JOINSTYLE
280
     0
  9
$LWDISPLAY
290
     0
  9
$INSUNITS
 70
     0
  9
$HYPERLINKBASE
  1

  9
$XEDIT
290
     1
  9
$CEPSNTYPE
380
     0
  9
$PSTYLEMODE
290
     1
  9
$FINGERPRINTGUID
  2

  9
$VERSIONGUID
  2

  9
$EXTNAMES
290
     1
  9
$PSVPSCALE
 40
0.0
  0
ENDSEC
  0
SECTION
  2
CLASSES
  0
CLASS
  1
LWPOLYLINE
  2
AcDbPolyline
  3
AutoCAD 2000
 90
    32768
280
     0
281
     1
  0
CLASS
  1
IMAGE
  2
AcDbRasterImage
  3
ISM
 90
    32895
280
     0
281
     1
  0
CLASS
  1
OLE2FRAME
  2
AcDbOle2Frame
  3
AutoCAD 2000
 90
    32768
280
     0
281
     1
  0
CLASS
  1
HATCH
  2
AcDbHatch
  3
AutoCAD 2000
 90
    32768
280
     0
281
     1
  0
CLASS
  1
DICTIONARYVAR
  2
AcDbDictionaryVar
  3
AutoCAD 2000
 90
    32768
280
     0
281
     0
  0
CLASS
  1
RASTERVARIABLES
  2
AcDbRasterVariables
  3
ISM
 90
    32768
280
     0
281
     0
  0
CLASS
  1
IMAGEDEF
  2
AcDbRasterImageDef
  3
ISM
 90
    32768
280
     0
281
     0
  0
CLASS
  1
IMAGEDEF_REACTOR
  2
AcDbRasterImageDefReactor
  3
ISM
 90
    32769
280
     0
281
     0
  0
CLASS
  1
IDBUFFER
  2
AcDbIdBuffer
  3
AutoCAD 2000
 90
    32768
280
     0
281
     0
  0
CLASS
  1
SPATIAL_FILTER
  2
AcDbSpatialFilter
  3
AutoCAD 2000
 90
    32768
280
     0
281
     0
  0
CLASS
  1
XRECORD
  2
AcDbXrecord
  3
AutoCAD 2000
 90
    32768
280
     0
281
     0
  0
CLASS
  1
SORTENTSTABLE
  2
AcDbSortentsTable
  3
AutoCAD 2000
 90
    32768
280
     0
281
     0
  0
CLASS
  1
LAYER_INDEX
  2
AcDbLayerIndex
  3
AutoCAD 2000
 90
    32768
280
     0
281
     0
  0
CLASS
  1
SPATIAL_INDEX
  2
AcDbSpatialIndex
  3
AutoCAD 2000
 90
    32768
280
     0
281
     0
  0
CLASS
  1
OBJECT_PTR
  2
CAseDLPNTableRecord
  3
"ASE-LPNTableRecord"
 90
    32769
280
     0
281
     0
  0
CLASS
  1
LAYOUT
  2
AcDbLayout
  3
AutoCAD 2000
 90
        0
280
     0
281
     0
  0
CLASS
  1
PLOTSETTINGS
  2
AcDbPlotSettings
  3
AutoCAD 2000
 90
    32768
280
     0
281
     0
  0
CLASS
  1
ACDBDICTIONARYWDFLT
  2
AcDbDictionaryWithDefault
  3
AutoCAD 2000
 90
        0
280
     0
281
     0
  0
CLASS
  1
ACDBPLACEHOLDER
  2
AcDbPlaceHolder
  3
AutoCAD 2000
 90
        0
280
     0
281
     0
  0
ENDSEC
  0
SECTION
  2
TABLES
  0
TABLE
  2
VPORT
  5
7
100
AcDbSymbolTable
 70
     1
  0
VPORT
  5
15
100
AcDbSymbolTableRecord
100
AcDbViewportTableRecord
  2
*ACTIVE
 70
     0
 10
0.0
 20
0.0
 11
1.0
 21
1.0
 12
6.591288
 22
4.579184
 13
0.0
 23
0.0
 14
1.0
 24
1.0
 15
0.0
 25
0.0
 16
0.0
 26
0.0
 36
1.0
 17
0.0
 27
0.0
 37
0.0
 40
9.158369
 41
0.688564
 42
50.0
 43
0.0
 44
0.0
 50
0.0
 51
0.0
 71
     0
 72
   100
 73
     1
 74
     1
 75
     0
 76
     0
 77
     0
 78
     0
281
     0
 65
     0
110
0.0
120
0.0
130
0.0
111
1.0
121
0.0
131
0.0
112
0.0
122
1.0
132
0.0
345
0
346
0
 79
     0
146
0.0
  0
ENDTAB
  0
TABLE
  2
LTYPE
  5
4
100
AcDbSymbolTable
 70
     3
  0
LTYPE
  5
11
100
AcDbSymbolTableRecord
100
AcDbLinetypeTableRecord
  2
ByBlock
 70
    64
  3

 72
    65
 73
     0
 40
0.0
  0
LTYPE
  5
12
100
AcDbSymbolTableRecord
100
AcDbLinetypeTableRecord
  2
ByLayer
 70
    64
  3

 72
    65
 73
     0
 40
0.0
  0
LTYPE
  5
13
100
AcDbSymbolTableRecord
100
AcDbLinetypeTableRecord
  2
Continuous
 70
    64
  3
Solid line
 72
    65
 73
     0
 40
0.0
  0
ENDTAB
  0
TABLE
  2
LAYER
  5
2
100
AcDbSymbolTable
 70
     3
  0
LAYER
  5
14
100
AcDbSymbolTableRecord
100
AcDbLayerTableRecord
  2
0
 70
     0
 62
     7
  6
Continuous
290
     1
370
    -3
390
1D
  0
LAYER
  5
23
100
AcDbSymbolTableRecord
100
AcDbLayerTableRecord
  2
DEFAULT
 70
     0
 62
     7
  6
Continuous
290
     1
370
    -3
390
1F
  0
LAYER
  5
31
100
AcDbSymbolTableRecord
100
AcDbLayerTableRecord
  2
IGES_LEVEL_0
 70
     0
 62
     7
  6
Continuous
290
     1
370
    -3
390
1F
  0
ENDTAB
  0
TABLE
  2
STYLE
  5
3
100
AcDbSymbolTable
 70
     1
  0
STYLE
  5
17
100
AcDbSymbolTableRecord
100
AcDbTextStyleTableRecord
  2
Standard
 70
     0
 40
0.0
 41
1.0
 50
0.0
 71
     0
 42
0.0
  3
txt
  4

  0
ENDTAB
  0
TABLE
  2
VIEW
  5
5
100
AcDbSymbolTable
 70
     0
  0
ENDTAB
  0
TABLE
  2
UCS
  5
6
100
AcDbSymbolTable
 70
     0
  0
ENDTAB
  0
TABLE
  2
APPID
  5
8
100
AcDbSymbolTable
 70
     1
  0
APPID
  5
16
100
AcDbSymbolTableRecord
100
AcDbRegAppTableRecord
  2
ACAD
 70
     0
  0
ENDTAB
  0
TABLE
  2
DIMSTYLE
  5
9
100
AcDbSymbolTable
 70
     1
100
AcDbDimStyleTable
 71
     0
  0
DIMSTYLE
105
18
100
AcDbSymbolTableRecord
100
AcDbDimStyleTableRecord
  2
Standard
 70
     0
  3

  4

 40
1.0
 41
0.18
 42
0.0625
 43
0.38
 44
0.18
 45
0.0
 46
0.0
 47
0.0
 48
0.0
 71
     0
 72
     0
 73
     1
 74
     1
 75
     0
 76
     0
 77
     0
 78
     0
 79
     0
140
0.18
141
0.09
142
0.0
143
25.4
144
1.0
145
0.0
146
1.0
147
0.09
148
0.0
170
     0
171
     2
172
     0
173
     0
174
     0
175
     0
176
     0
177
     0
178
     0
179
     0
271
     4
272
     4
273
     2
274
     2
275
     0
276
     0
277
     2
278
    46
279
     0
280
     0
281
     0
282
     0
283
     1
284
     0
285
     0
286
     0
288
     0
340
17
341
0
342
0
343
0
344
0
371
    -2
372
    -2
  0
ENDTAB
  0
TABLE
  2
BLOCK_RECORD
  5
1
100
AcDbSymbolTable
 70
     0
  0
BLOCK_RECORD
  5
A
100
AcDbSymbolTableRecord
100
AcDbBlockTableRecord
  2
*MODEL_SPACE
340
20
  0
BLOCK_RECORD
  5
B
100
AcDbSymbolTableRecord
100
AcDbBlockTableRecord
  2
*PAPER_SPACE
340
21
  0
ENDTAB
  0
ENDSEC
  0
SECTION
  2
BLOCKS
  0
BLOCK
  5
D
100
AcDbEntity
  8
0
100
AcDbBlockBegin
  2
*MODEL_SPACE
 70
     0
 10
0.0
 20
0.0
 30
0.0
  3
*MODEL_SPACE
  1

  0
ENDBLK
  5
E
100
AcDbEntity
  8
0
100
AcDbBlockEnd
  0
BLOCK
  5
F
100
AcDbEntity
 67
     1
  8
0
100
AcDbBlockBegin
  2
*PAPER_SPACE
 70
     0
 10
0.0
 20
0.0
 30
0.0
  3
*PAPER_SPACE
  1

  0
ENDBLK
  5
10
100
AcDbEntity
 67
     1
  8
0
100
AcDbBlockEnd
  0
ENDSEC
  0
SECTION
  2
ENTITIES
  0
LINE
  5
24
100
AcDbEntity
  8
DEFAULT
100
AcDbLine
 10
3.099575
 20
8.28455
 30
0.0
 11
3.037055
 21
8.306904
 31
0.0
  0
LINE
  5
25
100
AcDbEntity
  8
DEFAULT
100
AcDbLine
 10
3.070644
 20
8.148321
 30
0.0
 11
3.099575
 21
8.139847
 31
0.0
  0
LINE
  5
26
100
AcDbEntity
  8
DEFAULT
100
AcDbLine
 10
0.506395
 20
8.140791
 30
0.0
 11
0.532105
 21
8.148321
 31
0.0
  0
LINE
  5
27
100
AcDbEntity
  8
DEFAULT
100
AcDbLine
 10
0.568305
 20
8.307688
 30
0.0
 11
0.506394
 21
8.285553
 31
0.0
  0
LINE
  5
28
100
AcDbEntity
  8
DEFAULT
100
AcDbLine
 10
1.860861
 20
6.919589
 30
0.0
 11
1.869255
 21
7.20684
 31
0.0
  0
ARC
  5
29
100
AcDbEntity
  8
DEFAULT
100
AcDbCircle
 10
1.803019
 20
6.981687
 30
0.0
 40
0.084863
210
0.0
220
0.0
230
0.9999999999999999
100
AcDbArc
 50
225.616459
 51
312.967687
  0
LINE
  5
2A
100
AcDbEntity
  8
DEFAULT
100
AcDbLine
 10
1.735308
 20
7.20684
 30
0.0
 11
1.74366
 21
6.921038
 31
0.0
  0
LINE
  5
2B
100
AcDbEntity
  8
DEFAULT
100
AcDbLine
 10
0.748247
 20
9.985472
 30
0.0
 11
0.797496
 21
9.913347
 31
0.0
  0
ARC
  5
2C
100
AcDbEntity
  8
DEFAULT
100
AcDbCircle
 10
0.831583
 20
9.969175
 30
0.0
 40
0.084914
210
0.0
220
0.0
230
1.0
100
AcDbArc
 50
81.649115
 51
168.935031
  0
LINE
  5
2D
100
AcDbEntity
  8
DEFAULT
100
AcDbLine
 10
0.943072
 20
9.924774
 30
0.0
 11
0.843915
 21
10.053189
 31
0.0
  0
LINE
  5
2E
100
AcDbEntity
  8
DEFAULT
100
AcDbLine
 10
2.762818
 20
10.053918
 30
0.0
 11
2.663052
 21
9.924715
 31
0.0
  0
ARC
  5
2F
100
AcDbEntity
  8
DEFAULT
100
AcDbCircle
 10
2.773109
 20
9.969676
 30
0.0
 40
0.084868
210
0.0
220
0.0
230
1.0
100
AcDbArc
 50
9.619575
 51
96.964571
  0
LINE
  5
30
100
AcDbEntity
  8
DEFAULT
100
AcDbLine
 10
2.808593
 20
9.913283
 30
0.0
 11
2.856784
 21
9.983858
 31
0.0
  0
ARC
  5
32
100
AcDbEntity
  8
IGES_LEVEL_0
 62
     7
100
AcDbCircle
 10
0.91812
 20
10.226807
 30
0.0
 40
0.015625
210
0.0
220
0.0
230
1.0
100
AcDbArc
 50
360.0
 51
90.0
  0
ARC
  5
33
100
AcDbEntity
  8
IGES_LEVEL_0
 62
     7
100
AcDbCircle
 10
0.73062
 20
10.226807
 30
0.0
 40
0.015625
210
0.0
220
0.0
230
1.0
100
AcDbArc
 50
90.0
 51
180.0
  0
ARC
  5
34
100
AcDbEntity
  8
IGES_LEVEL_0
 62
     7
100
AcDbCircle
 10
0.73062
 20
9.945557
 30
0.0
 40
0.015625
210
0.0
220
0.0
230
1.0
100
AcDbArc
 50
180.0
 51
270.0
  0
LINE
  5
35
100
AcDbEntity
  8
IGES_LEVEL_0
 62
     7
100
AcDbLine
 10
0.933745
 20
9.945557
 30
0.0
 11
0.933745
 21
10.226807
 31
0.0
  0
LINE
  5
36
100
AcDbEntity
  8
IGES_LEVEL_0
 62
     7
100
AcDbLine
 10
0.73062
 20
10.242432
 30
0.0
 11
0.73062
 21
9.929932
 31
0.0
  0
LINE
  5
37
100
AcDbEntity
  8
IGES_LEVEL_0
 62
     7
100
AcDbLine
 10
0.714995
 20
9.945557
 30
0.0
 11
0.714995
 21
10.226807
 31
0.0
  0
LINE
  5
38
100
AcDbEntity
  8
IGES_LEVEL_0
 62
     7
100
AcDbLine
 10
0.73062
 20
9.929932
 30
0.0
 11
0.773589
 21
9.929932
 31
0.0
  0
LINE
  5
39
100
AcDbEntity
  8
IGES_LEVEL_0
 62
     7
100
AcDbLine
 10
0.869292
 20
10.086182
 30
0.0
 11
0.779448
 21
10.086182
 31
0.0
  0
LINE
  5
3A
100
AcDbEntity
  8
IGES_LEVEL_0
 62
     7
100
AcDbLine
 10
0.875152
 20
10.242432
 30
0.0
 11
0.91812
 21
10.242432
 31
0.0
  0
LINE
  5
3B
100
AcDbEntity
  8
IGES_LEVEL_0
 62
     7
100
AcDbLine
 10
0.779448
 20
10.242432
 30
0.0
 11
0.869292
 21
10.242432
 31
0.0
  0
LINE
  5
3C
100
AcDbEntity
  8
IGES_LEVEL_0
 62
     7
100
AcDbLine
 10
0.73062
 20
10.242432
 30
0.0
 11
0.773589
 21
10.242432
 31
0.0
  0
LINE
  5
3D
100
AcDbEntity
  8
IGES_LEVEL_0
 62
     7
100
AcDbLine
 10
0.130583
 20
8.38491
 30
0.0
 11
0.173552
 21
8.38491
 31
0.0
  0
LINE
  5
3E
100
AcDbEntity
  8
IGES_LEVEL_0
 62
     7
100
AcDbLine
 10
0.179411
 20
8.38491
 30
0.0
 11
0.269255
 21
8.38491
 31
0.0
  0
LINE
  5
3F
100
AcDbEntity
  8
IGES_LEVEL_0
 62
     7
100
AcDbLine
 10
0.269255
 20
8.22866
 30
0.0
 11
0.179411
 21
8.22866
 31
0.0
  0
LINE
  5
40
100
AcDbEntity
  8
IGES_LEVEL_0
 62
     7
100
AcDbLine
 10
0.114958
 20
8.088035
 30
0.0
 11
0.114958
 21
8.369285
 31
0.0
  0
LINE
  5
41
100
AcDbEntity
  8
IGES_LEVEL_0
 62
     7
100
AcDbLine
 10
0.130583
 20
8.38491
 30
0.0
 11
0.130583
 21
8.07241
 31
0.0
  0
ARC
  5
42
100
AcDbEntity
  8
IGES_LEVEL_0
 62
     7
100
AcDbCircle
 10
0.130583
 20
8.088035
 30
0.0
 40
0.015625
210
0.0
220
0.0
230
1.0
100
AcDbArc
 50
180.0
 51
270.0
  0
ARC
  5
43
100
AcDbEntity
  8
IGES_LEVEL_0
 62
     7
100
AcDbCircle
 10
0.130583
 20
8.369285
 30
0.0
 40
0.015625
210
0.0
220
0.0
230
1.0
100
AcDbArc
 50
90.0
 51
180.0
  0
LINE
  5
44
100
AcDbEntity
  8
IGES_LEVEL_0
 62
     7
100
AcDbLine
 10
0.269255
 20
8.199981
 30
0.0
 11
0.269255
 21
8.38491
 31
0.0
  0
LINE
  5
45
100
AcDbEntity
  8
IGES_LEVEL_0
 62
     7
100
AcDbLine
 10
0.179411
 20
8.167858
 30
0.0
 11
0.179411
 21
8.38491
 31
0.0
  0
LINE
  5
46
100
AcDbEntity
  8
IGES_LEVEL_0
 62
     7
100
AcDbLine
 10
0.177458
 20
8.16716
 30
0.0
 11
0.177458
 21
8.381004
 31
0.0
  0
LINE
  5
47
100
AcDbEntity
  8
IGES_LEVEL_0
 62
     7
100
AcDbLine
 10
0.173552
 20
8.165764
 30
0.0
 11
0.173552
 21
8.38491
 31
0.0
  0
LINE
  5
48
100
AcDbEntity
  8
IGES_LEVEL_0
 62
     7
100
AcDbLine
 10
0.130583
 20
8.07241
 30
0.0
 11
0.159562
 21
8.07241
 31
0.0
  0
LINE
  5
49
100
AcDbEntity
  8
IGES_LEVEL_0
 62
     7
100
AcDbLine
 10
0.869292
 20
10.019277
 30
0.0
 11
0.869292
 21
10.242432
 31
0.0
  0
LINE
  5
4A
100
AcDbEntity
  8
IGES_LEVEL_0
 62
     7
100
AcDbLine
 10
0.871245
 20
10.016748
 30
0.0
 11
0.871245
 21
10.238526
 31
0.0
  0
LINE
  5
4B
100
AcDbEntity
  8
IGES_LEVEL_0
 62
     7
100
AcDbLine
 10
0.875152
 20
10.242432
 30
0.0
 11
0.875152
 21
10.011688
 31
0.0
  0
LINE
  5
4C
100
AcDbEntity
  8
IGES_LEVEL_0
 62
     7
100
AcDbLine
 10
0.773589
 20
10.031983
 30
0.0
 11
0.773589
 21
10.242432
 31
0.0
  0
LINE
  5
4D
100
AcDbEntity
  8
IGES_LEVEL_0
 62
     7
100
AcDbLine
 10
0.777495
 20
10.034751
 30
0.0
 11
0.777495
 21
10.238526
 31
0.0
  0
LINE
  5
4E
100
AcDbEntity
  8
IGES_LEVEL_0
 62
     7
100
AcDbLine
 10
0.779448
 20
10.036143
 30
0.0
 11
0.779448
 21
10.242432
 31
0.0
  0
LINE
  5
4F
100
AcDbEntity
  8
IGES_LEVEL_0
 62
     7
100
AcDbLine
 10
0.91812
 20
10.242432
 30
0.0
 11
0.91812
 21
9.956042
 31
0.0
  0
LINE
  5
50
100
AcDbEntity
  8
IGES_LEVEL_0
 62
     7
100
AcDbLine
 10
0.773589
 20
9.929932
 30
0.0
 11
0.773589
 21
9.947229
 31
0.0
  0
LINE
  5
51
100
AcDbEntity
  8
IGES_LEVEL_0
 62
     7
100
AcDbLine
 10
2.831772
 20
9.929932
 30
0.0
 11
2.831772
 21
9.947229
 31
0.0
  0
LINE
  5
52
100
AcDbEntity
  8
IGES_LEVEL_0
 62
     7
100
AcDbLine
 10
2.687241
 20
10.242432
 30
0.0
 11
2.687241
 21
9.956042
 31
0.0
  0
LINE
  5
53
100
AcDbEntity
  8
IGES_LEVEL_0
 62
     7
100
AcDbLine
 10
2.825913
 20
10.036143
 30
0.0
 11
2.825913
 21
10.242432
 31
0.0
  0
LINE
  5
54
100
AcDbEntity
  8
IGES_LEVEL_0
 62
     7
100
AcDbLine
 10
2.827866
 20
10.034751
 30
0.0
 11
2.827866
 21
10.238526
 31
0.0
  0
LINE
  5
55
100
AcDbEntity
  8
IGES_LEVEL_0
 62
     7
100
AcDbLine
 10
2.831772
 20
10.031983
 30
0.0
 11
2.831772
 21
10.242432
 31
0.0
  0
LINE
  5
56
100
AcDbEntity
  8
IGES_LEVEL_0
 62
     7
100
AcDbLine
 10
2.730209
 20
10.242432
 30
0.0
 11
2.730209
 21
10.011688
 31
0.0
  0
LINE
  5
57
100
AcDbEntity
  8
IGES_LEVEL_0
 62
     7
100
AcDbLine
 10
2.734116
 20
10.016748
 30
0.0
 11
2.734116
 21
10.238526
 31
0.0
  0
LINE
  5
58
100
AcDbEntity
  8
IGES_LEVEL_0
 62
     7
100
AcDbLine
 10
2.736069
 20
10.019277
 30
0.0
 11
2.736069
 21
10.242432
 31
0.0
  0
LINE
  5
59
100
AcDbEntity
  8
IGES_LEVEL_0
 62
     7
100
AcDbLine
 10
1.690468
 20
6.94336
 30
0.0
 11
1.690468
 21
7.20684
 31
0.0
  0
LINE
  5
5A
100
AcDbEntity
  8
IGES_LEVEL_0
 62
     7
100
AcDbLine
 10
1.706093
 20
7.20684
 30
0.0
 11
1.706093
 21
6.927735
 31
0.0
  0
LINE
  5
5B
100
AcDbEntity
  8
IGES_LEVEL_0
 62
     7
100
AcDbLine
 10
1.893593
 20
7.20684
 30
0.0
 11
1.893593
 21
6.927735
 31
0.0
  0
LINE
  5
5C
100
AcDbEntity
  8
IGES_LEVEL_0
 62
     7
100
AcDbLine
 10
1.909218
 20
6.94336
 30
0.0
 11
1.909218
 21
7.20684
 31
0.0
  0
LINE
  5
5D
100
AcDbEntity
  8
IGES_LEVEL_0
 62
     7
100
AcDbLine
 10
1.743465
 20
6.927735
 30
0.0
 11
1.706093
 21
6.927735
 31
0.0
  0
LINE
  5
5E
100
AcDbEntity
  8
IGES_LEVEL_0
 62
     7
100
AcDbLine
 10
1.893593
 20
6.927735
 30
0.0
 11
1.861099
 21
6.927735
 31
0.0
  0
LINE
  5
5F
100
AcDbEntity
  8
IGES_LEVEL_0
 62
     7
100
AcDbLine
 10
2.874741
 20
10.242432
 30
0.0
 11
2.831772
 21
10.242432
 31
0.0
  0
LINE
  5
60
100
AcDbEntity
  8
IGES_LEVEL_0
 62
     7
100
AcDbLine
 10
2.825913
 20
10.242432
 30
0.0
 11
2.736069
 21
10.242432
 31
0.0
  0
LINE
  5
61
100
AcDbEntity
  8
IGES_LEVEL_0
 62
     7
100
AcDbLine
 10
2.730209
 20
10.242432
 30
0.0
 11
2.687241
 21
10.242432
 31
0.0
  0
LINE
  5
62
100
AcDbEntity
  8
IGES_LEVEL_0
 62
     7
100
AcDbLine
 10
2.736069
 20
10.086182
 30
0.0
 11
2.825913
 21
10.086182
 31
0.0
  0
LINE
  5
63
100
AcDbEntity
  8
IGES_LEVEL_0
 62
     7
100
AcDbLine
 10
2.874741
 20
9.929932
 30
0.0
 11
2.831772
 21
9.929932
 31
0.0
  0
LINE
  5
64
100
AcDbEntity
  8
IGES_LEVEL_0
 62
     7
100
AcDbLine
 10
2.890366
 20
9.945557
 30
0.0
 11
2.890366
 21
10.226807
 31
0.0
  0
LINE
  5
65
100
AcDbEntity
  8
IGES_LEVEL_0
 62
     7
100
AcDbLine
 10
2.874741
 20
10.242432
 30
0.0
 11
2.874741
 21
9.929932
 31
0.0
  0
LINE
  5
66
100
AcDbEntity
  8
IGES_LEVEL_0
 62
     7
100
AcDbLine
 10
2.671616
 20
9.945557
 30
0.0
 11
2.671616
 21
10.226807
 31
0.0
  0
ARC
  5
67
100
AcDbEntity
  8
IGES_LEVEL_0
 62
     7
100
AcDbCircle
 10
2.874741
 20
9.945557
 30
0.0
 40
0.015625
210
0.0
220
0.0
230
0.9999999999999999
100
AcDbArc
 50
270.0
 51
0.0
  0
ARC
  5
68
100
AcDbEntity
  8
IGES_LEVEL_0
 62
     7
100
AcDbCircle
 10
2.874741
 20
10.226807
 30
0.0
 40
0.015625
210
0.0
220
0.0
230
0.9999999999999999
100
AcDbArc
 50
0.0
 51
90.0
  0
ARC
  5
69
100
AcDbEntity
  8
IGES_LEVEL_0
 62
     7
100
AcDbCircle
 10
2.687241
 20
10.226807
 30
0.0
 40
0.015625
210
0.0
220
0.0
230
0.9999999999999999
100
AcDbArc
 50
90.0
 51
180.0
  0
ARC
  5
6A
100
AcDbEntity
  8
IGES_LEVEL_0
 62
     7
100
AcDbCircle
 10
1.893593
 20
6.94336
 30
0.0
 40
0.015625
210
0.0
220
0.0
230
1.0
100
AcDbArc
 50
270.0
 51
0.0
  0
ARC
  5
6B
100
AcDbEntity
  8
IGES_LEVEL_0
 62
     7
100
AcDbCircle
 10
1.706093
 20
6.94336
 30
0.0
 40
0.015625
210
0.0
220
0.0
230
1.0
100
AcDbArc
 50
180.0
 51
270.0
  0
ARC
  5
6C
100
AcDbEntity
  8
IGES_LEVEL_0
 62
     7
100
AcDbCircle
 10
5.422058
 20
0.155804
 30
0.0
 40
0.140625
210
0.0
220
0.0
230
1.0
100
AcDbArc
 50
0.0
 51
90.0
  0
ARC
  5
6D
100
AcDbEntity
  8
IGES_LEVEL_0
 62
     7
100
AcDbCircle
 10
5.422058
 20
0.155804
 30
0.0
 40
0.140625
210
0.0
220
0.0
230
1.0
100
AcDbArc
 50
90.0
 51
180.0
  0
ARC
  5
6E
100
AcDbEntity
  8
IGES_LEVEL_0
 62
     7
100
AcDbCircle
 10
5.422058
 20
0.155804
 30
0.0
 40
0.140625
210
0.0
220
0.0
230
1.0
100
AcDbArc
 50
180.0
 51
270.0
  0
ARC
  5
6F
100
AcDbEntity
  8
IGES_LEVEL_0
 62
     7
100
AcDbCircle
 10
5.422058
 20
0.155804
 30
0.0
 40
0.140625
210
0.0
220
0.0
230
1.0
100
AcDbArc
 50
270.0
 51
0.0
  0
ARC
  5
70
100
AcDbEntity
  8
IGES_LEVEL_0
 62
     7
100
AcDbCircle
 10
5.422058
 20
0.155804
 30
0.0
 40
0.15625
210
0.0
220
0.0
230
1.0
100
AcDbArc
 50
360.0
 51
90.0
  0
ARC
  5
71
100
AcDbEntity
  8
IGES_LEVEL_0
 62
     7
100
AcDbCircle
 10
5.422058
 20
0.155804
 30
0.0
 40
0.15625
210
0.0
220
0.0
230
1.0
100
AcDbArc
 50
90.0
 51
180.0
  0
ARC
  5
72
100
AcDbEntity
  8
IGES_LEVEL_0
 62
     7
100
AcDbCircle
 10
5.422058
 20
0.155804
 30
0.0
 40
0.15625
210
0.0
220
0.0
230
1.0
100
AcDbArc
 50
180.0
 51
270.0
  0
ARC
  5
73
100
AcDbEntity
  8
IGES_LEVEL_0
 62
     7
100
AcDbCircle
 10
5.422058
 20
0.155804
 30
0.0
 40
0.15625
210
0.0
220
0.0
230
1.0
100
AcDbArc
 50
270.0
 51
360.0
  0
ARC
  5
74
100
AcDbEntity
  8
IGES_LEVEL_0
 62
     7
100
AcDbCircle
 10
5.422058
 20
0.155804
 30
0.0
 40
0.125
210
0.0
220
0.0
230
1.0
100
AcDbArc
 50
360.0
 51
90.0
  0
ARC
  5
75
100
AcDbEntity
  8
IGES_LEVEL_0
 62
     7
100
AcDbCircle
 10
5.422058
 20
0.155804
 30
0.0
 40
0.125
210
0.0
220
0.0
230
1.0
100
AcDbArc
 50
90.0
 51
180.0
  0
ARC
  5
76
100
AcDbEntity
  8
IGES_LEVEL_0
 62
     7
100
AcDbCircle
 10
5.422058
 20
0.155804
 30
0.0
 40
0.125
210
0.0
220
0.0
230
1.0
100
AcDbArc
 50
180.0
 51
270.0
  0
ARC
  5
77
100
AcDbEntity
  8
IGES_LEVEL_0
 62
     7
100
AcDbCircle
 10
5.422058
 20
0.155804
 30
0.0
 40
0.125
210
0.0
220
0.0
230
0.9999999999999999
100
AcDbArc
 50
270.0
 51
360.0
  0
ARC
  5
78
100
AcDbEntity
  8
IGES_LEVEL_0
 62
     7
100
AcDbCircle
 10
5.422058
 20
0.155804
 30
0.0
 40
0.132813
210
0.0
220
0.0
230
1.0
100
AcDbArc
 50
0.0
 51
90.0
  0
ARC
  5
79
100
AcDbEntity
  8
IGES_LEVEL_0
 62
     7
100
AcDbCircle
 10
5.422058
 20
0.155804
 30
0.0
 40
0.132813
210
0.0
220
0.0
230
1.0
100
AcDbArc
 50
90.0
 51
180.0
  0
ARC
  5
7A
100
AcDbEntity
  8
IGES_LEVEL_0
 62
     7
100
AcDbCircle
 10
5.422058
 20
0.155804
 30
0.0
 40
0.132813
210
0.0
220
0.0
230
0.9999999999999999
100
AcDbArc
 50
180.0
 51
270.0
  0
ARC
  5
7B
100
AcDbEntity
  8
IGES_LEVEL_0
 62
     7
100
AcDbCircle
 10
5.422058
 20
0.155804
 30
0.0
 40
0.132813
210
0.0
220
0.0
230
1.0
100
AcDbArc
 50
270.0
 51
0.0
  0
LINE
  5
7C
100
AcDbEntity
  8
IGES_LEVEL_0
 62
     7
100
AcDbLine
 10
5.577956
 20
0.3223
 30
0.0
 11
5.576355
 21
0.312054
 31
0.0
  0
LINE
  5
7D
100
AcDbEntity
  8
IGES_LEVEL_0
 62
     7
100
AcDbLine
 10
5.578308
 20
0.312054
 30
0.0
 11
5.578308
 21
0.155804
 31
0.0
  0
LINE
  5
7E
100
AcDbEntity
  8
IGES_LEVEL_0
 62
     7
100
AcDbLine
 10
5.488817
 20
0.3223
 30
0.0
 11
5.490418
 21
0.312054
 31
0.0
  0
LINE
  5
7F
100
AcDbEntity
  8
IGES_LEVEL_0
 62
     7
100
AcDbLine
 10
5.488817
 20
0.3223
 30
0.0
 11
5.577956
 21
0.3223
 31
0.0
  0
LINE
  5
80
100
AcDbEntity
  8
IGES_LEVEL_0
 62
     7
100
AcDbLine
 10
5.422058
 20
0.312054
 30
0.0
 11
5.578308
 21
0.312054
 31
0.0
  0
ARC
  5
81
100
AcDbEntity
  8
IGES_LEVEL_0
 62
     7
100
AcDbCircle
 10
8.453465
 20
0.157351
 30
0.0
 40
0.140625
210
0.0
220
0.0
230
1.0
100
AcDbArc
 50
360.0
 51
90.0
  0
ARC
  5
82
100
AcDbEntity
  8
IGES_LEVEL_0
 62
     7
100
AcDbCircle
 10
8.453465
 20
0.157351
 30
0.0
 40
0.140625
210
0.0
220
0.0
230
1.0
100
AcDbArc
 50
90.0
 51
180.0
  0
ARC
  5
83
100
AcDbEntity
  8
IGES_LEVEL_0
 62
     7
100
AcDbCircle
 10
8.453465
 20
0.157351
 30
0.0
 40
0.140625
210
0.0
220
0.0
230
1.0
100
AcDbArc
 50
180.0
 51
270.0
  0
ARC
  5
84
100
AcDbEntity
  8
IGES_LEVEL_0
 62
     7
100
AcDbCircle
 10
8.453465
 20
0.157351
 30
0.0
 40
0.140625
210
0.0
220
0.0
230
1.0
100
AcDbArc
 50
270.0
 51
360.0
  0
ARC
  5
85
100
AcDbEntity
  8
IGES_LEVEL_0
 62
     7
100
AcDbCircle
 10
8.453465
 20
0.157351
 30
0.0
 40
0.15625
210
0.0
220
0.0
230
1.0
100
AcDbArc
 50
0.0
 51
90.0
  0
ARC
  5
86
100
AcDbEntity
  8
IGES_LEVEL_0
 62
     7
100
AcDbCircle
 10
8.453465
 20
0.157351
 30
0.0
 40
0.15625
210
0.0
220
0.0
230
1.0
100
AcDbArc
 50
90.0
 51
180.0
  0
ARC
  5
87
100
AcDbEntity
  8
IGES_LEVEL_0
 62
     7
100
AcDbCircle
 10
8.453465
 20
0.157351
 30
0.0
 40
0.15625
210
0.0
220
0.0
230
1.0
100
AcDbArc
 50
180.0
 51
270.0
  0
ARC
  5
88
100
AcDbEntity
  8
IGES_LEVEL_0
 62
     7
100
AcDbCircle
 10
8.453465
 20
0.157351
 30
0.0
 40
0.15625
210
0.0
220
0.0
230
0.9999999999999999
100
AcDbArc
 50
270.0
 51
360.0
  0
ARC
  5
89
100
AcDbEntity
  8
IGES_LEVEL_0
 62
     7
100
AcDbCircle
 10
8.453465
 20
0.157351
 30
0.0
 40
0.125
210
0.0
220
0.0
230
1.0
100
AcDbArc
 50
0.0
 51
90.0
  0
ARC
  5
8A
100
AcDbEntity
  8
IGES_LEVEL_0
 62
     7
100
AcDbCircle
 10
8.453465
 20
0.157351
 30
0.0
 40
0.125
210
0.0
220
0.0
230
1.0
100
AcDbArc
 50
90.0
 51
180.0
  0
ARC
  5
8B
100
AcDbEntity
  8
IGES_LEVEL_0
 62
     7
100
AcDbCircle
 10
8.453465
 20
0.157351
 30
0.0
 40
0.125
210
0.0
220
0.0
230
1.0
100
AcDbArc
 50
180.0
 51
270.0
  0
ARC
  5
8C
100
AcDbEntity
  8
IGES_LEVEL_0
 62
     7
100
AcDbCircle
 10
8.453465
 20
0.157351
 30
0.0
 40
0.125
210
0.0
220
0.0
230
1.0
100
AcDbArc
 50
270.0
 51
360.0
  0
ARC
  5
8D
100
AcDbEntity
  8
IGES_LEVEL_0
 62
     7
100
AcDbCircle
 10
8.453465
 20
0.157351
 30
0.0
 40
0.132813
210
0.0
220
0.0
230
1.0
100
AcDbArc
 50
0.0
 51
90.0
  0
ARC
  5
8E
100
AcDbEntity
  8
IGES_LEVEL_0
 62
     7
100
AcDbCircle
 10
8.453465
 20
0.157351
 30
0.0
 40
0.132813
210
0.0
220
0.0
230
1.0
100
AcDbArc
 50
90.0
 51
180.0
  0
ARC
  5
8F
100
AcDbEntity
  8
IGES_LEVEL_0
 62
     7
100
AcDbCircle
 10
8.453465
 20
0.157351
 30
0.0
 40
0.132813
210
0.0
220
0.0
230
1.0
100
AcDbArc
 50
180.0
 51
270.0
  0
ARC
  5
90
100
AcDbEntity
  8
IGES_LEVEL_0
 62
     7
100
AcDbCircle
 10
8.453465
 20
0.157351
 30
0.0
 40
0.132813
210
0.0
220
0.0
230
1.0
100
AcDbArc
 50
270.0
 51
360.0
  0
LINE
  5
91
100
AcDbEntity
  8
IGES_LEVEL_0
 62
     7
100
AcDbLine
 10
8.609363
 20
0.323846
 30
0.0
 11
8.607762
 21
0.313601
 31
0.0
  0
LINE
  5
92
100
AcDbEntity
  8
IGES_LEVEL_0
 62
     7
100
AcDbLine
 10
8.609715
 20
0.313601
 30
0.0
 11
8.609715
 21
0.157351
 31
0.0
  0
LINE
  5
93
100
AcDbEntity
  8
IGES_LEVEL_0
 62
     7
100
AcDbLine
 10
8.520224
 20
0.323846
 30
0.0
 11
8.521824
 21
0.313601
 31
0.0
  0
LINE
  5
94
100
AcDbEntity
  8
IGES_LEVEL_0
 62
     7
100
AcDbLine
 10
8.520224
 20
0.323846
 30
0.0
 11
8.609363
 21
0.323846
 31
0.0
  0
LINE
  5
95
100
AcDbEntity
  8
IGES_LEVEL_0
 62
     7
100
AcDbLine
 10
8.453465
 20
0.313601
 30
0.0
 11
8.609715
 21
0.313601
 31
0.0
  0
ARC
  5
96
100
AcDbEntity
  8
IGES_LEVEL_0
 62
     7
100
AcDbCircle
 10
7.295655
 20
0.160673
 30
0.0
 40
0.140625
210
0.0
220
0.0
230
1.0
100
AcDbArc
 50
360.0
 51
90.0
  0
ARC
  5
97
100
AcDbEntity
  8
IGES_LEVEL_0
 62
     7
100
AcDbCircle
 10
7.295655
 20
0.160673
 30
0.0
 40
0.140625
210
0.0
220
0.0
230
1.0
100
AcDbArc
 50
90.0
 51
180.0
  0
ARC
  5
98
100
AcDbEntity
  8
IGES_LEVEL_0
 62
     7
100
AcDbCircle
 10
7.295655
 20
0.160673
 30
0.0
 40
0.140625
210
0.0
220
0.0
230
1.0
100
AcDbArc
 50
180.0
 51
270.0
  0
ARC
  5
99
100
AcDbEntity
  8
IGES_LEVEL_0
 62
     7
100
AcDbCircle
 10
7.295655
 20
0.160673
 30
0.0
 40
0.140625
210
0.0
220
0.0
230
1.0
100
AcDbArc
 50
270.0
 51
360.0
  0
ARC
  5
9A
100
AcDbEntity
  8
IGES_LEVEL_0
 62
     7
100
AcDbCircle
 10
7.295655
 20
0.160673
 30
0.0
 40
0.15625
210
0.0
220
0.0
230
1.0
100
AcDbArc
 50
0.0
 51
90.0
  0
ARC
  5
9B
100
AcDbEntity
  8
IGES_LEVEL_0
 62
     7
100
AcDbCircle
 10
7.295655
 20
0.160673
 30
0.0
 40
0.15625
210
0.0
220
0.0
230
1.0
100
AcDbArc
 50
90.0
 51
180.0
  0
ARC
  5
9C
100
AcDbEntity
  8
IGES_LEVEL_0
 62
     7
100
AcDbCircle
 10
7.295655
 20
0.160673
 30
0.0
 40
0.15625
210
0.0
220
0.0
230
1.0
100
AcDbArc
 50
180.0
 51
270.0
  0
ARC
  5
9D
100
AcDbEntity
  8
IGES_LEVEL_0
 62
     7
100
AcDbCircle
 10
7.295655
 20
0.160673
 30
0.0
 40
0.15625
210
0.0
220
0.0
230
1.0
100
AcDbArc
 50
270.0
 51
0.0
  0
ARC
  5
9E
100
AcDbEntity
  8
IGES_LEVEL_0
 62
     7
100
AcDbCircle
 10
7.295655
 20
0.160673
 30
0.0
 40
0.125
210
0.0
220
0.0
230
1.0
100
AcDbArc
 50
360.0
 51
90.0
  0
ARC
  5
9F
100
AcDbEntity
  8
IGES_LEVEL_0
 62
     7
100
AcDbCircle
 10
7.295655
 20
0.160673
 30
0.0
 40
0.125
210
0.0
220
0.0
230
1.0
100
AcDbArc
 50
90.0
 51
180.0
  0
ARC
  5
A0
100
AcDbEntity
  8
IGES_LEVEL_0
 62
     7
100
AcDbCircle
 10
7.295655
 20
0.160673
 30
0.0
 40
0.125
210
0.0
220
0.0
230
1.0
100
AcDbArc
 50
180.0
 51
270.0
  0
ARC
  5
A1
100
AcDbEntity
  8
IGES_LEVEL_0
 62
     7
100
AcDbCircle
 10
7.295655
 20
0.160673
 30
0.0
 40
0.125
210
0.0
220
0.0
230
1.0
100
AcDbArc
 50
270.0
 51
360.0
  0
ARC
  5
A2
100
AcDbEntity
  8
IGES_LEVEL_0
 62
     7
100
AcDbCircle
 10
7.295655
 20
0.160673
 30
0.0
 40
0.132813
210
0.0
220
0.0
230
1.0
100
AcDbArc
 50
0.0
 51
90.0
  0
ARC
  5
A3
100
AcDbEntity
  8
IGES_LEVEL_0
 62
     7
100
AcDbCircle
 10
7.295655
 20
0.160673
 30
0.0
 40
0.132813
210
0.0
220
0.0
230
1.0
100
AcDbArc
 50
90.0
 51
180.0
  0
ARC
  5
A4
100
AcDbEntity
  8
IGES_LEVEL_0
 62
     7
100
AcDbCircle
 10
7.295655
 20
0.160673
 30
0.0
 40
0.132813
210
0.0
220
0.0
230
1.0
100
AcDbArc
 50
180.0
 51
270.0
  0
ARC
  5
A5
100
AcDbEntity
  8
IGES_LEVEL_0
 62
     7
100
AcDbCircle
 10
7.295655
 20
0.160673
 30
0.0
 40
0.132813
210
0.0
220
0.0
230
0.9999999999999999
100
AcDbArc
 50
270.0
 51
360.0
  0
LINE
  5
A6
100
AcDbEntity
  8
IGES_LEVEL_0
 62
     7
100
AcDbLine
 10
7.451604
 20
0.327122
 30
0.0
 11
7.45
 21
0.316877
 31
0.0
  0
LINE
  5
A7
100
AcDbEntity
  8
IGES_LEVEL_0
 62
     7
100
AcDbLine
 10
7.451953
 20
0.316877
 30
0.0
 11
7.451905
 21
0.160627
 31
0.0
  0
LINE
  5
A8
100
AcDbEntity
  8
IGES_LEVEL_0
 62
     7
100
AcDbLine
 10
7.362465
 20
0.32715
 30
0.0
 11
7.364062
 21
0.316904
 31
0.0
  0
LINE
  5
A9
100
AcDbEntity
  8
IGES_LEVEL_0
 62
     7
100
AcDbLine
 10
7.362465
 20
0.32715
 30
0.0
 11
7.451604
 21
0.327122
 31
0.0
  0
LINE
  5
AA
100
AcDbEntity
  8
IGES_LEVEL_0
 62
     7
100
AcDbLine
 10
7.295703
 20
0.316924
 30
0.0
 11
7.449567
 21
0.316877
 31
0.0
  0
LINE
  5
AB
100
AcDbEntity
  8
IGES_LEVEL_0
 62
     7
100
AcDbLine
 10
6.989442
 20
0.732019
 30
0.0
 11
6.989187
 21
1.551235
 31
0.0
  0
LINE
  5
AC
100
AcDbEntity
  8
IGES_LEVEL_0
 62
     7
100
AcDbLine
 10
6.792593
 20
0.729415
 30
0.0
 11
6.792337
 21
1.551174
 31
0.0
  0
LINE
  5
AD
100
AcDbEntity
  8
IGES_LEVEL_0
 62
     7
100
AcDbLine
 10
1.704219
 20
0.720951
 30
0.0
 11
1.704234
 21
1.423567
 31
0.0
  0
LINE
  5
AE
100
AcDbEntity
  8
IGES_LEVEL_0
 62
     7
100
AcDbLine
 10
1.901069
 20
0.720821
 30
0.0
 11
1.901084
 21
1.423563
 31
0.0
  0
ARC
  5
AF
100
AcDbEntity
  8
IGES_LEVEL_0
 62
     7
100
AcDbCircle
 10
0.110439
 20
0.016827
 30
0.0
 40
0.015625
210
0.0
220
0.0
230
1.0
100
AcDbArc
 50
180.0
 51
270.0
  0
ARC
  5
B0
100
AcDbEntity
  8
IGES_LEVEL_0
 62
     7
100
AcDbCircle
 10
0.110433
 20
0.298077
 30
0.0
 40
0.015625
210
0.0
220
0.0
230
0.9999999999999999
100
AcDbArc
 50
90.003667
 51
180.0
  0
LINE
  5
B1
100
AcDbEntity
  8
IGES_LEVEL_0
 62
     7
100
AcDbLine
 10
0.297939
 20
0.001206
 30
0.0
 11
0.308988
 21
0.005783
 31
0.0
  0
LINE
  5
B2
100
AcDbEntity
  8
IGES_LEVEL_0
 62
     7
100
AcDbLine
 10
0.308988
 20
0.005783
 30
0.0
 11
0.313564
 21
0.016832
 31
0.0
  0
ARC
  5
B3
100
AcDbEntity
  8
IGES_LEVEL_0
 62
     7
100
AcDbCircle
 10
0.297933
 20
0.298081
 30
0.0
 40
0.015625
210
0.0
220
0.0
230
1.0
100
AcDbArc
 50
0.003667
 51
90.003667
  0
LINE
  5
B4
100
AcDbEntity
  8
IGES_LEVEL_0
 62
     7
100
AcDbLine
 10
0.159613
 20
0.323914
 30
0.0
 11
0.161214
 21
0.313669
 31
0.0
  0
LINE
  5
B5
100
AcDbEntity
  8
IGES_LEVEL_0
 62
     7
100
AcDbLine
 10
0.094808
 20
0.298077
 30
0.0
 11
0.094814
 21
0.016827
 31
0.0
  0
LINE
  5
B6
100
AcDbEntity
  8
IGES_LEVEL_0
 62
     7
100
AcDbLine
 10
0.110432
 20
0.313702
 30
0.0
 11
0.110439
 21
0.001202
 31
0.0
  0
LINE
  5
B7
100
AcDbEntity
  8
IGES_LEVEL_0
 62
     7
100
AcDbLine
 10
0.153408
 20
0.001203
 30
0.0
 11
0.153401
 21
0.313703
 31
0.0
  0
LINE
  5
B8
100
AcDbEntity
  8
IGES_LEVEL_0
 62
     7
100
AcDbLine
 10
0.157314
 20
0.00511
 30
0.0
 11
0.157308
 21
0.309797
 31
0.0
  0
LINE
  5
B9
100
AcDbEntity
  8
IGES_LEVEL_0
 62
     7
100
AcDbLine
 10
0.159264
 20
0.15747
 30
0.0
 11
0.159265
 21
0.102766
 31
0.0
  0
LINE
  5
BA
100
AcDbEntity
  8
IGES_LEVEL_0
 62
     7
100
AcDbLine
 10
0.159261
 20
0.313703
 30
0.0
 11
0.159264
 21
0.157502
 31
0.0
  0
LINE
  5
BB
100
AcDbEntity
  8
IGES_LEVEL_0
 62
     7
100
AcDbLine
 10
0.249108
 20
0.157472
 30
0.0
 11
0.249109
 21
0.102767
 31
0.0
  0
LINE
  5
BC
100
AcDbEntity
  8
IGES_LEVEL_0
 62
     7
100
AcDbLine
 10
0.249104
 20
0.313705
 30
0.0
 11
0.249108
 21
0.157504
 31
0.0
  0
LINE
  5
BD
100
AcDbEntity
  8
IGES_LEVEL_0
 62
     7
100
AcDbLine
 10
0.251058
 20
0.309799
 30
0.0
 11
0.251064
 21
0.005111
 31
0.0
  0
LINE
  5
BE
100
AcDbEntity
  8
IGES_LEVEL_0
 62
     7
100
AcDbLine
 10
0.254964
 20
0.313705
 30
0.0
 11
0.25497
 21
0.001205
 31
0.0
  0
LINE
  5
BF
100
AcDbEntity
  8
IGES_LEVEL_0
 62
     7
100
AcDbLine
 10
0.297932
 20
0.313706
 30
0.0
 11
0.297939
 21
0.001206
 31
0.0
  0
LINE
  5
C0
100
AcDbEntity
  8
IGES_LEVEL_0
 62
     7
100
AcDbLine
 10
0.313558
 20
0.298082
 30
0.0
 11
0.313564
 21
0.016832
 31
0.0
  0
LINE
  5
C1
100
AcDbEntity
  8
IGES_LEVEL_0
 62
     7
100
AcDbLine
 10
0.248752
 20
0.323916
 30
0.0
 11
0.247151
 21
0.313671
 31
0.0
  0
LINE
  5
C2
100
AcDbEntity
  8
IGES_LEVEL_0
 62
     7
100
AcDbLine
 10
0.153401
 20
0.313703
 30
0.0
 11
0.110432
 21
0.313702
 31
0.0
  0
LINE
  5
C3
100
AcDbEntity
  8
IGES_LEVEL_0
 62
     7
100
AcDbLine
 10
0.249104
 20
0.313705
 30
0.0
 11
0.159261
 21
0.313703
 31
0.0
  0
LINE
  5
C4
100
AcDbEntity
  8
IGES_LEVEL_0
 62
     7
100
AcDbLine
 10
0.297932
 20
0.313706
 30
0.0
 11
0.254964
 21
0.313705
 31
0.0
  0
LINE
  5
C5
100
AcDbEntity
  8
IGES_LEVEL_0
 62
     7
100
AcDbLine
 10
0.249109
 20
0.102768
 30
0.0
 11
0.159265
 21
0.102766
 31
0.0
  0
LINE
  5
C6
100
AcDbEntity
  8
IGES_LEVEL_0
 62
     7
100
AcDbLine
 10
0.153408
 20
0.001203
 30
0.0
 11
0.110439
 21
0.001202
 31
0.0
  0
LINE
  5
C7
100
AcDbEntity
  8
IGES_LEVEL_0
 62
     7
100
AcDbLine
 10
0.297939
 20
0.001206
 30
0.0
 11
0.25497
 21
0.001205
 31
0.0
  0
ARC
  5
C8
100
AcDbEntity
  8
IGES_LEVEL_0
 62
     7
100
AcDbCircle
 10
0.720034
 20
0.017604
 30
0.0
 40
0.015625
210
0.0
220
0.0
230
1.0
100
AcDbArc
 50
180.0
 51
270.0
  0
ARC
  5
C9
100
AcDbEntity
  8
IGES_LEVEL_0
 62
     7
100
AcDbCircle
 10
0.720034
 20
0.298854
 30
0.0
 40
0.015625
210
0.0
220
0.0
230
1.0
100
AcDbArc
 50
90.0
 51
180.0
  0
ARC
  5
CA
100
AcDbEntity
  8
IGES_LEVEL_0
 62
     7
100
AcDbCircle
 10
0.907534
 20
0.017604
 30
0.0
 40
0.015625
210
0.0
220
0.0
230
0.9999999999999999
100
AcDbArc
 50
270.0
 51
0.0
  0
ARC
  5
CB
100
AcDbEntity
  8
IGES_LEVEL_0
 62
     7
100
AcDbCircle
 10
0.907534
 20
0.298854
 30
0.0
 40
0.015625
210
0.0
220
0.0
230
1.0
100
AcDbArc
 50
360.0
 51
90.0
  0
LINE
  5
CC
100
AcDbEntity
  8
IGES_LEVEL_0
 62
     7
100
AcDbLine
 10
0.769214
 20
0.324725
 30
0.0
 11
0.770815
 21
0.314479
 31
0.0
  0
LINE
  5
CD
100
AcDbEntity
  8
IGES_LEVEL_0
 62
     7
100
AcDbLine
 10
0.704409
 20
0.298854
 30
0.0
 11
0.704409
 21
0.017604
 31
0.0
  0
LINE
  5
CE
100
AcDbEntity
  8
IGES_LEVEL_0
 62
     7
100
AcDbLine
 10
0.720034
 20
0.314479
 30
0.0
 11
0.720034
 21
0.001979
 31
0.0
  0
LINE
  5
CF
100
AcDbEntity
  8
IGES_LEVEL_0
 62
     7
100
AcDbLine
 10
0.763003
 20
0.001979
 30
0.0
 11
0.763003
 21
0.314479
 31
0.0
  0
LINE
  5
D0
100
AcDbEntity
  8
IGES_LEVEL_0
 62
     7
100
AcDbLine
 10
0.766909
 20
0.005886
 30
0.0
 11
0.766909
 21
0.310573
 31
0.0
  0
LINE
  5
D1
100
AcDbEntity
  8
IGES_LEVEL_0
 62
     7
100
AcDbLine
 10
0.768862
 20
0.314479
 30
0.0
 11
0.768862
 21
0.103542
 31
0.0
  0
LINE
  5
D2
100
AcDbEntity
  8
IGES_LEVEL_0
 62
     7
100
AcDbLine
 10
0.858706
 20
0.314479
 30
0.0
 11
0.858706
 21
0.103542
 31
0.0
  0
LINE
  5
D3
100
AcDbEntity
  8
IGES_LEVEL_0
 62
     7
100
AcDbLine
 10
0.860659
 20
0.310573
 30
0.0
 11
0.860659
 21
0.005886
 31
0.0
  0
LINE
  5
D4
100
AcDbEntity
  8
IGES_LEVEL_0
 62
     7
100
AcDbLine
 10
0.864565
 20
0.314479
 30
0.0
 11
0.864565
 21
0.001979
 31
0.0
  0
LINE
  5
D5
100
AcDbEntity
  8
IGES_LEVEL_0
 62
     7
100
AcDbLine
 10
0.907534
 20
0.314479
 30
0.0
 11
0.907534
 21
0.001979
 31
0.0
  0
LINE
  5
D6
100
AcDbEntity
  8
IGES_LEVEL_0
 62
     7
100
AcDbLine
 10
0.923159
 20
0.298854
 30
0.0
 11
0.923159
 21
0.017604
 31
0.0
  0
LINE
  5
D7
100
AcDbEntity
  8
IGES_LEVEL_0
 62
     7
100
AcDbLine
 10
0.858354
 20
0.324725
 30
0.0
 11
0.856753
 21
0.314479
 31
0.0
  0
LINE
  5
D8
100
AcDbEntity
  8
IGES_LEVEL_0
 62
     7
100
AcDbLine
 10
0.858354
 20
0.324725
 30
0.0
 11
0.769214
 21
0.324725
 31
0.0
  0
LINE
  5
D9
100
AcDbEntity
  8
IGES_LEVEL_0
 62
     7
100
AcDbLine
 10
0.763003
 20
0.314479
 30
0.0
 11
0.720034
 21
0.314479
 31
0.0
  0
LINE
  5
DA
100
AcDbEntity
  8
IGES_LEVEL_0
 62
     7
100
AcDbLine
 10
0.907534
 20
0.314479
 30
0.0
 11
0.864565
 21
0.314479
 31
0.0
  0
LINE
  5
DB
100
AcDbEntity
  8
IGES_LEVEL_0
 62
     7
100
AcDbLine
 10
0.768862
 20
0.314479
 30
0.0
 11
0.858706
 21
0.314479
 31
0.0
  0
LINE
  5
DC
100
AcDbEntity
  8
IGES_LEVEL_0
 62
     7
100
AcDbLine
 10
0.858706
 20
0.103542
 30
0.0
 11
0.768862
 21
0.103542
 31
0.0
  0
LINE
  5
DD
100
AcDbEntity
  8
IGES_LEVEL_0
 62
     7
100
AcDbLine
 10
0.763003
 20
0.001979
 30
0.0
 11
0.720034
 21
0.001979
 31
0.0
  0
LINE
  5
DE
100
AcDbEntity
  8
IGES_LEVEL_0
 62
     7
100
AcDbLine
 10
0.907534
 20
0.001979
 30
0.0
 11
0.864565
 21
0.001979
 31
0.0
  0
LINE
  5
DF
100
AcDbEntity
  8
IGES_LEVEL_0
 62
     7
100
AcDbLine
 10
2.692153
 20
0.001979
 30
0.0
 11
2.735122
 21
0.001979
 31
0.0
  0
LINE
  5
E0
100
AcDbEntity
  8
IGES_LEVEL_0
 62
     7
100
AcDbLine
 10
2.836684
 20
0.001979
 30
0.0
 11
2.879653
 21
0.001979
 31
0.0
  0
LINE
  5
E1
100
AcDbEntity
  8
IGES_LEVEL_0
 62
     7
100
AcDbLine
 10
2.740981
 20
0.103542
 30
0.0
 11
2.830825
 21
0.103542
 31
0.0
  0
LINE
  5
E2
100
AcDbEntity
  8
IGES_LEVEL_0
 62
     7
100
AcDbLine
 10
2.830825
 20
0.314479
 30
0.0
 11
2.740981
 21
0.314479
 31
0.0
  0
LINE
  5
E3
100
AcDbEntity
  8
IGES_LEVEL_0
 62
     7
100
AcDbLine
 10
2.692153
 20
0.314479
 30
0.0
 11
2.735122
 21
0.314479
 31
0.0
  0
LINE
  5
E4
100
AcDbEntity
  8
IGES_LEVEL_0
 62
     7
100
AcDbLine
 10
2.836684
 20
0.314479
 30
0.0
 11
2.879653
 21
0.314479
 31
0.0
  0
LINE
  5
E5
100
AcDbEntity
  8
IGES_LEVEL_0
 62
     7
100
AcDbLine
 10
2.741333
 20
0.324725
 30
0.0
 11
2.830473
 21
0.324725
 31
0.0
  0
LINE
  5
E6
100
AcDbEntity
  8
IGES_LEVEL_0
 62
     7
100
AcDbLine
 10
2.741333
 20
0.324725
 30
0.0
 11
2.742934
 21
0.314479
 31
0.0
  0
LINE
  5
E7
100
AcDbEntity
  8
IGES_LEVEL_0
 62
     7
100
AcDbLine
 10
2.676528
 20
0.298854
 30
0.0
 11
2.676528
 21
0.017604
 31
0.0
  0
LINE
  5
E8
100
AcDbEntity
  8
IGES_LEVEL_0
 62
     7
100
AcDbLine
 10
2.692153
 20
0.314479
 30
0.0
 11
2.692153
 21
0.001979
 31
0.0
  0
LINE
  5
E9
100
AcDbEntity
  8
IGES_LEVEL_0
 62
     7
100
AcDbLine
 10
2.735122
 20
0.314479
 30
0.0
 11
2.735122
 21
0.001979
 31
0.0
  0
LINE
  5
EA
100
AcDbEntity
  8
IGES_LEVEL_0
 62
     7
100
AcDbLine
 10
2.739028
 20
0.310573
 30
0.0
 11
2.739028
 21
0.005886
 31
0.0
  0
LINE
  5
EB
100
AcDbEntity
  8
IGES_LEVEL_0
 62
     7
100
AcDbLine
 10
2.740981
 20
0.314479
 30
0.0
 11
2.740981
 21
0.103542
 31
0.0
  0
LINE
  5
EC
100
AcDbEntity
  8
IGES_LEVEL_0
 62
     7
100
AcDbLine
 10
2.830825
 20
0.314479
 30
0.0
 11
2.830825
 21
0.103542
 31
0.0
  0
LINE
  5
ED
100
AcDbEntity
  8
IGES_LEVEL_0
 62
     7
100
AcDbLine
 10
2.832778
 20
0.005886
 30
0.0
 11
2.832778
 21
0.310573
 31
0.0
  0
LINE
  5
EE
100
AcDbEntity
  8
IGES_LEVEL_0
 62
     7
100
AcDbLine
 10
2.836684
 20
0.001979
 30
0.0
 11
2.836684
 21
0.314479
 31
0.0
  0
LINE
  5
EF
100
AcDbEntity
  8
IGES_LEVEL_0
 62
     7
100
AcDbLine
 10
2.879653
 20
0.314479
 30
0.0
 11
2.879653
 21
0.001979
 31
0.0
  0
LINE
  5
F0
100
AcDbEntity
  8
IGES_LEVEL_0
 62
     7
100
AcDbLine
 10
2.895278
 20
0.298854
 30
0.0
 11
2.895278
 21
0.017604
 31
0.0
  0
LINE
  5
F1
100
AcDbEntity
  8
IGES_LEVEL_0
 62
     7
100
AcDbLine
 10
2.830473
 20
0.324725
 30
0.0
 11
2.828872
 21
0.314479
 31
0.0
  0
ARC
  5
F2
100
AcDbEntity
  8
IGES_LEVEL_0
 62
     7
100
AcDbCircle
 10
2.692153
 20
0.298854
 30
0.0
 40
0.015625
210
0.0
220
0.0
230
1.0
100
AcDbArc
 50
90.0
 51
180.0
  0
ARC
  5
F3
100
AcDbEntity
  8
IGES_LEVEL_0
 62
     7
100
AcDbCircle
 10
2.692153
 20
0.017604
 30
0.0
 40
0.015625
210
0.0
220
0.0
230
0.9999999999999999
100
AcDbArc
 50
180.0
 51
270.0
  0
ARC
  5
F4
100
AcDbEntity
  8
IGES_LEVEL_0
 62
     7
100
AcDbCircle
 10
2.879653
 20
0.298854
 30
0.0
 40
0.015625
210
0.0
220
0.0
230
1.0
100
AcDbArc
 50
0.0
 51
90.0
  0
ARC
  5
F5
100
AcDbEntity
  8
IGES_LEVEL_0
 62
     7
100
AcDbCircle
 10
2.879653
 20
0.017604
 30
0.0
 40
0.015625
210
0.0
220
0.0
230
0.9999999999999999
100
AcDbArc
 50
270.0
 51
360.0
  0
LINE
  5
F6
100
AcDbEntity
  8
IGES_LEVEL_0
 62
     7
100
AcDbLine
 10
3.296267
 20
0.001206
 30
0.0
 11
3.339236
 21
0.001205
 31
0.0
  0
LINE
  5
F7
100
AcDbEntity
  8
IGES_LEVEL_0
 62
     7
100
AcDbLine
 10
3.440798
 20
0.001203
 30
0.0
 11
3.483767
 21
0.001202
 31
0.0
  0
LINE
  5
F8
100
AcDbEntity
  8
IGES_LEVEL_0
 62
     7
100
AcDbLine
 10
3.345097
 20
0.102768
 30
0.0
 11
3.434941
 21
0.102766
 31
0.0
  0
LINE
  5
F9
100
AcDbEntity
  8
IGES_LEVEL_0
 62
     7
100
AcDbLine
 10
3.296274
 20
0.313706
 30
0.0
 11
3.339242
 21
0.313705
 31
0.0
  0
LINE
  5
FA
100
AcDbEntity
  8
IGES_LEVEL_0
 62
     7
100
AcDbLine
 10
3.345102
 20
0.313705
 30
0.0
 11
3.434945
 21
0.313703
 31
0.0
  0
LINE
  5
FB
100
AcDbEntity
  8
IGES_LEVEL_0
 62
     7
100
AcDbLine
 10
3.440805
 20
0.313703
 30
0.0
 11
3.483774
 21
0.313702
 31
0.0
  0
LINE
  5
FC
100
AcDbEntity
  8
IGES_LEVEL_0
 62
     7
100
AcDbLine
 10
3.345454
 20
0.323916
 30
0.0
 11
3.347055
 21
0.313671
 31
0.0
  0
LINE
  5
FD
100
AcDbEntity
  8
IGES_LEVEL_0
 62
     7
100
AcDbLine
 10
3.280648
 20
0.298082
 30
0.0
 11
3.280642
 21
0.016832
 31
0.0
  0
LINE
  5
FE
100
AcDbEntity
  8
IGES_LEVEL_0
 62
     7
100
AcDbLine
 10
3.296274
 20
0.313706
 30
0.0
 11
3.296267
 21
0.001206
 31
0.0
  0
LINE
  5
FF
100
AcDbEntity
  8
IGES_LEVEL_0
 62
     7
100
AcDbLine
 10
3.339242
 20
0.313705
 30
0.0
 11
3.339236
 21
0.001205
 31
0.0
  0
LINE
  5
100
100
AcDbEntity
  8
IGES_LEVEL_0
 62
     7
100
AcDbLine
 10
3.343148
 20
0.309799
 30
0.0
 11
3.343142
 21
0.005111
 31
0.0
  0
LINE
  5
101
100
AcDbEntity
  8
IGES_LEVEL_0
 62
     7
100
AcDbLine
 10
3.345102
 20
0.313705
 30
0.0
 11
3.345098
 21
0.157504
 31
0.0
  0
LINE
  5
102
100
AcDbEntity
  8
IGES_LEVEL_0
 62
     7
100
AcDbLine
 10
3.345098
 20
0.157472
 30
0.0
 11
3.345097
 21
0.102767
 31
0.0
  0
LINE
  5
103
100
AcDbEntity
  8
IGES_LEVEL_0
 62
     7
100
AcDbLine
 10
3.434945
 20
0.313703
 30
0.0
 11
3.434942
 21
0.157502
 31
0.0
  0
LINE
  5
104
100
AcDbEntity
  8
IGES_LEVEL_0
 62
     7
100
AcDbLine
 10
3.434942
 20
0.15747
 30
0.0
 11
3.434941
 21
0.102766
 31
0.0
  0
LINE
  5
105
100
AcDbEntity
  8
IGES_LEVEL_0
 62
     7
100
AcDbLine
 10
3.436892
 20
0.00511
 30
0.0
 11
3.436898
 21
0.309797
 31
0.0
  0
LINE
  5
106
100
AcDbEntity
  8
IGES_LEVEL_0
 62
     7
100
AcDbLine
 10
3.440798
 20
0.001203
 30
0.0
 11
3.440805
 21
0.313703
 31
0.0
  0
LINE
  5
107
100
AcDbEntity
  8
IGES_LEVEL_0
 62
     7
100
AcDbLine
 10
3.483774
 20
0.313702
 30
0.0
 11
3.483767
 21
0.001202
 31
0.0
  0
LINE
  5
108
100
AcDbEntity
  8
IGES_LEVEL_0
 62
     7
100
AcDbLine
 10
3.499398
 20
0.298077
 30
0.0
 11
3.499392
 21
0.016827
 31
0.0
  0
LINE
  5
109
100
AcDbEntity
  8
IGES_LEVEL_0
 62
     7
100
AcDbLine
 10
3.434593
 20
0.323914
 30
0.0
 11
3.432992
 21
0.313669
 31
0.0
  0
ARC
  5
10A
100
AcDbEntity
  8
IGES_LEVEL_0
 62
     7
100
AcDbCircle
 10
3.296273
 20
0.298081
 30
0.0
 40
0.015625
210
0.0
220
0.0
230
1.0
100
AcDbArc
 50
89.996333
 51
179.996333
  0
LINE
  5
10B
100
AcDbEntity
  8
IGES_LEVEL_0
 62
     7
100
AcDbLine
 10
3.280642
 20
0.016832
 30
0.0
 11
3.285218
 21
0.005783
 31
0.0
  0
LINE
  5
10C
100
AcDbEntity
  8
IGES_LEVEL_0
 62
     7
100
AcDbLine
 10
3.285218
 20
0.005783
 30
0.0
 11
3.296267
 21
0.001206
 31
0.0
  0
ARC
  5
10D
100
AcDbEntity
  8
IGES_LEVEL_0
 62
     7
100
AcDbCircle
 10
3.483773
 20
0.298077
 30
0.0
 40
0.015625
210
0.0
220
0.0
230
1.0
100
AcDbArc
 50
360.0
 51
89.996333
  0
ARC
  5
10E
100
AcDbEntity
  8
IGES_LEVEL_0
 62
     7
100
AcDbCircle
 10
3.483767
 20
0.016827
 30
0.0
 40
0.015625
210
0.0
220
0.0
230
1.0
100
AcDbArc
 50
270.0
 51
0.0
  0
LINE
  5
10F
100
AcDbEntity
  8
DEFAULT
100
AcDbLine
 10
1.900315
 20
0.682903
 30
0.0
 11
1.906288
 21
0.491117
 31
0.0
  0
LINE
  5
110
100
AcDbEntity
  8
DEFAULT
100
AcDbLine
 10
2.736154
 20
0.324725
 30
0.0
 11
2.732915
 21
0.38558
 31
0.0
  0
LINE
  5
111
100
AcDbEntity
  8
DEFAULT
100
AcDbLine
 10
2.853603
 20
0.433147
 30
0.0
 11
2.856424
 21
0.364728
 31
0.0
  0
ARC
  5
112
100
AcDbEntity
  8
DEFAULT
100
AcDbCircle
 10
1.63736
 20
-5.442649
 30
0.0
 40
5.934729
210
-0.0000000000000024
220
-0.0000000000000172
230
1.0
100
AcDbArc
 50
78.179691
 51
85.707324
  0
SPLINE
  5
113
100
AcDbEntity
  8
DEFAULT
100
AcDbSpline
210
0.0
220
0.0
230
1.0
 70
     0
 71
     3
 72
    13
 73
     9
 74
     0
 42
0.000001
 43
0.000001
 40
0.0
 40
0.0
 40
0.0
 40
0.0
 40
1.0
 40
2.0
 40
3.0
 40
4.0
 40
5.0
 40
6.0
 40
6.0
 40
6.0
 40
6.0
 10
1.8836764262389867
 20
0.7189856041101606
 30
-0.0000000000000004
 10
1.869144276675037
 20
0.6752400226009119
 30
-0.0000000000000004
 10
1.8594259325941884
 20
0.6166985689710449
 30
-0.0000000000000004
 10
1.84947619936856
 20
0.5234487436238653
 30
-0.0000000000000004
 10
1.8462367513416105
 20
0.4933681548021944
 30
-0.0000000000000004
 10
1.8450798056177007
 20
0.4917484307887201
 30
-0.0000000000000004
 10
1.840914801011623
 20
0.491054263354374
 30
-0.0000000000000004
 10
1.8189328322573246
 20
0.491054263354374
 30
-0.0000000000000004
 10
1.7999589223851942
 20
0.491054263354374
 30
-0.0000000000000004
  0
LINE
  5
114
100
AcDbEntity
  8
DEFAULT
100
AcDbLine
 10
1.958578
 20
0.477373
 30
0.0
 11
1.901899
 21
0.477356
 31
0.0
  0
SPLINE
  5
115
100
AcDbEntity
  8
DEFAULT
100
AcDbSpline
210
0.0
220
0.0
230
1.0
 70
     0
 71
     3
 72
    14
 73
    10
 74
     0
 42
0.000001
 43
0.000001
 40
0.0
 40
0.0
 40
0.0
 40
0.0
 40
1.0
 40
2.0
 40
3.0
 40
4.0
 40
5.0
 40
6.0
 40
7.0
 40
7.0
 40
7.0
 40
7.0
 10
1.901899065799153
 20
0.477356146955529
 30
-0.0000000000000004
 10
1.886047815390139
 20
0.4569015848687061
 30
-0.0000000000000004
 10
1.8768250895032281
 20
0.4324306188487714
 30
-0.0000000000000004
 10
1.8682172120087781
 20
0.4035327444031194
 30
-0.0000000000000004
 10
1.8595012919354055
 20
0.3689155005029408
 30
-0.0000000000000004
 10
1.8589036592979333
 20
0.3667241808322106
 30
-0.0000000000000004
 10
1.8573099722646749
 20
0.3656285209968457
 30
-0.0000000000000004
 10
1.851831673087851
 20
0.3644332557219023
 30
-0.0000000000000004
 10
1.8136827897292349
 20
0.3633375958865375
 30
-0.0000000000000004
 10
1.7998376336278064
 20
0.3633375958865375
 30
-0.0000000000000004
  0
LINE
  5
116
100
AcDbEntity
  8
DEFAULT
100
AcDbLine
 10
2.835651
 20
0.324725
 30
0.0
 11
2.736154
 21
0.324725
 31
0.0
  0
LINE
  5
117
100
AcDbEntity
  8
DEFAULT
100
AcDbLine
 10
2.838003
 20
0.369396
 30
0.0
 11
2.835651
 21
0.324725
 31
0.0
  0
LINE
  5
118
100
AcDbEntity
  8
DEFAULT
100
AcDbLine
 10
3.342199
 20
0.323929
 30
0.0
 11
3.338704
 21
0.375102
 31
0.0
  0
LINE
  5
119
100
AcDbEntity
  8
DEFAULT
100
AcDbLine
 10
3.443324
 20
0.323929
 30
0.0
 11
3.342199
 21
0.323929
 31
0.0
  0
LINE
  5
11A
100
AcDbEntity
  8
DEFAULT
100
AcDbLine
 10
3.445152
 20
0.363617
 30
0.0
 11
3.443324
 21
0.323929
 31
0.0
  0
LINE
  5
11B
100
AcDbEntity
  8
DEFAULT
100
AcDbLine
 10
2.856424
 20
0.364728
 30
0.0
 11
2.837963
 21
0.363721
 31
0.0
  0
LINE
  5
11C
100
AcDbEntity
  8
DEFAULT
100
AcDbLine
 10
1.852456
 20
0.323846
 30
0.0
 11
1.799843
 21
0.323846
 31
0.0
  0
LINE
  5
11D
100
AcDbEntity
  8
DEFAULT
100
AcDbLine
 10
1.853935
 20
0.365079
 30
0.0
 11
1.852456
 21
0.323846
 31
0.0
  0
ARC
  5
11E
100
AcDbEntity
  8
DEFAULT
100
AcDbCircle
 10
1.264122
 20
-7.973632
 30
0.0
 40
8.472425
210
-0.000000000000003
220
-0.0000000000000235
230
1.0
100
AcDbArc
 50
80.011112
 51
85.394731
  0
LINE
  5
11F
100
AcDbEntity
  8
DEFAULT
100
AcDbLine
 10
1.942089
 20
0.437616
 30
0.0
 11
1.944788
 21
0.477509
 31
0.0
  0
LINE
  5
120
100
AcDbEntity
  8
DEFAULT
100
AcDbLine
 10
1.879055
 20
0.437616
 30
0.0
 11
1.942089
 21
0.437616
 31
0.0
  0
ARC
  5
121
100
AcDbEntity
  8
DEFAULT
100
AcDbCircle
 10
1.677907
 20
-12.673588
 30
0.0
 40
13.153956
210
0.0
220
0.0
230
0.9999999999999999
100
AcDbArc
 50
82.432625
 51
88.777364
  0
LINE
  5
122
100
AcDbEntity
  8
DEFAULT
100
AcDbLine
 10
3.410177
 20
0.365806
 30
0.0
 11
3.459275
 21
0.364113
 31
0.0
  0
LINE
  5
123
100
AcDbEntity
  8
DEFAULT
100
AcDbLine
 10
3.456612
 20
0.490687
 30
0.0
 11
3.459275
 21
0.364113
 31
0.0
  0
ARC
  5
124
100
AcDbEntity
  8
DEFAULT
100
AcDbCircle
 10
1.574823
 20
-6.937903
 30
0.0
 40
7.663229
210
-0.0000000000000007
220
-0.0000000000000048
230
1.0
100
AcDbArc
 50
75.785017
 51
88.317147
  0
ARC
  5
125
100
AcDbEntity
  8
DEFAULT
100
AcDbCircle
 10
1.921779
 20
-12.673588
 30
0.0
 40
13.153956
210
0.0
220
0.0
230
1.0
100
AcDbArc
 50
91.222636
 51
97.567375
  0
LINE
  5
126
100
AcDbEntity
  8
DEFAULT
100
AcDbLine
 10
0.140412
 20
0.364113
 30
0.0
 11
0.189509
 21
0.365806
 31
0.0
  0
LINE
  5
127
100
AcDbEntity
  8
DEFAULT
100
AcDbLine
 10
0.143074
 20
0.490687
 30
0.0
 11
0.140412
 21
0.364113
 31
0.0
  0
ARC
  5
128
100
AcDbEntity
  8
DEFAULT
100
AcDbCircle
 10
2.024863
 20
-6.937903
 30
0.0
 40
7.663229
210
0.0000000000000007
220
-0.0000000000000048
230
1.0
100
AcDbArc
 50
91.682853
 51
104.214983
  0
LINE
  5
129
100
AcDbEntity
  8
DEFAULT
100
AcDbLine
 10
1.657597
 20
0.437616
 30
0.0
 11
1.654898
 21
0.477509
 31
0.0
  0
LINE
  5
12A
100
AcDbEntity
  8
DEFAULT
100
AcDbLine
 10
1.720632
 20
0.437616
 30
0.0
 11
1.657597
 21
0.437616
 31
0.0
  0
ARC
  5
12B
100
AcDbEntity
  8
DEFAULT
100
AcDbCircle
 10
2.335565
 20
-7.973632
 30
0.0
 40
8.472425
210
0.000000000000003
220
-0.0000000000000235
230
0.9999999999999999
100
AcDbArc
 50
94.605269
 51
99.988888
  0
LINE
  5
12C
100
AcDbEntity
  8
DEFAULT
100
AcDbLine
 10
1.747231
 20
0.323846
 30
0.0
 11
1.799843
 21
0.323846
 31
0.0
  0
LINE
  5
12D
100
AcDbEntity
  8
DEFAULT
100
AcDbLine
 10
1.745752
 20
0.365079
 30
0.0
 11
1.747231
 21
0.323846
 31
0.0
  0
LINE
  5
12E
100
AcDbEntity
  8
DEFAULT
100
AcDbLine
 10
0.743262
 20
0.364728
 30
0.0
 11
0.761723
 21
0.363721
 31
0.0
  0
LINE
  5
12F
100
AcDbEntity
  8
DEFAULT
100
AcDbLine
 10
0.257488
 20
0.323929
 30
0.0
 11
0.260982
 21
0.375102
 31
0.0
  0
LINE
  5
130
100
AcDbEntity
  8
DEFAULT
100
AcDbLine
 10
0.156362
 20
0.323929
 30
0.0
 11
0.257488
 21
0.323929
 31
0.0
  0
LINE
  5
131
100
AcDbEntity
  8
DEFAULT
100
AcDbLine
 10
0.154534
 20
0.363617
 30
0.0
 11
0.156362
 21
0.323929
 31
0.0
  0
LINE
  5
132
100
AcDbEntity
  8
DEFAULT
100
AcDbLine
 10
0.764035
 20
0.324725
 30
0.0
 11
0.863532
 21
0.324725
 31
0.0
  0
LINE
  5
133
100
AcDbEntity
  8
DEFAULT
100
AcDbLine
 10
0.761684
 20
0.369396
 30
0.0
 11
0.764035
 21
0.324725
 31
0.0
  0
SPLINE
  5
134
100
AcDbEntity
  8
DEFAULT
100
AcDbSpline
210
0.0
220
0.0
230
1.0
 70
     0
 71
     3
 72
    14
 73
    10
 74
     0
 42
0.000001
 43
0.000001
 40
0.0
 40
0.0
 40
0.0
 40
0.0
 40
1.0
 40
2.0
 40
3.0
 40
4.0
 40
5.0
 40
6.0
 40
7.0
 40
7.0
 40
7.0
 40
7.0
 10
1.6977872360074464
 20
0.477356146955529
 30
-0.0000000000000004
 10
1.7136384864164604
 20
0.4569015848687061
 30
-0.0000000000000004
 10
1.7228612123033713
 20
0.4324306188487714
 30
-0.0000000000000004
 10
1.7314690897978213
 20
0.4035327444031194
 30
-0.0000000000000004
 10
1.740185009871194
 20
0.3689155005029408
 30
-0.0000000000000004
 10
1.7407826425086661
 20
0.3667241808322106
 30
-0.0000000000000004
 10
1.7423763295419246
 20
0.3656285209968457
 30
-0.0000000000000004
 10
1.7478546287187484
 20
0.3644332557219023
 30
-0.0000000000000004
 10
1.7860035120773645
 20
0.3633375958865375
 30
-0.0000000000000004
 10
1.7998486681787931
 20
0.3633375958865375
 30
-0.0000000000000004
  0
LINE
  5
135
100
AcDbEntity
  8
DEFAULT
100
AcDbLine
 10
1.641108
 20
0.477373
 30
0.0
 11
1.697787
 21
0.477356
 31
0.0
  0
SPLINE
  5
136
100
AcDbEntity
  8
DEFAULT
100
AcDbSpline
210
0.0
220
0.0
230
1.0
 70
     0
 71
     3
 72
    13
 73
     9
 74
     0
 42
0.000001
 43
0.000001
 40
0.0
 40
0.0
 40
0.0
 40
0.0
 40
1.0
 40
2.0
 40
3.0
 40
4.0
 40
5.0
 40
6.0
 40
6.0
 40
6.0
 40
6.0
 10
1.7160098755676128
 20
0.7189856041101606
 30
-0.0000000000000004
 10
1.7305420251315624
 20
0.6752400226009119
 30
-0.0000000000000004
 10
1.740260369212411
 20
0.6166985689710449
 30
-0.0000000000000004
 10
1.7502101024380394
 20
0.5234487436238653
 30
-0.0000000000000004
 10
1.753449550464989
 20
0.4933681548021944
 30
-0.0000000000000004
 10
1.7546064961888987
 20
0.4917484307887201
 30
-0.0000000000000004
 10
1.7587715007949765
 20
0.491054263354374
 30
-0.0000000000000004
 10
1.7807534695492748
 20
0.491054263354374
 30
-0.0000000000000004
 10
1.7997273794214053
 20
0.491054263354374
 30
-0.0000000000000004
  0
ARC
  5
137
100
AcDbEntity
  8
DEFAULT
100
AcDbCircle
 10
1.962327
 20
-5.442649
 30
0.0
 40
5.934729
210
0.0000000000000024
220
-0.0000000000000172
230
1.0
100
AcDbArc
 50
94.292676
 51
101.820309
  0
LINE
  5
138
100
AcDbEntity
  8
DEFAULT
100
AcDbLine
 10
0.746083
 20
0.433147
 30
0.0
 11
0.743262
 21
0.364728
 31
0.0
  0
LINE
  5
139
100
AcDbEntity
  8
DEFAULT
100
AcDbLine
 10
0.863532
 20
0.324725
 30
0.0
 11
0.866772
 21
0.38558
 31
0.0
  0
LINE
  5
13A
100
AcDbEntity
  8
DEFAULT
100
AcDbLine
 10
1.699371
 20
0.682903
 30
0.0
 11
1.693399
 21
0.491117
 31
0.0
  0
LINE
  5
13B
100
AcDbEntity
  8
IGES_LEVEL_0
 62
     7
100
AcDbLine
 10
0.762416
 20
9.910593
 30
0.0
 11
0.5683
 21
9.892059
 31
0.0
  0
LINE
  5
13C
100
AcDbEntity
  8
IGES_LEVEL_0
 62
     7
100
AcDbLine
 10
0.970155
 20
9.9269
 30
0.0
 11
0.762416
 21
9.910593
 31
0.0
  0
LINE
  5
13D
100
AcDbEntity
  8
IGES_LEVEL_0
 62
     7
100
AcDbLine
 10
1.178148
 20
9.939587
 30
0.0
 11
0.970155
 21
9.9269
 31
0.0
  0
LINE
  5
13E
100
AcDbEntity
  8
IGES_LEVEL_0
 62
     7
100
AcDbLine
 10
1.386325
 20
9.948649
 30
0.0
 11
1.178148
 21
9.939587
 31
0.0
  0
LINE
  5
13F
100
AcDbEntity
  8
IGES_LEVEL_0
 62
     7
100
AcDbLine
 10
1.594624
 20
9.954085
 30
0.0
 11
1.386325
 21
9.948649
 31
0.0
  0
LINE
  5
140
100
AcDbEntity
  8
IGES_LEVEL_0
 62
     7
100
AcDbLine
 10
1.802985
 20
9.955894
 30
0.0
 11
1.594624
 21
9.954085
 31
0.0
  0
LINE
  5
141
100
AcDbEntity
  8
IGES_LEVEL_0
 62
     7
100
AcDbLine
 10
2.011345
 20
9.954074
 30
0.0
 11
1.802985
 21
9.955894
 31
0.0
  0
LINE
  5
142
100
AcDbEntity
  8
IGES_LEVEL_0
 62
     7
100
AcDbLine
 10
2.219643
 20
9.948627
 30
0.0
 11
2.011345
 21
9.954074
 31
0.0
  0
LINE
  5
143
100
AcDbEntity
  8
IGES_LEVEL_0
 62
     7
100
AcDbLine
 10
2.42782
 20
9.939553
 30
0.0
 11
2.219643
 21
9.948627
 31
0.0
  0
LINE
  5
144
100
AcDbEntity
  8
IGES_LEVEL_0
 62
     7
100
AcDbLine
 10
2.635812
 20
9.926855
 30
0.0
 11
2.42782
 21
9.939553
 31
0.0
  0
LINE
  5
145
100
AcDbEntity
  8
IGES_LEVEL_0
 62
     7
100
AcDbLine
 10
2.84355
 20
9.910537
 30
0.0
 11
2.635812
 21
9.926855
 31
0.0
  0
LINE
  5
146
100
AcDbEntity
  8
IGES_LEVEL_0
 62
     7
100
AcDbLine
 10
3.03705
 20
9.892056
 30
0.0
 11
2.84355
 21
9.910537
 31
0.0
  0
LINE
  5
147
100
AcDbEntity
  8
IGES_LEVEL_0
 62
     7
100
AcDbLine
 10
2.832079
 20
9.74069
 30
0.0
 11
3.03705
 21
9.721442
 31
0.0
  0
LINE
  5
148
100
AcDbEntity
  8
IGES_LEVEL_0
 62
     7
100
AcDbLine
 10
2.626724
 20
9.756461
 30
0.0
 11
2.832079
 21
9.74069
 31
0.0
  0
LINE
  5
149
100
AcDbEntity
  8
IGES_LEVEL_0
 62
     7
100
AcDbLine
 10
2.421045
 20
9.768743
 30
0.0
 11
2.626724
 21
9.756461
 31
0.0
  0
LINE
  5
14A
100
AcDbEntity
  8
IGES_LEVEL_0
 62
     7
100
AcDbLine
 10
2.215076
 20
9.777526
 30
0.0
 11
2.421045
 21
9.768743
 31
0.0
  0
LINE
  5
14B
100
AcDbEntity
  8
IGES_LEVEL_0
 62
     7
100
AcDbLine
 10
2.008903
 20
9.782799
 30
0.0
 11
2.215076
 21
9.777526
 31
0.0
  0
LINE
  5
14C
100
AcDbEntity
  8
IGES_LEVEL_0
 62
     7
100
AcDbLine
 10
1.80267
 20
9.784557
 30
0.0
 11
2.008903
 21
9.782799
 31
0.0
  0
LINE
  5
14D
100
AcDbEntity
  8
IGES_LEVEL_0
 62
     7
100
AcDbLine
 10
1.596437
 20
9.7828
 30
0.0
 11
1.80267
 21
9.784557
 31
0.0
  0
LINE
  5
14E
100
AcDbEntity
  8
IGES_LEVEL_0
 62
     7
100
AcDbLine
 10
1.390266
 20
9.777527
 30
0.0
 11
1.596437
 21
9.7828
 31
0.0
  0
LINE
  5
14F
100
AcDbEntity
  8
IGES_LEVEL_0
 62
     7
100
AcDbLine
 10
1.184298
 20
9.768744
 30
0.0
 11
1.390266
 21
9.777527
 31
0.0
  0
LINE
  5
150
100
AcDbEntity
  8
IGES_LEVEL_0
 62
     7
100
AcDbLine
 10
0.978621
 20
9.756462
 30
0.0
 11
1.184298
 21
9.768744
 31
0.0
  0
LINE
  5
151
100
AcDbEntity
  8
IGES_LEVEL_0
 62
     7
100
AcDbLine
 10
0.773269
 20
9.740692
 30
0.0
 11
0.978621
 21
9.756462
 31
0.0
  0
LINE
  5
152
100
AcDbEntity
  8
IGES_LEVEL_0
 62
     7
100
AcDbLine
 10
0.5683
 20
9.721444
 30
0.0
 11
0.773269
 21
9.740692
 31
0.0
  0
LINE
  5
153
100
AcDbEntity
  8
IGES_LEVEL_0
 62
     7
100
AcDbLine
 10
3.099573
 20
7.908005
 30
0.0
 11
3.099574
 21
7.93442
 31
0.0
  0
LINE
  5
154
100
AcDbEntity
  8
IGES_LEVEL_0
 62
     7
100
AcDbLine
 10
3.099576
 20
7.957895
 30
0.0
 11
3.099574
 21
7.919982
 31
0.0
  0
LINE
  5
155
100
AcDbEntity
  8
IGES_LEVEL_0
 62
     7
100
AcDbLine
 10
3.09955
 20
8.226446
 30
0.0
 11
3.099551
 21
8.210821
 31
0.0
  0
LINE
  5
156
100
AcDbEntity
  8
IGES_LEVEL_0
 62
     7
100
AcDbLine
 10
3.07142
 20
7.936733
 30
0.0
 11
3.071421
 21
8.053685
 31
0.0
  0
LINE
  5
157
100
AcDbEntity
  8
IGES_LEVEL_0
 62
     7
100
AcDbLine
 10
3.037054
 20
9.38963
 30
0.0
 11
3.037054
 21
9.42559
 31
0.0
  0
LINE
  5
158
100
AcDbEntity
  8
IGES_LEVEL_0
 62
     7
100
AcDbLine
 10
3.037056
 20
7.206841
 30
0.0
 11
3.037054
 21
9.38963
 31
0.0
  0
LINE
  5
159
100
AcDbEntity
  8
IGES_LEVEL_0
 62
     7
100
AcDbLine
 10
3.03705
 20
9.892063
 30
0.0
 11
3.03705
 21
9.389626
 31
0.0
  0
LINE
  5
15A
100
AcDbEntity
  8
IGES_LEVEL_0
 62
     7
100
AcDbLine
 10
0.5058
 20
9.587468
 30
0.0
 11
0.5683
 21
9.587467
 31
0.0
  0
LINE
  5
15B
100
AcDbEntity
  8
IGES_LEVEL_0
 62
     7
100
AcDbLine
 10
3.09955
 20
9.587465
 30
0.0
 11
3.03705
 21
9.587465
 31
0.0
  0
LINE
  5
15C
100
AcDbEntity
  8
IGES_LEVEL_0
 62
     7
100
AcDbLine
 10
0.5058
 20
9.509343
 30
0.0
 11
0.5683
 21
9.509342
 31
0.0
  0
LINE
  5
15D
100
AcDbEntity
  8
IGES_LEVEL_0
 62
     7
100
AcDbLine
 10
3.09955
 20
9.50934
 30
0.0
 11
3.03705
 21
9.50934
 31
0.0
  0
LINE
  5
15E
100
AcDbEntity
  8
IGES_LEVEL_0
 62
     7
100
AcDbLine
 10
0.842023
 20
9.433637
 30
0.0
 11
0.5683
 21
9.419962
 31
0.0
  0
LINE
  5
15F
100
AcDbEntity
  8
IGES_LEVEL_0
 62
     7
100
AcDbLine
 10
1.11613
 20
9.443902
 30
0.0
 11
0.842023
 21
9.433637
 31
0.0
  0
LINE
  5
160
100
AcDbEntity
  8
IGES_LEVEL_0
 62
     7
100
AcDbLine
 10
1.390541
 20
9.450752
 30
0.0
 11
1.11613
 21
9.443902
 31
0.0
  0
LINE
  5
161
100
AcDbEntity
  8
IGES_LEVEL_0
 62
     7
100
AcDbLine
 10
1.665249
 20
9.454179
 30
0.0
 11
1.390541
 21
9.450752
 31
0.0
  0
LINE
  5
162
100
AcDbEntity
  8
IGES_LEVEL_0
 62
     7
100
AcDbLine
 10
1.940102
 20
9.454179
 30
0.0
 11
1.665249
 21
9.454179
 31
0.0
  0
LINE
  5
163
100
AcDbEntity
  8
IGES_LEVEL_0
 62
     7
100
AcDbLine
 10
2.21481
 20
9.450751
 30
0.0
 11
1.940102
 21
9.454179
 31
0.0
  0
LINE
  5
164
100
AcDbEntity
  8
IGES_LEVEL_0
 62
     7
100
AcDbLine
 10
2.489221
 20
9.443901
 30
0.0
 11
2.21481
 21
9.450751
 31
0.0
  0
LINE
  5
165
100
AcDbEntity
  8
IGES_LEVEL_0
 62
     7
100
AcDbLine
 10
2.763327
 20
9.433635
 30
0.0
 11
2.489221
 21
9.443901
 31
0.0
  0
LINE
  5
166
100
AcDbEntity
  8
IGES_LEVEL_0
 62
     7
100
AcDbLine
 10
3.03705
 20
9.41996
 30
0.0
 11
2.763327
 21
9.433635
 31
0.0
  0
LINE
  5
167
100
AcDbEntity
  8
IGES_LEVEL_0
 62
     7
100
AcDbLine
 10
3.03705
 20
8.226446
 30
0.0
 11
3.09955
 21
8.226447
 31
0.0
  0
LINE
  5
168
100
AcDbEntity
  8
IGES_LEVEL_0
 62
     7
100
AcDbLine
 10
3.03705
 20
8.148321
 30
0.0
 11
3.09955
 21
8.148322
 31
0.0
  0
LINE
  5
169
100
AcDbEntity
  8
IGES_LEVEL_0
 62
     7
100
AcDbLine
 10
0.568306
 20
7.206839
 30
0.0
 11
3.037056
 21
7.206841
 31
0.0
  0
LINE
  5
16A
100
AcDbEntity
  8
IGES_LEVEL_0
 62
     7
100
AcDbLine
 10
0.568304
 20
9.389632
 30
0.0
 11
0.568306
 21
7.206839
 31
0.0
  0
LINE
  5
16B
100
AcDbEntity
  8
IGES_LEVEL_0
 62
     7
100
AcDbLine
 10
0.5683
 20
9.389632
 30
0.0
 11
0.5683
 21
9.892061
 31
0.0
  0
LINE
  5
16C
100
AcDbEntity
  8
IGES_LEVEL_0
 62
     7
100
AcDbLine
 10
0.53392
 20
7.936718
 30
0.0
 11
0.533921
 21
8.053683
 31
0.0
  0
LINE
  5
16D
100
AcDbEntity
  8
IGES_LEVEL_0
 62
     7
100
AcDbLine
 10
0.56892
 20
8.148321
 30
0.0
 11
0.50642
 21
8.148322
 31
0.0
  0
LINE
  5
16E
100
AcDbEntity
  8
IGES_LEVEL_0
 62
     7
100
AcDbLine
 10
0.56892
 20
8.226446
 30
0.0
 11
0.50642
 21
8.226447
 31
0.0
  0
LINE
  5
16F
100
AcDbEntity
  8
IGES_LEVEL_0
 62
     7
100
AcDbLine
 10
0.50642
 20
9.50934
 30
0.0
 11
0.56892
 21
9.50934
 31
0.0
  0
LINE
  5
170
100
AcDbEntity
  8
IGES_LEVEL_0
 62
     7
100
AcDbLine
 10
0.50642
 20
9.587465
 30
0.0
 11
0.56892
 21
9.587465
 31
0.0
  0
LINE
  5
171
100
AcDbEntity
  8
DEFAULT
 62
     7
100
AcDbLine
 10
0.951112
 20
9.434378
 30
0.0
 11
0.951112
 21
9.409064
 31
0.0
  0
LINE
  5
172
100
AcDbEntity
  8
DEFAULT
 62
     7
100
AcDbLine
 10
1.029237
 20
9.436777
 30
0.0
 11
1.029237
 21
9.409064
 31
0.0
  0
LINE
  5
173
100
AcDbEntity
  8
DEFAULT
 62
     7
100
AcDbLine
 10
2.576112
 20
9.436778
 30
0.0
 11
2.576112
 21
9.409064
 31
0.0
  0
LINE
  5
174
100
AcDbEntity
  8
DEFAULT
 62
     7
100
AcDbLine
 10
2.654237
 20
9.434378
 30
0.0
 11
2.654237
 21
9.409064
 31
0.0
  0
LINE
  5
175
100
AcDbEntity
  8
DEFAULT
 62
     7
100
AcDbLine
 10
0.984353
 20
9.409194
 30
0.0
 11
0.973226
 21
9.409182
 31
0.0
  0
LINE
  5
176
100
AcDbEntity
  8
DEFAULT
 62
     7
100
AcDbLine
 10
0.568304
 20
9.399612
 30
0.0
 11
3.037054
 21
9.399612
 31
0.0
  0
LINE
  5
177
100
AcDbEntity
  8
DEFAULT
 62
     7
100
AcDbLine
 10
1.029237
 20
9.41183
 30
0.0
 11
2.576112
 21
9.41183
 31
0.0
  0
LINE
  5
178
100
AcDbEntity
  8
DEFAULT
 62
     7
100
AcDbLine
 10
0.995997
 20
9.409194
 30
0.0
 11
0.984353
 21
9.409194
 31
0.0
  0
LINE
  5
179
100
AcDbEntity
  8
DEFAULT
 62
     7
100
AcDbLine
 10
3.028539
 20
9.411829
 30
0.0
 11
2.654237
 21
9.41183
 31
0.0
  0
LINE
  5
17A
100
AcDbEntity
  8
DEFAULT
 62
     7
100
AcDbLine
 10
1.007124
 20
9.409182
 30
0.0
 11
0.995997
 21
9.409194
 31
0.0
  0
LINE
  5
17B
100
AcDbEntity
  8
DEFAULT
 62
     7
100
AcDbLine
 10
2.609353
 20
9.409194
 30
0.0
 11
2.598226
 21
9.409182
 31
0.0
  0
LINE
  5
17C
100
AcDbEntity
  8
DEFAULT
 62
     7
100
AcDbLine
 10
2.620997
 20
9.409194
 30
0.0
 11
2.609353
 21
9.409194
 31
0.0
  0
LINE
  5
17D
100
AcDbEntity
  8
DEFAULT
 62
     7
100
AcDbLine
 10
2.632124
 20
9.409182
 30
0.0
 11
2.620997
 21
9.409194
 31
0.0
  0
LINE
  5
17E
100
AcDbEntity
  8
DEFAULT
 62
     7
100
AcDbLine
 10
0.5683
 20
9.41183
 30
0.0
 11
0.951112
 21
9.41183
 31
0.0
  0
ARC
  5
17F
100
AcDbEntity
  8
IGES_LEVEL_0
 62
     7
100
AcDbCircle
 10
7.699976
 20
2.071738
 30
0.0
 40
0.048437
210
0.0
220
0.0
230
1.0
100
AcDbArc
 50
360.0
 51
90.0
  0
ARC
  5
180
100
AcDbEntity
  8
IGES_LEVEL_0
 62
     7
100
AcDbCircle
 10
7.699976
 20
2.071738
 30
0.0
 40
0.048437
210
0.0
220
0.0
230
1.0
100
AcDbArc
 50
90.0
 51
180.0
  0
ARC
  5
181
100
AcDbEntity
  8
IGES_LEVEL_0
 62
     7
100
AcDbCircle
 10
7.699976
 20
2.071738
 30
0.0
 40
0.048437
210
0.0
220
0.0
230
1.0
100
AcDbArc
 50
180.0
 51
270.0
  0
ARC
  5
182
100
AcDbEntity
  8
IGES_LEVEL_0
 62
     7
100
AcDbCircle
 10
7.699976
 20
2.071738
 30
0.0
 40
0.048437
210
0.0
220
0.0
230
1.0
100
AcDbArc
 50
270.0
 51
0.0
  0
ARC
  5
183
100
AcDbEntity
  8
IGES_LEVEL_0
 62
     7
100
AcDbCircle
 10
7.429824
 20
1.687017
 30
0.0
 40
0.281249
210
0.0
220
0.0
230
1.0
100
AcDbArc
 50
261.637831
 51
316.170062
  0
ARC
  5
184
100
AcDbEntity
  8
IGES_LEVEL_0
 62
     7
100
AcDbCircle
 10
7.699976
 20
2.071738
 30
0.0
 40
0.054688
210
0.0
220
0.0
230
0.9999999999999999
100
AcDbArc
 50
360.0
 51
90.0
  0
ARC
  5
185
100
AcDbEntity
  8
IGES_LEVEL_0
 62
     7
100
AcDbCircle
 10
7.699976
 20
2.071738
 30
0.0
 40
0.054688
210
0.0
220
0.0
230
1.0
100
AcDbArc
 50
90.0
 51
180.0
  0
ARC
  5
186
100
AcDbEntity
  8
IGES_LEVEL_0
 62
     7
100
AcDbCircle
 10
7.699976
 20
2.071738
 30
0.0
 40
0.054688
210
0.0
220
0.0
230
0.9999999999999999
100
AcDbArc
 50
180.0
 51
270.0
  0
ARC
  5
187
100
AcDbEntity
  8
IGES_LEVEL_0
 62
     7
100
AcDbCircle
 10
7.699976
 20
2.071738
 30
0.0
 40
0.054688
210
0.0
220
0.0
230
1.0
100
AcDbArc
 50
270.0
 51
360.0
  0
ARC
  5
188
100
AcDbEntity
  8
IGES_LEVEL_0
 62
     7
100
AcDbCircle
 10
7.434377
 20
1.985729
 30
0.0
 40
0.059375
210
0.0
220
0.0
230
1.0
100
AcDbArc
 50
146.770015
 51
194.543297
  0
ARC
  5
189
100
AcDbEntity
  8
IGES_LEVEL_0
 62
     7
100
AcDbCircle
 10
7.434377
 20
1.985729
 30
0.0
 40
0.059375
210
0.0
220
0.0
230
1.0
100
AcDbArc
 50
194.543297
 51
242.31658
  0
ARC
  5
18A
100
AcDbEntity
  8
IGES_LEVEL_0
 62
     7
100
AcDbCircle
 10
7.434377
 20
1.985729
 30
0.0
 40
0.059375
210
0.0
220
0.0
230
1.0
100
AcDbArc
 50
242.31658
 51
290.089862
  0
ARC
  5
18B
100
AcDbEntity
  8
IGES_LEVEL_0
 62
     7
100
AcDbCircle
 10
7.434377
 20
1.985729
 30
0.0
 40
0.059375
210
0.0
220
0.0
230
1.0
100
AcDbArc
 50
290.089862
 51
337.863145
  0
ARC
  5
18C
100
AcDbEntity
  8
IGES_LEVEL_0
 62
     7
100
AcDbCircle
 10
7.434377
 20
1.985729
 30
0.0
 40
0.05938
210
0.0
220
0.0
230
0.9999999999999999
100
AcDbArc
 50
13.28008
 51
80.018326
  0
ARC
  5
18D
100
AcDbEntity
  8
IGES_LEVEL_0
 62
     7
100
AcDbCircle
 10
7.434377
 20
1.985729
 30
0.0
 40
0.05938
210
0.0
220
0.0
230
1.0
100
AcDbArc
 50
80.018326
 51
146.756572
  0
LINE
  5
18E
100
AcDbEntity
  8
IGES_LEVEL_0
 62
     7
100
AcDbLine
 10
7.493709
 20
1.987976
 30
0.0
 11
7.492167
 21
1.999353
 31
0.0
  0
LINE
  5
18F
100
AcDbEntity
  8
IGES_LEVEL_0
 62
     7
100
AcDbLine
 10
6.79909
 20
2.188642
 30
0.0
 11
6.834968
 21
2.173033
 31
0.0
  0
ARC
  5
190
100
AcDbEntity
  8
IGES_LEVEL_0
 62
     7
100
AcDbCircle
 10
7.062211
 20
2.18278
 30
0.0
 40
0.069974
210
0.0
220
0.0
230
0.9999999999999999
100
AcDbArc
 50
200.86109
 51
264.645408
  0
ARC
  5
191
100
AcDbEntity
  8
IGES_LEVEL_0
 62
     7
100
AcDbCircle
 10
7.062211
 20
2.18278
 30
0.0
 40
0.069974
210
0.0
220
0.0
230
1.0
100
AcDbArc
 50
264.645408
 51
328.429726
  0
ARC
  5
192
100
AcDbEntity
  8
IGES_LEVEL_0
 62
     7
100
AcDbCircle
 10
7.493445
 20
2.045112
 30
0.0
 40
0.065914
210
0.0
220
0.0
230
0.9999999999999999
100
AcDbArc
 50
0.017385
 51
84.6455
  0
LINE
  5
193
100
AcDbEntity
  8
IGES_LEVEL_0
 62
     7
100
AcDbLine
 10
7.037217
 20
2.188719
 30
0.0
 11
7.040185
 21
2.167377
 31
0.0
  0
LINE
  5
194
100
AcDbEntity
  8
IGES_LEVEL_0
 62
     7
100
AcDbLine
 10
7.040185
 20
2.167377
 30
0.0
 11
7.059325
 21
2.157478
 31
0.0
  0
LINE
  5
195
100
AcDbEntity
  8
IGES_LEVEL_0
 62
     7
100
AcDbLine
 10
7.059325
 20
2.157478
 30
0.0
 11
7.078458
 21
2.167389
 31
0.0
  0
LINE
  5
196
100
AcDbEntity
  8
IGES_LEVEL_0
 62
     7
100
AcDbLine
 10
7.078458
 20
2.167389
 30
0.0
 11
7.081412
 21
2.188733
 31
0.0
  0
LINE
  5
197
100
AcDbEntity
  8
IGES_LEVEL_0
 62
     7
100
AcDbLine
 10
5.887942
 20
2.239352
 30
0.0
 11
5.888394
 21
2.225131
 31
0.0
  0
LINE
  5
198
100
AcDbEntity
  8
IGES_LEVEL_0
 62
     7
100
AcDbLine
 10
5.886936
 20
2.494797
 30
0.0
 11
5.882997
 21
3.558142
 31
0.0
  0
LINE
  5
199
100
AcDbEntity
  8
IGES_LEVEL_0
 62
     7
100
AcDbLine
 10
5.886854
 20
2.281259
 30
0.0
 11
5.887942
 21
2.239352
 31
0.0
  0
LINE
  5
19A
100
AcDbEntity
  8
IGES_LEVEL_0
 62
     7
100
AcDbLine
 10
5.885961
 20
2.337421
 30
0.0
 11
5.886854
 21
2.281259
 31
0.0
  0
LINE
  5
19B
100
AcDbEntity
  8
IGES_LEVEL_0
 62
     7
100
AcDbLine
 10
5.885716
 20
2.393616
 30
0.0
 11
5.885961
 21
2.337421
 31
0.0
  0
LINE
  5
19C
100
AcDbEntity
  8
IGES_LEVEL_0
 62
     7
100
AcDbLine
 10
5.886208
 20
2.449879
 30
0.0
 11
5.885716
 21
2.393616
 31
0.0
  0
LINE
  5
19D
100
AcDbEntity
  8
IGES_LEVEL_0
 62
     7
100
AcDbLine
 10
5.886969
 20
2.48999
 30
0.0
 11
5.886208
 21
2.449879
 31
0.0
  0
LINE
  5
19E
100
AcDbEntity
  8
IGES_LEVEL_0
 62
     7
100
AcDbLine
 10
6.898835
 20
1.664429
 30
0.0
 11
6.999433
 21
1.60569
 31
0.0
  0
LINE
  5
19F
100
AcDbEntity
  8
IGES_LEVEL_0
 62
     7
100
AcDbLine
 10
6.056778
 20
2.221252
 30
0.0
 11
6.154608
 21
3.469238
 31
0.0
  0
LINE
  5
1A0
100
AcDbEntity
  8
IGES_LEVEL_0
 62
     7
100
AcDbLine
 10
6.143843
 20
2.532177
 30
0.0
 11
6.121819
 21
2.251231
 31
0.0
  0
LINE
  5
1A1
100
AcDbEntity
  8
IGES_LEVEL_0
 62
     7
100
AcDbLine
 10
6.824031
 20
1.788618
 30
0.0
 11
6.895343
 21
1.666468
 31
0.0
  0
LINE
  5
1A2
100
AcDbEntity
  8
IGES_LEVEL_0
 62
     7
100
AcDbLine
 10
6.749465
 20
1.560919
 30
0.0
 11
6.684467
 21
1.726147
 31
0.0
  0
LINE
  5
1A3
100
AcDbEntity
  8
IGES_LEVEL_0
 62
     7
100
AcDbLine
 10
7.113931
 20
1.644902
 30
0.0
 11
7.118993
 21
1.63012
 31
0.0
  0
LINE
  5
1A4
100
AcDbEntity
  8
IGES_LEVEL_0
 62
     7
100
AcDbLine
 10
7.237251
 20
1.670618
 30
0.0
 11
7.251628
 21
1.628636
 31
0.0
  0
LINE
  5
1A5
100
AcDbEntity
  8
IGES_LEVEL_0
 62
     7
100
AcDbLine
 10
7.235049
 20
2.2345
 30
0.0
 11
7.235063
 21
2.188769
 31
0.0
  0
LINE
  5
1A6
100
AcDbEntity
  8
IGES_LEVEL_0
 62
     7
100
AcDbLine
 10
7.030088
 20
1.555634
 30
0.0
 11
7.059489
 21
1.626259
 31
0.0
  0
LINE
  5
1A7
100
AcDbEntity
  8
IGES_LEVEL_0
 62
     7
100
AcDbLine
 10
7.621589
 20
1.802235
 30
0.0
 11
7.635966
 21
1.760253
 31
0.0
  0
LINE
  5
1A8
100
AcDbEntity
  8
IGES_LEVEL_0
 62
     7
100
AcDbLine
 10
7.649817
 20
1.816257
 30
0.0
 11
7.646091
 21
1.827137
 31
0.0
  0
LINE
  5
1A9
100
AcDbEntity
  8
IGES_LEVEL_0
 62
     7
100
AcDbLine
 10
7.485049
 20
2.234578
 30
0.0
 11
7.485063
 21
2.188846
 31
0.0
  0
LINE
  5
1AA
100
AcDbEntity
  8
IGES_LEVEL_0
 62
     7
100
AcDbLine
 10
7.378483
 20
1.982872
 30
0.0
 11
7.382816
 21
2.007493
 31
0.0
  0
LINE
  5
1AB
100
AcDbEntity
  8
IGES_LEVEL_0
 62
     7
100
AcDbLine
 10
7.48928
 20
1.963368
 30
0.0
 11
7.493613
 21
1.98799
 31
0.0
  0
LINE
  5
1AC
100
AcDbEntity
  8
IGES_LEVEL_0
 62
     7
100
AcDbLine
 10
8.153695
 20
2.222727
 30
0.0
 11
8.326655
 21
2.251603
 31
0.0
  0
LINE
  5
1AD
100
AcDbEntity
  8
IGES_LEVEL_0
 62
     7
100
AcDbLine
 10
8.154071
 20
2.220476
 30
0.0
 11
8.340545
 21
2.251608
 31
0.0
  0
LINE
  5
1AE
100
AcDbEntity
  8
IGES_LEVEL_0
 62
     7
100
AcDbLine
 10
7.996912
 20
2.173419
 30
0.0
 11
8.024846
 21
2.173431
 31
0.0
  0
LINE
  5
1AF
100
AcDbEntity
  8
IGES_LEVEL_0
 62
     7
100
AcDbLine
 10
8.02807
 20
2.173434
 30
0.0
 11
7.962799
 21
2.173406
 31
0.0
  0
LINE
  5
1B0
100
AcDbEntity
  8
IGES_LEVEL_0
 62
     7
100
AcDbLine
 10
8.326655
 20
2.251603
 30
0.0
 11
6.133947
 21
2.250924
 31
0.0
  0
LINE
  5
1B1
100
AcDbEntity
  8
IGES_LEVEL_0
 62
     7
100
AcDbLine
 10
7.485049
 20
2.234578
 30
0.0
 11
7.235049
 21
2.2345
 31
0.0
  0
LINE
  5
1B2
100
AcDbEntity
  8
IGES_LEVEL_0
 62
     7
100
AcDbLine
 10
8.153691
 20
2.234785
 30
0.0
 11
7.903691
 21
2.234707
 31
0.0
  0
LINE
  5
1B3
100
AcDbEntity
  8
IGES_LEVEL_0
 62
     7
100
AcDbLine
 10
7.235063
 20
2.188778
 30
0.0
 11
6.743342
 21
2.188626
 31
0.0
  0
LINE
  5
1B4
100
AcDbEntity
  8
IGES_LEVEL_0
 62
     7
100
AcDbLine
 10
7.903705
 20
2.188985
 30
0.0
 11
7.485063
 21
2.188856
 31
0.0
  0
LINE
  5
1B5
100
AcDbEntity
  8
IGES_LEVEL_0
 62
     7
100
AcDbLine
 10
7.903705
 20
2.188976
 30
0.0
 11
8.153705
 21
2.189053
 31
0.0
  0
LINE
  5
1B6
100
AcDbEntity
  8
IGES_LEVEL_0
 62
     7
100
AcDbLine
 10
7.235063
 20
2.188769
 30
0.0
 11
7.485063
 21
2.188846
 31
0.0
  0
LINE
  5
1B7
100
AcDbEntity
  8
IGES_LEVEL_0
 62
     7
100
AcDbLine
 10
7.962799
 20
2.173406
 30
0.0
 11
7.882585
 21
2.173381
 31
0.0
  0
LINE
  5
1B8
100
AcDbEntity
  8
IGES_LEVEL_0
 62
     7
100
AcDbLine
 10
5.948888
 20
2.165036
 30
0.0
 11
5.992509
 21
2.163667
 31
0.0
  0
LINE
  5
1B9
100
AcDbEntity
  8
IGES_LEVEL_0
 62
     7
100
AcDbLine
 10
6.996824
 20
2.157862
 30
0.0
 11
6.834968
 21
2.173033
 31
0.0
  0
LINE
  5
1BA
100
AcDbEntity
  8
IGES_LEVEL_0
 62
     7
100
AcDbLine
 10
7.499596
 20
2.110739
 30
0.0
 11
7.121828
 21
2.146146
 31
0.0
  0
LINE
  5
1BB
100
AcDbEntity
  8
IGES_LEVEL_0
 62
     7
100
AcDbLine
 10
6.73119
 20
2.188623
 30
0.0
 11
6.121795
 21
2.250921
 31
0.0
  0
LINE
  5
1BC
100
AcDbEntity
  8
IGES_LEVEL_0
 62
     7
100
AcDbLine
 10
7.493613
 20
1.98799
 30
0.0
 11
7.382816
 21
2.007493
 31
0.0
  0
LINE
  5
1BD
100
AcDbEntity
  8
IGES_LEVEL_0
 62
     7
100
AcDbLine
 10
7.610565
 20
1.967406
 30
0.0
 11
7.493613
 21
1.98799
 31
0.0
  0
LINE
  5
1BE
100
AcDbEntity
  8
IGES_LEVEL_0
 62
     7
100
AcDbLine
 10
7.721362
 20
1.947907
 30
0.0
 11
7.610565
 21
1.967406
 31
0.0
  0
LINE
  5
1BF
100
AcDbEntity
  8
IGES_LEVEL_0
 62
     7
100
AcDbLine
 10
7.717029
 20
1.923285
 30
0.0
 11
7.721362
 21
1.947907
 31
0.0
  0
LINE
  5
1C0
100
AcDbEntity
  8
IGES_LEVEL_0
 62
     7
100
AcDbLine
 10
7.411396
 20
1.806861
 30
0.0
 11
7.424381
 21
1.820084
 31
0.0
  0
LINE
  5
1C1
100
AcDbEntity
  8
IGES_LEVEL_0
 62
     7
100
AcDbLine
 10
7.399156
 20
1.794193
 30
0.0
 11
7.411396
 21
1.806861
 31
0.0
  0
LINE
  5
1C2
100
AcDbEntity
  8
IGES_LEVEL_0
 62
     7
100
AcDbLine
 10
7.387604
 20
1.782073
 30
0.0
 11
7.399156
 21
1.794193
 31
0.0
  0
LINE
  5
1C3
100
AcDbEntity
  8
IGES_LEVEL_0
 62
     7
100
AcDbLine
 10
7.376813
 20
1.770642
 30
0.0
 11
7.387604
 21
1.782073
 31
0.0
  0
LINE
  5
1C4
100
AcDbEntity
  8
IGES_LEVEL_0
 62
     7
100
AcDbLine
 10
7.366539
 20
1.759711
 30
0.0
 11
7.376813
 21
1.770642
 31
0.0
  0
LINE
  5
1C5
100
AcDbEntity
  8
IGES_LEVEL_0
 62
     7
100
AcDbLine
 10
7.35638
 20
1.748893
 30
0.0
 11
7.366539
 21
1.759711
 31
0.0
  0
LINE
  5
1C6
100
AcDbEntity
  8
IGES_LEVEL_0
 62
     7
100
AcDbLine
 10
7.346523
 20
1.738317
 30
0.0
 11
7.35638
 21
1.748893
 31
0.0
  0
LINE
  5
1C7
100
AcDbEntity
  8
IGES_LEVEL_0
 62
     7
100
AcDbLine
 10
7.337523
 20
1.728461
 30
0.0
 11
7.346523
 21
1.738317
 31
0.0
  0
LINE
  5
1C8
100
AcDbEntity
  8
IGES_LEVEL_0
 62
     7
100
AcDbLine
 10
7.329888
 20
1.719719
 30
0.0
 11
7.337523
 21
1.728461
 31
0.0
  0
LINE
  5
1C9
100
AcDbEntity
  8
IGES_LEVEL_0
 62
     7
100
AcDbLine
 10
7.525568
 20
2.102653
 30
0.0
 11
6.824031
 21
1.788618
 31
0.0
  0
LINE
  5
1CA
100
AcDbEntity
  8
IGES_LEVEL_0
 62
     7
100
AcDbLine
 10
6.757844
 20
1.75899
 30
0.0
 11
6.824031
 21
1.788618
 31
0.0
  0
LINE
  5
1CB
100
AcDbEntity
  8
IGES_LEVEL_0
 62
     7
100
AcDbLine
 10
6.824031
 20
1.788618
 30
0.0
 11
6.684463
 21
1.726145
 31
0.0
  0
LINE
  5
1CC
100
AcDbEntity
  8
IGES_LEVEL_0
 62
     7
100
AcDbLine
 10
7.610967
 20
1.987137
 30
0.0
 11
7.59948
 21
1.986199
 31
0.0
  0
LINE
  5
1CD
100
AcDbEntity
  8
IGES_LEVEL_0
 62
     7
100
AcDbLine
 10
7.60117
 20
1.982424
 30
0.0
 11
7.618972
 21
1.983873
 31
0.0
  0
LINE
  5
1CE
100
AcDbEntity
  8
IGES_LEVEL_0
 62
     7
100
AcDbLine
 10
7.626469
 20
1.981253
 30
0.0
 11
7.601559
 21
1.979235
 31
0.0
  0
LINE
  5
1CF
100
AcDbEntity
  8
IGES_LEVEL_0
 62
     7
100
AcDbLine
 10
7.48928
 20
1.963368
 30
0.0
 11
7.378483
 21
1.982872
 31
0.0
  0
LINE
  5
1D0
100
AcDbEntity
  8
IGES_LEVEL_0
 62
     7
100
AcDbLine
 10
7.606232
 20
1.942784
 30
0.0
 11
7.48928
 21
1.963368
 31
0.0
  0
LINE
  5
1D1
100
AcDbEntity
  8
IGES_LEVEL_0
 62
     7
100
AcDbLine
 10
7.717029
 20
1.923285
 30
0.0
 11
7.606232
 21
1.942784
 31
0.0
  0
LINE
  5
1D2
100
AcDbEntity
  8
IGES_LEVEL_0
 62
     7
100
AcDbLine
 10
7.887695
 20
2.18898
 30
0.0
 11
7.840609
 21
2.045219
 31
0.0
  0
LINE
  5
1D3
100
AcDbEntity
  8
IGES_LEVEL_0
 62
     7
100
AcDbLine
 10
8.021195
 20
2.013731
 30
0.0
 11
7.660343
 21
1.833754
 31
0.0
  0
LINE
  5
1D4
100
AcDbEntity
  8
IGES_LEVEL_0
 62
     7
100
AcDbLine
 10
7.464215
 20
1.839836
 30
0.0
 11
7.424381
 21
1.820084
 31
0.0
  0
LINE
  5
1D5
100
AcDbEntity
  8
IGES_LEVEL_0
 62
     7
100
AcDbLine
 10
7.504581
 20
1.859812
 30
0.0
 11
7.464215
 21
1.839836
 31
0.0
  0
LINE
  5
1D6
100
AcDbEntity
  8
IGES_LEVEL_0
 62
     7
100
AcDbLine
 10
7.544978
 20
1.879778
 30
0.0
 11
7.504581
 21
1.859812
 31
0.0
  0
LINE
  5
1D7
100
AcDbEntity
  8
IGES_LEVEL_0
 62
     7
100
AcDbLine
 10
7.584529
 20
1.899309
 30
0.0
 11
7.544978
 21
1.879778
 31
0.0
  0
LINE
  5
1D8
100
AcDbEntity
  8
IGES_LEVEL_0
 62
     7
100
AcDbLine
 10
7.623381
 20
1.918486
 30
0.0
 11
7.584529
 21
1.899309
 31
0.0
  0
LINE
  5
1D9
100
AcDbEntity
  8
IGES_LEVEL_0
 62
     7
100
AcDbLine
 10
7.655166
 20
1.934171
 30
0.0
 11
7.623381
 21
1.918486
 31
0.0
  0
LINE
  5
1DA
100
AcDbEntity
  8
IGES_LEVEL_0
 62
     7
100
AcDbLine
 10
7.734883
 20
1.973457
 30
0.0
 11
7.701205
 21
1.956877
 31
0.0
  0
LINE
  5
1DB
100
AcDbEntity
  8
IGES_LEVEL_0
 62
     7
100
AcDbLine
 10
7.544461
 20
1.953656
 30
0.0
 11
7.491019
 21
1.929712
 31
0.0
  0
LINE
  5
1DC
100
AcDbEntity
  8
IGES_LEVEL_0
 62
     7
100
AcDbLine
 10
7.491019
 20
1.929712
 30
0.0
 11
7.375468
 21
1.877927
 31
0.0
  0
LINE
  5
1DD
100
AcDbEntity
  8
IGES_LEVEL_0
 62
     7
100
AcDbLine
 10
7.375468
 20
1.877927
 30
0.0
 11
7.255179
 21
1.824027
 31
0.0
  0
LINE
  5
1DE
100
AcDbEntity
  8
IGES_LEVEL_0
 62
     7
100
AcDbLine
 10
7.601559
 20
1.979235
 30
0.0
 11
7.585141
 21
1.97188
 31
0.0
  0
LINE
  5
1DF
100
AcDbEntity
  8
IGES_LEVEL_0
 62
     7
100
AcDbLine
 10
7.579739
 20
1.972831
 30
0.0
 11
7.60117
 21
1.982424
 31
0.0
  0
LINE
  5
1E0
100
AcDbEntity
  8
IGES_LEVEL_0
 62
     7
100
AcDbLine
 10
7.599648
 20
1.985724
 30
0.0
 11
7.573347
 21
1.973956
 31
0.0
  0
LINE
  5
1E1
100
AcDbEntity
  8
IGES_LEVEL_0
 62
     7
100
AcDbLine
 10
7.532624
 20
1.95574
 30
0.0
 11
7.251859
 21
1.830262
 31
0.0
  0
LINE
  5
1E2
100
AcDbEntity
  8
IGES_LEVEL_0
 62
     7
100
AcDbLine
 10
7.368173
 20
1.798757
 30
0.0
 11
7.424381
 21
1.820084
 31
0.0
  0
LINE
  5
1E3
100
AcDbEntity
  8
IGES_LEVEL_0
 62
     7
100
AcDbLine
 10
7.31167
 20
1.77716
 30
0.0
 11
7.368173
 21
1.798757
 31
0.0
  0
LINE
  5
1E4
100
AcDbEntity
  8
IGES_LEVEL_0
 62
     7
100
AcDbLine
 10
7.255678
 20
1.75566
 30
0.0
 11
7.31167
 21
1.77716
 31
0.0
  0
LINE
  5
1E5
100
AcDbEntity
  8
IGES_LEVEL_0
 62
     7
100
AcDbLine
 10
7.201361
 20
1.734747
 30
0.0
 11
7.255678
 21
1.75566
 31
0.0
  0
LINE
  5
1E6
100
AcDbEntity
  8
IGES_LEVEL_0
 62
     7
100
AcDbLine
 10
7.14856
 20
1.714387
 30
0.0
 11
7.201361
 21
1.734747
 31
0.0
  0
LINE
  5
1E7
100
AcDbEntity
  8
IGES_LEVEL_0
 62
     7
100
AcDbLine
 10
7.09629
 20
1.694213
 30
0.0
 11
7.14856
 21
1.714387
 31
0.0
  0
LINE
  5
1E8
100
AcDbEntity
  8
IGES_LEVEL_0
 62
     7
100
AcDbLine
 10
7.044689
 20
1.674236
 30
0.0
 11
7.09629
 21
1.694213
 31
0.0
  0
LINE
  5
1E9
100
AcDbEntity
  8
IGES_LEVEL_0
 62
     7
100
AcDbLine
 10
6.994825
 20
1.654799
 30
0.0
 11
7.044689
 21
1.674236
 31
0.0
  0
LINE
  5
1EA
100
AcDbEntity
  8
IGES_LEVEL_0
 62
     7
100
AcDbLine
 10
6.947388
 20
1.636079
 30
0.0
 11
6.994825
 21
1.654799
 31
0.0
  0
LINE
  5
1EB
100
AcDbEntity
  8
IGES_LEVEL_0
 62
     7
100
AcDbLine
 10
6.999433
 20
1.60569
 30
0.0
 11
7.652606
 21
1.83108
 31
0.0
  0
LINE
  5
1EC
100
AcDbEntity
  8
IGES_LEVEL_0
 62
     7
100
AcDbLine
 10
7.17306
 20
1.665148
 30
0.0
 11
7.641954
 21
1.82572
 31
0.0
  0
LINE
  5
1ED
100
AcDbEntity
  8
IGES_LEVEL_0
 62
     7
100
AcDbLine
 10
7.178122
 20
1.650366
 30
0.0
 11
7.643239
 21
1.809644
 31
0.0
  0
LINE
  5
1EE
100
AcDbEntity
  8
IGES_LEVEL_0
 62
     7
100
AcDbLine
 10
7.118993
 20
1.63012
 30
0.0
 11
7.178122
 21
1.650366
 31
0.0
  0
LINE
  5
1EF
100
AcDbEntity
  8
IGES_LEVEL_0
 62
     7
100
AcDbLine
 10
7.113931
 20
1.644902
 30
0.0
 11
7.17306
 21
1.665148
 31
0.0
  0
LINE
  5
1F0
100
AcDbEntity
  8
IGES_LEVEL_0
 62
     7
100
AcDbLine
 10
7.403146
 20
1.820187
 30
0.0
 11
7.424381
 21
1.820084
 31
0.0
  0
LINE
  5
1F1
100
AcDbEntity
  8
IGES_LEVEL_0
 62
     7
100
AcDbLine
 10
7.382402
 20
1.820447
 30
0.0
 11
7.403146
 21
1.820187
 31
0.0
  0
LINE
  5
1F2
100
AcDbEntity
  8
IGES_LEVEL_0
 62
     7
100
AcDbLine
 10
7.36223
 20
1.820825
 30
0.0
 11
7.382402
 21
1.820447
 31
0.0
  0
LINE
  5
1F3
100
AcDbEntity
  8
IGES_LEVEL_0
 62
     7
100
AcDbLine
 10
7.342896
 20
1.821272
 30
0.0
 11
7.36223
 21
1.820825
 31
0.0
  0
LINE
  5
1F4
100
AcDbEntity
  8
IGES_LEVEL_0
 62
     7
100
AcDbLine
 10
7.324285
 20
1.821744
 30
0.0
 11
7.342896
 21
1.821272
 31
0.0
  0
LINE
  5
1F5
100
AcDbEntity
  8
IGES_LEVEL_0
 62
     7
100
AcDbLine
 10
7.306004
 20
1.822214
 30
0.0
 11
7.324285
 21
1.821744
 31
0.0
  0
LINE
  5
1F6
100
AcDbEntity
  8
IGES_LEVEL_0
 62
     7
100
AcDbLine
 10
7.288128
 20
1.822712
 30
0.0
 11
7.306004
 21
1.822214
 31
0.0
  0
LINE
  5
1F7
100
AcDbEntity
  8
IGES_LEVEL_0
 62
     7
100
AcDbLine
 10
7.27109
 20
1.823292
 30
0.0
 11
7.288128
 21
1.822712
 31
0.0
  0
LINE
  5
1F8
100
AcDbEntity
  8
IGES_LEVEL_0
 62
     7
100
AcDbLine
 10
7.255179
 20
1.824027
 30
0.0
 11
7.27109
 21
1.823292
 31
0.0
  0
LINE
  5
1F9
100
AcDbEntity
  8
IGES_LEVEL_0
 62
     7
100
AcDbLine
 10
7.903691
 20
2.234707
 30
0.0
 11
7.903705
 21
2.188976
 31
0.0
  0
LINE
  5
1FA
100
AcDbEntity
  8
IGES_LEVEL_0
 62
     7
100
AcDbLine
 10
8.02807
 20
2.173434
 30
0.0
 11
8.028116
 21
2.024921
 31
0.0
  0
LINE
  5
1FB
100
AcDbEntity
  8
IGES_LEVEL_0
 62
     7
100
AcDbLine
 10
7.620735
 20
1.752394
 30
0.0
 11
7.634411
 21
1.757078
 31
0.0
  0
LINE
  5
1FC
100
AcDbEntity
  8
IGES_LEVEL_0
 62
     7
100
AcDbLine
 10
7.263488
 20
1.630054
 30
0.0
 11
7.43926
 21
1.690245
 31
0.0
  0
LINE
  5
1FD
100
AcDbEntity
  8
IGES_LEVEL_0
 62
     7
100
AcDbLine
 10
7.43926
 20
1.690245
 30
0.0
 11
7.620735
 21
1.752394
 31
0.0
  0
LINE
  5
1FE
100
AcDbEntity
  8
IGES_LEVEL_0
 62
     7
100
AcDbLine
 10
6.978353
 20
1.551232
 30
0.0
 11
7.023512
 21
1.551248
 31
0.0
  0
LINE
  5
1FF
100
AcDbEntity
  8
IGES_LEVEL_0
 62
     7
100
AcDbLine
 10
6.966854
 20
1.551228
 30
0.0
 11
6.978353
 21
1.551232
 31
0.0
  0
LINE
  5
200
100
AcDbEntity
  8
IGES_LEVEL_0
 62
     7
100
AcDbLine
 10
6.814377
 20
1.551181
 30
0.0
 11
6.978353
 21
1.551232
 31
0.0
  0
LINE
  5
201
100
AcDbEntity
  8
IGES_LEVEL_0
 62
     7
100
AcDbLine
 10
6.793535
 20
1.551175
 30
0.0
 11
6.814377
 21
1.551181
 31
0.0
  0
LINE
  5
202
100
AcDbEntity
  8
IGES_LEVEL_0
 62
     7
100
AcDbLine
 10
6.758136
 20
1.551166
 30
0.0
 11
6.814377
 21
1.551181
 31
0.0
  0
LINE
  5
203
100
AcDbEntity
  8
IGES_LEVEL_0
 62
     7
100
AcDbLine
 10
8.153691
 20
2.234785
 30
0.0
 11
8.153705
 21
2.189053
 31
0.0
  0
LINE
  5
204
100
AcDbEntity
  8
IGES_LEVEL_0
 62
     7
100
AcDbLine
 10
7.632717
 20
1.492246
 30
0.0
 11
7.51082
 21
1.450499
 31
0.0
  0
LINE
  5
205
100
AcDbEntity
  8
IGES_LEVEL_0
 62
     7
100
AcDbLine
 10
7.388922
 20
1.408758
 30
0.0
 11
7.51082
 21
1.450499
 31
0.0
  0
LINE
  5
206
100
AcDbEntity
  8
IGES_LEVEL_0
 62
     7
100
AcDbLine
 10
8.340545
 20
2.252185
 30
0.0
 11
8.340458
 21
2.532858
 31
0.0
  0
LINE
  5
207
100
AcDbEntity
  8
IGES_LEVEL_0
 62
     7
100
AcDbLine
 10
6.061603
 20
2.282805
 30
0.0
 11
6.124111
 21
2.280843
 31
0.0
  0
LINE
  5
208
100
AcDbEntity
  8
IGES_LEVEL_0
 62
     7
100
AcDbLine
 10
6.067715
 20
2.360776
 30
0.0
 11
6.130253
 21
2.358814
 31
0.0
  0
LINE
  5
209
100
AcDbEntity
  8
IGES_LEVEL_0
 62
     7
100
AcDbLine
 10
1.846718
 20
0.005007
 30
0.0
 11
1.846718
 21
0.309695
 31
0.0
  0
ARC
  5
20A
100
AcDbEntity
  8
IGES_LEVEL_0
 62
     7
100
AcDbCircle
 10
1.029172
 20
2.066043
 30
0.0
 40
0.046875
210
0.0
220
0.0
230
1.0
100
AcDbArc
 50
89.998778
 51
179.998778
  0
ARC
  5
20B
100
AcDbEntity
  8
IGES_LEVEL_0
 62
     7
100
AcDbCircle
 10
1.029172
 20
2.066043
 30
0.0
 40
0.046875
210
0.0
220
0.0
230
1.0
100
AcDbArc
 50
179.998778
 51
269.998778
  0
ARC
  5
20C
100
AcDbEntity
  8
IGES_LEVEL_0
 62
     7
100
AcDbCircle
 10
1.893593
 20
0.016726
 30
0.0
 40
0.015625
210
0.0
220
0.0
230
1.0
100
AcDbArc
 50
270.0
 51
0.0
  0
ARC
  5
20D
100
AcDbEntity
  8
IGES_LEVEL_0
 62
     7
100
AcDbCircle
 10
1.893593
 20
0.297976
 30
0.0
 40
0.015625
210
0.0
220
0.0
230
1.0
100
AcDbArc
 50
360.0
 51
90.0
  0
ARC
  5
20E
100
AcDbEntity
  8
IGES_LEVEL_0
 62
     7
100
AcDbCircle
 10
1.706093
 20
0.016726
 30
0.0
 40
0.015625
210
0.0
220
0.0
230
0.9999999999999999
100
AcDbArc
 50
180.0
 51
270.0
  0
ARC
  5
20F
100
AcDbEntity
  8
IGES_LEVEL_0
 62
     7
100
AcDbCircle
 10
1.706093
 20
0.297976
 30
0.0
 40
0.015625
210
0.0
220
0.0
230
1.0
100
AcDbArc
 50
90.0
 51
180.0
  0
LINE
  5
210
100
AcDbEntity
  8
IGES_LEVEL_0
 62
     7
100
AcDbLine
 10
3.07142
 20
1.942784
 30
0.0
 11
3.071421
 21
1.98799
 31
0.0
  0
LINE
  5
211
100
AcDbEntity
  8
IGES_LEVEL_0
 62
     7
100
AcDbLine
 10
3.03705
 20
2.251603
 30
0.0
 11
3.03705
 21
2.163631
 31
0.0
  0
LINE
  5
212
100
AcDbEntity
  8
IGES_LEVEL_0
 62
     7
100
AcDbLine
 10
3.03705
 20
2.252185
 30
0.0
 11
3.037056
 21
2.532858
 31
0.0
  0
LINE
  5
213
100
AcDbEntity
  8
IGES_LEVEL_0
 62
     7
100
AcDbLine
 10
2.958919
 20
1.923285
 30
0.0
 11
2.95892
 21
1.947907
 31
0.0
  0
LINE
  5
214
100
AcDbEntity
  8
IGES_LEVEL_0
 62
     7
100
AcDbLine
 10
2.933919
 20
1.923286
 30
0.0
 11
2.93392
 21
1.947907
 31
0.0
  0
LINE
  5
215
100
AcDbEntity
  8
IGES_LEVEL_0
 62
     7
100
AcDbLine
 10
2.915171
 20
2.018266
 30
0.0
 11
2.915171
 21
1.987976
 31
0.0
  0
LINE
  5
216
100
AcDbEntity
  8
IGES_LEVEL_0
 62
     7
100
AcDbLine
 10
2.865174
 20
2.234785
 30
0.0
 11
2.865173
 21
2.189053
 31
0.0
  0
LINE
  5
217
100
AcDbEntity
  8
IGES_LEVEL_0
 62
     7
100
AcDbLine
 10
0.5058
 20
3.621166
 30
0.0
 11
0.5683
 21
3.621166
 31
0.0
  0
LINE
  5
218
100
AcDbEntity
  8
IGES_LEVEL_0
 62
     7
100
AcDbLine
 10
3.09955
 20
3.621166
 30
0.0
 11
3.03705
 21
3.621166
 31
0.0
  0
LINE
  5
219
100
AcDbEntity
  8
IGES_LEVEL_0
 62
     7
100
AcDbLine
 10
0.5058
 20
3.543041
 30
0.0
 11
0.5683
 21
3.543041
 31
0.0
  0
LINE
  5
21A
100
AcDbEntity
  8
IGES_LEVEL_0
 62
     7
100
AcDbLine
 10
3.09955
 20
3.543041
 30
0.0
 11
3.03705
 21
3.543041
 31
0.0
  0
LINE
  5
21B
100
AcDbEntity
  8
IGES_LEVEL_0
 62
     7
100
AcDbLine
 10
1.952363
 20
1.629065
 30
0.0
 11
1.952545
 21
1.640484
 31
0.0
  0
LINE
  5
21C
100
AcDbEntity
  8
IGES_LEVEL_0
 62
     7
100
AcDbLine
 10
1.952154
 20
1.61845
 30
0.0
 11
1.952363
 21
1.629065
 31
0.0
  0
LINE
  5
21D
100
AcDbEntity
  8
IGES_LEVEL_0
 62
     7
100
AcDbLine
 10
2.852671
 20
1.999355
 30
0.0
 11
2.852671
 21
2.018268
 31
0.0
  0
LINE
  5
21E
100
AcDbEntity
  8
IGES_LEVEL_0
 62
     7
100
AcDbLine
 10
2.82142
 20
1.942789
 30
0.0
 11
2.821421
 21
1.987978
 31
0.0
  0
LINE
  5
21F
100
AcDbEntity
  8
IGES_LEVEL_0
 62
     7
100
AcDbLine
 10
1.997731
 20
1.664429
 30
0.0
 11
1.952078
 21
1.615174
 31
0.0
  0
LINE
  5
220
100
AcDbEntity
  8
IGES_LEVEL_0
 62
     7
100
AcDbLine
 10
2.060878
 20
1.806861
 30
0.0
 11
2.070183
 21
1.820084
 31
0.0
  0
LINE
  5
221
100
AcDbEntity
  8
IGES_LEVEL_0
 62
     7
100
AcDbLine
 10
2.051886
 20
1.794193
 30
0.0
 11
2.060878
 21
1.806861
 31
0.0
  0
LINE
  5
222
100
AcDbEntity
  8
IGES_LEVEL_0
 62
     7
100
AcDbLine
 10
2.043221
 20
1.782073
 30
0.0
 11
2.051886
 21
1.794193
 31
0.0
  0
LINE
  5
223
100
AcDbEntity
  8
IGES_LEVEL_0
 62
     7
100
AcDbLine
 10
2.035009
 20
1.770642
 30
0.0
 11
2.043221
 21
1.782073
 31
0.0
  0
LINE
  5
224
100
AcDbEntity
  8
IGES_LEVEL_0
 62
     7
100
AcDbLine
 10
2.027138
 20
1.759711
 30
0.0
 11
2.035009
 21
1.770642
 31
0.0
  0
LINE
  5
225
100
AcDbEntity
  8
IGES_LEVEL_0
 62
     7
100
AcDbLine
 10
2.019345
 20
1.748893
 30
0.0
 11
2.027138
 21
1.759711
 31
0.0
  0
LINE
  5
226
100
AcDbEntity
  8
IGES_LEVEL_0
 62
     7
100
AcDbLine
 10
2.011697
 20
1.738317
 30
0.0
 11
2.019345
 21
1.748893
 31
0.0
  0
LINE
  5
227
100
AcDbEntity
  8
IGES_LEVEL_0
 62
     7
100
AcDbLine
 10
2.004497
 20
1.728461
 30
0.0
 11
2.011697
 21
1.738317
 31
0.0
  0
LINE
  5
228
100
AcDbEntity
  8
IGES_LEVEL_0
 62
     7
100
AcDbLine
 10
1.997977
 20
1.719719
 30
0.0
 11
2.004497
 21
1.728461
 31
0.0
  0
LINE
  5
229
100
AcDbEntity
  8
IGES_LEVEL_0
 62
     7
100
AcDbLine
 10
2.163634
 20
1.999684
 30
0.0
 11
2.156292
 21
1.989259
 31
0.0
  0
LINE
  5
22A
100
AcDbEntity
  8
IGES_LEVEL_0
 62
     7
100
AcDbLine
 10
2.156292
 20
1.989259
 30
0.0
 11
2.147806
 21
1.977187
 31
0.0
  0
LINE
  5
22B
100
AcDbEntity
  8
IGES_LEVEL_0
 62
     7
100
AcDbLine
 10
2.053808
 20
1.843542
 30
0.0
 11
2.046851
 21
1.833749
 31
0.0
  0
LINE
  5
22C
100
AcDbEntity
  8
IGES_LEVEL_0
 62
     7
100
AcDbLine
 10
2.060646
 20
1.853183
 30
0.0
 11
2.053808
 21
1.843542
 31
0.0
  0
LINE
  5
22D
100
AcDbEntity
  8
IGES_LEVEL_0
 62
     7
100
AcDbLine
 10
2.067362
 20
1.86267
 30
0.0
 11
2.060646
 21
1.853183
 31
0.0
  0
LINE
  5
22E
100
AcDbEntity
  8
IGES_LEVEL_0
 62
     7
100
AcDbLine
 10
2.073948
 20
1.871999
 30
0.0
 11
2.067362
 21
1.86267
 31
0.0
  0
LINE
  5
22F
100
AcDbEntity
  8
IGES_LEVEL_0
 62
     7
100
AcDbLine
 10
2.08041
 20
1.881173
 30
0.0
 11
2.073948
 21
1.871999
 31
0.0
  0
LINE
  5
230
100
AcDbEntity
  8
IGES_LEVEL_0
 62
     7
100
AcDbLine
 10
2.08677
 20
1.890211
 30
0.0
 11
2.08041
 21
1.881173
 31
0.0
  0
LINE
  5
231
100
AcDbEntity
  8
IGES_LEVEL_0
 62
     7
100
AcDbLine
 10
2.093033
 20
1.899117
 30
0.0
 11
2.08677
 21
1.890211
 31
0.0
  0
LINE
  5
232
100
AcDbEntity
  8
IGES_LEVEL_0
 62
     7
100
AcDbLine
 10
2.099192
 20
1.907887
 30
0.0
 11
2.093033
 21
1.899117
 31
0.0
  0
LINE
  5
233
100
AcDbEntity
  8
IGES_LEVEL_0
 62
     7
100
AcDbLine
 10
2.142096
 20
1.969056
 30
0.0
 11
2.135881
 21
1.960198
 31
0.0
  0
LINE
  5
234
100
AcDbEntity
  8
IGES_LEVEL_0
 62
     7
100
AcDbLine
 10
2.111045
 20
1.924784
 30
0.0
 11
2.099192
 21
1.907887
 31
0.0
  0
LINE
  5
235
100
AcDbEntity
  8
IGES_LEVEL_0
 62
     7
100
AcDbLine
 10
2.121787
 20
1.940101
 30
0.0
 11
2.113838
 21
1.928765
 31
0.0
  0
LINE
  5
236
100
AcDbEntity
  8
IGES_LEVEL_0
 62
     7
100
AcDbLine
 10
2.052667
 20
1.833749
 30
0.0
 11
2.177671
 21
2.012089
 31
0.0
  0
LINE
  5
237
100
AcDbEntity
  8
IGES_LEVEL_0
 62
     7
100
AcDbLine
 10
2.17341
 20
2.005155
 30
0.0
 11
2.167123
 21
1.996158
 31
0.0
  0
LINE
  5
238
100
AcDbEntity
  8
IGES_LEVEL_0
 62
     7
100
AcDbLine
 10
2.167123
 20
1.996158
 30
0.0
 11
2.159952
 21
1.985877
 31
0.0
  0
LINE
  5
239
100
AcDbEntity
  8
IGES_LEVEL_0
 62
     7
100
AcDbLine
 10
2.159952
 20
1.985877
 30
0.0
 11
2.151774
 21
1.974136
 31
0.0
  0
LINE
  5
23A
100
AcDbEntity
  8
IGES_LEVEL_0
 62
     7
100
AcDbLine
 10
2.151774
 20
1.974136
 30
0.0
 11
2.142476
 21
1.960769
 31
0.0
  0
LINE
  5
23B
100
AcDbEntity
  8
IGES_LEVEL_0
 62
     7
100
AcDbLine
 10
2.131934
 20
1.9456
 30
0.0
 11
2.126163
 21
1.937291
 31
0.0
  0
LINE
  5
23C
100
AcDbEntity
  8
IGES_LEVEL_0
 62
     7
100
AcDbLine
 10
2.057032
 20
1.837848
 30
0.0
 11
2.049375
 21
1.826885
 31
0.0
  0
LINE
  5
23D
100
AcDbEntity
  8
IGES_LEVEL_0
 62
     7
100
AcDbLine
 10
2.064556
 20
1.848637
 30
0.0
 11
2.057032
 21
1.837848
 31
0.0
  0
LINE
  5
23E
100
AcDbEntity
  8
IGES_LEVEL_0
 62
     7
100
AcDbLine
 10
2.071944
 20
1.859245
 30
0.0
 11
2.064556
 21
1.848637
 31
0.0
  0
LINE
  5
23F
100
AcDbEntity
  8
IGES_LEVEL_0
 62
     7
100
AcDbLine
 10
2.07919
 20
1.86966
 30
0.0
 11
2.071944
 21
1.859245
 31
0.0
  0
LINE
  5
240
100
AcDbEntity
  8
IGES_LEVEL_0
 62
     7
100
AcDbLine
 10
2.0863
 20
1.879887
 30
0.0
 11
2.07919
 21
1.86966
 31
0.0
  0
LINE
  5
241
100
AcDbEntity
  8
IGES_LEVEL_0
 62
     7
100
AcDbLine
 10
2.09329
 20
1.889947
 30
0.0
 11
2.0863
 21
1.879887
 31
0.0
  0
LINE
  5
242
100
AcDbEntity
  8
IGES_LEVEL_0
 62
     7
100
AcDbLine
 10
2.100166
 20
1.899848
 30
0.0
 11
2.09329
 21
1.889947
 31
0.0
  0
LINE
  5
243
100
AcDbEntity
  8
IGES_LEVEL_0
 62
     7
100
AcDbLine
 10
2.116842
 20
1.923868
 30
0.0
 11
2.100166
 21
1.899848
 31
0.0
  0
LINE
  5
244
100
AcDbEntity
  8
IGES_LEVEL_0
 62
     7
100
AcDbLine
 10
2.153051
 20
1.956877
 30
0.0
 11
2.141411
 21
1.937708
 31
0.0
  0
LINE
  5
245
100
AcDbEntity
  8
IGES_LEVEL_0
 62
     7
100
AcDbLine
 10
2.164384
 20
1.975508
 30
0.0
 11
2.153051
 21
1.956877
 31
0.0
  0
LINE
  5
246
100
AcDbEntity
  8
IGES_LEVEL_0
 62
     7
100
AcDbLine
 10
2.175216
 20
1.99325
 30
0.0
 11
2.164384
 21
1.975508
 31
0.0
  0
LINE
  5
247
100
AcDbEntity
  8
IGES_LEVEL_0
 62
     7
100
AcDbLine
 10
2.141411
 20
1.937708
 30
0.0
 11
2.118117
 21
1.899309
 31
0.0
  0
LINE
  5
248
100
AcDbEntity
  8
IGES_LEVEL_0
 62
     7
100
AcDbLine
 10
2.082103
 20
1.839836
 30
0.0
 11
2.070183
 21
1.820084
 31
0.0
  0
LINE
  5
249
100
AcDbEntity
  8
IGES_LEVEL_0
 62
     7
100
AcDbLine
 10
2.094184
 20
1.859812
 30
0.0
 11
2.082103
 21
1.839836
 31
0.0
  0
LINE
  5
24A
100
AcDbEntity
  8
IGES_LEVEL_0
 62
     7
100
AcDbLine
 10
2.106277
 20
1.879778
 30
0.0
 11
2.094184
 21
1.859812
 31
0.0
  0
LINE
  5
24B
100
AcDbEntity
  8
IGES_LEVEL_0
 62
     7
100
AcDbLine
 10
2.118117
 20
1.899309
 30
0.0
 11
2.106277
 21
1.879778
 31
0.0
  0
LINE
  5
24C
100
AcDbEntity
  8
IGES_LEVEL_0
 62
     7
100
AcDbLine
 10
2.108261
 20
1.860197
 30
0.0
 11
2.077812
 21
1.806296
 31
0.0
  0
LINE
  5
24D
100
AcDbEntity
  8
IGES_LEVEL_0
 62
     7
100
AcDbLine
 10
2.01949
 20
1.703014
 30
0.0
 11
2.010059
 21
1.686294
 31
0.0
  0
LINE
  5
24E
100
AcDbEntity
  8
IGES_LEVEL_0
 62
     7
100
AcDbLine
 10
2.029005
 20
1.719873
 30
0.0
 11
2.01949
 21
1.703014
 31
0.0
  0
LINE
  5
24F
100
AcDbEntity
  8
IGES_LEVEL_0
 62
     7
100
AcDbLine
 10
2.038599
 20
1.736867
 30
0.0
 11
2.029005
 21
1.719873
 31
0.0
  0
LINE
  5
250
100
AcDbEntity
  8
IGES_LEVEL_0
 62
     7
100
AcDbLine
 10
2.048274
 20
1.754
 30
0.0
 11
2.038599
 21
1.736867
 31
0.0
  0
LINE
  5
251
100
AcDbEntity
  8
IGES_LEVEL_0
 62
     7
100
AcDbLine
 10
2.058034
 20
1.771282
 30
0.0
 11
2.048274
 21
1.754
 31
0.0
  0
LINE
  5
252
100
AcDbEntity
  8
IGES_LEVEL_0
 62
     7
100
AcDbLine
 10
2.067881
 20
1.788715
 30
0.0
 11
2.058034
 21
1.771282
 31
0.0
  0
LINE
  5
253
100
AcDbEntity
  8
IGES_LEVEL_0
 62
     7
100
AcDbLine
 10
2.077812
 20
1.806296
 30
0.0
 11
2.067881
 21
1.788715
 31
0.0
  0
LINE
  5
254
100
AcDbEntity
  8
IGES_LEVEL_0
 62
     7
100
AcDbLine
 10
2.118276
 20
1.877927
 30
0.0
 11
2.108261
 21
1.860197
 31
0.0
  0
LINE
  5
255
100
AcDbEntity
  8
IGES_LEVEL_0
 62
     7
100
AcDbLine
 10
2.137911
 20
1.912696
 30
0.0
 11
2.118276
 21
1.877927
 31
0.0
  0
LINE
  5
256
100
AcDbEntity
  8
IGES_LEVEL_0
 62
     7
100
AcDbLine
 10
2.010059
 20
1.686294
 30
0.0
 11
1.997731
 21
1.664429
 31
0.0
  0
LINE
  5
257
100
AcDbEntity
  8
IGES_LEVEL_0
 62
     7
100
AcDbLine
 10
2.145747
 20
1.926578
 30
0.0
 11
2.137911
 21
1.912696
 31
0.0
  0
LINE
  5
258
100
AcDbEntity
  8
IGES_LEVEL_0
 62
     7
100
AcDbLine
 10
2.156973
 20
1.946471
 30
0.0
 11
2.145747
 21
1.926578
 31
0.0
  0
LINE
  5
259
100
AcDbEntity
  8
IGES_LEVEL_0
 62
     7
100
AcDbLine
 10
2.078609
 20
1.807467
 30
0.0
 11
2.109793
 21
1.862714
 31
0.0
  0
LINE
  5
25A
100
AcDbEntity
  8
IGES_LEVEL_0
 62
     7
100
AcDbLine
 10
2.130676
 20
1.899717
 30
0.0
 11
2.150316
 21
1.934528
 31
0.0
  0
LINE
  5
25B
100
AcDbEntity
  8
IGES_LEVEL_0
 62
     7
100
AcDbLine
 10
2.12039
 20
1.88149
 30
0.0
 11
2.130676
 21
1.899717
 31
0.0
  0
LINE
  5
25C
100
AcDbEntity
  8
IGES_LEVEL_0
 62
     7
100
AcDbLine
 10
2.109793
 20
1.862714
 30
0.0
 11
2.12039
 21
1.88149
 31
0.0
  0
LINE
  5
25D
100
AcDbEntity
  8
IGES_LEVEL_0
 62
     7
100
AcDbLine
 10
2.067796
 20
1.788309
 30
0.0
 11
2.078609
 21
1.807467
 31
0.0
  0
LINE
  5
25E
100
AcDbEntity
  8
IGES_LEVEL_0
 62
     7
100
AcDbLine
 10
2.057291
 20
1.769696
 30
0.0
 11
2.067796
 21
1.788309
 31
0.0
  0
LINE
  5
25F
100
AcDbEntity
  8
IGES_LEVEL_0
 62
     7
100
AcDbLine
 10
2.047094
 20
1.751627
 30
0.0
 11
2.057291
 21
1.769696
 31
0.0
  0
LINE
  5
260
100
AcDbEntity
  8
IGES_LEVEL_0
 62
     7
100
AcDbLine
 10
2.027625
 20
1.717121
 30
0.0
 11
2.047094
 21
1.751627
 31
0.0
  0
LINE
  5
261
100
AcDbEntity
  8
IGES_LEVEL_0
 62
     7
100
AcDbLine
 10
2.15967
 20
1.951113
 30
0.0
 11
2.176118
 21
1.980287
 31
0.0
  0
LINE
  5
262
100
AcDbEntity
  8
IGES_LEVEL_0
 62
     7
100
AcDbLine
 10
2.150316
 20
1.934528
 30
0.0
 11
2.15967
 21
1.951113
 31
0.0
  0
LINE
  5
263
100
AcDbEntity
  8
IGES_LEVEL_0
 62
     7
100
AcDbLine
 10
2.166284
 20
1.962978
 30
0.0
 11
2.156973
 21
1.946471
 31
0.0
  0
LINE
  5
264
100
AcDbEntity
  8
IGES_LEVEL_0
 62
     7
100
AcDbLine
 10
2.175452
 20
1.979235
 30
0.0
 11
2.166284
 21
1.962978
 31
0.0
  0
LINE
  5
265
100
AcDbEntity
  8
IGES_LEVEL_0
 62
     7
100
AcDbLine
 10
2.018352
 20
1.70068
 30
0.0
 11
2.027625
 21
1.717121
 31
0.0
  0
LINE
  5
266
100
AcDbEntity
  8
IGES_LEVEL_0
 62
     7
100
AcDbLine
 10
2.009388
 20
1.684782
 30
0.0
 11
2.018352
 21
1.70068
 31
0.0
  0
LINE
  5
267
100
AcDbEntity
  8
IGES_LEVEL_0
 62
     7
100
AcDbLine
 10
2.001721
 20
1.671179
 30
0.0
 11
2.009388
 21
1.684782
 31
0.0
  0
LINE
  5
268
100
AcDbEntity
  8
IGES_LEVEL_0
 62
     7
100
AcDbLine
 10
1.999621
 20
1.666468
 30
0.0
 11
2.17767
 21
1.982424
 31
0.0
  0
LINE
  5
269
100
AcDbEntity
  8
IGES_LEVEL_0
 62
     7
100
AcDbLine
 10
2.552674
 20
2.220416
 30
0.0
 11
2.552673
 21
2.18906
 31
0.0
  0
LINE
  5
26A
100
AcDbEntity
  8
IGES_LEVEL_0
 62
     7
100
AcDbLine
 10
1.981182
 20
1.625244
 30
0.0
 11
1.98639
 21
1.633811
 31
0.0
  0
LINE
  5
26B
100
AcDbEntity
  8
IGES_LEVEL_0
 62
     7
100
AcDbLine
 10
1.975776
 20
1.616138
 30
0.0
 11
1.981182
 21
1.625244
 31
0.0
  0
LINE
  5
26C
100
AcDbEntity
  8
IGES_LEVEL_0
 62
     7
100
AcDbLine
 10
1.970251
 20
1.606614
 30
0.0
 11
1.975776
 21
1.616138
 31
0.0
  0
LINE
  5
26D
100
AcDbEntity
  8
IGES_LEVEL_0
 62
     7
100
AcDbLine
 10
1.964625
 20
1.596699
 30
0.0
 11
1.970251
 21
1.606614
 31
0.0
  0
LINE
  5
26E
100
AcDbEntity
  8
IGES_LEVEL_0
 62
     7
100
AcDbLine
 10
1.958848
 20
1.586298
 30
0.0
 11
1.964625
 21
1.596699
 31
0.0
  0
LINE
  5
26F
100
AcDbEntity
  8
IGES_LEVEL_0
 62
     7
100
AcDbLine
 10
1.952921
 20
1.575404
 30
0.0
 11
1.958848
 21
1.586298
 31
0.0
  0
LINE
  5
270
100
AcDbEntity
  8
IGES_LEVEL_0
 62
     7
100
AcDbLine
 10
2.058646
 20
1.798757
 30
0.0
 11
2.070183
 21
1.820084
 31
0.0
  0
LINE
  5
271
100
AcDbEntity
  8
IGES_LEVEL_0
 62
     7
100
AcDbLine
 10
2.047004
 20
1.77716
 30
0.0
 11
2.058646
 21
1.798757
 31
0.0
  0
LINE
  5
272
100
AcDbEntity
  8
IGES_LEVEL_0
 62
     7
100
AcDbLine
 10
2.035442
 20
1.75566
 30
0.0
 11
2.047004
 21
1.77716
 31
0.0
  0
LINE
  5
273
100
AcDbEntity
  8
IGES_LEVEL_0
 62
     7
100
AcDbLine
 10
2.02421
 20
1.734747
 30
0.0
 11
2.035442
 21
1.75566
 31
0.0
  0
LINE
  5
274
100
AcDbEntity
  8
IGES_LEVEL_0
 62
     7
100
AcDbLine
 10
2.013284
 20
1.714387
 30
0.0
 11
2.02421
 21
1.734747
 31
0.0
  0
LINE
  5
275
100
AcDbEntity
  8
IGES_LEVEL_0
 62
     7
100
AcDbLine
 10
2.002462
 20
1.694213
 30
0.0
 11
2.013284
 21
1.714387
 31
0.0
  0
LINE
  5
276
100
AcDbEntity
  8
IGES_LEVEL_0
 62
     7
100
AcDbLine
 10
1.991762
 20
1.674236
 30
0.0
 11
2.002462
 21
1.694213
 31
0.0
  0
LINE
  5
277
100
AcDbEntity
  8
IGES_LEVEL_0
 62
     7
100
AcDbLine
 10
1.981386
 20
1.654799
 30
0.0
 11
1.991762
 21
1.674236
 31
0.0
  0
LINE
  5
278
100
AcDbEntity
  8
IGES_LEVEL_0
 62
     7
100
AcDbLine
 10
1.971454
 20
1.636079
 30
0.0
 11
1.981386
 21
1.654799
 31
0.0
  0
LINE
  5
279
100
AcDbEntity
  8
IGES_LEVEL_0
 62
     7
100
AcDbLine
 10
1.950672
 20
1.571581
 30
0.0
 11
1.999621
 21
1.666468
 31
0.0
  0
LINE
  5
27A
100
AcDbEntity
  8
IGES_LEVEL_0
 62
     7
100
AcDbLine
 10
1.974315
 20
1.690975
 30
0.0
 11
2.031789
 21
1.809994
 31
0.0
  0
LINE
  5
27B
100
AcDbEntity
  8
IGES_LEVEL_0
 62
     7
100
AcDbLine
 10
1.95574
 20
1.652509
 30
0.0
 11
1.963032
 21
1.667608
 31
0.0
  0
LINE
  5
27C
100
AcDbEntity
  8
IGES_LEVEL_0
 62
     7
100
AcDbLine
 10
1.974539
 20
1.697023
 30
0.0
 11
2.028074
 21
1.807886
 31
0.0
  0
LINE
  5
27D
100
AcDbEntity
  8
IGES_LEVEL_0
 62
     7
100
AcDbLine
 10
1.952683
 20
1.651761
 30
0.0
 11
1.958025
 21
1.662824
 31
0.0
  0
LINE
  5
27E
100
AcDbEntity
  8
IGES_LEVEL_0
 62
     7
100
AcDbLine
 10
2.049375
 20
1.826885
 30
0.0
 11
1.952272
 21
1.624422
 31
0.0
  0
LINE
  5
27F
100
AcDbEntity
  8
IGES_LEVEL_0
 62
     7
100
AcDbLine
 10
2.020138
 20
1.811017
 30
0.0
 11
1.585534
 21
1.811027
 31
0.0
  0
LINE
  5
280
100
AcDbEntity
  8
IGES_LEVEL_0
 62
     7
100
AcDbLine
 10
2.075504
 20
1.832092
 30
0.0
 11
2.070183
 21
1.820084
 31
0.0
  0
LINE
  5
281
100
AcDbEntity
  8
IGES_LEVEL_0
 62
     7
100
AcDbLine
 10
2.080714
 20
1.843911
 30
0.0
 11
2.075504
 21
1.832092
 31
0.0
  0
LINE
  5
282
100
AcDbEntity
  8
IGES_LEVEL_0
 62
     7
100
AcDbLine
 10
2.0858
 20
1.855489
 30
0.0
 11
2.080714
 21
1.843911
 31
0.0
  0
LINE
  5
283
100
AcDbEntity
  8
IGES_LEVEL_0
 62
     7
100
AcDbLine
 10
2.09069
 20
1.866645
 30
0.0
 11
2.0858
 21
1.855489
 31
0.0
  0
LINE
  5
284
100
AcDbEntity
  8
IGES_LEVEL_0
 62
     7
100
AcDbLine
 10
2.095441
 20
1.877499
 30
0.0
 11
2.09069
 21
1.866645
 31
0.0
  0
LINE
  5
285
100
AcDbEntity
  8
IGES_LEVEL_0
 62
     7
100
AcDbLine
 10
2.100197
 20
1.888372
 30
0.0
 11
2.095441
 21
1.877499
 31
0.0
  0
LINE
  5
286
100
AcDbEntity
  8
IGES_LEVEL_0
 62
     7
100
AcDbLine
 10
2.104919
 20
1.899184
 30
0.0
 11
2.100197
 21
1.888372
 31
0.0
  0
LINE
  5
287
100
AcDbEntity
  8
IGES_LEVEL_0
 62
     7
100
AcDbLine
 10
2.109423
 20
1.909543
 30
0.0
 11
2.104919
 21
1.899184
 31
0.0
  0
LINE
  5
288
100
AcDbEntity
  8
IGES_LEVEL_0
 62
     7
100
AcDbLine
 10
2.113557
 20
1.919136
 30
0.0
 11
2.109423
 21
1.909543
 31
0.0
  0
LINE
  5
289
100
AcDbEntity
  8
IGES_LEVEL_0
 62
     7
100
AcDbLine
 10
2.247986
 20
2.120128
 30
0.0
 11
2.247984
 21
2.0233
 31
0.0
  0
LINE
  5
28A
100
AcDbEntity
  8
IGES_LEVEL_0
 62
     7
100
AcDbLine
 10
1.844413
 20
0.323846
 30
0.0
 11
1.842812
 21
0.313601
 31
0.0
  0
LINE
  5
28B
100
AcDbEntity
  8
IGES_LEVEL_0
 62
     7
100
AcDbLine
 10
2.17767
 20
1.986147
 30
0.0
 11
2.177675
 21
2.173404
 31
0.0
  0
LINE
  5
28C
100
AcDbEntity
  8
IGES_LEVEL_0
 62
     7
100
AcDbLine
 10
2.241736
 20
2.126426
 30
0.0
 11
2.241734
 21
2.017051
 31
0.0
  0
LINE
  5
28D
100
AcDbEntity
  8
IGES_LEVEL_0
 62
     7
100
AcDbLine
 10
2.22455
 20
2.189008
 30
0.0
 11
2.224545
 21
1.970176
 31
0.0
  0
LINE
  5
28E
100
AcDbEntity
  8
IGES_LEVEL_0
 62
     7
100
AcDbLine
 10
2.208925
 20
2.189008
 30
0.0
 11
2.20892
 21
1.970176
 31
0.0
  0
LINE
  5
28F
100
AcDbEntity
  8
IGES_LEVEL_0
 62
     7
100
AcDbLine
 10
2.169132
 20
2.019781
 30
0.0
 11
2.169136
 21
2.173408
 31
0.0
  0
LINE
  5
290
100
AcDbEntity
  8
IGES_LEVEL_0
 62
     7
100
AcDbLine
 10
2.16517
 20
1.960868
 30
0.0
 11
2.165169
 21
1.926368
 31
0.0
  0
LINE
  5
291
100
AcDbEntity
  8
IGES_LEVEL_0
 62
     7
100
AcDbLine
 10
1.782328
 20
1.754956
 30
0.0
 11
1.794505
 21
1.755267
 31
0.0
  0
LINE
  5
292
100
AcDbEntity
  8
IGES_LEVEL_0
 62
     7
100
AcDbLine
 10
1.77062
 20
1.75438
 30
0.0
 11
1.782328
 21
1.754956
 31
0.0
  0
LINE
  5
293
100
AcDbEntity
  8
IGES_LEVEL_0
 62
     7
100
AcDbLine
 10
1.759498
 20
1.753564
 30
0.0
 11
1.77062
 21
1.75438
 31
0.0
  0
LINE
  5
294
100
AcDbEntity
  8
IGES_LEVEL_0
 62
     7
100
AcDbLine
 10
1.748941
 20
1.752528
 30
0.0
 11
1.759498
 21
1.753564
 31
0.0
  0
LINE
  5
295
100
AcDbEntity
  8
IGES_LEVEL_0
 62
     7
100
AcDbLine
 10
1.738806
 20
1.751266
 30
0.0
 11
1.748941
 21
1.752528
 31
0.0
  0
LINE
  5
296
100
AcDbEntity
  8
IGES_LEVEL_0
 62
     7
100
AcDbLine
 10
1.952545
 20
1.640484
 30
0.0
 11
1.952701
 21
1.653275
 31
0.0
  0
LINE
  5
297
100
AcDbEntity
  8
IGES_LEVEL_0
 62
     7
100
AcDbLine
 10
1.952896
 20
1.683366
 30
0.0
 11
1.952914
 21
1.696238
 31
0.0
  0
LINE
  5
298
100
AcDbEntity
  8
IGES_LEVEL_0
 62
     7
100
AcDbLine
 10
1.952823
 20
1.667631
 30
0.0
 11
1.952896
 21
1.683366
 31
0.0
  0
LINE
  5
299
100
AcDbEntity
  8
IGES_LEVEL_0
 62
     7
100
AcDbLine
 10
1.952701
 20
1.653275
 30
0.0
 11
1.952823
 21
1.667631
 31
0.0
  0
LINE
  5
29A
100
AcDbEntity
  8
IGES_LEVEL_0
 62
     7
100
AcDbLine
 10
2.0323
 20
1.812207
 30
0.0
 11
2.0323
 21
1.823087
 31
0.0
  0
LINE
  5
29B
100
AcDbEntity
  8
IGES_LEVEL_0
 62
     7
100
AcDbLine
 10
2.0198
 20
1.811019
 30
0.0
 11
2.0198
 21
1.827137
 31
0.0
  0
LINE
  5
29C
100
AcDbEntity
  8
IGES_LEVEL_0
 62
     7
100
AcDbLine
 10
1.97454
 20
1.736423
 30
0.0
 11
1.974539
 21
1.694441
 31
0.0
  0
LINE
  5
29D
100
AcDbEntity
  8
IGES_LEVEL_0
 62
     7
100
AcDbLine
 10
1.909218
 20
0.297976
 30
0.0
 11
1.909218
 21
0.016726
 31
0.0
  0
LINE
  5
29E
100
AcDbEntity
  8
IGES_LEVEL_0
 62
     7
100
AcDbLine
 10
1.893593
 20
0.313601
 30
0.0
 11
1.893593
 21
0.001101
 31
0.0
  0
LINE
  5
29F
100
AcDbEntity
  8
IGES_LEVEL_0
 62
     7
100
AcDbLine
 10
1.850625
 20
0.001101
 30
0.0
 11
1.850625
 21
0.313601
 31
0.0
  0
LINE
  5
2A0
100
AcDbEntity
  8
IGES_LEVEL_0
 62
     7
100
AcDbLine
 10
1.845915
 20
1.74283
 30
0.0
 11
1.845916
 21
1.75355
 31
0.0
  0
LINE
  5
2A1
100
AcDbEntity
  8
IGES_LEVEL_0
 62
     7
100
AcDbLine
 10
1.844765
 20
0.313601
 30
0.0
 11
1.844765
 21
0.102663
 31
0.0
  0
LINE
  5
2A2
100
AcDbEntity
  8
IGES_LEVEL_0
 62
     7
100
AcDbLine
 10
1.813577
 20
1.802098
 30
0.0
 11
1.802667
 21
1.802235
 31
0.0
  0
LINE
  5
2A3
100
AcDbEntity
  8
IGES_LEVEL_0
 62
     7
100
AcDbLine
 10
1.823904
 20
1.801818
 30
0.0
 11
1.813577
 21
1.802098
 31
0.0
  0
LINE
  5
2A4
100
AcDbEntity
  8
IGES_LEVEL_0
 62
     7
100
AcDbLine
 10
0.568306
 20
2.532908
 30
0.0
 11
3.037056
 21
2.532858
 31
0.0
  0
LINE
  5
2A5
100
AcDbEntity
  8
IGES_LEVEL_0
 62
     7
100
AcDbLine
 10
3.037054
 20
2.53217
 30
0.0
 11
0.568304
 21
2.532221
 31
0.0
  0
LINE
  5
2A6
100
AcDbEntity
  8
IGES_LEVEL_0
 62
     7
100
AcDbLine
 10
1.802666
 20
1.757078
 30
0.0
 11
1.802667
 21
1.802235
 31
0.0
  0
LINE
  5
2A7
100
AcDbEntity
  8
IGES_LEVEL_0
 62
     7
100
AcDbLine
 10
1.759415
 20
1.742832
 30
0.0
 11
1.759416
 21
1.753556
 31
0.0
  0
LINE
  5
2A8
100
AcDbEntity
  8
IGES_LEVEL_0
 62
     7
100
AcDbLine
 10
1.754921
 20
0.313601
 30
0.0
 11
1.754921
 21
0.102663
 31
0.0
  0
LINE
  5
2A9
100
AcDbEntity
  8
IGES_LEVEL_0
 62
     7
100
AcDbLine
 10
1.752968
 20
0.309695
 30
0.0
 11
1.752968
 21
0.005007
 31
0.0
  0
LINE
  5
2AA
100
AcDbEntity
  8
IGES_LEVEL_0
 62
     7
100
AcDbLine
 10
1.749062
 20
0.313601
 30
0.0
 11
1.749062
 21
0.001101
 31
0.0
  0
LINE
  5
2AB
100
AcDbEntity
  8
IGES_LEVEL_0
 62
     7
100
AcDbLine
 10
1.706093
 20
0.313601
 30
0.0
 11
1.706093
 21
0.001101
 31
0.0
  0
LINE
  5
2AC
100
AcDbEntity
  8
IGES_LEVEL_0
 62
     7
100
AcDbLine
 10
1.690468
 20
0.297976
 30
0.0
 11
1.690468
 21
0.016726
 31
0.0
  0
LINE
  5
2AD
100
AcDbEntity
  8
IGES_LEVEL_0
 62
     7
100
AcDbLine
 10
1.63079
 20
1.73643
 30
0.0
 11
1.630789
 21
1.694448
 31
0.0
  0
LINE
  5
2AE
100
AcDbEntity
  8
IGES_LEVEL_0
 62
     7
100
AcDbLine
 10
1.652491
 20
1.669848
 30
0.0
 11
1.652595
 21
1.656367
 31
0.0
  0
LINE
  5
2AF
100
AcDbEntity
  8
IGES_LEVEL_0
 62
     7
100
AcDbLine
 10
1.652429
 20
1.684555
 30
0.0
 11
1.652491
 21
1.669848
 31
0.0
  0
LINE
  5
2B0
100
AcDbEntity
  8
IGES_LEVEL_0
 62
     7
100
AcDbLine
 10
1.652414
 20
1.696244
 30
0.0
 11
1.652429
 21
1.684555
 31
0.0
  0
LINE
  5
2B1
100
AcDbEntity
  8
IGES_LEVEL_0
 62
     7
100
AcDbLine
 10
1.65289
 20
1.633387
 30
0.0
 11
1.653073
 21
1.623241
 31
0.0
  0
LINE
  5
2B2
100
AcDbEntity
  8
IGES_LEVEL_0
 62
     7
100
AcDbLine
 10
1.652731
 20
1.644268
 30
0.0
 11
1.65289
 21
1.633387
 31
0.0
  0
LINE
  5
2B3
100
AcDbEntity
  8
IGES_LEVEL_0
 62
     7
100
AcDbLine
 10
1.652595
 20
1.656367
 30
0.0
 11
1.652731
 21
1.644268
 31
0.0
  0
LINE
  5
2B4
100
AcDbEntity
  8
IGES_LEVEL_0
 62
     7
100
AcDbLine
 10
3.037051
 20
2.355839
 30
0.0
 11
3.099551
 21
2.355838
 31
0.0
  0
LINE
  5
2B5
100
AcDbEntity
  8
IGES_LEVEL_0
 62
     7
100
AcDbLine
 10
0.5683
 20
2.355839
 30
0.0
 11
0.5058
 21
2.355839
 31
0.0
  0
LINE
  5
2B6
100
AcDbEntity
  8
IGES_LEVEL_0
 62
     7
100
AcDbLine
 10
3.03705
 20
2.277714
 30
0.0
 11
3.09955
 21
2.277713
 31
0.0
  0
LINE
  5
2B7
100
AcDbEntity
  8
IGES_LEVEL_0
 62
     7
100
AcDbLine
 10
0.5683
 20
2.277714
 30
0.0
 11
0.5058
 21
2.277714
 31
0.0
  0
LINE
  5
2B8
100
AcDbEntity
  8
IGES_LEVEL_0
 62
     7
100
AcDbLine
 10
1.585534
 20
1.811027
 30
0.0
 11
1.585534
 21
1.827146
 31
0.0
  0
LINE
  5
2B9
100
AcDbEntity
  8
IGES_LEVEL_0
 62
     7
100
AcDbLine
 10
1.573034
 20
1.812217
 30
0.0
 11
1.573034
 21
1.823097
 31
0.0
  0
LINE
  5
2BA
100
AcDbEntity
  8
IGES_LEVEL_0
 62
     7
100
AcDbLine
 10
1.440169
 20
1.926383
 30
0.0
 11
1.44017
 21
1.960883
 31
0.0
  0
LINE
  5
2BB
100
AcDbEntity
  8
IGES_LEVEL_0
 62
     7
100
AcDbLine
 10
1.436211
 20
2.019796
 30
0.0
 11
1.436214
 21
2.173423
 31
0.0
  0
LINE
  5
2BC
100
AcDbEntity
  8
IGES_LEVEL_0
 62
     7
100
AcDbLine
 10
1.427671
 20
1.986162
 30
0.0
 11
1.427675
 21
2.17342
 31
0.0
  0
LINE
  5
2BD
100
AcDbEntity
  8
IGES_LEVEL_0
 62
     7
100
AcDbLine
 10
1.755274
 20
0.323846
 30
0.0
 11
1.756875
 21
0.313601
 31
0.0
  0
LINE
  5
2BE
100
AcDbEntity
  8
IGES_LEVEL_0
 62
     7
100
AcDbLine
 10
1.529831
 20
1.832103
 30
0.0
 11
1.535151
 21
1.820095
 31
0.0
  0
LINE
  5
2BF
100
AcDbEntity
  8
IGES_LEVEL_0
 62
     7
100
AcDbLine
 10
1.524621
 20
1.843922
 30
0.0
 11
1.529831
 21
1.832103
 31
0.0
  0
LINE
  5
2C0
100
AcDbEntity
  8
IGES_LEVEL_0
 62
     7
100
AcDbLine
 10
1.519536
 20
1.8555
 30
0.0
 11
1.524621
 21
1.843922
 31
0.0
  0
LINE
  5
2C1
100
AcDbEntity
  8
IGES_LEVEL_0
 62
     7
100
AcDbLine
 10
1.514647
 20
1.866656
 30
0.0
 11
1.519536
 21
1.8555
 31
0.0
  0
LINE
  5
2C2
100
AcDbEntity
  8
IGES_LEVEL_0
 62
     7
100
AcDbLine
 10
1.509896
 20
1.87751
 30
0.0
 11
1.514647
 21
1.866656
 31
0.0
  0
LINE
  5
2C3
100
AcDbEntity
  8
IGES_LEVEL_0
 62
     7
100
AcDbLine
 10
1.505141
 20
1.888382
 30
0.0
 11
1.509896
 21
1.87751
 31
0.0
  0
LINE
  5
2C4
100
AcDbEntity
  8
IGES_LEVEL_0
 62
     7
100
AcDbLine
 10
1.500419
 20
1.899195
 30
0.0
 11
1.505141
 21
1.888382
 31
0.0
  0
LINE
  5
2C5
100
AcDbEntity
  8
IGES_LEVEL_0
 62
     7
100
AcDbLine
 10
1.495915
 20
1.909555
 30
0.0
 11
1.500419
 21
1.899195
 31
0.0
  0
LINE
  5
2C6
100
AcDbEntity
  8
IGES_LEVEL_0
 62
     7
100
AcDbLine
 10
1.491782
 20
1.919149
 30
0.0
 11
1.495915
 21
1.909555
 31
0.0
  0
LINE
  5
2C7
100
AcDbEntity
  8
IGES_LEVEL_0
 62
     7
100
AcDbLine
 10
1.555959
 20
1.826895
 30
0.0
 11
1.653051
 21
1.624434
 31
0.0
  0
LINE
  5
2C8
100
AcDbEntity
  8
IGES_LEVEL_0
 62
     7
100
AcDbLine
 10
1.647301
 20
1.662833
 30
0.0
 11
1.652647
 21
1.651762
 31
0.0
  0
LINE
  5
2C9
100
AcDbEntity
  8
IGES_LEVEL_0
 62
     7
100
AcDbLine
 10
1.577259
 20
1.807895
 30
0.0
 11
1.630789
 21
1.69703
 31
0.0
  0
LINE
  5
2CA
100
AcDbEntity
  8
IGES_LEVEL_0
 62
     7
100
AcDbLine
 10
1.642292
 20
1.667624
 30
0.0
 11
1.649587
 21
1.652515
 31
0.0
  0
LINE
  5
2CB
100
AcDbEntity
  8
IGES_LEVEL_0
 62
     7
100
AcDbLine
 10
1.573545
 20
1.810004
 30
0.0
 11
1.631006
 21
1.690997
 31
0.0
  0
LINE
  5
2CC
100
AcDbEntity
  8
IGES_LEVEL_0
 62
     7
100
AcDbLine
 10
0.911032
 20
2.22045
 30
0.0
 11
0.591816
 21
2.251658
 31
0.0
  0
LINE
  5
2CD
100
AcDbEntity
  8
IGES_LEVEL_0
 62
     7
100
AcDbLine
 10
1.232439
 20
2.189029
 30
0.0
 11
1.052674
 21
2.206603
 31
0.0
  0
LINE
  5
2CE
100
AcDbEntity
  8
IGES_LEVEL_0
 62
     7
100
AcDbLine
 10
0.863789
 20
2.222766
 30
0.0
 11
0.5683
 21
2.251654
 31
0.0
  0
LINE
  5
2CF
100
AcDbEntity
  8
IGES_LEVEL_0
 62
     7
100
AcDbLine
 10
1.208923
 20
2.189025
 30
0.0
 11
1.052674
 21
2.2043
 31
0.0
  0
LINE
  5
2D0
100
AcDbEntity
  8
IGES_LEVEL_0
 62
     7
100
AcDbLine
 10
0.740146
 20
2.234256
 30
0.0
 11
0.568298
 21
2.250975
 31
0.0
  0
LINE
  5
2D1
100
AcDbEntity
  8
IGES_LEVEL_0
 62
     7
100
AcDbLine
 10
1.208922
 20
2.18865
 30
0.0
 11
1.052647
 21
2.203854
 31
0.0
  0
LINE
  5
2D2
100
AcDbEntity
  8
IGES_LEVEL_0
 62
     7
100
AcDbLine
 10
2.865174
 20
2.221592
 30
0.0
 11
3.03705
 21
2.221252
 31
0.0
  0
LINE
  5
2D3
100
AcDbEntity
  8
IGES_LEVEL_0
 62
     7
100
AcDbLine
 10
1.562233
 20
2.173431
 30
0.0
 11
1.44158
 21
2.173423
 31
0.0
  0
LINE
  5
2D4
100
AcDbEntity
  8
IGES_LEVEL_0
 62
     7
100
AcDbLine
 10
1.681769
 20
2.173434
 30
0.0
 11
1.562233
 21
2.173431
 31
0.0
  0
LINE
  5
2D5
100
AcDbEntity
  8
IGES_LEVEL_0
 62
     7
100
AcDbLine
 10
1.806665
 20
2.173434
 30
0.0
 11
1.681769
 21
2.173434
 31
0.0
  0
LINE
  5
2D6
100
AcDbEntity
  8
IGES_LEVEL_0
 62
     7
100
AcDbLine
 10
1.927504
 20
2.173429
 30
0.0
 11
1.806665
 21
2.173434
 31
0.0
  0
LINE
  5
2D7
100
AcDbEntity
  8
IGES_LEVEL_0
 62
     7
100
AcDbLine
 10
2.046975
 20
2.173421
 30
0.0
 11
1.927504
 21
2.173429
 31
0.0
  0
LINE
  5
2D8
100
AcDbEntity
  8
IGES_LEVEL_0
 62
     7
100
AcDbLine
 10
2.163769
 20
2.173409
 30
0.0
 11
2.046975
 21
2.173421
 31
0.0
  0
LINE
  5
2D9
100
AcDbEntity
  8
IGES_LEVEL_0
 62
     7
100
AcDbLine
 10
0.591816
 20
2.251658
 30
0.0
 11
3.013534
 21
2.251608
 31
0.0
  0
LINE
  5
2DA
100
AcDbEntity
  8
IGES_LEVEL_0
 62
     7
100
AcDbLine
 10
2.552674
 20
2.220416
 30
0.0
 11
2.694316
 21
2.220414
 31
0.0
  0
LINE
  5
2DB
100
AcDbEntity
  8
IGES_LEVEL_0
 62
     7
100
AcDbLine
 10
0.911032
 20
2.22045
 30
0.0
 11
1.052674
 21
2.220447
 31
0.0
  0
LINE
  5
2DC
100
AcDbEntity
  8
IGES_LEVEL_0
 62
     7
100
AcDbLine
 10
1.052673
 20
2.189091
 30
0.0
 11
0.740173
 21
2.189097
 31
0.0
  0
LINE
  5
2DD
100
AcDbEntity
  8
IGES_LEVEL_0
 62
     7
100
AcDbLine
 10
2.865173
 20
2.189053
 30
0.0
 11
2.552673
 21
2.18906
 31
0.0
  0
LINE
  5
2DE
100
AcDbEntity
  8
IGES_LEVEL_0
 62
     7
100
AcDbLine
 10
1.232439
 20
2.189029
 30
0.0
 11
2.372907
 21
2.189005
 31
0.0
  0
LINE
  5
2DF
100
AcDbEntity
  8
IGES_LEVEL_0
 62
     7
100
AcDbLine
 10
2.224549
 20
2.188626
 30
0.0
 11
2.383653
 21
2.188623
 31
0.0
  0
LINE
  5
2E0
100
AcDbEntity
  8
IGES_LEVEL_0
 62
     7
100
AcDbLine
 10
1.396425
 20
2.188643
 30
0.0
 11
2.208924
 21
2.188626
 31
0.0
  0
LINE
  5
2E1
100
AcDbEntity
  8
IGES_LEVEL_0
 62
     7
100
AcDbLine
 10
1.221692
 20
2.188646
 30
0.0
 11
1.380799
 21
2.188643
 31
0.0
  0
LINE
  5
2E2
100
AcDbEntity
  8
IGES_LEVEL_0
 62
     7
100
AcDbLine
 10
1.436214
 20
2.173423
 30
0.0
 11
2.169136
 21
2.173408
 31
0.0
  0
LINE
  5
2E3
100
AcDbEntity
  8
IGES_LEVEL_0
 62
     7
100
AcDbLine
 10
2.177674
 20
2.163617
 30
0.0
 11
2.208924
 21
2.163617
 31
0.0
  0
LINE
  5
2E4
100
AcDbEntity
  8
IGES_LEVEL_0
 62
     7
100
AcDbLine
 10
1.396424
 20
2.163617
 30
0.0
 11
1.427674
 21
2.163617
 31
0.0
  0
LINE
  5
2E5
100
AcDbEntity
  8
IGES_LEVEL_0
 62
     7
100
AcDbLine
 10
2.767998
 20
2.163628
 30
0.0
 11
3.03705
 21
2.163636
 31
0.0
  0
LINE
  5
2E6
100
AcDbEntity
  8
IGES_LEVEL_0
 62
     7
100
AcDbLine
 10
2.492101
 20
2.163621
 30
0.0
 11
2.767998
 21
2.163628
 31
0.0
  0
LINE
  5
2E7
100
AcDbEntity
  8
IGES_LEVEL_0
 62
     7
100
AcDbLine
 10
2.224549
 20
2.163617
 30
0.0
 11
2.492101
 21
2.163621
 31
0.0
  0
LINE
  5
2E8
100
AcDbEntity
  8
IGES_LEVEL_0
 62
     7
100
AcDbLine
 10
1.112623
 20
2.163622
 30
0.0
 11
1.380799
 21
2.163617
 31
0.0
  0
LINE
  5
2E9
100
AcDbEntity
  8
IGES_LEVEL_0
 62
     7
100
AcDbLine
 10
0.83673
 20
2.163628
 30
0.0
 11
1.112623
 21
2.163622
 31
0.0
  0
LINE
  5
2EA
100
AcDbEntity
  8
IGES_LEVEL_0
 62
     7
100
AcDbLine
 10
0.5683
 20
2.163637
 30
0.0
 11
0.83673
 21
2.163628
 31
0.0
  0
LINE
  5
2EB
100
AcDbEntity
  8
IGES_LEVEL_0
 62
     7
100
AcDbLine
 10
2.177674
 20
2.146739
 30
0.0
 11
2.208924
 21
2.146739
 31
0.0
  0
LINE
  5
2EC
100
AcDbEntity
  8
IGES_LEVEL_0
 62
     7
100
AcDbLine
 10
1.427674
 20
2.146755
 30
0.0
 11
1.396424
 21
2.146755
 31
0.0
  0
LINE
  5
2ED
100
AcDbEntity
  8
IGES_LEVEL_0
 62
     7
100
AcDbLine
 10
2.224549
 20
2.126426
 30
0.0
 11
2.241736
 21
2.126426
 31
0.0
  0
LINE
  5
2EE
100
AcDbEntity
  8
IGES_LEVEL_0
 62
     7
100
AcDbLine
 10
1.363611
 20
2.126444
 30
0.0
 11
1.380799
 21
2.126443
 31
0.0
  0
LINE
  5
2EF
100
AcDbEntity
  8
IGES_LEVEL_0
 62
     7
100
AcDbLine
 10
1.427673
 20
2.085535
 30
0.0
 11
1.287048
 21
2.085538
 31
0.0
  0
LINE
  5
2F0
100
AcDbEntity
  8
IGES_LEVEL_0
 62
     7
100
AcDbLine
 10
2.177672
 20
2.071783
 30
0.0
 11
2.208922
 21
2.071782
 31
0.0
  0
LINE
  5
2F1
100
AcDbEntity
  8
IGES_LEVEL_0
 62
     7
100
AcDbLine
 10
0.5683
 20
2.221252
 30
0.0
 11
0.740174
 21
2.221592
 31
0.0
  0
LINE
  5
2F2
100
AcDbEntity
  8
IGES_LEVEL_0
 62
     7
100
AcDbLine
 10
2.86523
 20
2.234215
 30
0.0
 11
3.037048
 21
2.250924
 31
0.0
  0
LINE
  5
2F3
100
AcDbEntity
  8
IGES_LEVEL_0
 62
     7
100
AcDbLine
 10
2.396422
 20
2.188626
 30
0.0
 11
2.552717
 21
2.203825
 31
0.0
  0
LINE
  5
2F4
100
AcDbEntity
  8
IGES_LEVEL_0
 62
     7
100
AcDbLine
 10
2.694316
 20
2.220414
 30
0.0
 11
3.013534
 21
2.251608
 31
0.0
  0
LINE
  5
2F5
100
AcDbEntity
  8
IGES_LEVEL_0
 62
     7
100
AcDbLine
 10
2.372907
 20
2.189005
 30
0.0
 11
2.552674
 21
2.206572
 31
0.0
  0
LINE
  5
2F6
100
AcDbEntity
  8
IGES_LEVEL_0
 62
     7
100
AcDbLine
 10
2.741559
 20
2.222727
 30
0.0
 11
3.03705
 21
2.251603
 31
0.0
  0
LINE
  5
2F7
100
AcDbEntity
  8
IGES_LEVEL_0
 62
     7
100
AcDbLine
 10
2.396423
 20
2.189
 30
0.0
 11
2.552674
 21
2.204269
 31
0.0
  0
LINE
  5
2F8
100
AcDbEntity
  8
IGES_LEVEL_0
 62
     7
100
AcDbLine
 10
1.047131
 20
2.025201
 30
0.0
 11
1.287047
 21
2.048961
 31
0.0
  0
LINE
  5
2F9
100
AcDbEntity
  8
IGES_LEVEL_0
 62
     7
100
AcDbLine
 10
1.029618
 20
2.019216
 30
0.0
 11
1.287047
 21
2.046538
 31
0.0
  0
LINE
  5
2FA
100
AcDbEntity
  8
IGES_LEVEL_0
 62
     7
100
AcDbLine
 10
1.396422
 20
2.046536
 30
0.0
 11
1.39642
 21
1.970193
 31
0.0
  0
LINE
  5
2FB
100
AcDbEntity
  8
IGES_LEVEL_0
 62
     7
100
AcDbLine
 10
1.396425
 20
2.189025
 30
0.0
 11
1.396423
 21
2.085536
 31
0.0
  0
LINE
  5
2FC
100
AcDbEntity
  8
IGES_LEVEL_0
 62
     7
100
AcDbLine
 10
1.380797
 20
2.046536
 30
0.0
 11
1.380795
 21
1.970193
 31
0.0
  0
LINE
  5
2FD
100
AcDbEntity
  8
IGES_LEVEL_0
 62
     7
100
AcDbLine
 10
1.3808
 20
2.189026
 30
0.0
 11
1.380798
 21
2.085536
 31
0.0
  0
LINE
  5
2FE
100
AcDbEntity
  8
IGES_LEVEL_0
 62
     7
100
AcDbLine
 10
1.363609
 20
2.017069
 30
0.0
 11
1.363609
 21
2.046536
 31
0.0
  0
LINE
  5
2FF
100
AcDbEntity
  8
IGES_LEVEL_0
 62
     7
100
AcDbLine
 10
1.36361
 20
2.085536
 30
0.0
 11
1.363611
 21
2.126444
 31
0.0
  0
LINE
  5
300
100
AcDbEntity
  8
IGES_LEVEL_0
 62
     7
100
AcDbLine
 10
1.35736
 20
2.085536
 30
0.0
 11
1.357361
 21
2.120194
 31
0.0
  0
LINE
  5
301
100
AcDbEntity
  8
IGES_LEVEL_0
 62
     7
100
AcDbLine
 10
1.357359
 20
2.023319
 30
0.0
 11
1.357359
 21
2.046536
 31
0.0
  0
LINE
  5
302
100
AcDbEntity
  8
IGES_LEVEL_0
 62
     7
100
AcDbLine
 10
1.654651
 20
1.571586
 30
0.0
 11
1.605706
 21
1.666476
 31
0.0
  0
LINE
  5
303
100
AcDbEntity
  8
IGES_LEVEL_0
 62
     7
100
AcDbLine
 10
1.546688
 20
1.798768
 30
0.0
 11
1.535151
 21
1.820095
 31
0.0
  0
LINE
  5
304
100
AcDbEntity
  8
IGES_LEVEL_0
 62
     7
100
AcDbLine
 10
1.558328
 20
1.777171
 30
0.0
 11
1.546688
 21
1.798768
 31
0.0
  0
LINE
  5
305
100
AcDbEntity
  8
IGES_LEVEL_0
 62
     7
100
AcDbLine
 10
1.569889
 20
1.755669
 30
0.0
 11
1.558328
 21
1.777171
 31
0.0
  0
LINE
  5
306
100
AcDbEntity
  8
IGES_LEVEL_0
 62
     7
100
AcDbLine
 10
1.58112
 20
1.734756
 30
0.0
 11
1.569889
 21
1.755669
 31
0.0
  0
LINE
  5
307
100
AcDbEntity
  8
IGES_LEVEL_0
 62
     7
100
AcDbLine
 10
1.592046
 20
1.714396
 30
0.0
 11
1.58112
 21
1.734756
 31
0.0
  0
LINE
  5
308
100
AcDbEntity
  8
IGES_LEVEL_0
 62
     7
100
AcDbLine
 10
1.602867
 20
1.694222
 30
0.0
 11
1.592046
 21
1.714396
 31
0.0
  0
LINE
  5
309
100
AcDbEntity
  8
IGES_LEVEL_0
 62
     7
100
AcDbLine
 10
1.613566
 20
1.674244
 30
0.0
 11
1.602867
 21
1.694222
 31
0.0
  0
LINE
  5
30A
100
AcDbEntity
  8
IGES_LEVEL_0
 62
     7
100
AcDbLine
 10
1.62394
 20
1.654806
 30
0.0
 11
1.613566
 21
1.674244
 31
0.0
  0
LINE
  5
30B
100
AcDbEntity
  8
IGES_LEVEL_0
 62
     7
100
AcDbLine
 10
1.633872
 20
1.636086
 30
0.0
 11
1.62394
 21
1.654806
 31
0.0
  0
LINE
  5
30C
100
AcDbEntity
  8
IGES_LEVEL_0
 62
     7
100
AcDbLine
 10
1.604911
 20
1.669198
 30
0.0
 11
1.595264
 21
1.686311
 31
0.0
  0
LINE
  5
30D
100
AcDbEntity
  8
IGES_LEVEL_0
 62
     7
100
AcDbLine
 10
1.42767
 20
1.98244
 30
0.0
 11
1.605706
 21
1.666476
 31
0.0
  0
LINE
  5
30E
100
AcDbEntity
  8
IGES_LEVEL_0
 62
     7
100
AcDbLine
 10
1.445759
 20
1.95097
 30
0.0
 11
1.455112
 21
1.934385
 31
0.0
  0
LINE
  5
30F
100
AcDbEntity
  8
IGES_LEVEL_0
 62
     7
100
AcDbLine
 10
1.436716
 20
1.967008
 30
0.0
 11
1.445759
 21
1.95097
 31
0.0
  0
LINE
  5
310
100
AcDbEntity
  8
IGES_LEVEL_0
 62
     7
100
AcDbLine
 10
1.429223
 20
1.980303
 30
0.0
 11
1.436716
 21
1.967008
 31
0.0
  0
LINE
  5
311
100
AcDbEntity
  8
IGES_LEVEL_0
 62
     7
100
AcDbLine
 10
1.547287
 20
1.771311
 30
0.0
 11
1.527516
 21
1.806316
 31
0.0
  0
LINE
  5
312
100
AcDbEntity
  8
IGES_LEVEL_0
 62
     7
100
AcDbLine
 10
1.557046
 20
1.754031
 30
0.0
 11
1.547287
 21
1.771311
 31
0.0
  0
LINE
  5
313
100
AcDbEntity
  8
IGES_LEVEL_0
 62
     7
100
AcDbLine
 10
1.56672
 20
1.736897
 30
0.0
 11
1.557046
 21
1.754031
 31
0.0
  0
LINE
  5
314
100
AcDbEntity
  8
IGES_LEVEL_0
 62
     7
100
AcDbLine
 10
1.576315
 20
1.7199
 30
0.0
 11
1.56672
 21
1.736897
 31
0.0
  0
LINE
  5
315
100
AcDbEntity
  8
IGES_LEVEL_0
 62
     7
100
AcDbLine
 10
1.58583
 20
1.703037
 30
0.0
 11
1.576315
 21
1.7199
 31
0.0
  0
LINE
  5
316
100
AcDbEntity
  8
IGES_LEVEL_0
 62
     7
100
AcDbLine
 10
1.595264
 20
1.686311
 30
0.0
 11
1.58583
 21
1.703037
 31
0.0
  0
LINE
  5
317
100
AcDbEntity
  8
IGES_LEVEL_0
 62
     7
100
AcDbLine
 10
1.596028
 20
1.684633
 30
0.0
 11
1.604772
 21
1.669119
 31
0.0
  0
LINE
  5
318
100
AcDbEntity
  8
IGES_LEVEL_0
 62
     7
100
AcDbLine
 10
1.587065
 20
1.700531
 30
0.0
 11
1.596028
 21
1.684633
 31
0.0
  0
LINE
  5
319
100
AcDbEntity
  8
IGES_LEVEL_0
 62
     7
100
AcDbLine
 10
1.577793
 20
1.716972
 30
0.0
 11
1.587065
 21
1.700531
 31
0.0
  0
LINE
  5
31A
100
AcDbEntity
  8
IGES_LEVEL_0
 62
     7
100
AcDbLine
 10
1.558326
 20
1.75148
 30
0.0
 11
1.577793
 21
1.716972
 31
0.0
  0
LINE
  5
31B
100
AcDbEntity
  8
IGES_LEVEL_0
 62
     7
100
AcDbLine
 10
1.455112
 20
1.934385
 30
0.0
 11
1.47475
 21
1.899573
 31
0.0
  0
LINE
  5
31C
100
AcDbEntity
  8
IGES_LEVEL_0
 62
     7
100
AcDbLine
 10
1.537625
 20
1.788162
 30
0.0
 11
1.558326
 21
1.75148
 31
0.0
  0
LINE
  5
31D
100
AcDbEntity
  8
IGES_LEVEL_0
 62
     7
100
AcDbLine
 10
1.47475
 20
1.899573
 30
0.0
 11
1.495632
 21
1.862569
 31
0.0
  0
LINE
  5
31E
100
AcDbEntity
  8
IGES_LEVEL_0
 62
     7
100
AcDbLine
 10
1.43906
 20
1.962985
 30
0.0
 11
1.429889
 21
1.979251
 31
0.0
  0
LINE
  5
31F
100
AcDbEntity
  8
IGES_LEVEL_0
 62
     7
100
AcDbLine
 10
1.448375
 20
1.94647
 30
0.0
 11
1.43906
 21
1.962985
 31
0.0
  0
LINE
  5
320
100
AcDbEntity
  8
IGES_LEVEL_0
 62
     7
100
AcDbLine
 10
1.457834
 20
1.929707
 30
0.0
 11
1.448375
 21
1.94647
 31
0.0
  0
LINE
  5
321
100
AcDbEntity
  8
IGES_LEVEL_0
 62
     7
100
AcDbLine
 10
1.46744
 20
1.912688
 30
0.0
 11
1.457834
 21
1.929707
 31
0.0
  0
LINE
  5
322
100
AcDbEntity
  8
IGES_LEVEL_0
 62
     7
100
AcDbLine
 10
1.526813
 20
1.807321
 30
0.0
 11
1.537625
 21
1.788162
 31
0.0
  0
LINE
  5
323
100
AcDbEntity
  8
IGES_LEVEL_0
 62
     7
100
AcDbLine
 10
1.495632
 20
1.862569
 30
0.0
 11
1.526813
 21
1.807321
 31
0.0
  0
LINE
  5
324
100
AcDbEntity
  8
IGES_LEVEL_0
 62
     7
100
AcDbLine
 10
1.477189
 20
1.89542
 30
0.0
 11
1.46744
 21
1.912688
 31
0.0
  0
LINE
  5
325
100
AcDbEntity
  8
IGES_LEVEL_0
 62
     7
100
AcDbLine
 10
1.487072
 20
1.87792
 30
0.0
 11
1.477189
 21
1.89542
 31
0.0
  0
LINE
  5
326
100
AcDbEntity
  8
IGES_LEVEL_0
 62
     7
100
AcDbLine
 10
1.507228
 20
1.842233
 30
0.0
 11
1.487072
 21
1.87792
 31
0.0
  0
LINE
  5
327
100
AcDbEntity
  8
IGES_LEVEL_0
 62
     7
100
AcDbLine
 10
1.527516
 20
1.806316
 30
0.0
 11
1.517506
 21
1.824039
 31
0.0
  0
LINE
  5
328
100
AcDbEntity
  8
IGES_LEVEL_0
 62
     7
100
AcDbLine
 10
1.517506
 20
1.824039
 30
0.0
 11
1.507228
 21
1.842233
 31
0.0
  0
LINE
  5
329
100
AcDbEntity
  8
IGES_LEVEL_0
 62
     7
100
AcDbLine
 10
1.523232
 20
1.839848
 30
0.0
 11
1.535151
 21
1.820095
 31
0.0
  0
LINE
  5
32A
100
AcDbEntity
  8
IGES_LEVEL_0
 62
     7
100
AcDbLine
 10
1.511151
 20
1.859826
 30
0.0
 11
1.523232
 21
1.839848
 31
0.0
  0
LINE
  5
32B
100
AcDbEntity
  8
IGES_LEVEL_0
 62
     7
100
AcDbLine
 10
1.499058
 20
1.879792
 30
0.0
 11
1.511151
 21
1.859826
 31
0.0
  0
LINE
  5
32C
100
AcDbEntity
  8
IGES_LEVEL_0
 62
     7
100
AcDbLine
 10
1.487218
 20
1.899325
 30
0.0
 11
1.499058
 21
1.879792
 31
0.0
  0
LINE
  5
32D
100
AcDbEntity
  8
IGES_LEVEL_0
 62
     7
100
AcDbLine
 10
1.475587
 20
1.918504
 30
0.0
 11
1.487218
 21
1.899325
 31
0.0
  0
LINE
  5
32E
100
AcDbEntity
  8
IGES_LEVEL_0
 62
     7
100
AcDbLine
 10
1.463925
 20
1.937726
 30
0.0
 11
1.475587
 21
1.918504
 31
0.0
  0
LINE
  5
32F
100
AcDbEntity
  8
IGES_LEVEL_0
 62
     7
100
AcDbLine
 10
1.452288
 20
1.956895
 30
0.0
 11
1.463925
 21
1.937726
 31
0.0
  0
LINE
  5
330
100
AcDbEntity
  8
IGES_LEVEL_0
 62
     7
100
AcDbLine
 10
1.440956
 20
1.975524
 30
0.0
 11
1.452288
 21
1.956895
 31
0.0
  0
LINE
  5
331
100
AcDbEntity
  8
IGES_LEVEL_0
 62
     7
100
AcDbLine
 10
1.430125
 20
1.993266
 30
0.0
 11
1.440956
 21
1.975524
 31
0.0
  0
LINE
  5
332
100
AcDbEntity
  8
IGES_LEVEL_0
 62
     7
100
AcDbLine
 10
1.646476
 20
1.586305
 30
0.0
 11
1.652402
 21
1.57541
 31
0.0
  0
LINE
  5
333
100
AcDbEntity
  8
IGES_LEVEL_0
 62
     7
100
AcDbLine
 10
1.640699
 20
1.596705
 30
0.0
 11
1.646476
 21
1.586305
 31
0.0
  0
LINE
  5
334
100
AcDbEntity
  8
IGES_LEVEL_0
 62
     7
100
AcDbLine
 10
1.635073
 20
1.606621
 30
0.0
 11
1.640699
 21
1.596705
 31
0.0
  0
LINE
  5
335
100
AcDbEntity
  8
IGES_LEVEL_0
 62
     7
100
AcDbLine
 10
1.629549
 20
1.616145
 30
0.0
 11
1.635073
 21
1.606621
 31
0.0
  0
LINE
  5
336
100
AcDbEntity
  8
IGES_LEVEL_0
 62
     7
100
AcDbLine
 10
1.624144
 20
1.625252
 30
0.0
 11
1.629549
 21
1.616145
 31
0.0
  0
LINE
  5
337
100
AcDbEntity
  8
IGES_LEVEL_0
 62
     7
100
AcDbLine
 10
1.618936
 20
1.633818
 30
0.0
 11
1.624144
 21
1.625252
 31
0.0
  0
LINE
  5
338
100
AcDbEntity
  8
IGES_LEVEL_0
 62
     7
100
AcDbLine
 10
1.483025
 20
1.931762
 30
0.0
 11
1.505195
 21
1.899826
 31
0.0
  0
LINE
  5
339
100
AcDbEntity
  8
IGES_LEVEL_0
 62
     7
100
AcDbLine
 10
1.548317
 20
1.837838
 30
0.0
 11
1.555959
 21
1.826895
 31
0.0
  0
LINE
  5
33A
100
AcDbEntity
  8
IGES_LEVEL_0
 62
     7
100
AcDbLine
 10
1.540805
 20
1.848611
 30
0.0
 11
1.548317
 21
1.837838
 31
0.0
  0
LINE
  5
33B
100
AcDbEntity
  8
IGES_LEVEL_0
 62
     7
100
AcDbLine
 10
1.533425
 20
1.859209
 30
0.0
 11
1.540805
 21
1.848611
 31
0.0
  0
LINE
  5
33C
100
AcDbEntity
  8
IGES_LEVEL_0
 62
     7
100
AcDbLine
 10
1.526182
 20
1.86962
 30
0.0
 11
1.533425
 21
1.859209
 31
0.0
  0
LINE
  5
33D
100
AcDbEntity
  8
IGES_LEVEL_0
 62
     7
100
AcDbLine
 10
1.519071
 20
1.879849
 30
0.0
 11
1.526182
 21
1.86962
 31
0.0
  0
LINE
  5
33E
100
AcDbEntity
  8
IGES_LEVEL_0
 62
     7
100
AcDbLine
 10
1.512078
 20
1.889915
 30
0.0
 11
1.519071
 21
1.879849
 31
0.0
  0
LINE
  5
33F
100
AcDbEntity
  8
IGES_LEVEL_0
 62
     7
100
AcDbLine
 10
1.505195
 20
1.899826
 30
0.0
 11
1.512078
 21
1.889915
 31
0.0
  0
LINE
  5
340
100
AcDbEntity
  8
IGES_LEVEL_0
 62
     7
100
AcDbLine
 10
1.468854
 20
1.952165
 30
0.0
 11
1.478438
 21
1.938367
 31
0.0
  0
LINE
  5
341
100
AcDbEntity
  8
IGES_LEVEL_0
 62
     7
100
AcDbLine
 10
1.436434
 20
1.998729
 30
0.0
 11
1.442222
 21
1.990436
 31
0.0
  0
LINE
  5
342
100
AcDbEntity
  8
IGES_LEVEL_0
 62
     7
100
AcDbLine
 10
1.43049
 20
2.007233
 30
0.0
 11
1.436434
 21
1.998729
 31
0.0
  0
LINE
  5
343
100
AcDbEntity
  8
IGES_LEVEL_0
 62
     7
100
AcDbLine
 10
1.427671
 20
2.012105
 30
0.0
 11
1.552667
 21
1.83376
 31
0.0
  0
LINE
  5
344
100
AcDbEntity
  8
IGES_LEVEL_0
 62
     7
100
AcDbLine
 10
1.476007
 20
1.950875
 30
0.0
 11
1.49091
 21
1.92962
 31
0.0
  0
LINE
  5
345
100
AcDbEntity
  8
IGES_LEVEL_0
 62
     7
100
AcDbLine
 10
1.465257
 20
1.966202
 30
0.0
 11
1.476007
 21
1.950875
 31
0.0
  0
LINE
  5
346
100
AcDbEntity
  8
IGES_LEVEL_0
 62
     7
100
AcDbLine
 10
1.55154
 20
1.843535
 30
0.0
 11
1.558484
 21
1.833759
 31
0.0
  0
LINE
  5
347
100
AcDbEntity
  8
IGES_LEVEL_0
 62
     7
100
AcDbLine
 10
1.544711
 20
1.853163
 30
0.0
 11
1.55154
 21
1.843535
 31
0.0
  0
LINE
  5
348
100
AcDbEntity
  8
IGES_LEVEL_0
 62
     7
100
AcDbLine
 10
1.538001
 20
1.862643
 30
0.0
 11
1.544711
 21
1.853163
 31
0.0
  0
LINE
  5
349
100
AcDbEntity
  8
IGES_LEVEL_0
 62
     7
100
AcDbLine
 10
1.531418
 20
1.871968
 30
0.0
 11
1.538001
 21
1.862643
 31
0.0
  0
LINE
  5
34A
100
AcDbEntity
  8
IGES_LEVEL_0
 62
     7
100
AcDbLine
 10
1.524955
 20
1.881144
 30
0.0
 11
1.531418
 21
1.871968
 31
0.0
  0
LINE
  5
34B
100
AcDbEntity
  8
IGES_LEVEL_0
 62
     7
100
AcDbLine
 10
1.518593
 20
1.890187
 30
0.0
 11
1.524955
 21
1.881144
 31
0.0
  0
LINE
  5
34C
100
AcDbEntity
  8
IGES_LEVEL_0
 62
     7
100
AcDbLine
 10
1.512324
 20
1.899101
 30
0.0
 11
1.518593
 21
1.890187
 31
0.0
  0
LINE
  5
34D
100
AcDbEntity
  8
IGES_LEVEL_0
 62
     7
100
AcDbLine
 10
1.506157
 20
1.907883
 30
0.0
 11
1.512324
 21
1.899101
 31
0.0
  0
LINE
  5
34E
100
AcDbEntity
  8
IGES_LEVEL_0
 62
     7
100
AcDbLine
 10
1.500092
 20
1.916531
 30
0.0
 11
1.506157
 21
1.907883
 31
0.0
  0
LINE
  5
34F
100
AcDbEntity
  8
IGES_LEVEL_0
 62
     7
100
AcDbLine
 10
1.49091
 20
1.92962
 30
0.0
 11
1.500092
 21
1.916531
 31
0.0
  0
LINE
  5
350
100
AcDbEntity
  8
IGES_LEVEL_0
 62
     7
100
AcDbLine
 10
1.453818
 20
1.982492
 30
0.0
 11
1.459623
 21
1.974228
 31
0.0
  0
LINE
  5
351
100
AcDbEntity
  8
IGES_LEVEL_0
 62
     7
100
AcDbLine
 10
1.447839
 20
1.990994
 30
0.0
 11
1.453818
 21
1.982492
 31
0.0
  0
LINE
  5
352
100
AcDbEntity
  8
IGES_LEVEL_0
 62
     7
100
AcDbLine
 10
1.441684
 20
1.999734
 30
0.0
 11
1.447839
 21
1.990994
 31
0.0
  0
LINE
  5
353
100
AcDbEntity
  8
IGES_LEVEL_0
 62
     7
100
AcDbLine
 10
1.435351
 20
2.008711
 30
0.0
 11
1.441684
 21
1.999734
 31
0.0
  0
LINE
  5
354
100
AcDbEntity
  8
IGES_LEVEL_0
 62
     7
100
AcDbLine
 10
1.544455
 20
1.806871
 30
0.0
 11
1.535151
 21
1.820095
 31
0.0
  0
LINE
  5
355
100
AcDbEntity
  8
IGES_LEVEL_0
 62
     7
100
AcDbLine
 10
1.553447
 20
1.794203
 30
0.0
 11
1.544455
 21
1.806871
 31
0.0
  0
LINE
  5
356
100
AcDbEntity
  8
IGES_LEVEL_0
 62
     7
100
AcDbLine
 10
1.562111
 20
1.782083
 30
0.0
 11
1.553447
 21
1.794203
 31
0.0
  0
LINE
  5
357
100
AcDbEntity
  8
IGES_LEVEL_0
 62
     7
100
AcDbLine
 10
1.570323
 20
1.770652
 30
0.0
 11
1.562111
 21
1.782083
 31
0.0
  0
LINE
  5
358
100
AcDbEntity
  8
IGES_LEVEL_0
 62
     7
100
AcDbLine
 10
1.578194
 20
1.75972
 30
0.0
 11
1.570323
 21
1.770652
 31
0.0
  0
LINE
  5
359
100
AcDbEntity
  8
IGES_LEVEL_0
 62
     7
100
AcDbLine
 10
1.585986
 20
1.748902
 30
0.0
 11
1.578194
 21
1.75972
 31
0.0
  0
LINE
  5
35A
100
AcDbEntity
  8
IGES_LEVEL_0
 62
     7
100
AcDbLine
 10
1.593634
 20
1.738325
 30
0.0
 11
1.585986
 21
1.748902
 31
0.0
  0
LINE
  5
35B
100
AcDbEntity
  8
IGES_LEVEL_0
 62
     7
100
AcDbLine
 10
1.600833
 20
1.728469
 30
0.0
 11
1.593634
 21
1.738325
 31
0.0
  0
LINE
  5
35C
100
AcDbEntity
  8
IGES_LEVEL_0
 62
     7
100
AcDbLine
 10
1.607352
 20
1.719728
 30
0.0
 11
1.600833
 21
1.728469
 31
0.0
  0
LINE
  5
35D
100
AcDbEntity
  8
IGES_LEVEL_0
 62
     7
100
AcDbLine
 10
1.02962
 20
2.112871
 30
0.0
 11
1.287048
 21
2.085538
 31
0.0
  0
LINE
  5
35E
100
AcDbEntity
  8
IGES_LEVEL_0
 62
     7
100
AcDbLine
 10
1.047132
 20
2.106896
 30
0.0
 11
1.287048
 21
2.08312
 31
0.0
  0
LINE
  5
35F
100
AcDbEntity
  8
IGES_LEVEL_0
 62
     7
100
AcDbLine
 10
1.575025
 20
2.015347
 30
0.0
 11
1.427671
 21
2.012105
 31
0.0
  0
LINE
  5
360
100
AcDbEntity
  8
IGES_LEVEL_0
 62
     7
100
AcDbLine
 10
1.726346
 20
2.01698
 30
0.0
 11
1.575025
 21
2.015347
 31
0.0
  0
LINE
  5
361
100
AcDbEntity
  8
IGES_LEVEL_0
 62
     7
100
AcDbLine
 10
1.878997
 20
2.016977
 30
0.0
 11
1.726346
 21
2.01698
 31
0.0
  0
LINE
  5
362
100
AcDbEntity
  8
IGES_LEVEL_0
 62
     7
100
AcDbLine
 10
2.030318
 20
2.015337
 30
0.0
 11
1.878997
 21
2.016977
 31
0.0
  0
LINE
  5
363
100
AcDbEntity
  8
IGES_LEVEL_0
 62
     7
100
AcDbLine
 10
2.177671
 20
2.012089
 30
0.0
 11
2.030318
 21
2.015337
 31
0.0
  0
LINE
  5
364
100
AcDbEntity
  8
IGES_LEVEL_0
 62
     7
100
AcDbLine
 10
1.427672
 20
2.046535
 30
0.0
 11
1.287047
 21
2.046538
 31
0.0
  0
LINE
  5
365
100
AcDbEntity
  8
IGES_LEVEL_0
 62
     7
100
AcDbLine
 10
1.380797
 20
2.045237
 30
0.0
 11
1.396422
 21
2.045236
 31
0.0
  0
LINE
  5
366
100
AcDbEntity
  8
IGES_LEVEL_0
 62
     7
100
AcDbLine
 10
2.224547
 20
2.045219
 30
0.0
 11
2.208922
 21
2.04522
 31
0.0
  0
LINE
  5
367
100
AcDbEntity
  8
IGES_LEVEL_0
 62
     7
100
AcDbLine
 10
2.247984
 20
2.045116
 30
0.0
 11
2.822205
 21
2.045104
 31
0.0
  0
LINE
  5
368
100
AcDbEntity
  8
IGES_LEVEL_0
 62
     7
100
AcDbLine
 10
0.987257
 20
2.045142
 30
0.0
 11
0.782987
 21
2.045146
 31
0.0
  0
LINE
  5
369
100
AcDbEntity
  8
IGES_LEVEL_0
 62
     7
100
AcDbLine
 10
1.357359
 20
2.045134
 30
0.0
 11
1.273838
 21
2.045136
 31
0.0
  0
LINE
  5
36A
100
AcDbEntity
  8
IGES_LEVEL_0
 62
     7
100
AcDbLine
 10
2.852671
 20
2.018268
 30
0.0
 11
2.915171
 21
2.018266
 31
0.0
  0
LINE
  5
36B
100
AcDbEntity
  8
IGES_LEVEL_0
 62
     7
100
AcDbLine
 10
0.752671
 20
2.018311
 30
0.0
 11
0.708921
 21
2.018312
 31
0.0
  0
LINE
  5
36C
100
AcDbEntity
  8
IGES_LEVEL_0
 62
     7
100
AcDbLine
 10
2.224546
 20
2.017051
 30
0.0
 11
2.241734
 21
2.017051
 31
0.0
  0
LINE
  5
36D
100
AcDbEntity
  8
IGES_LEVEL_0
 62
     7
100
AcDbLine
 10
1.363609
 20
2.017069
 30
0.0
 11
1.380796
 21
2.017068
 31
0.0
  0
LINE
  5
36E
100
AcDbEntity
  8
IGES_LEVEL_0
 62
     7
100
AcDbLine
 10
0.646421
 20
2.007541
 30
0.0
 11
0.690171
 21
2.00754
 31
0.0
  0
LINE
  5
36F
100
AcDbEntity
  8
IGES_LEVEL_0
 62
     7
100
AcDbLine
 10
2.958921
 20
2.007493
 30
0.0
 11
2.915171
 21
2.007494
 31
0.0
  0
LINE
  5
370
100
AcDbEntity
  8
IGES_LEVEL_0
 62
     7
100
AcDbLine
 10
2.852671
 20
1.999355
 30
0.0
 11
2.915171
 21
1.999353
 31
0.0
  0
LINE
  5
371
100
AcDbEntity
  8
IGES_LEVEL_0
 62
     7
100
AcDbLine
 10
0.752671
 20
1.999398
 30
0.0
 11
0.708921
 21
1.999399
 31
0.0
  0
LINE
  5
372
100
AcDbEntity
  8
IGES_LEVEL_0
 62
     7
100
AcDbLine
 10
2.177671
 20
1.996739
 30
0.0
 11
2.208921
 21
1.996739
 31
0.0
  0
LINE
  5
373
100
AcDbEntity
  8
IGES_LEVEL_0
 62
     7
100
AcDbLine
 10
1.427671
 20
1.996755
 30
0.0
 11
1.396421
 21
1.996755
 31
0.0
  0
LINE
  5
374
100
AcDbEntity
  8
IGES_LEVEL_0
 62
     7
100
AcDbLine
 10
2.821421
 20
1.987978
 30
0.0
 11
2.915171
 21
1.987976
 31
0.0
  0
LINE
  5
375
100
AcDbEntity
  8
IGES_LEVEL_0
 62
     7
100
AcDbLine
 10
0.783921
 20
1.98802
 30
0.0
 11
0.708921
 21
1.988022
 31
0.0
  0
LINE
  5
376
100
AcDbEntity
  8
IGES_LEVEL_0
 62
     7
100
AcDbLine
 10
1.380795
 20
1.970193
 30
0.0
 11
1.39642
 21
1.970193
 31
0.0
  0
LINE
  5
377
100
AcDbEntity
  8
IGES_LEVEL_0
 62
     7
100
AcDbLine
 10
2.224545
 20
1.970176
 30
0.0
 11
2.20892
 21
1.970176
 31
0.0
  0
LINE
  5
378
100
AcDbEntity
  8
IGES_LEVEL_0
 62
     7
100
AcDbLine
 10
2.93392
 20
1.947907
 30
0.0
 11
2.95892
 21
1.947907
 31
0.0
  0
LINE
  5
379
100
AcDbEntity
  8
IGES_LEVEL_0
 62
     7
100
AcDbLine
 10
0.67142
 20
1.947954
 30
0.0
 11
0.64642
 21
1.947954
 31
0.0
  0
LINE
  5
37A
100
AcDbEntity
  8
IGES_LEVEL_0
 62
     7
100
AcDbLine
 10
1.456982
 20
1.93107
 30
0.0
 11
1.440169
 21
1.93107
 31
0.0
  0
LINE
  5
37B
100
AcDbEntity
  8
IGES_LEVEL_0
 62
     7
100
AcDbLine
 10
2.165169
 20
1.931055
 30
0.0
 11
2.148357
 21
1.931055
 31
0.0
  0
LINE
  5
37C
100
AcDbEntity
  8
IGES_LEVEL_0
 62
     7
100
AcDbLine
 10
2.165169
 20
1.926368
 30
0.0
 11
2.822204
 21
1.926354
 31
0.0
  0
LINE
  5
37D
100
AcDbEntity
  8
IGES_LEVEL_0
 62
     7
100
AcDbLine
 10
1.440169
 20
1.926383
 30
0.0
 11
0.782984
 21
1.926396
 31
0.0
  0
LINE
  5
37E
100
AcDbEntity
  8
IGES_LEVEL_0
 62
     7
100
AcDbLine
 10
2.933919
 20
1.923286
 30
0.0
 11
2.958919
 21
1.923285
 31
0.0
  0
LINE
  5
37F
100
AcDbEntity
  8
IGES_LEVEL_0
 62
     7
100
AcDbLine
 10
0.671419
 20
1.923332
 30
0.0
 11
0.646419
 21
1.923333
 31
0.0
  0
LINE
  5
380
100
AcDbEntity
  8
IGES_LEVEL_0
 62
     7
100
AcDbLine
 10
2.136011
 20
2.0096
 30
0.0
 11
2.169992
 21
2.008696
 31
0.0
  0
LINE
  5
381
100
AcDbEntity
  8
IGES_LEVEL_0
 62
     7
100
AcDbLine
 10
2.100199
 20
2.010448
 30
0.0
 11
2.136011
 21
2.0096
 31
0.0
  0
LINE
  5
382
100
AcDbEntity
  8
IGES_LEVEL_0
 62
     7
100
AcDbLine
 10
2.062557
 20
2.011228
 30
0.0
 11
2.100199
 21
2.010448
 31
0.0
  0
LINE
  5
383
100
AcDbEntity
  8
IGES_LEVEL_0
 62
     7
100
AcDbLine
 10
2.022945
 20
2.011931
 30
0.0
 11
2.062557
 21
2.011228
 31
0.0
  0
LINE
  5
384
100
AcDbEntity
  8
IGES_LEVEL_0
 62
     7
100
AcDbLine
 10
1.981523
 20
2.01254
 30
0.0
 11
2.022945
 21
2.011931
 31
0.0
  0
LINE
  5
385
100
AcDbEntity
  8
IGES_LEVEL_0
 62
     7
100
AcDbLine
 10
1.938757
 20
2.013038
 30
0.0
 11
1.981523
 21
2.01254
 31
0.0
  0
LINE
  5
386
100
AcDbEntity
  8
IGES_LEVEL_0
 62
     7
100
AcDbLine
 10
1.894472
 20
2.013413
 30
0.0
 11
1.938757
 21
2.013038
 31
0.0
  0
LINE
  5
387
100
AcDbEntity
  8
IGES_LEVEL_0
 62
     7
100
AcDbLine
 10
1.848936
 20
2.013649
 30
0.0
 11
1.894472
 21
2.013413
 31
0.0
  0
LINE
  5
388
100
AcDbEntity
  8
IGES_LEVEL_0
 62
     7
100
AcDbLine
 10
1.803305
 20
2.013731
 30
0.0
 11
1.848936
 21
2.013649
 31
0.0
  0
LINE
  5
389
100
AcDbEntity
  8
IGES_LEVEL_0
 62
     7
100
AcDbLine
 10
1.757648
 20
2.013655
 30
0.0
 11
1.803305
 21
2.013731
 31
0.0
  0
LINE
  5
38A
100
AcDbEntity
  8
IGES_LEVEL_0
 62
     7
100
AcDbLine
 10
1.712041
 20
2.013425
 30
0.0
 11
1.757648
 21
2.013655
 31
0.0
  0
LINE
  5
38B
100
AcDbEntity
  8
IGES_LEVEL_0
 62
     7
100
AcDbLine
 10
1.667642
 20
2.013054
 30
0.0
 11
1.712041
 21
2.013425
 31
0.0
  0
LINE
  5
38C
100
AcDbEntity
  8
IGES_LEVEL_0
 62
     7
100
AcDbLine
 10
1.624702
 20
2.012559
 30
0.0
 11
1.667642
 21
2.013054
 31
0.0
  0
LINE
  5
38D
100
AcDbEntity
  8
IGES_LEVEL_0
 62
     7
100
AcDbLine
 10
1.583067
 20
2.011951
 30
0.0
 11
1.624702
 21
2.012559
 31
0.0
  0
LINE
  5
38E
100
AcDbEntity
  8
IGES_LEVEL_0
 62
     7
100
AcDbLine
 10
1.543255
 20
2.011248
 30
0.0
 11
1.583067
 21
2.011951
 31
0.0
  0
LINE
  5
38F
100
AcDbEntity
  8
IGES_LEVEL_0
 62
     7
100
AcDbLine
 10
1.505442
 20
2.010467
 30
0.0
 11
1.543255
 21
2.011248
 31
0.0
  0
LINE
  5
390
100
AcDbEntity
  8
IGES_LEVEL_0
 62
     7
100
AcDbLine
 10
1.469474
 20
2.009618
 30
0.0
 11
1.505442
 21
2.010467
 31
0.0
  0
LINE
  5
391
100
AcDbEntity
  8
IGES_LEVEL_0
 62
     7
100
AcDbLine
 10
1.435351
 20
2.008711
 30
0.0
 11
1.469474
 21
2.009618
 31
0.0
  0
LINE
  5
392
100
AcDbEntity
  8
IGES_LEVEL_0
 62
     7
100
AcDbLine
 10
2.135147
 20
2.02071
 30
0.0
 11
2.169132
 21
2.019781
 31
0.0
  0
LINE
  5
393
100
AcDbEntity
  8
IGES_LEVEL_0
 62
     7
100
AcDbLine
 10
2.099356
 20
2.021579
 30
0.0
 11
2.135147
 21
2.02071
 31
0.0
  0
LINE
  5
394
100
AcDbEntity
  8
IGES_LEVEL_0
 62
     7
100
AcDbLine
 10
2.061761
 20
2.022375
 30
0.0
 11
2.099356
 21
2.021579
 31
0.0
  0
LINE
  5
395
100
AcDbEntity
  8
IGES_LEVEL_0
 62
     7
100
AcDbLine
 10
2.022227
 20
2.023092
 30
0.0
 11
2.061761
 21
2.022375
 31
0.0
  0
LINE
  5
396
100
AcDbEntity
  8
IGES_LEVEL_0
 62
     7
100
AcDbLine
 10
1.980911
 20
2.023713
 30
0.0
 11
2.022227
 21
2.023092
 31
0.0
  0
LINE
  5
397
100
AcDbEntity
  8
IGES_LEVEL_0
 62
     7
100
AcDbLine
 10
1.938269
 20
2.024218
 30
0.0
 11
1.980911
 21
2.023713
 31
0.0
  0
LINE
  5
398
100
AcDbEntity
  8
IGES_LEVEL_0
 62
     7
100
AcDbLine
 10
1.894133
 20
2.024598
 30
0.0
 11
1.938269
 21
2.024218
 31
0.0
  0
LINE
  5
399
100
AcDbEntity
  8
IGES_LEVEL_0
 62
     7
100
AcDbLine
 10
1.848765
 20
2.024838
 30
0.0
 11
1.894133
 21
2.024598
 31
0.0
  0
LINE
  5
39A
100
AcDbEntity
  8
IGES_LEVEL_0
 62
     7
100
AcDbLine
 10
1.803302
 20
2.024921
 30
0.0
 11
1.848765
 21
2.024838
 31
0.0
  0
LINE
  5
39B
100
AcDbEntity
  8
IGES_LEVEL_0
 62
     7
100
AcDbLine
 10
1.757814
 20
2.024844
 30
0.0
 11
1.803302
 21
2.024921
 31
0.0
  0
LINE
  5
39C
100
AcDbEntity
  8
IGES_LEVEL_0
 62
     7
100
AcDbLine
 10
1.712376
 20
2.02461
 30
0.0
 11
1.757814
 21
2.024844
 31
0.0
  0
LINE
  5
39D
100
AcDbEntity
  8
IGES_LEVEL_0
 62
     7
100
AcDbLine
 10
1.668126
 20
2.024234
 30
0.0
 11
1.712376
 21
2.02461
 31
0.0
  0
LINE
  5
39E
100
AcDbEntity
  8
IGES_LEVEL_0
 62
     7
100
AcDbLine
 10
1.625313
 20
2.023732
 30
0.0
 11
1.668126
 21
2.024234
 31
0.0
  0
LINE
  5
39F
100
AcDbEntity
  8
IGES_LEVEL_0
 62
     7
100
AcDbLine
 10
1.583785
 20
2.023112
 30
0.0
 11
1.625313
 21
2.023732
 31
0.0
  0
LINE
  5
3A0
100
AcDbEntity
  8
IGES_LEVEL_0
 62
     7
100
AcDbLine
 10
1.544052
 20
2.022395
 30
0.0
 11
1.583785
 21
2.023112
 31
0.0
  0
LINE
  5
3A1
100
AcDbEntity
  8
IGES_LEVEL_0
 62
     7
100
AcDbLine
 10
1.506288
 20
2.021598
 30
0.0
 11
1.544052
 21
2.022395
 31
0.0
  0
LINE
  5
3A2
100
AcDbEntity
  8
IGES_LEVEL_0
 62
     7
100
AcDbLine
 10
1.47034
 20
2.020728
 30
0.0
 11
1.506288
 21
2.021598
 31
0.0
  0
LINE
  5
3A3
100
AcDbEntity
  8
IGES_LEVEL_0
 62
     7
100
AcDbLine
 10
1.436211
 20
2.019796
 30
0.0
 11
1.47034
 21
2.020728
 31
0.0
  0
LINE
  5
3A4
100
AcDbEntity
  8
IGES_LEVEL_0
 62
     7
100
AcDbLine
 10
1.052674
 20
2.220447
 30
0.0
 11
1.052673
 21
2.189091
 31
0.0
  0
LINE
  5
3A5
100
AcDbEntity
  8
IGES_LEVEL_0
 62
     7
100
AcDbLine
 10
1.029172
 20
2.02342
 30
0.0
 11
1.029173
 21
2.108678
 31
0.0
  0
LINE
  5
3A6
100
AcDbEntity
  8
IGES_LEVEL_0
 62
     7
100
AcDbLine
 10
1.653246
 20
1.615181
 30
0.0
 11
1.605706
 21
1.666476
 31
0.0
  0
LINE
  5
3A7
100
AcDbEntity
  8
IGES_LEVEL_0
 62
     7
100
AcDbLine
 10
1.856102
 20
1.752558
 30
0.0
 11
1.866249
 21
1.751301
 31
0.0
  0
LINE
  5
3A8
100
AcDbEntity
  8
IGES_LEVEL_0
 62
     7
100
AcDbLine
 10
1.845532
 20
1.753588
 30
0.0
 11
1.856102
 21
1.752558
 31
0.0
  0
LINE
  5
3A9
100
AcDbEntity
  8
IGES_LEVEL_0
 62
     7
100
AcDbLine
 10
1.834392
 20
1.754399
 30
0.0
 11
1.845532
 21
1.753588
 31
0.0
  0
LINE
  5
3AA
100
AcDbEntity
  8
IGES_LEVEL_0
 62
     7
100
AcDbLine
 10
1.822661
 20
1.754968
 30
0.0
 11
1.834392
 21
1.754399
 31
0.0
  0
LINE
  5
3AB
100
AcDbEntity
  8
IGES_LEVEL_0
 62
     7
100
AcDbLine
 10
1.810458
 20
1.755271
 30
0.0
 11
1.822661
 21
1.754968
 31
0.0
  0
LINE
  5
3AC
100
AcDbEntity
  8
IGES_LEVEL_0
 62
     7
100
AcDbLine
 10
2.046851
 20
1.833749
 30
0.0
 11
1.558484
 21
1.83376
 31
0.0
  0
LINE
  5
3AD
100
AcDbEntity
  8
IGES_LEVEL_0
 62
     7
100
AcDbLine
 10
2.0198
 20
1.827137
 30
0.0
 11
1.585534
 21
1.827146
 31
0.0
  0
LINE
  5
3AE
100
AcDbEntity
  8
IGES_LEVEL_0
 62
     7
100
AcDbLine
 10
2.0198
 20
1.816257
 30
0.0
 11
1.585534
 21
1.816266
 31
0.0
  0
LINE
  5
3AF
100
AcDbEntity
  8
IGES_LEVEL_0
 62
     7
100
AcDbLine
 10
1.780669
 20
1.801799
 30
0.0
 11
1.77037
 21
1.80132
 31
0.0
  0
LINE
  5
3B0
100
AcDbEntity
  8
IGES_LEVEL_0
 62
     7
100
AcDbLine
 10
1.791435
 20
1.802104
 30
0.0
 11
1.780669
 21
1.801799
 31
0.0
  0
LINE
  5
3B1
100
AcDbEntity
  8
IGES_LEVEL_0
 62
     7
100
AcDbLine
 10
1.802667
 20
1.802235
 30
0.0
 11
1.791435
 21
1.802104
 31
0.0
  0
LINE
  5
3B2
100
AcDbEntity
  8
IGES_LEVEL_0
 62
     7
100
AcDbLine
 10
0.783921
 20
1.98802
 30
0.0
 11
0.78392
 21
1.942831
 31
0.0
  0
LINE
  5
3B3
100
AcDbEntity
  8
IGES_LEVEL_0
 62
     7
100
AcDbLine
 10
0.752671
 20
2.018311
 30
0.0
 11
0.752671
 21
1.999398
 31
0.0
  0
LINE
  5
3B4
100
AcDbEntity
  8
IGES_LEVEL_0
 62
     7
100
AcDbLine
 10
0.740174
 20
2.234829
 30
0.0
 11
0.740173
 21
2.189097
 31
0.0
  0
LINE
  5
3B5
100
AcDbEntity
  8
IGES_LEVEL_0
 62
     7
100
AcDbLine
 10
0.708921
 20
1.988022
 30
0.0
 11
0.708921
 21
1.999399
 31
0.0
  0
LINE
  5
3B6
100
AcDbEntity
  8
IGES_LEVEL_0
 62
     7
100
AcDbLine
 10
0.690171
 20
1.991383
 30
0.0
 11
0.690171
 21
2.014608
 31
0.0
  0
LINE
  5
3B7
100
AcDbEntity
  8
IGES_LEVEL_0
 62
     7
100
AcDbLine
 10
0.67142
 20
1.947954
 30
0.0
 11
0.671419
 21
1.923332
 31
0.0
  0
LINE
  5
3B8
100
AcDbEntity
  8
IGES_LEVEL_0
 62
     7
100
AcDbLine
 10
0.64642
 20
1.947954
 30
0.0
 11
0.646419
 21
1.923333
 31
0.0
  0
LINE
  5
3B9
100
AcDbEntity
  8
IGES_LEVEL_0
 62
     7
100
AcDbLine
 10
0.5683
 20
2.251654
 30
0.0
 11
0.5683
 21
2.163636
 31
0.0
  0
LINE
  5
3BA
100
AcDbEntity
  8
IGES_LEVEL_0
 62
     7
100
AcDbLine
 10
0.5683
 20
2.252236
 30
0.0
 11
0.568306
 21
2.532908
 31
0.0
  0
LINE
  5
3BB
100
AcDbEntity
  8
IGES_LEVEL_0
 62
     7
100
AcDbLine
 10
0.533921
 20
1.988042
 30
0.0
 11
0.53392
 21
1.942836
 31
0.0
  0
LINE
  5
3BC
100
AcDbEntity
  8
IGES_LEVEL_0
 62
     7
100
AcDbLine
 10
0.5058
 20
3.621166
 30
0.0
 11
0.5058
 21
3.543042
 31
0.0
  0
LINE
  5
3BD
100
AcDbEntity
  8
IGES_LEVEL_0
 62
     7
100
AcDbLine
 10
0.5058
 20
2.277714
 30
0.0
 11
0.5058
 21
2.355839
 31
0.0
  0
LINE
  5
3BE
100
AcDbEntity
  8
IGES_LEVEL_0
 62
     7
100
AcDbLine
 10
1.755274
 20
0.323846
 30
0.0
 11
1.844413
 21
0.323846
 31
0.0
  0
LINE
  5
3BF
100
AcDbEntity
  8
IGES_LEVEL_0
 62
     7
100
AcDbLine
 10
1.850625
 20
0.313601
 30
0.0
 11
1.893593
 21
0.313601
 31
0.0
  0
LINE
  5
3C0
100
AcDbEntity
  8
IGES_LEVEL_0
 62
     7
100
AcDbLine
 10
1.706093
 20
0.313601
 30
0.0
 11
1.749062
 21
0.313601
 31
0.0
  0
LINE
  5
3C1
100
AcDbEntity
  8
IGES_LEVEL_0
 62
     7
100
AcDbLine
 10
1.844765
 20
0.313601
 30
0.0
 11
1.754921
 21
0.313601
 31
0.0
  0
LINE
  5
3C2
100
AcDbEntity
  8
IGES_LEVEL_0
 62
     7
100
AcDbLine
 10
1.754921
 20
0.102664
 30
0.0
 11
1.844765
 21
0.102664
 31
0.0
  0
LINE
  5
3C3
100
AcDbEntity
  8
IGES_LEVEL_0
 62
     7
100
AcDbLine
 10
1.850625
 20
0.001101
 30
0.0
 11
1.893593
 21
0.001101
 31
0.0
  0
LINE
  5
3C4
100
AcDbEntity
  8
IGES_LEVEL_0
 62
     7
100
AcDbLine
 10
1.706093
 20
0.001101
 30
0.0
 11
1.749062
 21
0.001101
 31
0.0
  0
LINE
  5
3C5
100
AcDbEntity
  8
DEFAULT
100
AcDbLine
 10
8.613651
 20
0.330612
 30
0.0
 11
8.61597
 21
0.371839
 31
0.0
  0
LINE
  5
3C6
100
AcDbEntity
  8
DEFAULT
100
AcDbLine
 10
8.51388
 20
0.330612
 30
0.0
 11
8.613651
 21
0.330612
 31
0.0
  0
LINE
  5
3C7
100
AcDbEntity
  8
DEFAULT
100
AcDbLine
 10
8.509454
 20
0.383062
 30
0.0
 11
8.51388
 21
0.330612
 31
0.0
  0
ARC
  5
3C8
100
AcDbEntity
  8
DEFAULT
100
AcDbCircle
 10
6.291168
 20
-20.177588
 30
0.0
 40
20.680576
210
0.0
220
0.0
230
1.0
100
AcDbArc
 50
83.518227
 51
86.735775
  0
LINE
  5
3C9
100
AcDbEntity
  8
DEFAULT
100
AcDbLine
 10
8.623254
 20
0.498403
 30
0.0
 11
8.625739
 21
0.370794
 31
0.0
  0
ARC
  5
3CA
100
AcDbEntity
  8
DEFAULT
100
AcDbCircle
 10
6.467555
 20
-8.960653
 30
0.0
 40
9.701586
210
0.0
220
0.0
230
1.0
100
AcDbArc
 50
77.161682
 51
87.513637
  0
LINE
  5
3CB
100
AcDbEntity
  8
DEFAULT
100
AcDbLine
 10
6.851625
 20
0.706416
 30
0.0
 11
6.84592
 21
0.487044
 31
0.0
  0
LINE
  5
3CC
100
AcDbEntity
  8
DEFAULT
100
AcDbLine
 10
7.457698
 20
0.33082
 30
0.0
 11
7.459449
 21
0.371081
 31
0.0
  0
LINE
  5
3CD
100
AcDbEntity
  8
DEFAULT
100
AcDbLine
 10
7.355786
 20
0.33082
 30
0.0
 11
7.457698
 21
0.33082
 31
0.0
  0
LINE
  5
3CE
100
AcDbEntity
  8
DEFAULT
100
AcDbLine
 10
7.353849
 20
0.376039
 30
0.0
 11
7.355786
 21
0.33082
 31
0.0
  0
SPLINE
  5
3CF
100
AcDbEntity
  8
DEFAULT
100
AcDbSpline
210
0.0
220
0.0
230
1.0
 70
     0
 71
     3
 72
    20
 73
    16
 74
     0
 42
0.000001
 43
0.000001
 40
0.6848070229960438
 40
0.6848070229960438
 40
0.6848070229960438
 40
0.6848070229960438
 40
0.7424075866219382
 40
0.7424075866219382
 40
0.7878667427612152
 40
0.7878667427612152
 40
0.8366612553322727
 40
0.8366612553322727
 40
1.0711442768462311
 40
1.0711442768462311
 40
1.3114827138755754
 40
1.3114827138755754
 40
1.5536468699651449
 40
1.5536468699651449
 40
2.5212691967344822
 40
2.5212691967344822
 40
2.5212691967344822
 40
2.5212691967344822
 10
7.4731169752821547
 20
0.3730094275318527
 30
0.0
 10
7.4534173495766911
 20
0.3685317848575783
 30
0.0
 10
7.4339950766273519
 20
0.3696262481102915
 30
0.0
 10
7.3987058432471642
 20
0.3699770314843168
 30
0.0
 10
7.3832721087175921
 20
0.3706073424998704
 30
0.0
 10
7.351239307015641
 20
0.3753832589796151
 30
0.0
 10
7.2583865438816089
 20
0.4066714103596872
 30
0.0
 10
7.1667310137033242
 20
0.4327377554385513
 30
0.0
 10
7.0909460497536747
 20
0.4525396364322599
 30
0.0
 10
6.9322078646144716
 20
0.4753335753365665
 30
0.0
 10
6.8526114589118396
 20
0.4860254894015592
 30
0.0
 10
6.6882830433088403
 20
0.4806568229526032
 30
0.0
 10
6.6059459389760944
 20
0.4757650570432184
 30
0.0
 10
6.1945000099649778
 20
0.4517617418228293
 30
0.0
 10
5.8673566685912153
 20
0.4231685031096724
 30
0.0
 10
5.5411442210916961
 20
0.3732423438295914
 30
0.0
  0
LINE
  5
3D0
100
AcDbEntity
  8
DEFAULT
100
AcDbLine
 10
7.467758
 20
0.490918
 30
0.0
 11
7.473117
 21
0.373009
 31
0.0
  0
ARC
  5
3D1
100
AcDbEntity
  8
DEFAULT
100
AcDbCircle
 10
6.740129
 20
-0.356435
 30
0.0
 40
1.116893
210
0.0
220
0.0
230
1.0
100
AcDbArc
 50
49.347077
 51
75.043696
  0
ARC
  5
3D2
100
AcDbEntity
  8
DEFAULT
100
AcDbCircle
 10
7.161264
 20
-5.396005
 30
0.0
 40
6.133892
210
0.0
220
0.0
230
1.0
100
AcDbArc
 50
92.549004
 51
106.045851
  0
LINE
  5
3D3
100
AcDbEntity
  8
DEFAULT
100
AcDbLine
 10
5.461541
 20
0.371502
 30
0.0
 11
5.465816
 21
0.498916
 31
0.0
  0
LINE
  5
3D4
100
AcDbEntity
  8
DEFAULT
100
AcDbLine
 10
5.541144
 20
0.373242
 30
0.0
 11
5.461541
 21
0.371502
 31
0.0
  0
LINE
  5
3D5
100
AcDbEntity
  8
DEFAULT
100
AcDbLine
 10
5.482122
 20
0.330844
 30
0.0
 11
5.480631
 21
0.370069
 31
0.0
  0
LINE
  5
3D6
100
AcDbEntity
  8
DEFAULT
100
AcDbLine
 10
5.582831
 20
0.330844
 30
0.0
 11
5.482122
 21
0.330844
 31
0.0
  0
LINE
  5
3D7
100
AcDbEntity
  8
DEFAULT
100
AcDbLine
 10
5.584293
 20
0.379676
 30
0.0
 11
5.582685
 21
0.331283
 31
0.0
  0
LINE
  5
3D8
100
AcDbEntity
  8
DEFAULT
100
AcDbLine
 10
6.737895
 20
0.482115
 30
0.0
 11
6.739489
 21
0.44237
 31
0.0
  0
LINE
  5
3D9
100
AcDbEntity
  8
DEFAULT
100
AcDbLine
 10
7.038728
 20
0.459813
 30
0.0
 11
7.037525
 21
0.44237
 31
0.0
  0
LINE
  5
3DA
100
AcDbEntity
  8
DEFAULT
100
AcDbLine
 10
7.037525
 20
0.44237
 30
0.0
 11
6.739489
 21
0.44237
 31
0.0
  0
LINE
  5
3DB
100
AcDbEntity
  8
IGES_LEVEL_0
 62
     7
100
AcDbLine
 10
5.649057
 20
5.026077
 30
0.0
 11
5.760074
 21
5.034713
 31
0.0
  0
LINE
  5
3DC
100
AcDbEntity
  8
IGES_LEVEL_0
 62
     7
100
AcDbLine
 10
5.871687
 20
3.662056
 30
0.0
 11
5.592818
 21
4.950545
 31
0.0
  0
LINE
  5
3DD
100
AcDbEntity
  8
IGES_LEVEL_0
 62
     7
100
AcDbLine
 10
6.127338
 20
3.791862
 30
0.0
 11
5.825857
 21
4.987654
 31
0.0
  0
LINE
  5
3DE
100
AcDbEntity
  8
IGES_LEVEL_0
 62
     7
100
AcDbLine
 10
3.03705
 20
5.034713
 30
0.0
 11
3.03705
 21
2.532858
 31
0.0
  0
LINE
  5
3DF
100
AcDbEntity
  8
IGES_LEVEL_0
 62
     7
100
AcDbLine
 10
0.5683
 20
5.034713
 30
0.0
 11
3.03705
 21
5.034713
 31
0.0
  0
LINE
  5
3E0
100
AcDbEntity
  8
IGES_LEVEL_0
 62
     7
100
AcDbLine
 10
0.5683
 20
2.532908
 30
0.0
 11
0.5683
 21
5.034713
 31
0.0
  0
LINE
  5
3E1
100
AcDbEntity
  8
IGES_LEVEL_0
 62
     7
100
AcDbLine
 10
5.917114
 20
3.564449
 30
0.0
 11
5.932369
 21
3.563939
 31
0.0
  0
LINE
  5
3E2
100
AcDbEntity
  8
IGES_LEVEL_0
 62
     7
100
AcDbLine
 10
5.867444
 20
3.592802
 30
0.0
 11
5.875175
 21
3.573482
 31
0.0
  0
LINE
  5
3E3
100
AcDbEntity
  8
IGES_LEVEL_0
 62
     7
100
AcDbLine
 10
5.875175
 20
3.573482
 30
0.0
 11
5.894314
 21
3.565312
 31
0.0
  0
LINE
  5
3E4
100
AcDbEntity
  8
IGES_LEVEL_0
 62
     7
100
AcDbLine
 10
5.867444
 20
3.615223
 30
0.0
 11
5.867444
 21
3.592802
 31
0.0
  0
ARC
  5
3E5
100
AcDbEntity
  8
IGES_LEVEL_0
 62
     7
100
AcDbCircle
 10
5.894944
 20
3.615223
 30
0.0
 40
0.0275
210
0.0
220
0.0
230
1.0
100
AcDbArc
 50
97.123216
 51
180.000013
  0
LINE
  5
3E6
100
AcDbEntity
  8
IGES_LEVEL_0
 62
     7
100
AcDbLine
 10
7.436194
 20
3.644708
 30
0.0
 11
5.926819
 21
3.644708
 31
0.0
  0
LINE
  5
3E7
100
AcDbEntity
  8
IGES_LEVEL_0
 62
     7
100
AcDbLine
 10
7.458022
 20
3.643767
 30
0.0
 11
7.440758
 21
3.644669
 31
0.0
  0
LINE
  5
3E8
100
AcDbEntity
  8
IGES_LEVEL_0
 62
     7
100
AcDbLine
 10
7.47489
 20
3.641649
 30
0.0
 11
7.458022
 21
3.643767
 31
0.0
  0
LINE
  5
3E9
100
AcDbEntity
  8
IGES_LEVEL_0
 62
     7
100
AcDbLine
 10
7.491445
 20
3.638303
 30
0.0
 11
7.47489
 21
3.641649
 31
0.0
  0
LINE
  5
3EA
100
AcDbEntity
  8
IGES_LEVEL_0
 62
     7
100
AcDbLine
 10
7.507682
 20
3.633807
 30
0.0
 11
7.491445
 21
3.638303
 31
0.0
  0
LINE
  5
3EB
100
AcDbEntity
  8
IGES_LEVEL_0
 62
     7
100
AcDbLine
 10
7.523442
 20
3.628274
 30
0.0
 11
7.507682
 21
3.633807
 31
0.0
  0
LINE
  5
3EC
100
AcDbEntity
  8
IGES_LEVEL_0
 62
     7
100
AcDbLine
 10
7.538727
 20
3.621693
 30
0.0
 11
7.523442
 21
3.628274
 31
0.0
  0
LINE
  5
3ED
100
AcDbEntity
  8
IGES_LEVEL_0
 62
     7
100
AcDbLine
 10
7.553533
 20
3.614071
 30
0.0
 11
7.538727
 21
3.621693
 31
0.0
  0
LINE
  5
3EE
100
AcDbEntity
  8
IGES_LEVEL_0
 62
     7
100
AcDbLine
 10
7.567671
 20
3.605524
 30
0.0
 11
7.553533
 21
3.614071
 31
0.0
  0
LINE
  5
3EF
100
AcDbEntity
  8
IGES_LEVEL_0
 62
     7
100
AcDbLine
 10
7.581133
 20
3.596041
 30
0.0
 11
7.567671
 21
3.605524
 31
0.0
  0
LINE
  5
3F0
100
AcDbEntity
  8
IGES_LEVEL_0
 62
     7
100
AcDbLine
 10
7.593905
 20
3.58561
 30
0.0
 11
7.581133
 21
3.596041
 31
0.0
  0
LINE
  5
3F1
100
AcDbEntity
  8
IGES_LEVEL_0
 62
     7
100
AcDbLine
 10
7.605827
 20
3.574375
 30
0.0
 11
7.593905
 21
3.58561
 31
0.0
  0
LINE
  5
3F2
100
AcDbEntity
  8
IGES_LEVEL_0
 62
     7
100
AcDbLine
 10
7.616925
 20
3.562363
 30
0.0
 11
7.605827
 21
3.574375
 31
0.0
  0
LINE
  5
3F3
100
AcDbEntity
  8
IGES_LEVEL_0
 62
     7
100
AcDbLine
 10
7.62723
 20
3.549595
 30
0.0
 11
7.616925
 21
3.562363
 31
0.0
  0
LINE
  5
3F4
100
AcDbEntity
  8
IGES_LEVEL_0
 62
     7
100
AcDbLine
 10
7.636622
 20
3.536224
 30
0.0
 11
7.62723
 21
3.549595
 31
0.0
  0
LINE
  5
3F5
100
AcDbEntity
  8
IGES_LEVEL_0
 62
     7
100
AcDbLine
 10
7.645077
 20
3.522224
 30
0.0
 11
7.636622
 21
3.536224
 31
0.0
  0
LINE
  5
3F6
100
AcDbEntity
  8
IGES_LEVEL_0
 62
     7
100
AcDbLine
 10
7.652561
 20
3.507575
 30
0.0
 11
7.645077
 21
3.522224
 31
0.0
  0
LINE
  5
3F7
100
AcDbEntity
  8
IGES_LEVEL_0
 62
     7
100
AcDbLine
 10
7.658972
 20
3.492453
 30
0.0
 11
7.652561
 21
3.507575
 31
0.0
  0
LINE
  5
3F8
100
AcDbEntity
  8
IGES_LEVEL_0
 62
     7
100
AcDbLine
 10
7.664322
 20
3.476865
 30
0.0
 11
7.658972
 21
3.492453
 31
0.0
  0
LINE
  5
3F9
100
AcDbEntity
  8
IGES_LEVEL_0
 62
     7
100
AcDbLine
 10
7.668624
 20
3.460819
 30
0.0
 11
7.664322
 21
3.476865
 31
0.0
  0
LINE
  5
3FA
100
AcDbEntity
  8
IGES_LEVEL_0
 62
     7
100
AcDbLine
 10
7.671806
 20
3.444519
 30
0.0
 11
7.668624
 21
3.460819
 31
0.0
  0
LINE
  5
3FB
100
AcDbEntity
  8
IGES_LEVEL_0
 62
     7
100
AcDbLine
 10
7.673858
 20
3.427959
 30
0.0
 11
7.671806
 21
3.444519
 31
0.0
  0
LINE
  5
3FC
100
AcDbEntity
  8
IGES_LEVEL_0
 62
     7
100
AcDbLine
 10
7.674787
 20
3.411141
 30
0.0
 11
7.673858
 21
3.427959
 31
0.0
  0
LINE
  5
3FD
100
AcDbEntity
  8
IGES_LEVEL_0
 62
     7
100
AcDbLine
 10
7.67452
 20
3.394253
 30
0.0
 11
7.674787
 21
3.411141
 31
0.0
  0
LINE
  5
3FE
100
AcDbEntity
  8
IGES_LEVEL_0
 62
     7
100
AcDbLine
 10
7.672974
 20
3.377314
 30
0.0
 11
7.67452
 21
3.394253
 31
0.0
  0
LINE
  5
3FF
100
AcDbEntity
  8
IGES_LEVEL_0
 62
     7
100
AcDbLine
 10
7.67013
 20
3.360229
 30
0.0
 11
7.672974
 21
3.377314
 31
0.0
  0
LINE
  5
400
100
AcDbEntity
  8
IGES_LEVEL_0
 62
     7
100
AcDbLine
 10
7.426835
 20
2.284733
 30
0.0
 11
7.668925
 21
3.354617
 31
0.0
  0
ARC
  5
401
100
AcDbEntity
  8
IGES_LEVEL_0
 62
     7
100
AcDbCircle
 10
7.396748
 20
2.278349
 30
0.0
 40
0.027135
210
0.0
220
0.0
230
1.0
100
AcDbArc
 50
256.563162
 51
340.94832
  0
LINE
  5
402
100
AcDbEntity
  8
IGES_LEVEL_0
 62
     7
100
AcDbLine
 10
7.356776
 20
2.259575
 30
0.0
 11
7.390442
 21
2.251957
 31
0.0
  0
LINE
  5
403
100
AcDbEntity
  8
IGES_LEVEL_0
 62
     7
100
AcDbLine
 10
7.331876
 20
2.295737
 30
0.0
 11
7.33622
 21
2.2793
 31
0.0
  0
LINE
  5
404
100
AcDbEntity
  8
IGES_LEVEL_0
 62
     7
100
AcDbLine
 10
7.325962
 20
2.318562
 30
0.0
 11
7.331876
 21
2.295737
 31
0.0
  0
LINE
  5
405
100
AcDbEntity
  8
IGES_LEVEL_0
 62
     7
100
AcDbLine
 10
7.354017
 20
2.405667
 30
0.0
 11
7.345636
 21
2.394375
 31
0.0
  0
LINE
  5
406
100
AcDbEntity
  8
IGES_LEVEL_0
 62
     7
100
AcDbLine
 10
7.585412
 20
3.373514
 30
0.0
 11
7.375874
 21
2.447494
 31
0.0
  0
LINE
  5
407
100
AcDbEntity
  8
IGES_LEVEL_0
 62
     7
100
AcDbLine
 10
7.586979
 20
3.432611
 30
0.0
 11
7.588342
 21
3.422648
 31
0.0
  0
LINE
  5
408
100
AcDbEntity
  8
IGES_LEVEL_0
 62
     7
100
AcDbLine
 10
7.58492
 20
3.44262
 30
0.0
 11
7.586979
 21
3.432611
 31
0.0
  0
LINE
  5
409
100
AcDbEntity
  8
IGES_LEVEL_0
 62
     7
100
AcDbLine
 10
7.582124
 20
3.452685
 30
0.0
 11
7.58492
 21
3.44262
 31
0.0
  0
LINE
  5
40A
100
AcDbEntity
  8
IGES_LEVEL_0
 62
     7
100
AcDbLine
 10
7.578561
 20
3.462738
 30
0.0
 11
7.582124
 21
3.452685
 31
0.0
  0
LINE
  5
40B
100
AcDbEntity
  8
IGES_LEVEL_0
 62
     7
100
AcDbLine
 10
7.574267
 20
3.472566
 30
0.0
 11
7.578561
 21
3.462738
 31
0.0
  0
LINE
  5
40C
100
AcDbEntity
  8
IGES_LEVEL_0
 62
     7
100
AcDbLine
 10
7.569224
 20
3.482183
 30
0.0
 11
7.574267
 21
3.472566
 31
0.0
  0
LINE
  5
40D
100
AcDbEntity
  8
IGES_LEVEL_0
 62
     7
100
AcDbLine
 10
7.563424
 20
3.49154
 30
0.0
 11
7.569224
 21
3.482183
 31
0.0
  0
LINE
  5
40E
100
AcDbEntity
  8
IGES_LEVEL_0
 62
     7
100
AcDbLine
 10
7.556993
 20
3.500405
 30
0.0
 11
7.563424
 21
3.49154
 31
0.0
  0
LINE
  5
40F
100
AcDbEntity
  8
IGES_LEVEL_0
 62
     7
100
AcDbLine
 10
7.549932
 20
3.508796
 30
0.0
 11
7.556993
 21
3.500405
 31
0.0
  0
LINE
  5
410
100
AcDbEntity
  8
IGES_LEVEL_0
 62
     7
100
AcDbLine
 10
7.542226
 20
3.51671
 30
0.0
 11
7.549932
 21
3.508796
 31
0.0
  0
LINE
  5
411
100
AcDbEntity
  8
IGES_LEVEL_0
 62
     7
100
AcDbLine
 10
7.534066
 20
3.523962
 30
0.0
 11
7.542226
 21
3.51671
 31
0.0
  0
LINE
  5
412
100
AcDbEntity
  8
IGES_LEVEL_0
 62
     7
100
AcDbLine
 10
7.525504
 20
3.530548
 30
0.0
 11
7.534066
 21
3.523962
 31
0.0
  0
LINE
  5
413
100
AcDbEntity
  8
IGES_LEVEL_0
 62
     7
100
AcDbLine
 10
7.516521
 20
3.536491
 30
0.0
 11
7.525504
 21
3.530548
 31
0.0
  0
LINE
  5
414
100
AcDbEntity
  8
IGES_LEVEL_0
 62
     7
100
AcDbLine
 10
7.507295
 20
3.541704
 30
0.0
 11
7.516521
 21
3.536491
 31
0.0
  0
LINE
  5
415
100
AcDbEntity
  8
IGES_LEVEL_0
 62
     7
100
AcDbLine
 10
7.497886
 20
3.546202
 30
0.0
 11
7.507295
 21
3.541704
 31
0.0
  0
LINE
  5
416
100
AcDbEntity
  8
IGES_LEVEL_0
 62
     7
100
AcDbLine
 10
7.488296
 20
3.550011
 30
0.0
 11
7.497886
 21
3.546202
 31
0.0
  0
LINE
  5
417
100
AcDbEntity
  8
IGES_LEVEL_0
 62
     7
100
AcDbLine
 10
7.478685
 20
3.553117
 30
0.0
 11
7.488296
 21
3.550011
 31
0.0
  0
LINE
  5
418
100
AcDbEntity
  8
IGES_LEVEL_0
 62
     7
100
AcDbLine
 10
6.110331
 20
3.559083
 30
0.0
 11
7.436194
 21
3.559083
 31
0.0
  0
LINE
  5
419
100
AcDbEntity
  8
IGES_LEVEL_0
 62
     7
100
AcDbLine
 10
6.048316
 20
3.535451
 30
0.0
 11
6.059
 21
3.541542
 31
0.0
  0
LINE
  5
41A
100
AcDbEntity
  8
IGES_LEVEL_0
 62
     7
100
AcDbLine
 10
5.876647
 20
3.635753
 30
0.0
 11
5.871687
 21
3.662056
 31
0.0
  0
LINE
  5
41B
100
AcDbEntity
  8
IGES_LEVEL_0
 62
     7
100
AcDbLine
 10
6.156784
 20
3.505318
 30
0.0
 11
6.154608
 21
3.469238
 31
0.0
  0
LINE
  5
41C
100
AcDbEntity
  8
IGES_LEVEL_0
 62
     7
100
AcDbLine
 10
6.157654
 20
3.541397
 30
0.0
 11
6.156784
 21
3.505318
 31
0.0
  0
LINE
  5
41D
100
AcDbEntity
  8
IGES_LEVEL_0
 62
     7
100
AcDbLine
 10
6.15744
 20
3.559083
 30
0.0
 11
6.157654
 21
3.541397
 31
0.0
  0
LINE
  5
41E
100
AcDbEntity
  8
IGES_LEVEL_0
 62
     7
100
AcDbLine
 10
6.148068
 20
3.68569
 30
0.0
 11
6.152411
 21
3.64977
 31
0.0
  0
LINE
  5
41F
100
AcDbEntity
  8
IGES_LEVEL_0
 62
     7
100
AcDbLine
 10
6.142445
 20
3.721308
 30
0.0
 11
6.148068
 21
3.68569
 31
0.0
  0
LINE
  5
420
100
AcDbEntity
  8
IGES_LEVEL_0
 62
     7
100
AcDbLine
 10
6.135535
 20
3.756699
 30
0.0
 11
6.142445
 21
3.721308
 31
0.0
  0
LINE
  5
421
100
AcDbEntity
  8
IGES_LEVEL_0
 62
     7
100
AcDbLine
 10
6.127338
 20
3.791862
 30
0.0
 11
6.135535
 21
3.756699
 31
0.0
  0
LINE
  5
422
100
AcDbEntity
  8
IGES_LEVEL_0
 62
     7
100
AcDbLine
 10
7.395124
 20
2.532565
 30
0.0
 11
6.143843
 21
2.532177
 31
0.0
  0
LINE
  5
423
100
AcDbEntity
  8
IGES_LEVEL_0
 62
     7
100
AcDbLine
 10
8.340458
 20
2.532858
 30
0.0
 11
7.48292
 21
2.532592
 31
0.0
  0
LINE
  5
424
100
AcDbEntity
  8
IGES_LEVEL_0
 62
     7
100
AcDbLine
 10
0.298863
 20
3.444206
 30
0.0
 11
0.299746
 21
3.425819
 31
0.0
  0
LINE
  5
425
100
AcDbEntity
  8
IGES_LEVEL_0
 62
     7
100
AcDbLine
 10
0.297713
 20
3.466182
 30
0.0
 11
0.298863
 21
3.444206
 31
0.0
  0
LINE
  5
426
100
AcDbEntity
  8
IGES_LEVEL_0
 62
     7
100
AcDbLine
 10
0.296367
 20
3.489724
 30
0.0
 11
0.297713
 21
3.466182
 31
0.0
  0
LINE
  5
427
100
AcDbEntity
  8
IGES_LEVEL_0
 62
     7
100
AcDbLine
 10
0.295057
 20
3.510729
 30
0.0
 11
0.296367
 21
3.489724
 31
0.0
  0
LINE
  5
428
100
AcDbEntity
  8
IGES_LEVEL_0
 62
     7
100
AcDbLine
 10
0.293935
 20
3.527311
 30
0.0
 11
0.295057
 21
3.510729
 31
0.0
  0
LINE
  5
429
100
AcDbEntity
  8
IGES_LEVEL_0
 62
     7
100
AcDbLine
 10
0.292279
 20
3.549362
 30
0.0
 11
0.29357
 21
3.532432
 31
0.0
  0
LINE
  5
42A
100
AcDbEntity
  8
IGES_LEVEL_0
 62
     7
100
AcDbLine
 10
0.291342
 20
3.561018
 30
0.0
 11
0.292279
 21
3.549362
 31
0.0
  0
LINE
  5
42B
100
AcDbEntity
  8
IGES_LEVEL_0
 62
     7
100
AcDbLine
 10
0.292107
 20
3.550899
 30
0.0
 11
0.290727
 21
3.567231
 31
0.0
  0
LINE
  5
42C
100
AcDbEntity
  8
IGES_LEVEL_0
 62
     7
100
AcDbLine
 10
0.258704
 20
3.611123
 30
0.0
 11
0.258704
 21
3.588923
 31
0.0
  0
LINE
  5
42D
100
AcDbEntity
  8
IGES_LEVEL_0
 62
     7
100
AcDbLine
 10
0.306971
 20
3.640169
 30
0.0
 11
0.285241
 21
3.638646
 31
0.0
  0
LINE
  5
42E
100
AcDbEntity
  8
IGES_LEVEL_0
 62
     7
100
AcDbLine
 10
0.328843
 20
3.641316
 30
0.0
 11
0.306971
 21
3.640169
 31
0.0
  0
LINE
  5
42F
100
AcDbEntity
  8
IGES_LEVEL_0
 62
     7
100
AcDbLine
 10
0.350733
 20
3.642078
 30
0.0
 11
0.328843
 21
3.641316
 31
0.0
  0
LINE
  5
430
100
AcDbEntity
  8
IGES_LEVEL_0
 62
     7
100
AcDbLine
 10
0.29187
 20
3.551983
 30
0.0
 11
0.291004
 21
3.565368
 31
0.0
  0
LINE
  5
431
100
AcDbEntity
  8
IGES_LEVEL_0
 62
     7
100
AcDbLine
 10
0.293297
 20
3.527978
 30
0.0
 11
0.29187
 21
3.551983
 31
0.0
  0
LINE
  5
432
100
AcDbEntity
  8
IGES_LEVEL_0
 62
     7
100
AcDbLine
 10
0.294705
 20
3.501974
 30
0.0
 11
0.293297
 21
3.527978
 31
0.0
  0
LINE
  5
433
100
AcDbEntity
  8
IGES_LEVEL_0
 62
     7
100
AcDbLine
 10
0.296328
 20
3.468958
 30
0.0
 11
0.294705
 21
3.501974
 31
0.0
  0
LINE
  5
434
100
AcDbEntity
  8
IGES_LEVEL_0
 62
     7
100
AcDbLine
 10
0.297957
 20
3.431938
 30
0.0
 11
0.296328
 21
3.468958
 31
0.0
  0
LINE
  5
435
100
AcDbEntity
  8
IGES_LEVEL_0
 62
     7
100
AcDbLine
 10
0.299215
 20
3.39977
 30
0.0
 11
0.297957
 21
3.431938
 31
0.0
  0
LINE
  5
436
100
AcDbEntity
  8
IGES_LEVEL_0
 62
     7
100
AcDbLine
 10
0.3003
 20
3.368151
 30
0.0
 11
0.299215
 21
3.39977
 31
0.0
  0
LINE
  5
437
100
AcDbEntity
  8
IGES_LEVEL_0
 62
     7
100
AcDbLine
 10
0.333047
 20
2.279843
 30
0.0
 11
0.3003
 21
3.368151
 31
0.0
  0
LINE
  5
438
100
AcDbEntity
  8
IGES_LEVEL_0
 62
     7
100
AcDbLine
 10
0.38474
 20
2.249263
 30
0.0
 11
0.36377
 21
2.249577
 31
0.0
  0
LINE
  5
439
100
AcDbEntity
  8
IGES_LEVEL_0
 62
     7
100
AcDbLine
 10
0.398779
 20
2.249136
 30
0.0
 11
0.38474
 21
2.249263
 31
0.0
  0
LINE
  5
43A
100
AcDbEntity
  8
IGES_LEVEL_0
 62
     7
100
AcDbLine
 10
0.412816
 20
2.249073
 30
0.0
 11
0.398779
 21
2.249136
 31
0.0
  0
LINE
  5
43B
100
AcDbEntity
  8
IGES_LEVEL_0
 62
     7
100
AcDbLine
 10
0.426845
 20
2.249074
 30
0.0
 11
0.412816
 21
2.249073
 31
0.0
  0
LINE
  5
43C
100
AcDbEntity
  8
IGES_LEVEL_0
 62
     7
100
AcDbLine
 10
0.440864
 20
2.24914
 30
0.0
 11
0.426845
 21
2.249074
 31
0.0
  0
LINE
  5
43D
100
AcDbEntity
  8
IGES_LEVEL_0
 62
     7
100
AcDbLine
 10
0.454866
 20
2.249269
 30
0.0
 11
0.440864
 21
2.24914
 31
0.0
  0
LINE
  5
43E
100
AcDbEntity
  8
IGES_LEVEL_0
 62
     7
100
AcDbLine
 10
0.475072
 20
2.249574
 30
0.0
 11
0.454866
 21
2.249269
 31
0.0
  0
LINE
  5
43F
100
AcDbEntity
  8
IGES_LEVEL_0
 62
     7
100
AcDbLine
 10
0.505811
 20
3.611388
 30
0.0
 11
0.50581
 21
2.280766
 31
0.0
  0
ARC
  5
440
100
AcDbEntity
  8
IGES_LEVEL_0
 62
     7
100
AcDbCircle
 10
0.478311
 20
3.611388
 30
0.0
 40
0.027499
210
0.0
220
0.0
230
1.0
100
AcDbArc
 50
359.99995
 51
84.978075
  0
LINE
  5
441
100
AcDbEntity
  8
IGES_LEVEL_0
 62
     7
100
AcDbLine
 10
0.461959
 20
3.640246
 30
0.0
 11
0.480719
 21
3.638781
 31
0.0
  0
LINE
  5
442
100
AcDbEntity
  8
IGES_LEVEL_0
 62
     7
100
AcDbLine
 10
0.443166
 20
3.641347
 30
0.0
 11
0.461959
 21
3.640246
 31
0.0
  0
LINE
  5
443
100
AcDbEntity
  8
IGES_LEVEL_0
 62
     7
100
AcDbLine
 10
0.424349
 20
3.642081
 30
0.0
 11
0.443166
 21
3.641347
 31
0.0
  0
LINE
  5
444
100
AcDbEntity
  8
IGES_LEVEL_0
 62
     7
100
AcDbLine
 10
0.405517
 20
3.642449
 30
0.0
 11
0.424349
 21
3.642081
 31
0.0
  0
LINE
  5
445
100
AcDbEntity
  8
IGES_LEVEL_0
 62
     7
100
AcDbLine
 10
0.367859
 20
3.642083
 30
0.0
 11
0.386682
 21
3.64245
 31
0.0
  0
LINE
  5
446
100
AcDbEntity
  8
IGES_LEVEL_0
 62
     7
100
AcDbLine
 10
0.349053
 20
3.641349
 30
0.0
 11
0.367859
 21
3.642083
 31
0.0
  0
LINE
  5
447
100
AcDbEntity
  8
IGES_LEVEL_0
 62
     7
100
AcDbLine
 10
0.330267
 20
3.640249
 30
0.0
 11
0.349053
 21
3.641349
 31
0.0
  0
LINE
  5
448
100
AcDbEntity
  8
IGES_LEVEL_0
 62
     7
100
AcDbLine
 10
0.304203
 20
3.6392
 30
0.0
 11
0.330267
 21
3.640249
 31
0.0
  0
LINE
  5
449
100
AcDbEntity
  8
IGES_LEVEL_0
 62
     7
100
AcDbLine
 10
0.318221
 20
3.640887
 30
0.0
 11
0.304203
 21
3.6392
 31
0.0
  0
LINE
  5
44A
100
AcDbEntity
  8
IGES_LEVEL_0
 62
     7
100
AcDbLine
 10
0.340306
 20
3.641815
 30
0.0
 11
0.318221
 21
3.640887
 31
0.0
  0
LINE
  5
44B
100
AcDbEntity
  8
IGES_LEVEL_0
 62
     7
100
AcDbLine
 10
0.359567
 20
3.642303
 30
0.0
 11
0.340306
 21
3.641815
 31
0.0
  0
LINE
  5
44C
100
AcDbEntity
  8
IGES_LEVEL_0
 62
     7
100
AcDbLine
 10
0.3711
 20
3.642453
 30
0.0
 11
0.359567
 21
3.642303
 31
0.0
  0
LINE
  5
44D
100
AcDbEntity
  8
IGES_LEVEL_0
 62
     7
100
AcDbLine
 10
0.39611
 20
3.642495
 30
0.0
 11
0.3711
 21
3.642453
 31
0.0
  0
LINE
  5
44E
100
AcDbEntity
  8
IGES_LEVEL_0
 62
     7
100
AcDbLine
 10
3.313488
 20
3.551983
 30
0.0
 11
3.314354
 21
3.565368
 31
0.0
  0
LINE
  5
44F
100
AcDbEntity
  8
IGES_LEVEL_0
 62
     7
100
AcDbLine
 10
3.312061
 20
3.527978
 30
0.0
 11
3.313488
 21
3.551983
 31
0.0
  0
LINE
  5
450
100
AcDbEntity
  8
IGES_LEVEL_0
 62
     7
100
AcDbLine
 10
3.310653
 20
3.501974
 30
0.0
 11
3.312061
 21
3.527978
 31
0.0
  0
LINE
  5
451
100
AcDbEntity
  8
IGES_LEVEL_0
 62
     7
100
AcDbLine
 10
3.30903
 20
3.468958
 30
0.0
 11
3.310653
 21
3.501974
 31
0.0
  0
LINE
  5
452
100
AcDbEntity
  8
IGES_LEVEL_0
 62
     7
100
AcDbLine
 10
3.307401
 20
3.431938
 30
0.0
 11
3.30903
 21
3.468958
 31
0.0
  0
LINE
  5
453
100
AcDbEntity
  8
IGES_LEVEL_0
 62
     7
100
AcDbLine
 10
3.306143
 20
3.39977
 30
0.0
 11
3.307401
 21
3.431938
 31
0.0
  0
LINE
  5
454
100
AcDbEntity
  8
IGES_LEVEL_0
 62
     7
100
AcDbLine
 10
3.305058
 20
3.368151
 30
0.0
 11
3.306143
 21
3.39977
 31
0.0
  0
LINE
  5
455
100
AcDbEntity
  8
IGES_LEVEL_0
 62
     7
100
AcDbLine
 10
3.272311
 20
2.279843
 30
0.0
 11
3.305058
 21
3.368151
 31
0.0
  0
LINE
  5
456
100
AcDbEntity
  8
IGES_LEVEL_0
 62
     7
100
AcDbLine
 10
3.220618
 20
2.249263
 30
0.0
 11
3.241588
 21
2.249577
 31
0.0
  0
LINE
  5
457
100
AcDbEntity
  8
IGES_LEVEL_0
 62
     7
100
AcDbLine
 10
3.206579
 20
2.249136
 30
0.0
 11
3.220618
 21
2.249263
 31
0.0
  0
LINE
  5
458
100
AcDbEntity
  8
IGES_LEVEL_0
 62
     7
100
AcDbLine
 10
3.192542
 20
2.249073
 30
0.0
 11
3.206579
 21
2.249136
 31
0.0
  0
LINE
  5
459
100
AcDbEntity
  8
IGES_LEVEL_0
 62
     7
100
AcDbLine
 10
3.178513
 20
2.249074
 30
0.0
 11
3.192542
 21
2.249073
 31
0.0
  0
LINE
  5
45A
100
AcDbEntity
  8
IGES_LEVEL_0
 62
     7
100
AcDbLine
 10
3.164494
 20
2.24914
 30
0.0
 11
3.178513
 21
2.249074
 31
0.0
  0
LINE
  5
45B
100
AcDbEntity
  8
IGES_LEVEL_0
 62
     7
100
AcDbLine
 10
3.150492
 20
2.249269
 30
0.0
 11
3.164494
 21
2.24914
 31
0.0
  0
LINE
  5
45C
100
AcDbEntity
  8
IGES_LEVEL_0
 62
     7
100
AcDbLine
 10
3.130285
 20
2.249574
 30
0.0
 11
3.150492
 21
2.249269
 31
0.0
  0
LINE
  5
45D
100
AcDbEntity
  8
IGES_LEVEL_0
 62
     7
100
AcDbLine
 10
3.099546
 20
3.611388
 30
0.0
 11
3.099548
 21
2.280766
 31
0.0
  0
ARC
  5
45E
100
AcDbEntity
  8
IGES_LEVEL_0
 62
     7
100
AcDbCircle
 10
3.127046
 20
3.611388
 30
0.0
 40
0.027499
210
0.0
220
0.0
230
1.0
100
AcDbArc
 50
95.021925
 51
180.00005
  0
LINE
  5
45F
100
AcDbEntity
  8
IGES_LEVEL_0
 62
     7
100
AcDbLine
 10
3.143399
 20
3.640246
 30
0.0
 11
3.124639
 21
3.638781
 31
0.0
  0
LINE
  5
460
100
AcDbEntity
  8
IGES_LEVEL_0
 62
     7
100
AcDbLine
 10
3.162192
 20
3.641347
 30
0.0
 11
3.143399
 21
3.640246
 31
0.0
  0
LINE
  5
461
100
AcDbEntity
  8
IGES_LEVEL_0
 62
     7
100
AcDbLine
 10
3.181009
 20
3.642081
 30
0.0
 11
3.162192
 21
3.641347
 31
0.0
  0
LINE
  5
462
100
AcDbEntity
  8
IGES_LEVEL_0
 62
     7
100
AcDbLine
 10
3.199841
 20
3.642449
 30
0.0
 11
3.181009
 21
3.642081
 31
0.0
  0
LINE
  5
463
100
AcDbEntity
  8
IGES_LEVEL_0
 62
     7
100
AcDbLine
 10
3.237499
 20
3.642083
 30
0.0
 11
3.218676
 21
3.64245
 31
0.0
  0
LINE
  5
464
100
AcDbEntity
  8
IGES_LEVEL_0
 62
     7
100
AcDbLine
 10
3.256305
 20
3.641349
 30
0.0
 11
3.237499
 21
3.642083
 31
0.0
  0
LINE
  5
465
100
AcDbEntity
  8
IGES_LEVEL_0
 62
     7
100
AcDbLine
 10
3.275091
 20
3.640249
 30
0.0
 11
3.256305
 21
3.641349
 31
0.0
  0
LINE
  5
466
100
AcDbEntity
  8
IGES_LEVEL_0
 62
     7
100
AcDbLine
 10
3.301155
 20
3.6392
 30
0.0
 11
3.275091
 21
3.640249
 31
0.0
  0
LINE
  5
467
100
AcDbEntity
  8
IGES_LEVEL_0
 62
     7
100
AcDbLine
 10
3.287137
 20
3.640887
 30
0.0
 11
3.301155
 21
3.6392
 31
0.0
  0
LINE
  5
468
100
AcDbEntity
  8
IGES_LEVEL_0
 62
     7
100
AcDbLine
 10
3.265052
 20
3.641815
 30
0.0
 11
3.287137
 21
3.640887
 31
0.0
  0
LINE
  5
469
100
AcDbEntity
  8
IGES_LEVEL_0
 62
     7
100
AcDbLine
 10
3.245791
 20
3.642303
 30
0.0
 11
3.265052
 21
3.641815
 31
0.0
  0
LINE
  5
46A
100
AcDbEntity
  8
IGES_LEVEL_0
 62
     7
100
AcDbLine
 10
3.234258
 20
3.642453
 30
0.0
 11
3.245791
 21
3.642303
 31
0.0
  0
LINE
  5
46B
100
AcDbEntity
  8
IGES_LEVEL_0
 62
     7
100
AcDbLine
 10
3.209248
 20
3.642495
 30
0.0
 11
3.234258
 21
3.642453
 31
0.0
  0
LINE
  5
46C
100
AcDbEntity
  8
IGES_LEVEL_0
 62
     7
100
AcDbLine
 10
3.306495
 20
3.444206
 30
0.0
 11
3.305612
 21
3.425819
 31
0.0
  0
LINE
  5
46D
100
AcDbEntity
  8
IGES_LEVEL_0
 62
     7
100
AcDbLine
 10
3.307645
 20
3.466182
 30
0.0
 11
3.306495
 21
3.444206
 31
0.0
  0
LINE
  5
46E
100
AcDbEntity
  8
IGES_LEVEL_0
 62
     7
100
AcDbLine
 10
3.308991
 20
3.489724
 30
0.0
 11
3.307645
 21
3.466182
 31
0.0
  0
LINE
  5
46F
100
AcDbEntity
  8
IGES_LEVEL_0
 62
     7
100
AcDbLine
 10
3.3103
 20
3.510729
 30
0.0
 11
3.308991
 21
3.489724
 31
0.0
  0
LINE
  5
470
100
AcDbEntity
  8
IGES_LEVEL_0
 62
     7
100
AcDbLine
 10
3.311423
 20
3.527311
 30
0.0
 11
3.3103
 21
3.510729
 31
0.0
  0
LINE
  5
471
100
AcDbEntity
  8
IGES_LEVEL_0
 62
     7
100
AcDbLine
 10
3.313079
 20
3.549362
 30
0.0
 11
3.311788
 21
3.532432
 31
0.0
  0
LINE
  5
472
100
AcDbEntity
  8
IGES_LEVEL_0
 62
     7
100
AcDbLine
 10
3.314016
 20
3.561018
 30
0.0
 11
3.313079
 21
3.549362
 31
0.0
  0
LINE
  5
473
100
AcDbEntity
  8
IGES_LEVEL_0
 62
     7
100
AcDbLine
 10
3.313251
 20
3.550899
 30
0.0
 11
3.31463
 21
3.567231
 31
0.0
  0
LINE
  5
474
100
AcDbEntity
  8
IGES_LEVEL_0
 62
     7
100
AcDbLine
 10
3.346654
 20
3.611123
 30
0.0
 11
3.346653
 21
3.588923
 31
0.0
  0
LINE
  5
475
100
AcDbEntity
  8
IGES_LEVEL_0
 62
     7
100
AcDbLine
 10
3.298387
 20
3.640169
 30
0.0
 11
3.320116
 21
3.638646
 31
0.0
  0
LINE
  5
476
100
AcDbEntity
  8
IGES_LEVEL_0
 62
     7
100
AcDbLine
 10
3.276515
 20
3.641316
 30
0.0
 11
3.298387
 21
3.640169
 31
0.0
  0
LINE
  5
477
100
AcDbEntity
  8
IGES_LEVEL_0
 62
     7
100
AcDbLine
 10
3.254625
 20
3.642078
 30
0.0
 11
3.276515
 21
3.641316
 31
0.0
  0
LINE
  5
478
100
AcDbEntity
  8
IGES_LEVEL_0
 62
     7
100
AcDbLine
 10
3.099558
 20
2.277714
 30
0.0
 11
3.099558
 21
2.355839
 31
0.0
  0
LINE
  5
479
100
AcDbEntity
  8
IGES_LEVEL_0
 62
     7
100
AcDbLine
 10
3.099558
 20
3.621166
 30
0.0
 11
3.099558
 21
3.543042
 31
0.0
  0
LINE
  5
47A
100
AcDbEntity
  8
IGES_LEVEL_0
 62
     7
100
AcDbLine
 10
0.28559
 20
8.099869
 30
0.0
 11
0.256093
 21
9.615554
 31
0.0
  0
LINE
  5
47B
100
AcDbEntity
  8
IGES_LEVEL_0
 62
     7
100
AcDbLine
 10
0.286113
 20
8.079061
 30
0.0
 11
0.28559
 21
8.099869
 31
0.0
  0
LINE
  5
47C
100
AcDbEntity
  8
IGES_LEVEL_0
 62
     7
100
AcDbLine
 10
0.286766
 20
8.057219
 30
0.0
 11
0.286113
 21
8.079061
 31
0.0
  0
LINE
  5
47D
100
AcDbEntity
  8
IGES_LEVEL_0
 62
     7
100
AcDbLine
 10
0.287417
 20
8.038382
 30
0.0
 11
0.286766
 21
8.057219
 31
0.0
  0
LINE
  5
47E
100
AcDbEntity
  8
IGES_LEVEL_0
 62
     7
100
AcDbLine
 10
0.28816
 20
8.019497
 30
0.0
 11
0.287417
 21
8.038382
 31
0.0
  0
LINE
  5
47F
100
AcDbEntity
  8
IGES_LEVEL_0
 62
     7
100
AcDbLine
 10
0.288827
 20
8.004367
 30
0.0
 11
0.28816
 21
8.019497
 31
0.0
  0
LINE
  5
480
100
AcDbEntity
  8
IGES_LEVEL_0
 62
     7
100
AcDbLine
 10
0.289545
 20
7.989699
 30
0.0
 11
0.288827
 21
8.004367
 31
0.0
  0
LINE
  5
481
100
AcDbEntity
  8
IGES_LEVEL_0
 62
     7
100
AcDbLine
 10
0.290196
 20
7.977683
 30
0.0
 11
0.289545
 21
7.989699
 31
0.0
  0
LINE
  5
482
100
AcDbEntity
  8
IGES_LEVEL_0
 62
     7
100
AcDbLine
 10
0.290787
 20
7.967651
 30
0.0
 11
0.290196
 21
7.977683
 31
0.0
  0
LINE
  5
483
100
AcDbEntity
  8
IGES_LEVEL_0
 62
     7
100
AcDbLine
 10
0.333213
 20
7.878597
 30
0.0
 11
0.322909
 21
7.879477
 31
0.0
  0
LINE
  5
484
100
AcDbEntity
  8
IGES_LEVEL_0
 62
     7
100
AcDbLine
 10
0.352117
 20
7.877294
 30
0.0
 11
0.333213
 21
7.878597
 31
0.0
  0
LINE
  5
485
100
AcDbEntity
  8
IGES_LEVEL_0
 62
     7
100
AcDbLine
 10
0.371191
 20
7.876394
 30
0.0
 11
0.352117
 21
7.877294
 31
0.0
  0
LINE
  5
486
100
AcDbEntity
  8
IGES_LEVEL_0
 62
     7
100
AcDbLine
 10
0.390431
 20
7.875914
 30
0.0
 11
0.371191
 21
7.876394
 31
0.0
  0
LINE
  5
487
100
AcDbEntity
  8
IGES_LEVEL_0
 62
     7
100
AcDbLine
 10
0.409823
 20
7.875868
 30
0.0
 11
0.390431
 21
7.875914
 31
0.0
  0
LINE
  5
488
100
AcDbEntity
  8
IGES_LEVEL_0
 62
     7
100
AcDbLine
 10
0.429351
 20
7.876271
 30
0.0
 11
0.409823
 21
7.875868
 31
0.0
  0
LINE
  5
489
100
AcDbEntity
  8
IGES_LEVEL_0
 62
     7
100
AcDbLine
 10
0.449007
 20
7.877134
 30
0.0
 11
0.429351
 21
7.876271
 31
0.0
  0
LINE
  5
48A
100
AcDbEntity
  8
IGES_LEVEL_0
 62
     7
100
AcDbLine
 10
0.468788
 20
7.878467
 30
0.0
 11
0.449007
 21
7.877134
 31
0.0
  0
LINE
  5
48B
100
AcDbEntity
  8
IGES_LEVEL_0
 62
     7
100
AcDbLine
 10
0.479711
 20
7.879405
 30
0.0
 11
0.468788
 21
7.878467
 31
0.0
  0
LINE
  5
48C
100
AcDbEntity
  8
IGES_LEVEL_0
 62
     7
100
AcDbLine
 10
0.504682
 20
9.645728
 30
0.0
 11
0.504682
 21
7.906787
 31
0.0
  0
LINE
  5
48D
100
AcDbEntity
  8
IGES_LEVEL_0
 62
     7
100
AcDbLine
 10
0.324786
 20
9.683228
 30
0.0
 11
0.467182
 21
9.683228
 31
0.0
  0
LINE
  5
48E
100
AcDbEntity
  8
DEFAULT
100
AcDbLine
 10
0.190807
 20
8.04835
 30
0.0
 11
0.286195
 21
8.076291
 31
0.0
  0
ARC
  5
48F
100
AcDbEntity
  8
DEFAULT
100
AcDbCircle
 10
0.232065
 20
8.122573
 30
0.0
 40
0.084919
210
0.0
220
0.0
230
1.0
100
AcDbArc
 50
153.652499
 51
240.931647
  0
LINE
  5
490
100
AcDbEntity
  8
DEFAULT
100
AcDbLine
 10
0.283527
 20
8.205869
 30
0.0
 11
0.155967
 21
8.160262
 31
0.0
  0
LINE
  5
491
100
AcDbEntity
  8
DEFAULT
100
AcDbLine
 10
3.414554
 20
8.04835
 30
0.0
 11
3.319166
 21
8.076291
 31
0.0
  0
ARC
  5
492
100
AcDbEntity
  8
DEFAULT
100
AcDbCircle
 10
3.373296
 20
8.122573
 30
0.0
 40
0.084919
210
0.0
220
0.0
230
1.0
100
AcDbArc
 50
299.068353
 51
26.347501
  0
LINE
  5
493
100
AcDbEntity
  8
DEFAULT
100
AcDbLine
 10
3.321834
 20
8.205869
 30
0.0
 11
3.449394
 21
8.160262
 31
0.0
  0
LINE
  5
494
100
AcDbEntity
  8
IGES_LEVEL_0
 62
     7
100
AcDbLine
 10
3.319771
 20
8.099869
 30
0.0
 11
3.349268
 21
9.615554
 31
0.0
  0
LINE
  5
495
100
AcDbEntity
  8
IGES_LEVEL_0
 62
     7
100
AcDbLine
 10
3.319249
 20
8.079061
 30
0.0
 11
3.319771
 21
8.099869
 31
0.0
  0
LINE
  5
496
100
AcDbEntity
  8
IGES_LEVEL_0
 62
     7
100
AcDbLine
 10
3.318595
 20
8.057219
 30
0.0
 11
3.319249
 21
8.079061
 31
0.0
  0
LINE
  5
497
100
AcDbEntity
  8
IGES_LEVEL_0
 62
     7
100
AcDbLine
 10
3.317944
 20
8.038382
 30
0.0
 11
3.318595
 21
8.057219
 31
0.0
  0
LINE
  5
498
100
AcDbEntity
  8
IGES_LEVEL_0
 62
     7
100
AcDbLine
 10
3.317202
 20
8.019497
 30
0.0
 11
3.317944
 21
8.038382
 31
0.0
  0
LINE
  5
499
100
AcDbEntity
  8
IGES_LEVEL_0
 62
     7
100
AcDbLine
 10
3.316534
 20
8.004367
 30
0.0
 11
3.317202
 21
8.019497
 31
0.0
  0
LINE
  5
49A
100
AcDbEntity
  8
IGES_LEVEL_0
 62
     7
100
AcDbLine
 10
3.315816
 20
7.989699
 30
0.0
 11
3.316534
 21
8.004367
 31
0.0
  0
LINE
  5
49B
100
AcDbEntity
  8
IGES_LEVEL_0
 62
     7
100
AcDbLine
 10
3.315166
 20
7.977683
 30
0.0
 11
3.315816
 21
7.989699
 31
0.0
  0
LINE
  5
49C
100
AcDbEntity
  8
IGES_LEVEL_0
 62
     7
100
AcDbLine
 10
3.314574
 20
7.967651
 30
0.0
 11
3.315166
 21
7.977683
 31
0.0
  0
LINE
  5
49D
100
AcDbEntity
  8
IGES_LEVEL_0
 62
     7
100
AcDbLine
 10
3.272148
 20
7.878597
 30
0.0
 11
3.282453
 21
7.879477
 31
0.0
  0
LINE
  5
49E
100
AcDbEntity
  8
IGES_LEVEL_0
 62
     7
100
AcDbLine
 10
3.253244
 20
7.877294
 30
0.0
 11
3.272148
 21
7.878597
 31
0.0
  0
LINE
  5
49F
100
AcDbEntity
  8
IGES_LEVEL_0
 62
     7
100
AcDbLine
 10
3.23417
 20
7.876394
 30
0.0
 11
3.253244
 21
7.877294
 31
0.0
  0
LINE
  5
4A0
100
AcDbEntity
  8
IGES_LEVEL_0
 62
     7
100
AcDbLine
 10
3.21493
 20
7.875914
 30
0.0
 11
3.23417
 21
7.876394
 31
0.0
  0
LINE
  5
4A1
100
AcDbEntity
  8
IGES_LEVEL_0
 62
     7
100
AcDbLine
 10
3.195538
 20
7.875868
 30
0.0
 11
3.21493
 21
7.875914
 31
0.0
  0
LINE
  5
4A2
100
AcDbEntity
  8
IGES_LEVEL_0
 62
     7
100
AcDbLine
 10
3.17601
 20
7.876271
 30
0.0
 11
3.195538
 21
7.875868
 31
0.0
  0
LINE
  5
4A3
100
AcDbEntity
  8
IGES_LEVEL_0
 62
     7
100
AcDbLine
 10
3.156354
 20
7.877134
 30
0.0
 11
3.17601
 21
7.876271
 31
0.0
  0
LINE
  5
4A4
100
AcDbEntity
  8
IGES_LEVEL_0
 62
     7
100
AcDbLine
 10
3.136573
 20
7.878467
 30
0.0
 11
3.156354
 21
7.877134
 31
0.0
  0
LINE
  5
4A5
100
AcDbEntity
  8
IGES_LEVEL_0
 62
     7
100
AcDbLine
 10
3.12565
 20
7.879405
 30
0.0
 11
3.136573
 21
7.878467
 31
0.0
  0
LINE
  5
4A6
100
AcDbEntity
  8
IGES_LEVEL_0
 62
     7
100
AcDbLine
 10
3.100679
 20
9.645728
 30
0.0
 11
3.100679
 21
7.906787
 31
0.0
  0
LINE
  5
4A7
100
AcDbEntity
  8
IGES_LEVEL_0
 62
     7
100
AcDbLine
 10
3.280575
 20
9.683228
 30
0.0
 11
3.138179
 21
9.683228
 31
0.0
  0
LINE
  5
4A8
100
AcDbEntity
  8
IGES_LEVEL_0
 62
     7
100
AcDbLine
 10
3.474779
 20
8.07241
 30
0.0
 11
3.445799
 21
8.07241
 31
0.0
  0
LINE
  5
4A9
100
AcDbEntity
  8
IGES_LEVEL_0
 62
     7
100
AcDbLine
 10
3.43181
 20
8.165764
 30
0.0
 11
3.43181
 21
8.38491
 31
0.0
  0
LINE
  5
4AA
100
AcDbEntity
  8
IGES_LEVEL_0
 62
     7
100
AcDbLine
 10
3.427904
 20
8.16716
 30
0.0
 11
3.427904
 21
8.381004
 31
0.0
  0
LINE
  5
4AB
100
AcDbEntity
  8
IGES_LEVEL_0
 62
     7
100
AcDbLine
 10
3.425951
 20
8.167858
 30
0.0
 11
3.425951
 21
8.38491
 31
0.0
  0
LINE
  5
4AC
100
AcDbEntity
  8
IGES_LEVEL_0
 62
     7
100
AcDbLine
 10
3.336107
 20
8.199981
 30
0.0
 11
3.336107
 21
8.38491
 31
0.0
  0
ARC
  5
4AD
100
AcDbEntity
  8
IGES_LEVEL_0
 62
     7
100
AcDbCircle
 10
3.474779
 20
8.369285
 30
0.0
 40
0.015625
210
0.0
220
0.0
230
0.9999999999999999
100
AcDbArc
 50
360.0
 51
90.0
  0
ARC
  5
4AE
100
AcDbEntity
  8
IGES_LEVEL_0
 62
     7
100
AcDbCircle
 10
3.474779
 20
8.088035
 30
0.0
 40
0.015625
210
0.0
220
0.0
230
0.9999999999999999
100
AcDbArc
 50
270.0
 51
0.0
  0
LINE
  5
4AF
100
AcDbEntity
  8
IGES_LEVEL_0
 62
     7
100
AcDbLine
 10
3.474779
 20
8.38491
 30
0.0
 11
3.474779
 21
8.07241
 31
0.0
  0
LINE
  5
4B0
100
AcDbEntity
  8
IGES_LEVEL_0
 62
     7
100
AcDbLine
 10
3.490404
 20
8.088035
 30
0.0
 11
3.490404
 21
8.369285
 31
0.0
  0
LINE
  5
4B1
100
AcDbEntity
  8
IGES_LEVEL_0
 62
     7
100
AcDbLine
 10
3.336107
 20
8.22866
 30
0.0
 11
3.425951
 21
8.22866
 31
0.0
  0
LINE
  5
4B2
100
AcDbEntity
  8
IGES_LEVEL_0
 62
     7
100
AcDbLine
 10
3.425951
 20
8.38491
 30
0.0
 11
3.336107
 21
8.38491
 31
0.0
  0
LINE
  5
4B3
100
AcDbEntity
  8
IGES_LEVEL_0
 62
     7
100
AcDbLine
 10
3.474779
 20
8.38491
 30
0.0
 11
3.43181
 21
8.38491
 31
0.0
  0
ENDSEC
  0
SECTION
  2
OBJECTS
  0
DICTIONARY
  5
19
100
AcDbDictionary
280
     0
281
     1
  3
ACAD_GROUP
350
1A
  3
ACAD_MLINESTYLE
350
1B
  3
ACAD_LAYOUT
350
1E
  3
ACAD_PLOTSETTINGS
350
22
  3
ACAD_PLOTSTYLENAME
350
1F
  0
DICTIONARY
  5
1A
102
{ACAD_REACTORS
330
19
102
}
100
AcDbDictionary
280
     0
281
     1
  0
DICTIONARY
  5
1B
102
{ACAD_REACTORS
330
19
102
}
100
AcDbDictionary
280
     0
281
     1
  3
Standard
350
1C
  0
MLINESTYLE
  5
1C
102
{ACAD_REACTORS
330
1B
102
}
100
AcDbMlineStyle
  2
Standard
 70
     0
  3

 62
     0
 51
90.0
 52
90.0
 71
     2
 49
0.5
 62
   256
  6
BYLAYER
 49
-0.5
 62
   256
  6
BYLAYER
  0
ACDBDICTIONARYWDFLT
  5
1F
102
{ACAD_REACTORS
330
19
102
}
100
AcDbDictionary
281
     1
  3
Normal
350
1D
100
AcDbDictionaryWithDefault
340
1D
  0
ACDBPLACEHOLDER
  5
1D
102
{ACAD_REACTORS
330
1F
102
}
  0
LAYOUT
  5
20
102
{ACAD_REACTORS
330
1E
102
}
100
AcDbPlotSettings
  1

  2

  4

  6

 40
0.0
 41
0.0
 42
0.0
 43
0.0
 44
0.0
 45
0.0
 46
0.0
 47
0.0
 48
0.0
 49
0.0
140
0.0
141
0.0
142
1.0
143
1.0
 70
  1024
 72
     0
 73
     0
 74
     0
  7

 75
     0
147
1.0
148
0.0
149
0.0
100
AcDbLayout
  1
Model
 70
     0
 71
     0
 10
0.0
 20
0.0
 11
0.0
 21
0.0
 12
0.0
 22
0.0
 32
0.0
 14
0.0
 24
0.0
 34
0.0
 15
0.0
 25
0.0
 35
0.0
146
0.0
 13
0.0
 23
0.0
 33
0.0
 16
0.0
 26
0.0
 36
0.0
 17
0.0
 27
0.0
 37
0.0
 76
     0
330
A
331
0
345
0
346
0
  0
LAYOUT
  5
21
102
{ACAD_REACTORS
330
1E
102
}
100
AcDbPlotSettings
  1

  2

  4

  6

 40
0.0
 41
0.0
 42
0.0
 43
0.0
 44
0.0
 45
0.0
 46
0.0
 47
0.0
 48
0.0
 49
0.0
140
0.0
141
0.0
142
1.0
143
1.0
 70
     0
 72
     0
 73
     0
 74
     0
  7

 75
     0
147
1.0
148
0.0
149
0.0
100
AcDbLayout
  1
Layout1
 70
     0
 71
     0
 10
0.0
 20
0.0
 11
0.0
 21
0.0
 12
0.0
 22
0.0
 32
0.0
 14
0.0
 24
0.0
 34
0.0
 15
0.0
 25
0.0
 35
0.0
146
0.0
 13
0.0
 23
0.0
 33
0.0
 16
0.0
 26
0.0
 36
0.0
 17
0.0
 27
0.0
 37
0.0
 76
     0
330
B
331
0
345
0
346
0
  0
DICTIONARY
  5
1E
102
{ACAD_REACTORS
330
19
102
}
100
AcDbDictionary
280
     0
281
     1
  3
Layout1
350
21
  3
Model
350
20
  0
DICTIONARY
  5
22
102
{ACAD_REACTORS
330
19
102
}
100
AcDbDictionary
280
     0
281
     1
  0
ENDSEC
  0
EOF
