  0
SECTION
  2
HEADER
  9
$ACADVER
  1
AC1014
  9
$ACADMAINTVER
 70
     9
  9
$DWGCODEPAGE
  3
ANSI_1252
  9
$INSBASE
 10
0.0
 20
0.0
 30
0.0
  9
$EXTMIN
 10
1.000000000000000E+20
 20
1.000000000000000E+20
 30
1.000000000000000E+20
  9
$EXTMAX
 10
-1.000000000000000E+20
 20
-1.000000000000000E+20
 30
-1.000000000000000E+20
  9
$LIMMIN
 10
0.0
 20
0.0
  9
$LIMMAX
 10
12.0
 20
9.0
  9
$ORTHOMODE
 70
     0
  9
$REGENMODE
 70
     1
  9
$FILLMODE
 70
     1
  9
$QTEXTMODE
 70
     0
  9
$MIRRTEXT
 70
     1
  9
$DRAGMODE
 70
     2
  9
$LTSCALE
 40
1.0
  9
$OSMODE
 70
    37
  9
$ATTMODE
 70
     1
  9
$TEXTSIZE
 40
0.2
  9
$TRACEWID
 40
0.05
  9
$TEXTSTYLE
  7
STANDARD
  9
$CLAYER
  8
DEFAULT
  9
$CELTYPE
  6
BYLAYER
  9
$CECOLOR
 62
   256
  9
$CELTSCALE
 40
1.0
  9
$DELOBJ
 70
     1
  9
$DISPSILH
 70
     0
  9
$DIMSCALE
 40
1.0
  9
$DIMASZ
 40
0.18
  9
$DIMEXO
 40
0.0625
  9
$DIMDLI
 40
0.38
  9
$DIMRND
 40
0.0
  9
$DIMDLE
 40
0.0
  9
$DIMEXE
 40
0.18
  9
$DIMTP
 40
0.0
  9
$DIMTM
 40
0.0
  9
$DIMTXT
 40
0.18
  9
$DIMCEN
 40
0.09
  9
$DIMTSZ
 40
0.0
  9
$DIMTOL
 70
     0
  9
$DIMLIM
 70
     0
  9
$DIMTIH
 70
     1
  9
$DIMTOH
 70
     1
  9
$DIMSE1
 70
     0
  9
$DIMSE2
 70
     0
  9
$DIMTAD
 70
     0
  9
$DIMZIN
 70
     0
  9
$DIMBLK
  1

  9
$DIMASO
 70
     1
  9
$DIMSHO
 70
     1
  9
$DIMPOST
  1

  9
$DIMAPOST
  1

  9
$DIMALT
 70
     0
  9
$DIMALTD
 70
     2
  9
$DIMALTF
 40
25.4
  9
$DIMLFAC
 40
1.0
  9
$DIMTOFL
 70
     0
  9
$DIMTVP
 40
0.0
  9
$DIMTIX
 70
     0
  9
$DIMSOXD
 70
     0
  9
$DIMSAH
 70
     0
  9
$DIMBLK1
  1

  9
$DIMBLK2
  1

  9
$DIMSTYLE
  2
STANDARD
  9
$DIMCLRD
 70
     0
  9
$DIMCLRE
 70
     0
  9
$DIMCLRT
 70
     0
  9
$DIMTFAC
 40
1.0
  9
$DIMGAP
 40
0.09
  9
$DIMJUST
 70
     0
  9
$DIMSD1
 70
     0
  9
$DIMSD2
 70
     0
  9
$DIMTOLJ
 70
     1
  9
$DIMTZIN
 70
     0
  9
$DIMALTZ
 70
     0
  9
$DIMALTTZ
 70
     0
  9
$DIMFIT
 70
     3
  9
$DIMUPT
 70
     0
  9
$DIMUNIT
 70
     2
  9
$DIMDEC
 70
     4
  9
$DIMTDEC
 70
     4
  9
$DIMALTU
 70
     2
  9
$DIMALTTD
 70
     2
  9
$DIMTXSTY
  7
STANDARD
  9
$DIMAUNIT
 70
     0
  9
$LUNITS
 70
     2
  9
$LUPREC
 70
     1
  9
$SKETCHINC
 40
0.1
  9
$FILLETRAD
 40
0.5
  9
$AUNITS
 70
     0
  9
$AUPREC
 70
     0
  9
$MENU
  1
.
  9
$ELEVATION
 40
0.0
  9
$PELEVATION
 40
0.0
  9
$THICKNESS
 40
0.0
  9
$LIMCHECK
 70
     0
  9
$CHAMFERA
 40
0.5
  9
$CHAMFERB
 40
0.5
  9
$CHAMFERC
 40
1.0
  9
$CHAMFERD
 40
0.0
  9
$SKPOLY
 70
     0
  9
$TDCREATE
 40
2453713.419292789
  9
$TDUPDATE
 40
2453713.419292801
  9
$TDINDWG
 40
0.0000000116
  9
$TDUSRTIMER
 40
0.0000000116
  9
$USRTIMER
 70
     1
  9
$ANGBASE
 50
0.0
  9
$ANGDIR
 70
     0
  9
$PDMODE
 70
     0
  9
$PDSIZE
 40
0.0
  9
$PLINEWID
 40
0.0
  9
$COORDS
 70
     1
  9
$SPLFRAME
 70
     0
  9
$SPLINETYPE
 70
     6
  9
$SPLINESEGS
 70
     8
  9
$ATTDIA
 70
     0
  9
$ATTREQ
 70
     1
  9
$HANDLING
 70
     1
  9
$HANDSEED
  5
20E
  9
$SURFTAB1
 70
     6
  9
$SURFTAB2
 70
     6
  9
$SURFTYPE
 70
     6
  9
$SURFU
 70
     6
  9
$SURFV
 70
     6
  9
$UCSNAME
  2

  9
$UCSORG
 10
0.0
 20
0.0
 30
0.0
  9
$UCSXDIR
 10
1.0
 20
0.0
 30
0.0
  9
$UCSYDIR
 10
0.0
 20
1.0
 30
0.0
  9
$PUCSNAME
  2

  9
$PUCSORG
 10
0.0
 20
0.0
 30
0.0
  9
$PUCSXDIR
 10
1.0
 20
0.0
 30
0.0
  9
$PUCSYDIR
 10
0.0
 20
1.0
 30
0.0
  9
$USERI1
 70
     0
  9
$USERI2
 70
     0
  9
$USERI3
 70
     0
  9
$USERI4
 70
     0
  9
$USERI5
 70
     0
  9
$USERR1
 40
0.0
  9
$USERR2
 40
0.0
  9
$USERR3
 40
0.0
  9
$USERR4
 40
0.0
  9
$USERR5
 40
0.0
  9
$WORLDVIEW
 70
     1
  9
$SHADEDGE
 70
     3
  9
$SHADEDIF
 70
    70
  9
$TILEMODE
 70
     1
  9
$MAXACTVP
 70
    64
  9
$PINSBASE
 10
0.0
 20
0.0
 30
0.0
  9
$PLIMCHECK
 70
     0
  9
$PEXTMIN
 10
1.000000000000000E+20
 20
1.000000000000000E+20
 30
1.000000000000000E+20
  9
$PEXTMAX
 10
-1.000000000000000E+20
 20
-1.000000000000000E+20
 30
-1.000000000000000E+20
  9
$PLIMMIN
 10
0.0
 20
0.0
  9
$PLIMMAX
 10
12.0
 20
9.0
  9
$UNITMODE
 70
     0
  9
$VISRETAIN
 70
     1
  9
$PLINEGEN
 70
     0
  9
$PSLTSCALE
 70
     1
  9
$TREEDEPTH
 70
  3020
  9
$PICKSTYLE
 70
     1
  9
$CMLSTYLE
  2
STANDARD
  9
$CMLJUST
 70
     0
  9
$CMLSCALE
 40
1.0
  9
$PROXYGRAPHICS
 70
     1
  9
$MEASUREMENT
 70
     0
  0
ENDSEC
  0
SECTION
  2
CLASSES
  0
CLASS
  1
ACDBDICTIONARYWDFLT
  2
AcDbDictionaryWithDefault
  3
ObjectDBX Classes
 90
        0
280
     0
281
     0
  0
CLASS
  1
XRECORD
  2
AcDbXrecord
  3
AutoCAD 2000
 90
        0
280
     0
281
     0
  0
CLASS
  1
LWPOLYLINE
  2
AcDbPolyline
  3
AutoCAD 2000
 90
        0
280
     0
281
     1
  0
CLASS
  1
HATCH
  2
AcDbHatch
  3
AutoCAD 2000
 90
        0
280
     0
281
     1
  0
CLASS
  1
ACDBPLACEHOLDER
  2
AcDbPlaceHolder
  3
ObjectDBX Classes
 90
        0
280
     0
281
     0
  0
CLASS
  1
LAYOUT
  2
AcDbLayout
  3
ObjectDBX Classes
 90
        0
280
     0
281
     0
  0
ENDSEC
  0
SECTION
  2
TABLES
  0
TABLE
  2
VPORT
  5
8
330
0
100
AcDbSymbolTable
 70
     2
  0
VPORT
  5
29
102
{ACAD_XDICTIONARY
360
20C
102
}
330
8
100
AcDbSymbolTableRecord
100
AcDbViewportTableRecord
  2
*ACTIVE
 70
     0
 10
0.0
 20
0.0
 11
1.0
 21
1.0
 12
32.45939796525357
 22
38.41284649794356
 13
0.0
 23
0.0
 14
0.5
 24
0.5
 15
0.5
 25
0.5
 16
0.0
 26
0.0
 36
80.21230066091221
 17
0.0
 27
0.0
 37
0.0
 40
76.59568606774984
 41
1.972972972850329
 42
50.0
 43
0.0
 44
0.0
 50
0.0
 51
0.0
 71
     0
 72
   100
 73
     1
 74
     3
 75
     0
 76
     0
 77
     0
 78
     0
  0
ENDTAB
  0
TABLE
  2
LTYPE
  5
5
330
0
100
AcDbSymbolTable
 70
     1
  0
LTYPE
  5
14
330
5
100
AcDbSymbolTableRecord
100
AcDbLinetypeTableRecord
  2
BYBLOCK
 70
     0
  3

 72
    65
 73
     0
 40
0.0
  0
LTYPE
  5
15
330
5
100
AcDbSymbolTableRecord
100
AcDbLinetypeTableRecord
  2
BYLAYER
 70
     0
  3

 72
    65
 73
     0
 40
0.0
  0
LTYPE
  5
16
330
5
100
AcDbSymbolTableRecord
100
AcDbLinetypeTableRecord
  2
CONTINUOUS
 70
     0
  3
Solid line
 72
    65
 73
     0
 40
0.0
  0
ENDTAB
  0
TABLE
  2
LAYER
  5
2
330
0
100
AcDbSymbolTable
 70
     2
  0
LAYER
  5
10
330
2
100
AcDbSymbolTableRecord
100
AcDbLayerTableRecord
  2
0
 70
     0
 62
     7
  6
CONTINUOUS
  0
LAYER
  5
2A
330
2
100
AcDbSymbolTableRecord
100
AcDbLayerTableRecord
  2
DEFAULT
 70
     0
 62
     7
  6
CONTINUOUS
  0
ENDTAB
  0
TABLE
  2
STYLE
  5
3
330
0
100
AcDbSymbolTable
 70
     1
  0
STYLE
  5
11
330
3
100
AcDbSymbolTableRecord
100
AcDbTextStyleTableRecord
  2
STANDARD
 70
     0
 40
0.0
 41
1.0
 50
0.0
 71
     0
 42
0.2
  3
txt
  4

  0
ENDTAB
  0
TABLE
  2
VIEW
  5
6
330
0
100
AcDbSymbolTable
 70
     0
  0
ENDTAB
  0
TABLE
  2
UCS
  5
7
330
0
100
AcDbSymbolTable
 70
     0
  0
ENDTAB
  0
TABLE
  2
APPID
  5
9
330
0
100
AcDbSymbolTable
 70
     1
  0
APPID
  5
12
330
9
100
AcDbSymbolTableRecord
100
AcDbRegAppTableRecord
  2
ACAD
 70
     0
  0
ENDTAB
  0
TABLE
  2
DIMSTYLE
  5
A
330
0
100
AcDbSymbolTable
 70
     1
  0
DIMSTYLE
105
27
330
A
100
AcDbSymbolTableRecord
100
AcDbDimStyleTableRecord
  2
STANDARD
 70
     0
  3

  4

  5

  6

  7

 40
1.0
 41
0.18
 42
0.0625
 43
0.38
 44
0.18
 45
0.0
 46
0.0
 47
0.0
 48
0.0
140
0.18
141
0.09
142
0.0
143
25.4
144
1.0
145
0.0
146
1.0
147
0.09
 71
     0
 72
     0
 73
     1
 74
     1
 75
     0
 76
     0
 77
     0
 78
     0
170
     0
171
     2
172
     0
173
     0
174
     0
175
     0
176
     0
177
     0
178
     0
270
     2
271
     4
272
     4
273
     2
274
     2
340
11
275
     0
280
     0
281
     0
282
     0
283
     1
284
     0
285
     0
286
     0
287
     3
288
     0
  0
ENDTAB
  0
TABLE
  2
BLOCK_RECORD
  5
1
330
0
100
AcDbSymbolTable
 70
     1
  0
BLOCK_RECORD
  5
1F
330
1
100
AcDbSymbolTableRecord
100
AcDbBlockTableRecord
  2
*MODEL_SPACE
  0
BLOCK_RECORD
  5
1B
330
1
100
AcDbSymbolTableRecord
100
AcDbBlockTableRecord
  2
*PAPER_SPACE
  0
ENDTAB
  0
ENDSEC
  0
SECTION
  2
BLOCKS
  0
BLOCK
  5
20
330
1F
100
AcDbEntity
  8
0
100
AcDbBlockBegin
  2
*MODEL_SPACE
 70
     0
 71
     0
 10
0.0
 20
0.0
 30
0.0
  3
*MODEL_SPACE
  1

  0
ENDBLK
  5
21
330
1F
100
AcDbEntity
  8
0
100
AcDbBlockEnd
  0
BLOCK
  5
1C
330
1B
100
AcDbEntity
 67
     1
  8
0
100
AcDbBlockBegin
  2
*PAPER_SPACE
 70
     0
 71
     0
 10
0.0
 20
0.0
 30
0.0
  3
*PAPER_SPACE
  1

  0
ENDBLK
  5
1D
330
1B
100
AcDbEntity
 67
     1
  8
0
100
AcDbBlockEnd
  0
ENDSEC
  0
SECTION
  2
ENTITIES
  0
SPLINE
  5
2B
330
1F
100
AcDbEntity
  8
DEFAULT
 62
     7
100
AcDbSpline
210
0.0
220
0.0
230
1.0
 70
     8
 71
     3
 72
    12
 73
     8
 74
     0
 42
0.0000000001
 43
0.0000000001
 40
-5.846294459813179
 40
-5.846294459813179
 40
-5.846294459813179
 40
-5.846294459813179
 40
-4.819815499028771
 40
-3.819815499028771
 40
-2.819815499028771
 40
-1.819815499028771
 40
-0.8780742686554879
 40
-0.8780742686554879
 40
-0.8780742686554879
 40
-0.8780742686554879
 10
22.43348725805051
 20
21.85704137320258
 30
0.0
 10
22.59637566217477
 20
24.82532508197413
 30
0.0
 10
22.64845055013173
 20
27.91492503812203
 30
0.0
 10
22.63823422422098
 20
30.20393649441339
 30
0.0
 10
22.60785340331178
 20
32.73782800510819
 30
0.0
 10
22.36952672449256
 20
35.42580474025132
 30
0.0
 10
22.17403336359945
 20
37.37736694314676
 30
0.0
 10
22.13205658244006
 20
39.05607834796023
 30
0.0
  0
LINE
  5
2C
330
1F
100
AcDbEntity
  8
DEFAULT
 62
     7
100
AcDbLine
 10
22.13205658244006
 20
39.05607834796023
 30
0.0
 11
21.31237239642139
 21
39.10244861963039
 31
0.0
  0
ARC
  5
2D
330
1F
100
AcDbEntity
  8
DEFAULT
 62
     7
100
AcDbCircle
 10
13.11890721056993
 20
-105.7184227785192
 30
0.0
 40
145.0524652126641
100
AcDbArc
 50
86.76185455505346
 51
93.23814529589733
  0
LINE
  5
2E
330
1F
100
AcDbEntity
  8
DEFAULT
 62
     7
100
AcDbLine
 10
4.925442401455435
 20
39.10244864094487
 30
0.0
 11
4.105757579759472
 21
39.05607370427101
 31
0.0
  0
SPLINE
  5
2F
330
1F
100
AcDbEntity
  8
DEFAULT
 62
     7
100
AcDbSpline
210
0.0
220
0.0
230
1.0
 70
     8
 71
     3
 72
    12
 73
     8
 74
     0
 42
0.0000000001
 43
0.0000000001
 40
18.4057989942985
 40
18.4057989942985
 40
18.4057989942985
 40
18.4057989942985
 40
19.34753957680278
 40
20.34753957680279
 40
21.34753957680279
 40
22.34753957680279
 40
23.37401844907774
 40
23.37401844907774
 40
23.37401844907774
 40
23.37401844907774
 10
4.105757579759472
 20
39.05607370427101
 30
0.0
 10
4.063781466010893
 20
37.3773656651073
 30
0.0
 10
3.868288188487993
 20
35.42580417304537
 30
0.0
 10
3.629961569598759
 20
32.7378280305222
 30
0.0
 10
3.599580755705451
 20
30.20393651990876
 30
0.0
 10
3.589364436431345
 20
27.91492513058695
 30
0.0
 10
3.6414393280952
 20
24.82532537724304
 30
0.0
 10
3.804327702851232
 20
21.85704216598167
 30
0.0
  0
ARC
  5
30
330
1F
100
AcDbEntity
  8
DEFAULT
100
AcDbCircle
 10
13.55568676549751
 20
-71.41689888436054
 30
0.0
 40
118.4198364172796
100
AcDbArc
 50
86.36477981101527
 51
90.21133005891554
  0
ARC
  5
31
330
1F
100
AcDbEntity
  8
DEFAULT
100
AcDbCircle
 10
21.02256741057104
 20
45.77553506204207
 30
0.0
 40
0.9900013686368095
100
AcDbArc
 50
2.443168183203247
 51
87.60266153033038
  0
ARC
  5
32
330
1F
100
AcDbEntity
  8
DEFAULT
100
AcDbCircle
 10
-114.0253479713558
 20
40.01341966581691
 30
0.0000000000000005
 40
136.1607874980497
100
AcDbArc
 50
359.5971502803312
 51
2.443168183203179
  0
ARC
  5
33
330
1F
100
AcDbEntity
  8
DEFAULT
100
AcDbCircle
 10
12.68213486269258
 20
-71.41723538997178
 30
0.0
 40
118.4201728954116
100
AcDbArc
 50
89.78867384601428
 51
93.63520488415109
  0
ARC
  5
34
330
1F
100
AcDbEntity
  8
DEFAULT
100
AcDbCircle
 10
5.215264176608702
 20
45.77553634788005
 30
0.0
 40
0.9900013723760831
100
AcDbArc
 50
92.39732249240662
 51
177.5568308516803
  0
ARC
  5
35
330
1F
100
AcDbEntity
  8
DEFAULT
100
AcDbCircle
 10
140.2631490171347
 20
40.01341997581968
 30
0.0000000000000005
 40
136.1607570297487
100
AcDbArc
 50
177.5568308516799
 51
180.4028499402657
  0
LINE
  5
36
330
1F
100
AcDbEntity
  8
DEFAULT
 62
     7
100
AcDbLine
 10
16.3932260697079
 20
29.16757953717387
 30
0.0
 11
21.07719272358115
 21
39.10244861963039
 31
0.0
  0
LINE
  5
37
330
1F
100
AcDbEntity
  8
DEFAULT
 62
     7
100
AcDbLine
 10
9.84458863282379
 20
29.16757953717387
 30
0.0
 11
4.762543659185794
 21
39.07926117260794
 31
0.0
  0
SPLINE
  5
38
330
1F
100
AcDbEntity
  8
DEFAULT
 62
     7
100
AcDbSpline
210
0.0
220
0.0
230
1.0
 70
     8
 71
     3
 72
    36
 73
    32
 74
     0
 42
0.0000000001
 43
0.0000000001
 40
-22.85518531883661
 40
-22.85518531883661
 40
-22.85518531883661
 40
-22.85518531883661
 40
-21.35685960884738
 40
-21.35685960884738
 40
-20.1081497459739
 40
-20.1081497459739
 40
-18.59696893028952
 40
-18.59696893028952
 40
-17.86316466270687
 40
-17.86316466270687
 40
-17.15385596634179
 40
-17.15385596634179
 40
-15.8207987298158
 40
-15.8207987298158
 40
-15.06951027734968
 40
-15.06951027734968
 40
-14.69721081059051
 40
-14.69721081059051
 40
-14.32201815283985
 40
-14.32201815283985
 40
-13.60428069574466
 40
-13.60428069574466
 40
-12.94843330474961
 40
-12.94843330474961
 40
-12.20597824771083
 40
-12.20597824771083
 40
-11.44466835096333
 40
-11.44466835096333
 40
-10.20234453239747
 40
-10.20234453239747
 40
-9.67082457619188
 40
-9.67082457619188
 40
-9.67082457619188
 40
-9.67082457619188
 10
13.11914362475136
 20
71.08304448050241
 30
-0.0000000000000001
 10
12.62697464360253
 20
71.08304448050241
 30
0.0
 10
12.03090519318675
 20
71.07714835464276
 30
0.0
 10
11.13058227406999
 20
70.97566294275484
 30
0.0
 10
10.62405603314767
 20
70.86575347707451
 30
0.0
 10
9.735142887558681
 20
70.68053168857
 30
0.0
 10
9.24824892972299
 20
70.59557752916651
 30
0.0
 10
8.546929764542384
 20
70.33455467525968
 30
0.0
 10
8.324577317160362
 20
70.23252094231793
 30
0.0
 10
7.882608663670318
 20
70.04284755724711
 30
0.0
 10
7.66379268885224
 20
69.95500981344445
 30
0.0
 10
7.022659307672498
 20
69.72926105088153
 30
0.0
 10
6.487627664129242
 20
69.57588501430342
 30
0.0
 10
5.805697344596389
 20
69.4520101626489
 30
0.0
 10
5.560451934530803
 20
69.42502661413202
 30
-0.0000000000000001
 10
5.186928706884295
 20
69.41892456944839
 30
-0.0000000000000001
 10
5.064354903679586
 20
69.42251715963982
 30
-0.0000000000000001
 10
4.817281371770228
 20
69.45675090636669
 30
-0.0000000000000001
 10
4.698837108290356
 20
69.48855614527906
 30
-0.0000000000000001
 10
4.356081878507872
 20
69.61519692605356
 30
-0.0000000000000001
 10
4.155425547255604
 20
69.74659984716062
 30
-0.0000000000000001
 10
3.883027461535988
 20
70.1453477933072
 30
-0.0000000000000001
 10
3.78688614330833
 20
70.40875064323153
 30
-0.0000000000000001
 10
3.654893819604723
 20
70.87694102359836
 30
-0.0000000000000001
 10
3.607953099403176
 20
71.12815160428382
 30
-0.0000000000000001
 10
3.540791009520582
 20
71.64731915770564
 30
-0.0000000000000001
 10
3.551991719127237
 20
71.90601185413726
 30
0.0
 10
3.592018955602967
 20
72.60409554747182
 30
-0.0000000000000001
 10
3.591202323683312
 20
73.19919731565913
 30
0.0
 10
3.652868291092329
 20
73.85092704605144
 30
0.0
 10
3.66884936786256
 20
74.02381751523116
 30
0.0
 10
3.725390682716558
 20
74.19114941167544
 30
0.0
  0
SPLINE
  5
39
330
1F
100
AcDbEntity
  8
DEFAULT
 62
     7
100
AcDbSpline
210
0.0
220
0.0
230
1.0
 70
     8
 71
     3
 72
    16
 73
    12
 74
     0
 42
0.0000000001
 43
0.0000000001
 40
0.0
 40
0.0
 40
0.0
 40
0.0
 40
0.4633509204839884
 40
0.8965770954564525
 40
1.36851985460724
 40
1.86681505408643
 40
2.68570246629139
 40
3.539968776064724
 40
4.502882693105818
 40
5.700576186650769
 40
5.71455989048659
 40
5.71455989048659
 40
5.71455989048659
 40
5.71455989048659
 10
9.896427450652844
 20
71.01762663201298
 30
0.0
 10
9.763572100743559
 20
70.92610814045661
 30
0.0
 10
9.480753837900942
 20
70.78647737625182
 30
-0.0000000000000001
 10
9.008968432887777
 20
70.70805593257977
 30
0.0000000000000001
 10
8.526654267363774
 20
70.79890378101884
 30
-0.0000000000000006
 10
7.960669996185274
 20
71.05866624116365
 30
0.0000000000000007
 10
7.349280149466786
 20
71.51092769275009
 30
-0.0000000000000005
 10
6.601632354945732
 20
72.03799131203559
 30
0.0
 10
5.690908960543556
 20
72.70303839025037
 30
0.0
 10
4.835788039071623
 20
73.65533214370774
 30
0.0
 10
4.608456662660817
 20
74.01881198983915
 30
0.0
 10
4.60668159124285
 20
74.02347499578104
 30
0.0
  0
ARC
  5
3A
330
1F
100
AcDbEntity
  8
DEFAULT
 62
     7
100
AcDbCircle
 10
8.31567671832444
 20
72.53664157493675
 30
0.0
 40
2.216505258322194
100
AcDbArc
 50
299.5780649792627
 51
315.4936334269337
  0
ARC
  5
3B
330
1F
100
AcDbEntity
  8
DEFAULT
 62
     7
100
AcDbCircle
 10
17.9221544715847
 20
72.5366415749362
 30
0.0
 40
2.216505258321494
100
AcDbArc
 50
224.506366573064
 51
240.4219350207402
  0
SPLINE
  5
3C
330
1F
100
AcDbEntity
  8
DEFAULT
 62
     7
100
AcDbSpline
210
0.0
220
0.0
230
1.0
 70
     8
 71
     3
 72
    16
 73
    12
 74
     0
 42
0.0000000001
 43
0.0000000001
 40
0.0
 40
0.0
 40
0.0
 40
0.0
 40
0.4633509204839884
 40
0.8965770954564525
 40
1.36851985460724
 40
1.86681505408643
 40
2.68570246629139
 40
3.539968776064724
 40
4.502882693105818
 40
5.700576186650769
 40
5.71455989048659
 40
5.71455989048659
 40
5.71455989048659
 40
5.71455989048659
 10
16.34140373925673
 20
71.01762663201298
 30
0.0
 10
16.47425908916602
 20
70.92610814045661
 30
0.0
 10
16.75707735200864
 20
70.78647737625182
 30
-0.0000000000000001
 10
17.2288627570218
 20
70.70805593257977
 30
0.0000000000000001
 10
17.7111769225458
 20
70.79890378101884
 30
-0.0000000000000006
 10
18.2771611937243
 20
71.05866624116365
 30
0.0000000000000007
 10
18.88855104044279
 20
71.51092769275009
 30
-0.0000000000000005
 10
19.63619883496385
 20
72.03799131203559
 30
0.0
 10
20.54692222936602
 20
72.70303839025037
 30
0.0
 10
21.40204315083795
 20
73.65533214370774
 30
0.0
 10
21.62937452724876
 20
74.01881198983915
 30
0.0
 10
21.63114959866673
 20
74.02347499578104
 30
0.0
  0
SPLINE
  5
3D
330
1F
100
AcDbEntity
  8
DEFAULT
100
AcDbSpline
210
0.0
220
0.0
230
1.0
 70
     8
 71
     3
 72
     9
 73
     5
 74
     0
 42
0.0000000001
 43
0.0000000001
 40
0.0
 40
0.0
 40
0.0
 40
0.0
 40
1.0
 40
1.929910907708745
 40
1.929910907708745
 40
1.929910907708745
 40
1.929910907708745
 10
13.11594588619271
 20
73.89363184712124
 30
0.0
 10
6.981081472302996
 20
73.92313639955302
 30
0.0
 10
5.565221240461902
 20
73.92994573055499
 30
0.0
 10
4.580822534628848
 20
74.0531613041652
 30
0.0
 10
3.756503938335469
 20
74.22874626874868
 30
0.0
  0
ARC
  5
3E
330
1F
100
AcDbEntity
  8
DEFAULT
100
AcDbCircle
 10
3.80858704474676
 20
74.47326078779918
 30
0.0
 40
0.2499999999998942
100
AcDbArc
 50
177.5145760514226
 51
257.9753539928626
  0
SPLINE
  5
3F
330
1F
100
AcDbEntity
  8
DEFAULT
100
AcDbSpline
210
0.0
220
0.0
230
1.0
 70
     8
 71
     3
 72
    10
 73
     6
 74
     0
 42
0.0000000001
 43
0.0000000001
 40
2.280987281157104
 40
2.280987281157104
 40
2.280987281157104
 40
2.280987281157104
 40
3.170865151316914
 40
4.170865151316914
 40
5.170865151316914
 40
5.170865151316914
 40
5.170865151316914
 40
5.170865151316914
 10
3.558822223239644
 20
74.48410209479913
 30
0.0
 10
3.592164630997043
 20
75.25225306794165
 30
0.0
 10
3.951687914048847
 20
75.96496639996111
 30
0.0
 10
5.575864983674492
 20
76.40792378258627
 30
0.0
 10
9.282428156997703
 20
76.71030655721788
 30
0.0
 10
13.11891559495479
 20
76.71030655721788
 30
0.0
  0
SPLINE
  5
40
330
1F
100
AcDbEntity
  8
DEFAULT
100
AcDbSpline
210
0.0
220
0.0
230
1.0
 70
     8
 71
     3
 72
    10
 73
     6
 74
     0
 42
0.0000000001
 43
0.0000000001
 40
5.170865151316914
 40
5.170865151316914
 40
5.170865151316914
 40
5.170865151316914
 40
6.170865151316914
 40
7.170865151316915
 40
8.078179917860238
 40
8.078179917860238
 40
8.078179917860238
 40
8.078179917860238
 10
13.11891559495479
 20
76.71030655721788
 30
0.0
 10
16.95540303291188
 20
76.71030655721788
 30
0.0
 10
20.66196620623509
 20
76.40792378258627
 30
0.0
 10
22.29594320808761
 20
75.96229369117195
 30
0.0
 10
22.65224100518247
 20
75.23906540344146
 30
0.0
 10
22.68081253122875
 20
74.43844621929773
 30
0.0
  0
ARC
  5
41
330
1F
100
AcDbEntity
  8
DEFAULT
100
AcDbCircle
 10
22.43097157267787
 20
74.42953019830293
 30
0.0
 40
0.2500000000000001
100
AcDbArc
 50
281.7603314953495
 51
2.04383491654894
  0
SPLINE
  5
42
330
1F
100
AcDbEntity
  8
DEFAULT
100
AcDbSpline
210
0.0
220
0.0
230
1.0
 70
     8
 71
     3
 72
     9
 73
     5
 74
     0
 42
0.0000000001
 43
0.0000000001
 40
8.42848278529425
 40
8.42848278529425
 40
8.42848278529425
 40
8.42848278529425
 40
9.360283426368937
 40
10.36028342636894
 40
10.36028342636894
 40
10.36028342636894
 40
10.36028342636894
 10
22.48192614466481
 20
74.18477801426033
 30
0.0
 10
21.653666287855
 20
74.01234389824705
 30
0.0
 10
20.66814425444447
 20
73.89363184712124
 30
0.0
 10
19.2508812481525
 20
73.89363184712124
 30
0.0
 10
13.11594588619271
 20
73.89363184712124
 30
0.0
  0
SPLINE
  5
43
330
1F
100
AcDbEntity
  8
DEFAULT
 62
     7
100
AcDbSpline
210
0.0
220
0.0
230
1.0
 70
     8
 71
     3
 72
    36
 73
    32
 74
     0
 42
0.0000000001
 43
0.0000000001
 40
-22.85518531883661
 40
-22.85518531883661
 40
-22.85518531883661
 40
-22.85518531883661
 40
-21.35685960884738
 40
-21.35685960884738
 40
-20.1081497459739
 40
-20.1081497459739
 40
-18.59696893028952
 40
-18.59696893028952
 40
-17.86316466270687
 40
-17.86316466270687
 40
-17.15385596634179
 40
-17.15385596634179
 40
-15.8207987298158
 40
-15.8207987298158
 40
-15.06951027734968
 40
-15.06951027734968
 40
-14.69721081059051
 40
-14.69721081059051
 40
-14.32201815283985
 40
-14.32201815283985
 40
-13.60428069574466
 40
-13.60428069574466
 40
-12.94843330474961
 40
-12.94843330474961
 40
-12.20597824771083
 40
-12.20597824771083
 40
-11.44466835096333
 40
-11.44466835096333
 40
-10.20234453239747
 40
-10.20234453239747
 40
-9.67082457619188
 40
-9.67082457619188
 40
-9.67082457619188
 40
-9.67082457619188
 10
13.11868756515822
 20
71.08304448050241
 30
-0.0000000000000001
 10
13.61085654630705
 20
71.08304448050241
 30
0.0
 10
14.20692599672283
 20
71.07714835464276
 30
0.0
 10
15.10724891583959
 20
70.97566294275484
 30
0.0
 10
15.6137751567619
 20
70.86575347707451
 30
0.0
 10
16.5026883023509
 20
70.68053168857
 30
0.0
 10
16.98958226018659
 20
70.59557752916651
 30
0.0
 10
17.69090142536719
 20
70.33455467525968
 30
0.0
 10
17.91325387274922
 20
70.23252094231793
 30
0.0
 10
18.35522252623926
 20
70.04284755724711
 30
0.0
 10
18.57403850105734
 20
69.95500981344445
 30
0.0
 10
19.21517188223708
 20
69.72926105088153
 30
0.0
 10
19.75020352578034
 20
69.57588501430342
 30
0.0
 10
20.43213384531319
 20
69.4520101626489
 30
0.0
 10
20.67737925537877
 20
69.42502661413202
 30
-0.0000000000000001
 10
21.05090248302528
 20
69.41892456944839
 30
-0.0000000000000001
 10
21.17347628622999
 20
69.42251715963982
 30
-0.0000000000000001
 10
21.42054981813935
 20
69.45675090636669
 30
-0.0000000000000001
 10
21.53899408161922
 20
69.48855614527906
 30
-0.0000000000000001
 10
21.88174931140171
 20
69.61519692605356
 30
-0.0000000000000001
 10
22.08240564265397
 20
69.74659984716062
 30
-0.0000000000000001
 10
22.35480372837359
 20
70.1453477933072
 30
-0.0000000000000001
 10
22.45094504660125
 20
70.40875064323153
 30
-0.0000000000000001
 10
22.58293737030486
 20
70.87694102359836
 30
-0.0000000000000001
 10
22.6298780905064
 20
71.12815160428382
 30
-0.0000000000000001
 10
22.697040180389
 20
71.64731915770564
 30
-0.0000000000000001
 10
22.68583947078234
 20
71.90601185413726
 30
0.0
 10
22.64581223430661
 20
72.60409554747182
 30
-0.0000000000000001
 10
22.64662886622627
 20
73.19919731565913
 30
0.0
 10
22.58496289881725
 20
73.85092704605144
 30
0.0
 10
22.56898182204702
 20
74.02381751523116
 30
0.0
 10
22.51244050719302
 20
74.19114941167544
 30
0.0
  0
SPLINE
  5
44
330
1F
100
AcDbEntity
  8
DEFAULT
100
AcDbSpline
210
0.0
220
0.0
230
1.0
 70
     8
 71
     3
 72
     9
 73
     5
 74
     0
 42
0.0000000001
 43
0.0000000001
 40
0.0
 40
0.0
 40
0.0
 40
0.0
 40
1.0
 40
2.0
 40
2.0
 40
2.0
 40
2.0
 10
42.67471439918013
 20
39.61938776294735
 30
0.0
 10
44.22662564540397
 20
36.97249710110037
 30
0.0
 10
45.72867222749984
 20
34.16694401403844
 30
0.0
 10
46.26536034796862
 20
31.59737202775742
 30
0.0
 10
46.30179574919006
 20
29.92616287948756
 30
0.0
  0
SPLINE
  5
45
330
1F
100
AcDbEntity
  8
DEFAULT
 62
     7
100
AcDbSpline
210
0.0
220
0.0
230
1.0
 70
     8
 71
     3
 72
    26
 73
    22
 74
     0
 42
0.0000000001
 43
0.0000000001
 40
1.0
 40
1.0
 40
1.0
 40
1.0
 40
1.875716707423282
 40
2.875716707423282
 40
3.875716707423282
 40
4.875716707423282
 40
5.875716707423282
 40
6.875716707423282
 40
7.875716707423282
 40
8.875716707423283
 40
9.875716707423283
 40
10.87571670742328
 40
11.87571670742328
 40
12.87571670742328
 40
13.87571670742328
 40
14.87571670742328
 40
15.87571670742328
 40
16.87571670742328
 40
17.87571670742328
 40
18.87571670742328
 40
19.24600735731126
 40
19.24600735731126
 40
19.24600735731126
 40
19.24600735731126
 10
46.28557790207315
 20
28.41278659072895
 30
0.0
 10
46.24426912346646
 20
28.01104662230305
 30
0.0
 10
46.08294207310709
 20
27.15983348085894
 30
0.0
 10
45.70197137856844
 20
25.11690310228648
 30
0.0
 10
45.10997251395553
 20
23.55085971250001
 30
0.0
 10
44.19951295681341
 20
22.05549671479947
 30
0.0
 10
43.06507717250706
 20
19.89550803131518
 30
0.0
 10
42.24930312536542
 20
18.25551662348451
 30
0.0
 10
41.68203811761257
 20
17.0413092286346
 30
0.0
 10
40.98098229585023
 20
16.54797847993757
 30
0.0
 10
40.12696884024882
 20
16.54797847993757
 30
0.0
 10
39.60436359129871
 20
16.90797659385162
 30
0.0
 10
39.41949266814353
 20
18.06885093478834
 30
0.0
 10
39.49597148506305
 20
19.96217434870667
 30
0.0
 10
39.8835500842107
 20
23.86882054784801
 30
0.0
 10
40.18946535188882
 20
25.90880986002762
 30
0.0
 10
40.37973949962937
 20
27.78880001046765
 30
0.0
 10
40.38390688842178
 20
31.89544516178346
 30
0.0
 10
40.01002208362993
 20
35.84209115135971
 30
0.0
 10
39.75775719748357
 20
37.51827412851898
 30
0.0
 10
39.73049605777381
 20
38.38770388259794
 30
0.0
 10
39.73170426884521
 20
38.60354079140956
 30
0.0
  0
SPLINE
  5
46
330
1F
100
AcDbEntity
  8
DEFAULT
100
AcDbSpline
210
0.0
220
0.0
230
1.0
 70
     8
 71
     3
 72
    14
 73
    10
 74
     0
 42
0.0000000001
 43
0.0000000001
 40
0.0
 40
0.0
 40
0.0
 40
0.0
 40
1.0
 40
2.0
 40
3.0
 40
4.0
 40
5.0
 40
6.0
 40
7.0
 40
7.0
 40
7.0
 40
7.0
 10
39.73170426884521
 20
38.60354079140956
 30
0.0
 10
39.69600536602047
 20
40.41579373247275
 30
0.0
 10
40.07330495894248
 20
44.88780913012084
 30
0.0
 10
40.29694424815255
 20
46.43608113234438
 30
0.0
 10
40.41736540388104
 20
47.00213202233317
 30
0.0
 10
40.77862887106655
 20
47.27902922244387
 30
0.0
 10
41.83799098103239
 20
46.77918085401299
 30
0.0
 10
42.49793828034132
 20
44.88860634319912
 30
0.0
 10
42.4243404886786
 20
41.37346006093531
 30
0.0
 10
42.67471439918013
 20
39.61938776294735
 30
0.0
  0
LINE
  5
47
330
1F
100
AcDbEntity
  8
DEFAULT
 62
     7
100
AcDbLine
 10
46.30770287021446
 20
28.67616287948756
 30
0.0
 11
46.28557790207315
 21
28.41278659072895
 31
0.0
  0
SPLINE
  5
48
330
1F
100
AcDbEntity
  8
DEFAULT
 62
     7
100
AcDbSpline
210
0.0
220
0.0
230
1.0
 70
     8
 71
     3
 72
    14
 73
    10
 74
     0
 42
0.0000000001
 43
0.0000000001
 40
0.0
 40
0.0
 40
0.0
 40
0.0
 40
1.0
 40
2.0
 40
3.0
 40
4.0
 40
5.0
 40
6.0
 40
7.0
 40
7.0
 40
7.0
 40
7.0
 10
60.54884725733385
 20
21.54372116786162
 30
0.0
 10
61.36895433867137
 20
21.4440784380727
 30
0.0
 10
62.32359020599797
 20
21.2886577851919
 30
0.0
 10
63.13195122268582
 20
20.96867408808436
 30
0.0
 10
63.78256489523882
 20
20.2738523457937
 30
0.0
 10
64.07511459651633
 20
18.89335125255832
 30
0.0
 10
63.9519357749258
 20
18.16195994488395
 30
0.0
 10
63.61319401555184
 20
17.5420401136512
 30
0.0
 10
63.01269726029801
 20
17.2037716338518
 30
0.0
 10
62.21797467350729
 20
17.14690302371197
 30
0.0
  0
SPLINE
  5
49
330
1F
100
AcDbEntity
  8
DEFAULT
 62
     7
100
AcDbSpline
210
0.0
220
0.0
230
1.0
 70
     8
 71
     3
 72
    11
 73
     7
 74
     0
 42
0.0000000001
 43
0.0000000001
 40
0.0
 40
0.0
 40
0.0
 40
0.0
 40
1.0
 40
2.0
 40
3.0
 40
4.0
 40
4.0
 40
4.0
 40
4.0
 10
60.54884725733385
 20
21.54372116786162
 30
0.0
 10
61.33045671126173
 20
21.44960349618795
 30
0.0
 10
62.14309892689862
 20
20.71794107689062
 30
0.0
 10
62.36054295776365
 20
19.90154175846931
 30
0.0
 10
62.50441491382513
 20
18.59107836639629
 30
0.0
 10
62.45380784893065
 20
17.69184512053516
 30
0.0
 10
62.26016034942956
 20
17.14690302371197
 30
0.0
  0
ARC
  5
4A
330
1F
100
AcDbEntity
  8
DEFAULT
 62
     7
100
AcDbCircle
 10
-328.2676122689031
 20
48.93309540533515
 30
-0.0000000000000001
 40
351.1976724151384
100
AcDbArc
 50
2.26395138127685
 51
3.448421605167397
  0
SPLINE
  5
4B
330
1F
100
AcDbEntity
  8
DEFAULT
 62
     7
100
AcDbSpline
210
0.0
220
0.0
230
1.0
 70
     8
 71
     3
 72
     9
 73
     5
 74
     0
 42
0.0000000001
 43
0.0000000001
 40
0.269542144006741
 40
0.269542144006741
 40
0.269542144006741
 40
0.269542144006741
 40
1.0
 40
1.730463005837058
 40
1.730463005837058
 40
1.730463005837058
 40
1.730463005837058
 10
24.9481615450223
 20
58.26040229734823
 30
0.0
 10
24.74420206963043
 20
57.96874803666724
 30
0.0
 10
23.86960070982759
 20
57.96874803666724
 30
0.0
 10
22.99499935002475
 20
57.96874803666724
 30
0.0
 10
22.79102382154537
 20
58.26040846601818
 30
0.0
  0
LINE
  5
4C
330
1F
100
AcDbEntity
  8
DEFAULT
 62
     7
100
AcDbLine
 10
25.067048841997
 20
55.42691763072592
 30
0.0
 11
25.06675935353457
 21
71.53905287169049
 31
0.0
  0
SPLINE
  5
4D
330
1F
100
AcDbEntity
  8
DEFAULT
 62
     7
100
AcDbSpline
210
0.0
220
0.0
230
1.0
 70
     8
 71
     3
 72
     9
 73
     5
 74
     0
 42
0.0000000001
 43
0.0000000001
 40
-16.63546224733508
 40
-16.63546224733508
 40
-16.63546224733508
 40
-16.63546224733508
 40
-15.60841848433134
 40
-14.58137472132759
 40
-14.58137472132759
 40
-14.58137472132759
 40
-14.58137472132759
 10
22.67233912024571
 20
55.42691763072592
 30
0.0
 10
22.67233912024571
 20
55.16387007111277
 30
0.0
 10
23.86969398112136
 20
54.88596299463431
 30
0.0
 10
25.06705356820073
 20
55.16387007119769
 30
0.0
 10
25.067048841997
 20
55.42691763072592
 30
0.0
  0
LINE
  5
4E
330
1F
100
AcDbEntity
  8
DEFAULT
 62
     7
100
AcDbLine
 10
22.67193220822689
 20
71.53905287169049
 30
0.0000000000000001
 11
22.67233912024571
 21
55.42691763072592
 31
0.0
  0
SPLINE
  5
4F
330
1F
100
AcDbEntity
  8
DEFAULT
 62
     7
100
AcDbSpline
210
0.0
220
0.0
230
1.0
 70
     8
 71
     3
 72
     9
 73
     5
 74
     0
 42
0.0000000001
 43
0.0000000001
 40
-33.30469940214726
 40
-33.30469940214726
 40
-33.30469940214726
 40
-33.30469940214726
 40
-32.27765563914352
 40
-31.25061187613977
 40
-31.25061187613977
 40
-31.25061187613977
 40
-31.25061187613977
 10
25.06675935353457
 20
71.53905287169049
 30
0.0
 10
25.06675935353457
 20
71.87220876422964
 30
0.0
 10
23.86934578088073
 20
72.20726788536395
 30
0.0
 10
22.67192379437394
 20
71.87220876401715
 30
0.0000000000000001
 10
22.67193220822689
 20
71.53905287169049
 30
0.0000000000000001
  0
LINE
  5
50
330
1F
100
AcDbEntity
  8
DEFAULT
 62
     7
100
AcDbLine
 10
16.72354216657112
 20
66.98381649610232
 30
0.0000000000000001
 11
22.03362382460622
 21
54.37150684694345
 31
0.0
  0
LINE
  5
51
330
1F
100
AcDbEntity
  8
DEFAULT
 62
     7
100
AcDbLine
 10
9.514271206821176
 20
66.98381649610232
 30
0.0000000000000001
 11
4.20418954878607
 21
54.37150684694345
 31
0.0
  0
ARC
  5
52
330
1F
100
AcDbEntity
  8
DEFAULT
 62
     7
100
AcDbCircle
 10
13.11890668669614
 20
76.3191393349467
 30
0.0000000000000004
 40
23.67776690417563
100
AcDbArc
 50
247.9612057247332
 51
292.0387942752669
  0
SPLINE
  5
53
330
1F
100
AcDbEntity
  8
DEFAULT
 62
     7
100
AcDbSpline
210
0.0
220
0.0
230
1.0
 70
     8
 71
     3
 72
     9
 73
     5
 74
     0
 42
0.0000000001
 43
0.0000000001
 40
0.0
 40
0.0
 40
0.0
 40
0.0
 40
1.0
 40
1.430629753427434
 40
1.430629753427434
 40
1.430629753427434
 40
1.430629753427434
 10
22.00361679676835
 20
54.37150684694345
 30
0.0
 10
22.39537797278377
 20
54.70617951343546
 30
0.0
 10
22.58132659588527
 20
55.44179740906158
 30
0.0
 10
22.66370247162157
 20
56.15805198505412
 30
0.0
 10
22.68225155707285
 20
56.39849555972752
 30
0.0
  0
SPLINE
  5
54
330
1F
100
AcDbEntity
  8
DEFAULT
 62
     7
100
AcDbSpline
210
0.0
220
0.0
230
1.0
 70
     8
 71
     3
 72
     9
 73
     5
 74
     0
 42
0.0000000001
 43
0.0000000001
 40
0.0
 40
0.0
 40
0.0
 40
0.0
 40
1.0
 40
1.43062975342743
 40
1.43062975342743
 40
1.43062975342743
 40
1.43062975342743
 10
4.234196576623938
 20
54.37150684694345
 30
0.0
 10
3.84243540060853
 20
54.70617951343546
 30
0.0
 10
3.656486777507023
 20
55.44179740906157
 30
0.0
 10
3.574110901770721
 20
56.15805198505412
 30
0.0
 10
3.555561816319441
 20
56.39849555972752
 30
0.0
  0
ARC
  5
55
330
1F
100
AcDbEntity
  8
DEFAULT
 62
     7
100
AcDbCircle
 10
354.5054256422912
 20
48.93309540533529
 30
-0.0000000000000001
 40
351.1976724151342
100
AcDbArc
 50
176.5515783948326
 51
177.7360486187232
  0
SPLINE
  5
56
330
1F
100
AcDbEntity
  8
DEFAULT
 62
     7
100
AcDbSpline
210
0.0
220
0.0
230
1.0
 70
     8
 71
     3
 72
     9
 73
     5
 74
     0
 42
0.0000000001
 43
0.0000000001
 40
-33.30469940214726
 40
-33.30469940214726
 40
-33.30469940214726
 40
-33.30469940214726
 40
-32.27765563914352
 40
-31.25061187613977
 40
-31.25061187613977
 40
-31.25061187613977
 40
-31.25061187613977
 10
1.17105401985774
 20
71.53905287169049
 30
0.0
 10
1.17105401985774
 20
71.87220876422964
 30
0.0
 10
2.368467592511576
 20
72.20726788536395
 30
0.0
 10
3.565889579018369
 20
71.87220876401715
 30
0.0000000000000001
 10
3.565881165165413
 20
71.53905287169049
 30
0.0000000000000001
  0
LINE
  5
57
330
1F
100
AcDbEntity
  8
DEFAULT
 62
     7
100
AcDbLine
 10
3.565881165165413
 20
71.53905287169049
 30
0.0000000000000001
 11
3.565474253146595
 21
55.42691763072592
 31
0.0
  0
SPLINE
  5
58
330
1F
100
AcDbEntity
  8
DEFAULT
 62
     7
100
AcDbSpline
210
0.0
220
0.0
230
1.0
 70
     8
 71
     3
 72
     9
 73
     5
 74
     0
 42
0.0000000001
 43
0.0000000001
 40
-16.63546224733508
 40
-16.63546224733508
 40
-16.63546224733508
 40
-16.63546224733508
 40
-15.60841848433134
 40
-14.58137472132759
 40
-14.58137472132759
 40
-14.58137472132759
 40
-14.58137472132759
 10
3.565474253146595
 20
55.42691763072592
 30
0.0
 10
3.565474253146597
 20
55.16387007111277
 30
0.0
 10
2.368119392270952
 20
54.88596299463431
 30
0.0
 10
1.17075980519158
 20
55.16387007119769
 30
0.0
 10
1.170764531395303
 20
55.42691763072592
 30
0.0
  0
LINE
  5
59
330
1F
100
AcDbEntity
  8
DEFAULT
 62
     7
100
AcDbLine
 10
1.170764531395303
 20
55.42691763072592
 30
0.0
 11
1.17105401985774
 21
71.53905287169049
 31
0.0
  0
SPLINE
  5
5A
330
1F
100
AcDbEntity
  8
DEFAULT
 62
     7
100
AcDbSpline
210
0.0
220
0.0
230
1.0
 70
     8
 71
     3
 72
     9
 73
     5
 74
     0
 42
0.0000000001
 43
0.0000000001
 40
0.269542144006741
 40
0.269542144006741
 40
0.269542144006741
 40
0.269542144006741
 40
1.0
 40
1.730463005837058
 40
1.730463005837058
 40
1.730463005837058
 40
1.730463005837058
 10
1.289651828370012
 20
58.26040229734823
 30
0.0
 10
1.493611303761878
 20
57.96874803666724
 30
0.0
 10
2.368212663564719
 20
57.96874803666724
 30
0.0
 10
3.242814023367558
 20
57.96874803666724
 30
0.0
 10
3.446789551846933
 20
58.26040846601818
 30
0.0
  0
ARC
  5
5B
330
1F
100
AcDbEntity
  8
DEFAULT
 62
     7
100
AcDbCircle
 10
13.11891559495477
 20
63.67958434381467
 30
0.0000000000000004
 40
7.982655229488474
100
AcDbArc
 50
66.19073527043531
 51
113.8092647295644
  0
LINE
  5
5C
330
1F
100
AcDbEntity
  8
DEFAULT
 62
     7
100
AcDbLine
 10
16.3932260697079
 20
29.16757953717387
 30
0.0
 11
22.4594427946339
 21
22.33989675643206
 31
0.0
  0
LINE
  5
5D
330
1F
100
AcDbEntity
  8
DEFAULT
 62
     7
100
AcDbLine
 10
9.84458863282379
 20
29.16757953717387
 30
0.0
 11
3.778372113401629
 21
22.3398985622901
 31
0.0
  0
LINE
  5
5E
330
1F
100
AcDbEntity
  8
DEFAULT
 62
     7
100
AcDbLine
 10
9.84458863282379
 20
29.16757953717387
 30
0.0
 11
16.39324255708661
 21
29.16752122857189
 31
-0.0000000000000001
  0
LINE
  5
5F
330
1F
100
AcDbEntity
  8
DEFAULT
 62
     7
100
AcDbLine
 10
16.72354216657112
 20
66.98381649610232
 30
0.0000000000000001
 11
19.43821357122522
 21
69.5638938637973
 31
0.0
  0
LINE
  5
60
330
1F
100
AcDbEntity
  8
DEFAULT
 62
     7
100
AcDbLine
 10
9.514271206821176
 20
66.98381649610232
 30
0.0000000000000001
 11
6.799495384376682
 21
69.56399310452947
 31
0.0
  0
LINE
  5
61
330
1F
100
AcDbEntity
  8
DEFAULT
 62
     7
100
AcDbLine
 10
9.514271206821176
 20
66.98381649610232
 30
0.0000000000000001
 11
16.72354216657112
 21
66.98381649610231
 31
0.0000000000000001
  0
SPLINE
  5
62
330
1F
100
AcDbEntity
  8
DEFAULT
 62
     7
100
AcDbSpline
210
0.0
220
0.0
230
1.0
 70
     8
 71
     3
 72
    18
 73
    14
 74
     0
 42
0.0000000001
 43
0.0000000001
 40
0.0
 40
0.0
 40
0.0
 40
0.0
 40
1.0
 40
2.0
 40
3.0
 40
4.0
 40
5.0
 40
6.0
 40
7.0
 40
8.0
 40
9.0
 40
10.0
 40
10.08230262143061
 40
10.08230262143061
 40
10.08230262143061
 40
10.08230262143061
 10
42.98022249313221
 20
19.5632004478043
 30
0.0
 10
42.8701317155241
 20
18.77880365734648
 30
0.0
 10
42.99398384033323
 20
18.11825899169779
 30
0.0
 10
43.2554494371525
 20
17.71917992286837
 30
0.0
 10
43.5444377283738
 20
17.44395297884809
 30
0.0
 10
45.01690187888234
 20
17.15496468762678
 30
0.0
 10
46.72330893180812
 20
17.15496468762678
 30
0.0
 10
49.73704396883027
 20
17.22377142363185
 30
0.0
 10
53.60398253231532
 20
17.27881681243591
 30
0.0
 10
57.75990938702167
 20
17.29257815963693
 30
0.0
 10
60.45713343842049
 20
17.09991929882273
 30
0.0
 10
61.9328376393045
 20
17.12330362112354
 30
0.0
 10
62.49032072384249
 20
17.14648292000931
 30
0.0
 10
62.53157197549731
 20
17.1483366129219
 30
0.0
  0
SPLINE
  5
63
330
1F
100
AcDbEntity
  8
DEFAULT
 62
     7
100
AcDbSpline
210
0.0
220
0.0
230
1.0
 70
     8
 71
     3
 72
    12
 73
     8
 74
     0
 42
0.0000000001
 43
0.0000000001
 40
20.01868398555278
 40
20.01868398555278
 40
20.01868398555278
 40
20.01868398555278
 40
21.0
 40
22.0
 40
23.0
 40
24.0
 40
25.0
 40
25.0
 40
25.0
 40
25.0
 10
59.2173252321701
 20
21.5740421331181
 30
0.0
 10
58.64318175222268
 20
21.5902780526689
 30
0.0
 10
57.41224022836521
 20
21.62671706106485
 30
0.0
 10
54.92327345772622
 20
21.69509526904944
 30
0.0
 10
51.44165261586957
 20
21.77766335225552
 30
0.0
 10
48.05636120442004
 20
21.7639020050545
 30
0.0
 10
45.51051197223237
 20
21.64004988024538
 30
0.0
 10
43.77658222490456
 20
21.19968676981292
 30
0.0
  0
ARC
  5
64
330
1F
100
AcDbEntity
  8
DEFAULT
 62
     7
100
AcDbCircle
 10
59.37993267815974
 20
19.97076220640407
 30
0.0
 40
0.3351370534582756
100
AcDbArc
 50
269.9999999999988
 51
323.7130531885305
  0
LINE
  5
65
330
1F
100
AcDbEntity
  8
DEFAULT
 62
     7
100
AcDbLine
 10
59.37993267815973
 20
19.6356251529458
 30
0.0
 11
55.66672893200787
 21
19.63562515294588
 31
0.0
  0
SPLINE
  5
66
330
1F
100
AcDbEntity
  8
DEFAULT
 62
     7
100
AcDbSpline
210
0.0
220
0.0
230
1.0
 70
     8
 71
     5
 72
    12
 73
     6
 74
     0
 42
0.0000000001
 43
0.0000000001
 40
3.713203746151862
 40
3.713203746151862
 40
3.713203746151862
 40
3.713203746151862
 40
3.713203746151862
 40
3.713203746151862
 40
4.713203746151862
 40
4.713203746151862
 40
4.713203746151862
 40
4.713203746151862
 40
4.713203746151862
 40
4.713203746151862
 10
55.66672893200787
 20
19.63562515294588
 30
0.0
 10
55.41672893200787
 20
19.63562515294589
 30
0.0
 10
55.00599692599861
 20
19.34907991148794
 30
0.0
 10
55.00599692599858
 20
18.67217039440335
 30
0.0
 10
55.41672893200784
 20
18.38562515294589
 30
0.0
 10
55.66672893200784
 20
18.38562515294588
 30
0.0
  0
LINE
  5
67
330
1F
100
AcDbEntity
  8
DEFAULT
 62
     7
100
AcDbLine
 10
55.66672893200784
 20
18.38562515294588
 30
0.0
 11
59.37993267815973
 21
18.3856251529458
 31
0.0
  0
ARC
  5
68
330
1F
100
AcDbEntity
  8
DEFAULT
 62
     7
100
AcDbCircle
 10
59.37993267815965
 20
19.97076220640422
 30
0.0
 40
1.585137053458421
100
AcDbArc
 50
270.0000000000031
 51
323.7130531885242
  0
ARC
  5
69
330
1F
100
AcDbEntity
  8
DEFAULT
 62
     7
100
AcDbCircle
 10
59.37993267815979
 20
19.97076220640411
 30
0.0
 40
1.585137053458243
100
AcDbArc
 50
323.7130531885242
 51
17.42610637705148
  0
LINE
  5
6A
330
1F
100
AcDbEntity
  8
DEFAULT
 62
     7
100
AcDbLine
 10
60.89231823996295
 20
20.44547200269615
 30
0.0
 11
58.26504762978504
 21
28.81573562232111
 31
0.0
  0
ARC
  5
6B
330
1F
100
AcDbEntity
  8
DEFAULT
 62
     7
100
AcDbCircle
 10
56.75266206798176
 20
28.34102582602926
 30
0.0
 40
1.585137053458308
100
AcDbArc
 50
17.42610637704372
 51
90.00000000000026
  0
LINE
  5
6C
330
1F
100
AcDbEntity
  8
DEFAULT
 62
     7
100
AcDbLine
 10
56.75266206798175
 20
29.92616287948756
 30
0.0
 11
44.080846073186
 21
29.92616287948756
 31
0.0
  0
SPLINE
  5
6D
330
1F
100
AcDbEntity
  8
DEFAULT
 62
     7
100
AcDbSpline
210
0.0
220
0.0
230
1.0
 70
     8
 71
     5
 72
    12
 73
     6
 74
     0
 42
0.0000000001
 43
0.0000000001
 40
34.8509835107455
 40
34.8509835107455
 40
34.8509835107455
 40
34.8509835107455
 40
34.8509835107455
 40
34.8509835107455
 40
35.8509835107455
 40
35.8509835107455
 40
35.8509835107455
 40
35.8509835107455
 40
35.8509835107455
 40
35.8509835107455
 10
44.080846073186
 20
29.92616287948756
 30
0.0
 10
43.830846073186
 20
29.92616287948756
 30
0.0
 10
43.42011406717673
 20
29.65221935260633
 30
0.0
 10
43.42011406717673
 20
28.95010640636855
 30
0.0
 10
43.830846073186
 20
28.67616287948756
 30
0.0
 10
44.080846073186
 20
28.67616287948756
 30
0.0
  0
LINE
  5
6E
330
1F
100
AcDbEntity
  8
DEFAULT
 62
     7
100
AcDbLine
 10
44.080846073186
 20
28.67616287948756
 30
0.0
 11
56.75266206798175
 21
28.67616287948756
 31
0.0
  0
ARC
  5
6F
330
1F
100
AcDbEntity
  8
DEFAULT
 62
     7
100
AcDbCircle
 10
56.75266206798164
 20
28.34102582602908
 30
0.0
 40
0.3351370534584842
100
AcDbArc
 50
17.42610637705167
 51
89.99999999998057
  0
LINE
  5
70
330
1F
100
AcDbEntity
  8
DEFAULT
 62
     7
100
AcDbLine
 10
57.07241766247113
 20
28.44139118057688
 30
0.0
 11
59.69968827264905
 21
20.07112756095186
 31
0.0
  0
ARC
  5
71
330
1F
100
AcDbEntity
  8
DEFAULT
 62
     7
100
AcDbCircle
 10
59.37993267815994
 20
19.97076220640407
 30
0.0
 40
0.3351370534581146
100
AcDbArc
 50
323.713053188512
 51
17.42610637706864
  0
SPLINE
  5
72
330
1F
100
AcDbEntity
  8
DEFAULT
 62
     7
100
AcDbSpline
210
0.0
220
0.0
230
1.0
 70
     8
 71
     3
 72
    14
 73
    10
 74
     0
 42
0.0000000001
 43
0.0000000001
 40
14.67289428019365
 40
14.67289428019365
 40
14.67289428019365
 40
14.67289428019365
 40
15.0
 40
16.0
 40
17.0
 40
18.0
 40
19.0
 40
20.0
 40
21.0
 40
21.0
 40
21.0
 40
21.0
 10
22.93882928862397
 20
18.94233684660184
 30
0.0
 10
22.87677705946687
 20
18.89750212467408
 30
0.0
 10
22.61345368156967
 20
18.72043918645214
 30
0.0
 10
22.11693957882795
 20
18.49539804969595
 30
0.0
 10
20.77812691246099
 20
18.0674169514311
 30
0.0
 10
19.05522864508711
 20
17.70527909905315
 30
0.0
 10
16.61902854727182
 20
17.36508899530417
 30
0.0
 10
14.8632086569545
 20
17.16755925764348
 30
0.0
 10
13.56824715064977
 20
17.10095296765838
 30
0.0
 10
13.11890668669656
 20
17.10095296765838
 30
0.0
  0
SPLINE
  5
73
330
1F
100
AcDbEntity
  8
DEFAULT
 62
     7
100
AcDbSpline
210
0.0
220
0.0
230
1.0
 70
     8
 71
     3
 72
    14
 73
    10
 74
     0
 42
0.0000000001
 43
0.0000000001
 40
14.67289428019254
 40
14.67289428019254
 40
14.67289428019254
 40
14.67289428019254
 40
15.0
 40
16.0
 40
17.0
 40
18.0
 40
19.0
 40
20.0
 40
21.0
 40
21.0
 40
21.0
 40
21.0
 10
3.298984084768525
 20
18.94233684660229
 30
0.0
 10
3.361036313925816
 20
18.89750212467437
 30
0.0
 10
3.624359691823217
 20
18.72043918645224
 30
0.0
 10
4.120873794565171
 20
18.49539804969595
 30
0.0
 10
5.459686460932133
 20
18.0674169514311
 30
0.0
 10
7.18258472830601
 20
17.70527909905315
 30
0.0
 10
9.618784826121296
 20
17.36508899530417
 30
0.0
 10
11.37460471643862
 20
17.16755925764348
 30
0.0
 10
12.66956622274335
 20
17.10095296765838
 30
0.0
 10
13.11890668669656
 20
17.10095296765838
 30
0.0
  0
ARC
  5
74
330
1F
100
AcDbEntity
  8
DEFAULT
 62
     7
100
AcDbCircle
 10
13.85515103934517
 20
105.6804588550918
 30
0.0
 40
84.18637748654439
100
AcDbArc
 50
265.6097171621162
 51
269.4989185531916
  0
ARC
  5
75
330
1F
100
AcDbEntity
  8
DEFAULT
 62
     7
100
AcDbCircle
 10
13.60488312602394
 20
77.06449293954361
 30
0.0
 40
55.56931720236682
100
AcDbArc
 50
269.4989185531915
 51
275.3924594688548
  0
SPLINE
  5
76
330
1F
100
AcDbEntity
  8
DEFAULT
 62
     7
100
AcDbSpline
210
0.0
220
0.0
230
1.0
 70
     8
 71
     3
 72
    15
 73
    11
 74
     0
 42
0.0000000001
 43
0.0000000001
 40
0.0
 40
0.0
 40
0.0
 40
0.0
 40
1.0
 40
2.0
 40
3.0
 40
4.0
 40
5.0
 40
6.0
 40
7.0
 40
8.0
 40
8.0
 40
8.0
 40
8.0
 10
4.170961213335193
 20
18.52937460649437
 30
0.0
 10
3.978613164841732
 20
19.06460395882399
 30
0.0
 10
3.894983578540231
 20
19.75872952512647
 30
0.0
 10
3.944923637940523
 20
20.16319264194122
 30
0.0
 10
4.028378519053142
 20
20.84618505232967
 30
0.0
 10
4.373120925764486
 20
21.65299685881889
 30
0.0
 10
4.842512380131385
 20
21.89725807126109
 30
0.0
 10
5.214836559152047
 20
21.98907684276221
 30
0.0
 10
5.824457004621895
 20
21.99596312581047
 30
0.0
 10
6.483253247424418
 20
21.92396353643315
 30
0.0
 10
7.410581249601073
 20
21.7399563872624
 30
0.0
  0
SPLINE
  5
77
330
1F
100
AcDbEntity
  8
DEFAULT
 62
     7
100
AcDbSpline
210
0.0
220
0.0
230
1.0
 70
     8
 71
     3
 72
    15
 73
    11
 74
     0
 42
0.0000000001
 43
0.0000000001
 40
8.0
 40
8.0
 40
8.0
 40
8.0
 40
9.0
 40
10.0
 40
11.0
 40
12.0
 40
13.0
 40
14.0
 40
15.0
 40
15.8288672437425
 40
15.8288672437425
 40
15.8288672437425
 40
15.8288672437425
 10
7.410581249601073
 20
21.7399563872624
 30
0.0
 10
7.134831836540933
 20
21.86902224519582
 30
0.0
 10
6.497635470551607
 20
22.07422107492119
 30
0.0
 10
5.788439515184958
 20
22.21462027420698
 30
0.0
 10
5.248442594855021
 20
22.22902019208244
 30
0.0
 10
4.630137459110156
 20
22.15054058170775
 30
0.0
 10
4.226048425697009
 20
22.05622117757687
 30
0.0
 10
3.725651279524602
 20
21.82582249156943
 30
0.0
 10
3.450686951588828
 20
21.65948604627495
 30
0.0
 10
3.337640308890123
 20
21.54041674859746
 30
0.0
 10
3.299060961774554
 20
21.4832325614728
 30
0.0
  0
LINE
  5
78
330
1F
100
AcDbEntity
  8
DEFAULT
 62
     7
100
AcDbLine
 10
0.9042683129697515
 20
18.78345211224472
 30
0.0
 11
0.9045578014321904
 21
29.46966709583337
 31
-0.0000000000000001
  0
SPLINE
  5
79
330
1F
100
AcDbEntity
  8
DEFAULT
 62
     7
100
AcDbSpline
210
0.0
220
0.0
230
1.0
 70
     8
 71
     3
 72
     9
 73
     5
 74
     0
 42
0.0000000001
 43
0.0000000001
 40
10.68621498750975
 40
10.68621498750975
 40
10.68621498750975
 40
10.68621498750975
 40
11.68621498750975
 40
12.68621498750975
 40
12.68621498750975
 40
12.68621498750975
 40
12.68621498750975
 10
0.9045578014321904
 20
29.46966709583337
 30
-0.0000000000000001
 10
0.9045578014321904
 20
29.80282298837252
 30
-0.0000000000000001
 10
2.101971374086023
 20
30.13788210950683
 30
0.0
 10
3.299397632722396
 20
29.80282298788946
 30
0.0000000000000001
 10
3.299384946739863
 20
29.46966709583337
 30
0.0000000000000001
  0
LINE
  5
7A
330
1F
100
AcDbEntity
  8
DEFAULT
 62
     7
100
AcDbLine
 10
3.299384946739863
 20
29.46966709583337
 30
0.0000000000000001
 11
3.298978034721046
 21
18.78345211224472
 31
-0.0000000000000001
  0
SPLINE
  5
7B
330
1F
100
AcDbEntity
  8
DEFAULT
 62
     7
100
AcDbSpline
210
0.0
220
0.0
230
1.0
 70
     8
 71
     3
 72
     9
 73
     5
 74
     0
 42
0.0000000001
 43
0.0000000001
 40
23.37242997884564
 40
23.37242997884564
 40
23.37242997884564
 40
23.37242997884564
 40
24.37242997884564
 40
25.37242997884564
 40
25.37242997884564
 40
25.37242997884564
 40
25.37242997884564
 10
3.298978034721046
 20
18.78345211224472
 30
-0.0000000000000001
 10
3.298978034721049
 20
18.52040455263157
 30
0.0
 10
2.1016231738454
 20
18.24249747615311
 30
0.0
 10
0.9042611870384789
 20
18.52040455282461
 30
0.0
 10
0.9042683129697515
 20
18.78345211224472
 30
0.0
  0
SPLINE
  5
7C
330
1F
100
AcDbEntity
  8
DEFAULT
 62
     7
100
AcDbSpline
210
0.0
220
0.0
230
1.0
 70
     8
 71
     3
 72
    15
 73
    11
 74
     0
 42
0.0000000001
 43
0.0000000001
 40
0.0
 40
0.0
 40
0.0
 40
0.0
 40
1.0
 40
2.0
 40
3.0
 40
4.0
 40
5.0
 40
6.0
 40
7.0
 40
8.0
 40
8.0
 40
8.0
 40
8.0
 10
22.0668521600573
 20
18.52937460649437
 30
0.0
 10
22.25920020855076
 20
19.06460395882399
 30
0.0
 10
22.34282979485226
 20
19.75872952512647
 30
0.0
 10
22.29288973545197
 20
20.16319264194122
 30
0.0
 10
22.20943485433935
 20
20.84618505232967
 30
0.0
 10
21.86469244762801
 20
21.65299685881889
 30
0.0
 10
21.39530099326111
 20
21.89725807126109
 30
0.0
 10
21.02297681424044
 20
21.98907684276221
 30
0.0
 10
20.4133563687706
 20
21.99596312581047
 30
0.0
 10
19.75456012596807
 20
21.92396353643315
 30
0.0
 10
18.82723212379142
 20
21.7399563872624
 30
0.0
  0
SPLINE
  5
7D
330
1F
100
AcDbEntity
  8
DEFAULT
 62
     7
100
AcDbSpline
210
0.0
220
0.0
230
1.0
 70
     8
 71
     3
 72
    15
 73
    11
 74
     0
 42
0.0000000001
 43
0.0000000001
 40
8.0
 40
8.0
 40
8.0
 40
8.0
 40
9.0
 40
10.0
 40
11.0
 40
12.0
 40
13.0
 40
14.0
 40
15.0
 40
15.8288672437425
 40
15.8288672437425
 40
15.8288672437425
 40
15.8288672437425
 10
18.82723212379142
 20
21.7399563872624
 30
0.0
 10
19.10298153685156
 20
21.86902224519582
 30
0.0
 10
19.74017790284088
 20
22.07422107492119
 30
0.0
 10
20.44937385820753
 20
22.21462027420698
 30
0.0
 10
20.98937077853747
 20
22.22902019208244
 30
0.0
 10
21.60767591428234
 20
22.15054058170775
 30
0.0
 10
22.01176494769548
 20
22.05622117757687
 30
0.0
 10
22.51216209386789
 20
21.82582249156943
 30
0.0
 10
22.78712642180366
 20
21.65948604627495
 30
0.0
 10
22.90017306450237
 20
21.54041674859746
 30
0.0
 10
22.93875241161794
 20
21.4832325614728
 30
0.0
  0
LINE
  5
7E
330
1F
100
AcDbEntity
  8
DEFAULT
 62
     7
100
AcDbLine
 10
25.33354506042274
 20
18.78345211224472
 30
0.0
 11
25.3332555719603
 21
29.46966709583337
 31
-0.0000000000000001
  0
SPLINE
  5
7F
330
1F
100
AcDbEntity
  8
DEFAULT
 62
     7
100
AcDbSpline
210
0.0
220
0.0
230
1.0
 70
     8
 71
     3
 72
     9
 73
     5
 74
     0
 42
0.0000000001
 43
0.0000000001
 40
10.68621498750975
 40
10.68621498750975
 40
10.68621498750975
 40
10.68621498750975
 40
11.68621498750975
 40
12.68621498750975
 40
12.68621498750975
 40
12.68621498750975
 40
12.68621498750975
 10
25.3332555719603
 20
29.46966709583337
 30
-0.0000000000000001
 10
25.3332555719603
 20
29.80282298837252
 30
-0.0000000000000001
 10
24.13584199930647
 20
30.13788210950683
 30
0.0
 10
22.9384157406701
 20
29.80282298788946
 30
0.0000000000000001
 10
22.93842842665263
 20
29.46966709583337
 30
0.0000000000000001
  0
LINE
  5
80
330
1F
100
AcDbEntity
  8
DEFAULT
 62
     7
100
AcDbLine
 10
22.93842842665263
 20
29.46966709583337
 30
0.0000000000000001
 11
22.93883533867145
 21
18.78345211224472
 31
-0.0000000000000001
  0
SPLINE
  5
81
330
1F
100
AcDbEntity
  8
DEFAULT
 62
     7
100
AcDbSpline
210
0.0
220
0.0
230
1.0
 70
     8
 71
     3
 72
     9
 73
     5
 74
     0
 42
0.0000000001
 43
0.0000000001
 40
23.37242997884564
 40
23.37242997884564
 40
23.37242997884564
 40
23.37242997884564
 40
24.37242997884564
 40
25.37242997884564
 40
25.37242997884564
 40
25.37242997884564
 40
25.37242997884564
 10
22.93883533867145
 20
18.78345211224472
 30
-0.0000000000000001
 10
22.93883533867144
 20
18.52040455263157
 30
0.0
 10
24.13619019954709
 20
18.24249747615311
 30
0.0
 10
25.33355218635401
 20
18.52040455282461
 30
0.0
 10
25.33354506042274
 20
18.78345211224472
 30
0.0
  0
SPLINE
  5
82
330
1F
100
AcDbEntity
  8
DEFAULT
 62
     7
100
AcDbSpline
210
0.0
220
0.0
230
1.0
 70
     8
 71
     3
 72
    16
 73
    12
 74
     0
 42
0.0000000001
 43
0.0000000001
 40
0.0
 40
0.0
 40
0.0
 40
0.0
 40
0.1046095727844
 40
0.203493889368
 40
0.3020105053538
 40
0.4024152042336
 40
0.5060597585786
 40
0.6149519922982
 40
0.7316177235484001
 40
0.8590036138881
 40
1.0
 40
1.0
 40
1.0
 40
1.0
 10
51.17623745744169
 20
13.07422741132396
 30
0.0
 10
51.16737645872168
 20
13.11531172119096
 30
0.0
 10
51.13774544183168
 20
13.19330638208896
 30
0.0
 10
51.05986203649168
 20
13.28867789287396
 30
0.0
 10
50.96048908641168
 20
13.35758815463096
 30
0.0
 10
50.84697648620168
 20
13.40322619753096
 30
0.0
 10
50.72340127864168
 20
13.42905077186096
 30
0.0
 10
50.59103374004168
 20
13.43744043441696
 30
0.0
 10
50.44916400571168
 20
13.42925398045396
 30
0.0
 10
50.29631523460168
 20
13.40374203115296
 30
0.0
 10
50.19208336086168
 20
13.37532068302996
 30
0.0
 10
50.13818491001168
 20
13.35788595134996
 30
0.0
  0
LINE
  5
83
330
1F
100
AcDbEntity
  8
DEFAULT
 62
     7
100
AcDbLine
 10
51.64399623891168
 20
13.22621145250896
 30
0.0
 11
51.60230884394169
 21
13.07961495141796
 31
0.0
  0
LINE
  5
84
330
1F
100
AcDbEntity
  8
DEFAULT
 62
     7
100
AcDbLine
 10
56.27691771000168
 20
16.21369098632496
 30
0.0
 11
56.32434340781168
 21
16.29812070313795
 31
0.0
  0
LINE
  5
85
330
1F
100
AcDbEntity
  8
DEFAULT
 62
     7
100
AcDbLine
 10
53.39598378518168
 20
16.59476297233296
 30
0.0
 11
53.41706625045168
 21
16.22284660890195
 31
0.0
  0
LINE
  5
86
330
1F
100
AcDbEntity
  8
DEFAULT
 62
     7
100
AcDbLine
 10
53.41704757441168
 20
16.22281826248695
 30
0.0
 11
53.41976502181168
 21
16.17088108778896
 31
0.0
  0
ARC
  5
87
330
1F
100
AcDbEntity
  8
DEFAULT
 62
     7
100
AcDbCircle
 10
54.10071140330655
 20
11.02144074248836
 30
0.0
 40
5.809745021571525
100
AcDbArc
 50
73.05553479709921
 51
96.33010820377821
  0
ARC
  5
88
330
1F
100
AcDbEntity
  8
DEFAULT
 62
     7
100
AcDbCircle
 10
54.4165025021708
 20
10.9709549017741
 30
0.0
 40
5.77469935036358
100
AcDbArc
 50
76.20031330820903
 51
97.66749527772541
  0
ARC
  5
89
330
1F
100
AcDbEntity
  8
DEFAULT
 62
     7
100
AcDbCircle
 10
54.56882310115271
 20
15.74918349184874
 30
0.0
 40
1.145106238511702
100
AcDbArc
 50
202.0031151127582
 51
225.2265731252261
  0
LINE
  5
8A
330
1F
100
AcDbEntity
  8
DEFAULT
 62
     7
100
AcDbLine
 10
53.47923525194168
 20
15.40106534743496
 30
0.0
 11
53.50712240896169
 21
15.32016142052895
 31
0.0
  0
ARC
  5
8B
330
1F
100
AcDbEntity
  8
DEFAULT
 62
     7
100
AcDbCircle
 10
53.20353253794275
 20
15.72383584409259
 30
0.0
 40
1.100359924837948
100
AcDbArc
 50
314.9156648519411
 51
344.5347524279134
  0
LINE
  5
8C
330
1F
100
AcDbEntity
  8
DEFAULT
 62
     7
100
AcDbLine
 10
53.92788991967168
 20
16.06932007996895
 30
0.0
 11
53.95020165444168
 21
16.06488841745795
 31
0.0
  0
SPLINE
  5
8D
330
1F
100
AcDbEntity
  8
DEFAULT
 62
     7
100
AcDbSpline
210
0.0
220
0.0
230
1.0
 70
     8
 71
     3
 72
     9
 73
     5
 74
     0
 42
0.0000000001
 43
0.0000000001
 40
0.0
 40
0.0
 40
0.0
 40
0.0
 40
0.5152894318114
 40
1.0
 40
1.0
 40
1.0
 40
1.0
 10
53.92700538895168
 20
16.07047979664296
 30
0.0
 10
53.92536597809168
 20
16.07033135292296
 30
0.0
 10
53.92343544799169
 20
16.07004812382895
 30
0.0
 10
53.92614472646168
 20
16.06957715541696
 30
0.0
 10
53.92788991967168
 20
16.06932007996895
 30
0.0
  0
SPLINE
  5
8E
330
1F
100
AcDbEntity
  8
DEFAULT
 62
     7
100
AcDbSpline
210
0.0
220
0.0
230
1.0
 70
     8
 71
     3
 72
    26
 73
    22
 74
     0
 42
0.0000000001
 43
0.0000000001
 40
0.0
 40
0.0
 40
0.0
 40
0.0
 40
0.02178645695432
 40
0.05543916163839
 40
0.09014996324618
 40
0.1262452193504
 40
0.1642612412347
 40
0.2046009615285
 40
0.2475027514138
 40
0.2931787155352
 40
0.3418748605504
 40
0.3938364745579
 40
0.4491505813239
 40
0.5077316012309
 40
0.5695959348718001
 40
0.6347879611201001
 40
0.7033191873242
 40
0.7751632767017
 40
0.8502529837437
 40
0.9283948040111
 40
1.0
 40
1.0
 40
1.0
 40
1.0
 10
54.01884029195168
 20
16.06502287340896
 30
0.0
 10
54.03240003578168
 20
16.06880011007096
 30
0.0
 10
54.06661027667168
 20
16.07951757161596
 30
0.0
 10
54.12132735895168
 20
16.09945461085096
 30
0.0
 10
54.18426550639168
 20
16.12379471163895
 30
0.0
 10
54.24988725065168
 20
16.14900286544996
 30
0.0
 10
54.31930354779168
 20
16.17446365843096
 30
0.0
 10
54.39348980729168
 20
16.19963461633396
 30
0.0
 10
54.47317221720169
 20
16.22390046125096
 30
0.0
 10
54.55893844603168
 20
16.24651952173996
 30
0.0
 10
54.65124558609168
 20
16.26701195026796
 30
0.0
 10
54.75046717335169
 20
16.28470558417596
 30
0.0
 10
54.85672830294168
 20
16.29871105797696
 30
0.0
 10
54.96993940946168
 20
16.30796521899096
 30
0.0
 10
55.08987515028168
 20
16.31122999210496
 30
0.0
 10
55.21623672427168
 20
16.30753799453895
 30
0.0
 10
55.34859561166169
 20
16.29588471875795
 30
0.0
 10
55.48634821041168
 20
16.27537374216195
 30
0.0
 10
55.62867268176168
 20
16.24520212670696
 30
0.0
 10
55.76875282981168
 20
16.20654232003595
 30
0.0
 10
55.86053831315169
 20
16.17581369585696
 30
0.0
 10
55.90398054981169
 20
16.15992156909496
 30
0.0
  0
LINE
  5
8F
330
1F
100
AcDbEntity
  8
DEFAULT
 62
     7
100
AcDbLine
 10
56.05885193209168
 20
16.12274635787195
 30
0.0
 11
56.10048004279168
 21
16.12868734119396
 31
0.0
  0
LINE
  5
90
330
1F
100
AcDbEntity
  8
DEFAULT
 62
     7
100
AcDbLine
 10
56.03017742582168
 20
16.12513896295096
 30
0.0
 11
56.05885193209168
 21
16.12274635787195
 31
0.0
  0
LINE
  5
91
330
1F
100
AcDbEntity
  8
DEFAULT
 62
     7
100
AcDbLine
 10
55.91083496503168
 20
16.15741908147696
 30
0.0
 11
56.03017742582168
 21
16.12513896295096
 31
0.0
  0
LINE
  5
92
330
1F
100
AcDbEntity
  8
DEFAULT
 62
     7
100
AcDbLine
 10
56.26237859862169
 20
16.19539026273996
 30
0.0
 11
56.27558061132168
 21
16.21153059540496
 31
0.0
  0
LINE
  5
93
330
1F
100
AcDbEntity
  8
DEFAULT
 62
     7
100
AcDbLine
 10
56.23621061455168
 20
16.17837718405496
 30
0.0
 11
56.26237859862169
 21
16.19539026273996
 31
0.0
  0
LINE
  5
94
330
1F
100
AcDbEntity
  8
DEFAULT
 62
     7
100
AcDbLine
 10
56.10049150086169
 20
16.12869139822195
 30
0.0
 11
56.22611043455168
 21
16.17401905158496
 31
0.0
  0
LINE
  5
95
330
1F
100
AcDbEntity
  8
DEFAULT
 62
     7
100
AcDbLine
 10
56.06786976745168
 20
16.22068532582595
 30
0.0
 11
56.21692911715169
 21
16.17557554728695
 31
0.0
  0
LINE
  5
96
330
1F
100
AcDbEntity
  8
DEFAULT
 62
     7
100
AcDbLine
 10
56.21692925600168
 20
16.17557484965695
 30
0.0
 11
56.16669388346168
 21
16.18241047670096
 31
0.0
  0
ARC
  5
97
330
1F
100
AcDbEntity
  8
DEFAULT
 62
     7
100
AcDbCircle
 10
54.86910048917828
 20
13.31935689742768
 30
0.0
 40
3.13922807126533
100
AcDbArc
 50
67.55057613714175
 51
109.4847213587457
  0
ARC
  5
98
330
1F
100
AcDbEntity
  8
DEFAULT
 62
     7
100
AcDbCircle
 10
53.68992058974134
 20
16.5403754855795
 30
0.0
 40
0.2930248997752512
100
AcDbArc
 50
260.5763307775558
 51
296.790338044417
  0
ARC
  5
99
330
1F
100
AcDbEntity
  8
DEFAULT
 62
     7
100
AcDbCircle
 10
54.08084893465966
 20
16.72591162054466
 30
0.0
 40
0.6645504455762405
100
AcDbArc
 50
226.2918316685579
 51
252.0955914267408
  0
ARC
  5
9A
330
1F
100
AcDbEntity
  8
DEFAULT
 62
     7
100
AcDbCircle
 10
53.71089954769845
 20
16.37072052909938
 30
0.0
 40
0.1380490062357339
100
AcDbArc
 50
234.0611546427217
 51
235.5134248220838
  0
LINE
  5
9B
330
1F
100
AcDbEntity
  8
DEFAULT
 62
     7
100
AcDbLine
 10
53.95614937899168
 20
16.06312664574896
 30
0.0
 11
53.98654447047168
 21
16.05966442141695
 31
0.0
  0
LINE
  5
9C
330
1F
100
AcDbEntity
  8
DEFAULT
 62
     7
100
AcDbLine
 10
56.26905473490168
 20
16.21211982579496
 30
0.0
 11
56.21734335161168
 21
16.17565716607696
 31
0.0
  0
LINE
  5
9D
330
1F
100
AcDbEntity
  8
DEFAULT
 62
     7
100
AcDbLine
 10
56.33169438585168
 20
16.31844496727695
 30
0.0
 11
56.32164803700169
 21
16.38349690114995
 31
0.0
  0
LINE
  5
9E
330
1F
100
AcDbEntity
  8
DEFAULT
 62
     7
100
AcDbLine
 10
56.32422059431168
 20
16.29794746860596
 30
0.0
 11
56.33169438585168
 21
16.31844496727695
 31
0.0
  0
LINE
  5
9F
330
1F
100
AcDbEntity
  8
DEFAULT
 62
     7
100
AcDbLine
 10
56.31179396415168
 20
16.39779284324796
 30
0.0
 11
56.17534199426168
 21
16.46288523352295
 31
0.0
  0
LINE
  5
A0
330
1F
100
AcDbEntity
  8
DEFAULT
 62
     7
100
AcDbLine
 10
56.17534539351168
 20
16.46288158506896
 30
0.0
 11
55.87592219232168
 21
16.55703152867996
 31
0.0
  0
LINE
  5
A1
330
1F
100
AcDbEntity
  8
DEFAULT
 62
     7
100
AcDbLine
 10
53.40568882456169
 20
16.65352836873296
 30
0.0
 11
53.42199833547168
 21
16.60576277825195
 31
0.0
  0
LINE
  5
A2
330
1F
100
AcDbEntity
  8
DEFAULT
 62
     7
100
AcDbLine
 10
53.39621831421169
 20
16.69471475419095
 30
0.0
 11
53.40568882456169
 21
16.65352836873296
 31
0.0
  0
LINE
  5
A3
330
1F
100
AcDbEntity
  8
DEFAULT
 62
     7
100
AcDbLine
 10
53.39289300564168
 20
16.67586821212296
 30
0.0
 11
53.39381381423168
 21
16.63589155584096
 31
0.0
  0
ARC
  5
A4
330
1F
100
AcDbEntity
  8
DEFAULT
 62
     7
100
AcDbCircle
 10
53.47688350395779
 20
16.70956357400483
 30
0.0
 40
0.0877849320355607
100
AcDbArc
 50
100.9873823870641
 51
196.1937578419694
  0
LINE
  5
A5
330
1F
100
AcDbEntity
  8
DEFAULT
 62
     7
100
AcDbLine
 10
53.41981367818168
 20
16.17104666894895
 30
0.0
 11
53.46210517359168
 21
15.47997990676296
 31
0.0
  0
LINE
  5
A6
330
1F
100
AcDbEntity
  8
DEFAULT
 62
     7
100
AcDbLine
 10
53.41976502181168
 20
16.17088108778896
 30
0.0
 11
53.46202651335168
 21
15.48884583684896
 31
0.0
  0
LINE
  5
A7
330
1F
100
AcDbEntity
  8
DEFAULT
 62
     7
100
AcDbLine
 10
56.17476162155168
 20
16.46305408754396
 30
0.0
 11
55.87569210550168
 21
16.55709135877796
 31
0.0
  0
LINE
  5
A8
330
1F
100
AcDbEntity
  8
DEFAULT
 62
     7
100
AcDbLine
 10
54.26394651200168
 20
15.43006054807396
 30
0.0
 11
54.26880773922168
 21
15.45050924541696
 31
0.0
  0
LINE
  5
A9
330
1F
100
AcDbEntity
  8
DEFAULT
 62
     7
100
AcDbLine
 10
54.27254988947168
 20
15.48039568016296
 30
0.0
 11
54.30947172753168
 21
16.17062765706996
 31
0.0
  0
ARC
  5
AA
330
1F
100
AcDbEntity
  8
DEFAULT
 62
     7
100
AcDbCircle
 10
56.05720948884934
 20
16.48138386176148
 30
0.0
 40
0.3554942085844686
100
AcDbArc
 50
245.6854392540915
 51
276.873688140674
  0
LINE
  5
AB
330
1F
100
AcDbEntity
  8
DEFAULT
 62
     7
100
AcDbLine
 10
56.26063378290169
 20
16.19379512307496
 30
0.0
 11
56.27558039042168
 21
16.21153193783096
 31
0.0
  0
LINE
  5
AC
330
1F
100
AcDbEntity
  8
DEFAULT
 62
     7
100
AcDbLine
 10
56.23621061469168
 20
16.17837718375495
 30
0.0
 11
56.26063378290169
 21
16.19379512307496
 31
0.0
  0
LINE
  5
AD
330
1F
100
AcDbEntity
  8
DEFAULT
 62
     7
100
AcDbLine
 10
56.15299295463168
 20
16.14685885768495
 30
0.0
 11
56.22699578062169
 21
16.17438461005796
 31
0.0
  0
LINE
  5
AE
330
1F
100
AcDbEntity
  8
DEFAULT
 62
     7
100
AcDbLine
 10
56.12336466574168
 20
16.13653098044195
 30
0.0
 11
56.15299295463168
 21
16.14685885768495
 31
0.0
  0
LINE
  5
AF
330
1F
100
AcDbEntity
  8
DEFAULT
 62
     7
100
AcDbLine
 10
56.10049150080168
 20
16.12869139841996
 30
0.0
 11
56.12336466574168
 21
16.13653098044195
 31
0.0
  0
ARC
  5
B0
330
1F
100
AcDbEntity
  8
DEFAULT
 62
     7
100
AcDbCircle
 10
56.24422077005764
 20
16.33834964934393
 30
0.0
 40
0.0896297111369504
100
AcDbArc
 50
333.2202335137673
 51
30.24612339277867
  0
LINE
  5
B1
330
1F
100
AcDbEntity
  8
DEFAULT
 62
     7
100
AcDbLine
 10
53.42682332365168
 20
16.03519096074196
 30
0.0
 11
53.45001596178168
 21
15.65265865972496
 31
0.0
  0
LINE
  5
B2
330
1F
100
AcDbEntity
  8
DEFAULT
 62
     7
100
AcDbLine
 10
54.29872742635168
 20
15.96776521129796
 30
0.0
 11
54.30947191617168
 21
16.17062777804696
 31
0.0
  0
ARC
  5
B3
330
1F
100
AcDbEntity
  8
DEFAULT
 62
     7
100
AcDbCircle
 10
55.28258591831168
 20
15.91413401872896
 30
0.0
 40
0.3937004428996763
100
AcDbArc
 50
184.9999668273269
 51
256.0209722047184
  0
ARC
  5
B4
330
1F
100
AcDbEntity
  8
DEFAULT
 62
     7
100
AcDbCircle
 10
56.95203691831168
 20
15.91413401872896
 30
0.0
 40
0.3937005117896591
100
AcDbArc
 50
283.9790277952819
 51
319.2447530454639
  0
ARC
  5
B5
330
1F
100
AcDbEntity
  8
DEFAULT
 62
     7
100
AcDbCircle
 10
51.07108991831169
 20
17.01911501872895
 30
0.0
 40
0.4921258407589897
100
AcDbArc
 50
186.429560859357
 51
343.5704666158825
  0
ARC
  5
B6
330
1F
100
AcDbEntity
  8
DEFAULT
 62
     7
100
AcDbCircle
 10
56.11026891831168
 20
17.06309101872895
 30
0.0
 40
1.574803599408169
100
AcDbArc
 50
219.7897606840555
 51
308.4861420795911
  0
ARC
  5
B7
330
1F
100
AcDbEntity
  8
DEFAULT
 62
     7
100
AcDbCircle
 10
56.11731191831168
 20
16.25603501872896
 30
0.0
 40
0.4724411526608132
100
AcDbArc
 50
182.0361670875957
 51
136.123635581729
  0
CIRCLE
  5
B8
330
1F
100
AcDbEntity
  8
DEFAULT
 62
     7
100
AcDbCircle
 10
51.07108991831169
 20
17.01911501872895
 30
0.0
 40
0.1968499999999995
  0
ARC
  5
B9
330
1F
100
AcDbEntity
  8
DEFAULT
 62
     7
100
AcDbCircle
 10
56.11731191831168
 20
16.25603501872896
 30
0.0
 40
0.3297244760387017
100
AcDbArc
 50
190.2199230700379
 51
121.5390163193231
  0
ARC
  5
BA
330
1F
100
AcDbEntity
  8
DEFAULT
 62
     7
100
AcDbCircle
 10
51.63204091831168
 20
16.55454801872896
 30
0.0
 40
0.0393695457275486
100
AcDbArc
 50
90.0
 51
140.3694009213388
  0
ARC
  5
BB
330
1F
100
AcDbEntity
  8
DEFAULT
 62
     7
100
AcDbCircle
 10
50.51013891831168
 20
16.55454801872896
 30
0.0
 40
0.0393699308164893
100
AcDbArc
 50
39.62967082352454
 51
90.0
  0
ARC
  5
BC
330
1F
100
AcDbEntity
  8
DEFAULT
 62
     7
100
AcDbCircle
 10
51.07108991831169
 20
17.01911501872895
 30
0.0
 40
0.6889769533201775
100
AcDbArc
 50
219.6308537354261
 51
320.3691993076427
  0
ARC
  5
BD
330
1F
100
AcDbEntity
  8
DEFAULT
 62
     7
100
AcDbCircle
 10
45.06715291831169
 20
16.95452101872895
 30
0.0
 40
0.1968500241554462
100
AcDbArc
 50
94.26860377754299
 51
180.0
  0
ARC
  5
BE
330
1F
100
AcDbEntity
  8
DEFAULT
 62
     7
100
AcDbCircle
 10
53.13151391831168
 20
15.76576901872896
 30
0.0
 40
1.181102438224334
100
AcDbArc
 50
313.8041092386235
 51
316.5728776654648
  0
ARC
  5
BF
330
1F
100
AcDbEntity
  8
DEFAULT
 62
     7
100
AcDbCircle
 10
53.86731191831168
 20
14.99859601872896
 30
0.0
 40
0.1181100751899692
100
AcDbArc
 50
226.1955113738654
 51
313.804138521971
  0
ARC
  5
C0
330
1F
100
AcDbEntity
  8
DEFAULT
 62
     7
100
AcDbCircle
 10
54.60310891831168
 20
15.76576901872896
 30
0.0
 40
1.181102222144637
100
AcDbArc
 50
223.3086286638416
 51
226.1958907613761
  0
ARC
  5
C1
330
1F
100
AcDbEntity
  8
DEFAULT
 62
     7
100
AcDbCircle
 10
54.11765891831168
 20
13.61944101872896
 30
0.0
 40
2.168635128522747
100
AcDbArc
 50
262.6642214883353
 51
313.3357497982428
  0
ARC
  5
C2
330
1F
100
AcDbEntity
  8
DEFAULT
 62
     7
100
AcDbCircle
 10
40.85997091831168
 20
9.838701018728955
 30
0.0
 40
14.96062961087549
100
AcDbArc
 50
8.872692352635283
 51
16.9727503603617
  0
ARC
  5
C3
330
1F
100
AcDbEntity
  8
DEFAULT
 62
     7
100
AcDbCircle
 10
67.06561591831168
 20
18.35343201872896
 30
0.0
 40
14.96063000619491
100
AcDbArc
 50
199.0272548912467
 51
207.1273137063325
  0
ARC
  5
C4
330
1F
100
AcDbEntity
  8
DEFAULT
 62
     7
100
AcDbCircle
 10
55.52487791831168
 20
12.12800301872895
 30
0.0
 40
0.1181096473916334
100
AcDbArc
 50
313.3354242050539
 51
8.873110303454276
  0
ARC
  5
C5
330
1F
100
AcDbEntity
  8
DEFAULT
 62
     7
100
AcDbCircle
 10
53.85583991831168
 20
11.58570001872896
 30
0.0
 40
0.1181107705630595
100
AcDbArc
 50
207.1273796626508
 51
262.6641492174499
  0
CIRCLE
  5
C6
330
1F
100
AcDbEntity
  8
DEFAULT
 62
     7
100
AcDbCircle
 10
57.50313791831169
 20
16.05158601872896
 30
0.0
 40
0.46875
  0
LINE
  5
C7
330
1F
100
AcDbEntity
  8
DEFAULT
 62
     7
100
AcDbLine
 10
58.28266591831169
 20
16.01482401872896
 30
0.0
 11
58.28266591831169
 21
17.00406601872896
 31
0.0
  0
LINE
  5
C8
330
1F
100
AcDbEntity
  8
DEFAULT
 62
     7
100
AcDbLine
 10
55.88039191831168
 20
14.43711501872896
 30
0.0
 11
55.80353691831169
 21
14.67365001872896
 31
0.0
  0
LINE
  5
C9
330
1F
100
AcDbEntity
  8
DEFAULT
 62
     7
100
AcDbLine
 10
54.90019291831168
 20
16.05526001872896
 30
0.0
 11
54.81150491831168
 21
16.29246601872896
 31
0.0
  0
LINE
  5
CA
330
1F
100
AcDbEntity
  8
DEFAULT
 62
     7
100
AcDbLine
 10
54.89038391831168
 20
15.87982101872895
 30
0.0
 11
54.86734891831168
 21
16.14310501872896
 31
0.0
  0
LINE
  5
CB
330
1F
100
AcDbEntity
  8
DEFAULT
 62
     7
100
AcDbLine
 10
55.87569191831168
 20
16.55708901872896
 30
0.0
 11
55.79393091831168
 21
16.57897101872896
 31
0.0
  0
LINE
  5
CC
330
1F
100
AcDbEntity
  8
DEFAULT
 62
     7
100
AcDbLine
 10
50.58205991831169
 20
16.96400601872896
 30
0.0
 11
48.82605091831168
 21
17.11763701872896
 31
0.0
  0
LINE
  5
CD
330
1F
100
AcDbEntity
  8
DEFAULT
 62
     7
100
AcDbLine
 10
53.39215991831168
 20
16.71815401872896
 30
0.0
 11
51.54312191831168
 21
16.87992401872896
 31
0.0
  0
LINE
  5
CE
330
1F
100
AcDbEntity
  8
DEFAULT
 62
     7
100
AcDbLine
 10
57.66620591831168
 20
17.00406601872896
 30
0.0
 11
58.28266591831169
 21
17.00406601872896
 31
0.0
  0
LINE
  5
CF
330
1F
100
AcDbEntity
  8
DEFAULT
 62
     7
100
AcDbLine
 10
53.78555591831168
 20
14.91335501872896
 30
0.0
 11
53.76231791831168
 21
14.93626701872896
 31
0.0
  0
LINE
  5
D0
330
1F
100
AcDbEntity
  8
DEFAULT
 62
     7
100
AcDbLine
 10
56.11731191831168
 20
15.30062201872896
 30
0.0
 11
55.18748091831169
 21
15.53209301872895
 31
0.0
  0
LINE
  5
D1
330
1F
100
AcDbEntity
  8
DEFAULT
 62
     7
100
AcDbLine
 10
51.63204091831168
 20
16.59391801872896
 30
0.0
 11
53.39598891831168
 21
16.59391801872896
 31
0.0
  0
LINE
  5
D2
330
1F
100
AcDbEntity
  8
DEFAULT
 62
     7
100
AcDbLine
 10
44.87030291831168
 20
16.59391801872896
 30
0.0
 11
50.51013891831168
 21
16.59391801872896
 31
0.0
  0
LINE
  5
D3
330
1F
100
AcDbEntity
  8
DEFAULT
 62
     7
100
AcDbLine
 10
51.61186991831168
 20
13.05018801872896
 30
0.0
 11
55.88039191831168
 21
14.43711501872896
 31
0.0
  0
LINE
  5
D4
330
1F
100
AcDbEntity
  8
DEFAULT
 62
     7
100
AcDbLine
 10
57.47934991831168
 20
15.58361501872896
 30
0.0
 11
55.36368791831168
 21
14.43481201872896
 31
0.0
  0
LINE
  5
D5
330
1F
100
AcDbEntity
  8
DEFAULT
 62
     7
100
AcDbLine
 10
58.28266091831168
 20
16.01981201872896
 30
0.0
 11
57.90885391831169
 21
15.81683501872896
 31
0.0
  0
LINE
  5
D6
330
1F
100
AcDbEntity
  8
DEFAULT
 62
     7
100
AcDbLine
 10
55.36368791831168
 20
14.43481201872896
 30
0.0
 11
51.17623791831169
 21
13.07422701872896
 31
0.0
  0
LINE
  5
D7
330
1F
100
AcDbEntity
  8
DEFAULT
 62
     7
100
AcDbLine
 10
53.98045891831168
 20
14.94461401872896
 30
0.0
 11
53.94906691831168
 21
14.91335501872896
 31
0.0
  0
LINE
  5
D8
330
1F
100
AcDbEntity
  8
DEFAULT
 62
     7
100
AcDbLine
 10
51.60230891831168
 20
13.07961501872896
 30
0.0
 11
50.92046091831168
 21
12.39776701872896
 31
0.0
  0
LINE
  5
D9
330
1F
100
AcDbEntity
  8
DEFAULT
 62
     7
100
AcDbLine
 10
56.11731191831168
 20
15.30062201872896
 30
0.0
 11
48.33991391831168
 21
12.77359101872895
 31
0.0
  0
LINE
  5
DA
330
1F
100
AcDbEntity
  8
DEFAULT
 62
     7
100
AcDbLine
 10
51.93340891831168
 20
13.15466301872896
 30
0.0
 11
51.88474491831168
 21
13.30443501872896
 31
0.0
  0
LINE
  5
DB
330
1F
100
AcDbEntity
  8
DEFAULT
 62
     7
100
AcDbLine
 10
54.29873391831168
 20
15.96776501872895
 30
0.0
 11
54.85565691831168
 21
16.17437601872896
 31
0.0
  0
LINE
  5
DC
330
1F
100
AcDbEntity
  8
DEFAULT
 62
     7
100
AcDbLine
 10
48.06228191831168
 20
13.65412201872896
 30
0.0
 11
53.44929691831168
 21
15.65263501872895
 31
0.0
  0
LINE
  5
DD
330
1F
100
AcDbEntity
  8
DEFAULT
 62
     7
100
AcDbLine
 10
51.61186991831168
 20
13.05018801872896
 30
0.0
 11
51.60230891831168
 21
13.07961501872896
 31
0.0
  0
LINE
  5
DE
330
1F
100
AcDbEntity
  8
DEFAULT
 62
     7
100
AcDbLine
 10
57.04714191831168
 20
15.53209301872895
 30
0.0
 11
56.11731191831168
 21
15.30062201872896
 31
0.0
  0
LINE
  5
DF
330
1F
100
AcDbEntity
  8
DEFAULT
 62
     7
100
AcDbLine
 10
48.71573691831168
 20
12.39776701872896
 30
0.0
 11
50.92046091831168
 21
12.39776701872896
 31
0.0
  0
LINE
  5
E0
330
1F
100
AcDbEntity
  8
DEFAULT
 62
     7
100
AcDbLine
 10
48.33991191831169
 20
12.77359201872896
 30
0.0
 11
48.06228191831168
 21
13.65412201872896
 31
0.0
  0
LINE
  5
E1
330
1F
100
AcDbEntity
  8
DEFAULT
 62
     7
100
AcDbLine
 10
48.33991391831168
 20
12.77359101872895
 30
0.0
 11
48.71573691831168
 21
12.39776701872896
 31
0.0
  0
LINE
  5
E2
330
1F
100
AcDbEntity
  8
DEFAULT
 62
     7
100
AcDbLine
 10
44.87030291831168
 20
16.59391801872896
 30
0.0
 11
44.87030291831168
 21
16.95452101872895
 31
0.0
  0
ARC
  5
E3
330
1F
100
AcDbEntity
  8
DEFAULT
 62
     7
100
AcDbCircle
 10
16.4204773270915
 20
16.06816861274539
 30
0.0
 40
0.1350266765905784
100
AcDbArc
 50
87.65875908052078
 51
124.0812643385191
  0
ARC
  5
E4
330
1F
100
AcDbEntity
  8
DEFAULT
 62
     7
100
AcDbCircle
 10
9.400650468961485
 20
15.41930505612301
 30
0.0
 40
0.7981454463846973
100
AcDbArc
 50
40.35586374343369
 51
58.99210145010844
  0
SPLINE
  5
E5
330
1F
100
AcDbEntity
  8
DEFAULT
 62
     7
100
AcDbSpline
210
0.0
220
0.0
230
1.0
 70
     8
 71
     3
 72
    16
 73
    12
 74
     0
 42
0.0000000001
 43
0.0000000001
 40
0.0
 40
0.0
 40
0.0
 40
0.0
 40
0.159911413108
 40
0.3829279516347
 40
0.5633434502925
 40
0.7024102460688
 40
0.8045578086353
 40
0.8752284969232
 40
0.9196804783738
 40
0.950922273791
 40
1.0
 40
1.0
 40
1.0
 40
1.0
 10
11.88347740184904
 20
13.52568646881248
 30
0.0
 10
11.83929822832404
 20
13.54952819951448
 30
0.0
 10
11.73297854350404
 20
13.60564380084948
 30
0.0
 10
11.57450793177804
 20
13.68409141981148
 30
0.0
 10
11.41880047571104
 20
13.75359759117448
 30
0.0
 10
11.29551495129504
 20
13.80084517049748
 30
0.0
 10
11.20081130369604
 20
13.82964080417048
 30
0.0
 10
11.13503354477304
 20
13.83971769500648
 30
0.0
 10
11.08486317311604
 20
13.83904136066648
 30
0.0
 10
11.06051858122504
 20
13.80098610566348
 30
0.0
 10
11.07423661713504
 20
13.77555531691948
 30
0.0
 10
11.08141501547504
 20
13.76192385915248
 30
0.0
  0
LINE
  5
E6
330
1F
100
AcDbEntity
  8
DEFAULT
 62
     7
100
AcDbLine
 10
11.97013833067304
 20
13.47826531912648
 30
0.0
 11
11.88347740184904
 21
13.52568646881248
 31
0.0
  0
LINE
  5
E7
330
1F
100
AcDbEntity
  8
DEFAULT
 62
     7
100
AcDbLine
 10
14.35433595295104
 20
13.52568646633148
 30
0.0
 11
14.26767504203504
 21
13.47826531936948
 31
0.0
  0
SPLINE
  5
E8
330
1F
100
AcDbEntity
  8
DEFAULT
 62
     7
100
AcDbSpline
210
0.0
220
0.0
230
1.0
 70
     8
 71
     3
 72
    16
 73
    12
 74
     0
 42
0.0000000001
 43
0.0000000001
 40
0.0
 40
0.0
 40
0.0
 40
0.0
 40
0.04908139450617
 40
0.08034089603321
 40
0.124826527752
 40
0.1955205185391
 40
0.2976803761667
 40
0.4367466031031
 40
0.6171147575657
 40
0.8400812200043
 40
1.0
 40
1.0
 40
1.0
 40
1.0
 10
15.15639847896104
 20
13.76192408840148
 30
0.0
 10
15.16357737802004
 20
13.77555654019948
 30
0.0
 10
15.17730166544104
 20
13.80099727639648
 30
0.0
 10
15.15292302125204
 20
13.83905902126248
 30
0.0
 10
15.10272901434204
 20
13.83971104688848
 30
0.0
 10
15.03693144487304
 20
13.82962464185448
 30
0.0
 10
14.94222026499604
 20
13.80081704213348
 30
0.0
 10
14.81894709829804
 20
13.75356954949448
 30
0.0
 10
14.66326936361904
 20
13.68407354844548
 30
0.0
 10
14.50482463067004
 20
13.60563840563748
 30
0.0
 10
14.39851704953904
 20
13.54952923969248
 30
0.0
 10
14.35433595295104
 20
13.52568646633148
 30
0.0
  0
ARC
  5
E9
330
1F
100
AcDbEntity
  8
DEFAULT
 62
     7
100
AcDbCircle
 10
16.83716290414102
 20
15.41930505625037
 30
0.0
 40
0.7981454461333728
100
AcDbArc
 50
121.0078985511392
 51
139.644136253234
  0
ARC
  5
EA
330
1F
100
AcDbEntity
  8
DEFAULT
 62
     7
100
AcDbCircle
 10
9.817336046158316
 20
16.06816861258017
 30
0.0
 40
0.135026676828936
100
AcDbArc
 50
55.91873565754023
 51
92.34124092924742
  0
ARC
  5
EB
330
1F
100
AcDbEntity
  8
DEFAULT
 62
     7
100
AcDbCircle
 10
13.11890668660675
 20
-5.035913585752085
 30
0.0
 40
21.45976727026806
100
AcDbArc
 50
81.35432930039904
 51
98.6456706991214
  0
LINE
  5
EC
330
1F
100
AcDbEntity
  8
DEFAULT
 62
     7
100
AcDbLine
 10
14.46853509224804
 20
14.35296099528448
 30
0.0
 11
14.29118654132804
 21
14.28902929571548
 31
0.0
  0
LINE
  5
ED
330
1F
100
AcDbEntity
  8
DEFAULT
 62
     7
100
AcDbLine
 10
11.94662687649404
 20
14.28902927627648
 30
0.0
 11
11.82988725222304
 21
14.32922263976348
 31
0.0
  0
LINE
  5
EE
330
1F
100
AcDbEntity
  8
DEFAULT
 62
     7
100
AcDbLine
 10
11.96877645688504
 20
13.54658812749148
 30
0.0
 11
11.90114044757704
 21
13.55870066679948
 31
0.0
  0
LINE
  5
EF
330
1F
100
AcDbEntity
  8
DEFAULT
 62
     7
100
AcDbLine
 10
14.33667292564004
 20
13.55870066679948
 30
0.0
 11
14.26903527767904
 21
13.54658784505948
 31
0.0
  0
LINE
  5
F0
330
1F
100
AcDbEntity
  8
DEFAULT
 62
     7
100
AcDbLine
 10
15.07754791225804
 20
13.65808082940848
 30
0.0
 11
15.15600905468904
 21
13.76119197382948
 31
0.0
  0
LINE
  5
F1
330
1F
100
AcDbEntity
  8
DEFAULT
 62
     7
100
AcDbLine
 10
11.08180503573404
 20
13.76119062409748
 30
0.0
 11
11.16026441705404
 21
13.65808191531948
 31
0.0
  0
LINE
  5
F2
330
1F
100
AcDbEntity
  8
DEFAULT
 62
     7
100
AcDbLine
 10
3.904887936262039
 20
17.05499240687448
 30
0.0
 11
3.953896179227039
 21
16.85855131184848
 31
0.0
  0
SPLINE
  5
F3
330
1F
100
AcDbEntity
  8
DEFAULT
 62
     7
100
AcDbSpline
210
0.0
220
0.0
230
1.0
 70
     8
 71
     3
 72
    12
 73
     8
 74
     0
 42
0.0000000001
 43
0.0000000001
 40
0.0
 40
0.0
 40
0.0
 40
0.0
 40
0.1519128046201
 40
0.385218655553
 40
0.6140742034996
 40
0.8272713897541
 40
1.0
 40
1.0
 40
1.0
 40
1.0
 10
7.292587254413038
 20
17.13870560915049
 30
0.0
 10
7.127047294030039
 20
17.16891810457749
 30
0.0
 10
6.703812464992039
 20
17.22788990389348
 30
0.0
 10
6.023116733367039
 20
17.24841130622648
 30
0.0
 10
5.275517819115039
 20
17.22887452276148
 30
0.0
 10
4.59577927816304
 20
17.19123769910648
 30
0.0
 10
4.169367087383039
 20
17.16323975049848
 30
0.0
 10
3.978665532747039
 20
17.14870761157848
 30
0.0
  0
SPLINE
  5
F4
330
1F
100
AcDbEntity
  8
DEFAULT
 62
     7
100
AcDbSpline
210
0.0
220
0.0
230
1.0
 70
     8
 71
     3
 72
    11
 73
     7
 74
     0
 42
0.0000000001
 43
0.0000000001
 40
0.0
 40
0.0
 40
0.0
 40
0.0
 40
0.1655284487019
 40
0.4133547098342
 40
0.7148220717768
 40
1.0
 40
1.0
 40
1.0
 40
1.0
 10
7.579343815150039
 20
16.29984130953449
 30
0.0
 10
7.684380231076038
 20
16.26931238147648
 30
0.0
 10
7.944058978752039
 20
16.18365873789448
 30
0.0
 10
8.369755607879039
 20
15.97662779535548
 30
0.0
 10
8.838990216503039
 20
15.68602771351948
 30
0.0
 10
9.147256393139038
 20
15.45097088224248
 30
0.0
 10
9.30236489690204
 20
15.34421133068448
 30
0.0
  0
ARC
  5
F5
330
1F
100
AcDbEntity
  8
DEFAULT
 62
     7
100
AcDbCircle
 10
9.541843538521897
 20
15.79820306675076
 30
0.0
 40
0.5151686926318904
100
AcDbArc
 50
244.2708867979254
 51
274.3734534942093
  0
ARC
  5
F6
330
1F
100
AcDbEntity
  8
DEFAULT
 62
     7
100
AcDbCircle
 10
5.844890747250333
 20
16.63859718446361
 30
0.0
 40
0.0776762370395173
100
AcDbArc
 50
59.20364771243431
 51
183.2396200188497
  0
ARC
  5
F7
330
1F
100
AcDbEntity
  8
DEFAULT
 62
     7
100
AcDbCircle
 10
5.604423027889585
 20
16.70473853703891
 30
0.0
 40
0.1820274642314702
100
AcDbArc
 50
254.9674622504599
 51
328.251896480991
  0
ARC
  5
F8
330
1F
100
AcDbEntity
  8
DEFAULT
 62
     7
100
AcDbCircle
 10
4.55430621785635
 20
6.507636780118104
 30
0.0
 40
10.07136499278306
100
AcDbArc
 50
84.2848166294954
 51
90.74768187490888
  0
ARC
  5
F9
330
1F
100
AcDbEntity
  8
DEFAULT
 62
     7
100
AcDbCircle
 10
4.398990382919892
 20
16.84066450422661
 30
0.0
 40
0.2636065270817243
100
AcDbArc
 50
226.8524862269997
 51
275.2009302243224
  0
LINE
  5
FA
330
1F
100
AcDbEntity
  8
DEFAULT
 62
     7
100
AcDbLine
 10
3.953742887164038
 20
16.85890565764548
 30
0.0
 11
4.021927656611039
 21
16.71774631294748
 31
0.0
  0
LINE
  5
FB
330
1F
100
AcDbEntity
  8
DEFAULT
 62
     7
100
AcDbLine
 10
4.19324052420304
 20
16.68028072756248
 30
0.0
 11
4.207914750364038
 21
16.66197258277649
 31
0.0
  0
LINE
  5
FC
330
1F
100
AcDbEntity
  8
DEFAULT
 62
     7
100
AcDbLine
 10
4.017323783539039
 20
16.86451713623649
 30
0.0
 11
4.19324052420304
 21
16.68028072756248
 31
0.0
  0
LINE
  5
FD
330
1F
100
AcDbEntity
  8
DEFAULT
 62
     7
100
AcDbLine
 10
4.091731913028038
 20
16.66327923386648
 30
0.0
 11
4.201932592299039
 21
16.64587993906548
 31
0.0
  0
LINE
  5
FE
330
1F
100
AcDbEntity
  8
DEFAULT
 62
     7
100
AcDbLine
 10
4.02204355119104
 20
16.71757092954948
 30
0.0
 11
4.091731913028038
 21
16.66327923386648
 31
0.0
  0
LINE
  5
FF
330
1F
100
AcDbEntity
  8
DEFAULT
 62
     7
100
AcDbLine
 10
5.709763359152039
 20
16.55181959640148
 30
0.0
 11
6.041689592449039
 21
16.49370933954749
 31
0.0
  0
ARC
  5
100
330
1F
100
AcDbEntity
  8
DEFAULT
 62
     7
100
AcDbCircle
 10
3.984241713105598
 20
17.0684189688476
 30
0.0
 40
0.0804787311992039
100
AcDbArc
 50
96.65988858432111
 51
189.6264263145885
  0
LINE
  5
101
330
1F
100
AcDbEntity
  8
DEFAULT
 62
     7
100
AcDbLine
 10
7.332113240757039
 20
17.12116073015248
 30
0.0
 11
7.312085214406038
 21
17.12563004329948
 31
0.0
  0
LINE
  5
102
330
1F
100
AcDbEntity
  8
DEFAULT
 62
     7
100
AcDbLine
 10
7.402438103202039
 20
17.10668269604148
 30
0.0
 11
7.332113243408038
 21
17.12116083833348
 31
0.0
  0
LINE
  5
103
330
1F
100
AcDbEntity
  8
DEFAULT
 62
     7
100
AcDbLine
 10
7.855471432204038
 20
16.98875868468348
 30
0.0
 11
7.412308186473038
 21
17.10462194999048
 31
0.0
  0
ARC
  5
104
330
1F
100
AcDbEntity
  8
DEFAULT
 62
     7
100
AcDbCircle
 10
6.405720962660386
 20
12.4987893958825
 30
0.0
 40
4.718218997501454
100
AcDbArc
 50
60.66861147592304
 51
72.10543168761238
  0
LINE
  5
105
330
1F
100
AcDbEntity
  8
DEFAULT
 62
     7
100
AcDbLine
 10
9.572706131835039
 20
16.07123746880648
 30
0.0
 11
9.232881169306038
 21
16.29976235369148
 31
0.0
  0
LINE
  5
106
330
1F
100
AcDbEntity
  8
DEFAULT
 62
     7
100
AcDbLine
 10
9.644496619482039
 20
16.02230431861648
 30
0.0
 11
9.572705266710038
 21
16.07123621350048
 31
0.0
  0
LINE
  5
107
330
1F
100
AcDbEntity
  8
DEFAULT
 62
     7
100
AcDbLine
 10
9.644497130397038
 20
16.02401964030749
 30
0.0
 11
9.580839023680039
 21
16.06835117817649
 31
0.0
  0
ARC
  5
108
330
1F
100
AcDbEntity
  8
DEFAULT
 62
     7
100
AcDbCircle
 10
6.503914066986667
 20
12.67487055369732
 30
0.0
 40
4.524627315219183
100
AcDbArc
 50
60.48225503606115
 51
72.57862890570367
  0
LINE
  5
109
330
1F
100
AcDbEntity
  8
DEFAULT
 62
     7
100
AcDbLine
 10
9.57400491059404
 20
16.07311717136749
 30
0.0
 11
9.242731625159038
 21
16.29977716943048
 31
0.0
  0
LINE
  5
10A
330
1F
100
AcDbEntity
  8
DEFAULT
 62
     7
100
AcDbLine
 10
7.857353302139039
 20
16.99232654690248
 30
0.0
 11
7.412311100343039
 21
17.10462145500949
 31
0.0
  0
LINE
  5
10B
330
1F
100
AcDbEntity
  8
DEFAULT
 62
     7
100
AcDbLine
 10
22.28863014486104
 20
16.87258366117448
 30
0.0
 11
22.33292564755404
 21
17.05499314947549
 31
0.0
  0
SPLINE
  5
10C
330
1F
100
AcDbEntity
  8
DEFAULT
 62
     7
100
AcDbSpline
210
0.0
220
0.0
230
1.0
 70
     8
 71
     3
 72
    12
 73
     8
 74
     0
 42
0.0000000001
 43
0.0000000001
 40
0.0
 40
0.0
 40
0.0
 40
0.0
 40
0.1738997929961
 40
0.3879012641458
 40
0.6174762570217
 40
0.8504838927743
 40
1.0
 40
1.0
 40
1.0
 40
1.0
 10
22.26007613999204
 20
17.14863638418849
 30
0.0
 10
22.06802716072004
 20
17.16327373416149
 30
0.0
 10
21.63931048706004
 20
17.19141556363548
 30
0.0
 10
20.95639466602704
 20
17.22916041943148
 30
0.0
 10
20.20721478724004
 20
17.24848512013649
 30
0.0
 10
19.52852754992004
 20
17.22733547271248
 30
0.0
 10
19.10818323227104
 20
17.16853176911148
 30
0.0
 10
18.94521813265604
 20
17.13875046776748
 30
0.0
  0
ARC
  5
10D
330
1F
100
AcDbEntity
  8
DEFAULT
 62
     7
100
AcDbCircle
 10
19.75775965276253
 20
13.23320933401413
 30
0.0
 40
3.241995128909639
100
AcDbArc
 50
85.28414184674827
 51
103.549504201007
  0
LINE
  5
10E
330
1F
100
AcDbEntity
  8
DEFAULT
 62
     7
100
AcDbLine
 10
18.93313522301104
 20
16.37061270539248
 30
0.0
 11
18.99652172746204
 21
16.38463249841249
 31
0.0
  0
LINE
  5
10F
330
1F
100
AcDbEntity
  8
DEFAULT
 62
     7
100
AcDbLine
 10
18.84383470706004
 20
16.34990534211948
 30
0.0
 11
18.93313454224104
 21
16.37061478552048
 31
0.0
  0
LINE
  5
110
330
1F
100
AcDbEntity
  8
DEFAULT
 62
     7
100
AcDbLine
 10
18.76081447478604
 20
16.32837667609148
 30
0.0
 11
18.84186767797104
 21
16.34941636508248
 31
0.0
  0
SPLINE
  5
111
330
1F
100
AcDbEntity
  8
DEFAULT
 62
     7
100
AcDbSpline
210
0.0
220
0.0
230
1.0
 70
     8
 71
     3
 72
    12
 73
     8
 74
     0
 42
0.0000000001
 43
0.0000000001
 40
0.0
 40
0.0
 40
0.0
 40
0.0
 40
0.1840635851457
 40
0.4195278296395
 40
0.6365271123991
 40
0.8210471680773001
 40
1.0
 40
1.0
 40
1.0
 40
1.0
 10
16.93544404916804
 20
15.34421790075948
 30
0.0
 10
17.04076084263404
 20
15.41687480929048
 30
0.0
 10
17.27287239754304
 20
15.59366146864048
 30
0.0
 10
17.64103500640404
 20
15.83984877574648
 30
0.0
 10
18.02714557796004
 20
16.05760867267748
 30
0.0
 10
18.39649488496304
 20
16.22227545306949
 30
0.0
 10
18.63882270257804
 20
16.29567661475848
 30
0.0
 10
18.75899356314104
 20
16.32789253057548
 30
0.0
  0
ARC
  5
112
330
1F
100
AcDbEntity
  8
DEFAULT
 62
     7
100
AcDbCircle
 10
16.69763994045826
 20
15.78166761415448
 30
0.0
 40
0.4988175671943114
100
AcDbArc
 50
265.2904357825266
 51
297.442351761016
  0
ARC
  5
113
330
1F
100
AcDbEntity
  8
DEFAULT
 62
     7
100
AcDbCircle
 10
20.39300667409608
 20
16.63866329225984
 30
0.0
 40
0.077558714171407
100
AcDbArc
 50
356.7551468437782
 51
120.6001003705428
  0
ARC
  5
114
330
1F
100
AcDbEntity
  8
DEFAULT
 62
     7
100
AcDbCircle
 10
20.63357545713896
 20
16.70589950119349
 30
0.0
 40
0.1830952443877515
100
AcDbArc
 50
212.494831974979
 51
284.8716493460493
  0
ARC
  5
115
330
1F
100
AcDbEntity
  8
DEFAULT
 62
     7
100
AcDbCircle
 10
21.6834933952907
 20
6.507927919908749
 30
0.0
 40
10.07107390412035
100
AcDbArc
 50
89.25221814523988
 51
95.71534890269679
  0
ARC
  5
116
330
1F
100
AcDbEntity
  8
DEFAULT
 62
     7
100
AcDbCircle
 10
21.83883048234222
 20
16.84062876084592
 30
0.0
 40
0.2635710516552505
100
AcDbArc
 50
264.7970501894776
 51
313.1597724832255
  0
LINE
  5
117
330
1F
100
AcDbEntity
  8
DEFAULT
 62
     7
100
AcDbLine
 10
22.04192703655304
 20
16.67699878754048
 30
0.0
 11
22.22095827396304
 21
16.86481720359648
 31
0.0
  0
LINE
  5
118
330
1F
100
AcDbEntity
  8
DEFAULT
 62
     7
100
AcDbLine
 10
22.01918500282704
 20
16.64843594755948
 30
0.0
 11
22.04192703655304
 21
16.67699878754048
 31
0.0
  0
LINE
  5
119
330
1F
100
AcDbEntity
  8
DEFAULT
 62
     7
100
AcDbLine
 10
22.21587703897604
 20
16.71773195159448
 30
0.0
 11
22.28392892049604
 21
16.85854913176048
 31
0.0
  0
LINE
  5
11A
330
1F
100
AcDbEntity
  8
DEFAULT
 62
     7
100
AcDbLine
 10
22.14662830958904
 20
16.66348453127648
 30
0.0
 11
22.21575713085804
 21
16.71756504229048
 31
0.0
  0
LINE
  5
11B
330
1F
100
AcDbEntity
  8
DEFAULT
 62
     7
100
AcDbLine
 10
22.02330213089004
 20
16.64590877897448
 30
0.0
 11
22.14662830958904
 21
16.66348453127648
 31
0.0
  0
LINE
  5
11C
330
1F
100
AcDbEntity
  8
DEFAULT
 62
     7
100
AcDbLine
 10
20.07882866918804
 20
16.46980949136248
 30
0.0
 11
20.52800704593704
 21
16.55180987316848
 31
0.0
  0
LINE
  5
11D
330
1F
100
AcDbEntity
  8
DEFAULT
 62
     7
100
AcDbLine
 10
20.03628087414204
 20
16.46366408431148
 30
0.0
 11
20.06462534870004
 21
16.46672680822648
 31
0.0
  0
ARC
  5
11E
330
1F
100
AcDbEntity
  8
DEFAULT
 62
     7
100
AcDbCircle
 10
22.25358214570521
 20
17.06842629600909
 30
0.0
 40
0.0804701220404689
100
AcDbArc
 50
350.3684940383908
 51
85.35614628589687
  0
ARC
  5
11F
330
1F
100
AcDbEntity
  8
DEFAULT
 62
     7
100
AcDbCircle
 10
18.96812824480348
 20
17.04587810740949
 30
0.0
 40
0.0884140545440276
100
AcDbArc
 50
108.9346572535752
 51
110.2358736006569
  0
LINE
  5
120
330
1F
100
AcDbEntity
  8
DEFAULT
 62
     7
100
AcDbLine
 10
18.90570012871904
 20
17.12116084517548
 30
0.0
 11
18.82550518907204
 21
17.10462193705348
 31
0.0
  0
LINE
  5
121
330
1F
100
AcDbEntity
  8
DEFAULT
 62
     7
100
AcDbLine
 10
18.82550518743104
 20
17.10462194576049
 30
0.0
 11
18.38234194185504
 21
16.98875867886748
 31
0.0
  0
ARC
  5
122
330
1F
100
AcDbEntity
  8
DEFAULT
 62
     7
100
AcDbCircle
 10
20.55423117045608
 20
10.8580946093861
 30
0.0
 40
6.504009222807822
100
AcDbArc
 50
109.507534070845
 51
126.7237815855461
  0
LINE
  5
123
330
1F
100
AcDbEntity
  8
DEFAULT
 62
     7
100
AcDbLine
 10
16.66510810337704
 20
16.07123621669448
 30
0.0
 11
16.59331664643704
 21
16.02230423230948
 31
0.0
  0
LINE
  5
124
330
1F
100
AcDbEntity
  8
DEFAULT
 62
     7
100
AcDbLine
 10
16.44569628819304
 20
15.93079260232948
 30
0.0
 11
16.42599958094004
 21
15.92596562761848
 31
0.0
  0
LINE
  5
125
330
1F
100
AcDbEntity
  8
DEFAULT
 62
     7
100
AcDbLine
 10
16.65485004495604
 20
16.06687067042948
 30
0.0
 11
16.59331621490704
 21
16.02401960501848
 31
0.0
  0
ARC
  5
126
330
1F
100
AcDbEntity
  8
DEFAULT
 62
     7
100
AcDbCircle
 10
20.37465162681992
 20
11.20582666380012
 30
0.0
 40
6.120528109315264
100
AcDbArc
 50
109.0273920022688
 51
127.3220530052163
  0
LINE
  5
127
330
1F
100
AcDbEntity
  8
DEFAULT
 62
     7
100
AcDbLine
 10
18.82550227321504
 20
17.10462145162748
 30
0.0
 11
18.38046007195004
 21
16.99232654070748
 31
0.0
  0
ARC
  5
128
330
1F
100
AcDbEntity
  8
DEFAULT
 62
     7
100
AcDbCircle
 10
25.56312085985344
 20
14.49928510352354
 30
0.0
 40
13.62770861680956
100
AcDbArc
 50
181.0780345568059
 51
189.5981850345005
  0
ARC
  5
129
330
1F
100
AcDbEntity
  8
DEFAULT
 62
     7
100
AcDbCircle
 10
13.71848032268424
 20
12.37626830545436
 30
0.0
 40
0.420521372962182
100
AcDbArc
 50
280.3311388075355
 51
339.2140817385229
  0
ARC
  5
12A
330
1F
100
AcDbEntity
  8
DEFAULT
 62
     7
100
AcDbCircle
 10
13.11890678582994
 20
14.02347972972344
 30
0.0
 40
2.168635792325953
100
AcDbArc
 50
251.8653997391748
 51
269.9999973785496
  0
ARC
  5
12B
330
1F
100
AcDbEntity
  8
DEFAULT
 62
     7
100
AcDbCircle
 10
12.51933325198773
 20
12.37626854736699
 30
0.0
 40
0.4205216471543634
100
AcDbArc
 50
200.7859393359003
 51
259.6688401733281
  0
ARC
  5
12C
330
1F
100
AcDbEntity
  8
DEFAULT
 62
     7
100
AcDbCircle
 10
0.6746925135079942
 20
14.49928510351071
 30
0.0
 40
13.62770861666498
100
AcDbArc
 50
350.4018149654515
 51
358.9219654432366
  0
ARC
  5
12D
330
1F
100
AcDbEntity
  8
DEFAULT
 62
     7
100
AcDbCircle
 10
13.11890652768791
 20
14.02348010381076
 30
0.0
 40
2.168636166413279
100
AcDbArc
 50
270.0000041987113
 51
288.1345986835368
  0
SPLINE
  5
12E
330
1F
100
AcDbEntity
  8
DEFAULT
 62
     7
100
AcDbSpline
210
0.0
220
0.0
230
1.0
 70
     8
 71
     3
 72
    19
 73
    15
 74
     0
 42
0.0000000001
 43
0.0000000001
 40
0.0
 40
0.0
 40
0.0
 40
0.0
 40
0.1235919666214
 40
0.2451043183287
 40
0.3625079393068
 40
0.4738760400769
 40
0.5774394841606
 40
0.6716499905291
 40
0.7552606378014
 40
0.8274447239784
 40
0.8880009336909001
 40
0.9377477976750001
 40
0.9792454826625
 40
1.0
 40
1.0
 40
1.0
 40
1.0
 10
13.11890668660847
 20
14.60999856545548
 30
0.0
 10
13.06528579508972
 20
14.60999856545548
 30
0.0
 10
12.95893224271684
 20
14.60776950683048
 30
0.0
 10
12.80192712414294
 20
14.59777476081248
 30
0.0
 10
12.65079146081604
 20
14.58133032744248
 30
0.0
 10
12.50832062778954
 20
14.55875259949648
 30
0.0
 10
12.37713218625724
 20
14.53047590530548
 30
0.0
 10
12.25961206810974
 20
14.49704388737948
 30
0.0
 10
12.15784998152174
 20
14.45908611377748
 30
0.0
 10
12.07356037534904
 20
14.41728825045948
 30
0.0
 10
12.00801091303704
 20
14.37222773591848
 30
0.0
 10
11.96203124972404
 20
14.32416853084448
 30
0.0
 10
11.94039459850304
 20
14.27928897581648
 30
0.0
 10
11.93775354044104
 20
14.25197651145048
 30
0.0
 10
11.93791620704604
 20
14.24289294555648
 30
0.0
  0
SPLINE
  5
12F
330
1F
100
AcDbEntity
  8
DEFAULT
 62
     7
100
AcDbSpline
210
0.0
220
0.0
230
1.0
 70
     8
 71
     3
 72
    19
 73
    15
 74
     0
 42
0.0000000001
 43
0.0000000001
 40
0.0
 40
0.0
 40
0.0
 40
0.0
 40
0.1235919666214
 40
0.2451043183287
 40
0.3625079393068
 40
0.4738760400769
 40
0.5774394841606
 40
0.6716499905291
 40
0.7552606378014
 40
0.8274447239784
 40
0.8880009336909001
 40
0.9377477976750001
 40
0.9792454826625
 40
1.0
 40
1.0
 40
1.0
 40
1.0
 10
13.11890668660847
 20
14.60999856545548
 30
0.0
 10
13.17252757812722
 20
14.60999856545548
 30
0.0
 10
13.27888113050004
 20
14.60776950683048
 30
0.0
 10
13.43588624907394
 20
14.59777476081248
 30
0.0
 10
13.58702191240094
 20
14.58133032744248
 30
0.0
 10
13.72949274542734
 20
14.55875259949648
 30
0.0
 10
13.86068118695964
 20
14.53047590530548
 30
0.0
 10
13.97820130510724
 20
14.49704388737948
 30
0.0
 10
14.07996339169524
 20
14.45908611377748
 30
0.0
 10
14.16425299786804
 20
14.41728825045948
 30
0.0
 10
14.22980246018004
 20
14.37222773591848
 30
0.0
 10
14.27578212349304
 20
14.32416853084448
 30
0.0
 10
14.29741877471404
 20
14.27928897581648
 30
0.0
 10
14.30005983277604
 20
14.25197651145048
 30
0.0
 10
14.29989716617104
 20
14.24289294555648
 30
0.0
  0
ARC
  5
130
330
1F
100
AcDbEntity
  8
DEFAULT
 62
     7
100
AcDbCircle
 10
10.17008771300904
 20
15.40263392653148
 30
0.0
 40
0.1181101473285774
100
AcDbArc
 50
270.0
 51
314.7845827147363
  0
ARC
  5
131
330
1F
100
AcDbEntity
  8
DEFAULT
 62
     7
100
AcDbCircle
 10
7.289005713009039
 20
17.12032292653149
 30
0.0
 40
0.0196851231640591
100
AcDbArc
 50
19.19155818477621
 51
74.84903397639654
  0
ARC
  5
132
330
1F
100
AcDbEntity
  8
DEFAULT
 62
     7
100
AcDbCircle
 10
16.06772571300904
 20
15.40263392653148
 30
0.0
 40
0.1181101473285774
100
AcDbArc
 50
225.2154172852637
 51
270.0
  0
ARC
  5
133
330
1F
100
AcDbEntity
  8
DEFAULT
 62
     7
100
AcDbCircle
 10
18.94880771300904
 20
17.12032292653149
 30
0.0
 40
0.0196852934572723
100
AcDbArc
 50
100.9936997889114
 51
160.8056929882291
  0
ARC
  5
134
330
1F
100
AcDbEntity
  8
DEFAULT
 62
     7
100
AcDbCircle
 10
6.508670713009039
 20
16.45562392653148
 30
0.0
 40
0.4687496544052054
100
AcDbArc
 50
72.0699800672965
 51
287.9300199327035
  0
LINE
  5
135
330
1F
100
AcDbEntity
  8
DEFAULT
 62
     7
100
AcDbLine
 10
16.18977271300904
 20
15.70465992653148
 30
0.0
 11
16.22894671300904
 21
15.93613092653148
 31
0.0
  0
LINE
  5
136
330
1F
100
AcDbEntity
  8
DEFAULT
 62
     7
100
AcDbLine
 10
15.07783071300904
 20
13.65836792653148
 30
0.0
 11
14.22126871300904
 21
12.80180492653148
 31
0.0
  0
LINE
  5
137
330
1F
100
AcDbEntity
  8
DEFAULT
 62
     7
100
AcDbLine
 10
15.15600771300904
 20
13.76118792653148
 30
0.0
 11
16.18977271300904
 21
15.70465992653148
 31
0.0
  0
LINE
  5
138
330
1F
100
AcDbEntity
  8
DEFAULT
 62
     7
100
AcDbLine
 10
7.258670713009039
 20
16.61187392653148
 30
0.0
 11
9.811819713009038
 21
16.61187392653148
 31
0.0
  0
LINE
  5
139
330
1F
100
AcDbEntity
  8
DEFAULT
 62
     7
100
AcDbLine
 10
16.34481271300904
 20
16.18000392653148
 30
0.0
 11
15.15598971300904
 21
15.00195492653148
 31
0.0
  0
LINE
  5
13A
330
1F
100
AcDbEntity
  8
DEFAULT
 62
     7
100
AcDbLine
 10
15.15598971300904
 20
14.84115292653148
 30
0.0
 11
14.33667271300904
 21
13.55870092653148
 31
0.0
  0
LINE
  5
13B
330
1F
100
AcDbEntity
  8
DEFAULT
 62
     7
100
AcDbLine
 10
14.28008971300904
 20
13.72138992653148
 30
0.0
 11
14.96438071300904
 21
14.79248892653148
 31
0.0
  0
LINE
  5
13C
330
1F
100
AcDbEntity
  8
DEFAULT
 62
     7
100
AcDbLine
 10
14.74908971300904
 20
14.79248892653148
 30
0.0
 11
14.29598971300904
 21
14.08326592653148
 31
0.0
  0
LINE
  5
13D
330
1F
100
AcDbEntity
  8
DEFAULT
 62
     7
100
AcDbLine
 10
14.26767471300904
 20
13.47826492653148
 30
0.0
 11
14.30780071300904
 21
13.55370092653148
 31
0.0
  0
LINE
  5
13E
330
1F
100
AcDbEntity
  8
DEFAULT
 62
     7
100
AcDbLine
 10
15.15598971300904
 20
14.84115292653148
 30
0.0
 11
15.15598971300904
 21
15.07768792653148
 31
0.0
  0
LINE
  5
13F
330
1F
100
AcDbEntity
  8
DEFAULT
 62
     7
100
AcDbLine
 10
16.44567871300904
 20
16.48057092653149
 30
0.0
 11
16.59331571300904
 21
16.48057092653149
 31
0.0
  0
LINE
  5
140
330
1F
100
AcDbEntity
  8
DEFAULT
 62
     7
100
AcDbLine
 10
7.258670713009039
 20
16.29937392653148
 30
0.0
 11
9.811819713009038
 21
16.29937392653148
 31
0.0
  0
LINE
  5
141
330
1F
100
AcDbEntity
  8
DEFAULT
 62
     7
100
AcDbLine
 10
9.792134713009039
 20
15.89232592653148
 30
0.0
 11
9.64449771300904
 21
15.89232592653148
 31
0.0
  0
LINE
  5
142
330
1F
100
AcDbEntity
  8
DEFAULT
 62
     7
100
AcDbLine
 10
16.59331571300904
 20
15.89232592653148
 30
0.0
 11
16.44567871300904
 21
15.89232592653148
 31
0.0
  0
LINE
  5
143
330
1F
100
AcDbEntity
  8
DEFAULT
 62
     7
100
AcDbLine
 10
16.18977271300904
 20
15.70465992653148
 30
0.0
 11
16.42599371300904
 21
15.70465992653148
 31
0.0
  0
LINE
  5
144
330
1F
100
AcDbEntity
  8
DEFAULT
 62
     7
100
AcDbLine
 10
9.811819713009038
 20
15.70465992653148
 30
0.0
 11
10.04804071300904
 21
15.70465992653148
 31
0.0
  0
LINE
  5
145
330
1F
100
AcDbEntity
  8
DEFAULT
 62
     7
100
AcDbLine
 10
16.06772571300904
 20
15.28452392653148
 30
0.0
 11
16.65668471300904
 21
15.28452392653148
 31
0.0
  0
LINE
  5
146
330
1F
100
AcDbEntity
  8
DEFAULT
 62
     7
100
AcDbLine
 10
9.581128713009038
 20
15.28452392653148
 30
0.0
 11
10.17008771300904
 21
15.28452392653148
 31
0.0
  0
LINE
  5
147
330
1F
100
AcDbEntity
  8
DEFAULT
 62
     7
100
AcDbLine
 10
6.652977713009038
 20
16.90160792653148
 30
0.0
 11
7.258670713009039
 21
16.70562392653148
 31
0.0
  0
LINE
  5
148
330
1F
100
AcDbEntity
  8
DEFAULT
 62
     7
100
AcDbLine
 10
11.21898171300904
 20
15.07768792653148
 30
0.0
 11
15.15598971300904
 21
15.07768792653148
 31
0.0
  0
LINE
  5
149
330
1F
100
AcDbEntity
  8
DEFAULT
 62
     7
100
AcDbLine
 10
11.21898171300904
 20
14.84115292653148
 30
0.0
 11
15.15598971300904
 21
14.84115292653148
 31
0.0
  0
LINE
  5
14A
330
1F
100
AcDbEntity
  8
DEFAULT
 62
     7
100
AcDbLine
 10
14.96438071300904
 20
14.79248892653148
 30
0.0
 11
11.40446071300904
 21
14.79248892653148
 31
0.0
  0
LINE
  5
14B
330
1F
100
AcDbEntity
  8
DEFAULT
 62
     7
100
AcDbLine
 10
11.58371071300904
 20
14.79248892653148
 30
0.0
 11
11.94087771300904
 21
14.12101692653148
 31
0.0
  0
LINE
  5
14C
330
1F
100
AcDbEntity
  8
DEFAULT
 62
     7
100
AcDbLine
 10
11.40446071300904
 20
14.79248892653148
 30
0.0
 11
11.95581871300904
 21
13.75593992653148
 31
0.0
  0
LINE
  5
14D
330
1F
100
AcDbEntity
  8
DEFAULT
 62
     7
100
AcDbLine
 10
11.93001271300904
 20
13.55370092653148
 30
0.0
 11
11.97013871300904
 21
13.47826492653148
 31
0.0
  0
LINE
  5
14E
330
1F
100
AcDbEntity
  8
DEFAULT
 62
     7
100
AcDbLine
 10
11.90114071300904
 20
13.55870092653148
 30
0.0
 11
11.21898171300904
 21
14.84115292653148
 31
0.0
  0
LINE
  5
14F
330
1F
100
AcDbEntity
  8
DEFAULT
 62
     7
100
AcDbLine
 10
9.893000713009039
 20
16.18000392653148
 30
0.0
 11
11.21898171300904
 21
14.86603992653148
 31
0.0
  0
LINE
  5
150
330
1F
100
AcDbEntity
  8
DEFAULT
 62
     7
100
AcDbLine
 10
10.04804071300904
 20
15.70465992653148
 30
0.0
 11
11.08180571300904
 21
13.76118692653148
 31
0.0
  0
LINE
  5
151
330
1F
100
AcDbEntity
  8
DEFAULT
 62
     7
100
AcDbLine
 10
11.15998171300904
 20
13.65836792653148
 30
0.0
 11
12.01654471300904
 21
12.80180492653148
 31
0.0
  0
LINE
  5
152
330
1F
100
AcDbEntity
  8
DEFAULT
 62
     7
100
AcDbLine
 10
14.22126871300904
 20
12.80180492653148
 30
0.0
 11
14.19601671300904
 21
12.80180492653148
 31
0.0
  0
LINE
  5
153
330
1F
100
AcDbEntity
  8
DEFAULT
 62
     7
100
AcDbLine
 10
12.01654471300904
 20
12.80180492653148
 30
0.0
 11
12.04179671300904
 21
12.80180492653148
 31
0.0
  0
LINE
  5
154
330
1F
100
AcDbEntity
  8
DEFAULT
 62
     7
100
AcDbLine
 10
11.21898171300904
 20
14.84115292653148
 30
0.0
 11
11.21898171300904
 21
15.07768792653148
 31
0.0
  0
LINE
  5
155
330
1F
100
AcDbEntity
  8
DEFAULT
 62
     7
100
AcDbLine
 10
10.04804071300904
 20
15.70465992653148
 30
0.0
 11
10.00886671300904
 21
15.93613092653148
 31
0.0
  0
LINE
  5
156
330
1F
100
AcDbEntity
  8
DEFAULT
 62
     7
100
AcDbLine
 10
6.652977713009038
 20
16.00963992653148
 30
0.0
 11
7.258670713009039
 21
16.20562392653148
 31
0.0
  0
LINE
  5
157
330
1F
100
AcDbEntity
  8
DEFAULT
 62
     7
100
AcDbLine
 10
9.792134713009039
 20
15.89232692653148
 30
0.0
 11
9.792134713009039
 21
16.29937392653148
 31
0.0
  0
LINE
  5
158
330
1F
100
AcDbEntity
  8
DEFAULT
 62
     7
100
AcDbLine
 10
9.64449771300904
 20
15.89232692653148
 30
0.0
 11
9.64449771300904
 21
16.29937392653148
 31
0.0
  0
LINE
  5
159
330
1F
100
AcDbEntity
  8
DEFAULT
 62
     7
100
AcDbLine
 10
7.258670713009039
 20
16.20562392653148
 30
0.0
 11
7.258670713009039
 21
16.70562392653148
 31
0.0
  0
SPLINE
  5
15A
330
1F
100
AcDbEntity
  8
DEFAULT
 62
     7
100
AcDbSpline
210
0.0
220
0.0
230
1.0
 70
    12
 71
     2
 72
     6
 73
     3
 74
     0
 42
0.0000000001
 43
0.0000000001
 40
0.0
 40
0.0
 40
0.0
 40
1.570796326794897
 40
1.570796326794897
 40
1.570796326794897
 10
13.9949408492366
 20
12.26770753539513
 30
0.0
 41
1.0
 10
13.99494084923675
 20
12.57666709413123
 30
0.0
 41
0.7071067811865475
 10
13.11890694475056
 20
12.57666709413167
 30
0.0
 41
1.0
  0
SPLINE
  5
15B
330
1F
100
AcDbEntity
  8
DEFAULT
 62
     7
100
AcDbSpline
210
0.0
220
0.0
230
1.0
 70
    12
 71
     2
 72
     6
 73
     3
 74
     0
 42
0.0000000001
 43
0.0000000001
 40
1.570796326794897
 40
1.570796326794897
 40
1.570796326794897
 40
3.141592653589793
 40
3.141592653589793
 40
3.141592653589793
 10
13.11890694475056
 20
12.57666709413167
 30
0.0
 41
1.0
 10
12.24287304026437
 20
12.57666709413211
 30
0.0
 41
0.7071067811865475
 10
12.24287304026421
 20
12.26770753539601
 30
0.0
 41
1.0
  0
SPLINE
  5
15C
330
1F
100
AcDbEntity
  8
DEFAULT
 62
     7
100
AcDbSpline
210
0.0
220
0.0
230
1.0
 70
    12
 71
     2
 72
     6
 73
     3
 74
     0
 42
0.0000000001
 43
0.0000000001
 40
3.141592653589793
 40
3.141592653589793
 40
3.141592653589793
 40
4.71238898038469
 40
4.71238898038469
 40
4.71238898038469
 10
12.24287304026421
 20
12.26770753539601
 30
0.0
 41
1.0
 10
12.24287304026406
 20
11.95874797665991
 30
0.0
 41
0.7071067811865475
 10
13.11890694475025
 20
11.95874797665947
 30
0.0
 41
1.0
  0
SPLINE
  5
15D
330
1F
100
AcDbEntity
  8
DEFAULT
 62
     7
100
AcDbSpline
210
0.0
220
0.0
230
1.0
 70
    12
 71
     2
 72
     6
 73
     3
 74
     0
 42
0.0000000001
 43
0.0000000001
 40
4.71238898038469
 40
4.71238898038469
 40
4.71238898038469
 40
6.283185307179586
 40
6.283185307179586
 40
6.283185307179586
 10
13.11890694475025
 20
11.95874797665947
 30
0.0
 41
1.0
 10
13.99494084923644
 20
11.95874797665903
 30
0.0
 41
0.7071067811865475
 10
13.9949408492366
 20
12.26770753539513
 30
0.0
 41
1.0
  0
LINE
  5
15E
330
1F
100
AcDbEntity
  8
DEFAULT
 62
     7
100
AcDbLine
 10
9.64449771300904
 20
17.37114975702413
 30
0.0
 11
9.64449771300904
 21
16.61187392653148
 31
0.0
  0
LINE
  5
15F
330
1F
100
AcDbEntity
  8
DEFAULT
 62
     7
100
AcDbLine
 10
9.792134713009039
 20
17.35265537277046
 30
0.0
 11
9.792134713009039
 21
16.61187392653148
 31
0.0
  0
LINE
  5
160
330
1F
100
AcDbEntity
  8
DEFAULT
 62
     7
100
AcDbLine
 10
9.811819713009038
 20
15.70465992653148
 30
0.0
 11
9.811819713009038
 21
17.35021574913142
 31
0.0
  0
LINE
  5
161
330
1F
100
AcDbEntity
  8
DEFAULT
 62
     7
100
AcDbLine
 10
16.42599371300904
 20
15.70465992653148
 30
0.0
 11
16.42599371300904
 21
17.35021575564471
 31
0.0
  0
LINE
  5
162
330
1F
100
AcDbEntity
  8
DEFAULT
 62
     7
100
AcDbLine
 10
16.44567871300904
 20
15.89232692653148
 30
0.0
 11
16.44567871300904
 21
17.35265537930108
 31
0.0
  0
LINE
  5
163
330
1F
100
AcDbEntity
  8
DEFAULT
 62
     7
100
AcDbLine
 10
16.59331571300904
 20
15.89232692653148
 30
0.0
 11
16.59331571300904
 21
17.37114976367537
 31
0.0
  0
LINE
  5
164
330
1F
100
AcDbEntity
  8
DEFAULT
 62
     7
100
AcDbLine
 10
2.202035954260325
 20
0.1153864394160884
 30
0.0
 11
2.436416389018177
 21
0.1153864394160884
 31
0.0
  0
LINE
  5
165
330
1F
100
AcDbEntity
  8
DEFAULT
 62
     7
100
AcDbLine
 10
3.145901416246673
 20
0.1153864394160884
 30
0.0
 11
3.380281851751263
 21
0.1153864394160884
 31
0.0
  0
LINE
  5
166
330
1F
100
AcDbEntity
  8
DEFAULT
 62
     7
100
AcDbLine
 10
6.146528724205339
 20
0.1153864394160884
 30
0.0
 11
6.380909158963192
 21
0.1153864394160884
 31
0.0
  0
LINE
  5
167
330
1F
100
AcDbEntity
  8
DEFAULT
 62
     7
100
AcDbLine
 10
7.090394186191688
 20
0.1153864394160884
 30
0.0
 11
7.324774621696335
 21
0.1153864394160884
 31
0.0
  0
LINE
  5
168
330
1F
100
AcDbEntity
  8
DEFAULT
 62
     7
100
AcDbLine
 10
12.5297837374895
 20
0.1153864394160884
 30
0.0
 11
12.76416417299423
 21
0.1153864394160884
 31
0.0
  0
LINE
  5
169
330
1F
100
AcDbEntity
  8
DEFAULT
 62
     7
100
AcDbLine
 10
13.47364920022271
 20
0.1153864394160884
 30
0.0
 11
13.70802963498049
 21
0.1153864394160884
 31
0.0
  0
LINE
  5
16A
330
1F
100
AcDbEntity
  8
DEFAULT
 62
     7
100
AcDbLine
 10
18.91223102447496
 20
0.1153864394160884
 30
0.0
 11
19.14661145997961
 21
0.1153864394160884
 31
0.0
  0
LINE
  5
16B
330
1F
100
AcDbEntity
  8
DEFAULT
 62
     7
100
AcDbLine
 10
19.85609648720812
 20
0.1153864394160884
 30
0.0
 11
20.09047692196596
 21
0.1153864394160884
 31
0.0
  0
LINE
  5
16C
330
1F
100
AcDbEntity
  8
DEFAULT
 62
     7
100
AcDbLine
 10
22.8581073081469
 20
0.1153864394160884
 30
0.0
 11
23.09248774365157
 21
0.1153864394160884
 31
0.0
  0
LINE
  5
16D
330
1F
100
AcDbEntity
  8
DEFAULT
 62
     7
100
AcDbLine
 10
23.80197277088006
 20
0.1153864394160884
 30
0.0
 11
24.03635320563789
 21
0.1153864394160884
 31
0.0
  0
LINE
  5
16E
330
1F
100
AcDbEntity
  8
DEFAULT
 62
     7
100
AcDbLine
 10
2.091009204709636
 20
2.342105050247834
 30
0.0
 11
3.491308600555286
 21
2.342105050247834
 31
0.0
  0
LINE
  5
16F
330
1F
100
AcDbEntity
  8
DEFAULT
 62
     7
100
AcDbLine
 10
6.035501974654636
 20
2.342105050247834
 30
0.0
 11
7.435801370500215
 21
2.342105050247834
 31
0.0
  0
LINE
  5
170
330
1F
100
AcDbEntity
  8
DEFAULT
 62
     7
100
AcDbLine
 10
12.41875698868562
 20
2.342105050247834
 30
0.0
 11
13.81905638453127
 21
2.342105050247834
 31
0.0
  0
LINE
  5
171
330
1F
100
AcDbEntity
  8
DEFAULT
 62
     7
100
AcDbLine
 10
18.80120427567108
 20
2.342105050247834
 30
0.0
 11
20.20150367151665
 21
2.342105050247834
 31
0.0
  0
LINE
  5
172
330
1F
100
AcDbEntity
  8
DEFAULT
 62
     7
100
AcDbLine
 10
22.74708055934293
 20
2.342105050247834
 30
0.0
 11
24.14737995518867
 21
2.342105050247834
 31
0.0
  0
LINE
  5
173
330
1F
100
AcDbEntity
  8
DEFAULT
 62
     7
100
AcDbLine
 10
11.90531387687555
 20
4.749443906734658
 30
0.0
 11
14.33249949634138
 21
4.749443906734658
 31
0.0
  0
LINE
  5
174
330
1F
100
AcDbEntity
  8
DEFAULT
 62
     7
100
AcDbLine
 10
2.436416389018177
 20
0.1153982818414328
 30
0.0
 11
2.436416389018177
 21
0.8404327272135923
 31
0.0
  0
LINE
  5
175
330
1F
100
AcDbEntity
  8
DEFAULT
 62
     7
100
AcDbLine
 10
3.145901416246673
 20
0.1153982818414328
 30
0.0
 11
3.145901416246673
 21
0.8404033478120248
 31
0.0
  0
LINE
  5
176
330
1F
100
AcDbEntity
  8
DEFAULT
 62
     7
100
AcDbLine
 10
6.380909158963192
 20
0.1153982818414328
 30
0.0
 11
6.380909158963192
 21
0.8404327272135923
 31
0.0
  0
LINE
  5
177
330
1F
100
AcDbEntity
  8
DEFAULT
 62
     7
100
AcDbLine
 10
7.090394186191688
 20
0.1153982818414328
 30
0.0
 11
7.090394186191688
 21
0.8404033478120248
 31
0.0
  0
LINE
  5
178
330
1F
100
AcDbEntity
  8
DEFAULT
 62
     7
100
AcDbLine
 10
12.76416417299423
 20
0.1153982818414328
 30
0.0
 11
12.76416417299423
 21
0.8404327272135923
 31
0.0
  0
LINE
  5
179
330
1F
100
AcDbEntity
  8
DEFAULT
 62
     7
100
AcDbLine
 10
13.47364920022271
 20
0.1153982818414328
 30
0.0
 11
13.47364920022271
 21
0.8404033478120248
 31
0.0
  0
LINE
  5
17A
330
1F
100
AcDbEntity
  8
DEFAULT
 62
     7
100
AcDbLine
 10
19.14661145997961
 20
0.1153982818414328
 30
0.0
 11
19.14661145997961
 21
0.8404327272135923
 31
0.0
  0
LINE
  5
17B
330
1F
100
AcDbEntity
  8
DEFAULT
 62
     7
100
AcDbLine
 10
19.85609648720812
 20
0.1153982818414328
 30
0.0
 11
19.85609648720812
 21
0.8404033478120248
 31
0.0
  0
LINE
  5
17C
330
1F
100
AcDbEntity
  8
DEFAULT
 62
     7
100
AcDbLine
 10
23.09248774365157
 20
0.1153982818414328
 30
0.0
 11
23.09248774365157
 21
0.8404327272135923
 31
0.0
  0
LINE
  5
17D
330
1F
100
AcDbEntity
  8
DEFAULT
 62
     7
100
AcDbLine
 10
23.80197277088006
 20
0.1153982818414328
 30
0.0
 11
23.80197277088006
 21
0.8404033478120248
 31
0.0
  0
LINE
  5
17E
330
1F
100
AcDbEntity
  8
DEFAULT
 62
     7
100
AcDbLine
 10
5.88479135447254
 20
1.956390893948676
 30
0.0
 11
5.88479135447254
 21
0.2958115579039422
 31
0.0
  0
LINE
  5
17F
330
1F
100
AcDbEntity
  8
DEFAULT
 62
     7
100
AcDbLine
 10
7.58651199068224
 20
0.2958115579039848
 30
0.0
 11
7.58651199068224
 21
1.956390893948676
 31
0.0
  0
LINE
  5
180
330
1F
100
AcDbEntity
  8
DEFAULT
 62
     7
100
AcDbLine
 10
18.65049365548906
 20
1.956390893948676
 30
0.0
 11
18.65049365548906
 21
0.2958115579039422
 31
0.0
  0
LINE
  5
181
330
1F
100
AcDbEntity
  8
DEFAULT
 62
     7
100
AcDbLine
 10
20.35221429169876
 20
0.2958115579039848
 30
0.0
 11
20.35221429169876
 21
1.956390893948676
 31
0.0
  0
LINE
  5
182
330
1F
100
AcDbEntity
  8
DEFAULT
 62
     7
100
AcDbLine
 10
1.940298584527611
 20
1.956390893948676
 30
0.0
 11
1.940298584527611
 21
0.2958115579039422
 31
0.0
  0
LINE
  5
183
330
1F
100
AcDbEntity
  8
DEFAULT
 62
     7
100
AcDbLine
 10
3.64201922073724
 20
0.2958115579039848
 30
0.0
 11
3.64201922073724
 21
1.956390893948676
 31
0.0
  0
LINE
  5
184
330
1F
100
AcDbEntity
  8
DEFAULT
 62
     7
100
AcDbLine
 10
22.59636993916099
 20
1.956390893948676
 30
0.0
 11
22.59636993916099
 21
0.2958115579039422
 31
0.0
  0
LINE
  5
185
330
1F
100
AcDbEntity
  8
DEFAULT
 62
     7
100
AcDbLine
 10
24.29809057537061
 20
0.2958115579039848
 30
0.0
 11
24.29809057537061
 21
1.956390893948676
 31
0.0
  0
LINE
  5
186
330
1F
100
AcDbEntity
  8
DEFAULT
 62
     7
100
AcDbLine
 10
12.26804636850359
 20
1.956390893948676
 30
0.0
 11
12.26804636850359
 21
0.2958115579039422
 31
0.0
  0
LINE
  5
187
330
1F
100
AcDbEntity
  8
DEFAULT
 62
     7
100
AcDbLine
 10
13.96976700471329
 20
0.2958115579039848
 30
0.0
 11
13.96976700471329
 21
1.956390893948676
 31
0.0
  0
LINE
  5
188
330
1F
100
AcDbEntity
  8
DEFAULT
 62
     7
100
AcDbLine
 10
13.99686805977028
 20
3.037835454061604
 30
0.0
 11
14.02910129390814
 21
2.415611580325244
 31
0.0
  0
LINE
  5
189
330
1F
100
AcDbEntity
  8
DEFAULT
 62
     7
100
AcDbLine
 10
12.20871207930871
 20
2.415611580325244
 30
0.0
 11
12.24094236871041
 21
3.037810130673858
 31
0.0
  0
LINE
  5
18A
330
1F
100
AcDbEntity
  8
DEFAULT
 62
     7
100
AcDbLine
 10
11.24924283320821
 20
4.235643102446883
 30
0.0
 11
2.98250057577232
 21
3.483758690737862
 31
0.0
  0
ARC
  5
18B
330
1F
100
AcDbEntity
  8
DEFAULT
 62
     7
100
AcDbCircle
 10
23.28008731451747
 20
2.526950984156461
 30
0.0
 40
0.9571283947672676
100
AcDbArc
 50
353.3198580937316
 51
91.4832219268052
  0
LINE
  5
18C
330
1F
100
AcDbEntity
  8
DEFAULT
 62
     7
100
AcDbLine
 10
14.98063260121033
 20
4.236000794924589
 30
0.0
 11
23.25527086585596
 21
3.483297727123155
 31
0.0
  0
LINE
  5
18D
330
1F
100
AcDbEntity
  8
DEFAULT
 62
     7
100
AcDbLine
 10
40.79738254810525
 20
3.437719520868061
 30
0.0
 11
41.01982154701648
 21
3.465836127209432
 31
0.0
  0
LINE
  5
18E
330
1F
100
AcDbEntity
  8
DEFAULT
 62
     7
100
AcDbLine
 10
60.88598019243651
 20
3.437719520868061
 30
0.0
 11
60.66546041624461
 21
3.465836127209432
 31
0.0
  0
CIRCLE
  5
18F
330
1F
100
AcDbEntity
  8
DEFAULT
 62
     7
100
AcDbCircle
 10
52.46134440098241
 20
1.126101225926416
 30
0.0
 40
0.8302896679084538
  0
CIRCLE
  5
190
330
1F
100
AcDbEntity
  8
DEFAULT
 62
     7
100
AcDbCircle
 10
52.46134440098241
 20
1.126101225926366
 30
0.0
 40
1.01071478725713
  0
ARC
  5
191
330
1F
100
AcDbEntity
  8
DEFAULT
 62
     7
100
AcDbCircle
 10
52.46134440098218
 20
1.126101225926288
 30
0.0
 40
1.066726763090925
100
AcDbArc
 50
338.669502442202
 51
86.39258381789328
  0
CIRCLE
  5
192
330
1F
100
AcDbEntity
  8
DEFAULT
 62
     7
100
AcDbCircle
 10
40.3207835897265
 20
1.12610122592638
 30
0.0
 40
0.8302896679083539
  0
CIRCLE
  5
193
330
1F
100
AcDbEntity
  8
DEFAULT
 62
     7
100
AcDbCircle
 10
40.32078358972644
 20
1.126101225926252
 30
0.0
 40
1.010714787257008
  0
ARC
  5
194
330
1F
100
AcDbEntity
  8
DEFAULT
 62
     7
100
AcDbCircle
 10
40.32078358972641
 20
1.126101225926252
 30
0.0
 40
1.066726763090953
100
AcDbArc
 50
338.6695024422043
 51
86.39258381789567
  0
CIRCLE
  5
195
330
1F
100
AcDbEntity
  8
DEFAULT
 62
     7
100
AcDbCircle
 10
59.96531071832192
 20
1.126101225926416
 30
0.0
 40
0.8302896679084538
  0
CIRCLE
  5
196
330
1F
100
AcDbEntity
  8
DEFAULT
 62
     7
100
AcDbCircle
 10
59.96531071832175
 20
1.126101225926252
 30
0.0
 40
1.010714787257021
  0
ARC
  5
197
330
1F
100
AcDbEntity
  8
DEFAULT
 62
     7
100
AcDbCircle
 10
59.96531071832175
 20
1.12610122592633
 30
0.0
 40
1.066726763090893
100
AcDbArc
 50
338.6695024421999
 51
86.39258381789585
  0
ARC
  5
198
330
1F
100
AcDbEntity
  8
DEFAULT
 62
     7
100
AcDbCircle
 10
40.3196718490936
 20
1.126101225926309
 30
0.0
 40
1.010714787257055
100
AcDbArc
 50
101.0485759159005
 51
259.9550967962014
  0
LINE
  5
199
330
1F
100
AcDbEntity
  8
DEFAULT
 62
     7
100
AcDbLine
 10
48.22193968730455
 20
4.236000794924589
 30
0.0
 11
41.01982154701648
 21
3.465836127209432
 31
0.0
  0
LINE
  5
19A
330
1F
100
AcDbEntity
  8
DEFAULT
 62
     7
100
AcDbLine
 10
51.76315281227975
 20
4.236000794924589
 30
0.0
 11
60.66546041624461
 21
3.465836127209432
 31
0.0
  0
LINE
  5
19B
330
1F
100
AcDbEntity
  8
DEFAULT
 62
     7
100
AcDbLine
 10
59.96531071832175
 20
2.342105050247834
 30
0.0
 11
61.36561011416743
 21
2.342105050247834
 31
0.0
  0
LINE
  5
19C
330
1F
100
AcDbEntity
  8
DEFAULT
 62
     7
100
AcDbLine
 10
52.46134440098226
 20
2.342105050247834
 30
0.0
 11
53.861643796828
 21
2.342105050247834
 31
0.0
  0
LINE
  5
19D
330
1F
100
AcDbEntity
  8
DEFAULT
 62
     7
100
AcDbLine
 10
40.3207835897265
 20
2.342105050247834
 30
0.0
 11
41.72108298557215
 21
2.342105050247834
 31
0.0
  0
LINE
  5
19E
330
1F
100
AcDbEntity
  8
DEFAULT
 62
     7
100
AcDbLine
 10
11.90531387687555
 20
4.749443906734658
 30
0.0
 11
14.33249949634138
 21
4.749443906734658
 31
0.0
  0
LINE
  5
19F
330
1F
100
AcDbEntity
  8
DEFAULT
 62
     7
100
AcDbLine
 10
14.33249949634138
 20
4.749443906734658
 30
0.0
 11
14.33249949634138
 21
9.169222489397519
 31
0.0
  0
LINE
  5
1A0
330
1F
100
AcDbEntity
  8
DEFAULT
 62
     7
100
AcDbLine
 10
14.33249949634138
 20
9.169222489397519
 30
0.0
 11
11.90531387687555
 21
9.169222489397519
 31
0.0
  0
LINE
  5
1A1
330
1F
100
AcDbEntity
  8
DEFAULT
 62
     7
100
AcDbLine
 10
11.90531387687555
 20
9.169222489397519
 30
0.0
 11
11.90531387687555
 21
4.749443906734658
 31
0.0
  0
LINE
  5
1A2
330
1F
100
AcDbEntity
  8
DEFAULT
 62
     7
100
AcDbLine
 10
48.60450610857877
 20
4.749278259753304
 30
0.0
 11
51.0316917280446
 21
4.749278259753304
 31
0.0
  0
LINE
  5
1A3
330
1F
100
AcDbEntity
  8
DEFAULT
 62
     7
100
AcDbLine
 10
51.0316917280446
 20
4.749278259753304
 30
0.0
 11
51.0316917280446
 21
9.169056842416165
 31
0.0
  0
LINE
  5
1A4
330
1F
100
AcDbEntity
  8
DEFAULT
 62
     7
100
AcDbLine
 10
51.0316917280446
 20
9.169056842416165
 30
0.0
 11
48.60450610857877
 21
9.169056842416165
 31
0.0
  0
LINE
  5
1A5
330
1F
100
AcDbEntity
  8
DEFAULT
 62
     7
100
AcDbLine
 10
48.60450610857877
 20
9.169056842416165
 30
0.0
 11
48.60450610857877
 21
4.749278259753304
 31
0.0
  0
LINE
  5
1A6
330
1F
100
AcDbEntity
  8
DEFAULT
 62
     7
100
AcDbLine
 10
14.0160428074495
 20
9.169222489397519
 30
0.0
 11
14.0160428074495
 21
12.07488181850092
 31
0.0
  0
LINE
  5
1A7
330
1F
100
AcDbEntity
  8
DEFAULT
 62
     7
100
AcDbLine
 10
12.22177056576743
 20
12.07488174209952
 30
0.0
 11
12.22177056576743
 21
9.169222489397519
 31
0.0
  0
LINE
  5
1A8
330
1F
100
AcDbEntity
  8
DEFAULT
 62
     7
100
AcDbLine
 10
50.71523503915272
 20
9.169056842416165
 30
0.0
 11
50.71523503915272
 21
12.39776701872896
 31
0.0
  0
LINE
  5
1A9
330
1F
100
AcDbEntity
  8
DEFAULT
 62
     7
100
AcDbLine
 10
48.92096279747065
 20
12.39776701872896
 30
0.0
 11
48.92096279747065
 21
9.169056842416165
 31
0.0
  0
ARC
  5
1AA
330
1F
100
AcDbEntity
  8
DEFAULT
 62
     7
100
AcDbCircle
 10
41.19323582501097
 20
1.18883867671067
 30
0.0
 40
0.4667664659471034
100
AcDbArc
 50
285.04998488569
 51
357.0000000017624
  0
LINE
  5
1AB
330
1F
100
AcDbEntity
  8
DEFAULT
 62
     7
100
AcDbLine
 10
41.65936260373952
 20
1.164410007387527
 30
0.0
 11
41.72108298557215
 21
2.342105050247834
 31
0.0
  0
ARC
  5
1AC
330
1F
100
AcDbEntity
  8
DEFAULT
 62
     7
100
AcDbCircle
 10
53.3337966362669
 20
1.188838676710667
 30
0.0
 40
0.4667664659470251
100
AcDbArc
 50
285.0499848856655
 51
357.0000000017623
  0
LINE
  5
1AD
330
1F
100
AcDbEntity
  8
DEFAULT
 62
     7
100
AcDbLine
 10
53.79992341499537
 20
1.164410007387527
 30
0.0
 11
53.861643796828
 21
2.342105050247834
 31
0.0
  0
ARC
  5
1AE
330
1F
100
AcDbEntity
  8
DEFAULT
 62
     7
100
AcDbCircle
 10
60.83776295360643
 20
1.188838676710641
 30
0.0
 40
0.4667664659469883
100
AcDbArc
 50
285.0499848856676
 51
357.0000000017652
  0
LINE
  5
1AF
330
1F
100
AcDbEntity
  8
DEFAULT
 62
     7
100
AcDbLine
 10
61.30388973233486
 20
1.164410007387527
 30
0.0
 11
61.36561011416743
 21
2.342105050247834
 31
0.0
  0
LINE
  5
1B0
330
1F
100
AcDbEntity
  8
DEFAULT
 62
     7
100
AcDbLine
 10
59.96531071832175
 20
2.342105050247834
 30
0.0
 11
60.03242884664773
 21
2.190714368783581
 31
0.0
  0
LINE
  5
1B1
330
1F
100
AcDbEntity
  8
DEFAULT
 62
     7
100
AcDbLine
 10
52.46134440098226
 20
2.342105050247834
 30
0.0
 11
52.5284625293082
 21
2.190714368783567
 31
0.0
  0
LINE
  5
1B2
330
1F
100
AcDbEntity
  8
DEFAULT
 62
     7
100
AcDbLine
 10
40.3207835897265
 20
2.342105050247834
 30
0.0
 11
40.38790171805239
 21
2.190714368783562
 31
0.0
  0
SPLINE
  5
1B3
330
1F
100
AcDbEntity
  8
DEFAULT
 62
     7
100
AcDbSpline
210
0.0
220
0.0
230
1.0
 70
     8
 71
     5
 72
    12
 73
     6
 74
     0
 42
0.0000000001
 43
0.0000000001
 40
0.0
 40
0.0
 40
0.0
 40
0.0
 40
0.0
 40
0.0
 40
1.0
 40
1.0
 40
1.0
 40
1.0
 40
1.0
 40
1.0
 10
1.940298584527611
 20
0.2958115579039422
 30
0.0
 10
1.940298584527611
 20
0.2322317893935235
 30
0.0
 10
1.940298584527611
 20
0.1686520208831048
 30
0.0
 10
2.074876417239491
 20
0.1153864394160884
 30
0.0
 10
2.138456185749908
 20
0.1153864394160884
 30
0.0
 10
2.202035954260325
 20
0.1153864394160884
 30
0.0
  0
SPLINE
  5
1B4
330
1F
100
AcDbEntity
  8
DEFAULT
 62
     7
100
AcDbSpline
210
0.0
220
0.0
230
1.0
 70
     8
 71
     5
 72
    12
 73
     6
 74
     0
 42
0.0000000001
 43
0.0000000001
 40
0.0
 40
0.0
 40
0.0
 40
0.0
 40
0.0
 40
0.0
 40
1.0
 40
1.0
 40
1.0
 40
1.0
 40
1.0
 40
1.0
 10
3.380281851751263
 20
0.1153864394160884
 30
0.0
 10
3.443861620138722
 20
0.1153864394160884
 30
0.0
 10
3.507441388526181
 20
0.1153864394160884
 30
0.0
 10
3.64201922073724
 20
0.1686520211290663
 30
0.0
 10
3.64201922073724
 20
0.2322317895165256
 30
0.0
 10
3.64201922073724
 20
0.2958115579039848
 30
0.0
  0
SPLINE
  5
1B5
330
1F
100
AcDbEntity
  8
DEFAULT
 62
     7
100
AcDbSpline
210
0.0
220
0.0
230
1.0
 70
     8
 71
     5
 72
    12
 73
     6
 74
     0
 42
0.0000000001
 43
0.0000000001
 40
0.0
 40
0.0
 40
0.0
 40
0.0
 40
0.0
 40
0.0
 40
1.0
 40
1.0
 40
1.0
 40
1.0
 40
1.0
 40
1.0
 10
6.146528724205339
 20
0.1153864394160884
 30
0.0
 10
6.082948955694908
 20
0.1153864394160884
 30
0.0
 10
6.019369187184477
 20
0.1153864394160884
 30
0.0
 10
5.88479135447254
 20
0.1686520208830835
 30
0.0
 10
5.88479135447254
 20
0.2322317893935129
 30
0.0
 10
5.88479135447254
 20
0.2958115579039422
 30
0.0
  0
SPLINE
  5
1B6
330
1F
100
AcDbEntity
  8
DEFAULT
 62
     7
100
AcDbSpline
210
0.0
220
0.0
230
1.0
 70
     8
 71
     5
 72
    12
 73
     6
 74
     0
 42
0.0000000001
 43
0.0000000001
 40
0.0
 40
0.0
 40
0.0
 40
0.0
 40
0.0
 40
0.0
 40
1.0
 40
1.0
 40
1.0
 40
1.0
 40
1.0
 40
1.0
 10
7.324774621696335
 20
0.1153864394160884
 30
0.0
 10
7.388354390083782
 20
0.1153864394160884
 30
0.0
 10
7.451934158471229
 20
0.1153864394160884
 30
0.0
 10
7.58651199068224
 20
0.1686520211290876
 30
0.0
 10
7.58651199068224
 20
0.2322317895165362
 30
0.0
 10
7.58651199068224
 20
0.2958115579039848
 30
0.0
  0
SPLINE
  5
1B7
330
1F
100
AcDbEntity
  8
DEFAULT
 62
     7
100
AcDbSpline
210
0.0
220
0.0
230
1.0
 70
     8
 71
     5
 72
    12
 73
     6
 74
     0
 42
0.0000000001
 43
0.0000000001
 40
0.0
 40
0.0
 40
0.0
 40
0.0
 40
0.0
 40
0.0
 40
1.0
 40
1.0
 40
1.0
 40
1.0
 40
1.0
 40
1.0
 10
12.5297837374895
 20
0.1153864394160884
 30
0.0
 10
12.46620396910205
 20
0.1153864394160884
 30
0.0
 10
12.40262420071461
 20
0.1153864394160884
 30
0.0
 10
12.26804636850359
 20
0.1686520211290592
 30
0.0
 10
12.26804636850359
 20
0.2322317895165007
 30
0.0
 10
12.26804636850359
 20
0.2958115579039422
 30
0.0
  0
SPLINE
  5
1B8
330
1F
100
AcDbEntity
  8
DEFAULT
 62
     7
100
AcDbSpline
210
0.0
220
0.0
230
1.0
 70
     8
 71
     5
 72
    12
 73
     6
 74
     0
 42
0.0000000001
 43
0.0000000001
 40
0.0
 40
0.0
 40
0.0
 40
0.0
 40
0.0
 40
0.0
 40
1.0
 40
1.0
 40
1.0
 40
1.0
 40
1.0
 40
1.0
 10
13.70802963498049
 20
0.1153864394160884
 30
0.0
 10
13.77160940349093
 20
0.1153864394160884
 30
0.0
 10
13.83518917200136
 20
0.1153864394160884
 30
0.0
 10
13.96976700471329
 20
0.1686520208831119
 30
0.0
 10
13.96976700471329
 20
0.2322317893935484
 30
0.0
 10
13.96976700471329
 20
0.2958115579039848
 30
0.0
  0
SPLINE
  5
1B9
330
1F
100
AcDbEntity
  8
DEFAULT
 62
     7
100
AcDbSpline
210
0.0
220
0.0
230
1.0
 70
     8
 71
     5
 72
    12
 73
     6
 74
     0
 42
0.0000000001
 43
0.0000000001
 40
0.0
 40
0.0
 40
0.0
 40
0.0
 40
0.0
 40
0.0
 40
1.0
 40
1.0
 40
1.0
 40
1.0
 40
1.0
 40
1.0
 10
18.91223102447496
 20
0.1153864394160884
 30
0.0
 10
18.84865125608752
 20
0.1153864394160884
 30
0.0
 10
18.78507148770008
 20
0.1153864394160884
 30
0.0
 10
18.65049365548906
 20
0.1686520211290592
 30
0.0
 10
18.65049365548906
 20
0.2322317895165007
 30
0.0
 10
18.65049365548906
 20
0.2958115579039422
 30
0.0
  0
SPLINE
  5
1BA
330
1F
100
AcDbEntity
  8
DEFAULT
 62
     7
100
AcDbSpline
210
0.0
220
0.0
230
1.0
 70
     8
 71
     5
 72
    12
 73
     6
 74
     0
 42
0.0000000001
 43
0.0000000001
 40
0.0
 40
0.0
 40
0.0
 40
0.0
 40
0.0
 40
0.0
 40
1.0
 40
1.0
 40
1.0
 40
1.0
 40
1.0
 40
1.0
 10
22.8581073081469
 20
0.1153864394160884
 30
0.0
 10
22.79452753975946
 20
0.1153864394160884
 30
0.0
 10
22.73094777137202
 20
0.1153864394160884
 30
0.0
 10
22.59636993916099
 20
0.1686520211290592
 30
0.0
 10
22.59636993916099
 20
0.2322317895165007
 30
0.0
 10
22.59636993916099
 20
0.2958115579039422
 30
0.0
  0
SPLINE
  5
1BB
330
1F
100
AcDbEntity
  8
DEFAULT
 62
     7
100
AcDbSpline
210
0.0
220
0.0
230
1.0
 70
     8
 71
     5
 72
    12
 73
     6
 74
     0
 42
0.0000000001
 43
0.0000000001
 40
0.0
 40
0.0
 40
0.0
 40
0.0
 40
0.0
 40
0.0
 40
1.0
 40
1.0
 40
1.0
 40
1.0
 40
1.0
 40
1.0
 10
24.03635320563789
 20
0.1153864394160884
 30
0.0
 10
24.09993297414832
 20
0.1153864394160884
 30
0.0
 10
24.16351274265874
 20
0.1153864394160884
 30
0.0
 10
24.29809057537061
 20
0.1686520208831404
 30
0.0
 10
24.29809057537061
 20
0.2322317893935626
 30
0.0
 10
24.29809057537061
 20
0.2958115579039848
 30
0.0
  0
SPLINE
  5
1BC
330
1F
100
AcDbEntity
  8
DEFAULT
 62
     7
100
AcDbSpline
210
0.0
220
0.0
230
1.0
 70
     8
 71
     5
 72
    12
 73
     6
 74
     0
 42
0.0000000001
 43
0.0000000001
 40
0.0
 40
0.0
 40
0.0
 40
0.0
 40
0.0
 40
0.0
 40
1.0
 40
1.0
 40
1.0
 40
1.0
 40
1.0
 40
1.0
 10
20.09047692196596
 20
0.1153864394160884
 30
0.0
 10
20.1540566904764
 20
0.1153864394160884
 30
0.0
 10
20.21763645898683
 20
0.1153864394160884
 30
0.0
 10
20.35221429169876
 20
0.1686520208831119
 30
0.0
 10
20.35221429169876
 20
0.2322317893935484
 30
0.0
 10
20.35221429169876
 20
0.2958115579039848
 30
0.0
  0
ARC
  5
1BD
330
1F
100
AcDbEntity
  8
DEFAULT
 62
     7
100
AcDbCircle
 10
20.18180552259204
 20
1.957053274954299
 30
0.0
 40
0.1704100564434603
100
AcDbArc
 50
359.7772917138179
 51
87.16168973790212
  0
ARC
  5
1BE
330
1F
100
AcDbEntity
  8
DEFAULT
 62
     7
100
AcDbCircle
 10
2.110707353611845
 20
1.957053274966152
 30
0.0
 40
0.1704100564210226
100
AcDbArc
 50
92.83831027210995
 51
180.2227082901824
  0
ARC
  5
1BF
330
1F
100
AcDbEntity
  8
DEFAULT
 62
     7
100
AcDbCircle
 10
3.471610451656266
 20
1.957053274996141
 30
0.0
 40
0.1704100564178789
100
AcDbArc
 50
359.7772916997161
 51
87.16168961540082
  0
ARC
  5
1C0
330
1F
100
AcDbEntity
  8
DEFAULT
 62
     7
100
AcDbCircle
 10
6.055200123556791
 20
1.957053274966139
 30
0.0
 40
0.1704100564210395
100
AcDbArc
 50
92.83831027208844
 51
180.2227082901782
  0
ARC
  5
1C1
330
1F
100
AcDbEntity
  8
DEFAULT
 62
     7
100
AcDbCircle
 10
7.416103221432593
 20
1.957053274907405
 30
0.0
 40
0.1704100565862078
100
AcDbArc
 50
359.7772917297714
 51
87.16168969057348
  0
ARC
  5
1C2
330
1F
100
AcDbEntity
  8
DEFAULT
 62
     7
100
AcDbCircle
 10
12.43845513756211
 20
1.957053275007983
 30
0.0
 40
0.1704100563954675
100
AcDbArc
 50
92.83831039457971
 51
180.2227083042805
  0
ARC
  5
1C3
330
1F
100
AcDbEntity
  8
DEFAULT
 62
     7
100
AcDbCircle
 10
13.7993582356066
 20
1.957053274954319
 30
0.0
 40
0.1704100564434322
100
AcDbArc
 50
359.777291713811
 51
87.16168973789567
  0
ARC
  5
1C4
330
1F
100
AcDbEntity
  8
DEFAULT
 62
     7
100
AcDbCircle
 10
18.82090242454759
 20
1.957053275007966
 30
0.0
 40
0.1704100563954823
100
AcDbArc
 50
92.83831039458964
 51
180.2227083042748
  0
ARC
  5
1C5
330
1F
100
AcDbEntity
  8
DEFAULT
 62
     7
100
AcDbCircle
 10
22.76677870838815
 20
1.957053274919259
 30
0.0
 40
0.1704100565637615
100
AcDbArc
 50
92.83831031942347
 51
180.2227082742294
  0
ARC
  5
1C6
330
1F
100
AcDbEntity
  8
DEFAULT
 62
     7
100
AcDbCircle
 10
24.12768180626393
 20
1.957053274954329
 30
0.0
 40
0.1704100564434229
100
AcDbArc
 50
359.7772917138076
 51
87.16168973787997
  0
LINE
  5
1C7
330
1F
100
AcDbEntity
  8
DEFAULT
 62
     7
100
AcDbLine
 10
14.22747704165288
 20
4.236000794924589
 30
0.0
 11
14.22747704165288
 21
4.749443906734658
 31
0.0
  0
LINE
  5
1C8
330
1F
100
AcDbEntity
  8
DEFAULT
 62
     7
100
AcDbLine
 10
12.01033633156401
 20
4.23599873256363
 30
0.0
 11
12.01033633156401
 21
4.749443906734658
 31
0.0
  0
LINE
  5
1C9
330
1F
100
AcDbEntity
  8
DEFAULT
 62
     7
100
AcDbLine
 10
48.69704798627436
 20
4.236000794924589
 30
0.0
 11
48.69704798627436
 21
4.749443906734658
 31
0.0
  0
LINE
  5
1CA
330
1F
100
AcDbEntity
  8
DEFAULT
 62
     7
100
AcDbLine
 10
50.91418869636332
 20
4.233765798343431
 30
0.0
 11
50.91418869636332
 21
4.749443906734658
 31
0.0
  0
LINE
  5
1CB
330
1F
100
AcDbEntity
  8
DEFAULT
 62
     7
100
AcDbLine
 10
48.82605091831168
 20
17.11763701872896
 30
0.0
 11
48.82531970484166
 21
17.20142404911097
 31
0.0
  0
LINE
  5
1CC
330
1F
100
AcDbEntity
  8
DEFAULT
 62
     7
100
AcDbLine
 10
45.05250091831168
 20
17.15082501872896
 30
0.0
 11
45.41471311216949
 21
17.17786189987382
 31
0.0
  0
LINE
  5
1CD
330
1F
100
AcDbEntity
  8
DEFAULT
 62
     7
100
AcDbLine
 10
57.75379386545262
 20
17.25140912187862
 30
0.0
 11
57.49481091831168
 21
16.52006401872896
 31
0.0
  0
SPLINE
  5
1CE
330
1F
100
AcDbEntity
  8
DEFAULT
 62
     7
100
AcDbSpline
210
0.0
220
0.0
230
1.0
 70
     8
 71
     3
 72
     8
 73
     4
 74
     0
 42
0.0000000001
 43
0.0000000001
 40
0.0
 40
0.0
 40
0.0
 40
0.0
 40
1.0
 40
1.0
 40
1.0
 40
1.0
 10
44.87030291831168
 20
16.77421951872896
 30
0.0
 10
42.79168688059368
 20
16.77421951872896
 30
0.0
 10
41.97996504082752
 20
17.05428498738468
 30
0.0
 10
41.71932041337967
 20
17.2255657425647
 30
0.0
  0
ARC
  5
1CF
330
1F
100
AcDbEntity
  8
DEFAULT
 62
     7
100
AcDbCircle
 10
45.05915746816032
 20
35.31039886418711
 30
0.0
 40
18.28715453796076
100
AcDbArc
 50
262.4565285732753
 51
269.408286238773
  0
ARC
  5
1D0
330
1F
100
AcDbEntity
  8
DEFAULT
 62
     7
100
AcDbCircle
 10
42.97730503460047
 20
19.58934043774814
 30
0.0
 40
2.428851110335633
100
AcDbArc
 50
242.5220309207336
 51
262.4565285732755
  0
ARC
  5
1D1
330
1F
100
AcDbEntity
  8
DEFAULT
 62
     7
100
AcDbCircle
 10
13.11899591695742
 20
2.935801727445455
 30
0.0
 40
0.8837817143815794
100
AcDbArc
 50
6.629653511224646
 51
173.3733367570877
  0
SPLINE
  5
1D2
330
1F
100
AcDbEntity
  8
DEFAULT
 62
     7
100
AcDbSpline
210
0.0
220
0.0
230
1.0
 70
     8
 71
     3
 72
     9
 73
     5
 74
     0
 42
0.0000000001
 43
0.0000000001
 40
0.0
 40
0.0
 40
0.0
 40
0.0
 40
1.0
 40
2.0
 40
2.0
 40
2.0
 40
2.0
 10
14.80842890782107
 20
2.415611580325244
 30
0.0
 10
14.80842890782107
 20
2.961365312409894
 30
0.0
 10
14.64034346710687
 20
3.425834038521961
 30
0.0
 10
14.31213337872228
 20
3.85257257108524
 30
0.0
 10
14.08127005367241
 20
4.223437908446609
 30
0.0
  0
SPLINE
  5
1D3
330
1F
100
AcDbEntity
  8
DEFAULT
 62
     7
100
AcDbSpline
210
0.0
220
0.0
230
1.0
 70
     8
 71
     3
 72
     9
 73
     5
 74
     0
 42
0.0000000001
 43
0.0000000001
 40
0.0
 40
0.0
 40
0.0
 40
0.0
 40
1.0
 40
2.0
 40
2.0
 40
2.0
 40
2.0
 10
11.42859197510137
 20
2.415611580325244
 30
0.0
 10
11.42859197510137
 20
2.961365312409894
 30
0.0
 10
11.59667741581557
 20
3.425834038521961
 30
0.0
 10
11.92488750420016
 20
3.85257257108524
 30
0.0
 10
12.15575082925002
 20
4.223437908446609
 30
0.0
  0
ARC
  5
1D4
330
1F
100
AcDbEntity
  8
DEFAULT
 62
     7
100
AcDbCircle
 10
2.957726058699336
 20
2.526950984156517
 30
0.0
 40
0.95712839476721
100
AcDbArc
 50
88.51677807319949
 51
186.680141906272
  0
LINE
  5
1D5
330
1F
100
AcDbEntity
  8
DEFAULT
 62
     7
100
AcDbLine
 10
11.24924283320821
 20
4.235643102446883
 30
0.0
 11
14.98063260121033
 21
4.236000794924589
 31
0.0
  0
SPLINE
  5
1D6
330
1F
100
AcDbEntity
  8
DEFAULT
 62
     7
100
AcDbSpline
210
0.0
220
0.0
230
1.0
 70
     8
 71
     3
 72
     9
 73
     5
 74
     0
 42
0.0000000001
 43
0.0000000001
 40
-2.0
 40
-2.0
 40
-2.0
 40
-2.0
 40
-1.0
 40
0.0
 40
0.0
 40
0.0
 40
0.0
 10
12.41875698868562
 20
2.342105050247834
 30
0.0
 10
12.42962545130563
 20
1.66867069607861
 30
0.0
 10
12.59574842165793
 20
0.9357752386420355
 30
0.0
 10
12.81073108917265
 20
0.7300915874772755
 30
0.0
 10
13.11889781831455
 20
0.7300915874772755
 30
0.0
  0
SPLINE
  5
1D7
330
1F
100
AcDbEntity
  8
DEFAULT
 62
     7
100
AcDbSpline
210
0.0
220
0.0
230
1.0
 70
     8
 71
     3
 72
     9
 73
     5
 74
     0
 42
0.0000000001
 43
0.0000000001
 40
0.0
 40
0.0
 40
0.0
 40
0.0
 40
1.0
 40
2.0
 40
2.0
 40
2.0
 40
2.0
 10
13.11889781831455
 20
0.7300915874772755
 30
0.0
 10
13.42706454745645
 20
0.7300915874772755
 30
0.0
 10
13.64204721497118
 20
0.9357752386420355
 30
0.0
 10
13.80817018532347
 20
1.66867069607861
 30
0.0
 10
13.81903864794349
 20
2.342105050247834
 30
0.0
  0
SPLINE
  5
1D8
330
1F
100
AcDbEntity
  8
DEFAULT
 62
     7
100
AcDbSpline
210
0.0
220
0.0
230
1.0
 70
     8
 71
     3
 72
     9
 73
     5
 74
     0
 42
0.0000000001
 43
0.0000000001
 40
-2.0
 40
-2.0
 40
-2.0
 40
-2.0
 40
-1.0
 40
0.0
 40
0.0
 40
0.0
 40
0.0
 10
18.801204275671
 20
2.342105050247824
 30
0.0
 10
18.81207273829102
 20
1.6686706960786
 30
0.0
 10
18.97819570864331
 20
0.9357752386420248
 30
0.0
 10
19.19317837615804
 20
0.7300915874772649
 30
0.0
 10
19.50134510529994
 20
0.7300915874772649
 30
0.0
  0
SPLINE
  5
1D9
330
1F
100
AcDbEntity
  8
DEFAULT
 62
     7
100
AcDbSpline
210
0.0
220
0.0
230
1.0
 70
     8
 71
     3
 72
     9
 73
     5
 74
     0
 42
0.0000000001
 43
0.0000000001
 40
0.0
 40
0.0
 40
0.0
 40
0.0
 40
1.0
 40
2.0
 40
2.0
 40
2.0
 40
2.0
 10
19.50134510529994
 20
0.7300915874772649
 30
0.0
 10
19.80951183444184
 20
0.7300915874772649
 30
0.0
 10
20.02449450195657
 20
0.9357752386420248
 30
0.0
 10
20.19061747230886
 20
1.6686706960786
 30
0.0
 10
20.20148593492888
 20
2.342105050247824
 30
0.0
  0
SPLINE
  5
1DA
330
1F
100
AcDbEntity
  8
DEFAULT
 62
     7
100
AcDbSpline
210
0.0
220
0.0
230
1.0
 70
     8
 71
     3
 72
     9
 73
     5
 74
     0
 42
0.0000000001
 43
0.0000000001
 40
-2.0
 40
-2.0
 40
-2.0
 40
-2.0
 40
-1.0
 40
0.0
 40
0.0
 40
0.0
 40
0.0
 10
22.74707857619666
 20
2.342105050120821
 30
0.0
 10
22.75794703881668
 20
1.668670695951597
 30
0.0
 10
22.92407000916897
 20
0.9357752385150224
 30
0.0
 10
23.1390526766837
 20
0.7300915873502625
 30
0.0
 10
23.4472194058256
 20
0.7300915873502625
 30
0.0
  0
SPLINE
  5
1DB
330
1F
100
AcDbEntity
  8
DEFAULT
 62
     7
100
AcDbSpline
210
0.0
220
0.0
230
1.0
 70
     8
 71
     3
 72
     9
 73
     5
 74
     0
 42
0.0000000001
 43
0.0000000001
 40
0.0
 40
0.0
 40
0.0
 40
0.0
 40
1.0
 40
2.0
 40
2.0
 40
2.0
 40
2.0
 10
23.4472194058256
 20
0.7300915873502625
 30
0.0
 10
23.7553861349675
 20
0.7300915873502625
 30
0.0
 10
23.97036880248223
 20
0.9357752385150224
 30
0.0
 10
24.13649177283452
 20
1.668670695951597
 30
0.0
 10
24.14736023545454
 20
2.342105050120821
 30
0.0
  0
SPLINE
  5
1DC
330
1F
100
AcDbEntity
  8
DEFAULT
 62
     7
100
AcDbSpline
210
0.0
220
0.0
230
1.0
 70
     8
 71
     3
 72
     9
 73
     5
 74
     0
 42
0.0000000001
 43
0.0000000001
 40
-2.0
 40
-2.0
 40
-2.0
 40
-2.0
 40
-1.0
 40
0.0
 40
0.0
 40
0.0
 40
0.0
 10
6.035501975401401
 20
2.342105050247838
 30
0.0
 10
6.046370438021418
 20
1.668670696078614
 30
0.0
 10
6.21249340837371
 20
0.935775238642039
 30
0.0
 10
6.427476075888439
 20
0.7300915874772791
 30
0.0
 10
6.735642805030338
 20
0.7300915874772791
 30
0.0
  0
SPLINE
  5
1DD
330
1F
100
AcDbEntity
  8
DEFAULT
 62
     7
100
AcDbSpline
210
0.0
220
0.0
230
1.0
 70
     8
 71
     3
 72
     9
 73
     5
 74
     0
 42
0.0000000001
 43
0.0000000001
 40
0.0
 40
0.0
 40
0.0
 40
0.0
 40
1.0
 40
2.0
 40
2.0
 40
2.0
 40
2.0
 10
6.735642805030338
 20
0.7300915874772791
 30
0.0
 10
7.043809534172237
 20
0.7300915874772791
 30
0.0
 10
7.258792201686966
 20
0.935775238642039
 30
0.0
 10
7.424915172039258
 20
1.668670696078614
 30
0.0
 10
7.435783634659275
 20
2.342105050247838
 30
0.0
  0
SPLINE
  5
1DE
330
1F
100
AcDbEntity
  8
DEFAULT
 62
     7
100
AcDbSpline
210
0.0
220
0.0
230
1.0
 70
     8
 71
     3
 72
     9
 73
     5
 74
     0
 42
0.0000000001
 43
0.0000000001
 40
-2.0
 40
-2.0
 40
-2.0
 40
-2.0
 40
-1.0
 40
0.0
 40
0.0
 40
0.0
 40
0.0
 10
2.091015488336334
 20
2.342105050301262
 30
0.0
 10
2.101883950956351
 20
1.668670696132038
 30
0.0
 10
2.268006921308643
 20
0.935775238695463
 30
0.0
 10
2.482989588823372
 20
0.730091587530703
 30
0.0
 10
2.791156317965271
 20
0.730091587530703
 30
0.0
  0
SPLINE
  5
1DF
330
1F
100
AcDbEntity
  8
DEFAULT
 62
     7
100
AcDbSpline
210
0.0
220
0.0
230
1.0
 70
     8
 71
     3
 72
     9
 73
     5
 74
     0
 42
0.0000000001
 43
0.0000000001
 40
0.0
 40
0.0
 40
0.0
 40
0.0
 40
1.0
 40
2.0
 40
2.0
 40
2.0
 40
2.0
 10
2.791156317965271
 20
0.730091587530703
 30
0.0
 10
3.09932304710717
 20
0.730091587530703
 30
0.0
 10
3.314305714621899
 20
0.935775238695463
 30
0.0
 10
3.480428684974191
 20
1.668670696132038
 30
0.0
 10
3.491297147594208
 20
2.342105050301262
 30
0.0
  0
LINE
  5
1E0
330
1F
100
AcDbEntity
  8
DEFAULT
 62
     7
100
AcDbLine
 10
2.007095583054792
 20
2.415611580325244
 30
0.0
 11
24.22992529986765
 21
2.415611580325244
 31
0.0
  0
LINE
  5
1E1
330
1F
100
AcDbEntity
  8
DEFAULT
 62
     7
100
AcDbLine
 10
50.66812935239597
 20
4.192505344829723
 30
0.0
 11
53.12480782829707
 21
3.509770906116533
 31
0.0
  0
LINE
  5
1E2
330
1F
100
AcDbEntity
  8
DEFAULT
 62
     7
100
AcDbLine
 10
53.12480782829707
 20
3.509770906116533
 30
0.0
 11
53.38846217763855
 21
3.437719898015359
 31
0.0
  0
ARC
  5
1E3
330
1F
100
AcDbEntity
  8
DEFAULT
 62
     7
100
AcDbCircle
 10
53.40302518014176
 20
2.519228678878232
 30
0.0
 40
1.031075934412519
100
AcDbArc
 50
117.0249793725121
 51
179.9999999999998
  0
LINE
  5
1E4
330
1F
100
AcDbEntity
  8
DEFAULT
 62
     7
100
AcDbLine
 10
49.54488308895825
 20
2.415611580325244
 30
0.0
 11
49.57553872861977
 21
3.037835672134872
 31
0.0
  0
ARC
  5
1E5
330
1F
100
AcDbEntity
  8
DEFAULT
 62
     7
100
AcDbCircle
 10
50.92512227308868
 20
2.993560239247481
 30
0.0
 40
1.350309615406275
100
AcDbArc
 50
124.1101011155678
 51
178.1209863325745
  0
LINE
  5
1E6
330
1F
100
AcDbEntity
  8
DEFAULT
 62
     7
100
AcDbLine
 10
51.76315281227975
 20
4.236000794924589
 30
0.0
 11
48.22193968730455
 21
4.236000794924589
 31
0.0
  0
ARC
  5
1E7
330
1F
100
AcDbEntity
  8
DEFAULT
 62
     7
100
AcDbCircle
 10
41.26588170807497
 20
2.519228301731602
 30
0.0
 40
1.031075934411763
100
AcDbArc
 50
117.0249793725118
 51
185.7676054087451
  0
ARC
  5
1E8
330
1F
100
AcDbEntity
  8
DEFAULT
 62
     7
100
AcDbCircle
 10
60.41748103246678
 20
2.519228301731578
 30
0.0
 40
1.03107593441179
100
AcDbArc
 50
354.2323945912562
 51
62.97502062748813
  0
ARC
  5
1E9
330
1F
100
AcDbEntity
  8
DEFAULT
 62
     7
100
AcDbCircle
 10
52.91996301766888
 20
2.519228678878982
 30
0.0
 40
1.031075934411677
100
AcDbArc
 50
354.2323735269458
 51
62.97502062748802
  0
LINE
  5
1EA
330
1F
100
AcDbEntity
  8
DEFAULT
 62
     7
100
AcDbLine
 10
53.94581928411668
 20
2.415611580325244
 30
0.0
 11
40.24002540353321
 21
2.415611580325242
 31
0.0
  0
LINE
  5
1EB
330
1F
100
AcDbEntity
  8
DEFAULT
 62
     7
100
AcDbLine
 10
53.94581928411669
 20
2.415611580325244
 30
0.0
 11
61.44333733700857
 21
2.415611580325244
 31
0.0
  0
ENDSEC
  0
SECTION
  2
OBJECTS
  0
DICTIONARY
  5
C
330
0
100
AcDbDictionary
  3
ACAD_GROUP
350
D
  3
ACAD_LAYOUT
350
1A
  3
ACAD_MLINESTYLE
350
17
  3
ACAD_PLOTSETTINGS
350
19
  3
ACDBHEADERROUNDTRIPXREC
350
1EC
  0
DICTIONARY
  5
20C
330
29
100
AcDbDictionary
280
     1
  3
ACAD_XREC_ROUNDTRIP
360
20D
  0
DICTIONARY
  5
D
102
{ACAD_REACTORS
330
C
102
}
330
C
100
AcDbDictionary
  0
DICTIONARY
  5
1A
102
{ACAD_REACTORS
330
C
102
}
330
C
100
AcDbDictionary
  0
DICTIONARY
  5
17
102
{ACAD_REACTORS
330
C
102
}
330
C
100
AcDbDictionary
  3
STANDARD
350
18
  0
DICTIONARY
  5
19
102
{ACAD_REACTORS
330
C
102
}
330
C
100
AcDbDictionary
  0
DICTIONARY
  5
1EC
102
{ACAD_REACTORS
330
C
102
}
330
C
100
AcDbDictionary
  3
CEPSNTYPE
350
1F5
  3
DIMSTYLEDATA
350
20B
  3
FINGERPRINTGUID
350
1F6
  3
HYPERLINKBASE
350
1EF
  3
INSUNITS
350
1F4
  3
LAYOUTDICT
350
1F1
  3
LWETCUNION
350
1F3
  3
PLOTSETDICT
350
1F2
  3
PSVPSCALE
350
1F8
  3
PUCSBASE
350
1FB
  3
PUCSORGBACK
350
201
  3
PUCSORGBOTTOM
350
1FD
  3
PUCSORGFRONT
350
200
  3
PUCSORGLEFT
350
1FE
  3
PUCSORGRIGHT
350
1FF
  3
PUCSORGTOP
350
1FC
  3
PUCSORTHOREF
350
1F9
  3
PUCSORTHOVIEW
350
1FA
  3
STYLESHEET
350
1F0
  3
TSTACKALIGN
350
1ED
  3
TSTACKSIZE
350
1EE
  3
UCSBASE
350
204
  3
UCSORGBACK
350
20A
  3
UCSORGBOTTOM
350
206
  3
UCSORGFRONT
350
209
  3
UCSORGLEFT
350
207
  3
UCSORGRIGHT
350
208
  3
UCSORGTOP
350
205
  3
UCSORTHOREF
350
202
  3
UCSORTHOVIEW
350
203
  3
VERSIONGUID
350
1F7
  0
XRECORD
  5
20D
102
{ACAD_REACTORS
330
20C
102
}
330
20C
100
AcDbXrecord
102
UCS
 74
     0
 71
     1
 10
0.0
 20
0.0
 30
0.0
 10
1.0
 20
0.0
 30
0.0
 10
0.0
 20
1.0
 30
0.0
146
0.0
 79
     0
102
VIEW
281
     0
  0
MLINESTYLE
  5
18
102
{ACAD_REACTORS
330
17
102
}
330
17
100
AcDbMlineStyle
  2
Standard
 70
     0
  3

 62
   256
 51
90.0
 52
90.0
 71
     2
 49
0.5
 62
   256
  6
BYLAYER
 49
-0.5
 62
   256
  6
BYLAYER
  0
XRECORD
  5
1F5
102
{ACAD_REACTORS
330
1EC
102
}
330
1EC
100
AcDbXrecord
 90
        0
  0
XRECORD
  5
20B
102
{ACAD_REACTORS
330
1EC
102
}
330
1EC
100
AcDbXrecord
1000
DSTYLE
1002
{
1070
   340
340
11
1002
}
  0
XRECORD
  5
1F6
102
{ACAD_REACTORS
330
1EC
102
}
330
1EC
100
AcDbXrecord
  1
{FAEB1C30-E019-11D5-929B-00C0DF256EC4}
  0
XRECORD
  5
1EF
102
{ACAD_REACTORS
330
1EC
102
}
330
1EC
100
AcDbXrecord
  1

  0
XRECORD
  5
1F4
102
{ACAD_REACTORS
330
1EC
102
}
330
1EC
100
AcDbXrecord
 90
        1
  0
XRECORD
  5
1F1
102
{ACAD_REACTORS
330
1EC
102
}
330
1EC
100
AcDbXrecord
340
1A
  0
XRECORD
  5
1F3
102
{ACAD_REACTORS
330
1EC
102
}
330
1EC
100
AcDbXrecord
 90
     2560
  0
XRECORD
  5
1F2
102
{ACAD_REACTORS
330
1EC
102
}
330
1EC
100
AcDbXrecord
340
19
  0
XRECORD
  5
1F8
102
{ACAD_REACTORS
330
1EC
102
}
330
1EC
100
AcDbXrecord
 40
0.0
  0
XRECORD
  5
1FB
102
{ACAD_REACTORS
330
1EC
102
}
330
1EC
100
AcDbXrecord
340
0
  0
XRECORD
  5
201
102
{ACAD_REACTORS
330
1EC
102
}
330
1EC
100
AcDbXrecord
 10
0.0
 20
0.0
 30
0.0
  0
XRECORD
  5
1FD
102
{ACAD_REACTORS
330
1EC
102
}
330
1EC
100
AcDbXrecord
 10
0.0
 20
0.0
 30
0.0
  0
XRECORD
  5
200
102
{ACAD_REACTORS
330
1EC
102
}
330
1EC
100
AcDbXrecord
 10
0.0
 20
0.0
 30
0.0
  0
XRECORD
  5
1FE
102
{ACAD_REACTORS
330
1EC
102
}
330
1EC
100
AcDbXrecord
 10
0.0
 20
0.0
 30
0.0
  0
XRECORD
  5
1FF
102
{ACAD_REACTORS
330
1EC
102
}
330
1EC
100
AcDbXrecord
 10
0.0
 20
0.0
 30
0.0
  0
XRECORD
  5
1FC
102
{ACAD_REACTORS
330
1EC
102
}
330
1EC
100
AcDbXrecord
 10
0.0
 20
0.0
 30
0.0
  0
XRECORD
  5
1F9
102
{ACAD_REACTORS
330
1EC
102
}
330
1EC
100
AcDbXrecord
340
0
  0
XRECORD
  5
1FA
102
{ACAD_REACTORS
330
1EC
102
}
330
1EC
100
AcDbXrecord
 70
     0
  0
XRECORD
  5
1F0
102
{ACAD_REACTORS
330
1EC
102
}
330
1EC
100
AcDbXrecord
  1

  0
XRECORD
  5
1ED
102
{ACAD_REACTORS
330
1EC
102
}
330
1EC
100
AcDbXrecord
 90
        1
  0
XRECORD
  5
1EE
102
{ACAD_REACTORS
330
1EC
102
}
330
1EC
100
AcDbXrecord
 90
       70
  0
XRECORD
  5
204
102
{ACAD_REACTORS
330
1EC
102
}
330
1EC
100
AcDbXrecord
340
0
  0
XRECORD
  5
20A
102
{ACAD_REACTORS
330
1EC
102
}
330
1EC
100
AcDbXrecord
 10
0.0
 20
0.0
 30
0.0
  0
XRECORD
  5
206
102
{ACAD_REACTORS
330
1EC
102
}
330
1EC
100
AcDbXrecord
 10
0.0
 20
0.0
 30
0.0
  0
XRECORD
  5
209
102
{ACAD_REACTORS
330
1EC
102
}
330
1EC
100
AcDbXrecord
 10
0.0
 20
0.0
 30
0.0
  0
XRECORD
  5
207
102
{ACAD_REACTORS
330
1EC
102
}
330
1EC
100
AcDbXrecord
 10
0.0
 20
0.0
 30
0.0
  0
XRECORD
  5
208
102
{ACAD_REACTORS
330
1EC
102
}
330
1EC
100
AcDbXrecord
 10
0.0
 20
0.0
 30
0.0
  0
XRECORD
  5
205
102
{ACAD_REACTORS
330
1EC
102
}
330
1EC
100
AcDbXrecord
 10
0.0
 20
0.0
 30
0.0
  0
XRECORD
  5
202
102
{ACAD_REACTORS
330
1EC
102
}
330
1EC
100
AcDbXrecord
340
0
  0
XRECORD
  5
203
102
{ACAD_REACTORS
330
1EC
102
}
330
1EC
100
AcDbXrecord
 70
     0
  0
XRECORD
  5
1F7
102
{ACAD_REACTORS
330
1EC
102
}
330
1EC
100
AcDbXrecord
  1
{FAEB1C32-E019-11D5-929B-00C0DF256EC4}
  0
ENDSEC
  0
EOF
