  0
SECTION
  2
HEADER
  9
$ACADVER
  1
AC1018
  9
$ACADMAINTVER
 70
     0
  9
$DWGCODEPAGE
  3
ANSI_1252
  9
$INSBASE
 10
0.0
 20
0.0
 30
0.0
  9
$EXTMIN
 10
-13.44788020466326
 20
0.0000880574447647
 30
0.0
  9
$EXTMAX
 10
45.9164649700557
 20
63.8696855081846
 30
0.0
  9
$LIMMIN
 10
0.0
 20
0.0
  9
$LIMMAX
 10
12.0
 20
9.0
  9
$ORTHOMODE
 70
     0
  9
$REGENMODE
 70
     1
  9
$FILLMODE
 70
     1
  9
$QTEXTMODE
 70
     0
  9
$MIRRTEXT
 70
     1
  9
$LTSCALE
 40
0.0393700787401575
  9
$ATTMODE
 70
     1
  9
$TEXTSIZE
 40
0.2
  9
$TRACEWID
 40
0.05
  9
$TEXTSTYLE
  7
Standard
  9
$CLAYER
  8
0
  9
$CELTYPE
  6
ByLayer
  9
$CECOLOR
 62
   256
  9
$CELTSCALE
 40
1.0
  9
$DISPSILH
 70
     0
  9
$DIMSCALE
 40
1.0
  9
$DIMASZ
 40
0.18
  9
$DIMEXO
 40
0.0625
  9
$DIMDLI
 40
0.38
  9
$DIMRND
 40
0.0
  9
$DIMDLE
 40
0.0
  9
$DIMEXE
 40
0.18
  9
$DIMTP
 40
0.0
  9
$DIMTM
 40
0.0
  9
$DIMTXT
 40
0.18
  9
$DIMCEN
 40
0.09
  9
$DIMTSZ
 40
0.0
  9
$DIMTOL
 70
     0
  9
$DIMLIM
 70
     0
  9
$DIMTIH
 70
     1
  9
$DIMTOH
 70
     1
  9
$DIMSE1
 70
     0
  9
$DIMSE2
 70
     0
  9
$DIMTAD
 70
     0
  9
$DIMZIN
 70
     0
  9
$DIMBLK
  1

  9
$DIMASO
 70
     1
  9
$DIMSHO
 70
     1
  9
$DIMPOST
  1

  9
$DIMAPOST
  1

  9
$DIMALT
 70
     0
  9
$DIMALTD
 70
     2
  9
$DIMALTF
 40
25.4
  9
$DIMLFAC
 40
1.0
  9
$DIMTOFL
 70
     0
  9
$DIMTVP
 40
0.0
  9
$DIMTIX
 70
     0
  9
$DIMSOXD
 70
     0
  9
$DIMSAH
 70
     0
  9
$DIMBLK1
  1

  9
$DIMBLK2
  1

  9
$DIMSTYLE
  2
Standard
  9
$DIMCLRD
 70
     0
  9
$DIMCLRE
 70
     0
  9
$DIMCLRT
 70
     0
  9
$DIMTFAC
 40
1.0
  9
$DIMGAP
 40
0.09
  9
$DIMJUST
 70
     0
  9
$DIMSD1
 70
     0
  9
$DIMSD2
 70
     0
  9
$DIMTOLJ
 70
     1
  9
$DIMTZIN
 70
     0
  9
$DIMALTZ
 70
     0
  9
$DIMALTTZ
 70
     0
  9
$DIMUPT
 70
     0
  9
$DIMDEC
 70
     4
  9
$DIMTDEC
 70
     4
  9
$DIMALTU
 70
     2
  9
$DIMALTTD
 70
     2
  9
$DIMTXSTY
  7
Standard
  9
$DIMAUNIT
 70
     0
  9
$DIMADEC
 70
     0
  9
$DIMALTRND
 40
0.0
  9
$DIMAZIN
 70
     0
  9
$DIMDSEP
 70
    46
  9
$DIMATFIT
 70
     3
  9
$DIMFRAC
 70
     0
  9
$DIMLDRBLK
  1

  9
$DIMLUNIT
 70
     2
  9
$DIMLWD
 70
    -2
  9
$DIMLWE
 70
    -2
  9
$DIMTMOVE
 70
     2
  9
$LUNITS
 70
     2
  9
$LUPREC
 70
     3
  9
$SKETCHINC
 40
0.1
  9
$FILLETRAD
 40
0.5
  9
$AUNITS
 70
     0
  9
$AUPREC
 70
     0
  9
$MENU
  1
.
  9
$ELEVATION
 40
0.0
  9
$PELEVATION
 40
0.0
  9
$THICKNESS
 40
0.0
  9
$LIMCHECK
 70
     0
  9
$CHAMFERA
 40
0.5
  9
$CHAMFERB
 40
0.5
  9
$CHAMFERC
 40
1.0
  9
$CHAMFERD
 40
0.0
  9
$SKPOLY
 70
     0
  9
$TDCREATE
 40
2458108.704977592
  9
$TDUCREATE
 40
2458108.913310926
  9
$TDUPDATE
 40
2458108.704977604
  9
$TDUUPDATE
 40
2458108.913310938
  9
$TDINDWG
 40
0.0000000116
  9
$TDUSRTIMER
 40
0.0000000116
  9
$USRTIMER
 70
     1
  9
$ANGBASE
 50
0.0
  9
$ANGDIR
 70
     0
  9
$PDMODE
 70
     0
  9
$PDSIZE
 40
0.0
  9
$PLINEWID
 40
0.0
  9
$SPLFRAME
 70
     0
  9
$SPLINETYPE
 70
     6
  9
$SPLINESEGS
 70
     8
  9
$HANDSEED
  5
B6
  9
$SURFTAB1
 70
     6
  9
$SURFTAB2
 70
     6
  9
$SURFTYPE
 70
     6
  9
$SURFU
 70
     6
  9
$SURFV
 70
     6
  9
$UCSBASE
  2

  9
$UCSNAME
  2

  9
$UCSORG
 10
0.0
 20
0.0
 30
0.0
  9
$UCSXDIR
 10
1.0
 20
0.0
 30
0.0
  9
$UCSYDIR
 10
0.0
 20
1.0
 30
0.0
  9
$UCSORTHOREF
  2

  9
$UCSORTHOVIEW
 70
     0
  9
$UCSORGTOP
 10
0.0
 20
0.0
 30
0.0
  9
$UCSORGBOTTOM
 10
0.0
 20
0.0
 30
0.0
  9
$UCSORGLEFT
 10
0.0
 20
0.0
 30
0.0
  9
$UCSORGRIGHT
 10
0.0
 20
0.0
 30
0.0
  9
$UCSORGFRONT
 10
0.0
 20
0.0
 30
0.0
  9
$UCSORGBACK
 10
0.0
 20
0.0
 30
0.0
  9
$PUCSBASE
  2

  9
$PUCSNAME
  2

  9
$PUCSORG
 10
0.0
 20
0.0
 30
0.0
  9
$PUCSXDIR
 10
1.0
 20
0.0
 30
0.0
  9
$PUCSYDIR
 10
0.0
 20
1.0
 30
0.0
  9
$PUCSORTHOREF
  2

  9
$PUCSORTHOVIEW
 70
     0
  9
$PUCSORGTOP
 10
0.0
 20
0.0
 30
0.0
  9
$PUCSORGBOTTOM
 10
0.0
 20
0.0
 30
0.0
  9
$PUCSORGLEFT
 10
0.0
 20
0.0
 30
0.0
  9
$PUCSORGRIGHT
 10
0.0
 20
0.0
 30
0.0
  9
$PUCSORGFRONT
 10
0.0
 20
0.0
 30
0.0
  9
$PUCSORGBACK
 10
0.0
 20
0.0
 30
0.0
  9
$USERI1
 70
     0
  9
$USERI2
 70
     0
  9
$USERI3
 70
     0
  9
$USERI4
 70
     0
  9
$USERI5
 70
     0
  9
$USERR1
 40
0.0
  9
$USERR2
 40
0.0
  9
$USERR3
 40
0.0
  9
$USERR4
 40
0.0
  9
$USERR5
 40
0.0
  9
$WORLDVIEW
 70
     1
  9
$SHADEDGE
 70
     3
  9
$SHADEDIF
 70
    70
  9
$TILEMODE
 70
     1
  9
$MAXACTVP
 70
    64
  9
$PINSBASE
 10
0.0
 20
0.0
 30
0.0
  9
$PLIMCHECK
 70
     0
  9
$PEXTMIN
 10
1.000000000000000E+20
 20
1.000000000000000E+20
 30
1.000000000000000E+20
  9
$PEXTMAX
 10
-1.000000000000000E+20
 20
-1.000000000000000E+20
 30
-1.000000000000000E+20
  9
$PLIMMIN
 10
0.0
 20
0.0
  9
$PLIMMAX
 10
12.0
 20
9.0
  9
$UNITMODE
 70
     0
  9
$VISRETAIN
 70
     1
  9
$PLINEGEN
 70
     0
  9
$PSLTSCALE
 70
     1
  9
$TREEDEPTH
 70
  3020
  9
$CMLSTYLE
  2
Standard
  9
$CMLJUST
 70
     0
  9
$CMLSCALE
 40
1.0
  9
$PROXYGRAPHICS
 70
     1
  9
$MEASUREMENT
 70
     0
  9
$CELWEIGHT
370
    -1
  9
$ENDCAPS
280
     0
  9
$JOINSTYLE
280
     0
  9
$LWDISPLAY
290
     0
  9
$INSUNITS
 70
     1
  9
$HYPERLINKBASE
  1

  9
$STYLESHEET
  1

  9
$XEDIT
290
     1
  9
$CEPSNTYPE
380
     0
  9
$PSTYLEMODE
290
     1
  9
$FINGERPRINTGUID
  2
{7C43D1F3-0054-47CD-B41F-4B89A7CF4A21}
  9
$VERSIONGUID
  2
{FAEB1C32-E019-11D5-929B-00C0DF256EC4}
  9
$EXTNAMES
290
     1
  9
$PSVPSCALE
 40
0.0
  9
$OLESTARTUP
290
     0
  9
$SORTENTS
280
   127
  9
$INDEXCTL
280
     0
  9
$HIDETEXT
280
     1
  9
$XCLIPFRAME
290
     0
  9
$HALOGAP
280
     0
  9
$OBSCOLOR
 70
   257
  9
$OBSLTYPE
280
     0
  9
$INTERSECTIONDISPLAY
280
     0
  9
$INTERSECTIONCOLOR
 70
   257
  9
$DIMASSOC
280
     2
  9
$PROJECTNAME
  1

  0
ENDSEC
  0
SECTION
  2
CLASSES
  0
CLASS
  1
ACDBDICTIONARYWDFLT
  2
AcDbDictionaryWithDefault
  3
ObjectDBX Classes
 90
        0
 91
        4
280
     0
281
     0
  0
CLASS
  1
VISUALSTYLE
  2
AcDbVisualStyle
  3
ObjectDBX Classes
 90
     4095
 91
        4
280
     0
281
     0
  0
ENDSEC
  0
SECTION
  2
TABLES
  0
TABLE
  2
VPORT
  5
8
330
0
100
AcDbSymbolTable
 70
     1
  0
VPORT
  5
29
330
8
100
AcDbSymbolTableRecord
100
AcDbViewportTableRecord
  2
*Active
 70
     0
 10
0.0
 20
0.0
 11
1.0
 21
1.0
 12
16.23429238269622
 22
31.93488678281468
 13
0.0
 23
0.0
 14
0.5
 24
0.5
 15
0.5
 25
0.5
 16
0.0
 26
0.0
 36
1.0
 17
0.0
 27
0.0
 37
0.0
 40
65.14698939975463
 41
0.9294617086087696
 42
50.0
 43
0.0
 44
0.0
 50
0.0
 51
0.0
 71
     0
 72
   100
 73
     1
 74
     3
 75
     0
 76
     0
 77
     0
 78
     0
281
     0
 65
     1
110
0.0
120
0.0
130
0.0
111
1.0
121
0.0
131
0.0
112
0.0
122
1.0
132
0.0
 79
     0
146
0.0
  0
ENDTAB
  0
TABLE
  2
LTYPE
  5
5
330
0
100
AcDbSymbolTable
 70
     1
  0
LTYPE
  5
14
330
5
100
AcDbSymbolTableRecord
100
AcDbLinetypeTableRecord
  2
ByBlock
 70
     0
  3

 72
    65
 73
     0
 40
0.0
  0
LTYPE
  5
15
330
5
100
AcDbSymbolTableRecord
100
AcDbLinetypeTableRecord
  2
ByLayer
 70
     0
  3

 72
    65
 73
     0
 40
0.0
  0
LTYPE
  5
16
330
5
100
AcDbSymbolTableRecord
100
AcDbLinetypeTableRecord
  2
Continuous
 70
     0
  3
Solid line
 72
    65
 73
     0
 40
0.0
  0
ENDTAB
  0
TABLE
  2
LAYER
  5
2
330
0
100
AcDbSymbolTable
 70
     2
  0
LAYER
  5
10
330
2
100
AcDbSymbolTableRecord
100
AcDbLayerTableRecord
  2
0
 70
     0
 62
     7
  6
Continuous
370
    -3
390
F
  0
LAYER
  5
3B
330
2
100
AcDbSymbolTableRecord
100
AcDbLayerTableRecord
  2
2d
 70
     0
 62
     7
  6
Continuous
370
    -3
390
F
  0
ENDTAB
  0
TABLE
  2
STYLE
  5
3
330
0
100
AcDbSymbolTable
 70
     1
  0
STYLE
  5
11
330
3
100
AcDbSymbolTableRecord
100
AcDbTextStyleTableRecord
  2
Standard
 70
     0
 40
0.0
 41
1.0
 50
0.0
 71
     0
 42
0.2
  3
txt
  4

  0
ENDTAB
  0
TABLE
  2
VIEW
  5
6
330
0
100
AcDbSymbolTable
 70
     0
  0
ENDTAB
  0
TABLE
  2
UCS
  5
7
330
0
100
AcDbSymbolTable
 70
     0
  0
ENDTAB
  0
TABLE
  2
APPID
  5
9
330
0
100
AcDbSymbolTable
 70
     1
  0
APPID
  5
12
330
9
100
AcDbSymbolTableRecord
100
AcDbRegAppTableRecord
  2
ACAD
 70
     0
  0
ENDTAB
  0
TABLE
  2
DIMSTYLE
  5
A
330
0
100
AcDbSymbolTable
 70
     1
100
AcDbDimStyleTable
  0
DIMSTYLE
105
27
330
A
100
AcDbSymbolTableRecord
100
AcDbDimStyleTableRecord
  2
Standard
 70
     0
340
11
  0
ENDTAB
  0
TABLE
  2
BLOCK_RECORD
  5
1
330
0
100
AcDbSymbolTable
 70
     1
  0
BLOCK_RECORD
  5
1F
330
1
100
AcDbSymbolTableRecord
100
AcDbBlockTableRecord
  2
*Model_Space
340
22
  0
BLOCK_RECORD
  5
1B
330
1
100
AcDbSymbolTableRecord
100
AcDbBlockTableRecord
  2
*Paper_Space
340
1E
  0
BLOCK_RECORD
  5
23
330
1
100
AcDbSymbolTableRecord
100
AcDbBlockTableRecord
  2
*Paper_Space0
340
26
  0
ENDTAB
  0
ENDSEC
  0
SECTION
  2
BLOCKS
  0
BLOCK
  5
20
330
1F
100
AcDbEntity
  8
0
100
AcDbBlockBegin
  2
*Model_Space
 70
     0
 10
0.0
 20
0.0
 30
0.0
  3
*Model_Space
  1

  0
ENDBLK
  5
21
330
1F
100
AcDbEntity
  8
0
100
AcDbBlockEnd
  0
BLOCK
  5
1C
330
1B
100
AcDbEntity
 67
     1
  8
0
100
AcDbBlockBegin
  2
*Paper_Space
 70
     0
 10
0.0
 20
0.0
 30
0.0
  3
*Paper_Space
  1

  0
ENDBLK
  5
1D
330
1B
100
AcDbEntity
 67
     1
  8
0
100
AcDbBlockEnd
  0
BLOCK
  5
24
330
23
100
AcDbEntity
  8
0
100
AcDbBlockBegin
  2
*Paper_Space0
 70
     0
 10
0.0
 20
0.0
 30
0.0
  3
*Paper_Space0
  1

  0
ENDBLK
  5
25
330
23
100
AcDbEntity
  8
0
100
AcDbBlockEnd
  0
ENDSEC
  0
SECTION
  2
ENTITIES
  0
SPLINE
  5
3C
330
1F
100
AcDbEntity
  8
2d
100
AcDbSpline
210
0.0
220
0.0
230
1.0
 70
     8
 71
     3
 72
    16
 73
    12
 74
     0
 42
0.0000000001
 43
0.0000000001
 40
0.0
 40
0.0
 40
0.0
 40
0.0
 40
1.0
 40
2.0
 40
3.0
 40
4.0
 40
5.0
 40
6.0
 40
7.0
 40
8.0
 40
9.0
 40
9.0
 40
9.0
 40
9.0
 10
-11.10799545154219
 20
43.38213038763923
 30
0.0
 10
-11.27373189243432
 20
43.43722456145233
 30
0.0
 10
-11.58783657379985
 20
43.59806016854013
 30
0.0
 10
-11.97904563130615
 20
43.9507048530884
 30
0.0
 10
-12.30645571544227
 20
44.3614726764019
 30
0.0
 10
-12.55705103971415
 20
44.82573714921753
 30
0.0
 10
-12.67539244455423
 20
45.33963156393607
 30
0.0
 10
-12.71625190074794
 20
45.86232155870429
 30
0.0
 10
-12.71860958309123
 20
46.38641088003137
 30
0.0
 10
-12.69820001144687
 20
46.90991768042835
 30
0.0
 10
-12.67764787640603
 20
47.25856325989358
 30
0.0
 10
-12.66560326805854
 20
47.43276798815602
 30
0.0
  0
SPLINE
  5
3D
330
1F
100
AcDbEntity
  8
2d
100
AcDbSpline
210
0.0
220
0.0
230
1.0
 70
     8
 71
     3
 72
    15
 73
    11
 74
     0
 42
0.0000000001
 43
0.0000000001
 40
-22.45322484458234
 40
-22.45322484458234
 40
-22.45322484458234
 40
-22.45322484458234
 40
-18.83839095825169
 40
-15.49699588170671
 40
-12.5922085719102
 40
-10.01551148178071
 40
-7.529574129147199
 40
-5.107162304111183
 40
-2.644511482700824
 40
0.0
 40
0.0
 40
0.0
 40
0.0
 10
-12.66560326805854
 20
47.43276798815602
 30
0.0
 10
-12.58229461304203
 20
48.63515277705888
 30
0.0
 10
-12.27439228343484
 20
50.93668855735752
 30
0.0
 10
-11.48436146503701
 20
54.13335663208217
 30
0.0
 10
-10.3806103092346
 20
56.87001981900507
 30
0.0
 10
-8.933131930352769
 20
59.11367656977037
 30
0.0
 10
-7.140922020612628
 20
60.87442115072987
 30
0.0
 10
-5.004272863417963
 20
62.12609335607888
 30
0.0
 10
-2.586500805645372
 20
62.85499648551185
 30
0.0
 10
-0.8810508595174227
 20
62.99364365297436
 30
0.0
 10
0.0000045484578166
 20
62.99383413807848
 30
0.0
  0
SPLINE
  5
3E
330
1F
100
AcDbEntity
  8
2d
100
AcDbSpline
210
0.0
220
0.0
230
1.0
 70
     8
 71
     3
 72
    15
 73
    11
 74
     0
 42
0.0000000001
 43
0.0000000001
 40
0.0
 40
0.0
 40
0.0
 40
0.0
 40
2.64451148270082
 40
5.107162304111183
 40
7.529574129147198
 40
10.01551148178071
 40
12.5922085719102
 40
15.49699588170671
 40
18.8383909582517
 40
22.45322484458235
 40
22.45322484458235
 40
22.45322484458235
 40
22.45322484458235
 10
0.0000045484578166
 20
62.99383413807848
 30
0.0
 10
0.8810599564330204
 20
62.99364365297438
 30
0.0
 10
2.586509902560962
 20
62.85499648551183
 30
0.0
 10
5.004281960333614
 20
62.12609335607886
 30
0.0
 10
7.140931117528226
 20
60.87442115072986
 30
0.0
 10
8.933141027268405
 20
59.11367656977039
 30
0.0
 10
10.38061940615025
 20
56.87001981900505
 30
0.0
 10
11.48437056195265
 20
54.13335663208215
 30
0.0
 10
12.27440138035046
 20
50.93668855735751
 30
0.0
 10
12.58230370995765
 20
48.63515277705888
 30
0.0
 10
12.66561236497417
 20
47.43276798815602
 30
0.0
  0
SPLINE
  5
3F
330
1F
100
AcDbEntity
  8
2d
100
AcDbSpline
210
0.0
220
0.0
230
1.0
 70
     8
 71
     3
 72
    16
 73
    12
 74
     0
 42
0.0000000001
 43
0.0000000001
 40
-9.0
 40
-9.0
 40
-9.0
 40
-9.0
 40
-8.0
 40
-7.0
 40
-6.0
 40
-5.0
 40
-4.0
 40
-3.0
 40
-2.0
 40
-1.0
 40
0.0
 40
0.0
 40
0.0
 40
0.0
 10
12.66561236497417
 20
47.43276798815602
 30
0.0
 10
12.67765697332163
 20
47.25856325987881
 30
0.0
 10
12.69820910836276
 20
46.90991768050223
 30
0.0
 10
12.71861868000599
 20
46.38641087979496
 30
0.0
 10
12.71626099766687
 20
45.86232155957615
 30
0.0
 10
12.67540154160681
 20
45.33963156423913
 30
0.0
 10
12.55706013632799
 20
44.82573714877496
 30
0.0
 10
12.30646481314169
 20
44.36147267710925
 30
0.0
 10
11.9790547253793
 20
43.95070485068802
 30
0.0
 10
11.58784568130153
 20
43.59806017743431
 30
0.0
 10
11.2737409999426
 20
43.43722456522486
 30
0.0
 10
11.10800454845782
 20
43.38213038763923
 30
0.0
  0
SPLINE
  5
40
330
1F
100
AcDbEntity
  8
2d
100
AcDbSpline
210
0.0
220
0.0
230
1.0
 70
    24
 71
     2
 72
     6
 73
     3
 74
     0
 42
0.0000000001
 43
0.0000000001
 40
0.0
 40
0.0
 40
0.0
 40
0.3218963425254007
 40
0.3218963425254007
 40
0.3218963425254007
 10
43.44147425405384
 20
0.4627986234685499
 30
0.0
 10
43.46943648284833
 20
0.3042978278932065
 30
0.0
 10
43.49739871164282
 20
0.145797032317863
 30
0.0
  0
SPLINE
  5
41
330
1F
100
AcDbEntity
  8
2d
100
AcDbSpline
210
0.0
220
0.0
230
1.0
 70
     8
 71
     3
 72
    15
 73
    11
 74
     0
 42
0.0000000001
 43
0.0000000001
 40
0.0
 40
0.0
 40
0.0
 40
0.0
 40
0.0806458899144832
 40
0.1739202751020015
 40
0.2987028952821853
 40
0.4576621499777949
 40
0.6163753353667972
 40
0.7417887746444877
 40
0.8350332662572244
 40
0.9156626427111125
 40
0.9156626427111125
 40
0.9156626427111125
 40
0.9156626427111125
 10
43.49739871164282
 20
0.145797032317863
 30
0.0
 10
43.50131533700399
 20
0.1193470697348246
 30
0.0
 10
43.53179722543739
 20
0.0654077528263288
 30
0.0
 10
43.62539933333582
 20
0.0239693790679675
 30
0.0
 10
43.75139643060167
 20
0.0137786420755454
 30
0.0
 10
43.89844999293165
 20
0.0296328644160596
 30
0.0
 10
44.04225447516676
 20
0.0650487472159151
 30
0.0
 10
44.15731497369198
 20
0.1177414472968563
 30
0.0
 10
44.23122549432821
 20
0.1888259789009644
 30
0.0
 10
44.24140273111242
 20
0.2498679268889473
 30
0.0
 10
44.23599317693494
 20
0.2760975151973797
 30
0.0
  0
SPLINE
  5
42
330
1F
100
AcDbEntity
  8
2d
100
AcDbSpline
210
0.0
220
0.0
230
1.0
 70
    24
 71
     2
 72
     6
 73
     3
 74
     0
 42
0.0000000001
 43
0.0000000001
 40
0.0
 40
0.0
 40
0.0
 40
0.3218963425254024
 40
0.3218963425254024
 40
0.3218963425254024
 10
44.23599317693494
 20
0.2760975151973797
 30
0.0
 10
44.20803093884462
 20
0.4345983634674527
 30
0.0
 10
44.1800687007543
 20
0.5930992117375258
 30
0.0
  0
SPLINE
  5
43
330
1F
100
AcDbEntity
  8
2d
100
AcDbSpline
210
0.0
220
0.0
230
1.0
 70
     8
 71
     3
 72
    16
 73
    12
 74
     0
 42
0.0000000001
 43
0.0000000001
 40
0.0
 40
0.0
 40
0.0
 40
0.0
 40
1.0
 40
2.0
 40
3.0
 40
4.0
 40
5.0
 40
6.0
 40
7.0
 40
8.0
 40
9.0
 40
9.0
 40
9.0
 40
9.0
 10
44.1800687007543
 20
0.5930992117375258
 30
0.0
 10
44.15459034636435
 20
0.6044668803051503
 30
0.0
 10
44.09548503064129
 20
0.5984606037753186
 30
0.0
 10
44.01060427058449
 20
0.5913882992629947
 30
0.0
 10
43.92515798639894
 20
0.579497547820561
 30
0.0
 10
43.84029910167445
 20
0.5662111748781461
 30
0.0
 10
43.75542235983599
 20
0.551097610461133
 30
0.0
 10
43.6717663957271
 20
0.5343238984322783
 30
0.0
 10
43.58522581617961
 20
0.5155401492296507
 30
0.0
 10
43.51171110683469
 20
0.4937640176925027
 30
0.0
 10
43.43331530750649
 20
0.4748783582453288
 30
0.0
 10
43.45422172435739
 20
0.4569497763305427
 30
0.0
  0
SPLINE
  5
44
330
1F
100
AcDbEntity
  8
2d
100
AcDbSpline
210
0.0
220
0.0
230
1.0
 70
     8
 71
     3
 72
    16
 73
    12
 74
     0
 42
0.0000000001
 43
0.0000000001
 40
0.0
 40
0.0
 40
0.0
 40
0.0
 40
0.9996695595731274
 40
1.999710864626487
 40
2.999752169679845
 40
3.999793474733204
 40
4.999834779786564
 40
5.999876084839923
 40
6.999917389893282
 40
7.999958694946641
 40
9.0
 40
9.0
 40
9.0
 40
9.0
 10
25.07318898379068
 20
0.391919717981489
 30
0.0
 10
25.07873425287609
 20
0.4234618159426002
 30
0.0
 10
25.02896403121454
 20
0.465656503532545
 30
0.0
 10
24.95793207763348
 20
0.5147967824859977
 30
0.0
 10
24.87855068693399
 20
0.5560066827234088
 30
0.0
 10
24.7979155720806
 20
0.5924776420761142
 30
0.0
 10
24.71502121578032
 20
0.6243248046568532
 30
0.0
 10
24.6307543959917
 20
0.6515146828923548
 30
0.0
 10
24.54431060713279
 20
0.6738275137901225
 30
0.0
 10
24.45815607103112
 20
0.6856951956813897
 30
0.0
 10
24.39450731735172
 20
0.687491153260798
 30
0.0
 10
24.37397671182793
 20
0.6630296581525336
 30
0.0
  0
SPLINE
  5
45
330
1F
100
AcDbEntity
  8
2d
100
AcDbSpline
210
0.0
220
0.0
230
1.0
 70
    24
 71
     2
 72
     6
 73
     3
 74
     0
 42
0.0000000001
 43
0.0000000001
 40
0.0
 40
0.0
 40
0.0
 40
0.3143690823450403
 40
0.3143690823450403
 40
0.3143690823450403
 10
24.37397671182793
 20
0.6630296581525336
 30
0.0
 10
24.31750197323677
 20
0.5159266087334486
 30
0.0
 10
24.26102723464562
 20
0.3688235593143636
 30
0.0
  0
SPLINE
  5
46
330
1F
100
AcDbEntity
  8
2d
100
AcDbSpline
210
0.0
220
0.0
230
1.0
 70
     8
 71
     3
 72
    13
 73
     9
 74
     0
 42
0.0000000001
 43
0.0000000001
 40
0.0
 40
0.0
 40
0.0
 40
0.0
 40
0.0848272909346568
 40
0.1865758146461982
 40
0.4675576564293924
 40
0.7487699756354653
 40
0.849169514993376
 40
0.9343598357090116
 40
0.9343598357090116
 40
0.9343598357090116
 40
0.9343598357090116
 10
24.26102723464562
 20
0.3688235593143636
 30
0.0
 10
24.25126975215406
 20
0.343017929828162
 30
0.0
 10
24.24568178234144
 20
0.2763904658952961
 30
0.0
 10
24.33856479297495
 20
0.1436022508459743
 30
0.0
 10
24.53615666553563
 20
0.0387578968466078
 30
0.0
 10
24.75377678780343
 20
-0.0155827490122318
 30
0.0
 10
24.91072297546137
 20
0.0212825725494416
 30
0.0
 10
24.95118772585184
 20
0.0743405447593163
 30
0.0
 10
24.96122657461962
 20
0.1000841236156246
 30
0.0
  0
SPLINE
  5
47
330
1F
100
AcDbEntity
  8
2d
100
AcDbSpline
210
0.0
220
0.0
230
1.0
 70
    24
 71
     2
 72
     6
 73
     3
 74
     0
 42
0.0000000001
 43
0.0000000001
 40
0.0
 40
0.0
 40
0.0
 40
0.3126198452034534
 40
0.3126198452034534
 40
0.3126198452034534
 10
24.96122657461962
 20
0.1000841236156246
 30
0.0
 10
25.01720777920515
 20
0.2460019207985568
 30
0.0
 10
25.07318898379068
 20
0.391919717981489
 30
0.0
  0
SPLINE
  5
48
330
1F
100
AcDbEntity
  8
2d
100
AcDbSpline
210
0.0
220
0.0
230
1.0
 70
     8
 71
     3
 72
    17
 73
    13
 74
     0
 42
0.0000000001
 43
0.0000000001
 40
0.0
 40
0.0
 40
0.0
 40
0.0
 40
10.08083245809513
 40
10.08083245809513
 40
10.08083245809513
 40
10.34426990452927
 40
10.86044804293619
 40
11.12809302053042
 40
11.657121097215
 40
11.657121097215
 40
11.657121097215
 40
22.64077461691747
 40
22.64077461691747
 40
22.64077461691747
 40
22.64077461691747
 10
25.07963000109146
 20
0.4085838747554927
 30
0.0
 10
26.28392481965562
 20
3.546371386644311
 30
0.0
 10
27.48821963821978
 20
6.68415889853313
 30
0.0
 10
28.69251445678394
 20
9.821946410421948
 30
0.0
 10
28.72349486609602
 20
9.902515786263132
 30
0.0
 10
28.83339189906193
 20
10.13281874747267
 30
0.0
 10
29.05135011197529
 20
10.41366772274492
 30
0.0
 10
29.38447256536202
 20
10.69001433504641
 30
0.0
 10
29.61047818783462
 20
10.80280823138152
 30
0.0
 10
29.75838807866016
 20
10.8475561510733
 30
0.0
 10
33.2605044060148
 20
11.91519189225665
 30
0.0
 10
36.76262073336944
 20
12.98282763344
 30
0.0
 10
40.28790529388232
 20
14.05752838756884
 30
0.0
  0
SPLINE
  5
49
330
1F
100
AcDbEntity
  8
2d
100
AcDbSpline
210
0.0
220
0.0
230
1.0
 70
    12
 71
     3
 72
    12
 73
     8
 74
     0
 42
0.0000000001
 43
0.0000000001
 40
0.0
 40
0.0
 40
0.0
 40
0.0
 40
0.2528041365223013
 40
0.6709102099425663
 40
0.6806336901348209
 40
1.157092889165868
 40
1.356608721265061
 40
1.356608721265061
 40
1.356608721265061
 40
1.356608721265061
 10
40.28790529388232
 20
14.05752838756884
 30
0.0
 41
1.0
 10
40.3537771100787
 20
14.07820979934506
 30
0.0
 41
1.0
 10
40.53522874377821
 20
14.10085566968611
 30
0.0
 41
1.0
 10
40.7189983619116
 20
14.04234437822278
 30
0.0
 41
1.0
 10
40.93446422750219
 20
13.89767378866724
 30
0.0
 41
1.0
 10
41.07385001142114
 20
13.72750223761108
 30
0.0
 41
1.0
 10
41.1389067718679
 20
13.51423413920214
 30
0.0
 41
1.0
 10
41.15106203699709
 20
13.44580450515653
 30
0.0
 41
1.0
  0
SPLINE
  5
4A
330
1F
100
AcDbEntity
  8
2d
100
AcDbSpline
210
0.0
220
0.0
230
1.0
 70
    24
 71
     2
 72
     6
 73
     3
 74
     0
 42
0.0000000001
 43
0.0000000001
 40
-13.17995713960361
 40
-13.17995713960361
 40
-13.17995713960361
 40
0.0
 40
0.0
 40
0.0
 10
41.15106203699709
 20
13.44580450515653
 30
0.0
 10
42.29626814552512
 20
6.9543015643145
 30
0.0
 10
43.44147425405315
 20
0.4627986234724668
 30
0.0
  0
SPLINE
  5
4B
330
1F
100
AcDbEntity
  8
2d
100
AcDbSpline
210
0.0
220
0.0
230
1.0
 70
    12
 71
     2
 72
     6
 73
     3
 74
     0
 42
0.0000000001
 43
0.0000000001
 40
0.104937976130667
 40
0.104937976130667
 40
0.104937976130667
 40
2.057380323479101
 40
2.057380323479101
 40
2.057380323479101
 10
29.31258558643625
 20
11.48007803126641
 30
0.0
 41
0.991970938522051
 10
28.37146473310933
 20
11.06112084589667
 30
0.0
 41
0.9212923971386329
 10
27.99652637257412
 20
10.10161325888191
 30
0.0
 41
1.0
  0
SPLINE
  5
4C
330
1F
100
AcDbEntity
  8
2d
100
AcDbSpline
210
0.0
220
0.0
230
1.0
 70
    24
 71
     2
 72
     6
 73
     3
 74
     0
 42
0.0000000001
 43
0.0000000001
 40
0.0
 40
0.0
 40
0.0
 40
10.0790904885809
 40
10.0790904885809
 40
10.0790904885809
 10
27.99652637257412
 20
10.10161325888191
 30
0.0
 10
26.18755936096446
 20
5.388376175352509
 30
0.0
 10
24.3785923493548
 20
0.6751390918231046
 30
0.0
  0
LINE
  5
4D
330
1F
100
AcDbEntity
  8
2d
100
AcDbLine
 10
28.04479433483901
 20
8.1343130514567
 30
0.0
 11
41.70258633279474
 21
10.31949212883448
 31
0.0
  0
LINE
  5
4E
330
1F
100
AcDbEntity
  8
2d
100
AcDbLine
 10
41.62665484104741
 20
10.74990137626705
 30
0.0
 11
28.22576240278802
 21
8.605824956106485
 31
0.0
  0
SPLINE
  5
4F
330
1F
100
AcDbEntity
  8
2d
100
AcDbSpline
210
0.0
220
0.0
230
1.0
 70
    24
 71
     2
 72
     6
 73
     3
 74
     0
 42
0.0000000001
 43
0.0000000001
 40
0.0
 40
0.0
 40
0.0
 40
13.17995713960362
 40
13.17995713960362
 40
13.17995713960362
 10
44.18006870075465
 20
0.5930992117355638
 30
0.0
 10
43.03516460568606
 20
7.0828613153804
 30
0.0
 10
41.89026051061748
 20
13.57262341902524
 30
0.0
  0
SPLINE
  5
50
330
1F
100
AcDbEntity
  8
2d
100
AcDbSpline
210
0.0
220
0.0
230
1.0
 70
    12
 71
     3
 72
    12
 73
     8
 74
     0
 42
0.0000000001
 43
0.0000000001
 40
0.0000198859619072
 40
0.0000198859619072
 40
0.0000198859619072
 40
0.0000198859619072
 40
0.3931561014514147
 40
0.8793024346294624
 40
1.268215527605186
 40
1.268215527605186
 40
2.101663602075352
 40
2.101663602075352
 40
2.101663602075352
 40
2.101663602075352
 10
41.89026051061748
 20
13.57262341902524
 30
0.0
 41
1.0
 10
41.86844963904813
 20
13.70158437438366
 30
0.0
 41
1.0
 10
41.78252376981447
 20
13.9826285705147
 30
0.0
 41
1.0
 10
41.55641362695739
 20
14.33662814184177
 30
0.0
 41
1.0
 10
41.34358821265908
 20
14.52608239459129
 30
0.0
 41
1.0
 10
41.01771855169346
 20
14.74569639833293
 30
0.0
 41
1.0
 10
40.75563272165112
 20
14.82840933924489
 30
0.0
 41
1.0
 10
40.4914583038347
 20
14.83409530340398
 30
0.0
 41
1.0
  0
SPLINE
  5
51
330
1F
100
AcDbEntity
  8
2d
100
AcDbSpline
210
0.0
220
0.0
230
1.0
 70
     8
 71
     3
 72
    24
 73
    20
 74
     0
 42
0.0000000001
 43
0.0000000001
 40
0.0
 40
0.0
 40
0.0
 40
0.0
 40
1.0
 40
2.0
 40
3.0
 40
4.0
 40
5.0
 40
6.0
 40
7.0
 40
8.0
 40
9.0
 40
10.0
 40
11.0
 40
12.0
 40
13.0
 40
14.0
 40
15.0
 40
16.0
 40
17.0
 40
17.0
 40
17.0
 40
17.0
 10
41.66381366978586
 20
15.22088480497932
 30
0.0
 10
41.82518973670125
 20
15.25638510196337
 30
0.0
 10
42.14800028251076
 20
15.32712358572081
 30
0.0
 10
42.63199681954505
 20
15.4342141726138
 30
0.0
 10
43.11669544066245
 20
15.53815968759325
 30
0.0
 10
43.5987977768464
 20
15.65373552532031
 30
0.0
 10
44.07458711849388
 20
15.79375116015296
 30
0.0
 10
44.54212598883635
 20
15.95821807744011
 30
0.0
 10
44.99910436039247
 20
16.1537875380969
 30
0.0
 10
45.42871001073771
 20
16.396547435877
 30
0.0
 10
45.83416957723042
 20
16.70335728605151
 30
0.0
 10
45.98919540506942
 20
17.20917495231103
 30
0.0
 10
45.7078386228261
 20
17.66169782931833
 30
0.0
 10
45.26278819547436
 20
17.89278802254975
 30
0.0
 10
44.81977931596461
 20
18.11188997191918
 30
0.0
 10
44.35825281436045
 20
18.29517763143117
 30
0.0
 10
43.88965094673249
 20
18.45597445304152
 30
0.0
 10
43.4178277752395
 20
18.60993542171509
 30
0.0
 10
43.09174989413419
 20
18.66914899988587
 30
0.0
 10
42.9274017718603
 20
18.68623206638344
 30
0.0
  0
SPLINE
  5
52
330
1F
100
AcDbEntity
  8
2d
100
AcDbSpline
210
0.0
220
0.0
230
1.0
 70
    15
 71
     3
 72
    52
 73
    48
 74
     0
 42
0.0000000001
 43
0.0000000001
 40
-52.29059369126534
 40
-52.29059369126534
 40
-52.29059369126534
 40
-52.29059369126534
 40
-50.96507060973114
 40
-49.90610296036516
 40
-48.96862160912079
 40
-48.49011913447173
 40
-47.95152435454646
 40
-47.95152435454646
 40
-47.95152435454646
 40
-44.92187385383981
 40
-44.92187385383981
 40
-44.92187385383981
 40
-44.37879658789147
 40
-44.37879658789147
 40
-44.37879658789147
 40
-43.06848504733836
 40
-41.36215610322884
 40
-36.91289872658951
 40
-31.11609220796594
 40
-25.28464989200916
 40
-25.28464989200916
 40
-25.28464989200916
 40
-25.14201585212789
 40
-25.01576335733604
 40
-24.77293788946526
 40
-24.51200709297692
 40
-24.24421946562138
 40
-24.24421946562138
 40
-24.24421946562138
 40
-23.13662846005361
 40
-19.64670617738981
 40
-15.63439446683486
 40
-11.06365090111396
 40
-6.486747665331551
 40
-6.486747665331551
 40
-6.486747665331551
 40
-6.345760491461798
 40
-6.345760491461798
 40
-6.345760491461798
 40
-5.403634812156435
 40
-4.588136299116753
 40
-3.809355392884719
 40
-3.395129192554822
 40
-2.923976685428775
 40
-2.923976685428775
 40
-2.923976685428775
 40
0.0
 40
0.0
 40
0.0
 40
0.0
 10
42.92966322495685
 20
18.67145846297547
 30
0.0
 41
1.0
 10
42.99544877705115
 20
18.23391155324007
 30
0.0
 41
1.0
 10
43.04896960811516
 20
17.41759644250391
 30
0.0
 41
1.0
 10
42.83456867034762
 20
16.31317010643405
 30
0.0
 41
1.0
 10
42.33354268310379
 20
15.62848882509908
 30
0.0
 41
1.0
 10
41.78648189504089
 20
15.26733558615864
 30
0.0
 41
1.0
 10
41.4749472410312
 20
15.13218740922234
 30
0.0
 41
1.0
 10
41.30347347410186
 20
15.07772567429773
 30
0.0
 41
1.0
 10
36.54915307038447
 20
13.6512783790775
 30
0.0
 41
1.0
 10
31.79483266666707
 20
12.22483108385727
 30
0.0
 41
1.0
 10
27.04051226294968
 20
10.79838378863705
 30
0.0
 41
1.0
 10
26.877872695922
 20
10.88772510865697
 30
0.0
 41
0.9520453124645467
 10
26.76020380076316
 20
11.03120866638381
 30
0.0
 41
0.9520453124645467
 10
26.70443390277313
 20
11.20819233428577
 30
0.0
 41
1.0
 10
26.5768223408212
 20
11.62590876876695
 30
0.0
 41
1.0
 10
26.29876117112036
 20
12.59231955994842
 30
0.0
 41
1.0
 10
25.66035533542506
 20
14.99777557810103
 30
0.0
 41
1.0
 10
24.71082969215051
 20
18.86726984188268
 30
0.0
 41
1.0
 10
23.50401528891311
 20
24.0888476866824
 30
0.0
 41
1.0
 10
22.66683653134997
 20
27.87350732350035
 30
0.0
 41
1.0
 10
22.26226619031196
 20
29.77475900234386
 30
0.0
 41
1.0
 10
22.25222361419077
 20
29.8212483579471
 30
0.0
 41
1.0
 10
22.24285329017025
 20
29.91099282525916
 30
0.0
 41
1.0
 10
22.26782348264013
 20
30.08128085965394
 30
0.0
 41
1.0
 10
22.38981398999057
 20
30.26412836058536
 30
0.0
 41
1.0
 10
22.63991130781673
 20
30.36228299704989
 30
0.0
 41
1.0
 10
22.81915659905344
 20
30.33215127962803
 30
0.0
 41
1.0
 10
22.90143323874847
 20
30.29767570140724
 30
0.0
 41
1.0
 10
23.24165157207146
 20
30.15422157606996
 30
0.0
 41
1.0
 10
24.66503920928582
 20
29.58628927851386
 30
0.0
 41
1.0
 10
27.33470959286623
 20
28.53297590327407
 30
0.0
 41
1.0
 10
31.06904452142614
 20
27.032953753788
 30
0.0
 41
1.0
 10
35.14565690472583
 20
25.41308558460715
 30
0.0
 41
1.0
 10
37.97405729300294
 20
24.27380956032898
 30
0.0
 41
1.0
 10
39.38911124807727
 20
23.70197612452255
 30
0.0
 41
1.0
 10
39.43305254272088
 20
23.68421910897612
 30
0.0
 41
0.9999911027006955
 10
39.47673109117564
 20
23.66630680503397
 30
0.0
 41
0.9999911027006955
 10
39.52014572757815
 20
23.6482396908095
 30
0.0
 41
1.0
 10
39.81010170008051
 20
23.52764142230104
 30
0.0
 41
1.0
 10
40.3432103582507
 20
23.28140178171197
 30
0.0
 41
1.0
 10
41.03893918683573
 20
22.79287877170749
 30
0.0
 41
1.0
 10
41.49358971338127
 20
22.2961870642193
 30
0.0
 41
1.0
 10
41.80277877448883
 20
21.83511551618925
 30
0.0
 41
1.0
 10
41.94848898879938
 20
21.5782348099884
 30
0.0
 41
1.0
 10
42.02250699045187
 20
21.43819414691542
 30
0.0
 41
1.0
 10
42.47883515123337
 20
20.57075345494607
 30
0.0
 41
0.9906672814201295
 10
42.7840692264601
 20
19.63982008783422
 30
0.0
 41
0.9906672814201295
 10
42.92966322495685
 20
18.67145846297547
 30
0.0
 41
1.0
  0
POLYLINE
  5
53
330
1F
100
AcDbEntity
  8
2d
100
AcDb2dPolyline
 66
     1
 10
0.0
 20
0.0
 30
0.0
  0
VERTEX
  5
54
330
53
100
AcDbEntity
  8
2d
100
AcDbVertex
100
AcDb2dVertex
 10
-0.0000000000001271
 20
9.236442592425904
 30
0.0
  0
VERTEX
  5
55
330
53
100
AcDbEntity
  8
2d
100
AcDbVertex
100
AcDb2dVertex
 10
-0.0000000000001301
 20
8.7937586767248
 30
0.0
  0
SEQEND
  5
56
330
53
100
AcDbEntity
  8
2d
  0
LINE
  5
57
330
1F
100
AcDbEntity
  8
2d
100
AcDbLine
 10
-9.405470533758962
 20
10.3156590313777
 30
0.0
 11
-0.0000000000001301
 21
8.7937586767248
 31
0.0
  0
LINE
  5
58
330
1F
100
AcDbEntity
  8
2d
100
AcDbLine
 10
-0.0000000000001301
 20
8.7937586767248
 30
0.0
 11
9.405470533758722
 21
10.31565903137757
 31
0.0
  0
SPLINE
  5
59
330
1F
100
AcDbEntity
  8
2d
100
AcDbSpline
210
0.0
220
0.0
230
1.0
 70
    24
 71
     2
 72
     6
 73
     3
 74
     0
 42
0.0000000001
 43
0.0000000001
 40
-9.488870172729424
 40
-9.488870172729424
 40
-9.488870172729424
 40
0.0
 40
0.0
 40
0.0
 10
9.367036210880572
 20
10.75212388421638
 30
0.0
 10
4.683518105440222
 20
9.99428323832114
 30
0.0
 10
-0.0000000000001271
 20
9.236442592425904
 30
0.0
  0
SPLINE
  5
5A
330
1F
100
AcDbEntity
  8
2d
100
AcDbSpline
210
0.0
220
0.0
230
1.0
 70
    24
 71
     2
 72
     6
 73
     3
 74
     0
 42
0.0000000001
 43
0.0000000001
 40
0.0
 40
0.0
 40
0.0
 40
9.488870172729424
 40
9.488870172729424
 40
9.488870172729424
 10
-0.0000000000001271
 20
9.236442592425904
 30
0.0
 10
-4.683518105440466
 20
9.994283238321206
 30
0.0
 10
-9.367036210880805
 20
10.75212388421651
 30
0.0
  0
SPLINE
  5
5B
330
1F
100
AcDbEntity
  8
2d
100
AcDbSpline
210
0.0
220
0.0
230
1.0
 70
    12
 71
     3
 72
    12
 73
     8
 74
     0
 42
0.0000000001
 43
0.0000000001
 40
0.2998192930194085
 40
0.2998192930194085
 40
0.2998192930194085
 40
0.2998192930194085
 40
0.4285714285714
 40
0.5714285714286
 40
0.7142857142857
 40
0.8571428571429
 40
1.0
 40
1.0
 40
1.0
 40
1.0
 10
-3.749312821358214
 20
11.23905885084376
 30
0.0
 41
1.0
 10
-3.58879942695764
 20
11.19068875098713
 30
0.0
 41
1.0
 10
-3.235849894507225
 20
11.09967790913726
 30
0.0
 41
1.0
 10
-2.527465797241867
 20
10.96838035568351
 30
0.0
 41
1.0
 10
-1.747262853814782
 20
10.87162758400274
 30
0.0
 41
1.0
 10
-0.9249575952164668
 20
10.8127019725951
 30
0.0
 41
1.0
 10
-0.3165705907170275
 20
10.79838878167227
 30
0.0
 41
1.0
 10
-0.0000000000001162
 20
10.79838414307176
 30
0.0
 41
1.0
  0
SPLINE
  5
5C
330
1F
100
AcDbEntity
  8
2d
100
AcDbSpline
210
0.0
220
0.0
230
1.0
 70
    12
 71
     3
 72
    12
 73
     8
 74
     0
 42
0.0000000001
 43
0.0000000001
 40
-1.0
 40
-1.0
 40
-1.0
 40
-1.0
 40
-0.8571428571429
 40
-0.7142857142857
 40
-0.5714285714286
 40
-0.4285714285714
 40
-0.2998192930194085
 40
-0.2998192930194085
 40
-0.2998192930194085
 40
-0.2998192930194085
 10
-0.0000000000001162
 20
10.79838414307176
 30
0.0
 41
1.0
 10
0.3165705907167951
 20
10.79838878167227
 30
0.0
 41
1.0
 10
0.9249575952162346
 20
10.81270197259509
 30
0.0
 41
1.0
 10
1.747262853814551
 20
10.87162758400272
 30
0.0
 41
1.0
 10
2.527465797241637
 20
10.96838035568347
 30
0.0
 41
1.0
 10
3.235849894506996
 20
11.09967790913722
 30
0.0
 41
1.0
 10
3.588799426957413
 20
11.19068875098708
 30
0.0
 41
1.0
 10
3.749312821357988
 20
11.23905885084371
 30
0.0
 41
1.0
  0
SPLINE
  5
5D
330
1F
100
AcDbEntity
  8
2d
100
AcDbSpline
210
0.0
220
0.0
230
1.0
 70
     8
 71
     3
 72
    11
 73
     7
 74
     0
 42
0.0000000001
 43
0.0000000001
 40
0.0
 40
0.0
 40
0.0
 40
0.0
 40
1.251489568299284
 40
2.443373074255207
 40
4.671554738208057
 40
9.01657096285662
 40
9.01657096285662
 40
9.01657096285662
 40
9.01657096285662
 10
-8.988007201149923
 20
16.17063015439881
 30
0.0
 10
-8.574268284255098
 20
16.11724813186661
 30
0.0
 10
-7.765841766658282
 20
16.01828393401894
 30
0.0
 10
-6.217789391612468
 20
15.8493698562113
 30
0.0
 10
-3.639041213148101
 20
15.62373556837324
 30
0.0
 10
-1.448409571279516
 20
15.53713579513701
 30
0.0
 10
-0.0000000000000834
 20
15.53655275187804
 30
0.0
  0
SPLINE
  5
5E
330
1F
100
AcDbEntity
  8
2d
100
AcDbSpline
210
0.0
220
0.0
230
1.0
 70
     8
 71
     3
 72
    11
 73
     7
 74
     0
 42
0.0000000001
 43
0.0000000001
 40
-9.01657096285662
 40
-9.01657096285662
 40
-9.01657096285662
 40
-9.01657096285662
 40
-4.671554738208057
 40
-2.443373074255207
 40
-1.251489568299284
 40
0.0
 40
0.0
 40
0.0
 40
0.0
 10
-0.0000000000000834
 20
15.53655275187804
 30
0.0
 10
1.448409571279349
 20
15.53713579513699
 30
0.0
 10
3.639041213147935
 20
15.62373556837319
 30
0.0
 10
6.217789391612305
 20
15.84936985621121
 30
0.0
 10
7.765841766658122
 20
16.01828393401883
 30
0.0
 10
8.57426828425494
 20
16.11724813186649
 30
0.0
 10
8.988007201149765
 20
16.17063015439868
 30
0.0
  0
POLYLINE
  5
5F
330
1F
100
AcDbEntity
  8
2d
100
AcDb2dPolyline
 66
     1
 10
0.0
 20
0.0
 30
0.0
  0
VERTEX
  5
60
330
5F
100
AcDbEntity
  8
2d
100
AcDbVertex
100
AcDb2dVertex
 10
4.017474567447257
 20
12.82403849263243
 30
0.0
  0
VERTEX
  5
61
330
5F
100
AcDbEntity
  8
2d
100
AcDbVertex
100
AcDb2dVertex
 10
8.988019961028227
 20
16.17053099844482
 30
0.0
  0
SEQEND
  5
62
330
5F
100
AcDbEntity
  8
2d
  0
SPLINE
  5
63
330
1F
100
AcDbEntity
  8
2d
100
AcDbSpline
210
0.0
220
0.0
230
1.0
 70
     8
 71
     3
 72
    20
 73
    16
 74
     0
 42
0.0000000001
 43
0.0000000001
 40
-13.0
 40
-13.0
 40
-13.0
 40
-13.0
 40
-12.0
 40
-11.0
 40
-10.0
 40
-9.0
 40
-8.0
 40
-7.0
 40
-6.0
 40
-5.0
 40
-4.0
 40
-3.0
 40
-2.0
 40
-1.0
 40
0.0
 40
0.0
 40
0.0
 40
0.0
 10
8.988019961028227
 20
16.17053099844482
 30
0.0
 10
9.055416402103383
 20
16.21377042461975
 30
0.0
 10
9.189401111886635
 20
16.30105696680418
 30
0.0
 10
9.395158746915163
 20
16.42617851642761
 30
0.0
 10
9.576946478137694
 20
16.58322682432429
 30
0.0
 10
9.746587893076345
 20
16.75340043737355
 30
0.0
 10
9.90831246378983
 20
16.93096822735261
 30
0.0
 10
10.06176713137124
 20
17.11576298944044
 30
0.0
 10
10.20682021117389
 20
17.30722484190324
 30
0.0
 10
10.34212281200481
 20
17.50571076138855
 30
0.0
 10
10.4660414360665
 20
17.71155758652616
 30
0.0
 10
10.56909059561713
 20
17.92912493958503
 30
0.0
 10
10.63820810227213
 20
18.15944313663774
 30
0.0
 10
10.67226398977671
 20
18.39960611584898
 30
0.0
 10
10.59594844780562
 20
18.56175565761336
 30
0.0
 10
10.51673754765786
 20
18.58808457189791
 30
0.0
  0
SPLINE
  5
64
330
1F
100
AcDbEntity
  8
2d
100
AcDbSpline
210
0.0
220
0.0
230
1.0
 70
     8
 71
     3
 72
    16
 73
    12
 74
     0
 42
0.0000000001
 43
0.0000000001
 40
0.0
 40
0.0
 40
0.0
 40
0.0
 40
1.0
 40
2.0
 40
3.0
 40
4.0
 40
5.0
 40
6.0
 40
7.0
 40
8.0
 40
9.0
 40
9.0
 40
9.0
 40
9.0
 10
10.51673754765786
 20
18.58808457189791
 30
0.0
 10
10.14483827596403
 20
18.71170018576733
 30
0.0
 10
9.355163560109363
 20
18.76405041988539
 30
0.0
 10
8.189918352749167
 20
18.62928377229083
 30
0.0
 10
7.02073869440274
 20
18.53381020836015
 30
0.0
 10
5.852673610378508
 20
18.4271304640995
 30
0.0
 10
4.683949030174816
 20
18.32750697229355
 30
0.0
 10
3.514645431996213
 20
18.23511337687025
 30
0.0
 10
2.344476926496105
 20
18.15384248938636
 30
0.0
 10
1.172871391996319
 20
18.09634120233816
 30
0.0
 10
0.3909925906832117
 20
18.07881994009679
 30
0.0
 10
-0.0000000000000658
 20
18.07899482954725
 30
0.0
  0
SPLINE
  5
65
330
1F
100
AcDbEntity
  8
2d
100
AcDbSpline
210
0.0
220
0.0
230
1.0
 70
     8
 71
     3
 72
    16
 73
    12
 74
     0
 42
0.0000000001
 43
0.0000000001
 40
-9.0
 40
-9.0
 40
-9.0
 40
-9.0
 40
-8.0
 40
-7.0
 40
-6.0
 40
-5.0
 40
-4.0
 40
-3.0
 40
-2.0
 40
-1.0
 40
0.0
 40
0.0
 40
0.0
 40
0.0
 10
-0.0000000000000658
 20
18.07899482954725
 30
0.0
 10
-0.3909925906833433
 20
18.07881994009679
 30
0.0
 10
-1.17287139199645
 20
18.09634120233818
 30
0.0
 10
-2.344476926496236
 20
18.15384248938639
 30
0.0
 10
-3.514645431996342
 20
18.2351133768703
 30
0.0
 10
-4.683949030174944
 20
18.32750697229361
 30
0.0
 10
-5.852673610378635
 20
18.42713046409958
 30
0.0
 10
-7.020738694402866
 20
18.53381020836025
 30
0.0
 10
-8.189918352749292
 20
18.62928377229094
 30
0.0
 10
-9.355163560109485
 20
18.76405041988552
 30
0.0
 10
-10.14483827596415
 20
18.71170018576748
 30
0.0
 10
-10.51673754765798
 20
18.58808457189806
 30
0.0
  0
SPLINE
  5
66
330
1F
100
AcDbEntity
  8
2d
100
AcDbSpline
210
0.0
220
0.0
230
1.0
 70
     8
 71
     3
 72
    20
 73
    16
 74
     0
 42
0.0000000001
 43
0.0000000001
 40
0.0
 40
0.0
 40
0.0
 40
0.0
 40
1.0
 40
2.0
 40
3.0
 40
4.0
 40
5.0
 40
6.0
 40
7.0
 40
8.0
 40
9.0
 40
10.0
 40
11.0
 40
12.0
 40
13.0
 40
13.0
 40
13.0
 40
13.0
 10
-10.51673754765798
 20
18.58808457189806
 30
0.0
 10
-10.59594844780575
 20
18.5617556576135
 30
0.0
 10
-10.67226398977684
 20
18.39960611584913
 30
0.0
 10
-10.63820810227226
 20
18.15944313663789
 30
0.0
 10
-10.56909059561726
 20
17.92912493958517
 30
0.0
 10
-10.46604143606664
 20
17.71155758652631
 30
0.0
 10
-10.34212281200495
 20
17.50571076138869
 30
0.0
 10
-10.20682021117403
 20
17.30722484190338
 30
0.0
 10
-10.06176713137138
 20
17.11576298944058
 30
0.0
 10
-9.908312463789978
 20
16.93096822735275
 30
0.0
 10
-9.746587893076494
 20
16.75340043737368
 30
0.0
 10
-9.576946478137847
 20
16.58322682432442
 30
0.0
 10
-9.395158746915317
 20
16.42617851642774
 30
0.0
 10
-9.189401111886792
 20
16.30105696680431
 30
0.0
 10
-9.05541640210354
 20
16.21377042461987
 30
0.0
 10
-8.988019961028385
 20
16.17053099844494
 30
0.0
  0
POLYLINE
  5
67
330
1F
100
AcDbEntity
  8
2d
100
AcDb2dPolyline
 66
     1
 10
0.0
 20
0.0
 30
0.0
  0
VERTEX
  5
68
330
67
100
AcDbEntity
  8
2d
100
AcDbVertex
100
AcDb2dVertex
 10
-8.988019961028385
 20
16.17053099844494
 30
0.0
  0
VERTEX
  5
69
330
67
100
AcDbEntity
  8
2d
100
AcDbVertex
100
AcDb2dVertex
 10
-4.017474567447461
 20
12.82403849263248
 30
0.0
  0
SEQEND
  5
6A
330
67
100
AcDbEntity
  8
2d
  0
SPLINE
  5
6B
330
1F
100
AcDbEntity
  8
2d
100
AcDbSpline
210
0.0
220
0.0
230
1.0
 70
     8
 71
     3
 72
    10
 73
     6
 74
     0
 42
0.0000000001
 43
0.0000000001
 40
0.0
 40
0.0
 40
0.0
 40
0.0
 40
1.0
 40
2.0
 40
3.0
 40
3.0
 40
3.0
 40
3.0
 10
-4.017474567447461
 20
12.82403849263248
 30
0.0
 10
-3.62423952569344
 20
12.58531199171182
 30
0.0
 10
-2.735379590107708
 20
12.3312304281098
 30
0.0
 10
-1.373426328193749
 20
12.16017066986475
 30
0.0
 10
-0.4574814914559192
 20
12.1280659847105
 30
0.0
 10
-0.0000000000002318
 20
12.12855333694636
 30
0.0
  0
SPLINE
  5
6C
330
1F
100
AcDbEntity
  8
2d
100
AcDbSpline
210
0.0
220
0.0
230
1.0
 70
     8
 71
     3
 72
    10
 73
     6
 74
     0
 42
0.0000000001
 43
0.0000000001
 40
-3.0
 40
-3.0
 40
-3.0
 40
-3.0
 40
-2.0
 40
-1.0
 40
0.0
 40
0.0
 40
0.0
 40
0.0
 10
0.0000000000000178
 20
12.12855333694636
 30
0.0
 10
0.4574814914557052
 20
12.1280659847105
 30
0.0
 10
1.373426328193535
 20
12.16017066986473
 30
0.0
 10
2.735379590107497
 20
12.33123042810976
 30
0.0
 10
3.624239525693232
 20
12.58531199171177
 30
0.0
 10
4.017474567447257
 20
12.82403849263243
 30
0.0
  0
SPLINE
  5
6D
330
1F
100
AcDbEntity
  8
2d
100
AcDbSpline
210
0.0
220
0.0
230
1.0
 70
     8
 71
     3
 72
    31
 73
    27
 74
     0
 42
0.0000000001
 43
0.0000000001
 40
-23.1346198048056
 40
-23.1346198048056
 40
-23.1346198048056
 40
-23.1346198048056
 40
-23.0
 40
-22.0
 40
-21.0
 40
-20.0
 40
-19.0
 40
-18.0
 40
-17.0
 40
-16.0
 40
-15.0
 40
-14.0
 40
-13.0
 40
-12.0
 40
-11.0
 40
-10.0
 40
-9.0
 40
-8.0
 40
-7.0
 40
-6.0
 40
-5.0
 40
-4.0
 40
-3.0
 40
-2.0
 40
-1.0
 40
0.0
 40
0.0
 40
0.0
 40
0.0
 10
9.29514459509918
 20
14.76505247634583
 30
0.0
 10
9.33685354073197
 20
14.79419125560007
 30
0.0
 10
9.678839972534842
 20
15.05275890817642
 30
0.0
 10
10.32005689326593
 20
15.55765582646508
 30
0.0
 10
10.97358843069005
 20
16.49982854746185
 30
0.0
 10
11.52278916736099
 20
17.49512184413406
 30
0.0
 10
11.99304588708465
 20
18.532188775913
 30
0.0
 10
12.43588157650709
 20
19.57964926003981
 30
0.0
 10
12.84777468604515
 20
20.6414532053732
 30
0.0
 10
13.22592505451873
 20
21.71035802701211
 30
0.0
 10
13.52467569750386
 20
22.8254727118001
 30
0.0
 10
13.33558993627801
 20
23.96456943753458
 30
0.0
 10
12.98289221343097
 20
25.04659979587954
 30
0.0
 10
12.42733241394538
 20
26.04611937785083
 30
0.0
 10
11.72076765465529
 20
26.94150892124762
 30
0.0
 10
10.8857539061281
 20
27.71910354140067
 30
0.0
 10
9.945868794858574
 20
28.3650884253757
 30
0.0
 10
8.929826333797125
 20
28.88150617032371
 30
0.0
 10
7.863878615722815
 20
29.28260224869109
 30
0.0
 10
6.77006033760949
 20
29.59778239054627
 30
0.0
 10
5.658599206484053
 20
29.8425075624124
 30
0.0
 10
4.536711080113998
 20
30.03286687744755
 30
0.0
 10
3.407727532594428
 20
30.17489408466385
 30
0.0
 10
2.27406829363773
 20
30.27238866953608
 30
0.0
 10
1.137654643434393
 20
30.32885435219204
 30
0.0
 10
0.3792133105454403
 20
30.34062586485077
 30
0.0
 10
0.0000000000000192
 20
30.3404694165308
 30
0.0
  0
SPLINE
  5
6E
330
1F
100
AcDbEntity
  8
2d
100
AcDbSpline
210
0.0
220
0.0
230
1.0
 70
     8
 71
     3
 72
    31
 73
    27
 74
     0
 42
0.0000000001
 43
0.0000000001
 40
0.0
 40
0.0
 40
0.0
 40
0.0
 40
1.0
 40
2.0
 40
3.0
 40
4.0
 40
5.0
 40
6.0
 40
7.0
 40
8.0
 40
9.0
 40
10.0
 40
11.0
 40
12.0
 40
13.0
 40
14.0
 40
15.0
 40
16.0
 40
17.0
 40
18.0
 40
19.0
 40
20.0
 40
21.0
 40
22.0
 40
23.0
 40
23.1346198048056
 40
23.1346198048056
 40
23.1346198048056
 40
23.1346198048056
 10
0.0000000000000192
 20
30.3404694165308
 30
0.0
 10
-0.3792133105454019
 20
30.34062586485077
 30
0.0
 10
-1.137654643434354
 20
30.32885435219205
 30
0.0
 10
-2.274068293637693
 20
30.27238866953611
 30
0.0
 10
-3.407727532594392
 20
30.17489408466389
 30
0.0
 10
-4.536711080113964
 20
30.03286687744761
 30
0.0
 10
-5.658599206484022
 20
29.84250756241248
 30
0.0
 10
-6.770060337609461
 20
29.59778239054636
 30
0.0
 10
-7.863878615722791
 20
29.2826022486912
 30
0.0
 10
-8.929826333797108
 20
28.88150617032384
 30
0.0
 10
-9.945868794858564
 20
28.36508842537584
 30
0.0
 10
-10.8857539061281
 20
27.71910354140082
 30
0.0
 10
-11.72076765465529
 20
26.94150892124779
 30
0.0
 10
-12.4273324139454
 20
26.046119377851
 30
0.0
 10
-12.98289221343101
 20
25.04659979587972
 30
0.0
 10
-13.33558993627806
 20
23.96456943753476
 30
0.0
 10
-13.52467569750393
 20
22.82547271180028
 30
0.0
 10
-13.22592505451881
 20
21.71035802701229
 30
0.0
 10
-12.84777468604524
 20
20.64145320537338
 30
0.0
 10
-12.4358815765072
 20
19.57964926003999
 30
0.0
 10
-11.99304588708478
 20
18.53218877591317
 30
0.0
 10
-11.52278916736113
 20
17.49512184413422
 30
0.0
 10
-10.9735884306902
 20
16.49982854746201
 30
0.0
 10
-10.3200568932661
 20
15.55765582646523
 30
0.0
 10
-9.678839972535016
 20
15.05275890817655
 30
0.0
 10
-9.336853540732148
 20
14.7941912556002
 30
0.0
 10
-9.295144595099357
 20
14.76505247634596
 30
0.0
  0
SPLINE
  5
6F
330
1F
100
AcDbEntity
  8
2d
100
AcDbSpline
210
0.0
220
0.0
230
1.0
 70
     8
 71
     3
 72
    24
 73
    20
 74
     0
 42
0.0000000001
 43
0.0000000001
 40
0.0
 40
0.0
 40
0.0
 40
0.0
 40
1.0
 40
2.0
 40
3.0
 40
4.0
 40
5.0
 40
6.0
 40
7.0
 40
8.0
 40
9.0
 40
10.0
 40
11.0
 40
12.0
 40
13.0
 40
14.0
 40
15.0
 40
16.0
 40
17.0
 40
17.0
 40
17.0
 40
17.0
 10
-11.10800000000014
 20
18.78301823420871
 30
0.0
 10
-11.27205610111061
 20
19.15505078976987
 30
0.0
 10
-11.59401388743145
 20
19.90151960655087
 30
0.0
 10
-12.04052420637192
 20
21.03777313005137
 30
0.0
 10
-12.49164686650991
 20
22.16669568877387
 30
0.0
 10
-12.81642303470667
 20
23.36425108957852
 30
0.0
 10
-12.5404905713826
 20
24.58035521561532
 30
0.0
 10
-12.0554306852731
 20
25.69873349957917
 30
0.0
 10
-11.36002489922686
 20
26.70976767668847
 30
0.0
 10
-10.48678320894739
 20
27.5683432025549
 30
0.0
 10
-9.477378262036504
 20
28.26002520840235
 30
0.0
 10
-8.382456753897658
 20
28.80258939710664
 30
0.0
 10
-7.236226008348251
 20
29.22348692986279
 30
0.0
 10
-6.058356422551208
 20
29.54367805289488
 30
0.0
 10
-4.861308658954256
 20
29.78063229030044
 30
0.0
 10
-3.653043984797887
 20
29.95010026306986
 30
0.0
 10
-2.438083122540269
 20
30.06079702917014
 30
0.0
 10
-1.219705030790303
 20
30.12175029331164
 30
0.0
 10
-0.4065600066320709
 20
30.13384288739153
 30
0.0
 10
0.0000000000000178
 20
30.13395370344038
 30
0.0
  0
SPLINE
  5
70
330
1F
100
AcDbEntity
  8
2d
100
AcDbSpline
210
0.0
220
0.0
230
1.0
 70
     8
 71
     3
 72
    24
 73
    20
 74
     0
 42
0.0000000001
 43
0.0000000001
 40
-17.0
 40
-17.0
 40
-17.0
 40
-17.0
 40
-16.0
 40
-15.0
 40
-14.0
 40
-13.0
 40
-12.0
 40
-11.0
 40
-10.0
 40
-9.0
 40
-8.0
 40
-7.0
 40
-6.0
 40
-5.0
 40
-4.0
 40
-3.0
 40
-2.0
 40
-1.0
 40
0.0
 40
0.0
 40
0.0
 40
0.0
 10
0.0000000000000178
 20
30.13395370344038
 30
0.0
 10
0.4065600066321064
 20
30.13384288739152
 30
0.0
 10
1.219705030790338
 20
30.12175029331162
 30
0.0
 10
2.438083122540304
 20
30.0607970291701
 30
0.0
 10
3.65304398479792
 20
29.95010026306981
 30
0.0
 10
4.861308658954286
 20
29.78063229030037
 30
0.0
 10
6.058356422551236
 20
29.5436780528948
 30
0.0
 10
7.236226008348274
 20
29.22348692986269
 30
0.0
 10
8.382456753897676
 20
28.80258939710652
 30
0.0
 10
9.477378262036513
 20
28.26002520840222
 30
0.0
 10
10.48678320894739
 20
27.56834320255476
 30
0.0
 10
11.36002489922685
 20
26.70976767668831
 30
0.0
 10
12.05543068527308
 20
25.698733499579
 30
0.0
 10
12.54049057138256
 20
24.58035521561515
 30
0.0
 10
12.81642303470661
 20
23.36425108957834
 30
0.0
 10
12.49164686650984
 20
22.16669568877369
 30
0.0
 10
12.04052420637183
 20
21.0377731300512
 30
0.0
 10
11.59401388743134
 20
19.90151960655071
 30
0.0
 10
11.27205610111049
 20
19.15505078976972
 30
0.0
 10
11.10800000000001
 20
18.78301823420855
 30
0.0
  0
SPLINE
  5
71
330
1F
100
AcDbEntity
  8
2d
100
AcDbSpline
210
0.0
220
0.0
230
1.0
 70
    24
 71
     2
 72
     6
 73
     3
 74
     0
 42
0.0000000001
 43
0.0000000001
 40
0.0
 40
0.0
 40
0.0
 40
0.2864959048423555
 40
0.2864959048423555
 40
0.2864959048423555
 10
-6.806462251562357
 20
0.6045220351160524
 30
0.0
 10
-6.841760912785364
 20
0.4656908108934762
 30
0.0
 10
-6.877059574008372
 20
0.3268595866708999
 30
0.0
  0
SPLINE
  5
72
330
1F
100
AcDbEntity
  8
2d
100
AcDbSpline
210
0.0
220
0.0
230
1.0
 70
     8
 71
     3
 72
    13
 73
     9
 74
     0
 42
0.0000000001
 43
0.0000000001
 40
0.0
 40
0.0
 40
0.0
 40
0.0
 40
0.0938556204803871
 40
0.1977009346568823
 40
0.4796279674521709
 40
0.760712720689796
 40
0.8669056854325876
 40
0.9591730224170835
 40
0.9591730224170835
 40
0.9591730224170835
 40
0.9591730224170835
 10
-6.877059574008372
 20
0.3268595866708999
 30
0.0
 10
-6.884125853694687
 20
0.2970957424489354
 30
0.0
 10
-6.882303267865184
 20
0.2269252421231477
 30
0.0
 10
-6.77965789342566
 20
0.0970549776936989
 30
0.0
 10
-6.571471105325248
 20
0.0068988629286777
 30
0.0
 10
-6.345500650356652
 20
-0.0135614093877459
 30
0.0
 10
-6.192870791711509
 20
0.052083705078858
 30
0.0
 10
-6.157894029504052
 20
0.1127837330392123
 30
0.0
 10
-6.150186389229576
 20
0.1420478628993273
 30
0.0
  0
SPLINE
  5
73
330
1F
100
AcDbEntity
  8
2d
100
AcDbSpline
210
0.0
220
0.0
230
1.0
 70
    24
 71
     2
 72
     6
 73
     3
 74
     0
 42
0.0000000001
 43
0.0000000001
 40
0.0
 40
0.0
 40
0.0
 40
0.2819008611087671
 40
0.2819008611087671
 40
0.2819008611087671
 10
-6.150186389229576
 20
0.1420478628993273
 30
0.0
 10
-6.115453884264884
 20
0.2786523690547422
 30
0.0
 10
-6.080721379300192
 20
0.4152568752101571
 30
0.0
  0
SPLINE
  5
74
330
1F
100
AcDbEntity
  8
2d
100
AcDbSpline
210
0.0
220
0.0
230
1.0
 70
    24
 71
     2
 72
     6
 73
     3
 74
     0
 42
0.0000000001
 43
0.0000000001
 40
0.0
 40
0.0
 40
0.0
 40
2.746802120262295
 40
2.746802120262295
 40
2.746802120262295
 10
-1.367911673761296
 20
9.015100634735006
 30
0.0
 10
-2.723693125796069
 20
8.795736086218275
 30
0.0
 10
-4.07947457783084
 20
8.576371537701544
 30
0.0
  0
SPLINE
  5
75
330
1F
100
AcDbEntity
  8
2d
100
AcDbSpline
210
0.0
220
0.0
230
1.0
 70
     8
 71
     3
 72
    12
 73
     8
 74
     0
 42
0.0000000001
 43
0.0000000001
 40
-5.0
 40
-5.0
 40
-5.0
 40
-5.0
 40
-3.999999349752468
 40
-2.999998699504935
 40
-1.999998049257403
 40
-0.9999973990098701
 40
0.0
 40
0.0
 40
0.0
 40
0.0
 10
-4.07947457783084
 20
8.576371537701544
 30
0.0
 10
-4.122739663507932
 20
8.567113363569762
 30
0.0
 10
-4.196155240200468
 20
8.516772490507906
 30
0.0
 10
-4.285792159148895
 20
8.420813022616779
 30
0.0
 10
-4.342501814168118
 20
8.298655544439777
 30
0.0
 10
-4.319967743931355
 20
8.161324659142812
 30
0.0
 10
-4.235981077246497
 20
8.108987054431724
 30
0.0
 10
-4.191468071901236
 20
8.115538695926464
 30
0.0
  0
SPLINE
  5
76
330
1F
100
AcDbEntity
  8
2d
100
AcDbSpline
210
0.0
220
0.0
230
1.0
 70
    24
 71
     2
 72
     6
 73
     3
 74
     0
 42
0.0000000001
 43
0.0000000001
 40
0.0
 40
0.0
 40
0.0
 40
4.245985271106855
 40
4.245985271106855
 40
4.245985271106855
 10
-4.191468071901236
 20
8.115538695926464
 30
0.0
 10
-2.095734034930363
 20
8.454648686647424
 30
0.0
 10
0.0000000020405091
 20
8.793758677368386
 30
0.0
  0
SPLINE
  5
77
330
1F
100
AcDbEntity
  8
2d
100
AcDbSpline
210
0.0
220
0.0
230
1.0
 70
    24
 71
     2
 72
     6
 73
     3
 74
     0
 42
0.0000000001
 43
0.0000000001
 40
-7.936245110572329
 40
-7.936245110572329
 40
-7.936245110572329
 40
0.0
 40
0.0
 40
0.0
 10
-4.119936729680291
 20
8.127111203501334
 30
0.0
 10
-5.097744580254394
 20
4.281348915295691
 30
0.0
 10
-6.075552430828497
 20
0.4355866270900484
 30
0.0
  0
SPLINE
  5
78
330
1F
100
AcDbEntity
  8
2d
100
AcDbSpline
210
0.0
220
0.0
230
1.0
 70
     8
 71
     3
 72
    15
 73
    11
 74
     0
 42
0.0000000001
 43
0.0000000001
 40
0.0
 40
0.0
 40
0.0
 40
0.0
 40
0.9999983681524124
 40
1.999998601273496
 40
2.99999883439458
 40
3.999999067515664
 40
4.999999300636748
 40
5.999999533757832
 40
6.999999766878916
 40
8.0
 40
8.0
 40
8.0
 40
8.0
 10
-6.075552430828497
 20
0.4355866270900484
 30
0.0
 10
-6.087970741050254
 20
0.4000010325540485
 30
0.0
 10
-6.159492354148838
 20
0.3751115879381248
 30
0.0
 10
-6.263125010743107
 20
0.3678795118747183
 30
0.0
 10
-6.368455887691829
 20
0.3788601573340696
 30
0.0
 10
-6.471617688161295
 20
0.3994614734013227
 30
0.0
 10
-6.572026606839525
 20
0.4306457185923476
 30
0.0
 10
-6.670108623950806
 20
0.4709219957749496
 30
0.0
 10
-6.756881918531457
 20
0.5277013225533869
 30
0.0
 10
-6.808584977846354
 20
0.5829885756194902
 30
0.0
 10
-6.80244209633871
 20
0.6203334418877354
 30
0.0
  0
SPLINE
  5
79
330
1F
100
AcDbEntity
  8
2d
100
AcDbSpline
210
0.0
220
0.0
230
1.0
 70
    24
 71
     2
 72
     6
 73
     3
 74
     0
 42
0.0000000001
 43
0.0000000001
 40
-9.1910491199622
 40
-9.1910491199622
 40
-9.1910491199622
 40
0.0
 40
0.0
 40
0.0
 10
-6.80244209633871
 20
0.6203334418877354
 30
0.0
 10
-5.670029735843636
 20
5.074162274787481
 30
0.0
 10
-4.537617375348564
 20
9.527991107687226
 30
0.0
  0
SPLINE
  5
7A
330
1F
100
AcDbEntity
  8
2d
100
AcDbSpline
210
0.0
220
0.0
230
1.0
 70
    24
 71
     2
 72
     6
 73
     3
 74
     0
 42
0.0000000001
 43
0.0000000001
 40
0.0
 40
0.0
 40
0.0
 40
5.536410040943546
 40
5.536410040943546
 40
5.536410040943546
 10
-8.990380552220111
 20
14.02883253736168
 30
0.0
 10
-6.706182206400267
 20
12.46172683984898
 30
0.0
 10
-4.421983860580422
 20
10.89462114233629
 30
0.0
  0
SPLINE
  5
7B
330
1F
100
AcDbEntity
  8
2d
100
AcDbSpline
210
0.0
220
0.0
230
1.0
 70
     8
 71
     3
 72
    11
 73
     7
 74
     0
 42
0.0000000001
 43
0.0000000001
 40
0.0
 40
0.0
 40
0.0
 40
0.0
 40
0.062707085403559
 40
0.1457824922553454
 40
0.3530124615258587
 40
0.8668772888206165
 40
0.8668772888206165
 40
0.8668772888206165
 40
0.8668772888206165
 10
-4.421983860580422
 20
10.89462114233629
 30
0.0
 10
-4.40476032954493
 20
10.87679586995968
 30
0.0
 10
-4.381462469469837
 20
10.83373708506556
 30
0.0
 10
-4.34630903479009
 20
10.72087495197532
 30
0.0
 10
-4.324252224059003
 20
10.45211882703821
 30
0.0
 10
-4.363925270160956
 20
10.21271585654232
 30
0.0
 10
-4.406360607970731
 20
10.04422981691137
 30
0.0
  0
SPLINE
  5
7C
330
1F
100
AcDbEntity
  8
2d
100
AcDbSpline
210
0.0
220
0.0
230
1.0
 70
    24
 71
     2
 72
     6
 73
     3
 74
     0
 42
0.0000000001
 43
0.0000000001
 40
0.0
 40
0.0
 40
0.0
 40
0.0912200214990506
 40
0.0912200214990506
 40
0.0912200214990506
 10
-4.406360607970731
 20
10.04422981691137
 30
0.0
 10
-4.417935319632623
 20
9.998705988617058
 30
0.0
 10
-4.429510031294513
 20
9.953182160322749
 30
0.0
  0
SPLINE
  5
7D
330
1F
100
AcDbEntity
  8
2d
100
AcDbSpline
210
0.0
220
0.0
230
1.0
 70
    24
 71
     2
 72
     6
 73
     3
 74
     0
 42
0.0000000001
 43
0.0000000001
 40
0.0
 40
0.0
 40
0.0
 40
13.02876111261215
 40
13.02876111261215
 40
13.02876111261215
 10
-10.27016880921331
 20
0.4960400740563837
 30
0.0
 10
-9.6987142593347
 20
6.985555930332282
 30
0.0
 10
-9.127259709456089
 20
13.47507178660818
 30
0.0
  0
SPLINE
  5
7E
330
1F
100
AcDbEntity
  8
2d
100
AcDbSpline
210
0.0
220
0.0
230
1.0
 70
    12
 71
     3
 72
    13
 73
     9
 74
     0
 42
0.0000000001
 43
0.0000000001
 40
0.0009715433341797
 40
0.0009715433341797
 40
0.0009715433341797
 40
0.0009715433341797
 40
0.352798859172365
 40
0.4889265294821576
 40
0.6250582445866528
 40
0.8292868369483621
 40
0.8292868369483621
 40
1.051055546015443
 40
1.051055546015443
 40
1.051055546015443
 40
1.051055546015443
 10
-9.127259709456089
 20
13.47507178660818
 30
0.0
 41
1.0
 10
-9.117450136832044
 20
13.59015759315271
 30
0.0
 41
1.0
 10
-9.091716085594873
 20
13.74176765636195
 30
0.0
 41
1.0
 10
-9.044883917649877
 20
13.9009632245055
 30
0.0
 41
1.0
 10
-9.005351327319945
 20
14.00373348118523
 30
0.0
 41
1.0
 10
-8.976729992211581
 20
14.05549446229073
 30
0.0
 41
1.0
 10
-8.948612857071403
 20
14.09733366710949
 30
0.0
 41
1.0
 10
-8.93795256387796
 20
14.10681546217795
 30
0.0
 41
1.0
 10
-8.93795256836318
 20
14.10681546467016
 30
0.0
 41
1.0
  0
SPLINE
  5
7F
330
1F
100
AcDbEntity
  8
2d
100
AcDbSpline
210
0.0
220
0.0
230
1.0
 70
    24
 71
     2
 72
     6
 73
     3
 74
     0
 42
0.0000000001
 43
0.0000000001
 40
0.0
 40
0.0
 40
0.0
 40
0.3177382421282133
 40
0.3177382421282133
 40
0.3177382421282133
 10
-11.01740235996716
 20
0.5603512681272629
 30
0.0
 10
-11.03134076857921
 20
0.4020965064998012
 30
0.0
 10
-11.04527917719125
 20
0.2438417448723394
 30
0.0
  0
SPLINE
  5
80
330
1F
100
AcDbEntity
  8
2d
100
AcDbSpline
210
0.0
220
0.0
230
1.0
 70
     8
 71
     3
 72
    15
 73
    11
 74
     0
 42
0.0000000001
 43
0.0000000001
 40
0.0
 40
0.0
 40
0.0
 40
0.0
 40
1.0
 40
2.0
 40
3.0
 40
4.0
 40
5.0
 40
6.0
 40
7.0
 40
8.0
 40
8.0
 40
8.0
 40
8.0
 10
-11.04527917719125
 20
0.2438417448723394
 30
0.0
 10
-11.0498766751687
 20
0.204834614344051
 30
0.0
 10
-11.0167236947282
 20
0.1289189004360515
 30
0.0
 10
-10.91396022391578
 20
0.0699386325912963
 30
0.0
 10
-10.80336584137318
 20
0.0360332560110956
 30
0.0
 10
-10.68856485741101
 20
0.0196651685696964
 30
0.0
 10
-10.57281909527138
 20
0.0163449270713396
 30
0.0
 10
-10.45739071953046
 20
0.0284541397848912
 30
0.0
 10
-10.34825865628871
 20
0.072543956348229
 30
0.0
 10
-10.29805982409517
 20
0.137939773731535
 30
0.0
 10
-10.29817016160597
 20
0.1780533049517491
 30
0.0
  0
SPLINE
  5
81
330
1F
100
AcDbEntity
  8
2d
100
AcDbSpline
210
0.0
220
0.0
230
1.0
 70
    24
 71
     2
 72
     6
 73
     3
 74
     0
 42
0.0000000001
 43
0.0000000001
 40
0.0
 40
0.0
 40
0.0
 40
0.3175638603693041
 40
0.3175638603693041
 40
0.3175638603693041
 10
-10.29817016160597
 20
0.1780533049517491
 30
0.0
 10
-10.28424816675313
 20
0.3362151167795089
 30
0.0
 10
-10.2703261719003
 20
0.4943769286072687
 30
0.0
  0
SPLINE
  5
82
330
1F
100
AcDbEntity
  8
2d
100
AcDbSpline
210
0.0
220
0.0
230
1.0
 70
     8
 71
     3
 72
    16
 73
    12
 74
     0
 42
0.0000000001
 43
0.0000000001
 40
0.0
 40
0.0
 40
0.0
 40
0.0
 40
0.999891216773609
 40
1.99990685571852
 40
2.999922494663431
 40
3.999938133608343
 40
4.999953772553255
 40
5.999969411498166
 40
6.999985050443078
 40
8.000000689387988
 40
9.0
 40
9.0
 40
9.0
 40
9.0
 10
-10.2703261719003
 20
0.4943769286072687
 30
0.0
 10
-10.28053696343738
 20
0.5227643054424476
 30
0.0
 10
-10.34094278195824
 20
0.540350603557537
 30
0.0
 10
-10.42261345925955
 20
0.5630663952928687
 30
0.0
 10
-10.50881528574912
 20
0.5777368179225265
 30
0.0
 10
-10.59471494132858
 20
0.5889537971655395
 30
0.0
 10
-10.68128009017029
 20
0.5965716138050509
 30
0.0
 10
-10.76783099800389
 20
0.6005864827473548
 30
0.0
 10
-10.85521541542804
 20
0.6010761593452799
 30
0.0
 10
-10.93980802674326
 20
0.5935250874166126
 30
0.0
 10
-11.00185680819049
 20
0.5855047780092186
 30
0.0
 10
-11.01740235996716
 20
0.5603512681272629
 30
0.0
  0
POLYLINE
  5
83
330
1F
100
AcDbEntity
  8
2d
100
AcDb2dPolyline
 66
     1
 10
0.0
 20
0.0
 30
0.0
  0
VERTEX
  5
84
330
83
100
AcDbEntity
  8
2d
100
AcDbVertex
100
AcDb2dVertex
 10
-3.686226917235962
 20
9.832911427391306
 30
0.0
  0
VERTEX
  5
85
330
83
100
AcDbEntity
  8
2d
100
AcDbVertex
100
AcDb2dVertex
 10
-3.678804156534787
 20
9.862104852408814
 30
0.0
  0
SEQEND
  5
86
330
83
100
AcDbEntity
  8
2d
  0
SPLINE
  5
87
330
1F
100
AcDbEntity
  8
2d
100
AcDbSpline
210
0.0
220
0.0
230
1.0
 70
     8
 71
     3
 72
    12
 73
     8
 74
     0
 42
0.0000000001
 43
0.0000000001
 40
0.0
 40
0.0
 40
0.0
 40
0.0
 40
0.2667308667539235
 40
0.5340766304475624
 40
1.007164365718372
 40
1.410417714597881
 40
1.768339197063563
 40
1.768339197063563
 40
1.768339197063563
 40
1.768339197063563
 10
-3.678804156534787
 20
9.862104852408814
 30
0.0
 10
-3.656913154803552
 20
9.94819806438348
 30
0.0
 10
-3.619410160392205
 20
10.12261031735847
 30
0.0
 10
-3.579731536489636
 20
10.45601412375007
 30
0.0
 10
-3.589886440205965
 20
10.83985698587887
 30
0.0
 10
-3.719133854551619
 20
11.23659602354647
 30
0.0
 10
-3.887220574463976
 20
11.43441280897287
 30
0.0
 10
-3.984270464562905
 20
11.50403554221287
 30
0.0
  0
SPLINE
  5
88
330
1F
100
AcDbEntity
  8
2d
100
AcDbSpline
210
0.0
220
0.0
230
1.0
 70
    24
 71
     2
 72
     6
 73
     3
 74
     0
 42
0.0000000001
 43
0.0000000001
 40
0.0
 40
0.0
 40
0.0
 40
5.653012497776157
 40
5.653012497776157
 40
5.653012497776157
 10
-3.984270464562905
 20
11.50403554221287
 30
0.0
 10
-6.332050706989782
 20
13.11467872359064
 30
0.0
 10
-8.67983094941666
 20
14.72532190496841
 30
0.0
  0
SPLINE
  5
89
330
1F
100
AcDbEntity
  8
2d
100
AcDbSpline
210
0.0
220
0.0
230
1.0
 70
     8
 71
     3
 72
    12
 73
     8
 74
     0
 42
0.0000000001
 43
0.0000000001
 40
0.0
 40
0.0
 40
0.0
 40
0.0
 40
0.2080221405546575
 40
0.4179732730953389
 40
0.861910246383149
 40
1.389216296127097
 40
2.057129325023793
 40
2.057129325023793
 40
2.057129325023793
 40
2.057129325023793
 10
-8.67983094941666
 20
14.72532190496841
 30
0.0
 10
-8.7373997912581
 20
14.76576368053429
 30
0.0
 10
-8.862565137674839
 20
14.8248939667487
 30
0.0
 10
-9.158402919119712
 20
14.85413586303042
 30
0.0
 10
-9.522286227646287
 20
14.65168595426392
 30
0.0
 10
-9.779692314933481
 20
14.15363854103283
 30
0.0
 10
-9.855080765237608
 20
13.76354203354852
 30
0.0
 10
-9.87445554545461
 20
13.53985720534134
 30
0.0
  0
SPLINE
  5
8A
330
1F
100
AcDbEntity
  8
2d
100
AcDbSpline
210
0.0
220
0.0
230
1.0
 70
    24
 71
     2
 72
     6
 73
     3
 74
     0
 42
0.0000000001
 43
0.0000000001
 40
0.0
 40
0.0
 40
0.0
 40
13.02287264264376
 40
13.02287264264376
 40
13.02287264264376
 10
-9.87445554545461
 20
13.53985720534134
 30
0.0
 10
-10.44565177565767
 20
7.053283397786423
 30
0.0
 10
-11.01684800586072
 20
0.5667095902315058
 30
0.0
  0
SPLINE
  5
8B
330
1F
100
AcDbEntity
  8
2d
100
AcDbSpline
210
0.0
220
0.0
230
1.0
 70
    24
 71
     2
 72
     6
 73
     3
 74
     0
 42
0.0000000001
 43
0.0000000001
 40
0.0
 40
0.0
 40
0.0
 40
0.8449871202358029
 40
0.8449871202358029
 40
0.8449871202358029
 10
-4.00255239112572
 20
8.588789093284543
 30
0.0
 10
-3.898443326207872
 20
8.998254734020161
 30
0.0
 10
-3.794334261290023
 20
9.40772037475578
 30
0.0
  0
SPLINE
  5
8C
330
1F
100
AcDbEntity
  8
2d
100
AcDbSpline
210
0.0
220
0.0
230
1.0
 70
    24
 71
     2
 72
     6
 73
     3
 74
     0
 42
0.0000000001
 43
0.0000000001
 40
0.0
 40
0.0
 40
0.0
 40
0.2864959048423555
 40
0.2864959048423555
 40
0.2864959048423555
 10
6.806462251561983
 20
0.604522035115958
 30
0.0
 10
6.841760912784989
 20
0.4656908108933813
 30
0.0
 10
6.877059574007994
 20
0.3268595866708046
 30
0.0
  0
SPLINE
  5
8D
330
1F
100
AcDbEntity
  8
2d
100
AcDbSpline
210
0.0
220
0.0
230
1.0
 70
     8
 71
     3
 72
    13
 73
     9
 74
     0
 42
0.0000000001
 43
0.0000000001
 40
0.0
 40
0.0
 40
0.0
 40
0.0
 40
0.0938556204803871
 40
0.1977009346568823
 40
0.4796279674521709
 40
0.760712720689796
 40
0.8669056854325876
 40
0.9591730224170835
 40
0.9591730224170835
 40
0.9591730224170835
 40
0.9591730224170835
 10
6.877059574007994
 20
0.3268595866708046
 30
0.0
 10
6.884125853694309
 20
0.29709574244884
 30
0.0
 10
6.882303267864804
 20
0.2269252421230523
 30
0.0
 10
6.779657893425279
 20
0.097054977693605
 30
0.0
 10
6.571471105324866
 20
0.0068988629285866
 30
0.0
 10
6.34550065035627
 20
-0.0135614093878339
 30
0.0
 10
6.192870791711128
 20
0.0520837050787721
 30
0.0
 10
6.157894029503671
 20
0.112783733039127
 30
0.0
 10
6.150186389229196
 20
0.142047862899242
 30
0.0
  0
SPLINE
  5
8E
330
1F
100
AcDbEntity
  8
2d
100
AcDbSpline
210
0.0
220
0.0
230
1.0
 70
    24
 71
     2
 72
     6
 73
     3
 74
     0
 42
0.0000000001
 43
0.0000000001
 40
0.0
 40
0.0
 40
0.0
 40
0.2819008611087671
 40
0.2819008611087671
 40
0.2819008611087671
 10
6.150186389229196
 20
0.142047862899242
 30
0.0
 10
6.115453884264506
 20
0.2786523690546574
 30
0.0
 10
6.080721379299815
 20
0.4152568752100728
 30
0.0
  0
SPLINE
  5
8F
330
1F
100
AcDbEntity
  8
2d
100
AcDbSpline
210
0.0
220
0.0
230
1.0
 70
    24
 71
     2
 72
     6
 73
     3
 74
     0
 42
0.0000000001
 43
0.0000000001
 40
0.0
 40
0.0
 40
0.0
 40
2.746802120262295
 40
2.746802120262295
 40
2.746802120262295
 10
1.367911673761039
 20
9.015100634734987
 30
0.0
 10
2.723693125795808
 20
8.795736086218238
 30
0.0
 10
4.079474577830577
 20
8.576371537701487
 30
0.0
  0
SPLINE
  5
90
330
1F
100
AcDbEntity
  8
2d
100
AcDbSpline
210
0.0
220
0.0
230
1.0
 70
     8
 71
     3
 72
    12
 73
     8
 74
     0
 42
0.0000000001
 43
0.0000000001
 40
-5.0
 40
-5.0
 40
-5.0
 40
-5.0
 40
-3.999999349752468
 40
-2.999998699504935
 40
-1.999998049257403
 40
-0.9999973990098701
 40
0.0
 40
0.0
 40
0.0
 40
0.0
 10
4.079474577830577
 20
8.576371537701487
 30
0.0
 10
4.122739663507669
 20
8.567113363569705
 30
0.0
 10
4.196155240200204
 20
8.516772490507847
 30
0.0
 10
4.285792159148629
 20
8.42081302261672
 30
0.0
 10
4.342501814167851
 20
8.298655544439717
 30
0.0
 10
4.319967743931086
 20
8.161324659142752
 30
0.0
 10
4.235981077246227
 20
8.108987054431665
 30
0.0
 10
4.191468071900966
 20
8.115538695926405
 30
0.0
  0
SPLINE
  5
91
330
1F
100
AcDbEntity
  8
2d
100
AcDbSpline
210
0.0
220
0.0
230
1.0
 70
    24
 71
     2
 72
     6
 73
     3
 74
     0
 42
0.0000000001
 43
0.0000000001
 40
0.0
 40
0.0
 40
0.0
 40
4.245985271106855
 40
4.245985271106855
 40
4.245985271106855
 10
4.191468071900966
 20
8.115538695926405
 30
0.0
 10
2.095734034930098
 20
8.454648686647396
 30
0.0
 10
-0.0000000020407693
 20
8.793758677368386
 30
0.0
  0
SPLINE
  5
92
330
1F
100
AcDbEntity
  8
2d
100
AcDbSpline
210
0.0
220
0.0
230
1.0
 70
    24
 71
     2
 72
     6
 73
     3
 74
     0
 42
0.0000000001
 43
0.0000000001
 40
-7.936245110572329
 40
-7.936245110572329
 40
-7.936245110572329
 40
0.0
 40
0.0
 40
0.0
 10
4.119936729680022
 20
8.127111203501277
 30
0.0
 10
5.097744580254072
 20
4.281348915295621
 30
0.0
 10
6.075552430828122
 20
0.4355866270899642
 30
0.0
  0
SPLINE
  5
93
330
1F
100
AcDbEntity
  8
2d
100
AcDbSpline
210
0.0
220
0.0
230
1.0
 70
     8
 71
     3
 72
    15
 73
    11
 74
     0
 42
0.0000000001
 43
0.0000000001
 40
0.0
 40
0.0
 40
0.0
 40
0.0
 40
0.9999983681524124
 40
1.999998601273496
 40
2.99999883439458
 40
3.999999067515664
 40
4.999999300636748
 40
5.999999533757832
 40
6.999999766878916
 40
8.0
 40
8.0
 40
8.0
 40
8.0
 10
6.075552430828122
 20
0.4355866270899642
 30
0.0
 10
6.087970741049878
 20
0.4000010325539641
 30
0.0
 10
6.159492354148462
 20
0.3751115879380394
 30
0.0
 10
6.26312501074273
 20
0.3678795118746315
 30
0.0
 10
6.368455887691453
 20
0.3788601573339814
 30
0.0
 10
6.471617688160919
 20
0.399461473401233
 30
0.0
 10
6.572026606839149
 20
0.4306457185922565
 30
0.0
 10
6.67010862395043
 20
0.4709219957748571
 30
0.0
 10
6.756881918531082
 20
0.5277013225532932
 30
0.0
 10
6.80858497784598
 20
0.5829885756193959
 30
0.0
 10
6.802442096338336
 20
0.6203334418876412
 30
0.0
  0
SPLINE
  5
94
330
1F
100
AcDbEntity
  8
2d
100
AcDbSpline
210
0.0
220
0.0
230
1.0
 70
    24
 71
     2
 72
     6
 73
     3
 74
     0
 42
0.0000000001
 43
0.0000000001
 40
-9.1910491199622
 40
-9.1910491199622
 40
-9.1910491199622
 40
0.0
 40
0.0
 40
0.0
 10
6.802442096338336
 20
0.6203334418876412
 30
0.0
 10
5.670029735843324
 20
5.074162274787403
 30
0.0
 10
4.537617375348313
 20
9.527991107687164
 30
0.0
  0
SPLINE
  5
95
330
1F
100
AcDbEntity
  8
2d
100
AcDbSpline
210
0.0
220
0.0
230
1.0
 70
    24
 71
     2
 72
     6
 73
     3
 74
     0
 42
0.0000000001
 43
0.0000000001
 40
0.0
 40
0.0
 40
0.0
 40
5.536410040943546
 40
5.536410040943546
 40
5.536410040943546
 10
8.990380552219923
 20
14.02883253736156
 30
0.0
 10
6.706182206400057
 20
12.46172683984889
 30
0.0
 10
4.421983860580191
 20
10.89462114233622
 30
0.0
  0
SPLINE
  5
96
330
1F
100
AcDbEntity
  8
2d
100
AcDbSpline
210
0.0
220
0.0
230
1.0
 70
     8
 71
     3
 72
    11
 73
     7
 74
     0
 42
0.0000000001
 43
0.0000000001
 40
0.0
 40
0.0
 40
0.0
 40
0.0
 40
0.062707085403559
 40
0.1457824922553454
 40
0.3530124615258587
 40
0.8668772888206165
 40
0.8668772888206165
 40
0.8668772888206165
 40
0.8668772888206165
 10
4.421983860580191
 20
10.89462114233622
 30
0.0
 10
4.404760329544699
 20
10.87679586995962
 30
0.0
 10
4.381462469469605
 20
10.8337370850655
 30
0.0
 10
4.346309034789856
 20
10.72087495197526
 30
0.0
 10
4.324252224058766
 20
10.45211882703815
 30
0.0
 10
4.363925270160715
 20
10.21271585654226
 30
0.0
 10
4.406360607970488
 20
10.04422981691131
 30
0.0
  0
SPLINE
  5
97
330
1F
100
AcDbEntity
  8
2d
100
AcDbSpline
210
0.0
220
0.0
230
1.0
 70
    24
 71
     2
 72
     6
 73
     3
 74
     0
 42
0.0000000001
 43
0.0000000001
 40
0.0
 40
0.0
 40
0.0
 40
0.0912200214990506
 40
0.0912200214990506
 40
0.0912200214990506
 10
4.406360607970488
 20
10.04422981691131
 30
0.0
 10
4.417935319632378
 20
9.998705988616997
 30
0.0
 10
4.429510031294269
 20
9.953182160322687
 30
0.0
  0
SPLINE
  5
98
330
1F
100
AcDbEntity
  8
2d
100
AcDbSpline
210
0.0
220
0.0
230
1.0
 70
    24
 71
     2
 72
     6
 73
     3
 74
     0
 42
0.0000000001
 43
0.0000000001
 40
0.0
 40
0.0
 40
0.0
 40
13.02876111261215
 40
13.02876111261215
 40
13.02876111261215
 10
10.27016880921293
 20
0.4960400740562413
 30
0.0
 10
9.698714259334414
 20
6.985555930332148
 30
0.0
 10
9.127259709455894
 20
13.47507178660805
 30
0.0
  0
SPLINE
  5
99
330
1F
100
AcDbEntity
  8
2d
100
AcDbSpline
210
0.0
220
0.0
230
1.0
 70
    12
 71
     3
 72
    13
 73
     9
 74
     0
 42
0.0000000001
 43
0.0000000001
 40
0.0009715433341797
 40
0.0009715433341797
 40
0.0009715433341797
 40
0.0009715433341797
 40
0.352798859172365
 40
0.4889265294821576
 40
0.6250582445866528
 40
0.8292868369483621
 40
0.8292868369483621
 40
1.051055546015443
 40
1.051055546015443
 40
1.051055546015443
 40
1.051055546015443
 10
9.127259709455894
 20
13.47507178660805
 30
0.0
 41
1.0
 10
9.11745013683185
 20
13.59015759315259
 30
0.0
 41
1.0
 10
9.091716085594681
 20
13.74176765636182
 30
0.0
 41
1.0
 10
9.044883917649686
 20
13.90096322450538
 30
0.0
 41
1.0
 10
9.005351327319756
 20
14.00373348118511
 30
0.0
 41
1.0
 10
8.976729992211395
 20
14.0554944622906
 30
0.0
 41
1.0
 10
8.948612857071216
 20
14.09733366710937
 30
0.0
 41
1.0
 10
8.937952563877774
 20
14.10681546217783
 30
0.0
 41
1.0
 10
8.937952568362993
 20
14.10681546467004
 30
0.0
 41
1.0
  0
SPLINE
  5
9A
330
1F
100
AcDbEntity
  8
2d
100
AcDbSpline
210
0.0
220
0.0
230
1.0
 70
    24
 71
     2
 72
     6
 73
     3
 74
     0
 42
0.0000000001
 43
0.0000000001
 40
0.0
 40
0.0
 40
0.0
 40
0.3177382421282133
 40
0.3177382421282133
 40
0.3177382421282133
 10
11.01740235996679
 20
0.5603512681271101
 30
0.0
 10
11.03134076857883
 20
0.4020965064996482
 30
0.0
 10
11.04527917719087
 20
0.2438417448721864
 30
0.0
  0
SPLINE
  5
9B
330
1F
100
AcDbEntity
  8
2d
100
AcDbSpline
210
0.0
220
0.0
230
1.0
 70
     8
 71
     3
 72
    15
 73
    11
 74
     0
 42
0.0000000001
 43
0.0000000001
 40
0.0
 40
0.0
 40
0.0
 40
0.0
 40
1.0
 40
2.0
 40
3.0
 40
4.0
 40
5.0
 40
6.0
 40
7.0
 40
8.0
 40
8.0
 40
8.0
 40
8.0
 10
11.04527917719087
 20
0.2438417448721864
 30
0.0
 10
11.04987667516832
 20
0.2048346143438978
 30
0.0
 10
11.01672369472782
 20
0.1289189004358988
 30
0.0
 10
10.91396022391539
 20
0.0699386325911451
 30
0.0
 10
10.8033658413728
 20
0.0360332560109458
 30
0.0
 10
10.68856485741063
 20
0.0196651685695483
 30
0.0
 10
10.572819095271
 20
0.016344927071193
 30
0.0
 10
10.45739071953008
 20
0.0284541397847463
 30
0.0
 10
10.34825865628832
 20
0.0725439563480856
 30
0.0
 10
10.29805982409479
 20
0.1379397737313922
 30
0.0
 10
10.29817016160559
 20
0.1780533049516064
 30
0.0
  0
SPLINE
  5
9C
330
1F
100
AcDbEntity
  8
2d
100
AcDbSpline
210
0.0
220
0.0
230
1.0
 70
    24
 71
     2
 72
     6
 73
     3
 74
     0
 42
0.0000000001
 43
0.0000000001
 40
0.0
 40
0.0
 40
0.0
 40
0.3175638603693041
 40
0.3175638603693041
 40
0.3175638603693041
 10
10.29817016160559
 20
0.1780533049516064
 30
0.0
 10
10.28424816675275
 20
0.3362151167793663
 30
0.0
 10
10.27032617189992
 20
0.4943769286071263
 30
0.0
  0
SPLINE
  5
9D
330
1F
100
AcDbEntity
  8
2d
100
AcDbSpline
210
0.0
220
0.0
230
1.0
 70
     8
 71
     3
 72
    16
 73
    12
 74
     0
 42
0.0000000001
 43
0.0000000001
 40
0.0
 40
0.0
 40
0.0
 40
0.0
 40
0.999891216773609
 40
1.99990685571852
 40
2.999922494663431
 40
3.999938133608343
 40
4.999953772553255
 40
5.999969411498166
 40
6.999985050443078
 40
8.000000689387988
 40
9.0
 40
9.0
 40
9.0
 40
9.0
 10
10.27032617189992
 20
0.4943769286071263
 30
0.0
 10
10.28053696343701
 20
0.522764305442305
 30
0.0
 10
10.34094278195786
 20
0.5403506035573936
 30
0.0
 10
10.42261345925917
 20
0.5630663952927243
 30
0.0
 10
10.50881528574874
 20
0.5777368179223809
 30
0.0
 10
10.59471494132821
 20
0.5889537971653926
 30
0.0
 10
10.68128009016991
 20
0.5965716138049028
 30
0.0
 10
10.76783099800352
 20
0.6005864827472056
 30
0.0
 10
10.85521541542766
 20
0.6010761593451295
 30
0.0
 10
10.93980802674288
 20
0.5935250874164609
 30
0.0
 10
11.00185680819012
 20
0.5855047780090661
 30
0.0
 10
11.01740235996679
 20
0.5603512681271101
 30
0.0
  0
POLYLINE
  5
9E
330
1F
100
AcDbEntity
  8
2d
100
AcDb2dPolyline
 66
     1
 10
0.0
 20
0.0
 30
0.0
  0
VERTEX
  5
9F
330
9E
100
AcDbEntity
  8
2d
100
AcDbVertex
100
AcDb2dVertex
 10
3.686226917235716
 20
9.832911427391254
 30
0.0
  0
VERTEX
  5
A0
330
9E
100
AcDbEntity
  8
2d
100
AcDbVertex
100
AcDb2dVertex
 10
3.678804156534541
 20
9.862104852408763
 30
0.0
  0
SEQEND
  5
A1
330
9E
100
AcDbEntity
  8
2d
  0
SPLINE
  5
A2
330
1F
100
AcDbEntity
  8
2d
100
AcDbSpline
210
0.0
220
0.0
230
1.0
 70
     8
 71
     3
 72
    12
 73
     8
 74
     0
 42
0.0000000001
 43
0.0000000001
 40
0.0
 40
0.0
 40
0.0
 40
0.0
 40
0.2667308667539235
 40
0.5340766304475624
 40
1.007164365718372
 40
1.410417714597881
 40
1.768339197063563
 40
1.768339197063563
 40
1.768339197063563
 40
1.768339197063563
 10
3.678804156534541
 20
9.862104852408763
 30
0.0
 10
3.656913154803307
 20
9.948198064383428
 30
0.0
 10
3.619410160391963
 20
10.12261031735842
 30
0.0
 10
3.579731536489399
 20
10.45601412375002
 30
0.0
 10
3.589886440205733
 20
10.83985698587882
 30
0.0
 10
3.719133854551393
 20
11.23659602354642
 30
0.0
 10
3.887220574463752
 20
11.43441280897282
 30
0.0
 10
3.984270464562682
 20
11.50403554221282
 30
0.0
  0
SPLINE
  5
A3
330
1F
100
AcDbEntity
  8
2d
100
AcDbSpline
210
0.0
220
0.0
230
1.0
 70
    24
 71
     2
 72
     6
 73
     3
 74
     0
 42
0.0000000001
 43
0.0000000001
 40
0.0
 40
0.0
 40
0.0
 40
5.653012497776157
 40
5.653012497776157
 40
5.653012497776157
 10
3.984270464562682
 20
11.50403554221282
 30
0.0
 10
6.332050706989582
 20
13.11467872359055
 30
0.0
 10
8.679830949416482
 20
14.72532190496829
 30
0.0
  0
SPLINE
  5
A4
330
1F
100
AcDbEntity
  8
2d
100
AcDbSpline
210
0.0
220
0.0
230
1.0
 70
     8
 71
     3
 72
    12
 73
     8
 74
     0
 42
0.0000000001
 43
0.0000000001
 40
0.0
 40
0.0
 40
0.0
 40
0.0
 40
0.2080221405546575
 40
0.4179732730953389
 40
0.861910246383149
 40
1.389216296127097
 40
2.057129325023793
 40
2.057129325023793
 40
2.057129325023793
 40
2.057129325023793
 10
8.679830949416482
 20
14.72532190496829
 30
0.0
 10
8.737399791257923
 20
14.76576368053417
 30
0.0
 10
8.862565137674663
 20
14.82489396674858
 30
0.0
 10
9.158402919119537
 20
14.85413586303029
 30
0.0
 10
9.522286227646108
 20
14.65168595426379
 30
0.0
 10
9.779692314933294
 20
14.15363854103269
 30
0.0
 10
9.855080765237416
 20
13.76354203354839
 30
0.0
 10
9.874455545454417
 20
13.5398572053412
 30
0.0
  0
SPLINE
  5
A5
330
1F
100
AcDbEntity
  8
2d
100
AcDbSpline
210
0.0
220
0.0
230
1.0
 70
    24
 71
     2
 72
     6
 73
     3
 74
     0
 42
0.0000000001
 43
0.0000000001
 40
0.0
 40
0.0
 40
0.0
 40
13.02287264264376
 40
13.02287264264376
 40
13.02287264264376
 10
9.874455545454417
 20
13.5398572053412
 30
0.0
 10
10.44565177565738
 20
7.053283397786278
 30
0.0
 10
11.01684800586034
 20
0.5667095902313531
 30
0.0
  0
SPLINE
  5
A6
330
1F
100
AcDbEntity
  8
2d
100
AcDbSpline
210
0.0
220
0.0
230
1.0
 70
     8
 71
     3
 72
    11
 73
     7
 74
     0
 42
0.0000000001
 43
0.0000000001
 40
0.0
 40
0.0
 40
0.0
 40
0.0
 40
1.0
 40
2.0
 40
3.0
 40
4.0
 40
4.0
 40
4.0
 40
4.0
 10
-10.99220386712365
 20
42.44886516612433
 30
0.0
 10
-11.04454461850957
 20
42.36141204973359
 30
0.0
 10
-11.07379645526336
 20
42.14282246242443
 30
0.0
 10
-10.86537973539932
 20
41.88490432036594
 30
0.0
 10
-10.53527367795618
 20
41.85932007903973
 30
0.0
 10
-10.37067125353948
 20
42.00636533072301
 30
0.0
 10
-10.32854458841478
 20
42.09910791301754
 30
0.0
  0
SPLINE
  5
A7
330
1F
100
AcDbEntity
  8
2d
100
AcDbSpline
210
0.0
220
0.0
230
1.0
 70
    24
 71
     2
 72
     6
 73
     3
 74
     0
 42
0.0000000001
 43
0.0000000001
 40
0.0
 40
0.0
 40
0.0
 40
0.7462554579171949
 40
0.7462554579171949
 40
0.7462554579171949
 10
-10.64604934986551
 20
43.14235545630495
 30
0.0
 10
-10.81293089318622
 20
42.80801922038845
 30
0.0
 10
-10.97981243650693
 20
42.47368298447195
 30
0.0
  0
SPLINE
  5
A8
330
1F
100
AcDbEntity
  8
2d
100
AcDbSpline
210
0.0
220
0.0
230
1.0
 70
     8
 71
     3
 72
    11
 73
     7
 74
     0
 42
0.0000000001
 43
0.0000000001
 40
-4.0
 40
-4.0
 40
-4.0
 40
-4.0
 40
-2.999997698336222
 40
-1.999995396672444
 40
-0.9999930950086655
 40
0.0
 40
0.0
 40
0.0
 40
0.0
 10
-10.97981243650693
 20
42.47368298447195
 30
0.0
 10
-11.02394778610765
 20
42.38552169032494
 30
0.0
 10
-11.03324336742883
 20
42.17550920293181
 30
0.0
 10
-10.82335753144233
 20
41.9421059610861
 30
0.0
 10
-10.51035538414057
 20
41.91822803057679
 30
0.0
 10
-10.34969827504348
 20
42.05384029670661
 30
0.0
 10
-10.30731432710275
 20
42.14164821289749
 30
0.0
  0
SPLINE
  5
A9
330
1F
100
AcDbEntity
  8
2d
100
AcDbSpline
210
0.0
220
0.0
230
1.0
 70
    24
 71
     2
 72
     6
 73
     3
 74
     0
 42
0.0000000001
 43
0.0000000001
 40
0.0
 40
0.0
 40
0.0
 40
0.3079063313901251
 40
0.3079063313901251
 40
0.3079063313901251
 10
-10.30731432710275
 20
42.14164821289749
 30
0.0
 10
-10.23855737407474
 20
42.27939308832566
 30
0.0
 10
-10.16980042104672
 20
42.41713796375383
 30
0.0
  0
SPLINE
  5
AA
330
1F
100
AcDbEntity
  8
2d
100
AcDbSpline
210
0.0
220
0.0
230
1.0
 70
     8
 71
     3
 72
    11
 73
     7
 74
     0
 42
0.0000000001
 43
0.0000000001
 40
0.0
 40
0.0
 40
0.0
 40
0.0
 40
1.0
 40
2.0
 40
3.0
 40
4.0
 40
4.0
 40
4.0
 40
4.0
 10
10.99221296403925
 20
42.44886516612433
 30
0.0
 10
11.04455371542517
 20
42.36141204973359
 30
0.0
 10
11.07380555217896
 20
42.14282246242443
 30
0.0
 10
10.86538883231493
 20
41.88490432036594
 30
0.0
 10
10.53528277487178
 20
41.85932007903973
 30
0.0
 10
10.37068035045508
 20
42.00636533072301
 30
0.0
 10
10.32855368533038
 20
42.09910791301754
 30
0.0
  0
SPLINE
  5
AB
330
1F
100
AcDbEntity
  8
2d
100
AcDbSpline
210
0.0
220
0.0
230
1.0
 70
    24
 71
     2
 72
     6
 73
     3
 74
     0
 42
0.0000000001
 43
0.0000000001
 40
0.0
 40
0.0
 40
0.0
 40
0.7462554579171949
 40
0.7462554579171949
 40
0.7462554579171949
 10
10.64605844678111
 20
43.14235545630495
 30
0.0
 10
10.81293999010182
 20
42.80801922038845
 30
0.0
 10
10.97982153342253
 20
42.47368298447195
 30
0.0
  0
SPLINE
  5
AC
330
1F
100
AcDbEntity
  8
2d
100
AcDbSpline
210
0.0
220
0.0
230
1.0
 70
     8
 71
     3
 72
    11
 73
     7
 74
     0
 42
0.0000000001
 43
0.0000000001
 40
-4.0
 40
-4.0
 40
-4.0
 40
-4.0
 40
-2.999997698336222
 40
-1.999995396672444
 40
-0.9999930950086655
 40
0.0
 40
0.0
 40
0.0
 40
0.0
 10
10.97982153342253
 20
42.47368298447195
 30
0.0
 10
11.02395688302325
 20
42.38552169032494
 30
0.0
 10
11.03325246434443
 20
42.17550920293181
 30
0.0
 10
10.82336662835793
 20
41.9421059610861
 30
0.0
 10
10.51036448105617
 20
41.91822803057679
 30
0.0
 10
10.34970737195909
 20
42.05384029670661
 30
0.0
 10
10.30732342401835
 20
42.14164821289749
 30
0.0
  0
SPLINE
  5
AD
330
1F
100
AcDbEntity
  8
2d
100
AcDbSpline
210
0.0
220
0.0
230
1.0
 70
    24
 71
     2
 72
     6
 73
     3
 74
     0
 42
0.0000000001
 43
0.0000000001
 40
0.0
 40
0.0
 40
0.0
 40
0.3079063313901251
 40
0.3079063313901251
 40
0.3079063313901251
 10
10.30732342401835
 20
42.14164821289749
 30
0.0
 10
10.23856647099034
 20
42.27939308832566
 30
0.0
 10
10.16980951796232
 20
42.41713796375383
 30
0.0
  0
SPLINE
  5
AE
330
1F
100
AcDbEntity
  8
2d
100
AcDbSpline
210
0.0
220
0.0
230
1.0
 70
     8
 71
     3
 72
    30
 73
    26
 74
     0
 42
0.0000000001
 43
0.0000000001
 40
-23.0
 40
-23.0
 40
-23.0
 40
-23.0
 40
-22.0
 40
-21.0
 40
-20.0
 40
-19.0
 40
-18.0
 40
-17.0
 40
-16.0
 40
-15.0
 40
-14.0
 40
-13.0
 40
-12.0
 40
-11.0
 40
-10.0
 40
-9.0
 40
-8.0
 40
-7.0
 40
-6.0
 40
-5.0
 40
-4.0
 40
-3.0
 40
-2.0
 40
-1.0
 40
0.0
 40
0.0
 40
0.0
 40
0.0
 10
10.59767772740659
 20
43.15240141321038
 30
0.0
 10
11.02433308705786
 20
43.05248490677122
 30
0.0
 10
11.89975532728819
 20
43.23707638627734
 30
0.0
 10
12.91184498910259
 20
44.10878768938552
 30
0.0
 10
13.44500735191692
 20
45.31319501128957
 30
0.0
 10
13.47011730358501
 20
46.62044806285759
 30
0.0
 10
13.36185924321642
 20
47.90589355587696
 30
0.0
 10
13.24760899911494
 20
49.19431819820512
 30
0.0
 10
13.06591339322099
 20
50.47432876672973
 30
0.0
 10
12.83689440226527
 20
51.74675761096238
 30
0.0
 10
12.54956424637968
 20
53.0074101618201
 30
0.0
 10
12.20081114892022
 20
54.25252163892788
 30
0.0
 10
11.78441311736912
 20
55.47681091642428
 30
0.0
 10
11.29097773703696
 20
56.6723596698392
 30
0.0
 10
10.71055015168761
 20
57.82842971526382
 30
0.0
 10
10.03222459491302
 20
58.93054269278513
 30
0.0
 10
9.240437850073011
 20
59.95485679386908
 30
0.0
 10
8.334448193859973
 20
60.88002893990643
 30
0.0
 10
7.324511203786527
 20
61.69057459232388
 30
0.0
 10
6.224495174888208
 20
62.37361438461302
 30
0.0
 10
5.055429183113366
 20
62.92951634054675
 30
0.0
 10
3.833868897767037
 20
63.35759240607126
 30
0.0
 10
2.574891798946378
 20
63.65770472721594
 30
0.0
 10
1.29267169322853
 20
63.8325210557458
 30
0.0
 10
0.4308665837264786
 20
63.86974063520515
 30
0.0
 10
0.0000045484578166
 20
63.86968550818458
 30
0.0
  0
SPLINE
  5
AF
330
1F
100
AcDbEntity
  8
2d
100
AcDbSpline
210
0.0
220
0.0
230
1.0
 70
     8
 71
     3
 72
    30
 73
    26
 74
     0
 42
0.0000000001
 43
0.0000000001
 40
0.0
 40
0.0
 40
0.0
 40
0.0
 40
1.0
 40
2.0
 40
3.0
 40
4.0
 40
5.0
 40
6.0
 40
7.0
 40
8.0
 40
9.0
 40
10.0
 40
11.0
 40
12.0
 40
13.0
 40
14.0
 40
15.0
 40
16.0
 40
17.0
 40
18.0
 40
19.0
 40
20.0
 40
21.0
 40
22.0
 40
23.0
 40
23.0
 40
23.0
 40
23.0
 10
0.0000045484578166
 20
63.86968550818458
 30
0.0
 10
-0.4308574868108453
 20
63.86974063520515
 30
0.0
 10
-1.292662596312897
 20
63.8325210557458
 30
0.0
 10
-2.574882702030744
 20
63.65770472721594
 30
0.0
 10
-3.833859800851404
 20
63.35759240607126
 30
0.0
 10
-5.055420086197732
 20
62.92951634054675
 30
0.0
 10
-6.224486077972575
 20
62.37361438461302
 30
0.0
 10
-7.324502106870894
 20
61.69057459232388
 30
0.0
 10
-8.33443909694434
 20
60.88002893990643
 30
0.0
 10
-9.240428753157378
 20
59.95485679386908
 30
0.0
 10
-10.03221549799738
 20
58.93054269278513
 30
0.0
 10
-10.71054105477197
 20
57.82842971526382
 30
0.0
 10
-11.29096864012133
 20
56.6723596698392
 30
0.0
 10
-11.78440402045349
 20
55.47681091642428
 30
0.0
 10
-12.20080205200459
 20
54.25252163892788
 30
0.0
 10
-12.54955514946405
 20
53.0074101618201
 30
0.0
 10
-12.83688530534963
 20
51.74675761096238
 30
0.0
 10
-13.06590429630536
 20
50.47432876672973
 30
0.0
 10
-13.24759990219931
 20
49.19431819820512
 30
0.0
 10
-13.36185014630079
 20
47.90589355587696
 30
0.0
 10
-13.47010820666938
 20
46.62044806285759
 30
0.0
 10
-13.44499825500128
 20
45.31319501128957
 30
0.0
 10
-12.91183589218696
 20
44.10878768938552
 30
0.0
 10
-11.89974623037256
 20
43.23707638627734
 30
0.0
 10
-11.02432399014222
 20
43.05248490677122
 30
0.0
 10
-10.59766863049095
 20
43.15240141321038
 30
0.0
  0
SPLINE
  5
B0
330
1F
100
AcDbEntity
  8
2d
100
AcDbSpline
210
0.0
220
0.0
230
1.0
 70
     8
 71
     3
 72
    94
 73
    90
 74
     0
 42
0.0000000001
 43
0.0000000001
 40
0.0
 40
0.0
 40
0.0
 40
0.0
 40
1.0
 40
2.0
 40
3.0
 40
4.0
 40
5.0
 40
6.0
 40
7.0
 40
8.0
 40
9.0
 40
10.0
 40
11.0
 40
12.0
 40
13.0
 40
14.0
 40
15.0
 40
16.0
 40
17.0
 40
18.0
 40
19.0
 40
20.0
 40
21.0
 40
22.0
 40
23.0
 40
24.0
 40
25.0
 40
26.0
 40
27.0
 40
28.0
 40
29.0
 40
30.0
 40
31.0
 40
32.0
 40
33.0
 40
34.0
 40
35.0
 40
36.0
 40
37.0
 40
38.0
 40
39.0
 40
40.0
 40
41.0
 40
42.0
 40
43.0
 40
44.0
 40
45.0
 40
46.0
 40
47.0
 40
48.0
 40
49.0
 40
50.0
 40
51.0
 40
52.0
 40
53.0
 40
54.0
 40
55.0
 40
56.0
 40
57.0
 40
58.0
 40
59.0
 40
60.0
 40
61.0
 40
62.0
 40
63.0
 40
64.0
 40
65.0
 40
66.0
 40
67.0
 40
68.0
 40
69.0
 40
70.0
 40
71.0
 40
72.0
 40
73.0
 40
74.0
 40
75.0
 40
76.0
 40
77.0
 40
78.0
 40
79.0
 40
80.0
 40
81.0
 40
82.0
 40
83.0
 40
84.0
 40
85.0
 40
86.0
 40
87.0
 40
87.0
 40
87.0
 40
87.0
 10
0.0000045484578006
 20
40.19279246680458
 30
0.0
 10
-0.1219527283553493
 20
40.192557255695
 30
0.0
 10
-0.3658686583919079
 20
40.19337284403443
 30
0.0
 10
-0.7317107891513684
 20
40.19845190626782
 30
0.0
 10
-1.097478489704683
 20
40.20739125606656
 30
0.0
 10
-1.463132396022545
 20
40.22017143050554
 30
0.0
 10
-1.828628186576638
 20
40.23685969231713
 30
0.0
 10
-2.193940477738231
 20
40.25719799673056
 30
0.0
 10
-2.558968437703083
 20
40.28214001657005
 30
0.0
 10
-2.923649161162033
 20
40.31173201203662
 30
0.0
 10
-3.287923136956006
 20
40.34597333634105
 30
0.0
 10
-3.651701342625035
 20
40.38513930531241
 30
0.0
 10
-4.014892013592975
 20
40.42943082240572
 30
0.0
 10
-4.377391628690783
 20
40.47906800664891
 30
0.0
 10
-4.739088294464782
 20
40.53426171555367
 30
0.0
 10
-5.09985611021205
 20
40.59523223812799
 30
0.0
 10
-5.459561955814853
 20
40.66219386933162
 30
0.0
 10
-5.818050556214985
 20
40.73539276940055
 30
0.0
 10
-6.175196562608339
 20
40.81489712327173
 30
0.0
 10
-6.530776246104584
 20
40.90113084425163
 30
0.0
 10
-6.884789657599464
 20
40.99358615539411
 30
0.0
 10
-7.236788030564856
 20
41.09345987899556
 30
0.0
 10
-7.586704254208263
 20
41.20038749682749
 30
0.0
 10
-7.934385963679023
 20
41.31438369576891
 30
0.0
 10
-8.279646549834242
 20
41.43549045243959
 30
0.0
 10
-8.622527404248151
 20
41.56324403898763
 30
0.0
 10
-8.962197920011656
 20
41.69915892035915
 30
0.0
 10
-9.30108883987067
 20
41.83732332779876
 30
0.0
 10
-9.62929411728609
 20
41.99995416328533
 30
0.0
 10
-9.935628325799689
 20
42.20147132540249
 30
0.0
 10
-10.21152282749541
 20
42.44341925231988
 30
0.0
 10
-10.43700066842583
 20
42.73484043036468
 30
0.0
 10
-10.58668399791578
 20
43.07011234346117
 30
0.0
 10
-10.67032409278283
 20
43.43122028140404
 30
0.0
 10
-10.62920639240978
 20
43.79720246173768
 30
0.0
 10
-10.56165006593526
 20
44.1564460945811
 30
0.0
 10
-10.47529808676705
 20
44.51215864402168
 30
0.0
 10
-10.37882156760462
 20
44.86509746771618
 30
0.0
 10
-10.27258452865411
 20
45.21524575385961
 30
0.0
 10
-10.15655495449319
 20
45.56225582468093
 30
0.0
 10
-10.03663209253665
 20
45.90791409410079
 30
0.0
 10
-9.915682782578866
 20
46.25321700438378
 30
0.0
 10
-9.795114746912319
 20
46.59865211927648
 30
0.0
 10
-9.674455245669778
 20
46.94405549905438
 30
0.0
 10
-9.553833181226278
 20
47.28947244827098
 30
0.0
 10
-9.433214442248808
 20
47.63488960208972
 30
0.0
 10
-9.312607650373863
 20
47.9803120264014
 30
0.0
 10
-9.192010859362966
 20
48.32573732158159
 30
0.0
 10
-9.071424602884107
 20
48.67116609567491
 30
0.0
 10
-8.950848417318882
 20
49.0165991040468
 30
0.0
 10
-8.830282900177377
 20
49.36203478924715
 30
0.0
 10
-8.709727443347868
 20
49.7074748488205
 30
0.0
 10
-8.589182448410883
 20
50.05291815671109
 30
0.0
 10
-8.468647764348555
 20
50.3983650922142
 30
0.0
 10
-8.348123336027184
 20
50.74381600239603
 30
0.0
 10
-8.227609245413566
 20
51.08926994978577
 30
0.0
 10
-8.1071059175736
 20
51.43472833712717
 30
0.0
 10
-7.986610834806926
 20
51.78018859914241
 30
0.0
 10
-7.866134560604124
 20
52.12565696311722
 30
0.0
 10
-7.745635800328317
 20
52.47111555332491
 30
0.0
 10
-7.625271502582154
 20
52.81662295420005
 30
0.0
 10
-7.504452705845008
 20
53.16196976298062
 30
0.0
 10
-7.385380183355074
 20
53.50792962698419
 30
0.0
 10
-7.259511519239309
 20
53.85150599248929
 30
0.0
 10
-7.121222448471467
 20
54.19031172408913
 30
0.0
 10
-6.970211533166157
 20
54.52364281361561
 30
0.0
 10
-6.804815783385931
 20
54.85011090297854
 30
0.0
 10
-6.623774754707838
 20
55.16817391594705
 30
0.0
 10
-6.426152115362437
 20
55.47629074800951
 30
0.0
 10
-6.210284598728259
 20
55.77180611795587
 30
0.0
 10
-5.978562312272629
 20
56.0553773966068
 30
0.0
 10
-5.721068167287231
 20
56.31576111132315
 30
0.0
 10
-5.449593860815293
 20
56.56119988278321
 30
0.0
 10
-5.16327537823689
 20
56.78928037635131
 30
0.0
 10
-4.864526139482082
 20
57.00072386367879
 30
0.0
 10
-4.554705918885439
 20
57.19558138372405
 30
0.0
 10
-4.235259443010652
 20
57.37418914029858
 30
0.0
 10
-3.907415781087921
 20
57.5368499921569
 30
0.0
 10
-3.57226034955687
 20
57.68383596912887
 30
0.0
 10
-3.230801549811701
 20
57.81549410377927
 30
0.0
 10
-2.883966161852345
 20
57.93223174604539
 30
0.0
 10
-2.532595575907227
 20
58.03448672218022
 30
0.0
 10
-2.177452532889934
 20
58.12272373439583
 30
0.0
 10
-1.819207334713395
 20
58.19736100341044
 30
0.0
 10
-1.45839836885722
 20
58.25840805023583
 30
0.0
 10
-1.095560682944962
 20
58.30591904547308
 30
0.0
 10
-0.7312121766785057
 20
58.3399487667374
 30
0.0
 10
-0.3658593968467455
 20
58.36056045150612
 30
0.0
 10
-0.1219525262880806
 20
58.36540053653356
 30
0.0
 10
0.0000045484578148
 20
58.36560676459406
 30
0.0
  0
SPLINE
  5
B1
330
1F
100
AcDbEntity
  8
2d
100
AcDbSpline
210
0.0
220
0.0
230
1.0
 70
     8
 71
     3
 72
    94
 73
    90
 74
     0
 42
0.0000000001
 43
0.0000000001
 40
-87.0
 40
-87.0
 40
-87.0
 40
-87.0
 40
-86.0
 40
-85.0
 40
-84.0
 40
-83.0
 40
-82.0
 40
-81.0
 40
-80.0
 40
-79.0
 40
-78.0
 40
-77.0
 40
-76.0
 40
-75.0
 40
-74.0
 40
-73.0
 40
-72.0
 40
-71.0
 40
-70.0
 40
-69.0
 40
-68.0
 40
-67.0
 40
-66.0
 40
-65.0
 40
-64.0
 40
-63.0
 40
-62.0
 40
-61.0
 40
-60.0
 40
-59.0
 40
-58.0
 40
-57.0
 40
-56.0
 40
-55.0
 40
-54.0
 40
-53.0
 40
-52.0
 40
-51.0
 40
-50.0
 40
-49.0
 40
-48.0
 40
-47.0
 40
-46.0
 40
-45.0
 40
-44.0
 40
-43.0
 40
-42.0
 40
-41.0
 40
-40.0
 40
-39.0
 40
-38.0
 40
-37.0
 40
-36.0
 40
-35.0
 40
-34.0
 40
-33.0
 40
-32.0
 40
-31.0
 40
-30.0
 40
-29.0
 40
-28.0
 40
-27.0
 40
-26.0
 40
-25.0
 40
-24.0
 40
-23.0
 40
-22.0
 40
-21.0
 40
-20.0
 40
-19.0
 40
-18.0
 40
-17.0
 40
-16.0
 40
-15.0
 40
-14.0
 40
-13.0
 40
-12.0
 40
-11.0
 40
-10.0
 40
-9.0
 40
-8.0
 40
-7.0
 40
-6.0
 40
-5.0
 40
-4.0
 40
-3.0
 40
-2.0
 40
-1.0
 40
0.0
 40
0.0
 40
0.0
 40
0.0
 10
0.0000045484577864
 20
58.36560676459406
 30
0.0
 10
0.1219616232036819
 20
58.36540053653356
 30
0.0
 10
0.3658684937623467
 20
58.36056045150612
 30
0.0
 10
0.7312212735941069
 20
58.3399487667374
 30
0.0
 10
1.095569779860564
 20
58.30591904547308
 30
0.0
 10
1.458407465772821
 20
58.25840805023583
 30
0.0
 10
1.819216431628997
 20
58.19736100341044
 30
0.0
 10
2.177461629805535
 20
58.12272373439583
 30
0.0
 10
2.532604672822828
 20
58.03448672218022
 30
0.0
 10
2.883975258767947
 20
57.93223174604539
 30
0.0
 10
3.230810646727302
 20
57.81549410377927
 30
0.0
 10
3.572269446472471
 20
57.68383596912887
 30
0.0
 10
3.907424878003522
 20
57.5368499921569
 30
0.0
 10
4.235268539926254
 20
57.37418914029858
 30
0.0
 10
4.55471501580104
 20
57.19558138372405
 30
0.0
 10
4.864535236397684
 20
57.00072386367879
 30
0.0
 10
5.163284475152492
 20
56.78928037635131
 30
0.0
 10
5.449602957730894
 20
56.56119988278321
 30
0.0
 10
5.721077264202832
 20
56.31576111132315
 30
0.0
 10
5.97857140918823
 20
56.0553773966068
 30
0.0
 10
6.21029369564386
 20
55.77180611795587
 30
0.0
 10
6.426161212278038
 20
55.47629074800951
 30
0.0
 10
6.623783851623439
 20
55.16817391594705
 30
0.0
 10
6.804824880301532
 20
54.85011090297854
 30
0.0
 10
6.970220630081759
 20
54.52364281361561
 30
0.0
 10
7.121231545387068
 20
54.19031172408913
 30
0.0
 10
7.25952061615491
 20
53.85150599248929
 30
0.0
 10
7.385389280270675
 20
53.50792962698419
 30
0.0
 10
7.504461802760609
 20
53.16196976298062
 30
0.0
 10
7.625280599497755
 20
52.81662295420005
 30
0.0
 10
7.745644897243919
 20
52.47111555332491
 30
0.0
 10
7.866143657519725
 20
52.12565696311722
 30
0.0
 10
7.986619931722527
 20
51.78018859914241
 30
0.0
 10
8.107115014489201
 20
51.43472833712717
 30
0.0
 10
8.227618342329167
 20
51.08926994978577
 30
0.0
 10
8.348132432942785
 20
50.74381600239603
 30
0.0
 10
8.468656861264156
 20
50.3983650922142
 30
0.0
 10
8.589191545326484
 20
50.05291815671109
 30
0.0
 10
8.709736540263469
 20
49.7074748488205
 30
0.0
 10
8.830291997092978
 20
49.36203478924715
 30
0.0
 10
8.950857514234484
 20
49.0165991040468
 30
0.0
 10
9.071433699799709
 20
48.67116609567491
 30
0.0
 10
9.192019956278568
 20
48.32573732158159
 30
0.0
 10
9.312616747289464
 20
47.9803120264014
 30
0.0
 10
9.433223539164409
 20
47.63488960208972
 30
0.0
 10
9.553842278141879
 20
47.28947244827098
 30
0.0
 10
9.67446434258538
 20
46.94405549905438
 30
0.0
 10
9.79512384382792
 20
46.59865211927648
 30
0.0
 10
9.915691879494467
 20
46.25321700438378
 30
0.0
 10
10.03664118945225
 20
45.90791409410079
 30
0.0
 10
10.15656405140879
 20
45.56225582468093
 30
0.0
 10
10.27259362556971
 20
45.21524575385961
 30
0.0
 10
10.37883066452022
 20
44.86509746771618
 30
0.0
 10
10.47530718368265
 20
44.51215864402168
 30
0.0
 10
10.56165916285086
 20
44.1564460945811
 30
0.0
 10
10.62921548932538
 20
43.79720246173768
 30
0.0
 10
10.67033318969843
 20
43.43122028140404
 30
0.0
 10
10.58669309483138
 20
43.07011234346117
 30
0.0
 10
10.43700976534143
 20
42.73484043036468
 30
0.0
 10
10.21153192441101
 20
42.44341925231988
 30
0.0
 10
9.93563742271529
 20
42.20147132540249
 30
0.0
 10
9.629303214201691
 20
41.99995416328533
 30
0.0
 10
9.301097936786272
 20
41.83732332779876
 30
0.0
 10
8.962207016927257
 20
41.69915892035915
 30
0.0
 10
8.622536501163752
 20
41.56324403898763
 30
0.0
 10
8.279655646749843
 20
41.43549045243959
 30
0.0
 10
7.934395060594624
 20
41.31438369576891
 30
0.0
 10
7.586713351123865
 20
41.20038749682749
 30
0.0
 10
7.236797127480457
 20
41.09345987899556
 30
0.0
 10
6.884798754515066
 20
40.99358615539411
 30
0.0
 10
6.530785343020185
 20
40.90113084425163
 30
0.0
 10
6.17520565952394
 20
40.81489712327173
 30
0.0
 10
5.818059653130586
 20
40.73539276940055
 30
0.0
 10
5.459571052730454
 20
40.66219386933162
 30
0.0
 10
5.099865207127651
 20
40.59523223812799
 30
0.0
 10
4.739097391380383
 20
40.53426171555367
 30
0.0
 10
4.377400725606384
 20
40.47906800664891
 30
0.0
 10
4.014901110508577
 20
40.42943082240572
 30
0.0
 10
3.651710439540636
 20
40.38513930531241
 30
0.0
 10
3.287932233871607
 20
40.34597333634105
 30
0.0
 10
2.923658258077634
 20
40.31173201203662
 30
0.0
 10
2.558977534618684
 20
40.28214001657005
 30
0.0
 10
2.193949574653832
 20
40.25719799673056
 30
0.0
 10
1.82863728349224
 20
40.23685969231713
 30
0.0
 10
1.463141492938146
 20
40.22017143050554
 30
0.0
 10
1.097487586620284
 20
40.20739125606656
 30
0.0
 10
0.7317198860669697
 20
40.19845190626782
 30
0.0
 10
0.3658777553075091
 20
40.19337284403443
 30
0.0
 10
0.1219618252709506
 20
40.192557255695
 30
0.0
 10
0.0000045484578006
 20
40.19279246680458
 30
0.0
  0
SPLINE
  5
B2
330
1F
100
AcDbEntity
  8
2d
100
AcDbSpline
210
0.0
220
0.0
230
1.0
 70
    28
 71
     2
 72
     6
 73
     3
 74
     0
 42
0.0000000001
 43
0.0000000001
 40
0.0
 40
0.0
 40
0.0
 40
0.4356477800029098
 40
0.4356477800029098
 40
0.4356477800029098
 10
32.13233464623723
 20
9.230857163667679
 30
0.0
 41
1.0
 10
32.16674339146272
 20
9.015768146497177
 30
0.0
 41
1.0
 10
32.20115213668823
 20
8.800679129326674
 30
0.0
 41
1.0
  0
SPLINE
  5
B3
330
1F
100
AcDbEntity
  8
2d
100
AcDbSpline
210
0.0
220
0.0
230
1.0
 70
    24
 71
     2
 72
     6
 73
     3
 74
     0
 42
0.0000000001
 43
0.0000000001
 40
0.0
 40
0.0
 40
0.0
 40
0.8449871202358029
 40
0.8449871202358029
 40
0.8449871202358029
 10
4.002552391125457
 20
8.588789093284488
 30
0.0
 10
3.898443326207614
 20
8.998254734020108
 30
0.0
 10
3.794334261289771
 20
9.407720374755726
 30
0.0
  0
ENDSEC
  0
SECTION
  2
OBJECTS
  0
DICTIONARY
  5
C
330
0
100
AcDbDictionary
281
     1
  3
ACAD_GROUP
350
D
  3
ACAD_LAYOUT
350
1A
  3
ACAD_MLEADERSTYLE
350
B5
  3
ACAD_MLINESTYLE
350
17
  3
ACAD_PLOTSETTINGS
350
19
  3
ACAD_PLOTSTYLENAME
350
E
  3
ACAD_TABLESTYLE
350
B4
  3
ACAD_VISUALSTYLE
350
2A
  0
DICTIONARY
  5
D
102
{ACAD_REACTORS
330
C
102
}
330
C
100
AcDbDictionary
281
     1
  0
DICTIONARY
  5
1A
102
{ACAD_REACTORS
330
C
102
}
330
C
100
AcDbDictionary
281
     1
  3
Layout1
350
1E
  3
Layout2
350
26
  3
Model
350
22
  0
DICTIONARY
  5
B5
102
{ACAD_REACTORS
330
C
102
}
330
C
100
AcDbDictionary
281
     1
  0
DICTIONARY
  5
17
102
{ACAD_REACTORS
330
C
102
}
330
C
100
AcDbDictionary
281
     1
  3
Standard
350
18
  0
DICTIONARY
  5
19
102
{ACAD_REACTORS
330
C
102
}
330
C
100
AcDbDictionary
281
     1
  0
ACDBDICTIONARYWDFLT
  5
E
102
{ACAD_REACTORS
330
C
102
}
330
C
100
AcDbDictionary
281
     1
  3
Normal
350
F
100
AcDbDictionaryWithDefault
340
F
  0
DICTIONARY
  5
B4
102
{ACAD_REACTORS
330
C
102
}
330
C
100
AcDbDictionary
281
     1
  0
DICTIONARY
  5
2A
102
{ACAD_REACTORS
330
C
102
}
330
C
100
AcDbDictionary
281
     1
  3
2dWireframe
350
2F
  3
3D Hidden
350
31
  3
3dWireframe
350
30
  3
Basic
350
32
  3
Brighten
350
36
  3
ColorChange
350
3A
  3
Conceptual
350
34
  3
Dim
350
35
  3
Facepattern
350
39
  3
Flat
350
2B
  3
FlatWithEdges
350
2C
  3
Gouraud
350
2D
  3
GouraudWithEdges
350
2E
  3
Linepattern
350
38
  3
Realistic
350
33
  3
Thicken
350
37
  0
LAYOUT
  5
1E
102
{ACAD_REACTORS
330
1A
102
}
330
1A
100
AcDbPlotSettings
  1

  2
none_device
  4

  6

 40
0.0
 41
0.0
 42
0.0
 43
0.0
 44
0.0
 45
0.0
 46
0.0
 47
0.0
 48
0.0
 49
0.0
140
0.0
141
0.0
142
1.0
143
1.0
 70
   688
 72
     0
 73
     0
 74
     5
  7

 75
    16
 76
     0
 77
     2
 78
   300
147
1.0
148
0.0
149
0.0
100
AcDbLayout
  1
Layout1
 70
     1
 71
     1
 10
0.0
 20
0.0
 11
12.0
 21
9.0
 12
0.0
 22
0.0
 32
0.0
 14
1.000000000000000E+20
 24
1.000000000000000E+20
 34
1.000000000000000E+20
 15
-1.000000000000000E+20
 25
-1.000000000000000E+20
 35
-1.000000000000000E+20
146
0.0
 13
0.0
 23
0.0
 33
0.0
 16
1.0
 26
0.0
 36
0.0
 17
0.0
 27
1.0
 37
0.0
 76
     0
330
1B
  0
LAYOUT
  5
26
102
{ACAD_REACTORS
330
1A
102
}
330
1A
100
AcDbPlotSettings
  1

  2
none_device
  4

  6

 40
0.0
 41
0.0
 42
0.0
 43
0.0
 44
0.0
 45
0.0
 46
0.0
 47
0.0
 48
0.0
 49
0.0
140
0.0
141
0.0
142
1.0
143
1.0
 70
   688
 72
     0
 73
     0
 74
     5
  7

 75
    16
 76
     0
 77
     2
 78
   300
147
1.0
148
0.0
149
0.0
100
AcDbLayout
  1
Layout2
 70
     1
 71
     2
 10
0.0
 20
0.0
 11
0.0
 21
0.0
 12
0.0
 22
0.0
 32
0.0
 14
0.0
 24
0.0
 34
0.0
 15
0.0
 25
0.0
 35
0.0
146
0.0
 13
0.0
 23
0.0
 33
0.0
 16
1.0
 26
0.0
 36
0.0
 17
0.0
 27
1.0
 37
0.0
 76
     0
330
23
  0
LAYOUT
  5
22
102
{ACAD_REACTORS
330
1A
102
}
330
1A
100
AcDbPlotSettings
  1

  2
none_device
  4

  6

 40
0.0
 41
0.0
 42
0.0
 43
0.0
 44
0.0
 45
0.0
 46
0.0
 47
0.0
 48
0.0
 49
0.0
140
0.0
141
0.0
142
1.0
143
1.0
 70
  1712
 72
     0
 73
     0
 74
     0
  7

 75
     0
 76
     0
 77
     2
 78
   300
147
1.0
148
0.0
149
0.0
100
AcDbLayout
  1
Model
 70
     1
 71
     0
 10
0.0
 20
0.0
 11
12.0
 21
9.0
 12
0.0
 22
0.0
 32
0.0
 14
-13.44788020466326
 24
0.0000880574447647
 34
0.0
 15
45.9164649700557
 25
63.8696855081846
 35
0.0
146
0.0
 13
0.0
 23
0.0
 33
0.0
 16
1.0
 26
0.0
 36
0.0
 17
0.0
 27
1.0
 37
0.0
 76
     0
330
1F
331
29
  0
MLINESTYLE
  5
18
102
{ACAD_REACTORS
330
17
102
}
330
17
100
AcDbMlineStyle
  2
Standard
 70
     0
  3

 62
   256
 51
90.0
 52
90.0
 71
     2
 49
0.5
 62
   256
  6
BYLAYER
 49
-0.5
 62
   256
  6
BYLAYER
  0
ACDBPLACEHOLDER
  5
F
102
{ACAD_REACTORS
330
E
102
}
330
E
  0
VISUALSTYLE
  5
2F
102
{ACAD_REACTORS
330
2A
102
}
330
2A
100
AcDbVisualStyle
  2
2dWireframe
 70
     4
 71
     0
 72
     2
 73
     0
 90
        0
 40
-0.6
 41
-30.0
 62
     5
 63
     7
421
 16777215
 74
     1
 91
        4
 64
     7
 65
   257
 75
     1
175
     1
 42
1.0
 92
        0
 66
   257
 43
1.0
 76
     1
 77
     6
 78
     2
 67
     7
 79
     5
170
     0
171
     0
290
     0
174
     0
 93
        1
 44
0.0
173
     0
291
     0
 45
0.0
1001
ACAD
1000
AcDbSavedByObjectVersion
1070
     0
  0
VISUALSTYLE
  5
31
102
{ACAD_REACTORS
330
2A
102
}
330
2A
100
AcDbVisualStyle
  2
3D Hidden
 70
     6
 71
     1
 72
     2
 73
     2
 90
        0
 40
-0.6
 41
-30.0
 62
     5
 63
     7
421
 16777215
 74
     2
 91
        2
 64
     7
 65
   257
 75
     2
175
     1
 42
40.0
 92
        0
 66
   257
 43
1.0
 76
     1
 77
     6
 78
     2
 67
     7
 79
     3
170
     0
171
     0
290
     0
174
     0
 93
        1
 44
0.0
173
     0
291
     0
 45
0.0
1001
ACAD
1000
AcDbSavedByObjectVersion
1070
     0
  0
VISUALSTYLE
  5
30
102
{ACAD_REACTORS
330
2A
102
}
330
2A
100
AcDbVisualStyle
  2
3dWireframe
 70
     5
 71
     0
 72
     2
 73
     0
 90
        0
 40
-0.6
 41
-30.0
 62
     5
 63
     7
421
 16777215
 74
     1
 91
        4
 64
     7
 65
   257
 75
     1
175
     1
 42
1.0
 92
        0
 66
   257
 43
1.0
 76
     1
 77
     6
 78
     2
 67
     7
 79
     5
170
     0
171
     0
290
     0
174
     0
 93
        1
 44
0.0
173
     0
291
     0
 45
0.0
1001
ACAD
1000
AcDbSavedByObjectVersion
1070
     0
  0
VISUALSTYLE
  5
32
102
{ACAD_REACTORS
330
2A
102
}
330
2A
100
AcDbVisualStyle
  2
Basic
 70
     7
 71
     1
 72
     0
 73
     1
 90
        0
 40
-0.6
 41
-30.0
 62
     5
 63
     7
421
 16777215
 74
     0
 91
        4
 64
     7
 65
   257
 75
     1
175
     1
 42
1.0
 92
        8
 66
     7
 43
1.0
 76
     1
 77
     6
 78
     2
 67
     7
 79
     5
170
     0
171
     0
290
     0
174
     0
 93
        1
 44
0.0
173
     0
291
     1
 45
0.0
1001
ACAD
1000
AcDbSavedByObjectVersion
1070
     0
  0
VISUALSTYLE
  5
36
102
{ACAD_REACTORS
330
2A
102
}
330
2A
100
AcDbVisualStyle
  2
Brighten
 70
    12
 71
     2
 72
     2
 73
     0
 90
        0
 40
-0.6
 41
-30.0
 62
     5
 63
     7
421
 16777215
 74
     1
 91
        4
 64
     7
 65
   257
 75
     1
175
     1
 42
1.0
 92
        8
 66
     7
 43
1.0
 76
     1
 77
     6
 78
     2
 67
     7
 79
     5
170
     0
171
     0
290
     0
174
     0
 93
        1
 44
50.0
173
     0
291
     1
 45
0.0
1001
ACAD
1000
AcDbSavedByObjectVersion
1070
     0
  0
VISUALSTYLE
  5
3A
102
{ACAD_REACTORS
330
2A
102
}
330
2A
100
AcDbVisualStyle
  2
ColorChange
 70
    16
 71
     2
 72
     2
 73
     3
 90
        0
 40
-0.6
 41
-30.0
 62
     5
 63
     8
421
  8421504
 74
     1
 91
        4
 64
     7
 65
   257
 75
     1
175
     1
 42
1.0
 92
        8
 66
     8
424
  8421504
 43
1.0
 76
     1
 77
     6
 78
     2
 67
     7
 79
     5
170
     0
171
     0
290
     0
174
     0
 93
        1
 44
0.0
173
     0
291
     1
 45
0.0
1001
ACAD
1000
AcDbSavedByObjectVersion
1070
     0
  0
VISUALSTYLE
  5
34
102
{ACAD_REACTORS
330
2A
102
}
330
2A
100
AcDbVisualStyle
  2
Conceptual
 70
     9
 71
     3
 72
     2
 73
     0
 90
        0
 40
-0.6
 41
-30.0
 62
     5
 63
     7
421
 16777215
 74
     2
 91
        2
 64
     7
 65
   257
 75
     1
175
     1
 42
40.0
 92
        8
 66
     7
 43
1.0
 76
     1
 77
     6
 78
     2
 67
     7
 79
     3
170
     0
171
     0
290
     0
174
     0
 93
        1
 44
0.0
173
     0
291
     0
 45
0.0
1001
ACAD
1000
AcDbSavedByObjectVersion
1070
     0
  0
VISUALSTYLE
  5
35
102
{ACAD_REACTORS
330
2A
102
}
330
2A
100
AcDbVisualStyle
  2
Dim
 70
    11
 71
     2
 72
     2
 73
     0
 90
        0
 40
-0.6
 41
-30.0
 62
     5
 63
     7
421
 16777215
 74
     1
 91
        4
 64
     7
 65
   257
 75
     1
175
     1
 42
1.0
 92
        8
 66
     7
 43
1.0
 76
     1
 77
     6
 78
     2
 67
     7
 79
     5
170
     0
171
     0
290
     0
174
     0
 93
        1
 44
-50.0
173
     0
291
     1
 45
0.0
1001
ACAD
1000
AcDbSavedByObjectVersion
1070
     0
  0
VISUALSTYLE
  5
39
102
{ACAD_REACTORS
330
2A
102
}
330
2A
100
AcDbVisualStyle
  2
Facepattern
 70
    15
 71
     2
 72
     2
 73
     0
 90
        0
 40
-0.6
 41
-30.0
 62
     5
 63
     7
421
 16777215
 74
     1
 91
        4
 64
     7
 65
   257
 75
     1
175
     1
 42
1.0
 92
        8
 66
     7
 43
1.0
 76
     1
 77
     6
 78
     2
 67
     7
 79
     5
170
     0
171
     0
290
     0
174
     0
 93
        1
 44
0.0
173
     0
291
     1
 45
0.0
1001
ACAD
1000
AcDbSavedByObjectVersion
1070
     0
  0
VISUALSTYLE
  5
2B
102
{ACAD_REACTORS
330
2A
102
}
330
2A
100
AcDbVisualStyle
  2
Flat
 70
     0
 71
     2
 72
     1
 73
     1
 90
        2
 40
-0.6
 41
30.0
 62
     5
 63
     7
421
 16777215
 74
     0
 91
        4
 64
     7
 65
   257
 75
     1
175
     1
 42
1.0
 92
        8
 66
     7
 43
1.0
 76
     1
 77
     6
 78
     2
 67
     7
 79
     5
170
     0
171
     0
290
     0
174
     0
 93
       13
 44
0.0
173
     0
291
     1
 45
0.0
1001
ACAD
1000
AcDbSavedByObjectVersion
1070
     0
  0
VISUALSTYLE
  5
2C
102
{ACAD_REACTORS
330
2A
102
}
330
2A
100
AcDbVisualStyle
  2
FlatWithEdges
 70
     1
 71
     2
 72
     1
 73
     1
 90
        2
 40
-0.6
 41
30.0
 62
     5
 63
     7
421
 16777215
 74
     1
 91
        4
 64
     7
 65
   257
 75
     1
175
     1
 42
1.0
 92
        0
 66
   257
 43
1.0
 76
     1
 77
     6
 78
     2
 67
     7
 79
     5
170
     0
171
     0
290
     0
174
     0
 93
       13
 44
0.0
173
     0
291
     1
 45
0.0
1001
ACAD
1000
AcDbSavedByObjectVersion
1070
     0
  0
VISUALSTYLE
  5
2D
102
{ACAD_REACTORS
330
2A
102
}
330
2A
100
AcDbVisualStyle
  2
Gouraud
 70
     2
 71
     2
 72
     2
 73
     1
 90
        2
 40
-0.6
 41
30.0
 62
     5
 63
     7
421
 16777215
 74
     0
 91
        4
 64
     7
 65
   257
 75
     1
175
     1
 42
1.0
 92
        0
 66
     7
 43
1.0
 76
     1
 77
     6
 78
     2
 67
     7
 79
     5
170
     0
171
     0
290
     0
174
     0
 93
       13
 44
0.0
173
     0
291
     1
 45
0.0
1001
ACAD
1000
AcDbSavedByObjectVersion
1070
     0
  0
VISUALSTYLE
  5
2E
102
{ACAD_REACTORS
330
2A
102
}
330
2A
100
AcDbVisualStyle
  2
GouraudWithEdges
 70
     3
 71
     2
 72
     2
 73
     1
 90
        2
 40
-0.6
 41
30.0
 62
     5
 63
     7
421
 16777215
 74
     1
 91
        4
 64
     7
 65
   257
 75
     1
175
     1
 42
1.0
 92
        0
 66
   257
 43
1.0
 76
     1
 77
     6
 78
     2
 67
     7
 79
     5
170
     0
171
     0
290
     0
174
     0
 93
       13
 44
0.0
173
     0
291
     1
 45
0.0
1001
ACAD
1000
AcDbSavedByObjectVersion
1070
     0
  0
VISUALSTYLE
  5
38
102
{ACAD_REACTORS
330
2A
102
}
330
2A
100
AcDbVisualStyle
  2
Linepattern
 70
    14
 71
     2
 72
     2
 73
     0
 90
        0
 40
-0.6
 41
-30.0
 62
     5
 63
     7
421
 16777215
 74
     1
 91
        4
 64
     7
 65
   257
 75
     7
175
     7
 42
1.0
 92
        8
 66
     7
 43
1.0
 76
     1
 77
     6
 78
     2
 67
     7
 79
     5
170
     0
171
     0
290
     0
174
     0
 93
        1
 44
0.0
173
     0
291
     1
 45
0.0
1001
ACAD
1000
AcDbSavedByObjectVersion
1070
     0
  0
VISUALSTYLE
  5
33
102
{ACAD_REACTORS
330
2A
102
}
330
2A
100
AcDbVisualStyle
  2
Realistic
 70
     8
 71
     2
 72
     2
 73
     0
 90
        0
 40
-0.6
 41
-30.0
 62
     5
 63
     7
421
 16777215
 74
     1
 91
        0
 64
     7
 65
   257
 75
     1
175
     1
 42
1.0
 92
        8
 66
     8
424
  7895160
 43
1.0
 76
     1
 77
     6
 78
     2
 67
     7
 79
     5
170
     0
171
     0
290
     0
174
     0
 93
       13
 44
0.0
173
     0
291
     0
 45
0.0
1001
ACAD
1000
AcDbSavedByObjectVersion
1070
     0
  0
VISUALSTYLE
  5
37
102
{ACAD_REACTORS
330
2A
102
}
330
2A
100
AcDbVisualStyle
  2
Thicken
 70
    13
 71
     2
 72
     2
 73
     0
 90
        0
 40
-0.6
 41
-30.0
 62
     5
 63
     7
421
 16777215
 74
     1
 91
        4
 64
     7
 65
   257
 75
     1
175
     1
 42
1.0
 92
       12
 66
     7
 43
1.0
 76
     1
 77
     6
 78
     2
 67
     7
 79
     5
170
     0
171
     0
290
     0
174
     0
 93
        1
 44
0.0
173
     0
291
     1
 45
0.0
1001
ACAD
1000
AcDbSavedByObjectVersion
1070
     0
  0
ENDSEC
  0
EOF
