  0
SECTION
  2
HEADER
  9
$ACADVER
  1
AC1014
  9
$ACADMAINTVER
 70
     9
  9
$DWGCODEPAGE
  3
ANSI_1252
  9
$INSBASE
 10
0.0
 20
0.0
 30
0.0
  9
$EXTMIN
 10
1.000000000000000E+20
 20
1.000000000000000E+20
 30
1.000000000000000E+20
  9
$EXTMAX
 10
-1.000000000000000E+20
 20
-1.000000000000000E+20
 30
-1.000000000000000E+20
  9
$LIMMIN
 10
0.0
 20
0.0
  9
$LIMMAX
 10
12.0
 20
9.0
  9
$ORTHOMODE
 70
     0
  9
$REGENMODE
 70
     1
  9
$FILLMODE
 70
     1
  9
$QTEXTMODE
 70
     0
  9
$MIRRTEXT
 70
     1
  9
$DRAGMODE
 70
     2
  9
$LTSCALE
 40
1.0
  9
$OSMODE
 70
    37
  9
$ATTMODE
 70
     1
  9
$TEXTSIZE
 40
0.2
  9
$TRACEWID
 40
0.05
  9
$TEXTSTYLE
  7
STANDARD
  9
$CLAYER
  8
DEFAULT
  9
$CELTYPE
  6
BYLAYER
  9
$CECOLOR
 62
   256
  9
$CELTSCALE
 40
1.0
  9
$DELOBJ
 70
     1
  9
$DISPSILH
 70
     0
  9
$DIMSCALE
 40
1.0
  9
$DIMASZ
 40
0.18
  9
$DIMEXO
 40
0.0625
  9
$DIMDLI
 40
0.38
  9
$DIMRND
 40
0.0
  9
$DIMDLE
 40
0.0
  9
$DIMEXE
 40
0.18
  9
$DIMTP
 40
0.0
  9
$DIMTM
 40
0.0
  9
$DIMTXT
 40
0.18
  9
$DIMCEN
 40
0.09
  9
$DIMTSZ
 40
0.0
  9
$DIMTOL
 70
     0
  9
$DIMLIM
 70
     0
  9
$DIMTIH
 70
     1
  9
$DIMTOH
 70
     1
  9
$DIMSE1
 70
     0
  9
$DIMSE2
 70
     0
  9
$DIMTAD
 70
     0
  9
$DIMZIN
 70
     0
  9
$DIMBLK
  1

  9
$DIMASO
 70
     1
  9
$DIMSHO
 70
     1
  9
$DIMPOST
  1

  9
$DIMAPOST
  1

  9
$DIMALT
 70
     0
  9
$DIMALTD
 70
     2
  9
$DIMALTF
 40
25.4
  9
$DIMLFAC
 40
1.0
  9
$DIMTOFL
 70
     0
  9
$DIMTVP
 40
0.0
  9
$DIMTIX
 70
     0
  9
$DIMSOXD
 70
     0
  9
$DIMSAH
 70
     0
  9
$DIMBLK1
  1

  9
$DIMBLK2
  1

  9
$DIMSTYLE
  2
STANDARD
  9
$DIMCLRD
 70
     0
  9
$DIMCLRE
 70
     0
  9
$DIMCLRT
 70
     0
  9
$DIMTFAC
 40
1.0
  9
$DIMGAP
 40
0.09
  9
$DIMJUST
 70
     0
  9
$DIMSD1
 70
     0
  9
$DIMSD2
 70
     0
  9
$DIMTOLJ
 70
     1
  9
$DIMTZIN
 70
     0
  9
$DIMALTZ
 70
     0
  9
$DIMALTTZ
 70
     0
  9
$DIMFIT
 70
     3
  9
$DIMUPT
 70
     0
  9
$DIMUNIT
 70
     2
  9
$DIMDEC
 70
     4
  9
$DIMTDEC
 70
     4
  9
$DIMALTU
 70
     2
  9
$DIMALTTD
 70
     2
  9
$DIMTXSTY
  7
STANDARD
  9
$DIMAUNIT
 70
     0
  9
$LUNITS
 70
     2
  9
$LUPREC
 70
     1
  9
$SKETCHINC
 40
0.1
  9
$FILLETRAD
 40
0.5
  9
$AUNITS
 70
     0
  9
$AUPREC
 70
     0
  9
$MENU
  1
.
  9
$ELEVATION
 40
0.0
  9
$PELEVATION
 40
0.0
  9
$THICKNESS
 40
0.0
  9
$LIMCHECK
 70
     0
  9
$CHAMFERA
 40
0.5
  9
$CHAMFERB
 40
0.5
  9
$CHAMFERC
 40
1.0
  9
$CHAMFERD
 40
0.0
  9
$SKPOLY
 70
     0
  9
$TDCREATE
 40
2453746.64161191
  9
$TDUPDATE
 40
2453746.641611921
  9
$TDINDWG
 40
0.0000000116
  9
$TDUSRTIMER
 40
0.0000000116
  9
$USRTIMER
 70
     1
  9
$ANGBASE
 50
0.0
  9
$ANGDIR
 70
     0
  9
$PDMODE
 70
     0
  9
$PDSIZE
 40
0.0
  9
$PLINEWID
 40
0.0
  9
$COORDS
 70
     1
  9
$SPLFRAME
 70
     0
  9
$SPLINETYPE
 70
     6
  9
$SPLINESEGS
 70
     8
  9
$ATTDIA
 70
     0
  9
$ATTREQ
 70
     1
  9
$HANDLING
 70
     1
  9
$HANDSEED
  5
362
  9
$SURFTAB1
 70
     6
  9
$SURFTAB2
 70
     6
  9
$SURFTYPE
 70
     6
  9
$SURFU
 70
     6
  9
$SURFV
 70
     6
  9
$UCSNAME
  2

  9
$UCSORG
 10
0.0
 20
0.0
 30
0.0
  9
$UCSXDIR
 10
1.0
 20
0.0
 30
0.0
  9
$UCSYDIR
 10
0.0
 20
1.0
 30
0.0
  9
$PUCSNAME
  2

  9
$PUCSORG
 10
0.0
 20
0.0
 30
0.0
  9
$PUCSXDIR
 10
1.0
 20
0.0
 30
0.0
  9
$PUCSYDIR
 10
0.0
 20
1.0
 30
0.0
  9
$USERI1
 70
     0
  9
$USERI2
 70
     0
  9
$USERI3
 70
     0
  9
$USERI4
 70
     0
  9
$USERI5
 70
     0
  9
$USERR1
 40
0.0
  9
$USERR2
 40
0.0
  9
$USERR3
 40
0.0
  9
$USERR4
 40
0.0
  9
$USERR5
 40
0.0
  9
$WORLDVIEW
 70
     1
  9
$SHADEDGE
 70
     3
  9
$SHADEDIF
 70
    70
  9
$TILEMODE
 70
     1
  9
$MAXACTVP
 70
    64
  9
$PINSBASE
 10
0.0
 20
0.0
 30
0.0
  9
$PLIMCHECK
 70
     0
  9
$PEXTMIN
 10
1.000000000000000E+20
 20
1.000000000000000E+20
 30
1.000000000000000E+20
  9
$PEXTMAX
 10
-1.000000000000000E+20
 20
-1.000000000000000E+20
 30
-1.000000000000000E+20
  9
$PLIMMIN
 10
0.0
 20
0.0
  9
$PLIMMAX
 10
12.0
 20
9.0
  9
$UNITMODE
 70
     0
  9
$VISRETAIN
 70
     1
  9
$PLINEGEN
 70
     0
  9
$PSLTSCALE
 70
     1
  9
$TREEDEPTH
 70
  3020
  9
$PICKSTYLE
 70
     1
  9
$CMLSTYLE
  2
STANDARD
  9
$CMLJUST
 70
     0
  9
$CMLSCALE
 40
1.0
  9
$PROXYGRAPHICS
 70
     1
  9
$MEASUREMENT
 70
     0
  0
ENDSEC
  0
SECTION
  2
CLASSES
  0
CLASS
  1
ACDBDICTIONARYWDFLT
  2
AcDbDictionaryWithDefault
  3
ObjectDBX Classes
 90
        0
280
     0
281
     0
  0
CLASS
  1
XRECORD
  2
AcDbXrecord
  3
AutoCAD 2000
 90
        0
280
     0
281
     0
  0
CLASS
  1
LWPOLYLINE
  2
AcDbPolyline
  3
AutoCAD 2000
 90
        0
280
     0
281
     1
  0
CLASS
  1
HATCH
  2
AcDbHatch
  3
AutoCAD 2000
 90
        0
280
     0
281
     1
  0
CLASS
  1
ACDBPLACEHOLDER
  2
AcDbPlaceHolder
  3
ObjectDBX Classes
 90
        0
280
     0
281
     0
  0
CLASS
  1
LAYOUT
  2
AcDbLayout
  3
ObjectDBX Classes
 90
        0
280
     0
281
     0
  0
ENDSEC
  0
SECTION
  2
TABLES
  0
TABLE
  2
VPORT
  5
8
330
0
100
AcDbSymbolTable
 70
     2
  0
VPORT
  5
29
102
{ACAD_XDICTIONARY
360
360
102
}
330
8
100
AcDbSymbolTableRecord
100
AcDbViewportTableRecord
  2
*ACTIVE
 70
     0
 10
0.0
 20
0.0
 11
1.0
 21
1.0
 12
31.3843088650126
 22
39.19578930796531
 13
0.0
 23
0.0
 14
0.5
 24
0.5
 15
0.5
 25
0.5
 16
0.0
 26
0.0
 36
80.21230066091221
 17
0.0
 27
0.0
 37
0.0
 40
78.3824501447176
 41
1.972972972850329
 42
50.0
 43
0.0
 44
0.0
 50
0.0
 51
0.0
 71
     0
 72
   100
 73
     1
 74
     3
 75
     0
 76
     0
 77
     0
 78
     0
  0
ENDTAB
  0
TABLE
  2
LTYPE
  5
5
330
0
100
AcDbSymbolTable
 70
     1
  0
LTYPE
  5
14
330
5
100
AcDbSymbolTableRecord
100
AcDbLinetypeTableRecord
  2
BYBLOCK
 70
     0
  3

 72
    65
 73
     0
 40
0.0
  0
LTYPE
  5
15
330
5
100
AcDbSymbolTableRecord
100
AcDbLinetypeTableRecord
  2
BYLAYER
 70
     0
  3

 72
    65
 73
     0
 40
0.0
  0
LTYPE
  5
16
330
5
100
AcDbSymbolTableRecord
100
AcDbLinetypeTableRecord
  2
CONTINUOUS
 70
     0
  3
Solid line
 72
    65
 73
     0
 40
0.0
  0
ENDTAB
  0
TABLE
  2
LAYER
  5
2
330
0
100
AcDbSymbolTable
 70
     2
  0
LAYER
  5
10
330
2
100
AcDbSymbolTableRecord
100
AcDbLayerTableRecord
  2
0
 70
     0
 62
     7
  6
CONTINUOUS
  0
LAYER
  5
2A
330
2
100
AcDbSymbolTableRecord
100
AcDbLayerTableRecord
  2
DEFAULT
 70
     0
 62
     7
  6
CONTINUOUS
  0
ENDTAB
  0
TABLE
  2
STYLE
  5
3
330
0
100
AcDbSymbolTable
 70
     1
  0
STYLE
  5
11
330
3
100
AcDbSymbolTableRecord
100
AcDbTextStyleTableRecord
  2
STANDARD
 70
     0
 40
0.0
 41
1.0
 50
0.0
 71
     0
 42
0.2
  3
txt
  4

  0
ENDTAB
  0
TABLE
  2
VIEW
  5
6
330
0
100
AcDbSymbolTable
 70
     0
  0
ENDTAB
  0
TABLE
  2
UCS
  5
7
330
0
100
AcDbSymbolTable
 70
     0
  0
ENDTAB
  0
TABLE
  2
APPID
  5
9
330
0
100
AcDbSymbolTable
 70
     1
  0
APPID
  5
12
330
9
100
AcDbSymbolTableRecord
100
AcDbRegAppTableRecord
  2
ACAD
 70
     0
  0
ENDTAB
  0
TABLE
  2
DIMSTYLE
  5
A
330
0
100
AcDbSymbolTable
 70
     1
  0
DIMSTYLE
105
27
330
A
100
AcDbSymbolTableRecord
100
AcDbDimStyleTableRecord
  2
STANDARD
 70
     0
  3

  4

  5

  6

  7

 40
1.0
 41
0.18
 42
0.0625
 43
0.38
 44
0.18
 45
0.0
 46
0.0
 47
0.0
 48
0.0
140
0.18
141
0.09
142
0.0
143
25.4
144
1.0
145
0.0
146
1.0
147
0.09
 71
     0
 72
     0
 73
     1
 74
     1
 75
     0
 76
     0
 77
     0
 78
     0
170
     0
171
     2
172
     0
173
     0
174
     0
175
     0
176
     0
177
     0
178
     0
270
     2
271
     4
272
     4
273
     2
274
     2
340
11
275
     0
280
     0
281
     0
282
     0
283
     1
284
     0
285
     0
286
     0
287
     3
288
     0
  0
ENDTAB
  0
TABLE
  2
BLOCK_RECORD
  5
1
330
0
100
AcDbSymbolTable
 70
     1
  0
BLOCK_RECORD
  5
1F
330
1
100
AcDbSymbolTableRecord
100
AcDbBlockTableRecord
  2
*MODEL_SPACE
  0
BLOCK_RECORD
  5
1B
330
1
100
AcDbSymbolTableRecord
100
AcDbBlockTableRecord
  2
*PAPER_SPACE
  0
ENDTAB
  0
ENDSEC
  0
SECTION
  2
BLOCKS
  0
BLOCK
  5
20
330
1F
100
AcDbEntity
  8
0
100
AcDbBlockBegin
  2
*MODEL_SPACE
 70
     0
 71
     0
 10
0.0
 20
0.0
 30
0.0
  3
*MODEL_SPACE
  1

  0
ENDBLK
  5
21
330
1F
100
AcDbEntity
  8
0
100
AcDbBlockEnd
  0
BLOCK
  5
1C
330
1B
100
AcDbEntity
 67
     1
  8
0
100
AcDbBlockBegin
  2
*PAPER_SPACE
 70
     0
 71
     0
 10
0.0
 20
0.0
 30
0.0
  3
*PAPER_SPACE
  1

  0
ENDBLK
  5
1D
330
1B
100
AcDbEntity
 67
     1
  8
0
100
AcDbBlockEnd
  0
ENDSEC
  0
SECTION
  2
ENTITIES
  0
LINE
  5
2B
330
1F
100
AcDbEntity
  8
DEFAULT
 62
     7
100
AcDbLine
 10
0.3581684722310097
 20
2.150643503950324
 30
0.0
 11
0.3456124722310097
 21
2.390216503950324
 31
0.0
  0
LINE
  5
2C
330
1F
100
AcDbEntity
  8
DEFAULT
 62
     7
100
AcDbLine
 10
-0.4120045277689937
 20
29.63157550395033
 30
0.0
 11
-0.4119715277689917
 21
29.36969050395033
 31
0.0
  0
LINE
  5
2D
330
1F
100
AcDbEntity
  8
DEFAULT
 62
     7
100
AcDbLine
 10
0.7156124722310071
 20
2.170298503950324
 30
0.0
 11
0.7156124722310071
 21
0.0049695039503246
 31
0.0
  0
LINE
  5
2E
330
1F
100
AcDbEntity
  8
DEFAULT
 62
     7
100
AcDbLine
 10
0.795612472231009
 20
2.275336503950325
 30
0.0
 11
0.795612472231009
 21
0.6719885039503242
 31
0.0
  0
LINE
  5
2F
330
1F
100
AcDbEntity
  8
DEFAULT
 62
     7
100
AcDbLine
 10
1.395612472231007
 20
2.275336503950325
 30
0.0
 11
1.395612472231007
 21
0.6719885039503242
 31
0.0
  0
LINE
  5
30
330
1F
100
AcDbEntity
  8
DEFAULT
 62
     7
100
AcDbLine
 10
1.475612472231009
 20
2.170298503950324
 30
0.0
 11
1.475612472231009
 21
0.0049695039503246
 31
0.0
  0
LINE
  5
31
330
1F
100
AcDbEntity
  8
DEFAULT
 62
     7
100
AcDbLine
 10
1.84561247223101
 20
2.390216503950324
 30
0.0
 11
1.84561247223101
 21
2.658868503950324
 31
0.0
  0
LINE
  5
32
330
1F
100
AcDbEntity
  8
DEFAULT
 62
     7
100
AcDbLine
 10
25.24390247223101
 20
0.0049565039503235
 30
0.0
 11
24.99283347223101
 21
0.0049565039503235
 31
0.0
  0
LINE
  5
33
330
1F
100
AcDbEntity
  8
DEFAULT
 62
     7
100
AcDbLine
 10
24.23283347223101
 20
0.0049565039503235
 30
0.0
 11
23.98176547223101
 21
0.0049565039503235
 31
0.0
  0
LINE
  5
34
330
1F
100
AcDbEntity
  8
DEFAULT
 62
     7
100
AcDbLine
 10
16.26112347223101
 20
0.0049565039503235
 30
0.0
 11
16.01005447223101
 21
0.0049565039503235
 31
0.0
  0
LINE
  5
35
330
1F
100
AcDbEntity
  8
DEFAULT
 62
     7
100
AcDbLine
 10
15.25005447223101
 20
0.0049565039503235
 30
0.0
 11
14.99898647223101
 21
0.0049565039503235
 31
0.0
  0
LINE
  5
36
330
1F
100
AcDbEntity
  8
DEFAULT
 62
     7
100
AcDbLine
 10
0.7156124722310071
 20
0.0049565039503235
 30
0.0
 11
0.4587134722310065
 21
0.0049565039503235
 31
0.0
  0
LINE
  5
37
330
1F
100
AcDbEntity
  8
DEFAULT
 62
     7
100
AcDbLine
 10
10.81383347223101
 20
0.6052165039503239
 30
0.0
 11
12.41183347223101
 21
0.6052165039503239
 31
0.0
  0
LINE
  5
38
330
1F
100
AcDbEntity
  8
DEFAULT
 62
     7
100
AcDbLine
 10
10.74461647223101
 20
0.6602165039503236
 30
0.0
 11
12.48105047223101
 21
0.6602165039503236
 31
0.0
  0
LINE
  5
39
330
1F
100
AcDbEntity
  8
DEFAULT
 62
     7
100
AcDbLine
 10
15.33005447223101
 20
0.6719885039503242
 30
0.0
 11
15.93005447223101
 21
0.6719885039503242
 31
0.0
  0
LINE
  5
3A
330
1F
100
AcDbEntity
  8
DEFAULT
 62
     7
100
AcDbLine
 10
24.31283347223101
 20
0.6719885039503242
 30
0.0
 11
24.91283347223101
 21
0.6719885039503242
 31
0.0
  0
LINE
  5
3B
330
1F
100
AcDbEntity
  8
DEFAULT
 62
     7
100
AcDbLine
 10
24.99283347223101
 20
0.8376335039503238
 30
0.0
 11
24.91283347223101
 21
0.8376335039503238
 31
0.0
  0
LINE
  5
3C
330
1F
100
AcDbEntity
  8
DEFAULT
 62
     7
100
AcDbLine
 10
24.31283347223101
 20
0.8376335039503238
 30
0.0
 11
24.23283347223101
 21
0.8376335039503238
 31
0.0
  0
LINE
  5
3D
330
1F
100
AcDbEntity
  8
DEFAULT
 62
     7
100
AcDbLine
 10
16.01005447223101
 20
0.8376335039503238
 30
0.0
 11
15.93005447223101
 21
0.8376335039503238
 31
0.0
  0
LINE
  5
3E
330
1F
100
AcDbEntity
  8
DEFAULT
 62
     7
100
AcDbLine
 10
15.33005447223101
 20
0.8376335039503238
 30
0.0
 11
15.25005447223101
 21
0.8376335039503238
 31
0.0
  0
LINE
  5
3F
330
1F
100
AcDbEntity
  8
DEFAULT
 62
     7
100
AcDbLine
 10
1.475612472231009
 20
0.8376335039503238
 30
0.0
 11
1.395612472231007
 21
0.8376335039503238
 31
0.0
  0
LINE
  5
40
330
1F
100
AcDbEntity
  8
DEFAULT
 62
     7
100
AcDbLine
 10
0.795612472231009
 20
0.8376335039503238
 30
0.0
 11
0.7156124722310071
 21
0.8376335039503238
 31
0.0
  0
LINE
  5
41
330
1F
100
AcDbEntity
  8
DEFAULT
 62
     7
100
AcDbLine
 10
24.99283347223101
 20
1.337633503950324
 30
0.0
 11
24.91283347223101
 21
1.337633503950324
 31
0.0
  0
LINE
  5
42
330
1F
100
AcDbEntity
  8
DEFAULT
 62
     7
100
AcDbLine
 10
24.31283347223101
 20
1.337633503950324
 30
0.0
 11
24.23283347223101
 21
1.337633503950324
 31
0.0
  0
LINE
  5
43
330
1F
100
AcDbEntity
  8
DEFAULT
 62
     7
100
AcDbLine
 10
16.01005447223101
 20
1.337633503950324
 30
0.0
 11
15.93005447223101
 21
1.337633503950324
 31
0.0
  0
LINE
  5
44
330
1F
100
AcDbEntity
  8
DEFAULT
 62
     7
100
AcDbLine
 10
15.33005447223101
 20
1.337633503950324
 30
0.0
 11
15.25005447223101
 21
1.337633503950324
 31
0.0
  0
LINE
  5
45
330
1F
100
AcDbEntity
  8
DEFAULT
 62
     7
100
AcDbLine
 10
1.475612472231009
 20
1.337633503950324
 30
0.0
 11
1.395612472231007
 21
1.337633503950324
 31
0.0
  0
LINE
  5
46
330
1F
100
AcDbEntity
  8
DEFAULT
 62
     7
100
AcDbLine
 10
0.795612472231009
 20
1.337633503950324
 30
0.0
 11
0.7156124722310071
 21
1.337633503950324
 31
0.0
  0
LINE
  5
47
330
1F
100
AcDbEntity
  8
DEFAULT
 62
     7
100
AcDbLine
 10
11.20839947223101
 20
4.161150503950324
 30
0.0
 11
14.92134747223101
 21
2.605214503950324
 31
0.0
  0
LINE
  5
48
330
1F
100
AcDbEntity
  8
DEFAULT
 62
     7
100
AcDbLine
 10
1.833057472231007
 20
2.150643503950324
 30
0.0
 11
1.84561247223101
 21
2.390216503950324
 31
0.0
  0
LINE
  5
49
330
1F
100
AcDbEntity
  8
DEFAULT
 62
     7
100
AcDbLine
 10
25.24390247223101
 20
2.170310503950324
 30
0.0
 11
24.99283347223101
 21
2.170310503950324
 31
0.0
  0
LINE
  5
4A
330
1F
100
AcDbEntity
  8
DEFAULT
 62
     7
100
AcDbLine
 10
24.23283347223101
 20
2.170310503950324
 30
0.0
 11
23.98176547223101
 21
2.170310503950324
 31
0.0
  0
LINE
  5
4B
330
1F
100
AcDbEntity
  8
DEFAULT
 62
     7
100
AcDbLine
 10
16.26112347223101
 20
2.170310503950324
 30
0.0
 11
16.01005447223101
 21
2.170310503950324
 31
0.0
  0
LINE
  5
4C
330
1F
100
AcDbEntity
  8
DEFAULT
 62
     7
100
AcDbLine
 10
15.25005447223101
 20
2.170310503950324
 30
0.0
 11
14.99898647223101
 21
2.170310503950324
 31
0.0
  0
LINE
  5
4D
330
1F
100
AcDbEntity
  8
DEFAULT
 62
     7
100
AcDbLine
 10
1.72668147223101
 20
2.170310503950324
 30
0.0
 11
1.475612472231009
 21
2.170310503950324
 31
0.0
  0
LINE
  5
4E
330
1F
100
AcDbEntity
  8
DEFAULT
 62
     7
100
AcDbLine
 10
0.7156124722310071
 20
2.170310503950324
 30
0.0
 11
0.464544472231007
 21
2.170310503950324
 31
0.0
  0
LINE
  5
4F
330
1F
100
AcDbEntity
  8
DEFAULT
 62
     7
100
AcDbLine
 10
14.88005447223101
 20
2.390216503950324
 30
0.0
 11
16.38005447223101
 21
2.390216503950324
 31
0.0
  0
LINE
  5
50
330
1F
100
AcDbEntity
  8
DEFAULT
 62
     7
100
AcDbLine
 10
23.86283347223101
 20
2.390216503950324
 30
0.0
 11
25.36283347223101
 21
2.390216503950324
 31
0.0
  0
LINE
  5
51
330
1F
100
AcDbEntity
  8
DEFAULT
 62
     7
100
AcDbLine
 10
15.99705147223101
 20
3.788895503950324
 30
0.0
 11
24.62724647223101
 21
2.605214503950324
 31
0.0
  0
LINE
  5
52
330
1F
100
AcDbEntity
  8
DEFAULT
 62
     7
100
AcDbLine
 10
10.83060047223101
 20
4.161150503950324
 30
0.0
 11
1.524723472231008
 21
2.605216503950324
 31
0.0
  0
LINE
  5
53
330
1F
100
AcDbEntity
  8
DEFAULT
 62
     7
100
AcDbLine
 10
24.62783347223101
 20
4.013327503950324
 30
0.0
 11
13.26284147223101
 21
6.743799503950324
 31
0.0
  0
LINE
  5
54
330
1F
100
AcDbEntity
  8
DEFAULT
 62
     7
100
AcDbLine
 10
10.59794347223101
 20
7.790216503950324
 30
0.0
 11
12.62772447223101
 21
7.790216503950324
 31
0.0
  0
LINE
  5
55
330
1F
100
AcDbEntity
  8
DEFAULT
 62
     7
100
AcDbLine
 10
10.81383347223101
 20
0.6602165039503236
 30
0.0
 11
10.81383347223101
 21
0.6052165039503239
 31
0.0
  0
LINE
  5
56
330
1F
100
AcDbEntity
  8
DEFAULT
 62
     7
100
AcDbLine
 10
11.06183347223101
 20
12.70909650395032
 30
0.0
 11
11.06183347223101
 21
7.790216503950324
 31
0.0
  0
LINE
  5
57
330
1F
100
AcDbEntity
  8
DEFAULT
 62
     7
100
AcDbLine
 10
12.16383347223101
 20
12.70909650395032
 30
0.0
 11
12.16383347223101
 21
7.790216503950324
 31
0.0
  0
LINE
  5
58
330
1F
100
AcDbEntity
  8
DEFAULT
 62
     7
100
AcDbLine
 10
12.41183347223101
 20
0.6602165039503236
 30
0.0
 11
12.41183347223101
 21
0.6052165039503239
 31
0.0
  0
LINE
  5
59
330
1F
100
AcDbEntity
  8
DEFAULT
 62
     7
100
AcDbLine
 10
14.89261047223101
 20
2.150643503950324
 30
0.0
 11
14.88005447223101
 21
2.390216503950324
 31
0.0
  0
LINE
  5
5A
330
1F
100
AcDbEntity
  8
DEFAULT
 62
     7
100
AcDbLine
 10
14.88005447223101
 20
2.390216503950324
 30
0.0
 11
14.88005447223101
 21
2.622519503950324
 31
0.0
  0
LINE
  5
5B
330
1F
100
AcDbEntity
  8
DEFAULT
 62
     7
100
AcDbLine
 10
15.25005447223101
 20
2.170298503950324
 30
0.0
 11
15.25005447223101
 21
0.0049695039503246
 31
0.0
  0
LINE
  5
5C
330
1F
100
AcDbEntity
  8
DEFAULT
 62
     7
100
AcDbLine
 10
15.33005447223101
 20
2.275336503950325
 30
0.0
 11
15.33005447223101
 21
0.6719885039503242
 31
0.0
  0
LINE
  5
5D
330
1F
100
AcDbEntity
  8
DEFAULT
 62
     7
100
AcDbLine
 10
15.93005447223101
 20
2.275336503950325
 30
0.0
 11
15.93005447223101
 21
0.6719885039503242
 31
0.0
  0
LINE
  5
5E
330
1F
100
AcDbEntity
  8
DEFAULT
 62
     7
100
AcDbLine
 10
16.01005447223101
 20
2.170298503950324
 30
0.0
 11
16.01005447223101
 21
0.0049695039503246
 31
0.0
  0
LINE
  5
5F
330
1F
100
AcDbEntity
  8
DEFAULT
 62
     7
100
AcDbLine
 10
16.36749947223101
 20
2.150643503950324
 30
0.0
 11
16.38005447223101
 21
2.390216503950324
 31
0.0
  0
LINE
  5
60
330
1F
100
AcDbEntity
  8
DEFAULT
 62
     7
100
AcDbLine
 10
25.36283347223101
 20
2.390216503950324
 30
0.0
 11
25.35272947223101
 21
2.505710503950324
 31
0.0
  0
LINE
  5
61
330
1F
100
AcDbEntity
  8
DEFAULT
 62
     7
100
AcDbLine
 10
23.87538947223101
 20
2.150643503950324
 30
0.0
 11
23.86283347223101
 21
2.390216503950324
 31
0.0
  0
LINE
  5
62
330
1F
100
AcDbEntity
  8
DEFAULT
 62
     7
100
AcDbLine
 10
23.86283347223101
 20
2.390216503950324
 30
0.0
 11
23.86283347223101
 21
2.709563503950325
 31
0.0
  0
LINE
  5
63
330
1F
100
AcDbEntity
  8
DEFAULT
 62
     7
100
AcDbLine
 10
24.23283347223101
 20
2.170298503950324
 30
0.0
 11
24.23283347223101
 21
0.0049695039503246
 31
0.0
  0
LINE
  5
64
330
1F
100
AcDbEntity
  8
DEFAULT
 62
     7
100
AcDbLine
 10
24.31283347223101
 20
2.275336503950325
 30
0.0
 11
24.31283347223101
 21
0.6719885039503242
 31
0.0
  0
LINE
  5
65
330
1F
100
AcDbEntity
  8
DEFAULT
 62
     7
100
AcDbLine
 10
24.91283347223101
 20
2.275336503950325
 30
0.0
 11
24.91283347223101
 21
0.6719885039503242
 31
0.0
  0
LINE
  5
66
330
1F
100
AcDbEntity
  8
DEFAULT
 62
     7
100
AcDbLine
 10
24.99283347223101
 20
2.170298503950324
 30
0.0
 11
24.99283347223101
 21
0.0049695039503246
 31
0.0
  0
LINE
  5
67
330
1F
100
AcDbEntity
  8
DEFAULT
 62
     7
100
AcDbLine
 10
25.35027847223101
 20
2.150643503950324
 30
0.0
 11
25.36283347223101
 21
2.390216503950324
 31
0.0
  0
ARC
  5
68
330
1F
100
AcDbEntity
  8
DEFAULT
 62
     7
100
AcDbCircle
 10
0.4587134722310065
 20
0.3049565039503241
 30
0.0
 40
0.3000000821416432
100
AcDbArc
 50
200.8402226201814
 51
270.0
  0
ARC
  5
69
330
1F
100
AcDbEntity
  8
DEFAULT
 62
     7
100
AcDbCircle
 10
0.4587134722310065
 20
1.870310503950325
 30
0.0
 40
0.300000408549621
100
AcDbArc
 50
109.6095915707375
 51
159.1597773798187
  0
ARC
  5
6A
330
1F
100
AcDbEntity
  8
DEFAULT
 62
     7
100
AcDbCircle
 10
2.51478147223101
 20
1.087633503950324
 30
0.0
 40
2.499999915863399
100
AcDbArc
 50
159.1598219216112
 51
200.8401780783887
  0
ARC
  5
6B
330
1F
100
AcDbEntity
  8
DEFAULT
 62
     7
100
AcDbCircle
 10
23.98176547223101
 20
0.3049565039503241
 30
0.0
 40
0.3000000821416465
100
AcDbArc
 50
200.8402226201808
 51
270.0
  0
ARC
  5
6C
330
1F
100
AcDbEntity
  8
DEFAULT
 62
     7
100
AcDbCircle
 10
25.24390247223101
 20
0.3049565039503241
 30
0.0
 40
0.3000000821416465
100
AcDbArc
 50
270.0
 51
339.1597773798191
  0
ARC
  5
6D
330
1F
100
AcDbEntity
  8
DEFAULT
 62
     7
100
AcDbCircle
 10
23.98176547223101
 20
1.870310503950325
 30
0.0
 40
0.3000000821416456
100
AcDbArc
 50
90.0
 51
159.1597773798192
  0
ARC
  5
6E
330
1F
100
AcDbEntity
  8
DEFAULT
 62
     7
100
AcDbCircle
 10
26.03783347223101
 20
1.087633503950324
 30
0.0
 40
2.499999915863399
100
AcDbArc
 50
159.1598219216112
 51
200.8401780783887
  0
ARC
  5
6F
330
1F
100
AcDbEntity
  8
DEFAULT
 62
     7
100
AcDbCircle
 10
23.18783347223101
 20
1.087633503950324
 30
0.0
 40
2.50000085043986
100
AcDbArc
 50
339.1598300750824
 51
20.84016992491759
  0
ARC
  5
70
330
1F
100
AcDbEntity
  8
DEFAULT
 62
     7
100
AcDbCircle
 10
25.24390247223101
 20
1.870310503950325
 30
0.0
 40
0.3000000821416456
100
AcDbArc
 50
20.84022262018075
 51
90.0
  0
ARC
  5
71
330
1F
100
AcDbEntity
  8
DEFAULT
 62
     7
100
AcDbCircle
 10
1.72668147223101
 20
0.3049565039503241
 30
0.0
 40
0.3000000821416432
100
AcDbArc
 50
270.0
 51
339.1597773798186
  0
ARC
  5
72
330
1F
100
AcDbEntity
  8
DEFAULT
 62
     7
100
AcDbCircle
 10
-0.3293875277689911
 20
1.087633503950324
 30
0.0
 40
2.500000850439854
100
AcDbArc
 50
339.1598300750823
 51
20.84016992491764
  0
ARC
  5
73
330
1F
100
AcDbEntity
  8
DEFAULT
 62
     7
100
AcDbCircle
 10
1.72668147223101
 20
1.870310503950325
 30
0.0
 40
0.3000000821416423
100
AcDbArc
 50
20.84022262018137
 51
90.0
  0
ARC
  5
74
330
1F
100
AcDbEntity
  8
DEFAULT
 62
     7
100
AcDbCircle
 10
14.99898647223101
 20
0.3049565039503241
 30
0.0
 40
0.3000000821416449
100
AcDbArc
 50
200.840222620181
 51
270.0
  0
ARC
  5
75
330
1F
100
AcDbEntity
  8
DEFAULT
 62
     7
100
AcDbCircle
 10
16.26112347223101
 20
0.3049565039503241
 30
0.0
 40
0.2999996148536724
100
AcDbArc
 50
270.0
 51
339.1597094338899
  0
ARC
  5
76
330
1F
100
AcDbEntity
  8
DEFAULT
 62
     7
100
AcDbCircle
 10
14.99898647223101
 20
1.870310503950325
 30
0.0
 40
0.300000082141644
100
AcDbArc
 50
90.0
 51
159.1597773798188
  0
ARC
  5
77
330
1F
100
AcDbEntity
  8
DEFAULT
 62
     7
100
AcDbCircle
 10
17.05505447223101
 20
1.087633503950324
 30
0.0
 40
2.499999915863396
100
AcDbArc
 50
159.1598219216112
 51
200.8401780783887
  0
ARC
  5
78
330
1F
100
AcDbEntity
  8
DEFAULT
 62
     7
100
AcDbCircle
 10
14.20505447223101
 20
1.087633503950324
 30
0.0
 40
2.499999915863396
100
AcDbArc
 50
339.1598219216112
 51
20.84017807838885
  0
ARC
  5
79
330
1F
100
AcDbEntity
  8
DEFAULT
 62
     7
100
AcDbCircle
 10
16.26112347223101
 20
1.870310503950325
 30
0.0
 40
0.2999996148536716
100
AcDbArc
 50
20.84029056610993
 51
90.0
  0
ARC
  5
7A
330
1F
100
AcDbEntity
  8
DEFAULT
 62
     7
100
AcDbCircle
 10
12.48105047223101
 20
0.7502165039503235
 30
0.0
 40
0.090000021849996
100
AcDbArc
 50
270.0
 51
354.5621124401992
  0
ARC
  5
7B
330
1F
100
AcDbEntity
  8
DEFAULT
 62
     7
100
AcDbCircle
 10
10.74461647223101
 20
0.7502165039503235
 30
0.0
 40
0.0899995241002603
100
AcDbArc
 50
185.4379478907437
 51
270.0
  0
ARC
  5
7C
330
1F
100
AcDbEntity
  8
DEFAULT
 62
     7
100
AcDbCircle
 10
10.59794347223101
 20
7.660216503950323
 30
0.0
 40
0.1300002790301699
100
AcDbArc
 50
90.0
 51
175.2283792827332
  0
ARC
  5
7D
330
1F
100
AcDbEntity
  8
DEFAULT
 62
     7
100
AcDbCircle
 10
12.62772447223101
 20
7.660216503950323
 30
0.0
 40
0.1299997807630926
100
AcDbArc
 50
4.771657379751284
 51
90.0
  0
ARC
  5
7E
330
1F
100
AcDbEntity
  8
DEFAULT
 62
     7
100
AcDbCircle
 10
-47.15931252776899
 20
6.427816503950323
 30
0.0
 40
60.00000017262953
100
AcDbArc
 50
356.1412849697332
 51
357.2097654522893
  0
ARC
  5
7F
330
1F
100
AcDbEntity
  8
DEFAULT
 62
     7
100
AcDbCircle
 10
-47.15931252776899
 20
6.427816503950323
 30
0.0
 40
59.99999957264446
100
AcDbArc
 50
354.5619860078586
 51
355.0412295421981
  0
ARC
  5
80
330
1F
100
AcDbEntity
  8
DEFAULT
 62
     7
100
AcDbCircle
 10
70.38498047223101
 20
6.427816503950323
 30
0.0
 40
60.00000006785564
100
AcDbArc
 50
182.2289602559515
 51
183.8587150302668
  0
ARC
  5
81
330
1F
100
AcDbEntity
  8
DEFAULT
 62
     7
100
AcDbCircle
 10
70.38498047223101
 20
6.427816503950323
 30
0.0
 40
59.99999957264446
100
AcDbArc
 50
184.9587704578018
 51
185.4380139921413
  0
ARC
  5
82
330
1F
100
AcDbEntity
  8
DEFAULT
 62
     7
100
AcDbCircle
 10
13.40884447223101
 20
7.351507503950325
 30
0.0
 40
0.6250006811908286
100
AcDbArc
 50
184.0744545461679
 51
256.4906208923217
  0
ARC
  5
83
330
1F
100
AcDbEntity
  8
DEFAULT
 62
     7
100
AcDbCircle
 10
40.36442247223101
 20
5.175544503950324
 30
0.0
 40
29.99999967519457
100
AcDbArc
 50
175.2284592952994
 51
176.824444132802
  0
ARC
  5
84
330
1F
100
AcDbEntity
  8
DEFAULT
 62
     7
100
AcDbCircle
 10
-17.13875552776899
 20
5.175544503950324
 30
0.0
 40
30.00000013239252
100
AcDbArc
 50
4.074403235553331
 51
4.771540704700644
  0
ARC
  5
85
330
1F
100
AcDbEntity
  8
DEFAULT
 62
     7
100
AcDbCircle
 10
3.355580662824011
 20
17.6613166515008
 30
0.0
 40
1.900443786107599
100
AcDbArc
 50
114.1848831132806
 51
127.9219379157888
  0
SPLINE
  5
86
330
1F
100
AcDbEntity
  8
DEFAULT
 62
     7
100
AcDbSpline
210
0.0
220
0.0
230
1.0
 70
     8
 71
     3
 72
    23
 73
    19
 74
     0
 42
0.0000000001
 43
0.0000000001
 40
0.0
 40
0.0
 40
0.0
 40
0.0
 40
0.05119990054059
 40
0.1405416700713
 40
0.2190654761836
 40
0.2866136849926
 40
0.3436373624033
 40
0.396960431192
 40
0.4472817590796
 40
0.4949347398529
 40
0.5403698182701
 40
0.5841533010522
 40
0.6258310855902
 40
0.6638766460968
 40
0.6928145117098
 40
0.8260035690832001
 40
0.9124387630264
 40
1.0
 40
1.0
 40
1.0
 40
1.0
 10
-0.4119813687189915
 20
29.36987875190033
 30
0.0
 10
-0.4119839773489933
 20
29.36402258692032
 30
0.0
 10
-0.4112817545689904
 20
29.34795610470033
 30
0.0
 10
-0.4076973693589931
 20
29.32312385855033
 30
0.0
 10
-0.4014870017189918
 20
29.29692556739033
 30
0.0
 10
-0.3947929904989931
 20
29.27469208707032
 30
0.0
 10
-0.3881290184289921
 20
29.25548132527033
 30
0.0
 10
-0.3815740165889932
 20
29.23832753769033
 30
0.0
 10
-0.3749953777489925
 20
29.22233602255033
 30
0.0
 10
-0.3684414415989903
 20
29.20731364803033
 30
0.0
 10
-0.3619354664289933
 20
29.19308824986033
 30
0.0
 10
-0.3554955868989904
 20
29.17958643150033
 30
0.0
 10
-0.3492759879889935
 20
29.16691467702033
 30
0.0
 10
-0.3436008113589903
 20
29.15587198384032
 30
0.0
 10
-0.3333978854489932
 20
29.13538067748032
 30
0.0
 10
-0.3130765969489933
 20
29.11413625930033
 30
0.0
 10
-0.2832102139089916
 20
29.09571639963033
 30
0.0
 10
-0.2655983932089907
 20
29.08642808370033
 30
0.0
 10
-0.2565919961989931
 20
29.08206166043032
 30
0.0
  0
LINE
  5
87
330
1F
100
AcDbEntity
  8
DEFAULT
 62
     7
100
AcDbLine
 10
-0.2567680002489905
 20
29.08213836196033
 30
0.0
 11
-0.2293180976889933
 21
29.06974852537033
 31
0.0
  0
LINE
  5
88
330
1F
100
AcDbEntity
  8
DEFAULT
 62
     7
100
AcDbLine
 10
-0.2293180976889933
 20
29.06974852537033
 30
0.0
 11
-0.1921753014189929
 21
29.05542005220033
 31
0.0
  0
ARC
  5
89
330
1F
100
AcDbEntity
  8
DEFAULT
 62
     7
100
AcDbCircle
 10
-0.0918453179897346
 20
29.64898032587858
 30
0.0
 40
0.3203118722494598
100
AcDbArc
 50
96.67797238316611
 51
181.8420038831729
  0
ARC
  5
8A
330
1F
100
AcDbEntity
  8
DEFAULT
 62
     7
100
AcDbCircle
 10
1.211875304374831
 20
20.52548113401597
 30
0.0
 40
9.536412451554073
100
AcDbArc
 50
81.95437502923384
 51
98.08533957874001
  0
ARC
  5
8B
330
1F
100
AcDbEntity
  8
DEFAULT
 62
     7
100
AcDbCircle
 10
24.94356158729137
 20
1.429201594929905
 30
0.0
 40
0.7994358367208549
100
AcDbArc
 50
67.99680723221741
 51
92.20280746427407
  0
ARC
  5
8C
330
1F
100
AcDbEntity
  8
DEFAULT
 62
     7
100
AcDbCircle
 10
24.28210627629323
 20
1.429199548800953
 30
0.0
 40
0.7994378753554239
100
AcDbArc
 50
87.79720931900785
 51
112.0031025621917
  0
ARC
  5
8D
330
1F
100
AcDbEntity
  8
DEFAULT
 62
     7
100
AcDbCircle
 10
1.426340660418987
 20
1.429201594921613
 30
0.0
 40
0.7994358367294341
100
AcDbArc
 50
67.99680723228227
 51
92.20280746479712
  0
ARC
  5
8E
330
1F
100
AcDbEntity
  8
DEFAULT
 62
     7
100
AcDbCircle
 10
0.7648853494105127
 20
1.429199548868513
 30
0.0
 40
0.7994378752880188
100
AcDbArc
 50
87.79720931862666
 51
112.0031025631605
  0
ARC
  5
8F
330
1F
100
AcDbEntity
  8
DEFAULT
 62
     7
100
AcDbCircle
 10
15.96078251415866
 20
1.429201594862389
 30
0.0
 40
0.7994358367882173
100
AcDbArc
 50
67.99680723318569
 51
92.20280746389382
  0
ARC
  5
90
330
1F
100
AcDbEntity
  8
DEFAULT
 62
     7
100
AcDbCircle
 10
15.29932720316052
 20
1.429199548868503
 30
0.0
 40
0.7994378752880296
100
AcDbArc
 50
87.797209318627
 51
112.0031025631605
  0
SPLINE
  5
91
330
1F
100
AcDbEntity
  8
DEFAULT
 62
     7
100
AcDbSpline
210
0.0
220
0.0
230
1.0
 70
     8
 71
     3
 72
    14
 73
    10
 74
     0
 42
0.0000000001
 43
0.0000000001
 40
0.0
 40
0.0
 40
0.0
 40
0.0
 40
0.07016120090856
 40
0.179652348165
 40
0.3162841608948
 40
0.4708561052931
 40
0.6401655578455
 40
0.822928941952
 40
1.0
 40
1.0
 40
1.0
 40
1.0
 10
-0.1821827704489902
 20
29.05204790684033
 30
0.0
 10
-0.1608048353389908
 20
29.03368462267033
 30
0.0
 10
-0.0968772199289927
 20
28.99716702143033
 30
0.0
 10
0.0235505809010081
 20
28.95640625297033
 30
0.0
 10
0.180639429621009
 20
28.91958269052033
 30
0.0
 10
0.363321045701009
 20
28.88929057085032
 30
0.0
 10
0.5657089548510068
 20
28.86583811489033
 30
0.0
 10
0.7779043576910094
 20
28.85034921660033
 30
0.0
 10
0.922502897761009
 20
28.84527439704032
 30
0.0
 10
0.9936734256410087
 20
28.84403518263033
 30
0.0
  0
SPLINE
  5
92
330
1F
100
AcDbEntity
  8
DEFAULT
 62
     7
100
AcDbSpline
210
0.0
220
0.0
230
1.0
 70
     8
 71
     3
 72
    16
 73
    12
 74
     0
 42
0.0000000001
 43
0.0000000001
 40
0.0
 40
0.0
 40
0.0
 40
0.0
 40
0.1062354449514
 40
0.2107089129188
 40
0.309427303541
 40
0.4075242955816
 40
0.5104086294121
 40
0.6217514255078001
 40
0.7444400264576
 40
0.8796734501125
 40
1.0
 40
1.0
 40
1.0
 40
1.0
 10
0.6489991663910064
 20
21.12457334333132
 30
0.0
 10
0.6487490561010094
 20
21.04950575793833
 30
0.0
 10
0.6544457395110068
 20
20.90044725418733
 30
0.0
 10
0.6914163174410095
 20
20.68406391551933
 30
0.0
 10
0.7664833740010077
 20
20.48318252713133
 30
0.0
 10
0.8847908068910069
 20
20.30524719982433
 30
0.0
 10
1.046579430211007
 20
20.15281768857733
 30
0.0
 10
1.247917319731008
 20
20.02398903031532
 30
0.0
 10
1.485311111151008
 20
19.91447217893533
 30
0.0
 10
1.737912181661008
 20
19.82642978761933
 30
0.0
 10
1.91179796844101
 20
19.77759221100033
 30
0.0
 10
1.994111371761007
 20
19.75631221358033
 30
0.0
  0
LINE
  5
93
330
1F
100
AcDbEntity
  8
DEFAULT
 62
     7
100
AcDbLine
 10
1.524671595661007
 20
27.75371733709033
 30
0.0
 11
1.512244252931007
 21
28.58058976665032
 31
0.0
  0
ARC
  5
94
330
1F
100
AcDbEntity
  8
DEFAULT
 62
     7
100
AcDbCircle
 10
406.1469028505263
 20
34.97254130591398
 30
0.0
 40
404.6866212605571
100
AcDbArc
 50
181.0220997076616
 51
181.8558903731217
  0
ARC
  5
95
330
1F
100
AcDbEntity
  8
DEFAULT
 62
     7
100
AcDbCircle
 10
-991.79682485073
 20
39.45630253003838
 30
0.0
 40
992.6144093744343
100
AcDbArc
 50
358.9417927566137
 51
359.3243981199634
  0
ARC
  5
96
330
1F
100
AcDbEntity
  8
DEFAULT
 62
     7
100
AcDbCircle
 10
2.717554373584581
 20
28.55729306208772
 30
0.0
 40
1.205882823379425
100
AcDbArc
 50
164.4610298194779
 51
178.1575536446199
  0
LINE
  5
97
330
1F
100
AcDbEntity
  8
DEFAULT
 62
     7
100
AcDbLine
 10
0.7574680808610086
 20
28.57700602996033
 30
0.0
 11
0.748572933751009
 21
27.75218311887032
 31
0.0
  0
ARC
  5
98
330
1F
100
AcDbEntity
  8
DEFAULT
 62
     7
100
AcDbCircle
 10
-2.173003405129871
 20
28.63466680054339
 30
0.0
 40
2.931009430964847
100
AcDbArc
 50
358.9392972732466
 51
4.280409268712468
  0
ARC
  5
99
330
1F
100
AcDbEntity
  8
DEFAULT
 62
     7
100
AcDbCircle
 10
0.6488267239175007
 20
21.12460860661631
 30
0.0
 40
0.0004505940909655
100
AcDbArc
 50
202.9359362286123
 51
289.1149146359571
  0
LINE
  5
9A
330
1F
100
AcDbEntity
  8
DEFAULT
 62
     7
100
AcDbLine
 10
11.62695499740101
 20
12.70596188203532
 30
0.0
 11
11.64724148267101
 21
12.70595120667733
 31
0.0
  0
LINE
  5
9B
330
1F
100
AcDbEntity
  8
DEFAULT
 62
     7
100
AcDbLine
 10
11.64724148267101
 20
12.70595120667733
 30
0.0
 11
12.44938699958101
 21
12.70540412994532
 31
0.0
  0
LINE
  5
9C
330
1F
100
AcDbEntity
  8
DEFAULT
 62
     7
100
AcDbLine
 10
12.16383388522101
 20
12.70823195253032
 30
0.0
 11
12.22781250134101
 21
12.70851834665633
 31
0.0
  0
LINE
  5
9D
330
1F
100
AcDbEntity
  8
DEFAULT
 62
     7
100
AcDbLine
 10
12.44941942685101
 20
12.70540125359132
 30
0.0
 11
12.56621789879101
 21
12.70447614952432
 31
0.0
  0
LINE
  5
9E
330
1F
100
AcDbEntity
  8
DEFAULT
 62
     7
100
AcDbLine
 10
12.56621789879101
 20
12.70447614952432
 30
0.0
 11
12.63342312246101
 21
12.70387779837133
 31
0.0
  0
ARC
  5
9F
330
1F
100
AcDbEntity
  8
DEFAULT
 62
     7
100
AcDbCircle
 10
12.65355967889405
 20
13.38344505439367
 30
0.0
 40
0.6798655281470891
100
AcDbArc
 50
268.3027401697315
 51
275.3341111947497
  0
ARC
  5
A0
330
1F
100
AcDbEntity
  8
DEFAULT
 62
     7
100
AcDbCircle
 10
12.70441521925338
 20
12.76817957502812
 30
0.0
 40
0.062880053292717
100
AcDbArc
 50
281.3241157280622
 51
355.311664997855
  0
LINE
  5
A1
330
1F
100
AcDbEntity
  8
DEFAULT
 62
     7
100
AcDbLine
 10
12.63665619135101
 20
17.46081368459533
 30
0.0
 11
12.61644293178101
 21
17.43558804578033
 31
0.0
  0
LINE
  5
A2
330
1F
100
AcDbEntity
  8
DEFAULT
 62
     7
100
AcDbLine
 10
12.61644293178101
 20
17.43558804578033
 30
0.0
 11
12.58713084575101
 21
17.39898788665233
 31
0.0
  0
SPLINE
  5
A3
330
1F
100
AcDbEntity
  8
DEFAULT
 62
     7
100
AcDbSpline
210
0.0
220
0.0
230
1.0
 70
     8
 71
     3
 72
    13
 73
     9
 74
     0
 42
0.0000000001
 43
0.0000000001
 40
0.0
 40
0.0
 40
0.0
 40
0.0
 40
0.160493472727
 40
0.3686273892614
 40
0.5496663920130001
 40
0.7100989032478
 40
0.8605734748625
 40
1.0
 40
1.0
 40
1.0
 40
1.0
 10
12.58713084575101
 20
17.39898788665233
 30
0.0
 10
12.54143588946101
 20
17.34192079639933
 30
0.0
 10
12.43651626968101
 20
17.21082122872233
 30
0.0
 10
12.27921054564101
 20
17.01624603153833
 30
0.0
 10
12.11735628810101
 20
16.82451255306033
 30
0.0
 10
11.96229716791101
 20
16.66459250432452
 30
0.0
 10
11.81172609850101
 20
16.51831372960153
 30
0.0
 10
11.67700881836101
 20
16.48785863105393
 30
0.0
 10
11.61273840235101
 20
16.48410309810923
 30
0.0
  0
LINE
  5
A4
330
1F
100
AcDbEntity
  8
DEFAULT
 62
     7
100
AcDbLine
 10
13.69934815252101
 20
18.76630514153733
 30
0.0
 11
12.63665885558101
 21
17.46084133027633
 31
0.0
  0
ARC
  5
A5
330
1F
100
AcDbEntity
  8
DEFAULT
 62
     7
100
AcDbCircle
 10
13.73370421545126
 20
19.16479677376621
 30
0.0
 40
2.461927266861389
100
AcDbArc
 50
348.6137130802982
 51
352.7391410495359
  0
SPLINE
  5
A6
330
1F
100
AcDbEntity
  8
DEFAULT
 62
     7
100
AcDbSpline
210
0.0
220
0.0
230
1.0
 70
     8
 71
     3
 72
    84
 73
    80
 74
     0
 42
0.0000000001
 43
0.0000000001
 40
0.0
 40
0.0
 40
0.0
 40
0.0
 40
0.01676535974775
 40
0.04363510423026
 40
0.06727211619154
 40
0.08858359885158
 40
0.1075883402199
 40
0.1271993397507
 40
0.1486598423016
 40
0.1704583504503
 40
0.1912681821871
 40
0.2114292194945
 40
0.2308248166349
 40
0.2492284283637
 40
0.2669857692124
 40
0.2843237951053
 40
0.3014868418578
 40
0.3184965628121
 40
0.3353132520694
 40
0.3519088756934
 40
0.3682759278212
 40
0.3844116574676
 40
0.4003166040097
 40
0.4159930334689
 40
0.4314403573681
 40
0.4466586663986
 40
0.4616357342244
 40
0.476371553236
 40
0.4908738311612
 40
0.5051508491879
 40
0.5192114270439
 40
0.5330640706995
 40
0.5467172420082
 40
0.5601825931188
 40
0.5734691746791
 40
0.5865837939252
 40
0.5995329892112
 40
0.6123175996169
 40
0.6249378833922
 40
0.6374011738126
 40
0.649713714784
 40
0.6618805850642
 40
0.67390566125
 40
0.6857915406597001
 40
0.6975394140708
 40
0.7091493277024
 40
0.7206200335968001
 40
0.7319489504479
 40
0.7431321400437
 40
0.7541617745334001
 40
0.7650228134609
 40
0.7757245276316001
 40
0.7862768804357
 40
0.7966844482967
 40
0.8069520952787
 40
0.8170829217161
 40
0.8270645884099001
 40
0.8368804226464
 40
0.8465235497784001
 40
0.8559846228132
 40
0.8652508653412
 40
0.8743193246954
 40
0.8831654277575
 40
0.8917505377806
 40
0.8999980127111
 40
0.9078579776702
 40
0.9153075779732
 40
0.9224765281663
 40
0.9294842562537
 40
0.9363751006686
 40
0.9432471545056
 40
0.950252476135
 40
0.957186128984
 40
0.9636601123387
 40
0.9706338736632
 40
0.9791297252587
 40
0.9865233406854
 40
0.9931258615950001
 40
1.0
 40
1.0
 40
1.0
 40
1.0
 10
12.76707748568101
 20
12.76304464790132
 30
0.0
 10
12.77007582728101
 20
12.80035146473732
 30
0.0
 10
12.77820103201101
 20
12.89742371656632
 30
0.0
 10
12.79266843846101
 20
13.04691313003132
 30
0.0
 10
12.81253021924101
 20
13.20603933282432
 30
0.0
 10
12.83746397969101
 20
13.34671647185032
 30
0.0
 10
12.87434965494101
 20
13.47577581226332
 30
0.0
 10
12.93120704003101
 20
13.59765837196432
 30
0.0
 10
13.00007638316101
 20
13.71996622572032
 30
0.0
 10
13.07470928030101
 20
13.84200816810832
 30
0.0
 10
13.15043872972101
 20
13.95991431064232
 30
0.0
 10
13.22505986237101
 20
14.07213295659332
 30
0.0
 10
13.29687781396101
 20
14.17976089583832
 30
0.0
 10
13.36559004672101
 20
14.28301104660232
 30
0.0
 10
13.43173449515101
 20
14.38245241846532
 30
0.0
 10
13.49605860703101
 20
14.47977806121232
 30
0.0
 10
13.55921430477101
 20
14.57587483218032
 30
0.0
 10
13.62147116266101
 20
14.67116919255932
 30
0.0
 10
13.68277456597101
 20
14.76557283702933
 30
0.0
 10
13.74307027252101
 20
14.85891977656732
 30
0.0
 10
13.80235194504101
 20
14.95111168643713
 30
0.0
 10
13.86064067353101
 20
15.04210874814972
 30
0.0
 10
13.91796582548101
 20
15.13189196475832
 30
0.0
 10
13.97435468416101
 20
15.22044955832772
 30
0.0
 10
14.02983512150101
 20
15.30776830801862
 30
0.0
 10
14.08441822845101
 20
15.39380742820563
 30
0.0
 10
14.13811171644101
 20
15.47852988435412
 30
0.0
 10
14.19093165612101
 20
15.56191351591322
 30
0.0
 10
14.24291717542101
 20
15.64397576868712
 30
0.0
 10
14.29411573436101
 20
15.72475213580638
 30
0.0
 10
14.34457354390101
 20
15.80428099398875
 30
0.0
 10
14.39433490270101
 20
15.88260238207345
 30
0.0
 10
14.44344710282101
 20
15.95976189133682
 30
0.0
 10
14.49195539974101
 20
16.03580780191903
 30
0.0
 10
14.53989335482101
 20
16.11079144043113
 30
0.0
 10
14.58728962668101
 20
16.18475371284613
 30
0.0
 10
14.63416290502101
 20
16.25772012727073
 30
0.0
 10
14.68052407297101
 20
16.32970381756192
 30
0.0
 10
14.72638504346101
 20
16.40071935093873
 30
0.0
 10
14.77176447517101
 20
16.47079128589943
 30
0.0
 10
14.81668715166101
 20
16.53995301773763
 30
0.0
 10
14.86117397591101
 20
16.60823124086283
 30
0.0
 10
14.90524175712101
 20
16.67564557799533
 30
0.0
 10
14.94890283838101
 20
16.74220817583513
 30
0.0
 10
14.99216552746101
 20
16.80792357119763
 30
0.0
 10
15.03503394126101
 20
16.87278874496433
 30
0.0
 10
15.07750785543101
 20
16.93679340958833
 30
0.0
 10
15.11958250351101
 20
16.99991956595333
 30
0.0
 10
15.16124527855101
 20
17.06213672986133
 30
0.0
 10
15.202468513331
 20
17.12339095940733
 30
0.0
 10
15.24324069813101
 20
17.18365290462432
 30
0.0
 10
15.28357534421101
 20
17.24292415118433
 30
0.0
 10
15.32351542486101
 20
17.30123905177133
 30
0.0
 10
15.36309897210101
 20
17.35862321812833
 30
0.0
 10
15.40235971623101
 20
17.41508631930533
 30
0.0
 10
15.44128815328101
 20
17.47062185239733
 30
0.0
 10
15.47984440697101
 20
17.52518595264833
 30
0.0
 10
15.51797886298101
 20
17.57871438867032
 30
0.0
 10
15.55563709930101
 20
17.63115457178233
 30
0.0
 10
15.59275819407101
 20
17.68246950024133
 30
0.0
 10
15.629286925741
 20
17.73262916401233
 30
0.0
 10
15.66514109044101
 20
17.78158143928733
 30
0.0
 10
15.70018933050101
 20
17.82923902950433
 30
0.0
 10
15.73419491991101
 20
17.87538833795433
 30
0.0
 10
15.76689729731101
 20
17.91976338083433
 30
0.0
 10
15.79811640953101
 20
17.96208262952433
 30
0.0
 10
15.82794712493101
 20
18.00243412543433
 30
0.0
 10
15.85667548537101
 20
18.04123459846633
 30
0.0
 10
15.88444134080101
 20
18.07919535303333
 30
0.0
 10
15.91136591881101
 20
18.11694759296433
 30
0.0
 10
15.93758741763101
 20
18.15518724923533
 30
0.0
 10
15.96286312200101
 20
18.19417668997633
 30
0.0
 10
15.98637384217101
 20
18.23322372331033
 30
0.0
 10
16.00858140301101
 20
18.27294220749633
 30
0.0
 10
16.03113653644101
 20
18.31644106793333
 30
0.0
 10
16.05231813279101
 20
18.36290973251133
 30
0.0
 10
16.07084862504101
 20
18.40959096844433
 30
0.0
 10
16.08650797116101
 20
18.45347924205233
 30
0.0
 10
16.09565145068101
 20
18.48214846226133
 30
0.0
 10
16.10008061455101
 20
18.49684114200933
 30
0.0
  0
LINE
  5
A7
330
1F
100
AcDbEntity
  8
DEFAULT
 62
     7
100
AcDbLine
 10
10.99785520660101
 20
12.70851834665633
 30
0.0
 11
11.06183382272101
 21
12.70823195253032
 31
0.0
  0
LINE
  5
A8
330
1F
100
AcDbEntity
  8
DEFAULT
 62
     7
100
AcDbLine
 10
10.77628070836101
 20
12.70540412994532
 30
0.0
 11
11.57842622527101
 21
12.70595120667733
 31
0.0
  0
LINE
  5
A9
330
1F
100
AcDbEntity
  8
DEFAULT
 62
     7
100
AcDbLine
 10
11.57842622527101
 20
12.70595120667733
 30
0.0
 11
11.59871271053101
 21
12.70596188203532
 31
0.0
  0
ARC
  5
AA
330
1F
100
AcDbEntity
  8
DEFAULT
 62
     7
100
AcDbCircle
 10
10.53881680309582
 20
12.78121147067473
 30
0.0
 40
0.0822645101018397
100
AcDbArc
 50
192.7610840192163
 51
289.8005041619455
  0
LINE
  5
AB
330
1F
100
AcDbEntity
  8
DEFAULT
 62
     7
100
AcDbLine
 10
10.56668359323101
 20
12.70381062035732
 30
0.0
 11
10.59139765200101
 21
12.70387257957233
 31
0.0
  0
LINE
  5
AC
330
1F
100
AcDbEntity
  8
DEFAULT
 62
     7
100
AcDbLine
 10
10.59139765200101
 20
12.70387257957233
 30
0.0
 11
10.66227446432101
 21
12.70450186537332
 31
0.0
  0
LINE
  5
AD
330
1F
100
AcDbEntity
  8
DEFAULT
 62
     7
100
AcDbLine
 10
10.66227446432101
 20
12.70450186537332
 30
0.0
 11
10.77624826141101
 21
12.70540125435533
 31
0.0
  0
SPLINE
  5
AE
330
1F
100
AcDbEntity
  8
DEFAULT
 62
     7
100
AcDbSpline
210
0.0
220
0.0
230
1.0
 70
     8
 71
     3
 72
    13
 73
     9
 74
     0
 42
0.0000000001
 43
0.0000000001
 40
0.0
 40
0.0
 40
0.0
 40
0.0
 40
0.1394265251375
 40
0.2899010967522
 40
0.450333607987
 40
0.6313726107386
 40
0.839506527273
 40
1.0
 40
1.0
 40
1.0
 40
1.0
 10
11.61292930559101
 20
16.48410309810923
 30
0.0
 10
11.54865888958101
 20
16.48785863105393
 30
0.0
 10
11.41394160944101
 20
16.51831372960153
 30
0.0
 10
11.26337054003101
 20
16.66459250432452
 30
0.0
 10
11.10831141984101
 20
16.82451255306033
 30
0.0
 10
10.94645716229101
 20
17.01624603153833
 30
0.0
 10
10.78915143826101
 20
17.21082122872233
 30
0.0
 10
10.68423181848101
 20
17.34192079639933
 30
0.0
 10
10.63853686218101
 20
17.39898788665233
 30
0.0
  0
LINE
  5
AF
330
1F
100
AcDbEntity
  8
DEFAULT
 62
     7
100
AcDbLine
 10
10.63853686218101
 20
17.39898788665233
 30
0.0
 11
10.60922477616101
 21
17.43558804578033
 31
0.0
  0
LINE
  5
B0
330
1F
100
AcDbEntity
  8
DEFAULT
 62
     7
100
AcDbLine
 10
10.60922477616101
 20
17.43558804578033
 30
0.0
 11
10.58901151658101
 21
17.46081368459533
 31
0.0
  0
LINE
  5
B1
330
1F
100
AcDbEntity
  8
DEFAULT
 62
     7
100
AcDbLine
 10
10.58900896423101
 20
17.46084130731233
 30
0.0
 11
9.526298152831009
 21
18.76632231439633
 31
0.0
  0
SPLINE
  5
B2
330
1F
100
AcDbEntity
  8
DEFAULT
 62
     7
100
AcDbSpline
210
0.0
220
0.0
230
1.0
 70
     8
 71
     3
 72
    24
 73
    20
 74
     0
 42
0.0000000001
 43
0.0000000001
 40
0.0
 40
0.0
 40
0.0
 40
0.0
 40
0.07874385133668
 40
0.1622837596942
 40
0.2452330688636
 40
0.3272180495862
 40
0.4078764711468
 40
0.4868342962852
 40
0.5636637346675
 40
0.6379762027093
 40
0.7081781705563
 40
0.7731672833136
 40
0.8318161455049
 40
0.8830318672817
 40
0.9261978977032001
 40
0.9603032651087
 40
0.9842047807642
 40
0.997584573196
 40
1.0
 40
1.0
 40
1.0
 40
1.0
 10
11.61283506444101
 20
21.71233653414832
 30
0.0
 10
11.37531853983101
 20
21.71233202142033
 30
0.0
 10
10.88581889730101
 20
21.71291901429333
 30
0.0
 10
10.14612155974101
 20
21.71537682729233
 30
0.0
 10
9.396653817301006
 20
21.71922446331633
 30
0.0
 10
8.655884089081008
 20
21.72412436040833
 30
0.0
 10
7.927159814421009
 20
21.72982188194433
 30
0.0
 10
7.213992719601008
 20
21.73610389075333
 30
0.0
 10
6.519968328041009
 20
21.74281710742833
 30
0.0
 10
5.852371388211007
 20
21.74984428079733
 30
0.0
 10
5.220451191421009
 20
21.75719085019333
 30
0.0
 10
4.635929379001008
 20
21.76490687563433
 30
0.0
 10
4.108225221971007
 20
21.77310964283733
 30
0.0
 10
3.64779061584101
 20
21.78173470890533
 30
0.0
 10
3.257252638861007
 20
21.79106253090133
 30
0.0
 10
2.960260749371009
 20
21.79951591770733
 30
0.0
 10
2.727341331031009
 20
21.80887186554233
 30
0.0
 10
2.635666193601007
 20
21.81249083868132
 30
0.0
 10
2.566221791291009
 20
21.81674525641433
 30
0.0
 10
2.559231231381008
 20
21.81715757565432
 30
0.0
  0
SPLINE
  5
B3
330
1F
100
AcDbEntity
  8
DEFAULT
 62
     7
100
AcDbSpline
210
0.0
220
0.0
230
1.0
 70
     8
 71
     3
 72
    25
 73
    21
 74
     0
 42
0.0000000001
 43
0.0000000001
 40
0.0
 40
0.0
 40
0.0
 40
0.0
 40
0.002200770465049
 40
0.006084614336293
 40
0.01941553615822
 40
0.04322962142399
 40
0.07721003721994
 40
0.1202177138209
 40
0.1712453050002
 40
0.2296783827233
 40
0.2944281331492
 40
0.3643714693324
 40
0.4384102886066
 40
0.5149567349508
 40
0.5936236995835
 40
0.6739850856802
 40
0.7556682790104
 40
0.8383124386635
 40
0.9215452735908
 40
1.0
 40
1.0
 40
1.0
 40
1.0
 10
20.66338548438101
 20
21.81669891639332
 30
0.0
 10
20.67050463470101
 20
21.81723144810533
 30
0.0
 10
20.68291974520101
 20
21.81820064126132
 30
0.0
 10
20.59342442196101
 20
21.81262580217733
 30
0.0
 10
20.49832417004101
 20
21.80887168319933
 30
0.0
 10
20.26539989781101
 20
21.79951558774833
 30
0.0
 10
19.96840423502101
 20
21.79106218320933
 30
0.0
 10
19.57786273886101
 20
21.78173435508233
 30
0.0
 10
19.11742647430101
 20
21.77310933180133
 30
0.0
 10
18.58972287621101
 20
21.76490662410633
 30
0.0
 10
18.00520366756101
 20
21.75719066428833
 30
0.0
 10
17.37328684593101
 20
21.74984415134433
 30
0.0
 10
16.70569353179101
 20
21.74281702500733
 30
0.0
 10
16.01167284420101
 20
21.73610384969033
 30
0.0
 10
15.29850959601101
 20
21.72982187721933
 30
0.0
 10
14.56978866522101
 20
21.72412438062833
 30
0.0
 10
13.82902109675101
 20
21.71922449240933
 30
0.0
 10
13.07955381940101
 20
21.71537684954432
 30
0.0
 10
12.33985470055101
 20
21.71291902033633
 30
0.0
 10
11.85035305741101
 20
21.71233202139133
 30
0.0
 10
11.61283506444101
 20
21.71233653414832
 30
0.0
  0
SPLINE
  5
B4
330
1F
100
AcDbEntity
  8
DEFAULT
 62
     7
100
AcDbSpline
210
0.0
220
0.0
230
1.0
 70
     8
 71
     3
 72
    40
 73
    36
 74
     0
 42
0.0000000001
 43
0.0000000001
 40
0.0
 40
0.0
 40
0.0
 40
0.0
 40
0.0595967225431
 40
0.1193136676631
 40
0.1756145010554
 40
0.2288292973424
 40
0.2792918200414
 40
0.3273035727686
 40
0.3730853030913
 40
0.4168476668044
 40
0.4587633022003
 40
0.4989507615896
 40
0.5374902989025
 40
0.5744830859426
 40
0.6100922962904
 40
0.6445204626209
 40
0.6779533426394
 40
0.7102980221855
 40
0.7412175822458
 40
0.7717121477622
 40
0.8012992036023
 40
0.8280288392397001
 40
0.8518623349153
 40
0.8730392191185
 40
0.8911716940099
 40
0.9061735858727
 40
0.9167913519599
 40
0.9247420463088
 40
0.930938088325
 40
0.9366979652111001
 40
0.9441640461621
 40
0.9559696177316001
 40
0.9732353240381
 40
0.9944073028019
 40
1.0
 40
1.0
 40
1.0
 40
1.0
 10
11.61280914547101
 20
18.74293622932833
 30
0.0
 10
11.83940006408101
 20
18.74294669610633
 30
0.0
 10
12.29304065216101
 20
18.74463668956733
 30
0.0
 10
12.96070415779101
 20
18.75196715821533
 30
0.0
 10
13.60403925742101
 20
18.76351240251332
 30
0.0
 10
14.21210994179101
 20
18.77835223196833
 30
0.0
 10
14.78857773440101
 20
18.79592809747533
 30
0.0
 10
15.33668764833101
 20
18.81591914949033
 30
0.0
 10
15.85921808898101
 20
18.83807326454333
 30
0.0
 10
16.35845102864101
 20
18.86233546054233
 30
0.0
 10
16.83628024130101
 20
18.88863754940033
 30
0.0
 10
17.29409130928101
 20
18.91711929839233
 30
0.0
 10
17.73297449923101
 20
18.94817318484833
 30
0.0
 10
18.15419011225101
 20
18.98204426376933
 30
0.0
 10
18.55941726682101
 20
19.01942960187233
 30
0.0
 10
18.95059833147101
 20
19.06130823972333
 30
0.0
 10
19.32867504507101
 20
19.10856000138332
 30
0.0
 10
19.69238098538101
 20
19.16243616353233
 30
0.0
 10
20.04380322864101
 20
19.22258559495333
 30
0.0
 10
20.38176597606101
 20
19.29785772610333
 30
0.0
 10
20.69556357939101
 20
19.40401981431232
 30
0.0
 10
20.96519687436101
 20
19.54890514928433
 30
0.0
 10
21.18526382115101
 20
19.71122642196733
 30
0.0
 10
21.36215286276101
 20
19.87400697117633
 30
0.0
 10
21.50395413133101
 20
20.02424871370433
 30
0.0
 10
21.61303549984101
 20
20.14986274904632
 30
0.0
 10
21.69553491535101
 20
20.24725180930733
 30
0.0
 10
21.75694037760101
 20
20.31863215598833
 30
0.0
 10
21.80698428101101
 20
20.37541505162833
 30
0.0
 10
21.85631965064101
 20
20.43035896126833
 30
0.0
 10
21.91917309706101
 20
20.50183333189033
 30
0.0
 10
22.00540296898101
 20
20.61091343585333
 30
0.0
 10
22.10736255646101
 20
20.77317285095133
 30
0.0
 10
22.17322390181101
 20
20.92804080995033
 30
0.0
 10
22.20198634074101
 20
21.02589394478633
 30
0.0
 10
22.20749577610101
 20
21.04647432207633
 30
0.0
  0
ARC
  5
B5
330
1F
100
AcDbEntity
  8
DEFAULT
 62
     7
100
AcDbCircle
 10
2.291526522539171
 20
21.3873810913791
 30
0.0
 40
1.318192627500919
100
AcDbArc
 50
194.9748885759143
 51
200.9010145523282
  0
LINE
  5
B6
330
1F
100
AcDbEntity
  8
DEFAULT
 62
     7
100
AcDbLine
 10
1.06007339894101
 20
20.91710988496932
 30
0.0
 11
1.068564757231008
 21
20.89543191320933
 31
0.0
  0
SPLINE
  5
B7
330
1F
100
AcDbEntity
  8
DEFAULT
 62
     7
100
AcDbSpline
210
0.0
220
0.0
230
1.0
 70
     8
 71
     3
 72
    39
 73
    35
 74
     0
 42
0.0000000001
 43
0.0000000001
 40
0.0
 40
0.0
 40
0.0
 40
0.0
 40
0.01363196455658
 40
0.03060427815579
 40
0.04281894183441
 40
0.05100987394563
 40
0.0577280974986
 40
0.06547892117246
 40
0.07536984340127
 40
0.08834847856065
 40
0.1046759751992
 40
0.1235131659269
 40
0.1454800130312
 40
0.1704206549368
 40
0.1980894513842
 40
0.2280680891658
 40
0.2585233510663
 40
0.2895834152444
 40
0.3221501574779
 40
0.3556681591917
 40
0.3902130807541
 40
0.4259605190572
 40
0.4630991946158
 40
0.50177131185
 40
0.5420630914639
 40
0.5840607875002
 40
0.6278839281422
 40
0.6737073160630001
 40
0.7217331578327
 40
0.7721761534205001
 40
0.825332953789
 40
0.8815233426443
 40
0.9410644972972
 40
1.0
 40
1.0
 40
1.0
 40
1.0
 10
1.068564757231008
 20
20.89543191320933
 30
0.0
 10
1.08764334434101
 20
20.84794535270033
 30
0.0
 10
1.136562893141007
 20
20.74382372204433
 30
0.0
 10
1.222597987831007
 20
20.60772743003733
 30
0.0
 10
1.309746494791009
 20
20.49781581745533
 30
0.0
 10
1.37714793682101
 20
20.42166321793933
 30
0.0
 10
1.433868254091009
 20
20.35841904819633
 30
0.0
 10
1.493889521311007
 20
20.28958064233333
 30
0.0
 10
1.568393852511007
 20
20.20224513841133
 30
0.0
 10
1.663528570111007
 20
20.09023769979033
 30
0.0
 10
1.784451966421009
 20
19.95618593459333
 30
0.0
 10
1.935662024381009
 20
19.80427203180133
 30
0.0
 10
2.124174046391008
 20
19.64484090157233
 30
0.0
 10
2.35808893001101
 20
19.49006103520233
 30
0.0
 10
2.640895388631008
 20
19.36065796336633
 30
0.0
 10
2.959159802231009
 20
19.26935094854133
 30
0.0
 10
3.295625391271009
 20
19.20207840742133
 30
0.0
 10
3.643767117291008
 20
19.14518607200633
 30
0.0
 10
4.004435516621007
 20
19.09439291270933
 30
0.0
 10
4.379054275691007
 20
19.04958023660233
 30
0.0
 10
4.766214275271007
 20
19.00973735003032
 30
0.0
 10
5.167397410321008
 20
18.97396052839533
 30
0.0
 10
5.584371309031009
 20
18.94137892078233
 30
0.0
 10
6.01862120775101
 20
18.91144241956733
 30
0.0
 10
6.47128148799101
 20
18.88392178842832
 30
0.0
 10
6.94340127371101
 20
18.85844555657433
 30
0.0
 10
7.43638628009101
 20
18.83494473327833
 30
0.0
 10
7.952083914141009
 20
18.81346993247733
 30
0.0
 10
8.492699971421006
 20
18.79410284909433
 30
0.0
 10
9.060901623511006
 20
18.77708308759733
 30
0.0
 10
9.659796008241008
 20
18.76273299078533
 30
0.0
 10
10.29287474937101
 20
18.75159306106533
 30
0.0
 10
10.94767890875101
 20
18.74456092601132
 30
0.0
 10
11.39185645897101
 20
18.74294655846433
 30
0.0
 10
11.61280915322101
 20
18.74293623118233
 30
0.0
  0
SPLINE
  5
B8
330
1F
100
AcDbEntity
  8
DEFAULT
 62
     7
100
AcDbSpline
210
0.0
220
0.0
230
1.0
 70
     8
 71
     3
 72
    18
 73
    14
 74
     0
 42
0.0000000001
 43
0.0000000001
 40
0.0
 40
0.0
 40
0.0
 40
0.0
 40
0.01827867722272
 40
0.156054123872
 40
0.2947291848755
 40
0.4256521040483
 40
0.5394760281795
 40
0.6328189645672
 40
0.7102029297687
 40
0.7781504933791
 40
0.8442452052177
 40
0.9160314547187
 40
1.0
 40
1.0
 40
1.0
 40
1.0
 10
22.20744047171101
 20
21.04625115790133
 30
0.0
 10
22.20992120570101
 20
21.05549196911133
 30
0.0
 10
22.22936525840101
 20
21.13486264679433
 30
0.0
 10
22.23706117763101
 20
21.29158833718433
 30
0.0
 10
22.17149390380101
 20
21.49847627743433
 30
0.0
 10
22.04864656223101
 20
21.66072957879033
 30
0.0
 10
21.90437288383101
 20
21.76563504534533
 30
0.0
 10
21.76688416623101
 20
21.82378385444633
 30
0.0
 10
21.64579519306101
 20
21.85393513851733
 30
0.0
 10
21.53653909316101
 20
21.86961851643833
 30
0.0
 10
21.42948652788101
 20
21.87809446166932
 30
0.0
 10
21.31385344960101
 20
21.88258338899433
 30
0.0
 10
21.23262435512101
 20
21.88364724001533
 30
0.0
 10
21.18883227207101
 20
21.88391005550933
 30
0.0
  0
LINE
  5
B9
330
1F
100
AcDbEntity
  8
DEFAULT
 62
     7
100
AcDbLine
 10
21.18883227207101
 20
21.88391005550933
 30
0.0
 11
21.08555178928101
 21
21.88401020614333
 31
0.0
  0
ARC
  5
BA
330
1F
100
AcDbEntity
  8
DEFAULT
 62
     7
100
AcDbCircle
 10
21.07248475689864
 20
3.752632019277306
 30
0.0
 40
18.13138289547977
100
AcDbArc
 50
89.95870773479351
 51
96.35177969123059
  0
ARC
  5
BB
330
1F
100
AcDbEntity
  8
DEFAULT
 62
     7
100
AcDbCircle
 10
2.152971042960602
 20
3.749946503214797
 30
0.0
 40
18.13407575460762
100
AcDbArc
 50
83.64856682612074
 51
90.04629164950413
  0
LINE
  5
BC
330
1F
100
AcDbEntity
  8
DEFAULT
 62
     7
100
AcDbLine
 10
2.138319768561007
 20
21.88401633913433
 30
0.0
 11
2.084962642861007
 21
21.88407976278333
 31
0.0
  0
SPLINE
  5
BD
330
1F
100
AcDbEntity
  8
DEFAULT
 62
     7
100
AcDbSpline
210
0.0
220
0.0
230
1.0
 70
     8
 71
     3
 72
    19
 73
    15
 74
     0
 42
0.0000000001
 43
0.0000000001
 40
0.0
 40
0.0
 40
0.0
 40
0.0
 40
0.0308690589536
 40
0.1122453929074
 40
0.1818647071476
 40
0.2460324872362
 40
0.3120976353039
 40
0.3873789639664
 40
0.4782148132428
 40
0.5889068678805
 40
0.7161507017135
 40
0.8508009687936
 40
0.9845291721775
 40
1.0
 40
1.0
 40
1.0
 40
1.0
 10
2.084962642861007
 20
21.88407976278333
 30
0.0
 10
2.068370415731009
 20
21.88406058352933
 30
0.0
 10
2.00803820432101
 20
21.88385057497233
 30
0.0
 10
1.910288324661009
 20
21.88254693378333
 30
0.0
 10
1.794707788841008
 20
21.87801267110533
 30
0.0
 10
1.68758604986101
 20
21.86945606213033
 30
0.0
 10
1.578150261751008
 20
21.85361321357633
 30
0.0
 10
1.45680256326101
 20
21.82314807700733
 30
0.0
 10
1.319120732251007
 20
21.76444148719733
 30
0.0
 10
1.174934051381007
 20
21.65872126439633
 30
0.0
 10
1.052674121581009
 20
21.49562294120533
 30
0.0
 10
0.9881644000210084
 20
21.28819075008433
 30
0.0
 10
0.9966655396910074
 20
21.13267522083633
 30
0.0
 10
1.01601241799101
 20
21.05451773322233
 30
0.0
 10
1.018173413041007
 20
21.04645607303733
 30
0.0
  0
SPLINE
  5
BE
330
1F
100
AcDbEntity
  8
DEFAULT
 62
     7
100
AcDbSpline
210
0.0
220
0.0
230
1.0
 70
     8
 71
     3
 72
    24
 73
    20
 74
     0
 42
0.0000000001
 43
0.0000000001
 40
0.0
 40
0.0
 40
0.0
 40
0.0
 40
0.01569373178678
 40
0.03138746357357
 40
0.06277492714714
 40
0.09416239072071
 40
0.1255498542943
 40
0.1883247814414
 40
0.2510997085885
 40
0.3138746357357
 40
0.3766495628828
 40
0.5021994171771
 40
0.6277492714714
 40
0.6905241986185
 40
0.7532991257656
 40
0.8160740529128
 40
0.8788489800599
 40
0.9416239072071
 40
1.0
 40
1.0
 40
1.0
 40
1.0
 10
25.35272943897101
 20
2.505710288580325
 30
0.0
 10
25.35211558550101
 20
2.512726665910325
 30
0.0
 10
25.35087015281101
 20
2.526914740240324
 30
0.0
 10
25.34830582686101
 20
2.555897185450324
 30
0.0
 10
25.34495788222101
 20
2.593233957290325
 30
0.0
 10
25.34069695211101
 20
2.639722132980325
 30
0.0
 10
25.33467066742101
 20
2.703831923140325
 30
0.0
 10
25.32645284131101
 20
2.787729758310324
 30
0.0
 10
25.31519509416101
 20
2.893684405560324
 30
0.0
 10
25.30224837059101
 20
3.004174649510324
 30
0.0
 10
25.28169821109101
 20
3.156433546940324
 30
0.0
 10
25.24816816994101
 20
3.353871928810325
 30
0.0
 10
25.19309710723101
 20
3.553746361970325
 30
0.0
 10
25.12024740693101
 20
3.703726557540325
 30
0.0
 10
25.04586069161101
 20
3.804375919740324
 30
0.0
 10
24.95147088508101
 20
3.885268345530325
 30
0.0
 10
24.84425511357101
 20
3.944188449100324
 30
0.0
 10
24.73475070221101
 20
3.985041885340325
 30
0.0
 10
24.66241124517101
 20
4.004868586980324
 30
0.0
 10
24.62784930670101
 20
4.013323465490323
 30
0.0
  0
ARC
  5
BF
330
1F
100
AcDbEntity
  8
DEFAULT
 62
     7
100
AcDbCircle
 10
10.15496072700707
 20
7.076451865938395
 30
0.0
 40
0.3500452549253745
100
AcDbArc
 50
286.3446325487228
 51
316.9234124357103
  0
ARC
  5
C0
330
1F
100
AcDbEntity
  8
DEFAULT
 62
     7
100
AcDbCircle
 10
10.17186801203147
 20
7.048848234291342
 30
0.0
 40
0.3181256290503654
100
AcDbArc
 50
290.5912004088331
 51
328.4908870552246
  0
LINE
  5
C1
330
1F
100
AcDbEntity
  8
DEFAULT
 62
     7
100
AcDbLine
 10
10.27292891742101
 20
6.746946638663324
 30
0.0
 11
10.25347269428101
 21
6.740554522686324
 31
0.0
  0
LINE
  5
C2
330
1F
100
AcDbEntity
  8
DEFAULT
 62
     7
100
AcDbLine
 10
16.38003129806101
 20
2.390216296550325
 30
0.0
 11
16.37983165806101
 21
2.576259218400324
 31
0.0
  0
SPLINE
  5
C3
330
1F
100
AcDbEntity
  8
DEFAULT
 62
     7
100
AcDbSpline
210
0.0
220
0.0
230
1.0
 70
     8
 71
     3
 72
    66
 73
    62
 74
     0
 42
0.0000000001
 43
0.0000000001
 40
0.0
 40
0.0
 40
0.0
 40
0.0
 40
0.006511020270212
 40
0.01337680091995
 40
0.02039098431277
 40
0.02772310738502
 40
0.03552047694627
 40
0.04380840196643
 40
0.0525690544757
 40
0.06179909143418
 40
0.07149833029522
 40
0.08167771134436
 40
0.09235162697744
 40
0.1035201532789
 40
0.1151835384839
 40
0.1273382379941
 40
0.1399838949438
 40
0.1531625253145
 40
0.1669327851585
 40
0.1813529614668
 40
0.1964521198369
 40
0.2122138649544
 40
0.2286132128882
 40
0.2456205149188
 40
0.2632116222567
 40
0.2813780886651
 40
0.3001051529801
 40
0.3193704941709
 40
0.3391644931831
 40
0.359521265498
 40
0.3804991047602
 40
0.4021621391814
 40
0.4245843147883
 40
0.4478109860495
 40
0.4718390531226
 40
0.4966636811158
 40
0.5222718098228
 40
0.5485046895683
 40
0.5750221213258
 40
0.6014693150733
 40
0.627487202569
 40
0.6527188924231
 40
0.6770070252588
 40
0.7004303499784
 40
0.7230782883735
 40
0.7450382553766
 40
0.7663954037629001
 40
0.787228889068
 40
0.8075499640395
 40
0.8273203153599
 40
0.8464987481818
 40
0.8650472493002001
 40
0.8829566944137
 40
0.9002300916868
 40
0.9168703568994
 40
0.9328781490899
 40
0.9482389622744
 40
0.9629111911502
 40
0.9768819553363
 40
0.9900331260318001
 40
1.0
 40
1.0
 40
1.0
 40
1.0
 10
1.053278614761008
 20
4.009876285010325
 30
0.0
 10
1.049619858111007
 20
4.008792592060324
 30
0.0
 10
1.042110522161009
 20
4.006540611500324
 30
0.0
 10
1.030692623831007
 20
4.003012473290324
 30
0.0
 10
1.018850770241008
 20
3.999228134520325
 30
0.0
 10
1.006531575691009
 20
3.995146160930324
 30
0.0
 10
0.9935553086810092
 20
3.990676611730324
 30
0.0
 10
0.9798503863610069
 20
3.985755242490324
 30
0.0
 10
0.9654312730710071
 20
3.980342668020324
 30
0.0
 10
0.9503300236210091
 20
3.974399056300325
 30
0.0
 10
0.9345671158310072
 20
3.967872870650324
 30
0.0
 10
0.9181584437210073
 20
3.960702435370325
 30
0.0
 10
0.9011260931710072
 20
3.952818741620325
 30
0.0
 10
0.8835047572010086
 20
3.944149175500325
 30
0.0
 10
0.8653457762110068
 20
3.934621055510324
 30
0.0
 10
0.8467119697710064
 20
3.924152140580324
 30
0.0
 10
0.8276552881010086
 20
3.912643723880324
 30
0.0
 10
0.8082104308110079
 20
3.899971132180325
 30
0.0
 10
0.788401867311008
 20
3.885980565960324
 30
0.0
 10
0.7682860692910072
 20
3.870508330890325
 30
0.0
 10
0.747953841721009
 20
3.853441080700325
 30
0.0
 10
0.7275467672310068
 20
3.834699951390324
 30
0.0
 10
0.7072418999810093
 20
3.814237942720324
 30
0.0
 10
0.6872400042310065
 20
3.792013400200324
 30
0.0
 10
0.6676843877210092
 20
3.768043260580325
 30
0.0
 10
0.6486661716910074
 20
3.742379364030324
 30
0.0
 10
0.6302760111810091
 20
3.715070687250324
 30
0.0
 10
0.6126027369910065
 20
3.686169262130325
 30
0.0
 10
0.5956703166510085
 20
3.655731245800324
 30
0.0
 10
0.5794570420710083
 20
3.623775796640324
 30
0.0
 10
0.5639156547610067
 20
3.590277840130325
 30
0.0
 10
0.5489960889010088
 20
3.555179967130324
 30
0.0
 10
0.5346653436510092
 20
3.518420046870324
 30
0.0
 10
0.5208886355510092
 20
3.479974097440325
 30
0.0
 10
0.5076405780910089
 20
3.439857834400325
 30
0.0
 10
0.4949203616410098
 20
3.398110437900325
 30
0.0
 10
0.4827159671910077
 20
3.354865791840324
 30
0.0
 10
0.4710758776110093
 20
3.310439828970325
 30
0.0
 10
0.4601031973310075
 20
3.265338451270325
 30
0.0
 10
0.4498753022010067
 20
3.220192021630324
 30
0.0
 10
0.4404362454810087
 20
3.175644539870325
 30
0.0
 10
0.4317736639910084
 20
3.132229563480325
 30
0.0
 10
0.4238344381510071
 20
3.090223260620324
 30
0.0
 10
0.4165534315910076
 20
3.049635545000325
 30
0.0
 10
0.4098421462110078
 20
3.010333399930325
 30
0.0
 10
0.4036250997610071
 20
2.972176512730324
 30
0.0
 10
0.3978371815710087
 20
2.935028104930325
 30
0.0
 10
0.3924249007210097
 20
2.898794033900325
 30
0.0
 10
0.3873605064810082
 20
2.863448942770325
 30
0.0
 10
0.3826306128410077
 20
2.829036393650324
 30
0.0
 10
0.3782241440010086
 20
2.795628523140325
 30
0.0
 10
0.3741315899710098
 20
2.763279774710324
 30
0.0
 10
0.370341638701009
 20
2.732018557140324
 30
0.0
 10
0.3668382135410073
 20
2.701849534510324
 30
0.0
 10
0.363613096811007
 20
2.672770555850324
 30
0.0
 10
0.3606644133210064
 20
2.644789093190325
 30
0.0
 10
0.3579952804110096
 20
2.617938412230324
 30
0.0
 10
0.355609987241009
 20
2.592259719970324
 30
0.0
 10
0.353554110191008
 20
2.567851672020325
 30
0.0
 10
0.3519441766810079
 20
2.546174852600324
 30
0.0
 10
0.3511595096010065
 20
2.532647156440325
 30
0.0
 10
0.3509040753510095
 20
2.526811508530324
 30
0.0
  0
LINE
  5
C4
330
1F
100
AcDbEntity
  8
DEFAULT
 62
     7
100
AcDbLine
 10
0.3509039731710064
 20
2.526811227060325
 30
0.0
 11
0.345614428561009
 21
2.390216295750325
 31
0.0
  0
LINE
  5
C5
330
1F
100
AcDbEntity
  8
DEFAULT
 62
     7
100
AcDbLine
 10
16.38003129844101
 20
2.390216296550325
 30
0.0
 11
16.37983138592101
 21
2.576252591150324
 31
0.0
  0
ARC
  5
C6
330
1F
100
AcDbEntity
  8
DEFAULT
 62
     7
100
AcDbCircle
 10
305.6291065470238
 20
382.5782672287785
 30
0.0
 40
476.8030762253611
100
AcDbArc
 50
232.0336816235543
 51
232.5728306952089
  0
LINE
  5
C7
330
1F
100
AcDbEntity
  8
DEFAULT
 62
     7
100
AcDbLine
 10
9.618790830271008
 20
6.552058521085325
 30
0.0
 11
2.011274611401009
 21
4.293751546220324
 31
0.0
  0
LINE
  5
C8
330
1F
100
AcDbEntity
  8
DEFAULT
 62
     7
100
AcDbLine
 10
10.25350388836101
 20
6.740563399749323
 30
0.0
 11
1.088291347271008
 21
4.020246387610325
 31
0.0
  0
LINE
  5
C9
330
1F
100
AcDbEntity
  8
DEFAULT
 62
     7
100
AcDbLine
 10
1.088291347271009
 20
4.020246387610325
 30
0.0
 11
1.053259006431008
 21
4.009871043080324
 31
0.0
  0
LINE
  5
CA
330
1F
100
AcDbEntity
  8
DEFAULT
 62
     7
100
AcDbLine
 10
10.83060090272101
 20
4.161150535430323
 30
0.0
 11
11.20839957626101
 21
4.161150479030324
 31
0.0
  0
SPLINE
  5
CB
330
1F
100
AcDbEntity
  8
DEFAULT
 62
     7
100
AcDbSpline
210
0.0
220
0.0
230
1.0
 70
     8
 71
     3
 72
    11
 73
     7
 74
     0
 42
0.0000000001
 43
0.0000000001
 40
0.0
 40
0.0
 40
0.0
 40
0.0
 40
0.2987504551827
 40
0.5995051493984001
 40
0.8812028313596
 40
1.0
 40
1.0
 40
1.0
 40
1.0
 10
16.43608104926101
 20
23.05370053700833
 30
0.0
 10
16.82601070565101
 20
23.28065783437232
 30
0.0
 10
17.57106121498101
 20
23.80288974551933
 30
0.0
 10
18.54727524164101
 20
24.71101482375333
 30
0.0
 10
19.24664868817101
 20
25.50782751466533
 30
0.0
 10
19.61744603718101
 20
25.98592884564033
 30
0.0
 10
19.72455594222101
 20
26.12987729980032
 30
0.0
  0
SPLINE
  5
CC
330
1F
100
AcDbEntity
  8
DEFAULT
 62
     7
100
AcDbSpline
210
0.0
220
0.0
230
1.0
 70
     8
 71
     3
 72
    11
 73
     7
 74
     0
 42
0.0000000001
 43
0.0000000001
 40
0.0
 40
0.0
 40
0.0
 40
0.0
 40
0.2049178814189
 40
0.5527591651255001
 40
0.8759777335919
 40
1.0
 40
1.0
 40
1.0
 40
1.0
 10
19.72455594222101
 20
26.12987729980032
 30
0.0
 10
19.85421696921101
 20
26.30413293370033
 30
0.0
 10
20.19259598537101
 20
26.78260608175033
 30
0.0
 10
20.67284863231101
 20
27.57901917405033
 30
0.0
 10
21.00828955589101
 20
28.35610493936033
 30
0.0
 10
21.13954945245101
 20
28.81207602013032
 30
0.0
 10
21.17195993323101
 20
28.93957387943032
 30
0.0
  0
ARC
  5
CD
330
1F
100
AcDbEntity
  8
DEFAULT
 62
     7
100
AcDbCircle
 10
-28.60602735287211
 20
33.82927717166871
 30
0.0
 40
50.11158337397558
100
AcDbArc
 50
355.6672927484931
 51
1.254382110176283
  0
ARC
  5
CE
330
1F
100
AcDbEntity
  8
DEFAULT
 62
     7
100
AcDbCircle
 10
51.37128368797029
 20
33.79454725284177
 30
0.0
 40
49.67644217418503
100
AcDbArc
 50
178.697194209623
 51
184.3334573716572
  0
SPLINE
  5
CF
330
1F
100
AcDbEntity
  8
DEFAULT
 62
     7
100
AcDbSpline
210
0.0
220
0.0
230
1.0
 70
     8
 71
     3
 72
    11
 73
     7
 74
     0
 42
0.0000000001
 43
0.0000000001
 40
0.0
 40
0.0
 40
0.0
 40
0.0
 40
0.1245198156093
 40
0.4474801201221
 40
0.7951033212117
 40
1.0
 40
1.0
 40
1.0
 40
1.0
 10
2.027462101001009
 20
28.93910522343033
 30
0.0
 10
2.060122479571009
 20
28.81096504214033
 30
0.0
 10
2.191998883191007
 20
28.35431895186033
 30
0.0
 10
2.528781204081009
 20
27.57670476153033
 30
0.0
 10
3.010260815441007
 20
26.78037878244033
 30
0.0
 10
3.349449200031009
 20
26.30194836512033
 30
0.0
 10
3.479451918691008
 20
26.12765780500033
 30
0.0
  0
ARC
  5
D0
330
1F
100
AcDbEntity
  8
DEFAULT
 62
     7
100
AcDbCircle
 10
15.13294896239972
 20
34.83370961582942
 30
0.0
 40
14.54645425801657
100
AcDbArc
 50
216.762538202533
 51
220.5219914863152
  0
LINE
  5
D1
330
1F
100
AcDbEntity
  8
DEFAULT
 62
     7
100
AcDbLine
 10
4.075365228651008
 20
25.38229842745632
 30
0.0
 11
4.146309502551008
 21
25.29993687974833
 31
0.0
  0
ARC
  5
D2
330
1F
100
AcDbEntity
  8
DEFAULT
 62
     7
100
AcDbCircle
 10
12.25156326463217
 20
32.11507562946972
 30
0.0
 40
10.58967679986905
100
AcDbArc
 50
220.0581225180295
 51
238.8465605787202
  0
SPLINE
  5
D3
330
1F
100
AcDbEntity
  8
DEFAULT
 62
     7
100
AcDbSpline
210
0.0
220
0.0
230
1.0
 70
     8
 71
     3
 72
    42
 73
    38
 74
     0
 42
0.0000000001
 43
0.0000000001
 40
0.0
 40
0.0
 40
0.0
 40
0.0
 40
0.03113162354744
 40
0.06866774632713
 40
0.1039970620031
 40
0.1373626969692
 40
0.1689578506011
 40
0.1989160904711
 40
0.2273710174798
 40
0.2545161700538
 40
0.2805866735884
 40
0.3058212518924
 40
0.330214613362
 40
0.3534350982991
 40
0.3751642047392
 40
0.3949663973599
 40
0.4123311992654
 40
0.4292365578139
 40
0.4476279452083
 40
0.4671975140547
 40
0.4878909850617
 40
0.5096584135106
 40
0.5325025691513
 40
0.5563920412344
 40
0.5813219276174
 40
0.6073642417555
 40
0.6346139631418
 40
0.6631974580524001
 40
0.6932489617846001
 40
0.7248958768593
 40
0.7582679235954
 40
0.7935313418589
 40
0.8308710423377
 40
0.8705187252692
 40
0.9127879487112
 40
0.9580050791772
 40
1.0
 40
1.0
 40
1.0
 40
1.0
 10
21.49352706040101
 20
34.92628699824032
 30
0.0
 10
21.49159893455101
 20
35.08809975944033
 30
0.0
 10
21.48641293715101
 20
35.44500280815032
 30
0.0
 10
21.47524455798101
 20
35.98547440427032
 30
0.0
 10
21.45991239809101
 20
36.53746126958032
 30
0.0
 10
21.44161242419101
 20
37.05845867324032
 30
0.0
 10
21.42030225704101
 20
37.55139845859033
 30
0.0
 10
21.39601789603101
 20
38.01864262647032
 30
0.0
 10
21.36853241298101
 20
38.46253805691032
 30
0.0
 10
21.33731673000101
 20
38.88592828670032
 30
0.0
 10
21.30152997898101
 20
39.29216232257032
 30
0.0
 10
21.25953017386101
 20
39.68342792543032
 30
0.0
 10
21.20891739453101
 20
40.05877939683032
 30
0.0
 10
21.14329411236101
 20
40.41343485229032
 30
0.0
 10
21.05758063998101
 20
40.73933553093032
 30
0.0
 10
20.93070066664101
 20
41.02144423276032
 30
0.0
 10
20.73790881808101
 20
41.23362337470032
 30
0.0
 10
20.48920869794101
 20
41.36121034509032
 30
0.0
 10
20.20430810338101
 20
41.40375846745032
 30
0.0
 10
19.89939740216101
 20
41.40591560330032
 30
0.0
 10
19.57720051363101
 20
41.39027374900032
 30
0.0
 10
19.23864796354101
 20
41.36568186781032
 30
0.0
 10
18.88365842824101
 20
41.33786531682033
 30
0.0
 10
18.51225906488101
 20
41.30912210742032
 30
0.0
 10
18.12413585526101
 20
41.28103925138032
 30
0.0
 10
17.71843355069101
 20
41.25398562099032
 30
0.0
 10
17.29367680058101
 20
41.22729418165032
 30
0.0
 10
16.84800566450101
 20
41.20118620170032
 30
0.0
 10
16.37937547944101
 20
41.17624562311032
 30
0.0
 10
15.88571311468101
 20
41.15348653709032
 30
0.0
 10
15.36480816636101
 20
41.13374145538032
 30
0.0
 10
14.81418990400101
 20
41.11709148670032
 30
0.0
 10
14.23085274079101
 20
41.10371161426032
 30
0.0
 10
13.61103099538101
 20
41.09347749495032
 30
0.0
 10
12.95021795089101
 20
41.08625449106032
 30
0.0
 10
12.27717981522101
 20
41.08183115473032
 30
0.0
 10
11.82384609919101
 20
41.08074775109032
 30
0.0
 10
11.60555407256101
 20
41.08072209651032
 30
0.0
  0
SPLINE
  5
D4
330
1F
100
AcDbEntity
  8
DEFAULT
 62
     7
100
AcDbSpline
210
0.0
220
0.0
230
1.0
 70
     8
 71
     3
 72
    11
 73
     7
 74
     0
 42
0.0000000001
 43
0.0000000001
 40
0.0
 40
0.0
 40
0.0
 40
0.0
 40
0.3004352299718
 40
0.5763400263511
 40
0.8284862451873
 40
1.0
 40
1.0
 40
1.0
 40
1.0
 10
11.60596275912101
 20
21.98706180886833
 30
0.0
 10
12.08239159260101
 20
21.98664122306033
 30
0.0
 10
12.99716314176101
 20
21.99996503768533
 30
0.0
 10
14.30327868201101
 20
22.18110344969633
 30
0.0
 10
15.36731598668101
 20
22.51238125780533
 30
0.0
 10
15.97585716833101
 20
22.80083238467233
 30
0.0
 10
16.21548667504101
 20
22.93013535718233
 30
0.0
  0
LINE
  5
D5
330
1F
100
AcDbEntity
  8
DEFAULT
 62
     7
100
AcDbLine
 10
16.33892759196101
 20
22.99817967530032
 30
0.0
 11
16.43605041582101
 21
23.05375366177633
 31
0.0
  0
LINE
  5
D6
330
1F
100
AcDbEntity
  8
DEFAULT
 62
     7
100
AcDbLine
 10
6.773215751181009
 20
23.05263871206933
 30
0.0
 11
6.956665990171007
 21
22.94933655918433
 31
0.0
  0
LINE
  5
D7
330
1F
100
AcDbEntity
  8
DEFAULT
 62
     7
100
AcDbLine
 10
6.956665990171007
 20
22.94933655918433
 30
0.0
 11
6.996187835301007
 21
22.92791406482933
 31
0.0
  0
SPLINE
  5
D8
330
1F
100
AcDbEntity
  8
DEFAULT
 62
     7
100
AcDbSpline
210
0.0
220
0.0
230
1.0
 70
     8
 71
     3
 72
    11
 73
     7
 74
     0
 42
0.0000000001
 43
0.0000000001
 40
0.0
 40
0.0
 40
0.0
 40
0.0
 40
0.1734012853039
 40
0.4250370291802
 40
0.7003965116688
 40
1.0
 40
1.0
 40
1.0
 40
1.0
 10
6.996187835301007
 20
22.92791406482933
 30
0.0
 10
7.238561973811009
 20
22.79743413290833
 30
0.0
 10
7.849472535841009
 20
22.50894645367833
 30
0.0
 10
8.915212903661006
 20
22.17910438681533
 30
0.0
 10
10.21837371821101
 20
21.99957219398733
 30
0.0
 10
11.13088743040101
 20
21.98653311013933
 30
0.0
 10
11.60596272523101
 20
21.98706179863732
 30
0.0
  0
SPLINE
  5
D9
330
1F
100
AcDbEntity
  8
DEFAULT
 62
     7
100
AcDbSpline
210
0.0
220
0.0
230
1.0
 70
     8
 71
     3
 72
    43
 73
    39
 74
     0
 42
0.0000000001
 43
0.0000000001
 40
0.0
 40
0.0
 40
0.0
 40
0.0
 40
0.04040099128551
 40
0.08423248630499
 40
0.1252944446567
 40
0.1638803735728
 40
0.2002775891026
 40
0.2347074416231
 40
0.2673391727186
 40
0.2983297627787
 40
0.3278006267629
 40
0.355865341254
 40
0.3826416070153
 40
0.4082516985791
 40
0.4327918152797
 40
0.4563409467008
 40
0.4789295481053
 40
0.5005243061814
 40
0.5211042059321001
 40
0.5406711635688
 40
0.5591861169846
 40
0.576700530768
 40
0.5931917395466
 40
0.610884978969
 40
0.631103470718
 40
0.6529961628011
 40
0.6762828348333
 40
0.7006256171739
 40
0.7257334265533
 40
0.7517037397033
 40
0.778772365058
 40
0.8071656477271
 40
0.8370552605689
 40
0.8685667847738
 40
0.9018328964083
 40
0.9370506147969
 40
0.9744516576521
 40
1.0
 40
1.0
 40
1.0
 40
1.0
 10
11.60555407012101
 20
41.08072202365032
 30
0.0
 10
11.39547296948101
 20
41.08069815165032
 30
0.0
 10
10.95747187681101
 20
41.08160477720033
 30
0.0
 10
10.30596428173101
 20
41.08560857754033
 30
0.0
 10
9.663915787911007
 20
41.09221718036032
 30
0.0
 10
9.060563168801009
 20
41.10162324464032
 30
0.0
 10
8.491756396951006
 20
41.11395536311032
 30
0.0
 10
7.953996662211007
 20
41.12934018369032
 30
0.0
 10
7.444459915171009
 20
41.14766614936032
 30
0.0
 10
6.960842976541009
 20
41.16883348485033
 30
0.0
 10
6.501113286101009
 20
41.19234009962032
 30
0.0
 10
6.063402529671008
 20
41.21717456580032
 30
0.0
 10
5.645844955511008
 20
41.24272124598032
 30
0.0
 10
5.246670727591009
 20
41.26857920450033
 30
0.0
 10
4.864364991441007
 20
41.29519124889032
 30
0.0
 10
4.497873246561009
 20
41.32265090070032
 30
0.0
 10
4.146751393221009
 20
41.35021228420033
 30
0.0
 10
3.81096080437101
 20
41.37579197019032
 30
0.0
 10
3.49057204941101
 20
41.39661065176033
 30
0.0
 10
3.18552787336101
 20
41.40556845817032
 30
0.0
 10
2.896321623021009
 20
41.39248064110032
 30
0.0
 10
2.627222692551007
 20
41.32612258967032
 30
0.0
 10
2.400584527521008
 20
41.17108814619032
 30
0.0
 10
2.230120746201009
 20
40.93955718081033
 30
0.0
 10
2.120980809561007
 20
40.64597703081032
 30
0.0
 10
2.042354519091009
 20
40.31499852296032
 30
0.0
 10
1.981785280051009
 20
39.95837230566032
 30
0.0
 10
1.934119710471008
 20
39.58311954256033
 30
0.0
 10
1.893997607531008
 20
39.19296805548032
 30
0.0
 10
1.859461880731007
 20
38.78806856998033
 30
0.0
 10
1.829156006911009
 20
38.36570473140032
 30
0.0
 10
1.802340109221009
 20
37.92268871410032
 30
0.0
 10
1.778559071001008
 20
37.45636674573032
 30
0.0
 10
1.757669564471007
 20
36.96454469773032
 30
0.0
 10
1.739689167621008
 20
36.44488518298032
 30
0.0
 10
1.72462051580101
 20
35.89449636615032
 30
0.0
 10
1.714219509581009
 20
35.38413935427032
 30
0.0
 10
1.70938066217101
 20
35.05684339489032
 30
0.0
 10
1.707703924041008
 20
34.92400494550032
 30
0.0
  0
LINE
  5
DA
330
1F
100
AcDbEntity
  8
DEFAULT
 62
     7
100
AcDbLine
 10
40.69278192698439
 20
3.159900298240324
 30
0.0
 11
37.37063329665438
 21
2.684959576720325
 31
0.0
  0
ARC
  5
DB
330
1F
100
AcDbEntity
  8
DEFAULT
 62
     7
100
AcDbCircle
 10
48.98436320148876
 20
7.941909492626058
 30
0.0
 40
3.785972593963291
100
AcDbArc
 50
266.9927503440857
 51
273.0072387316092
  0
LINE
  5
DC
330
1F
100
AcDbEntity
  8
DEFAULT
 62
     7
100
AcDbLine
 10
48.78454186234439
 20
4.154604827300323
 30
0.0
 11
48.76128144637439
 21
4.155587349420324
 31
0.0
  0
ARC
  5
DD
330
1F
100
AcDbEntity
  8
DEFAULT
 62
     7
100
AcDbCircle
 10
48.98436339288734
 20
9.950696725764903
 30
0.0
 40
5.79953917755923
100
AcDbArc
 50
268.0349401570472
 51
271.9650489321261
  0
LINE
  5
DE
330
1F
100
AcDbEntity
  8
DEFAULT
 62
     7
100
AcDbLine
 10
49.20744437423439
 20
4.155587313330324
 30
0.0
 11
49.18418392196438
 21
4.154604793190325
 31
0.0
  0
ARC
  5
DF
330
1F
100
AcDbEntity
  8
DEFAULT
 62
     7
100
AcDbCircle
 10
1313.781101937054
 20
3094.329329160361
 30
0.0
 40
3336.218295165792
100
AcDbArc
 50
247.7405822859032
 51
247.864900532665
  0
ARC
  5
E0
330
1F
100
AcDbEntity
  8
DEFAULT
 62
     7
100
AcDbCircle
 10
-1215.455251186912
 20
3093.453499395078
 30
0.0
 40
3335.27245414931
100
AcDbArc
 50
292.1350858757341
 51
292.2594376389787
  0
LINE
  5
E1
330
1F
100
AcDbEntity
  8
DEFAULT
 62
     7
100
AcDbLine
 10
61.36374888899439
 20
4.014109903340325
 30
0.0
 11
50.55927579030439
 21
6.743164411013325
 31
0.0
  0
LINE
  5
E2
330
1F
100
AcDbEntity
  8
DEFAULT
 62
     7
100
AcDbLine
 10
47.40945047203439
 20
6.743164410949325
 30
0.0
 11
36.60497493099438
 21
4.014109308420323
 31
0.0
  0
LINE
  5
E3
330
1F
100
AcDbEntity
  8
DEFAULT
 62
     7
100
AcDbLine
 10
62.09808097683438
 20
2.390216298580324
 30
0.0
 11
62.0894274094444
 21
2.511494449120324
 31
0.0
  0
SPLINE
  5
E4
330
1F
100
AcDbEntity
  8
DEFAULT
 62
     7
100
AcDbSpline
210
0.0
220
0.0
230
1.0
 70
     8
 71
     3
 72
    95
 73
    91
 74
     0
 42
0.0000000001
 43
0.0000000001
 40
0.0
 40
0.0
 40
0.0
 40
0.0
 40
0.01877299656003
 40
0.04110768956721
 40
0.06421538396322
 40
0.08741521434346
 40
0.1100450301072
 40
0.1316554657502
 40
0.152314764931
 40
0.1721737338412
 40
0.1913879524632
 40
0.2101158689665
 40
0.2285065129735
 40
0.2466082483488
 40
0.2644172356211
 40
0.2819307888275
 40
0.2991477099643
 40
0.3160679968389
 40
0.3326924254763
 40
0.349022458732
 40
0.3650607930719
 40
0.3808109949266
 40
0.3962774954199
 40
0.4114654524367
 40
0.4263806270564
 40
0.4410292765523
 40
0.4554180621713
 40
0.4695539700329
 40
0.4834430462632
 40
0.4970860474177
 40
0.5104823722866
 40
0.5236320919727
 40
0.5365358885748
 40
0.5491949178506
 40
0.5616090646719
 40
0.5737790489278
 40
0.5857143882976
 40
0.5974277887744
 40
0.6089326569622
 40
0.6202420373289
 40
0.6313659124769
 40
0.6423145339079001
 40
0.6530993149143
 40
0.6637288363219001
 40
0.6742019673144
 40
0.6845162872768
 40
0.6946659571559
 40
0.704644414737
 40
0.7144459661527
 40
0.724065723805
 40
0.7334995350357
 40
0.7427438998384
 40
0.7517966248603
 40
0.7606658767191
 40
0.7693648804785001
 40
0.7779066351554
 40
0.7863039437014
 40
0.7945694524658
 40
0.8027153414636
 40
0.8107454268052
 40
0.8186610866133
 40
0.8264659170248
 40
0.8341640147998
 40
0.8417592491392
 40
0.8492552939477001
 40
0.8566556628547
 40
0.8639637338248
 40
0.8711827562557
 40
0.8783158321449001
 40
0.8853663605374
 40
0.8923387309408
 40
0.8992370738354
 40
0.9060650059329
 40
0.9128201116601
 40
0.9194886572675
 40
0.926056555373
 40
0.9325101920966
 40
0.9388362649573
 40
0.9450209857126
 40
0.9510485330093
 40
0.9569001434008
 40
0.9625612373413
 40
0.96801806226
 40
0.9732511843692
 40
0.978258468631
 40
0.9830461048653
 40
0.9876218406515001
 40
0.9920109395258
 40
0.9961858654027
 40
1.0
 40
1.0
 40
1.0
 40
1.0
 10
62.08942787302439
 20
2.511493227550324
 30
0.0
 10
62.08859610415439
 20
2.522811084250325
 30
0.0
 10
62.08656133974438
 20
2.547578311800324
 30
0.0
 10
62.08317490275439
 20
2.586248823270325
 30
0.0
 10
62.07935220029438
 20
2.627567268460324
 30
0.0
 10
62.07535154717439
 20
2.669047946930324
 30
0.0
 10
62.07128860064438
 20
2.709613060770325
 30
0.0
 10
62.06724206516438
 20
2.748636111850324
 30
0.0
 10
62.06323128567439
 20
2.785978645290325
 30
0.0
 10
62.05924176483438
 20
2.821866348370325
 30
0.0
 10
62.0552493101244
 20
2.856578748060324
 30
0.0
 10
62.05122650426438
 20
2.890393932790325
 30
0.0
 10
62.04715203002439
 20
2.923525467480325
 30
0.0
 10
62.04300689917437
 20
2.956088346840325
 30
0.0
 10
62.03878012054437
 20
2.988106012660325
 30
0.0
 10
62.0344674136544
 20
3.019572438470324
 30
0.0
 10
62.03006531441437
 20
3.050483943920325
 30
0.0
 10
62.02557088325438
 20
3.080838935240325
 30
0.0
 10
62.02098188284438
 20
3.110637444820324
 30
0.0
 10
62.01629899318439
 20
3.139881540040325
 30
0.0
 10
62.01151477686437
 20
3.168573629220325
 30
0.0
 10
62.00661362099439
 20
3.196716296150325
 30
0.0
 10
62.00158447270439
 20
3.224314043360325
 30
0.0
 10
61.99641775290439
 20
3.251372674710325
 30
0.0
 10
61.99110578720439
 20
3.277899173830325
 30
0.0
 10
61.98564231769439
 20
3.303901457790325
 30
0.0
 10
61.98002250436437
 20
3.329388255050324
 30
0.0
 10
61.97424224974438
 20
3.354368088140325
 30
0.0
 10
61.96830116025438
 20
3.378846522040324
 30
0.0
 10
61.96218803789438
 20
3.402821526030325
 30
0.0
 10
61.95589164192438
 20
3.426286676210325
 30
0.0
 10
61.94940458071437
 20
3.449235888750325
 30
0.0
 10
61.94272123573438
 20
3.471664092620325
 30
0.0
 10
61.93583965994438
 20
3.493566695110325
 30
0.0
 10
61.92875306022438
 20
3.514937082300325
 30
0.0
 10
61.9214531852644
 20
3.535772670660324
 30
0.0
 10
61.91393221509438
 20
3.556078440070325
 30
0.0
 10
61.90618102705437
 20
3.575866351030325
 30
0.0
 10
61.8981908322144
 20
3.595150089240324
 30
0.0
 10
61.88995386602437
 20
3.613941370140325
 30
0.0
 10
61.88145801043439
 20
3.632247130770324
 30
0.0
 10
61.8726924239644
 20
3.650072700380325
 30
0.0
 10
61.86364715191439
 20
3.667421818260325
 30
0.0
 10
61.85431608124438
 20
3.684291320410325
 30
0.0
 10
61.84469884328439
 20
3.700670544140325
 30
0.0
 10
61.83480085826437
 20
3.716540912460325
 30
0.0
 10
61.82463996151438
 20
3.731886884700325
 30
0.0
 10
61.81423797066438
 20
3.746693245660325
 30
0.0
 10
61.80361711054439
 20
3.760945881530324
 30
0.0
 10
61.79280014348439
 20
3.774633044980325
 30
0.0
 10
61.78181009296438
 20
3.787745083770324
 30
0.0
 10
61.77067052769439
 20
3.800275323680325
 30
0.0
 10
61.75939954773438
 20
3.812222381600325
 30
0.0
 10
61.7480224522744
 20
3.823606640450324
 30
0.0
 10
61.73655693533439
 20
3.834456941040325
 30
0.0
 10
61.7250141786644
 20
3.844802078530324
 30
0.0
 10
61.71340223502438
 20
3.854669254040325
 30
0.0
 10
61.70172630712438
 20
3.864083726030325
 30
0.0
 10
61.68999304507437
 20
3.873065799650324
 30
0.0
 10
61.67821246660438
 20
3.881630714570325
 30
0.0
 10
61.66639697867439
 20
3.889789621310325
 30
0.0
 10
61.65456279687439
 20
3.897561271300325
 30
0.0
 10
61.64272339991439
 20
3.904965622770325
 30
0.0
 10
61.63089033264438
 20
3.912022026650325
 30
0.0
 10
61.61907380118439
 20
3.918749155640324
 30
0.0
 10
61.6072827295844
 20
3.925164935090324
 30
0.0
 10
61.59552486777437
 20
3.931286557170325
 30
0.0
 10
61.58380690307439
 20
3.937130460040324
 30
0.0
 10
61.57213436896439
 20
3.942712493960324
 30
0.0
 10
61.56051105073439
 20
3.948048037760325
 30
0.0
 10
61.54893881202438
 20
3.953151188080325
 30
0.0
 10
61.53741865907438
 20
3.958035669070324
 30
0.0
 10
61.52595467060439
 20
3.962713106280325
 30
0.0
 10
61.51456039803438
 20
3.967190874190325
 30
0.0
 10
61.50325906165438
 20
3.971472763400325
 30
0.0
 10
61.49208005397438
 20
3.975560803090325
 30
0.0
 10
61.48105236270439
 20
3.979457710480324
 30
0.0
 10
61.47020459530438
 20
3.983166672260325
 30
0.0
 10
61.45956640333438
 20
3.986690767040324
 30
0.0
 10
61.4491701548144
 20
3.990031672790325
 30
0.0
 10
61.43904825598438
 20
3.993190393990324
 30
0.0
 10
61.42923182000439
 20
3.996168681650325
 30
0.0
 10
61.41975213087437
 20
3.998968117100324
 30
0.0
 10
61.41063303371439
 20
4.001592255200324
 30
0.0
 10
61.40188642404439
 20
4.004047257410324
 30
0.0
 10
61.39350803696439
 20
4.006342959680325
 30
0.0
 10
61.38547756366438
 20
4.008493734660323
 30
0.0
 10
61.37779404054439
 20
4.010507796510325
 30
0.0
 10
61.3705468928344
 20
4.012370504530324
 30
0.0
 10
61.3658653734544
 20
4.013556647020325
 30
0.0
 10
61.36362972877438
 20
4.014120568570323
 30
0.0
  0
LINE
  5
E5
330
1F
100
AcDbEntity
  8
DEFAULT
 62
     7
100
AcDbLine
 10
57.37557038090438
 20
2.390216295180324
 30
0.0
 11
57.37362190485439
 21
2.549055878340325
 31
0.0
  0
SPLINE
  5
E6
330
1F
100
AcDbEntity
  8
DEFAULT
 62
     7
100
AcDbSpline
210
0.0
220
0.0
230
1.0
 70
     8
 71
     3
 72
    65
 73
    61
 74
     0
 42
0.0000000001
 43
0.0000000001
 40
0.0
 40
0.0
 40
0.0
 40
0.0
 40
0.008156941925981
 40
0.0198250715879
 40
0.03225997358311
 40
0.04527592954765
 40
0.05883823179759
 40
0.07288464904733
 40
0.08736709490472
 40
0.1022785089298
 40
0.1176205541276
 40
0.133394497306
 40
0.1496034472286
 40
0.1662478659738
 40
0.1833281248042
 40
0.200842300186
 40
0.2187865599814
 40
0.2371559461643
 40
0.2559469680501
 40
0.2751787301615
 40
0.2948906592143
 40
0.3151229119213
 40
0.3359167218045
 40
0.3573140845606
 40
0.3793570957878
 40
0.4020710771097
 40
0.4253403329418
 40
0.4489832512566
 40
0.472819469139
 40
0.4966704022466
 40
0.520359184173
 40
0.5437378433717
 40
0.5667669625627
 40
0.5894335443518
 40
0.6117264273734
 40
0.6336280327257
 40
0.6551186635163
 40
0.676188605604
 40
0.6968352412021001
 40
0.7170417938662
 40
0.7367982448057
 40
0.7560930066346
 40
0.7749068834825
 40
0.7932261552107
 40
0.8110349611146001
 40
0.8282751159948
 40
0.8448811259279
 40
0.8608014471978001
 40
0.8759890041758
 40
0.8904319321692
 40
0.904163173865
 40
0.9172194125678
 40
0.9296310885914
 40
0.9414298774254
 40
0.9526459650573
 40
0.96330307307
 40
0.9734189985078
 40
0.9830123492296
 40
0.992066022349
 40
1.0
 40
1.0
 40
1.0
 40
1.0
 10
57.37362157656438
 20
2.549058664350325
 30
0.0
 10
57.37354705455439
 20
2.553590699940325
 30
0.0
 10
57.37317567176439
 20
2.564603267170325
 30
0.0
 10
57.37207973291439
 20
2.582496422110325
 30
0.0
 10
57.37049279252437
 20
2.603061656330324
 30
0.0
 10
57.36853152140438
 20
2.624651515070325
 30
0.0
 10
57.36623784717438
 20
2.647108696770325
 30
0.0
 10
57.36365685662437
 20
2.670354645250324
 30
0.0
 10
57.3607992369044
 20
2.694323322880325
 30
0.0
 10
57.35767266200438
 20
2.718984243130324
 30
0.0
 10
57.35427787382437
 20
2.744333887820325
 30
0.0
 10
57.35061565061437
 20
2.770374559980324
 30
0.0
 10
57.34667901853439
 20
2.797106873980324
 30
0.0
 10
57.34245849828437
 20
2.824530496350324
 30
0.0
 10
57.33794580949439
 20
2.852642358400324
 30
0.0
 10
57.33313328115438
 20
2.881437006260324
 30
0.0
 10
57.32800838199438
 20
2.910905063270324
 30
0.0
 10
57.32255794931439
 20
2.941035957570325
 30
0.0
 10
57.31676687608439
 20
2.971831517280324
 30
0.0
 10
57.31061199755439
 20
3.003316936210324
 30
0.0
 10
57.30405817887439
 20
3.035539443320325
 30
0.0
 10
57.29706547565439
 20
3.068557364340324
 30
0.0
 10
57.28958962553438
 20
3.102429044250324
 30
0.0
 10
57.28157925494438
 20
3.137211703790325
 30
0.0
 10
57.27297943066438
 20
3.172951794850324
 30
0.0
 10
57.26375353288438
 20
3.209609099090324
 30
0.0
 10
57.25387496329438
 20
3.247016399350324
 30
0.0
 10
57.24334702009438
 20
3.284894020000325
 30
0.0
 10
57.23219407560438
 20
3.322929524800325
 30
0.0
 10
57.22045444674438
 20
3.360814983240325
 30
0.0
 10
57.20817848976438
 20
3.398262776000325
 30
0.0
 10
57.19541149765439
 20
3.435063267570325
 30
0.0
 10
57.18215202095439
 20
3.471084942840325
 30
0.0
 10
57.1683817029344
 20
3.506267685900325
 30
0.0
 10
57.1540872074844
 20
3.540563395390324
 30
0.0
 10
57.13924779263439
 20
3.573913476530324
 30
0.0
 10
57.12384883653439
 20
3.606258416160325
 30
0.0
 10
57.10788306518438
 20
3.637547053390325
 30
0.0
 10
57.09134078393439
 20
3.667724289000324
 30
0.0
 10
57.07421465693437
 20
3.696730427940324
 30
0.0
 10
57.05650656956439
 20
3.724498981800324
 30
0.0
 10
57.03823529803438
 20
3.750965748690325
 30
0.0
 10
57.01945080190438
 20
3.776080782150324
 30
0.0
 10
57.00020598097439
 20
3.799791274980324
 30
0.0
 10
56.98056794423439
 20
3.822023682530324
 30
0.0
 10
56.96066604651438
 20
3.842717924330325
 30
0.0
 10
56.94067922808438
 20
3.861840489610325
 30
0.0
 10
56.92078405475439
 20
3.879376114950324
 30
0.0
 10
56.90113954779437
 20
3.895346796360324
 30
0.0
 10
56.88187456022439
 20
3.909826791740324
 30
0.0
 10
56.86307779833439
 20
3.922932817610324
 30
0.0
 10
56.84480363089438
 20
3.934792497530325
 30
0.0
 10
56.82709297448437
 20
3.945528733670324
 30
0.0
 10
56.80997687934439
 20
3.955257140840324
 30
0.0
 10
56.79347474389439
 20
3.964079090130325
 30
0.0
 10
56.77760200948438
 20
3.972083386550324
 30
0.0
 10
56.7623720164944
 20
3.979349977050325
 30
0.0
 10
56.74781239488439
 20
3.985944604960324
 30
0.0
 10
56.73425045844439
 20
3.991796916490325
 30
0.0
 10
56.72552700157439
 20
3.995403957140324
 30
0.0
 10
56.72144177951438
 20
3.997061364240324
 30
0.0
  0
LINE
  5
E7
330
1F
100
AcDbEntity
  8
DEFAULT
 62
     7
100
AcDbLine
 10
40.59514384861439
 20
2.549060143370325
 30
0.0
 11
40.59319919369438
 21
2.390216295150325
 31
0.0
  0
SPLINE
  5
E8
330
1F
100
AcDbEntity
  8
DEFAULT
 62
     7
100
AcDbSpline
210
0.0
220
0.0
230
1.0
 70
     8
 71
     3
 72
    59
 73
    55
 74
     0
 42
0.0000000001
 43
0.0000000001
 40
0.0
 40
0.0
 40
0.0
 40
0.0
 40
0.007751187173448
 40
0.01669379274936
 40
0.02617351136554
 40
0.03619033795495
 40
0.04675127243981
 40
0.05785554197269
 40
0.06952173136711
 40
0.08178027428012
 40
0.09466575483735
 40
0.1082080309439
 40
0.1224433045011
 40
0.1374050139956
 40
0.153088191473
 40
0.1694529653849
 40
0.1864573015309
 40
0.20404660603
 40
0.2221583731737
 40
0.2407637082357
 40
0.25983939412
 40
0.2793566108723
 40
0.299289583864
 40
0.3196158738107
 40
0.3403059632037
 40
0.36134902577
 40
0.3827829741768
 40
0.4046470355762
 40
0.4269780533501
 40
0.4498102582819
 40
0.4731749185686
 40
0.4971052081822
 40
0.5216410831986
 40
0.5468115903456
 40
0.5726439887546
 40
0.5991638366664001
 40
0.6263913511173
 40
0.6541799509642
 40
0.6821387567089
 40
0.7098551076853
 40
0.7369149064885
 40
0.7629080965236
 40
0.7876780324004
 40
0.8113855811645
 40
0.8342129359316
 40
0.8563183624037
 40
0.8777020543224
 40
0.898307681524
 40
0.918080575734
 40
0.936973933059
 40
0.9549401365994999
 40
0.9719416179517
 40
0.9878858746701
 40
1.0
 40
1.0
 40
1.0
 40
1.0
 10
41.24723503368438
 20
3.997043160710325
 30
0.0
 10
41.24324407322438
 20
3.995424089250325
 30
0.0
 10
41.23467169037439
 20
3.991880110180324
 30
0.0
 10
41.22131672207438
 20
3.986121359300324
 30
0.0
 10
41.20691795007439
 20
3.979609488820325
 30
0.0
 10
41.19183731482439
 20
3.972430294980324
 30
0.0
 10
41.17610862867439
 20
3.964521173240325
 30
0.0
 10
41.15976207830439
 20
3.955811515200324
 30
0.0
 10
41.14282249507439
 20
3.946221577940325
 30
0.0
 10
41.12530742211438
 20
3.935654081550324
 30
0.0
 10
41.10724325758438
 20
3.923996460690324
 30
0.0
 10
41.08866635755438
 20
3.911128608090325
 30
0.0
 10
41.06962719559439
 20
3.896926255500324
 30
0.0
 10
41.05020648017439
 20
3.881273590780325
 30
0.0
 10
41.03052383312438
 20
3.864091280300324
 30
0.0
 10
41.01072550576439
 20
3.845348476200325
 30
0.0
 10
40.99097590269438
 20
3.825047594110324
 30
0.0
 10
40.97144653759438
 20
3.803213376010325
 30
0.0
 10
40.95227938400439
 20
3.779897234410325
 30
0.0
 10
40.93355371963438
 20
3.755181444060325
 30
0.0
 10
40.91533339791439
 20
3.729132289820325
 30
0.0
 10
40.89767800891439
 20
3.701814931410324
 30
0.0
 10
40.88061829413439
 20
3.673309658040325
 30
0.0
 10
40.86415938244439
 20
3.643706312210324
 30
0.0
 10
40.84829584219438
 20
3.613084148670325
 30
0.0
 10
40.83300243907438
 20
3.581488676310324
 30
0.0
 10
40.81825603233438
 20
3.548917224220324
 30
0.0
 10
40.80401881873438
 20
3.515341716060324
 30
0.0
 10
40.79025356475439
 20
3.480732838070324
 30
0.0
 10
40.77692223870438
 20
3.445063364090324
 30
0.0
 10
40.76398570623439
 20
3.408305825450324
 30
0.0
 10
40.75139436089439
 20
3.370429995570325
 30
0.0
 10
40.73913443725439
 20
3.331392647110324
 30
0.0
 10
40.72720155372439
 20
3.291150577240325
 30
0.0
 10
40.71558767178438
 20
3.249669470480324
 30
0.0
 10
40.70428342911439
 20
3.206919732600325
 30
0.0
 10
40.69329376942438
 20
3.162966947660325
 30
0.0
 10
40.68267958479438
 20
3.118100039350324
 30
0.0
 10
40.67256161144439
 20
3.072840351680324
 30
0.0
 10
40.66305784257438
 20
3.027861670410325
 30
0.0
 10
40.65426367529438
 20
2.983852276470325
 30
0.0
 10
40.64621965198439
 20
2.941364912930324
 30
0.0
 10
40.63890505905439
 20
2.900637141360325
 30
0.0
 10
40.63225309609438
 20
2.861579280490324
 30
0.0
 10
40.62617299068439
 20
2.823927321480325
 30
0.0
 10
40.62061253411438
 20
2.787500788830324
 30
0.0
 10
40.61554572308439
 20
2.752249057630325
 30
0.0
 10
40.61096353890438
 20
2.718238389240325
 30
0.0
 10
40.60686304412439
 20
2.685560403250325
 30
0.0
 10
40.60326278081438
 20
2.654299151020324
 30
0.0
 10
40.60021481503438
 20
2.624526555240325
 30
0.0
 10
40.59769382782438
 20
2.596349904010325
 30
0.0
 10
40.59584555192439
 20
2.571378901040325
 30
0.0
 10
40.59525400724439
 20
2.555794067080325
 30
0.0
 10
40.59514382724438
 20
2.549063651980325
 30
0.0
  0
LINE
  5
E9
330
1F
100
AcDbEntity
  8
DEFAULT
 62
     7
100
AcDbLine
 10
35.87929799737439
 20
2.511495938150324
 30
0.0
 11
35.87064470720438
 21
2.390216298570325
 31
0.0
  0
SPLINE
  5
EA
330
1F
100
AcDbEntity
  8
DEFAULT
 62
     7
100
AcDbSpline
210
0.0
220
0.0
230
1.0
 70
     8
 71
     3
 72
    95
 73
    91
 74
     0
 42
0.0000000001
 43
0.0000000001
 40
0.0
 40
0.0
 40
0.0
 40
0.0
 40
0.003822642185407
 40
0.007991453747519
 40
0.01237378862307
 40
0.01694174041893
 40
0.02172043050196
 40
0.02671747427205
 40
0.03193904116052
 40
0.03738352036983
 40
0.0430316705769
 40
0.04886978651632
 40
0.05488363135753
 40
0.06105457324772
 40
0.06736683956713
 40
0.07380671860702
 40
0.08036103037759
 40
0.08701629026811
 40
0.0937585716515
 40
0.1005740502854
 40
0.107459713987
 40
0.1144191300478
 40
0.1214564038761
 40
0.128575920114
 40
0.1357811039593
 40
0.14307504593
 40
0.1504609853397
 40
0.1579422907178
 40
0.1655224660708
 40
0.1732051747393
 40
0.1809942739185
 40
0.1888938493209
 40
0.1969075687394
 40
0.2050369013368
 40
0.2132853021164
 40
0.2216646473708
 40
0.230187443446
 40
0.2388663361964
 40
0.247714161287
 40
0.2567439856981
 40
0.2659644925581
 40
0.2753738063882
 40
0.2849685986321
 40
0.2947449156311
 40
0.3046980979454
 40
0.3148227102465
 40
0.3251124776574
 40
0.3355614509012
 40
0.3461668697425
 40
0.3569278235291
 40
0.3678525944126
 40
0.3789514866468
 40
0.3902335198238
 40
0.4017074254415
 40
0.4133861625523
 40
0.425283727455
 40
0.4374136719864
 40
0.4497848195716
 40
0.4623987368821
 40
0.4752585865492
 40
0.4883669447294
 40
0.5017256882681001
 40
0.5153358898314
 40
0.5291977282796
 40
0.5433126320621
 40
0.5576834690244
 40
0.572312513348
 40
0.5872017451486
 40
0.6023527778387
 40
0.6177667771448
 40
0.6334443710776
 40
0.6493855501556
 40
0.6655902429705
 40
0.6820700692951
 40
0.6988461607237
 40
0.7159392572438
 40
0.7333693101463
 40
0.7511555142289
 40
0.7693161020372
 40
0.7878676800346
 40
0.8068311946191
 40
0.8262450451932
 40
0.8461490773964
 40
0.8665800765285
 40
0.8875704391917
 40
0.9091628584444
 40
0.9314115187427
 40
0.954308963757
 40
0.9778345642042
 40
1.0
 40
1.0
 40
1.0
 40
1.0
 10
36.60509830323438
 20
4.014120795970325
 30
0.0
 10
36.60285765479438
 20
4.013555642720323
 30
0.0
 10
36.59817470165438
 20
4.012369181950325
 30
0.0
 10
36.59093007550438
 20
4.010507145340323
 30
0.0
 10
36.58325858527439
 20
4.008496302290324
 30
0.0
 10
36.57524176250438
 20
4.006349316560325
 30
0.0
 10
36.56687900539439
 20
4.004058124240324
 30
0.0
 10
36.55815015861439
 20
4.001608458910324
 30
0.0
 10
36.54905072234438
 20
3.998990480730325
 30
0.0
 10
36.53959216555439
 20
3.996197976560325
 30
0.0
 10
36.52979786865439
 20
3.993227319790324
 30
0.0
 10
36.51969875648438
 20
3.990076882220324
 30
0.0
 10
36.50932561888438
 20
3.986744869140324
 30
0.0
 10
36.49871054041439
 20
3.983230219380325
 30
0.0
 10
36.48788570958438
 20
3.979531274200325
 30
0.0
 10
36.47688060791439
 20
3.975644954620324
 30
0.0
 10
36.46572362668439
 20
3.971568050720324
 30
0.0
 10
36.45444349149438
 20
3.967297791830325
 30
0.0
 10
36.44306945582438
 20
3.962832126890325
 30
0.0
 10
36.43162500838438
 20
3.958167399890325
 30
0.0
 10
36.42012407620438
 20
3.953296438110325
 30
0.0
 10
36.40857106190439
 20
3.948207829590324
 30
0.0
 10
36.39696695917439
 20
3.942887929710324
 30
0.0
 10
36.38531356433439
 20
3.937322719800325
 30
0.0
 10
36.37361457276439
 20
3.931496910270325
 30
0.0
 10
36.36187544134439
 20
3.925394704280324
 30
0.0
 10
36.35010278680438
 20
3.918999738190325
 30
0.0
 10
36.33830427880438
 20
3.912294893040324
 30
0.0
 10
36.32648875189438
 20
3.905262316520324
 30
0.0
 10
36.31466630894439
 20
3.897883415220325
 30
0.0
 10
36.30284839700439
 20
3.890138893300325
 30
0.0
 10
36.29104828263439
 20
3.882008903810324
 30
0.0
 10
36.27928214969439
 20
3.873474420020325
 30
0.0
 10
36.26756248561438
 20
3.864524263430325
 30
0.0
 10
36.25589937223439
 20
3.855143551190324
 30
0.0
 10
36.24429962188439
 20
3.845312402480325
 30
0.0
 10
36.23276843643439
 20
3.835005954500325
 30
0.0
 10
36.22131373409439
 20
3.824197379620325
 30
0.0
 10
36.20994657507439
 20
3.812858221480325
 30
0.0
 10
36.19868393112439
 20
3.800959929790324
 30
0.0
 10
36.18755120465439
 20
3.788481197910324
 30
0.0
 10
36.17656655835439
 20
3.775422409860325
 30
0.0
 10
36.16575340448438
 20
3.761789731480324
 30
0.0
 10
36.15513483862438
 20
3.747592225150325
 30
0.0
 10
36.14473368948439
 20
3.732841032990324
 30
0.0
 10
36.13457232561438
 20
3.717549590780325
 30
0.0
 10
36.12467275705439
 20
3.701732682200325
 30
0.0
 10
36.11505374404438
 20
3.685405457520324
 30
0.0
 10
36.10571979678438
 20
3.668587276050325
 30
0.0
 10
36.09666944928438
 20
3.651289681950324
 30
0.0
 10
36.08789560488439
 20
3.633517078790325
 30
0.0
 10
36.07938745495438
 20
3.615267767460324
 30
0.0
 10
36.07113346162439
 20
3.596538926340325
 30
0.0
 10
36.06311960851439
 20
3.577325842890325
 30
0.0
 10
36.05534048567439
 20
3.557616001390324
 30
0.0
 10
36.04779065719439
 20
3.537393397420324
 30
0.0
 10
36.04046463876438
 20
3.516644287810325
 30
0.0
 10
36.03335854775438
 20
3.495361868330325
 30
0.0
 10
36.02646874880438
 20
3.473545364750324
 30
0.0
 10
36.01979055081439
 20
3.451197723340324
 30
0.0
 10
36.01331677831438
 20
3.428321805110324
 30
0.0
 10
36.00703791259439
 20
3.404921758590325
 30
0.0
 10
36.00094212140439
 20
3.381003121810324
 30
0.0
 10
35.99501368702439
 20
3.356571935710325
 30
0.0
 10
35.98923629377439
 20
3.331632423470325
 30
0.0
 10
35.98361166253438
 20
3.306182842920324
 30
0.0
 10
35.97813824623439
 20
3.280221774680325
 30
0.0
 10
35.97281375158439
 20
3.253748530120325
 30
0.0
 10
35.96763426611438
 20
3.226763235700324
 30
0.0
 10
35.96259431715439
 20
3.199266915330324
 30
0.0
 10
35.95768648436438
 20
3.171261685480325
 30
0.0
 10
35.95290170705439
 20
3.142750430170324
 30
0.0
 10
35.94822564747438
 20
3.113729862290324
 30
0.0
 10
35.94364741444438
 20
3.084182873540325
 30
0.0
 10
35.93916392924438
 20
3.054078285890324
 30
0.0
 10
35.93476902188439
 20
3.023380260810324
 30
0.0
 10
35.93045707486439
 20
2.992053989680324
 30
0.0
 10
35.92622033471438
 20
2.960066413630325
 30
0.0
 10
35.92204954045439
 20
2.927386601610325
 30
0.0
 10
35.91793255589439
 20
2.893982789000325
 30
0.0
 10
35.91385719794439
 20
2.859810779070325
 30
0.0
 10
35.90982108354438
 20
2.824810991620325
 30
0.0
 10
35.90581898859438
 20
2.788914557670325
 30
0.0
 10
35.90184670102439
 20
2.752056132050325
 30
0.0
 10
35.89790135565439
 20
2.714168499370324
 30
0.0
 10
35.89397724809438
 20
2.675174153480324
 30
0.0
 10
35.89007641352439
 20
2.635019051850325
 30
0.0
 10
35.88622391684438
 20
2.593685299230325
 30
0.0
 10
35.88256494933439
 20
2.552384847020325
 30
0.0
 10
35.88028238342438
 20
2.524857662690325
 30
0.0
 10
35.87929782976439
 20
2.511494694550324
 30
0.0
  0
LINE
  5
EB
330
1F
100
AcDbEntity
  8
DEFAULT
 62
     7
100
AcDbLine
 10
50.01916973406438
 20
6.731832973807324
 30
0.0
 11
50.00058135710439
 21
6.742508774877324
 31
0.0
  0
ARC
  5
EC
330
1F
100
AcDbEntity
  8
DEFAULT
 62
     7
100
AcDbCircle
 10
50.67970006000498
 20
7.252828884974974
 30
0.0
 40
0.523698458361104
100
AcDbArc
 50
192.5263535100464
 51
256.7061563088407
  0
ARC
  5
ED
330
1F
100
AcDbEntity
  8
DEFAULT
 62
     7
100
AcDbCircle
 10
47.28826936608991
 20
7.254101235095082
 30
0.0
 40
0.525110932709749
100
AcDbArc
 50
283.3422344973994
 51
346.9677758452431
  0
ARC
  5
EE
330
1F
100
AcDbEntity
  8
DEFAULT
 62
     7
100
AcDbCircle
 10
47.90599163398894
 20
7.127139022741385
 30
0.0
 40
0.106442422091695
100
AcDbArc
 50
173.0634336632727
 51
174.5956524175746
  0
SPLINE
  5
EF
330
1F
100
AcDbEntity
  8
DEFAULT
 62
     7
100
AcDbSpline
210
0.0
220
0.0
230
1.0
 70
     8
 71
     3
 72
    12
 73
     8
 74
     0
 42
0.0000000001
 43
0.0000000001
 40
0.0
 40
0.0
 40
0.0
 40
0.0
 40
0.07803513967923
 40
0.1256495265894
 40
0.3142229865109
 40
0.6346521068077
 40
1.0
 40
1.0
 40
1.0
 40
1.0
 10
47.96710831712438
 20
6.741444724556324
 30
0.0
 10
47.96775106959438
 20
6.742086928272324
 30
0.0
 10
47.96859295818438
 20
6.742926563984325
 30
0.0
 10
47.96608950487438
 20
6.740763509251325
 30
0.0
 10
47.96308860996438
 20
6.738798315323324
 30
0.0
 10
47.95695705772439
 20
6.735087991846324
 30
0.0
 10
47.95221040022438
 20
6.732914477479325
 30
0.0
 10
47.94960542749438
 20
6.731853461441324
 30
0.0
  0
LINE
  5
F0
330
1F
100
AcDbEntity
  8
DEFAULT
 62
     7
100
AcDbLine
 10
41.83303461657439
 20
41.00335435163032
 30
0.0
 11
41.77525295129438
 21
41.00519893876032
 31
0.0
  0
ARC
  5
F1
330
1F
100
AcDbEntity
  8
DEFAULT
 62
     7
100
AcDbCircle
 10
41.79225834270071
 20
23.92354817888579
 30
0.0
 40
0.1708809270678706
100
AcDbArc
 50
141.3937947317392
 51
203.1090942930731
  0
ARC
  5
F2
330
1F
100
AcDbEntity
  8
DEFAULT
 62
     7
100
AcDbCircle
 10
41.79228996079229
 20
23.92348092879101
 30
0.0
 40
0.1709475999224277
100
AcDbArc
 50
113.2503479278898
 51
141.3827931764402
  0
ARC
  5
F3
330
1F
100
AcDbEntity
  8
DEFAULT
 62
     7
100
AcDbCircle
 10
39.61311765446204
 20
39.94355679600655
 30
0.0
 40
0.9404818793743868
100
AcDbArc
 50
6.586507291205495
 51
21.59650966970166
  0
LINE
  5
F4
330
1F
100
AcDbEntity
  8
DEFAULT
 62
     7
100
AcDbLine
 10
40.44641642564438
 20
40.38130601491032
 30
0.0
 11
40.47664328851439
 21
40.31636201776033
 31
0.0
  0
ARC
  5
F5
330
1F
100
AcDbEntity
  8
DEFAULT
 62
     7
100
AcDbCircle
 10
20.86400198460401
 20
38.79495015085777
 30
0.0
 40
26.43872412442663
100
AcDbArc
 50
332.7818991503648
 51
333.8217583558138
  0
LINE
  5
F6
330
1F
100
AcDbEntity
  8
DEFAULT
 62
     7
100
AcDbLine
 10
41.73892738738439
 20
22.66157167250733
 30
0.0
 11
41.70933240111439
 21
22.59978468460933
 31
0.0
  0
LINE
  5
F7
330
1F
100
AcDbEntity
  8
DEFAULT
 62
     7
100
AcDbLine
 10
41.76402940018439
 20
22.72302922523133
 30
0.0
 11
41.74584261545439
 21
22.67747087230633
 31
0.0
  0
LINE
  5
F8
330
1F
100
AcDbEntity
  8
DEFAULT
 62
     7
100
AcDbLine
 10
41.78456041982438
 20
22.78405418906233
 30
0.0
 11
41.77028583476439
 21
22.74030634909133
 31
0.0
  0
LINE
  5
F9
330
1F
100
AcDbEntity
  8
DEFAULT
 62
     7
100
AcDbLine
 10
41.80089026211439
 20
22.84525490356833
 30
0.0
 11
41.78826444755439
 21
22.79665502113733
 31
0.0
  0
ARC
  5
FA
330
1F
100
AcDbEntity
  8
DEFAULT
 62
     7
100
AcDbCircle
 10
40.82583443513065
 20
23.07159056835557
 30
0.0
 40
1.000994377204505
100
AcDbArc
 50
347.9724005718277
 51
356.7492085729228
  0
ARC
  5
FB
330
1F
100
AcDbEntity
  8
DEFAULT
 62
     7
100
AcDbCircle
 10
39.93700760772472
 20
23.03056719601899
 30
0.0
 40
1.888282765003475
100
AcDbArc
 50
359.5223993397038
 51
25.9373692556238
  0
LINE
  5
FC
330
1F
100
AcDbEntity
  8
DEFAULT
 62
     7
100
AcDbLine
 10
41.82027089995439
 20
24.16357131301333
 30
0.0
 11
41.79179155188438
 21
24.13591718389433
 31
0.0
  0
SPLINE
  5
FD
330
1F
100
AcDbEntity
  8
DEFAULT
 62
     7
100
AcDbSpline
210
0.0
220
0.0
230
1.0
 70
     8
 71
     3
 72
    75
 73
    71
 74
     0
 42
0.0000000001
 43
0.0000000001
 40
0.0
 40
0.0
 40
0.0
 40
0.0
 40
0.008386141070406
 40
0.03335712651518
 40
0.05804200645758
 40
0.08243911091958
 40
0.1065472990427
 40
0.1303655634103
 40
0.1538930237375
 40
0.1771289206741
 40
0.2000726097184
 40
0.2227235940691
 40
0.2450812807032
 40
0.2671444502277
 40
0.2889119484904
 40
0.3103827536008
 40
0.3315560179493
 40
0.3524303312186
 40
0.3730036015628
 40
0.3932738464172
 40
0.4132392053808
 40
0.4328979329922
 40
0.4522483915633
 40
0.4712890440581
 40
0.4900184470058
 40
0.5084352434315
 40
0.5265381557893
 40
0.5443259788816
 40
0.561797572742
 40
0.578952140833
 40
0.5957893505325
 40
0.6123077141929
 40
0.6285057402488
 40
0.6443820223261
 40
0.6599352318896
 40
0.6751641107444
 40
0.690067463348
 40
0.7046441397576
 40
0.7188926946888
 40
0.7328113946922
 40
0.7463985759877
 40
0.7596527337497
 40
0.7725740977887
 40
0.7851632507591
 40
0.7974205479752
 40
0.8093463925783
 40
0.820941229825
 40
0.8322055407184
 40
0.8431398348756
 40
0.8537446425005
 40
0.8640205053075
 40
0.8739679662007001
 40
0.8835875574716
 40
0.8928797923549
 40
0.9018472161397
 40
0.9104944298943
 40
0.9188254068532
 40
0.9268440413345001
 40
0.9345541406994
 40
0.9419594158756
 40
0.9490634701721
 40
0.9558697860384
 40
0.9623817093266001
 40
0.9686024304906
 40
0.9745349619893
 40
0.9801821109407
 40
0.9855464457754
 40
0.9906329341519
 40
0.9954490366205
 40
1.0
 40
1.0
 40
1.0
 40
1.0
 10
43.47119090450439
 20
26.63808976507033
 30
0.0
 10
43.46703383751439
 20
26.63087062192033
 30
0.0
 10
43.45048986644438
 20
26.60216036554033
 30
0.0
 10
43.42164739455439
 20
26.55223609911033
 30
0.0
 10
43.38474780214438
 20
26.48859854841033
 30
0.0
 10
43.34817448544438
 20
26.42576265309033
 30
0.0
 10
43.31193012917438
 20
26.36373147295032
 30
0.0
 10
43.27601641412438
 20
26.30250774921032
 30
0.0
 10
43.24043500406439
 20
26.24209380262033
 30
0.0
 10
43.20518734805439
 20
26.18249166949033
 30
0.0
 10
43.17027472345439
 20
26.12370305360033
 30
0.0
 10
43.13569833121438
 20
26.06572952069033
 30
0.0
 10
43.10145967748438
 20
26.00857312870032
 30
0.0
 10
43.06756062617439
 20
25.95223649213033
 30
0.0
 10
43.03400327519439
 20
25.89672259222033
 30
0.0
 10
43.00078960228438
 20
25.84203406165033
 30
0.0
 10
42.96792159169439
 20
25.78817383899233
 30
0.0
 10
42.93540290230438
 20
25.73514509600833
 30
0.0
 10
42.90323804160439
 20
25.68295180835833
 30
0.0
 10
42.87143159692439
 20
25.63159842986132
 30
0.0
 10
42.83998793114439
 20
25.58108915250233
 30
0.0
 10
42.80891115691438
 20
25.53142792537632
 30
0.0
 10
42.77820515671439
 20
25.48261846897333
 30
0.0
 10
42.74787359346438
 20
25.43466429511433
 30
0.0
 10
42.71791992454438
 20
25.38756872481332
 30
0.0
 10
42.68834741241438
 20
25.34133490827333
 30
0.0
 10
42.65915914580439
 20
25.29596583814132
 30
0.0
 10
42.63035802436439
 20
25.25146438690333
 30
0.0
 10
42.60194672222439
 20
25.20783301915433
 30
0.0
 10
42.57392709387438
 20
25.16507371911433
 30
0.0
 10
42.54630277704438
 20
25.12318773353433
 30
0.0
 10
42.51907860541439
 20
25.08217634653932
 30
0.0
 10
42.49225977039439
 20
25.04204188053032
 30
0.0
 10
42.46585140599438
 20
25.00278650499233
 30
0.0
 10
42.43985848453439
 20
24.96441221795933
 30
0.0
 10
42.41428584809439
 20
24.92692085343333
 30
0.0
 10
42.38913822428439
 20
24.89031411069733
 30
0.0
 10
42.36442043525438
 20
24.85459385296432
 30
0.0
 10
42.34013760735439
 20
24.81976238766933
 30
0.0
 10
42.31629515989439
 20
24.78582244693433
 30
0.0
 10
42.29289859631438
 20
24.75277678410933
 30
0.0
 10
42.26995220014438
 20
24.72062663718533
 30
0.0
 10
42.24745939138439
 20
24.68937113234233
 30
0.0
 10
42.22542365515438
 20
24.65900707305433
 30
0.0
 10
42.20384826333439
 20
24.62953119301433
 30
0.0
 10
42.18273666276439
 20
24.60094025890933
 30
0.0
 10
42.16209226980438
 20
24.57323089536733
 30
0.0
 10
42.14191849488439
 20
24.54639959060632
 30
0.0
 10
42.12221875171438
 20
24.52044271589333
 30
0.0
 10
42.10299647265439
 20
24.49535654393233
 30
0.0
 10
42.08425512588439
 20
24.47113726999133
 30
0.0
 10
42.06599823441439
 20
24.44778103636132
 30
0.0
 10
42.04822940042438
 20
24.42528395225233
 30
0.0
 10
42.03095103571439
 20
24.40364052522833
 30
0.0
 10
42.01416307750439
 20
24.38284206428733
 30
0.0
 10
41.99786445010438
 20
24.36287626452833
 30
0.0
 10
41.98205321981438
 20
24.34372975376033
 30
0.0
 10
41.96672797147439
 20
24.32538971796933
 30
0.0
 10
41.95188746830439
 20
24.30784349470833
 30
0.0
 10
41.93753067332438
 20
24.29107859056833
 30
0.0
 10
41.92365677231438
 20
24.27508270378133
 30
0.0
 10
41.91026520276439
 20
24.25984374994133
 30
0.0
 10
41.89735568953439
 20
24.24534989176633
 30
0.0
 10
41.88492828795439
 20
24.23158957477233
 30
0.0
 10
41.87298344051438
 20
24.21855156568433
 30
0.0
 10
41.86152203546438
 20
24.20622500956533
 30
0.0
 10
41.85054369428439
 20
24.19459752155732
 30
0.0
 10
41.84004474724438
 20
24.18365341690133
 30
0.0
 10
41.83002071704438
 20
24.17337402994133
 30
0.0
 10
41.82346851558439
 20
24.16676704824433
 30
0.0
 10
41.82027089995439
 20
24.16357131301333
 30
0.0
  0
LINE
  5
FE
330
1F
100
AcDbEntity
  8
DEFAULT
 62
     7
100
AcDbLine
 10
43.48370162881438
 20
26.65983130718033
 30
0.0
 11
43.47119090450439
 21
26.63808976507033
 31
0.0
  0
LINE
  5
FF
330
1F
100
AcDbEntity
  8
DEFAULT
 62
     7
100
AcDbLine
 10
43.61041490105439
 20
26.88219796953033
 30
0.0
 11
43.48370162881438
 21
26.65983130718033
 31
0.0
  0
SPLINE
  5
100
330
1F
100
AcDbEntity
  8
DEFAULT
 62
     7
100
AcDbSpline
210
0.0
220
0.0
230
1.0
 70
     8
 71
     3
 72
    63
 73
    59
 74
     0
 42
0.0000000001
 43
0.0000000001
 40
0.0
 40
0.0
 40
0.0
 40
0.0
 40
0.02351271584305
 40
0.04679331609485
 40
0.06984482317222
 40
0.09267052542766
 40
0.1152739801641
 40
0.1376590044975
 40
0.1598294808688
 40
0.1817859563952
 40
0.203526450872
 40
0.2250499236678
 40
0.2463644955707
 40
0.2674820499226
 40
0.2883995377186
 40
0.3091141714221
 40
0.3296188820979
 40
0.3499061589175
 40
0.3699707275542
 40
0.3898095852264
 40
0.4094220151458
 40
0.4288096849191
 40
0.4479746745287
 40
0.4669164979102
 40
0.4856351615654
 40
0.5041315151383
 40
0.5224073018344
 40
0.5404664219881
 40
0.5583190205527
 40
0.5759594765649
 40
0.5933898799247001
 40
0.6106177125588
 40
0.6276487883761001
 40
0.6444874619763999
 40
0.661137822784
 40
0.6776058543014
 40
0.6938969676381001
 40
0.7100155981845
 40
0.725965321745
 40
0.741748962708
 40
0.7573686942153
 40
0.7728259723245
 40
0.7881217539357001
 40
0.8032597662166
 40
0.8182439161505
 40
0.8330778158924
 40
0.8477648080418
 40
0.8623079896144
 40
0.8767085038348
 40
0.8909665136305
 40
0.9050837953016
 40
0.9190615362256001
 40
0.9328998655002
 40
0.9465987847143
 40
0.9601582791842001
 40
0.9735783266212
 40
0.9868589050459
 40
1.0
 40
1.0
 40
1.0
 40
1.0
 10
44.23940193331439
 20
32.59579032443033
 30
0.0
 10
44.25229869776438
 20
32.55072827159032
 30
0.0
 10
44.27769483152438
 20
32.46097167964032
 30
0.0
 10
44.31473460501439
 20
32.32675638518032
 30
0.0
 10
44.35048880244438
 20
32.19361031245032
 30
0.0
 10
44.38492106185438
 20
32.06151062515032
 30
0.0
 10
44.41799803723439
 20
31.93043474829033
 30
0.0
 10
44.44968547683438
 20
31.80035988463033
 30
0.0
 10
44.47996195411438
 20
31.67127357540032
 30
0.0
 10
44.50874852010438
 20
31.54316297558033
 30
0.0
 10
44.53591109105438
 20
31.41601628170033
 30
0.0
 10
44.56133614060439
 20
31.28981529053032
 30
0.0
 10
44.58491627634438
 20
31.16451940257032
 30
0.0
 10
44.60654729950438
 20
31.04009765501032
 30
0.0
 10
44.62612231069439
 20
30.91654602319033
 30
0.0
 10
44.64354058378438
 20
30.79390496719033
 30
0.0
 10
44.65865576723439
 20
30.67222358956033
 30
0.0
 10
44.67131349990438
 20
30.55156386143033
 30
0.0
 10
44.68137133300439
 20
30.43199041346033
 30
0.0
 10
44.68869314125438
 20
30.31356488978033
 30
0.0
 10
44.69315676912438
 20
30.19634611886033
 30
0.0
 10
44.69462909871438
 20
30.08039381458033
 30
0.0
 10
44.69307555209439
 20
29.96577925752033
 30
0.0
 10
44.68854831082438
 20
29.85257826077033
 30
0.0
 10
44.68108235415439
 20
29.74086861299033
 30
0.0
 10
44.67071609495438
 20
29.63072412726033
 30
0.0
 10
44.65749443529439
 20
29.52220974047033
 30
0.0
 10
44.64143305866438
 20
29.41537688531033
 30
0.0
 10
44.62270132734438
 20
29.31026755901032
 30
0.0
 10
44.60154691625439
 20
29.20689948919032
 30
0.0
 10
44.57819064900439
 20
29.10528542914033
 30
0.0
 10
44.55284294606438
 20
29.00540382298032
 30
0.0
 10
44.52569898756439
 20
28.90721976381033
 30
0.0
 10
44.49694469720439
 20
28.81069675589033
 30
0.0
 10
44.46674992081439
 20
28.71579264523033
 30
0.0
 10
44.43526048484439
 20
28.62246220904033
 30
0.0
 10
44.40261529847438
 20
28.53065463309033
 30
0.0
 10
44.36894592381439
 20
28.44032015022033
 30
0.0
 10
44.33437778017439
 20
28.35141084878033
 30
0.0
 10
44.29903070230439
 20
28.26388047263033
 30
0.0
 10
44.26301791131439
 20
28.17768526572032
 30
0.0
 10
44.22645184567438
 20
28.09278154819033
 30
0.0
 10
44.18941887491439
 20
28.00912976747032
 30
0.0
 10
44.15197283046438
 20
27.92669704898033
 30
0.0
 10
44.11416727562439
 20
27.84544316583033
 30
0.0
 10
44.07605149813438
 20
27.76532901839033
 30
0.0
 10
44.03767277931438
 20
27.68631675780032
 30
0.0
 10
43.99907758992439
 20
27.60837301978033
 30
0.0
 10
43.96031264772439
 20
27.53147014317033
 30
0.0
 10
43.92142348508438
 20
27.45558287819032
 30
0.0
 10
43.88245338386438
 20
27.38068600414033
 30
0.0
 10
43.84344328763438
 20
27.30675466328033
 30
0.0
 10
43.80443099380438
 20
27.23376885190033
 30
0.0
 10
43.76545377110438
 20
27.16171088328033
 30
0.0
 10
43.72654732171439
 20
27.09056364169033
 30
0.0
 10
43.68774579542438
 20
27.02031036338033
 30
0.0
 10
43.64908184081438
 20
26.95093462391032
 30
0.0
 10
43.62328218730439
 20
26.90501601261033
 30
0.0
 10
43.61041490105439
 20
26.88219796953033
 30
0.0
  0
LINE
  5
101
330
1F
100
AcDbEntity
  8
DEFAULT
 62
     7
100
AcDbLine
 10
44.22289804596438
 20
32.65318061391032
 30
0.0
 11
44.23940193331439
 21
32.59579032443033
 31
0.0
  0
SPLINE
  5
102
330
1F
100
AcDbEntity
  8
DEFAULT
 62
     7
100
AcDbSpline
210
0.0
220
0.0
230
1.0
 70
     8
 71
     3
 72
    58
 73
    54
 74
     0
 42
0.0000000001
 43
0.0000000001
 40
0.0
 40
0.0
 40
0.0
 40
0.0
 40
0.00166316561818
 40
0.006916450341355
 40
0.0126060717395
 40
0.01882070981931
 40
0.02568245250253
 40
0.033347883124
 40
0.04187513643819
 40
0.05141445400648
 40
0.06219979824312
 40
0.07439142375754
 40
0.08832122969338
 40
0.1054174399268
 40
0.1269742239378
 40
0.1526016309965
 40
0.1817073936082
 40
0.2122718152408
 40
0.2436879503128
 40
0.2744445038712
 40
0.3035917553978
 40
0.3312764182231
 40
0.3578170693691
 40
0.383552829907
 40
0.408815902991
 40
0.4337742031119
 40
0.4584362917194
 40
0.4828048594517
 40
0.5068827233519
 40
0.5306727824297
 40
0.5541780115148
 40
0.5774015353598
 40
0.6003464965992
 40
0.6230160835905
 40
0.6454135232891
 40
0.6675419605948
 40
0.6894046006401
 40
0.7110073419541
 40
0.7323565810116
 40
0.7534584966813001
 40
0.7743185735088
 40
0.794942182137
 40
0.8153347462339
 40
0.8355017425575
 40
0.8554487559064
 40
0.8751814755901
 40
0.8947056680555
 40
0.9140271741897
 40
0.9331511813047
 40
0.9520791773776
 40
0.9708142288197
 40
0.9893598780414
 40
1.0
 40
1.0
 40
1.0
 40
1.0
 10
40.80044015491439
 20
38.99321806343032
 30
0.0
 10
40.80467313889438
 20
38.99390573698032
 30
0.0
 10
40.82227734236438
 20
38.99676001711032
 30
0.0
 10
40.85437035910439
 20
39.00191776924032
 30
0.0
 10
40.89807230808439
 20
39.00880211757033
 30
0.0
 10
40.94589961590439
 20
39.01614929724032
 30
0.0
 10
40.99879950788438
 20
39.02402541051032
 30
0.0
 10
41.05764475278439
 20
39.03245867247033
 30
0.0
 10
41.12344736681438
 20
39.04099443375032
 30
0.0
 10
41.19746172225438
 20
39.04863449080033
 30
0.0
 10
41.28120147519439
 20
39.05359832271032
 30
0.0
 10
41.37647775138438
 20
39.05233007924032
 30
0.0
 10
41.48736894840439
 20
39.03707908050032
 30
0.0
 10
41.61642821947438
 20
38.99300481114032
 30
0.0
 10
41.76093533505439
 20
38.90795041070032
 30
0.0
 10
41.89509293266439
 20
38.76080292069032
 30
0.0
 10
42.01121439484438
 20
38.57362445431032
 30
0.0
 10
42.12016459165438
 20
38.36543649970032
 30
0.0
 10
42.22211938900438
 20
38.14909935264032
 30
0.0
 10
42.31789425412439
 20
37.93397855217032
 30
0.0
 10
42.40695962630438
 20
37.72643003810032
 30
0.0
 10
42.48996851917439
 20
37.52812419040032
 30
0.0
 10
42.56829967571438
 20
37.33740214775033
 30
0.0
 10
42.64324056060439
 20
37.15204161620032
 30
0.0
 10
42.71579914958439
 20
36.97012141342032
 30
0.0
 10
42.78658227778438
 20
36.79047556221032
 30
0.0
 10
42.85584096603439
 20
36.61270971049032
 30
0.0
 10
42.92365274018439
 20
36.43681788869032
 30
0.0
 10
42.99007485455439
 20
36.26280131358033
 30
0.0
 10
43.05515457072439
 20
36.09065615903032
 30
0.0
 10
43.11893703559438
 20
35.92037659038032
 30
0.0
 10
43.18145611683439
 20
35.75195159329032
 30
0.0
 10
43.24274724146438
 20
35.58536994295032
 30
0.0
 10
43.30283901161439
 20
35.42061742429033
 30
0.0
 10
43.36175512719438
 20
35.25767790765032
 30
0.0
 10
43.41951979453439
 20
35.09653530388032
 30
0.0
 10
43.47615901861439
 20
34.93716674979032
 30
0.0
 10
43.53170127507439
 20
34.77954126516032
 30
0.0
 10
43.58617695573438
 20
34.62362032620032
 30
0.0
 10
43.63961527074438
 20
34.46936602221032
 30
0.0
 10
43.69202366235438
 20
34.31673568082032
 30
0.0
 10
43.74341000759439
 20
34.16568895181032
 30
0.0
 10
43.79378204392439
 20
34.01618556042033
 30
0.0
 10
43.84315080708439
 20
33.86818582728032
 30
0.0
 10
43.89149996319438
 20
33.72164038108032
 30
0.0
 10
43.93881152373438
 20
33.57649893285033
 30
0.0
 10
43.98507057165438
 20
33.43271191978032
 30
0.0
 10
44.03026346375439
 20
33.29023197726032
 30
0.0
 10
44.07437406999438
 20
33.14902294003032
 30
0.0
 10
44.11737145637438
 20
33.00905203175032
 30
0.0
 10
44.15922646101439
 20
32.87029214955032
 30
0.0
 10
44.19426868012439
 20
32.75180053258032
 30
0.0
 10
44.21528245100439
 20
32.67953808796032
 30
0.0
 10
44.22289804596438
 20
32.65318061391032
 30
0.0
  0
ARC
  5
103
330
1F
100
AcDbEntity
  8
DEFAULT
 62
     7
100
AcDbCircle
 10
40.53073797104297
 20
39.12485543729742
 30
0.0
 40
0.1717601718258006
100
AcDbArc
 50
186.1706611043883
 51
275.5000266220924
  0
ARC
  5
104
330
1F
100
AcDbEntity
  8
DEFAULT
 62
     7
100
AcDbCircle
 10
41.82904078596101
 20
22.53804283848012
 30
0.0
 40
0.1346201018252265
100
AcDbArc
 50
156.9194765766636
 51
212.7567635503831
  0
LINE
  5
105
330
1F
100
AcDbEntity
  8
DEFAULT
 62
     7
100
AcDbLine
 10
40.75098594701438
 20
40.69671827747033
 30
0.0
 11
40.47870389198439
 21
40.60045303577032
 31
0.0
  0
ARC
  5
106
330
1F
100
AcDbEntity
  8
DEFAULT
 62
     7
100
AcDbCircle
 10
42.96599524654636
 20
35.70762364195015
 30
0.0
 40
5.458693202515537
100
AcDbArc
 50
104.9344542118135
 51
113.9397943710456
  0
LINE
  5
107
330
1F
100
AcDbEntity
  8
DEFAULT
 62
     7
100
AcDbLine
 10
40.41619361463439
 20
40.52173838769032
 30
0.0
 11
40.41187285876439
 21
40.50192282297032
 31
0.0
  0
LINE
  5
108
330
1F
100
AcDbEntity
  8
DEFAULT
 62
     7
100
AcDbLine
 10
40.42672013641438
 20
40.54717883619033
 30
0.0
 11
40.41619361463439
 21
40.52173838769032
 31
0.0
  0
ARC
  5
109
330
1F
100
AcDbEntity
  8
DEFAULT
 62
     7
100
AcDbCircle
 10
40.54612134784848
 20
40.48288587838604
 30
0.0
 40
0.1356105958808335
100
AcDbArc
 50
138.810672042996
 51
151.6992450519101
  0
LINE
  5
10A
330
1F
100
AcDbEntity
  8
DEFAULT
 62
     7
100
AcDbLine
 10
41.82845865486438
 20
41.00534840236033
 30
0.0
 11
41.77523401548438
 21
41.00520199162033
 31
0.0
  0
LINE
  5
10B
330
1F
100
AcDbEntity
  8
DEFAULT
 62
     7
100
AcDbLine
 10
41.60706385919439
 20
40.99052468037032
 30
0.0
 11
41.55923985211438
 21
40.98193937446033
 31
0.0
  0
ARC
  5
10C
330
1F
100
AcDbEntity
  8
DEFAULT
 62
     7
100
AcDbCircle
 10
41.79664414696732
 20
39.83006448140459
 30
0.0
 40
1.175843764662486
100
AcDbArc
 50
94.35258561158472
 51
99.27824753013242
  0
LINE
  5
10D
330
1F
100
AcDbEntity
  8
DEFAULT
 62
     7
100
AcDbLine
 10
41.77525295129438
 20
41.00519893876032
 30
0.0
 11
41.70740477350439
 21
41.00251699350032
 31
0.0
  0
LINE
  5
10E
330
1F
100
AcDbEntity
  8
DEFAULT
 62
     7
100
AcDbLine
 10
44.69165968529439
 20
27.33910121053033
 30
0.0
 11
44.59079960120439
 21
27.13110823713032
 31
0.0
  0
LINE
  5
10F
330
1F
100
AcDbEntity
  8
DEFAULT
 62
     7
100
AcDbLine
 10
44.76053928410439
 20
27.48446609570032
 30
0.0
 11
44.69165968529439
 21
27.33910121053033
 31
0.0
  0
LINE
  5
110
330
1F
100
AcDbEntity
  8
DEFAULT
 62
     7
100
AcDbLine
 10
44.78951258270438
 20
27.54650747669033
 30
0.0
 11
44.76053928410439
 21
27.48446609570032
 31
0.0
  0
ARC
  5
111
330
1F
100
AcDbEntity
  8
DEFAULT
 62
     7
100
AcDbCircle
 10
28.53231563822504
 20
35.11361321778591
 30
0.0
 40
17.93202244929785
100
AcDbArc
 50
335.06258986453
 51
336.7086532583944
  0
ARC
  5
112
330
1F
100
AcDbEntity
  8
DEFAULT
 62
     7
100
AcDbCircle
 10
33.03330413429056
 20
33.18703665867411
 30
0.0
 40
13.03605952140421
100
AcDbArc
 50
336.6640463445178
 51
339.0985436798131
  0
ARC
  5
113
330
1F
100
AcDbEntity
  8
DEFAULT
 62
     7
100
AcDbCircle
 10
42.53768344133405
 20
21.25108767967085
 30
0.0
 40
1.583429394165811
100
AcDbArc
 50
255.895575100502
 51
269.1826210506402
  0
LINE
  5
114
330
1F
100
AcDbEntity
  8
DEFAULT
 62
     7
100
AcDbLine
 10
44.40868354484439
 20
19.69455484471833
 30
0.0
 11
44.44358696492439
 21
19.70146262111533
 31
0.0
  0
ARC
  5
115
330
1F
100
AcDbEntity
  8
DEFAULT
 62
     7
100
AcDbCircle
 10
44.07491811054372
 20
21.5825402657227
 30
0.0
 40
1.917260627838319
100
AcDbArc
 50
276.1697023749461
 51
280.02538839976
  0
ARC
  5
116
330
1F
100
AcDbEntity
  8
DEFAULT
 62
     7
100
AcDbCircle
 10
43.87496674071837
 20
23.70557055319665
 30
0.0
 40
4.049590239188241
100
AcDbArc
 50
269.1927148933495
 51
275.7540634383761
  0
SPLINE
  5
117
330
1F
100
AcDbEntity
  8
DEFAULT
 62
     7
100
AcDbSpline
210
0.0
220
0.0
230
1.0
 70
     8
 71
     3
 72
    11
 73
     7
 74
     0
 42
0.0000000001
 43
0.0000000001
 40
0.0
 40
0.0
 40
0.0
 40
0.0
 40
0.1633547689154
 40
0.3997142331679
 40
0.692623760959
 40
1.0
 40
1.0
 40
1.0
 40
1.0
 10
44.44304022552438
 20
19.70141793854133
 30
0.0
 10
44.60081012394439
 20
19.73493653061033
 30
0.0
 10
44.99001246633439
 20
19.80247255886133
 30
0.0
 10
45.67030233798439
 20
19.87563983567032
 30
0.0
 10
46.49507009052439
 20
19.92507780235633
 30
0.0
 10
47.08751423538438
 20
19.94349481234333
 30
0.0
 10
47.39091745539438
 20
19.95062056074533
 30
0.0
  0
ARC
  5
118
330
1F
100
AcDbEntity
  8
DEFAULT
 62
     7
100
AcDbCircle
 10
47.38860625827554
 20
20.05059587914884
 30
0.0
 40
0.0999997858404227
100
AcDbArc
 50
271.36004485032
 51
300.5940649369283
  0
LINE
  5
119
330
1F
100
AcDbEntity
  8
DEFAULT
 62
     7
100
AcDbLine
 10
43.00408842292439
 20
24.26771341316133
 30
0.0
 11
42.87696977021438
 21
24.06898335436032
 31
0.0
  0
LINE
  5
11A
330
1F
100
AcDbEntity
  8
DEFAULT
 62
     7
100
AcDbLine
 10
43.07499916828439
 20
24.38033048210233
 30
0.0
 11
43.00408842292439
 21
24.26771341316133
 31
0.0
  0
ARC
  5
11B
330
1F
100
AcDbEntity
  8
DEFAULT
 62
     7
100
AcDbCircle
 10
31.78701807222285
 20
31.45239363979477
 30
0.0
 40
13.32038267210943
100
AcDbArc
 50
327.9323350118091
 51
329.2673533159859
  0
LINE
  5
11C
330
1F
100
AcDbEntity
  8
DEFAULT
 62
     7
100
AcDbLine
 10
43.27343049491439
 20
24.70780140500733
 30
0.0
 11
43.23670256857438
 21
24.64524155794433
 31
0.0
  0
LINE
  5
11D
330
1F
100
AcDbEntity
  8
DEFAULT
 62
     7
100
AcDbLine
 10
42.38901331476439
 20
23.31914434894033
 30
0.0
 11
42.34969221550438
 21
23.25728516388132
 31
0.0
  0
LINE
  5
11E
330
1F
100
AcDbEntity
  8
DEFAULT
 62
     7
100
AcDbLine
 10
42.46892947220439
 20
23.44370604034333
 30
0.0
 11
42.38901331476439
 21
23.31914434894033
 31
0.0
  0
LINE
  5
11F
330
1F
100
AcDbEntity
  8
DEFAULT
 62
     7
100
AcDbLine
 10
42.70619082065439
 20
23.80850201890633
 30
0.0
 11
42.46892947220439
 21
23.44370604034333
 31
0.0
  0
LINE
  5
120
330
1F
100
AcDbEntity
  8
DEFAULT
 62
     7
100
AcDbLine
 10
42.87668655699438
 20
24.07061639757633
 30
0.0
 11
42.70619082065439
 21
23.80850201890633
 31
0.0
  0
LINE
  5
121
330
1F
100
AcDbEntity
  8
DEFAULT
 62
     7
100
AcDbLine
 10
43.75750887617439
 20
20.54716358181933
 30
0.0
 11
42.63564051886439
 21
20.49286864945633
 31
0.0
  0
LINE
  5
122
330
1F
100
AcDbEntity
  8
DEFAULT
 62
     7
100
AcDbLine
 10
43.78181664252438
 20
20.54840613489433
 30
0.0
 11
43.75750887617439
 21
20.54716358181933
 31
0.0
  0
ARC
  5
123
330
1F
100
AcDbEntity
  8
DEFAULT
 62
     7
100
AcDbCircle
 10
42.7425864182053
 20
21.27648123657458
 30
0.0
 40
0.791468951184906
100
AcDbArc
 50
233.9649068060746
 51
261.9663475362973
  0
SPLINE
  5
124
330
1F
100
AcDbEntity
  8
DEFAULT
 62
     7
100
AcDbSpline
210
0.0
220
0.0
230
1.0
 70
     8
 71
     3
 72
    16
 73
    12
 74
     0
 42
0.0000000001
 43
0.0000000001
 40
0.0
 40
0.0
 40
0.0
 40
0.0
 40
0.05767996551216
 40
0.1570338183698
 40
0.267226943431
 40
0.3862190478589
 40
0.5124826944309
 40
0.6468717461715
 40
0.7896598143548
 40
0.9421474519076
 40
1.0
 40
1.0
 40
1.0
 40
1.0
 10
42.26293997518439
 20
20.64877435402132
 30
0.0
 10
42.22987747631438
 20
20.67410352444133
 30
0.0
 10
42.14749231637439
 20
20.75378512653233
 30
0.0
 10
42.04990492841439
 20
20.92430827620833
 30
0.0
 10
42.01759240326438
 20
21.16208436700532
 30
0.0
 10
42.03111213090438
 20
21.41805979219733
 30
0.0
 10
42.09519268119438
 20
21.68477759612832
 30
0.0
 10
42.19978762004438
 20
21.95567851111633
 30
0.0
 10
42.33218847591439
 20
22.23491277251733
 30
0.0
 10
42.45322101924439
 20
22.45813159907933
 30
0.0
 10
42.52853825559439
 20
22.58923269017933
 30
0.0
 10
42.54941439642439
 20
22.62519796246933
 30
0.0
  0
LINE
  5
125
330
1F
100
AcDbEntity
  8
DEFAULT
 62
     7
100
AcDbLine
 10
42.60851002044439
 20
22.72629259045233
 30
0.0
 11
42.62099410716439
 21
22.74747733771233
 31
0.0
  0
LINE
  5
126
330
1F
100
AcDbEntity
  8
DEFAULT
 62
     7
100
AcDbLine
 10
42.57242294239439
 20
22.66477890328033
 30
0.0
 11
42.60851002044439
 21
22.72629259045233
 31
0.0
  0
LINE
  5
127
330
1F
100
AcDbEntity
  8
DEFAULT
 62
     7
100
AcDbLine
 10
42.54969449391438
 20
22.62575608451033
 30
0.0
 11
42.57242294239439
 21
22.66477890328033
 31
0.0
  0
LINE
  5
128
330
1F
100
AcDbEntity
  8
DEFAULT
 62
     7
100
AcDbLine
 10
43.39651763875438
 20
24.12589041003533
 30
0.0
 11
43.41607418665439
 21
24.16241802440533
 31
0.0
  0
ARC
  5
129
330
1F
100
AcDbEntity
  8
DEFAULT
 62
     7
100
AcDbCircle
 10
9.541011696963082
 20
42.26316928954848
 30
0.0
 40
38.4077618161733
100
AcDbArc
 50
330.1841194600831
 51
331.8208829859952
  0
LINE
  5
12A
330
1F
100
AcDbEntity
  8
DEFAULT
 62
     7
100
AcDbLine
 10
42.78882431868438
 20
23.03458947713133
 30
0.0
 11
42.86464877983439
 21
23.16627479601933
 31
0.0
  0
LINE
  5
12B
330
1F
100
AcDbEntity
  8
DEFAULT
 62
     7
100
AcDbLine
 10
42.62069660583439
 20
22.74683724879533
 30
0.0
 11
42.78882431868438
 21
23.03458947713133
 31
0.0
  0
ARC
  5
12C
330
1F
100
AcDbEntity
  8
DEFAULT
 62
     7
100
AcDbCircle
 10
-763.365293720881
 20
449.6800665255665
 30
0.0
 40
912.1192088231983
100
AcDbArc
 50
332.1916430213399
 51
332.274227365515
  0
LINE
  5
12D
330
1F
100
AcDbEntity
  8
DEFAULT
 62
     7
100
AcDbLine
 10
41.71315631082438
 20
19.95805090087033
 30
0.0
 11
41.74314593254439
 21
19.93076687703433
 31
0.0
  0
ARC
  5
12E
330
1F
100
AcDbEntity
  8
DEFAULT
 62
     7
100
AcDbCircle
 10
42.5166295514576
 20
20.80912324792175
 30
0.0
 40
1.170424447937272
100
AcDbArc
 50
181.9870866674413
 51
226.6478699134995
  0
ARC
  5
12F
330
1F
100
AcDbEntity
  8
DEFAULT
 62
     7
100
AcDbCircle
 10
43.0518333092101
 20
20.88389123063119
 30
0.0
 40
1.70883068574251
100
AcDbArc
 50
179.4422864083296
 51
183.5122182415929
  0
SPLINE
  5
130
330
1F
100
AcDbEntity
  8
DEFAULT
 62
     7
100
AcDbSpline
210
0.0
220
0.0
230
1.0
 70
     8
 71
     3
 72
    12
 73
     8
 74
     0
 42
0.0000000001
 43
0.0000000001
 40
0.0
 40
0.0
 40
0.0
 40
0.0
 40
0.1952244549228
 40
0.4268229831749
 40
0.6788024689507
 40
0.9241414666963
 40
1.0
 40
1.0
 40
1.0
 40
1.0
 10
41.92778758956438
 20
22.58469944591133
 30
0.0
 10
41.86811736463438
 20
22.48377148007733
 30
0.0
 10
41.74195067055438
 20
22.26054967733333
 30
0.0
 10
41.56396698697439
 20
21.89323726284833
 30
0.0
 10
41.41759053949439
 20
21.47937116499733
 30
0.0
 10
41.35260752380439
 20
21.13944417324933
 30
0.0
 10
41.34349981129439
 20
20.94618002631133
 30
0.0
 10
41.34308357830438
 20
20.90052462069033
 30
0.0
  0
LINE
  5
131
330
1F
100
AcDbEntity
  8
DEFAULT
 62
     7
100
AcDbLine
 10
42.04707032187438
 20
22.78137822384733
 30
0.0
 11
41.93326436902438
 21
22.59395050575833
 31
0.0
  0
LINE
  5
132
330
1F
100
AcDbEntity
  8
DEFAULT
 62
     7
100
AcDbLine
 10
42.10261355252438
 20
22.87031063083333
 30
0.0
 11
42.04707032187438
 21
22.78137822384733
 31
0.0
  0
LINE
  5
133
330
1F
100
AcDbEntity
  8
DEFAULT
 62
     7
100
AcDbLine
 10
42.15639546788439
 20
22.95538401233333
 30
0.0
 11
42.10261355252438
 21
22.87031063083333
 31
0.0
  0
LINE
  5
134
330
1F
100
AcDbEntity
  8
DEFAULT
 62
     7
100
AcDbLine
 10
42.20895263705439
 20
23.03785110698533
 30
0.0
 11
42.15639546788439
 21
22.95538401233333
 31
0.0
  0
LINE
  5
135
330
1F
100
AcDbEntity
  8
DEFAULT
 62
     7
100
AcDbLine
 10
42.26258289038439
 20
23.12161839882033
 30
0.0
 11
42.20895263705439
 21
23.03785110698533
 31
0.0
  0
LINE
  5
136
330
1F
100
AcDbEntity
  8
DEFAULT
 62
     7
100
AcDbLine
 10
42.31795267905438
 20
23.20799498151733
 30
0.0
 11
42.26258289038439
 21
23.12161839882033
 31
0.0
  0
LINE
  5
137
330
1F
100
AcDbEntity
  8
DEFAULT
 62
     7
100
AcDbLine
 10
42.38902653822438
 20
23.31913589102333
 30
0.0
 11
42.31795267905438
 21
23.20799498151733
 31
0.0
  0
LINE
  5
138
330
1F
100
AcDbEntity
  8
DEFAULT
 62
     7
100
AcDbLine
 10
43.36286190518438
 20
24.86251288575233
 30
0.0
 11
43.29205083587439
 21
24.74009445483432
 31
0.0
  0
ARC
  5
139
330
1F
100
AcDbEntity
  8
DEFAULT
 62
     7
100
AcDbCircle
 10
4.177582893021897
 20
47.66061271579795
 30
0.0
 40
45.33474878194151
100
AcDbArc
 50
329.8090411710388
 51
331.9109210276122
  0
LINE
  5
13A
330
1F
100
AcDbEntity
  8
DEFAULT
 62
     7
100
AcDbLine
 10
44.26622511442438
 20
26.49237620471033
 30
0.0
 11
44.23885179383438
 21
26.44022580272032
 31
0.0
  0
LINE
  5
13B
330
1F
100
AcDbEntity
  8
DEFAULT
 62
     7
100
AcDbLine
 10
44.27558706132438
 20
26.51026573992033
 30
0.0
 11
44.26622511442438
 21
26.49237620471033
 31
0.0
  0
LINE
  5
13C
330
1F
100
AcDbEntity
  8
DEFAULT
 62
     7
100
AcDbLine
 10
44.31240429384439
 20
26.58089198086033
 30
0.0
 11
44.27558706132438
 21
26.51026573992033
 31
0.0
  0
LINE
  5
13D
330
1F
100
AcDbEntity
  8
DEFAULT
 62
     7
100
AcDbLine
 10
44.33139738490439
 20
26.61750111835033
 30
0.0
 11
44.31240429384439
 21
26.58089198086033
 31
0.0
  0
LINE
  5
13E
330
1F
100
AcDbEntity
  8
DEFAULT
 62
     7
100
AcDbLine
 10
44.37502538333438
 20
26.70206326245033
 30
0.0
 11
44.33139738490439
 21
26.61750111835033
 31
0.0
  0
LINE
  5
13F
330
1F
100
AcDbEntity
  8
DEFAULT
 62
     7
100
AcDbLine
 10
40.23632166179439
 20
40.72399848081032
 30
0.0
 11
40.24105290677438
 21
40.70233740404032
 31
0.0
  0
ARC
  5
140
330
1F
100
AcDbEntity
  8
DEFAULT
 62
     7
100
AcDbCircle
 10
40.38912349852327
 20
40.7431089399356
 30
0.0
 40
0.1539922431673071
100
AcDbArc
 50
172.0916866277182
 51
187.1287930529444
  0
ARC
  5
141
330
1F
100
AcDbEntity
  8
DEFAULT
 62
     7
100
AcDbCircle
 10
40.64840698011482
 20
40.65162831403369
 30
0.0
 40
0.4269456204490875
100
AcDbArc
 50
115.833891823369
 51
164.6987884269372
  0
ARC
  5
142
330
1F
100
AcDbEntity
  8
DEFAULT
 62
     7
100
AcDbCircle
 10
36.67407877697364
 20
27.56586199203032
 30
0.0
 40
7.835021684795512
100
AcDbArc
 50
318.0730216167852
 51
326.8556786888364
  0
LINE
  5
143
330
1F
100
AcDbEntity
  8
DEFAULT
 62
     7
100
AcDbLine
 10
42.48749082664438
 20
22.31418096323633
 30
0.0
 11
42.50331146037438
 21
22.33063409594132
 31
0.0
  0
LINE
  5
144
330
1F
100
AcDbEntity
  8
DEFAULT
 62
     7
100
AcDbLine
 10
42.42848199240438
 20
22.25522678251733
 30
0.0
 11
42.48749082664438
 21
22.31418096323633
 31
0.0
  0
ARC
  5
145
330
1F
100
AcDbEntity
  8
DEFAULT
 62
     7
100
AcDbCircle
 10
41.12050903703748
 20
23.60667143038963
 30
0.0
 40
1.880743440300647
100
AcDbArc
 50
310.4104619578397
 51
314.0635082293043
  0
LINE
  5
146
330
1F
100
AcDbEntity
  8
DEFAULT
 62
     7
100
AcDbLine
 10
42.30025963935439
 20
22.14231213178533
 30
0.0
 11
42.33971779322439
 21
22.17463585224533
 31
0.0
  0
SPLINE
  5
147
330
1F
100
AcDbEntity
  8
DEFAULT
 62
     7
100
AcDbSpline
210
0.0
220
0.0
230
1.0
 70
     8
 71
     3
 72
    42
 73
    38
 74
     0
 42
0.0000000001
 43
0.0000000001
 40
0.0
 40
0.0
 40
0.0
 40
0.0
 40
0.04639659431688
 40
0.1177519036726
 40
0.1846976137483
 40
0.2479225779469
 40
0.3078550703576
 40
0.3647236571908
 40
0.418773731788
 40
0.470354856782
 40
0.5198300955778
 40
0.5675968559709
 40
0.6133944470341
 40
0.6565474567079001
 40
0.6968530567784
 40
0.7337388338054
 40
0.7669864841865
 40
0.7964072818453
 40
0.8203110051395
 40
0.8387379231754
 40
0.8544544600566
 40
0.8689245256293
 40
0.8821605451687
 40
0.8944823278584
 40
0.9060724096309
 40
0.9175770306121001
 40
0.9291705918911
 40
0.9409604094275
 40
0.9524999778679
 40
0.9630412222335
 40
0.9721606422649
 40
0.9799126954539
 40
0.9862847464139
 40
0.9914228062781
 40
0.9954450270918001
 40
0.9987649308633
 40
1.0
 40
1.0
 40
1.0
 40
1.0
 10
45.13220108727439
 20
34.92120450735033
 30
0.0
 10
45.08761831965439
 20
35.05071477080033
 30
0.0
 10
44.97349571482439
 20
35.37906885889032
 30
0.0
 10
44.79122352614439
 20
35.89295644995032
 30
0.0
 10
44.58841339198438
 20
36.45225566069033
 30
0.0
 10
44.39354483804438
 20
36.97855002747032
 30
0.0
 10
44.20595079072438
 20
37.47580358130033
 30
0.0
 10
44.02525231236438
 20
37.94670054889032
 30
0.0
 10
43.85099253077438
 20
38.39365352294033
 30
0.0
 10
43.68243522790439
 20
38.81939621187033
 30
0.0
 10
43.51884094451439
 20
39.22714874582032
 30
0.0
 10
43.35991325413439
 20
39.61837133893032
 30
0.0
 10
43.20513209425439
 20
39.99113294017032
 30
0.0
 10
43.05316662857438
 20
40.34116107622032
 30
0.0
 10
42.90084659648438
 20
40.66231698407032
 30
0.0
 10
42.73815089092438
 20
40.94541628603032
 30
0.0
 10
42.55308303395439
 20
41.17670087644032
 30
0.0
 10
42.34123596061439
 20
41.32720340492033
 30
0.0
 10
42.13678063757438
 20
41.39255043098032
 30
0.0
 10
41.96503306445438
 20
41.40556128180032
 30
0.0
 10
41.82154131200438
 20
41.39617478738032
 30
0.0
 10
41.69485877429438
 20
41.37583634202032
 30
0.0
 10
41.57939168531438
 20
41.35056621277032
 30
0.0
 10
41.47311171799438
 20
41.32347750128032
 30
0.0
 10
41.37232461593438
 20
41.29565690788032
 30
0.0
 10
41.27380703596439
 20
41.26771261314032
 30
0.0
 10
41.17467642712439
 20
41.23976914877032
 30
0.0
 10
41.07549851891438
 20
41.21161224960032
 30
0.0
 10
40.97951797655438
 20
41.18357547345032
 30
0.0
 10
40.89128526981438
 20
41.15714257235032
 30
0.0
 10
40.81369310085439
 20
41.13415279504032
 30
0.0
 10
40.74768511072438
 20
41.11539946776033
 30
0.0
 10
40.69271295798439
 20
41.10083672183032
 30
0.0
 10
40.64812098796438
 20
41.09013326647032
 30
0.0
 10
40.61207685781438
 20
41.08248332654033
 30
0.0
 10
40.58719849034439
 20
41.07776487114032
 30
0.0
 10
40.57402271343438
 20
41.07507878118032
 30
0.0
 10
40.57045473040439
 20
41.07432740737032
 30
0.0
  0
ARC
  5
148
330
1F
100
AcDbEntity
  8
DEFAULT
 62
     7
100
AcDbCircle
 10
41.87062482754494
 20
22.36158093189473
 30
0.0
 40
0.34349053156728
100
AcDbArc
 50
197.5268772813998
 51
232.4401074551948
  0
ARC
  5
149
330
1F
100
AcDbEntity
  8
DEFAULT
 62
     7
100
AcDbCircle
 10
41.68456161072663
 20
22.2929616939937
 30
0.0
 40
0.1457037954135401
100
AcDbArc
 50
176.2976021945968
 51
193.8278556452846
  0
LINE
  5
14A
330
1F
100
AcDbEntity
  8
DEFAULT
 62
     7
100
AcDbLine
 10
44.37935621716438
 20
35.03944593936032
 30
0.0
 11
44.41839093463438
 21
34.92608980541032
 31
0.0
  0
ARC
  5
14B
330
1F
100
AcDbEntity
  8
DEFAULT
 62
     7
100
AcDbCircle
 10
-50.28744817687371
 20
2.308816309624984
 30
0.0
 40
100.1653531423814
100
AcDbArc
 50
19.07260064114578
 51
20.40647927522689
  0
LINE
  5
14C
330
1F
100
AcDbEntity
  8
DEFAULT
 62
     7
100
AcDbLine
 10
43.56259404919438
 20
37.31272512778033
 30
0.0
 11
43.59178436032439
 21
37.23427505199032
 31
0.0
  0
LINE
  5
14D
330
1F
100
AcDbEntity
  8
DEFAULT
 62
     7
100
AcDbLine
 10
43.53083823774438
 20
37.39786040552032
 30
0.0
 11
43.56259404919438
 21
37.31272512778033
 31
0.0
  0
LINE
  5
14E
330
1F
100
AcDbEntity
  8
DEFAULT
 62
     7
100
AcDbLine
 10
43.49382232661439
 20
37.49682202935033
 30
0.0
 11
43.53083823774438
 21
37.39786040552032
 31
0.0
  0
SPLINE
  5
14F
330
1F
100
AcDbEntity
  8
DEFAULT
 62
     7
100
AcDbSpline
210
0.0
220
0.0
230
1.0
 70
     8
 71
     3
 72
    17
 73
    13
 74
     0
 42
0.0000000001
 43
0.0000000001
 40
0.0
 40
0.0
 40
0.0
 40
0.0
 40
0.04420948666152
 40
0.1254025162936
 40
0.2131294497377
 40
0.3068133790578
 40
0.4064390381603
 40
0.5122626751113
 40
0.6248061652958
 40
0.744941232319
 40
0.8737053766687
 40
1.0
 40
1.0
 40
1.0
 40
1.0
 10
42.08491154009439
 20
40.80124320213032
 30
0.0
 10
42.11741335970438
 20
40.76127420083032
 30
0.0
 10
42.20111983818439
 20
40.64092870563032
 30
0.0
 10
42.31772500822438
 20
40.42180263106032
 30
0.0
 10
42.44697389777439
 20
40.14484813535032
 30
0.0
 10
42.57585054582439
 20
39.84427184484032
 30
0.0
 10
42.70879103256439
 20
39.52258581237032
 30
0.0
 10
42.84648694635438
 20
39.17914052336032
 30
0.0
 10
42.99094594239438
 20
38.81270729042032
 30
0.0
 10
43.14316727286438
 20
38.42064642533032
 30
0.0
 10
43.29928899826438
 20
38.01294116613032
 30
0.0
 10
43.40425657815438
 20
37.73533773398032
 30
0.0
 10
43.45594753351438
 20
37.59777295959032
 30
0.0
  0
ARC
  5
150
330
1F
100
AcDbEntity
  8
DEFAULT
 62
     7
100
AcDbCircle
 10
41.39089195859432
 20
40.2405607325135
 30
0.0
 40
0.8921720804832632
100
AcDbArc
 50
39.85117850596216
 51
44.78180400937364
  0
ARC
  5
151
330
1F
100
AcDbEntity
  8
DEFAULT
 62
     7
100
AcDbCircle
 10
41.49189515329674
 20
40.34073545930734
 30
0.0
 40
0.7499166098774018
100
AcDbArc
 50
44.78517140061424
 51
50.15714292558685
  0
ARC
  5
152
330
1F
100
AcDbEntity
  8
DEFAULT
 62
     7
100
AcDbCircle
 10
41.588153022958
 20
40.4591284698847
 30
0.0
 40
0.5973461944451577
100
AcDbArc
 50
49.97055444047525
 51
61.63499663626448
  0
ARC
  5
153
330
1F
100
AcDbEntity
  8
DEFAULT
 62
     7
100
AcDbCircle
 10
41.61717917989969
 20
40.50556266881886
 30
0.0
 40
0.5427081543948874
100
AcDbArc
 50
62.00249840577451
 51
83.0957128718334
  0
ARC
  5
154
330
1F
100
AcDbEntity
  8
DEFAULT
 62
     7
100
AcDbCircle
 10
41.59838208318358
 20
40.35933641002421
 30
0.0
 40
0.6901345009894229
100
AcDbArc
 50
83.00582047106983
 51
89.66699391883422
  0
ARC
  5
155
330
1F
100
AcDbEntity
  8
DEFAULT
 62
     7
100
AcDbCircle
 10
41.19199391312838
 20
23.01136761580803
 30
0.0
 40
0.7573535293253397
100
AcDbArc
 50
301.1590557981012
 51
307.0768720148315
  0
LINE
  5
156
330
1F
100
AcDbEntity
  8
DEFAULT
 62
     7
100
AcDbLine
 10
41.70347649588438
 20
22.45190096772233
 30
0.0
 11
41.64859174262438
 21
22.40713025310933
 31
0.0
  0
ARC
  5
157
330
1F
100
AcDbEntity
  8
DEFAULT
 62
     7
100
AcDbCircle
 10
40.8301004829308
 20
23.44278020565585
 30
0.0
 40
1.320843413948224
100
AcDbArc
 50
311.3934420055318
 51
315.225873366753
  0
LINE
  5
158
330
1F
100
AcDbEntity
  8
DEFAULT
 62
     7
100
AcDbLine
 10
41.78320923128438
 20
22.52819171036633
 30
0.0
 11
41.76775250787438
 21
22.51249207594033
 31
0.0
  0
ARC
  5
159
330
1F
100
AcDbEntity
  8
DEFAULT
 62
     7
100
AcDbCircle
 10
39.08854029084817
 20
25.11796886317862
 30
0.0
 40
3.737403697726562
100
AcDbArc
 50
316.1371234647045
 51
318.5781124283521
  0
ARC
  5
15A
330
1F
100
AcDbEntity
  8
DEFAULT
 62
     7
100
AcDbCircle
 10
37.80006430208798
 20
26.26959208234472
 30
0.0
 40
5.465501538826834
100
AcDbArc
 50
318.4617416250084
 51
320.5769484436332
  0
LINE
  5
15B
330
1F
100
AcDbEntity
  8
DEFAULT
 62
     7
100
AcDbLine
 10
42.12925800933439
 20
22.93267620193633
 30
0.0
 11
42.02204477949439
 21
22.79877259419532
 31
0.0
  0
LINE
  5
15C
330
1F
100
AcDbEntity
  8
DEFAULT
 62
     7
100
AcDbLine
 10
42.15994620943439
 20
22.97228872123133
 30
0.0
 11
42.13997394503439
 21
22.94644565188533
 31
0.0
  0
LINE
  5
15D
330
1F
100
AcDbEntity
  8
DEFAULT
 62
     7
100
AcDbLine
 10
42.21114291918439
 20
23.03958580455933
 30
0.0
 11
42.15994620943439
 21
22.97228872123133
 31
0.0
  0
SPLINE
  5
15E
330
1F
100
AcDbEntity
  8
DEFAULT
 62
     7
100
AcDbSpline
210
0.0
220
0.0
230
1.0
 70
     8
 71
     3
 72
    13
 73
     9
 74
     0
 42
0.0000000001
 43
0.0000000001
 40
0.0
 40
0.0
 40
0.0
 40
0.0
 40
0.05291524383668
 40
0.216154456563
 40
0.3948050074652
 40
0.5897339199085
 40
0.7991306910171
 40
1.0
 40
1.0
 40
1.0
 40
1.0
 10
46.16435070855439
 20
29.14223287790033
 30
0.0
 10
46.18710787295438
 20
29.24455390417033
 30
0.0
 10
46.26670197358438
 20
29.66528986485033
 30
0.0
 10
46.29391592934439
 20
30.45256509591033
 30
0.0
 10
46.13638613753438
 20
31.50622008845032
 30
0.0
 10
45.86526723435438
 20
32.62827782233032
 30
0.0
 10
45.51965926663439
 20
33.77545691297033
 30
0.0
 10
45.26165800588438
 20
34.54534969616032
 30
0.0
 10
45.13222241244439
 20
34.92121185842032
 30
0.0
  0
LINE
  5
15F
330
1F
100
AcDbEntity
  8
DEFAULT
 62
     7
100
AcDbLine
 10
46.15045657685439
 20
29.08155029833032
 30
0.0
 11
46.16248101651438
 21
29.13386064920033
 31
0.0
  0
LINE
  5
160
330
1F
100
AcDbEntity
  8
DEFAULT
 62
     7
100
AcDbLine
 10
46.14404334700439
 20
29.05463832785032
 30
0.0
 11
46.15045657685439
 21
29.08155029833032
 31
0.0
  0
SPLINE
  5
161
330
1F
100
AcDbEntity
  8
DEFAULT
 62
     7
100
AcDbSpline
210
0.0
220
0.0
230
1.0
 70
     8
 71
     3
 72
    14
 73
    10
 74
     0
 42
0.0000000001
 43
0.0000000001
 40
0.0
 40
0.0
 40
0.0
 40
0.0
 40
0.1410177380622
 40
0.3009260124109
 40
0.4600419027084
 40
0.6167562448928
 40
0.7701128065194
 40
0.9178726972251
 40
1.0
 40
1.0
 40
1.0
 40
1.0
 10
43.23427775455439
 20
23.28199809046633
 30
0.0
 10
43.40486104930438
 20
23.53465391942533
 30
0.0
 10
43.75369329857438
 20
24.08410444862433
 30
0.0
 10
44.25732152357438
 20
24.94176501155033
 30
0.0
 10
44.75707315882439
 20
25.84070329002033
 30
0.0
 10
45.22750736002438
 20
26.73953903773033
 30
0.0
 10
45.64689253553438
 20
27.63638692515033
 30
0.0
 10
45.96079259697438
 20
28.40368384695033
 30
0.0
 10
46.10237258249439
 20
28.88182811751033
 30
0.0
 10
46.14404334700439
 20
29.05463832785032
 30
0.0
  0
ARC
  5
162
330
1F
100
AcDbEntity
  8
DEFAULT
 62
     7
100
AcDbCircle
 10
27.05301843191661
 20
35.88168909263884
 30
0.0
 40
19.61346669646429
100
AcDbArc
 50
334.8502101852192
 51
337.9763656393473
  0
SPLINE
  5
163
330
1F
100
AcDbEntity
  8
DEFAULT
 62
     7
100
AcDbSpline
210
0.0
220
0.0
230
1.0
 70
     8
 71
     3
 72
    14
 73
    10
 74
     0
 42
0.0000000001
 43
0.0000000001
 40
0.0
 40
0.0
 40
0.0
 40
0.0
 40
0.1767674618657
 40
0.3535992865872
 40
0.5170166659035
 40
0.6677253701184001
 40
0.8080258764545
 40
0.9414164011402
 40
1.0
 40
1.0
 40
1.0
 40
1.0
 10
44.41828465512439
 20
34.92605171522033
 30
0.0
 10
44.54464072665439
 20
34.55835525825032
 30
0.0
 10
44.79233259879438
 20
33.82105677269033
 30
0.0
 10
45.12555261289439
 20
32.73357005030032
 30
0.0
 10
45.39299982109439
 20
31.68666237622033
 30
0.0
 10
45.57070354074438
 20
30.70210769691033
 30
0.0
 10
45.59871309878438
 20
29.76098589955032
 30
0.0
 10
45.42766171423438
 20
29.04347961093033
 30
0.0
 10
45.28238173407438
 20
28.64680845839033
 30
0.0
 10
45.23527578167438
 20
28.52685438882033
 30
0.0
  0
LINE
  5
164
330
1F
100
AcDbEntity
  8
DEFAULT
 62
     7
100
AcDbLine
 10
44.80699166298438
 20
27.54634067708033
 30
0.0
 11
44.77804664114438
 21
27.47605091472033
 31
0.0
  0
LINE
  5
165
330
1F
100
AcDbEntity
  8
DEFAULT
 62
     7
100
AcDbLine
 10
44.32177957607438
 20
26.24002716486033
 30
0.0
 11
44.31167018744439
 21
26.19113583939032
 31
0.0
  0
ARC
  5
166
330
1F
100
AcDbEntity
  8
DEFAULT
 62
     7
100
AcDbCircle
 10
47.97455900548474
 20
25.37141459847838
 30
0.0
 40
3.754635182064968
100
AcDbArc
 50
159.8371108162374
 51
166.6237846010176
  0
ARC
  5
167
330
1F
100
AcDbEntity
  8
DEFAULT
 62
     7
100
AcDbCircle
 10
53.90857221230073
 20
23.26416997765283
 30
0.0
 40
10.05159879597798
100
AcDbArc
 50
157.4614422572656
 51
160.1707579356321
  0
LINE
  5
168
330
1F
100
AcDbEntity
  8
DEFAULT
 62
     7
100
AcDbLine
 10
44.68968200385438
 20
27.27307578014033
 30
0.0
 11
44.62469651130439
 21
27.11699885054032
 31
0.0
  0
LINE
  5
169
330
1F
100
AcDbEntity
  8
DEFAULT
 62
     7
100
AcDbLine
 10
44.73389700438438
 20
27.37759034872033
 30
0.0
 11
44.68968200385438
 21
27.27307578014033
 31
0.0
  0
ARC
  5
16A
330
1F
100
AcDbEntity
  8
DEFAULT
 62
     7
100
AcDbCircle
 10
41.98715070806968
 20
26.44795174772519
 30
0.0
 40
2.320978975654136
100
AcDbArc
 50
331.1908610650831
 51
341.7741681786775
  0
LINE
  5
16B
330
1F
100
AcDbEntity
  8
DEFAULT
 62
     7
100
AcDbLine
 10
44.22923955597438
 20
25.84305036359033
 30
0.0
 11
44.19168881136438
 21
25.72203497801233
 31
0.0
  0
ARC
  5
16C
330
1F
100
AcDbEntity
  8
DEFAULT
 62
     7
100
AcDbCircle
 10
40.28543966046394
 20
26.9629205015121
 30
0.0
 40
4.09971544642273
100
AcDbArc
 50
344.1477260218781
 51
348.7943910312134
  0
LINE
  5
16D
330
1F
100
AcDbEntity
  8
DEFAULT
 62
     7
100
AcDbLine
 10
44.31195431973439
 20
26.19108300234032
 30
0.0
 11
44.30699868951438
 21
26.16622123736033
 31
0.0
  0
ARC
  5
16E
330
1F
100
AcDbEntity
  8
DEFAULT
 62
     7
100
AcDbCircle
 10
53.35453930098573
 20
22.47354950703818
 30
0.0
 40
6.791330948396793
100
AcDbArc
 50
84.16787963643476
 51
86.47905145819175
  0
ARC
  5
16F
330
1F
100
AcDbEntity
  8
DEFAULT
 62
     7
100
AcDbCircle
 10
50.85217062790604
 20
28.32453382214946
 30
0.0
 40
0.8993820671043685
100
AcDbArc
 50
94.6791203236517
 51
102.9195128911181
  0
LINE
  5
170
330
1F
100
AcDbEntity
  8
DEFAULT
 62
     7
100
AcDbLine
 10
51.00722621757439
 20
28.61045902104032
 30
0.0
 11
50.65001183616439
 21
27.75766883966033
 31
0.0
  0
ARC
  5
171
330
1F
100
AcDbEntity
  8
DEFAULT
 62
     7
100
AcDbCircle
 10
52.14143239460572
 20
15.57027003924016
 30
0.0
 40
13.7184896815123
100
AcDbArc
 50
91.90678948681843
 51
95.70047083186182
  0
LINE
  5
172
330
1F
100
AcDbEntity
  8
DEFAULT
 62
     7
100
AcDbLine
 10
51.01685279939438
 20
28.63386412298032
 30
0.0
 11
51.00722547911439
 21
28.61038800022033
 31
0.0
  0
SPLINE
  5
173
330
1F
100
AcDbEntity
  8
DEFAULT
 62
     7
100
AcDbSpline
210
0.0
220
0.0
230
1.0
 70
     8
 71
     3
 72
    17
 73
    13
 74
     0
 42
0.0000000001
 43
0.0000000001
 40
0.0
 40
0.0
 40
0.0
 40
0.0
 40
0.09133864584869
 40
0.1885488049933
 40
0.285419953408
 40
0.385878567486
 40
0.4907764009893
 40
0.6009629575237
 40
0.7150835253886
 40
0.8330061850163
 40
0.9568014798702
 40
1.0
 40
1.0
 40
1.0
 40
1.0
 10
50.94643169556438
 20
29.16067544924033
 30
0.0
 10
50.96325966488438
 20
29.15341357571033
 30
0.0
 10
50.99693833085438
 20
29.13595309682033
 30
0.0
 10
51.04206531295439
 20
29.09991996027032
 30
0.0
 10
51.07631227778439
 20
29.05052075046033
 30
0.0
 10
51.09249320715438
 20
28.99122782154032
 30
0.0
 10
51.09486185385439
 20
28.92773540227033
 30
0.0
 10
51.08725573704438
 20
28.86203906926033
 30
0.0
 10
51.07241462295439
 20
28.79501498014033
 30
0.0
 10
51.05188505557438
 20
28.72668809541033
 30
0.0
 10
51.03239597979438
 20
28.67300840173033
 30
0.0
 10
51.02008850438438
 20
28.64189235491033
 30
0.0
 10
51.01685279939438
 20
28.63386412298032
 30
0.0
  0
ARC
  5
174
330
1F
100
AcDbEntity
  8
DEFAULT
 62
     7
100
AcDbCircle
 10
53.68581502002369
 20
27.67400380430561
 30
0.0
 40
1.566789024467492
100
AcDbArc
 50
88.62056573954551
 51
120.8507831520054
  0
LINE
  5
175
330
1F
100
AcDbEntity
  8
DEFAULT
 62
     7
100
AcDbLine
 10
53.7715783093544
 20
29.24056629392033
 30
0.0
 11
53.7235328709744
 21
29.24033876558033
 31
0.0
  0
ARC
  5
176
330
1F
100
AcDbEntity
  8
DEFAULT
 62
     7
100
AcDbCircle
 10
53.73830694231618
 20
24.94066158290833
 30
0.0
 40
4.300033430991879
100
AcDbArc
 50
85.89855052005221
 51
89.55667136958292
  0
ARC
  5
177
330
1F
100
AcDbEntity
  8
DEFAULT
 62
     7
100
AcDbCircle
 10
52.4383867393955
 20
8.481248190962345
 30
0.0
 40
20.81355761670386
100
AcDbArc
 50
86.32735104766834
 51
92.07447045174695
  0
LINE
  5
178
330
1F
100
AcDbEntity
  8
DEFAULT
 62
     7
100
AcDbLine
 10
49.87249155419439
 20
21.11866950277433
 30
0.0
 11
52.1668592444444
 21
27.74761834970033
 31
0.0
  0
LINE
  5
179
330
1F
100
AcDbEntity
  8
DEFAULT
 62
     7
100
AcDbLine
 10
50.65001183815439
 20
27.75766883970033
 30
0.0
 11
47.87000353954438
 21
21.13301307706833
 31
0.0
  0
SPLINE
  5
17A
330
1F
100
AcDbEntity
  8
DEFAULT
 62
     7
100
AcDbSpline
210
0.0
220
0.0
230
1.0
 70
     8
 71
     3
 72
    20
 73
    16
 74
     0
 42
0.0000000001
 43
0.0000000001
 40
0.0
 40
0.0
 40
0.0
 40
0.0
 40
0.01723986692189
 40
0.06789253173695
 40
0.1171820349078
 40
0.1662820745339
 40
0.2173373565406
 40
0.2732611205615
 40
0.3384580600995
 40
0.4168522445907
 40
0.5110888001202
 40
0.628292717646
 40
0.7613394857429
 40
0.9033198966203
 40
1.0
 40
1.0
 40
1.0
 40
1.0
 10
49.94799295153438
 20
20.24202359018033
 30
0.0
 10
49.94556989211439
 20
20.24662178462933
 30
0.0
 10
49.93585114498439
 20
20.26463708227733
 30
0.0
 10
49.91805606684438
 20
20.29515640078433
 30
0.0
 10
49.89461476096438
 20
20.33348053303233
 30
0.0
 10
49.87144052462438
 20
20.37211271805033
 30
0.0
 10
49.84882301040438
 20
20.41339092206033
 30
0.0
 10
49.82707630413439
 20
20.46057812515333
 30
0.0
 10
49.80727943581439
 20
20.51749084784533
 30
0.0
 10
49.79188419263439
 20
20.58769964000433
 30
0.0
 10
49.78447400068439
 20
20.67502442251733
 30
0.0
 10
49.79014751911439
 20
20.77900200137233
 30
0.0
 10
49.80931489603439
 20
20.89583428137933
 30
0.0
 10
49.83644967994439
 20
21.00463846333333
 30
0.0
 10
49.85744179121439
 20
21.07347143146433
 30
0.0
 10
49.86643348126439
 20
21.10119512433233
 30
0.0
  0
ARC
  5
17B
330
1F
100
AcDbEntity
  8
DEFAULT
 62
     7
100
AcDbCircle
 10
49.42334168402761
 20
19.96124557626747
 30
0.0
 40
0.5950590269824618
100
AcDbArc
 50
18.22083510858096
 51
28.1543869856092
  0
LINE
  5
17C
330
1F
100
AcDbEntity
  8
DEFAULT
 62
     7
100
AcDbLine
 10
49.99447678020439
 20
20.12792543468533
 30
0.0
 11
49.98856350576438
 21
20.14730883923433
 31
0.0
  0
SPLINE
  5
17D
330
1F
100
AcDbEntity
  8
DEFAULT
 62
     7
100
AcDbSpline
210
0.0
220
0.0
230
1.0
 70
     8
 71
     3
 72
    23
 73
    19
 74
     0
 42
0.0000000001
 43
0.0000000001
 40
0.0
 40
0.0
 40
0.0
 40
0.0
 40
0.04357668895105
 40
0.154579995376
 40
0.2331413589152
 40
0.3016485777408
 40
0.3436702572531
 40
0.376478774183
 40
0.4100820467363
 40
0.4388276377149
 40
0.4584872768085
 40
0.4810658944785
 40
0.5250179394594
 40
0.5943444402316001
 40
0.695282200444
 40
0.8340168982269
 40
0.9982459670204
 40
1.0
 40
1.0
 40
1.0
 40
1.0
 10
47.64216992871439
 20
20.57126270734833
 30
0.0
 10
47.63830384254438
 20
20.56122368904932
 30
0.0
 10
47.62466357367439
 20
20.52558378869333
 30
0.0
 10
47.60460126671439
 20
20.47163563231933
 30
0.0
 10
47.58189844651438
 20
20.41211369298333
 30
0.0
 10
47.56623635397438
 20
20.36811542717733
 30
0.0
 10
47.55626107057439
 20
20.33415804704333
 30
0.0
 10
47.54885879889438
 20
20.30843410659933
 30
0.0
 10
47.54260167291438
 20
20.28579012355032
 30
0.0
 10
47.53749534979439
 20
20.26619935952233
 30
0.0
 10
47.53306452828439
 20
20.24924463080533
 30
0.0
 10
47.52731742342439
 20
20.22875748042933
 30
0.0
 10
47.51903436690439
 20
20.19624899714933
 30
0.0
 10
47.50949069414438
 20
20.14415316777633
 30
0.0
 10
47.50522469024438
 20
20.06771062913633
 30
0.0
 10
47.51834098746439
 20
19.96794428747033
 30
0.0
 10
47.54782934752439
 20
19.89761994018933
 30
0.0
 10
47.56877139055438
 20
19.86223063686733
 30
0.0
 10
47.56899323928439
 20
19.86185698544433
 30
0.0
  0
ARC
  5
17E
330
1F
100
AcDbEntity
  8
DEFAULT
 62
     7
100
AcDbCircle
 10
66.28359140112313
 20
13.32565496231083
 30
0.0
 40
20.00010412789603
100
AcDbArc
 50
157.0230438929881
 51
158.6608313799997
  0
ARC
  5
17F
330
1F
100
AcDbEntity
  8
DEFAULT
 62
     7
100
AcDbCircle
 10
48.51771136610429
 20
20.91737019994494
 30
0.0
 40
1.474784395804705
100
AcDbArc
 50
244.5323292774214
 51
269.3205545769126
  0
ARC
  5
180
330
1F
100
AcDbEntity
  8
DEFAULT
 62
     7
100
AcDbCircle
 10
48.2984562184207
 20
20.41899202364671
 30
0.0
 40
0.9306981909815002
100
AcDbArc
 50
225.6723980077142
 51
243.5255033268618
  0
ARC
  5
181
330
1F
100
AcDbEntity
  8
DEFAULT
 62
     7
100
AcDbCircle
 10
48.02218336898216
 20
20.11388493427886
 30
0.0
 40
0.519622649551625
100
AcDbArc
 50
217.4674724218571
 51
223.9560849267834
  0
ARC
  5
182
330
1F
100
AcDbEntity
  8
DEFAULT
 62
     7
100
AcDbCircle
 10
47.96881125922905
 20
20.07313448083071
 30
0.0
 40
0.4524723397206496
100
AcDbArc
 50
207.8530629054
 51
217.4830795216141
  0
ARC
  5
183
330
1F
100
AcDbEntity
  8
DEFAULT
 62
     7
100
AcDbCircle
 10
49.67608189802134
 20
20.03937313227582
 30
0.0
 40
0.3304732454631868
100
AcDbArc
 50
358.4583220410456
 51
14.37828374442312
  0
LINE
  5
184
330
1F
100
AcDbEntity
  8
DEFAULT
 62
     7
100
AcDbLine
 10
50.00308137885438
 20
19.98007056698733
 30
0.0
 11
50.00589814220438
 21
20.01129099848033
 31
0.0
  0
SPLINE
  5
185
330
1F
100
AcDbEntity
  8
DEFAULT
 62
     7
100
AcDbSpline
210
0.0
220
0.0
230
1.0
 70
     8
 71
     3
 72
    20
 73
    16
 74
     0
 42
0.0000000001
 43
0.0000000001
 40
0.0
 40
0.0
 40
0.0
 40
0.0
 40
0.08359597057653
 40
0.1976275629308
 40
0.299653916112
 40
0.3917173980991
 40
0.4761568730882
 40
0.5555073187774
 40
0.6315729351264
 40
0.7049785493216
 40
0.7761672938378
 40
0.8450019502543
 40
0.9124973194582
 40
0.9783732042706
 40
1.0
 40
1.0
 40
1.0
 40
1.0
 10
48.91324673061438
 20
19.45389521774333
 30
0.0
 10
48.94904039016439
 20
19.45717848713833
 30
0.0
 10
49.03352922735439
 20
19.46636637945133
 30
0.0
 10
49.16100405607438
 20
19.48527143167133
 30
0.0
 10
49.29117253569438
 20
19.51002440019433
 30
0.0
 10
49.40790930416438
 20
19.53683923233733
 30
0.0
 10
49.51399955607439
 20
19.56605128330532
 30
0.0
 10
49.61187394054439
 20
19.59871072452033
 30
0.0
 10
49.70293535911439
 20
19.63620512503833
 30
0.0
 10
49.78709905997439
 20
19.68035455431033
 30
0.0
 10
49.86285895261438
 20
19.73263802324533
 30
0.0
 10
49.92699686688439
 20
19.79560974759933
 30
0.0
 10
49.97340287949438
 20
19.87010875834933
 30
0.0
 10
49.99525225939438
 20
19.93361900421033
 30
0.0
 10
50.00182481468439
 20
19.97082690917832
 30
0.0
 10
50.00308137885438
 20
19.98007056698733
 30
0.0
  0
LINE
  5
186
330
1F
100
AcDbEntity
  8
DEFAULT
 62
     7
100
AcDbLine
 10
48.79899040855438
 20
19.44548755562733
 30
0.0
 11
48.89450228380438
 21
19.45223148219133
 31
0.0
  0
LINE
  5
187
330
1F
100
AcDbEntity
  8
DEFAULT
 62
     7
100
AcDbLine
 10
48.77583250780439
 20
19.44428657534133
 30
0.0
 11
48.79899040855438
 21
19.44548755562733
 31
0.0
  0
ARC
  5
188
330
1F
100
AcDbEntity
  8
DEFAULT
 62
     7
100
AcDbCircle
 10
48.61906227490886
 20
22.70292436781006
 30
0.0
 40
3.26240665282972
100
AcDbArc
 50
267.9124564448654
 51
272.7543265279307
  0
ARC
  5
189
330
1F
100
AcDbEntity
  8
DEFAULT
 62
     7
100
AcDbCircle
 10
52.53628764356814
 20
6.84651241107616
 30
0.0
 40
22.43399427646756
100
AcDbArc
 50
82.41154278776801
 51
86.13591690331568
  0
ARC
  5
18A
330
1F
100
AcDbEntity
  8
DEFAULT
 62
     7
100
AcDbCircle
 10
52.5364797350023
 20
6.845589177845112
 30
0.0
 40
22.43492209886127
100
AcDbArc
 50
94.82073102774008
 51
100.9456679448322
  0
ARC
  5
18B
330
1F
100
AcDbEntity
  8
DEFAULT
 62
     7
100
AcDbCircle
 10
52.53605113151424
 20
6.844835266288415
 30
0.0
 40
22.43568817976586
100
AcDbArc
 50
78.70603958623288
 51
81.37292234954411
  0
ARC
  5
18C
330
1F
100
AcDbEntity
  8
DEFAULT
 62
     7
100
AcDbCircle
 10
48.25678629600366
 20
28.97643872829742
 30
0.0
 40
0.1059370739005371
100
AcDbArc
 50
193.8893821924064
 51
251.9688749036284
  0
ARC
  5
18D
330
1F
100
AcDbEntity
  8
DEFAULT
 62
     7
100
AcDbCircle
 10
48.25674748636978
 20
28.97590851493838
 30
0.0
 40
0.1054226647144828
100
AcDbArc
 50
251.8996908667533
 51
280.8435467944381
  0
LINE
  5
18E
330
1F
100
AcDbEntity
  8
DEFAULT
 62
     7
100
AcDbLine
 10
60.83540339441439
 20
20.30992597522632
 30
0.0
 11
60.77490722782437
 21
20.37312672198233
 31
0.0
  0
SPLINE
  5
18F
330
1F
100
AcDbEntity
  8
DEFAULT
 62
     7
100
AcDbSpline
210
0.0
220
0.0
230
1.0
 70
     8
 71
     3
 72
    23
 73
    19
 74
     0
 42
0.0000000001
 43
0.0000000001
 40
0.0
 40
0.0
 40
0.0
 40
0.0
 40
0.009964652291353
 40
0.02481797473408
 40
0.04365731489527
 40
0.0618971400653
 40
0.08346008146321
 40
0.1073770062552
 40
0.1373162428122
 40
0.1749059896131
 40
0.225791443334
 40
0.294172782765
 40
0.3789141051124
 40
0.478760802466
 40
0.5930117802917
 40
0.7217710990189
 40
0.8655104050492
 40
1.0
 40
1.0
 40
1.0
 40
1.0
 10
60.67828938115437
 20
20.46540930538133
 30
0.0
 10
60.6666903728044
 20
20.47600366231833
 30
0.0
 10
60.63760493673439
 20
20.50217441799532
 30
0.0
 10
60.58562079831438
 20
20.54728563440633
 30
0.0
 10
60.52262055108437
 20
20.59958487102833
 30
0.0
 10
60.44993412912439
 20
20.65672370049433
 30
0.0
 10
60.36941828580439
 20
20.71681029535533
 30
0.0
 10
60.2720386010044
 20
20.78505653804533
 30
0.0
 10
60.15137100445438
 20
20.86398906929233
 30
0.0
 10
59.9911766304644
 20
20.95994497831733
 30
0.0
 10
59.77282259002439
 20
21.07627812616133
 30
0.0
 10
59.47963077538438
 20
21.20911698791733
 30
0.0
 10
59.10478246111438
 20
21.34639668489933
 30
0.0
 10
58.65081020597438
 20
21.47398729955933
 30
0.0
 10
58.12088496541438
 20
21.58246261010332
 30
0.0
 10
57.51683327472438
 20
21.66753218780033
 30
0.0
 10
56.87767188340439
 20
21.72560370985233
 30
0.0
 10
56.43976986799439
 20
21.75121387532033
 30
0.0
 10
56.22801362714438
 20
21.76189291605033
 30
0.0
  0
LINE
  5
190
330
1F
100
AcDbEntity
  8
DEFAULT
 62
     7
100
AcDbLine
 10
41.34501747018438
 20
20.80615082520433
 30
0.0
 11
41.32962796508439
 21
20.77873647732833
 31
0.0
  0
SPLINE
  5
191
330
1F
100
AcDbEntity
  8
DEFAULT
 62
     7
100
AcDbSpline
210
0.0
220
0.0
230
1.0
 70
     8
 71
     3
 72
    16
 73
    12
 74
     0
 42
0.0000000001
 43
0.0000000001
 40
0.0
 40
0.0
 40
0.0
 40
0.0
 40
0.1496258833752
 40
0.3232586160565
 40
0.4812139874682
 40
0.6137846356435001
 40
0.7258356741139
 40
0.8253224642158
 40
0.9132127821821
 40
0.9891931615526
 40
1.0
 40
1.0
 40
1.0
 40
1.0
 10
48.18481415348439
 20
21.88252981079733
 30
0.0
 10
47.87488673234439
 20
21.88161629220133
 30
0.0
 10
47.20530799260438
 20
21.87872957447733
 30
0.0
 10
46.20857449479438
 20
21.87023037622633
 30
0.0
 10
45.24728505264438
 20
21.85019028886433
 30
0.0
 10
44.41423363798439
 20
21.80940297208533
 30
0.0
 10
43.70424973227438
 20
21.74246419804833
 30
0.0
 10
43.09134922617438
 20
21.64410022783633
 30
0.0
 10
42.55986876487439
 20
21.51922929470133
 30
0.0
 10
42.21500645216438
 20
21.40759179302333
 30
0.0
 10
42.04915063992439
 20
21.33763136614933
 30
0.0
 10
42.02860350594438
 20
21.32867425439233
 30
0.0
  0
ARC
  5
192
330
1F
100
AcDbEntity
  8
DEFAULT
 62
     7
100
AcDbCircle
 10
60.21644294074321
 20
19.70405666597633
 30
0.0
 40
0.8615966140925169
100
AcDbArc
 50
3.463733338585437
 51
18.241735208921
  0
ARC
  5
193
330
1F
100
AcDbEntity
  8
DEFAULT
 62
     7
100
AcDbCircle
 10
60.19596931515167
 20
19.70372352355579
 30
0.0
 40
0.8820546586642812
100
AcDbArc
 50
310.3048549969522
 51
3.404985041360109
  0
LINE
  5
194
330
1F
100
AcDbEntity
  8
DEFAULT
 62
     7
100
AcDbLine
 10
60.77476376103439
 20
20.37327058958833
 30
0.0
 11
60.7302843353844
 21
20.41682578982833
 31
0.0
  0
SPLINE
  5
195
330
1F
100
AcDbEntity
  8
DEFAULT
 62
     7
100
AcDbSpline
210
0.0
220
0.0
230
1.0
 70
     8
 71
     3
 72
    20
 73
    16
 74
     0
 42
0.0000000001
 43
0.0000000001
 40
0.0
 40
0.0
 40
0.0
 40
0.0
 40
0.04449662565176
 40
0.09407973372934
 40
0.1483349240719
 40
0.206867509918
 40
0.2697774064707
 40
0.337367951085
 40
0.4101727262841
 40
0.4890450036396
 40
0.575752839321
 40
0.6726975447548
 40
0.7816724471046
 40
0.8965127325293
 40
1.0
 40
1.0
 40
1.0
 40
1.0
 10
46.67443413844439
 20
20.37677679961533
 30
0.0
 10
46.62982886635438
 20
20.37607843310633
 30
0.0
 10
46.53551217193438
 20
20.37513736895333
 30
0.0
 10
46.38679773425438
 20
20.37474205080633
 30
0.0
 10
46.22401186053438
 20
20.37486530107332
 30
0.0
 10
46.04786450016439
 20
20.37463614240033
 30
0.0
 10
45.85835321771439
 20
20.37272113452433
 30
0.0
 10
45.65457850903439
 20
20.36799525805633
 30
0.0
 10
45.43485204238439
 20
20.36133149534433
 30
0.0
 10
45.19591969260438
 20
20.35564818599233
 30
0.0
 10
44.93268963546438
 20
20.35489129234433
 30
0.0
 10
44.63939063772438
 20
20.36516900527033
 30
0.0
 10
44.31900377635439
 20
20.39680621099733
 30
0.0
 10
43.99671977537438
 20
20.46252303796433
 30
0.0
 10
43.79022577335439
 20
20.53982763044133
 30
0.0
 10
43.69793298045439
 20
20.58722479493333
 30
0.0
  0
ARC
  5
196
330
1F
100
AcDbEntity
  8
DEFAULT
 62
     7
100
AcDbCircle
 10
41.98925940858899
 20
20.44455847113678
 30
0.0
 40
0.7394515402937789
100
AcDbArc
 50
153.1326256247776
 51
194.54646248545
  0
ARC
  5
197
330
1F
100
AcDbEntity
  8
DEFAULT
 62
     7
100
AcDbCircle
 10
60.15827529939762
 20
19.68060520979726
 30
0.0
 40
0.9241914058025459
100
AcDbArc
 50
18.49373906444478
 51
41.20461765958296
  0
ARC
  5
198
330
1F
100
AcDbEntity
  8
DEFAULT
 62
     7
100
AcDbCircle
 10
53.91598361970262
 20
18.26168529649305
 30
0.0
 40
1.236444528824129
100
AcDbArc
 50
88.71158426858879
 51
105.864404972109
  0
ARC
  5
199
330
1F
100
AcDbEntity
  8
DEFAULT
 62
     7
100
AcDbCircle
 10
56.16901681160378
 20
3.262819529386632
 30
0.0
 40
16.26179415018733
100
AcDbArc
 50
84.97068409397042
 51
90.00508139116229
  0
ARC
  5
19A
330
1F
100
AcDbEntity
  8
DEFAULT
 62
     7
100
AcDbCircle
 10
56.43194373491436
 20
-82.63561890960989
 30
0.0
 40
102.1637396852606
100
AcDbArc
 50
90.50235543680206
 51
91.39555307289805
  0
ARC
  5
19B
330
1F
100
AcDbEntity
  8
DEFAULT
 62
     7
100
AcDbCircle
 10
57.47563438690369
 20
17.78262190364425
 30
0.0
 40
1.683592778898199
100
AcDbArc
 50
73.16088628695989
 51
85.94738715109803
  0
ARC
  5
19C
330
1F
100
AcDbEntity
  8
DEFAULT
 62
     7
100
AcDbCircle
 10
57.68444288208146
 20
15.17061197607533
 30
0.0
 40
4.086566675289229
100
AcDbArc
 50
65.20463102777414
 51
85.83787407875705
  0
ARC
  5
19D
330
1F
100
AcDbEntity
  8
DEFAULT
 62
     7
100
AcDbCircle
 10
50.48714063400897
 20
-118.3765286169947
 30
0.0
 40
140.2561083068845
100
AcDbArc
 50
87.66058172568937
 51
90.1436260150163
  0
SPLINE
  5
19E
330
1F
100
AcDbEntity
  8
DEFAULT
 62
     7
100
AcDbSpline
210
0.0
220
0.0
230
1.0
 70
     8
 71
     3
 72
    15
 73
    11
 74
     0
 42
0.0000000001
 43
0.0000000001
 40
0.0
 40
0.0
 40
0.0
 40
0.0
 40
0.1607692339855
 40
0.2858193675958
 40
0.4108695012062
 40
0.5359196348165
 40
0.6609697684268
 40
0.7860199020372
 40
0.9110700356475
 40
1.0
 40
1.0
 40
1.0
 40
1.0
 10
42.22911428050438
 20
19.34607332854533
 30
0.0
 10
42.71438183130439
 20
19.24490779906633
 30
0.0
 10
43.57164377978439
 20
19.10386106646833
 30
0.0
 10
44.84096944037439
 20
18.98624770863533
 30
0.0
 10
46.06231263248439
 20
18.93739729340632
 30
0.0
 10
47.37690135425438
 20
18.93739922954233
 30
0.0
 10
48.82839124663439
 20
18.97724851808433
 30
0.0
 10
50.38326558073438
 20
19.04450321767433
 30
0.0
 10
51.82218780007437
 20
19.11754153814533
 30
0.0
 10
52.7195080436444
 20
19.16376414550233
 30
0.0
 10
53.08699160058438
 20
19.18216366380733
 30
0.0
  0
LINE
  5
19F
330
1F
100
AcDbEntity
  8
DEFAULT
 62
     7
100
AcDbLine
 10
55.15562389742439
 20
18.13904451659433
 30
0.0
 11
57.00318953007439
 21
18.26195697621433
 31
0.0
  0
SPLINE
  5
1A0
330
1F
100
AcDbEntity
  8
DEFAULT
 62
     7
100
AcDbSpline
210
0.0
220
0.0
230
1.0
 70
     8
 71
     3
 72
    21
 73
    17
 74
     0
 42
0.0000000001
 43
0.0000000001
 40
0.0
 40
0.0
 40
0.0
 40
0.0
 40
0.01120662860598
 40
0.1038643747286
 40
0.1997745576514
 40
0.2906630910889
 40
0.3743577797027
 40
0.4530602581995
 40
0.5281175722192
 40
0.6001028560959
 40
0.6681712083016
 40
0.7331195372081
 40
0.7970958127112
 40
0.8631853142135
 40
0.9331314496665
 40
1.0
 40
1.0
 40
1.0
 40
1.0
 10
51.36358718581439
 20
15.32136365816903
 30
0.0
 10
51.37592482405439
 20
15.33470201834443
 30
0.0
 10
51.49038052131439
 20
15.45822261874872
 30
0.0
 10
51.7122962522744
 20
15.69415297359982
 30
0.0
 10
52.02633901683439
 20
16.02075002033293
 30
0.0
 10
52.33339993583439
 20
16.33386805379083
 30
0.0
 10
52.62363975662439
 20
16.62438098411453
 30
0.0
 10
52.89834986628438
 20
16.89410474542833
 30
0.0
 10
53.16206514395438
 20
17.14789584828133
 30
0.0
 10
53.41694771533437
 20
17.38600012609833
 30
0.0
 10
53.6626209311944
 20
17.60972812039332
 30
0.0
 10
53.91016503134438
 20
17.81265547135833
 30
0.0
 10
54.18876212957437
 20
17.96718810129433
 30
0.0
 10
54.5009400249044
 20
18.06145546373532
 30
0.0
 10
54.82633949382438
 20
18.11280244036333
 30
0.0
 10
55.04744236536439
 20
18.13186509075633
 30
0.0
 10
55.15562550753438
 20
18.13904636020033
 30
0.0
  0
SPLINE
  5
1A1
330
1F
100
AcDbEntity
  8
DEFAULT
 62
     7
100
AcDbSpline
210
0.0
220
0.0
230
1.0
 70
     8
 71
     3
 72
    45
 73
    41
 74
     0
 42
0.0000000001
 43
0.0000000001
 40
0.0
 40
0.0
 40
0.0
 40
0.0
 40
0.0002240511314206
 40
0.006276899523933
 40
0.01620379385246
 40
0.02887606183779
 40
0.04387824973743
 40
0.0604629289008
 40
0.07785171738657
 40
0.09757273139873
 40
0.1200152094795
 40
0.1443940401125
 40
0.1697874111845
 40
0.1957925266864
 40
0.2222242986967
 40
0.2489293637241
 40
0.2759678267116
 40
0.3034393968011
 40
0.3312474541687
 40
0.3592580078634
 40
0.387552291212
 40
0.4162535006882
 40
0.4453580077848
 40
0.474822151939
 40
0.5046485904749
 40
0.5348533242195001
 40
0.5654569762265
 40
0.5964759562334
 40
0.6279303411089
 40
0.6598457494996
 40
0.6922531648266
 40
0.7251888838139
 40
0.7586945681696
 40
0.7928173794282
 40
0.8276099373452001
 40
0.8630950301619
 40
0.8992800157106
 40
0.9361844053722001
 40
0.9738280265798001
 40
1.0
 40
1.0
 40
1.0
 40
1.0
 10
50.11539942746439
 20
13.72127882930132
 30
0.0
 10
50.11536826222439
 20
13.72117864348632
 30
0.0
 10
50.11460771636438
 20
13.71869794199432
 30
0.0
 10
50.12206870756439
 20
13.73953570166033
 30
0.0
 10
50.12735326498439
 20
13.75102500789132
 30
0.0
 10
50.13877248952438
 20
13.77676892093932
 30
0.0
 10
50.15174232485439
 20
13.80276912097632
 30
0.0
 10
50.16734294280439
 20
13.83237295710832
 30
0.0
 10
50.18516402589439
 20
13.86398190179032
 30
0.0
 10
50.20608416004439
 20
13.89850277357232
 30
0.0
 10
50.23001542888438
 20
13.93668266233832
 30
0.0
 10
50.25649831732438
 20
13.97780703835833
 30
0.0
 10
50.28472392168438
 20
14.02067129958332
 30
0.0
 10
50.31412223760439
 20
14.06442657573033
 30
0.0
 10
50.34440420347439
 20
14.10865562425632
 30
0.0
 10
50.37551215803439
 20
14.15316473526532
 30
0.0
 10
50.40752609849438
 20
14.19789583018032
 30
0.0
 10
50.44046891875438
 20
14.24287644170332
 30
0.0
 10
50.47423863211439
 20
14.28806401951333
 30
0.0
 10
50.50875043757439
 20
14.33338970631032
 30
0.0
 10
50.54402817778439
 20
14.37888968173832
 30
0.0
 10
50.58013895164438
 20
14.42467868109632
 30
0.0
 10
50.61709218427439
 20
14.47081007677232
 30
0.0
 10
50.65484857687438
 20
14.51727258995732
 30
0.0
 10
50.69337854159439
 20
14.56406494972933
 30
0.0
 10
50.73268211224438
 20
14.61121855343732
 30
0.0
 10
50.77276629486439
 20
14.65877167418732
 30
0.0
 10
50.81363994075438
 20
14.70676515998432
 30
0.0
 10
50.85531705198438
 20
14.75524037601532
 30
0.0
 10
50.89782012864439
 20
14.80424475775432
 30
0.0
 10
50.94118088375439
 20
14.85383258903542
 30
0.0
 10
50.98543998981439
 20
14.90406499409832
 30
0.0
 10
51.03064704407438
 20
14.95501003429953
 30
0.0
 10
51.07686055305438
 20
15.00674280591903
 30
0.0
 10
51.12413191923438
 20
15.05932774167432
 30
0.0
 10
51.17249566325439
 20
15.11280830522402
 30
0.0
 10
51.22197161459439
 20
15.16721110219172
 30
0.0
 10
51.27257922998438
 20
15.22256044433282
 30
0.0
 10
51.31873946555438
 20
15.27278675157433
 30
0.0
 10
51.34805227385439
 20
15.30454907728572
 30
0.0
 10
51.36008472954439
 20
15.31756549234783
 30
0.0
  0
SPLINE
  5
1A2
330
1F
100
AcDbEntity
  8
DEFAULT
 62
     7
100
AcDbSpline
210
0.0
220
0.0
230
1.0
 70
     8
 71
     3
 72
    47
 73
    43
 74
     0
 42
0.0000000001
 43
0.0000000001
 40
0.0
 40
0.0
 40
0.0
 40
0.0
 40
0.01139084074764
 40
0.02617191195025
 40
0.04154520967294
 40
0.05721155097118
 40
0.07336055432995
 40
0.09004996151159
 40
0.1072478321267
 40
0.1249237809022
 40
0.1431428684613
 40
0.1619768878026
 40
0.1814982325203
 40
0.201739169667
 40
0.222674053321
 40
0.2442778181206
 40
0.2665281060685
 40
0.2894189843436
 40
0.3129764549112
 40
0.337225938762
 40
0.3621868422873
 40
0.3878700129203
 40
0.414273741314
 40
0.4413800857231
 40
0.4691609473896
 40
0.4975785986556
 40
0.5265836411226
 40
0.5561335618299
 40
0.5862252979344
 40
0.6168544632134
 40
0.6480135606913
 40
0.6796934662467
 40
0.7118848842378001
 40
0.7445795528378
 40
0.7777712381418001
 40
0.8114566432559
 40
0.845634833641
 40
0.8802981696959
 40
0.9154353227221
 40
0.9510333738063
 40
0.9870825695284
 40
1.0
 40
1.0
 40
1.0
 40
1.0
 10
57.0034806319444
 20
18.26199228244533
 30
0.0
 10
57.0094992009644
 20
18.26239300338533
 30
0.0
 10
57.02332009247439
 20
18.26342825690833
 30
0.0
 10
57.04522322129438
 20
18.26550596986033
 30
0.0
 10
57.06931893474439
 20
18.26837615252532
 30
0.0
 10
57.09405065554438
 20
18.27196503498033
 30
0.0
 10
57.11936319770439
 20
18.27634199161833
 30
0.0
 10
57.1453337597944
 20
18.28161153569333
 30
0.0
 10
57.1719166021544
 20
18.28786737945933
 30
0.0
 10
57.19906149476438
 20
18.29520757885232
 30
0.0
 10
57.22676071541437
 20
18.30375200493933
 30
0.0
 10
57.2550437154344
 20
18.31365156681833
 30
0.0
 10
57.2839043469744
 20
18.32507039046833
 30
0.0
 10
57.31326718443438
 20
18.33816803239933
 30
0.0
 10
57.34298885555438
 20
18.35308740697733
 30
0.0
 10
57.3728821678144
 20
18.36995131094833
 30
0.0
 10
57.40275074541438
 20
18.38887688389132
 30
0.0
 10
57.4324177442644
 20
18.40996011498233
 30
0.0
 10
57.46173775719439
 20
18.43326710677733
 30
0.0
 10
57.49056920748438
 20
18.45886012398433
 30
0.0
 10
57.51876489591439
 20
18.48677707352233
 30
0.0
 10
57.54617191477439
 20
18.51702695800233
 30
0.0
 10
57.57263498035439
 20
18.54958367599433
 30
0.0
 10
57.59800300542437
 20
18.58438465848233
 30
0.0
 10
57.62213546492438
 20
18.62133330990033
 30
0.0
 10
57.6449098006344
 20
18.66030236520533
 30
0.0
 10
57.66622233423439
 20
18.70114815472533
 30
0.0
 10
57.68602484281439
 20
18.74372471480332
 30
0.0
 10
57.70433823036439
 20
18.78789313937532
 30
0.0
 10
57.72119123648437
 20
18.83354697724433
 30
0.0
 10
57.73661766191438
 20
18.88058683094632
 30
0.0
 10
57.75065217756438
 20
18.92892139041033
 30
0.0
 10
57.76333001562438
 20
18.97846813427733
 30
0.0
 10
57.77468604345438
 20
19.02915426801632
 30
0.0
 10
57.78475386309438
 20
19.08091733308533
 30
0.0
 10
57.79356631869439
 20
19.13370484734333
 30
0.0
 10
57.80114859246439
 20
19.18746957274733
 30
0.0
 10
57.80754662467439
 20
19.24216141433533
 30
0.0
 10
57.81281456834438
 20
19.29772833937233
 30
0.0
 10
57.81699799008439
 20
19.35412284850233
 30
0.0
 10
57.81945416817439
 20
19.39883772640333
 30
0.0
 10
57.82056123967439
 20
19.42474393636833
 30
0.0
 10
57.8208318746444
 20
19.43157886103533
 30
0.0
  0
LINE
  5
1A3
330
1F
100
AcDbEntity
  8
DEFAULT
 62
     7
100
AcDbLine
 10
47.92366514031439
 20
14.27410477769332
 30
0.0
 11
47.80096488766439
 21
14.15561903961332
 31
0.0
  0
ARC
  5
1A4
330
1F
100
AcDbEntity
  8
DEFAULT
 62
     7
100
AcDbCircle
 10
47.86609065542476
 20
14.08818119673485
 30
0.0
 40
0.0937508841797354
100
AcDbArc
 50
134.0007720656007
 51
182.6590093044246
  0
ARC
  5
1A5
330
1F
100
AcDbEntity
  8
DEFAULT
 62
     7
100
AcDbCircle
 10
49.35517993170076
 20
88.95135923716178
 30
0.0
 40
76.2466842309495
100
AcDbArc
 50
269.2962496745756
 51
270.2499748401592
  0
LINE
  5
1A6
330
1F
100
AcDbEntity
  8
DEFAULT
 62
     7
100
AcDbLine
 10
50.00477163703439
 20
12.70809319860032
 30
0.0
 11
50.08125892643438
 21
12.70623856916132
 31
0.0
  0
ARC
  5
1A7
330
1F
100
AcDbEntity
  8
DEFAULT
 62
     7
100
AcDbCircle
 10
49.92272751407698
 20
5.890734638018864
 30
0.0
 40
6.817852226445302
100
AcDbArc
 50
89.31050200499118
 51
91.65800525013225
  0
LINE
  5
1A8
330
1F
100
AcDbEntity
  8
DEFAULT
 62
     7
100
AcDbLine
 10
49.68781851559438
 20
12.70540140045032
 30
0.0
 11
49.72546242221439
 21
12.70573247112032
 31
0.0
  0
LINE
  5
1A9
330
1F
100
AcDbEntity
  8
DEFAULT
 62
     7
100
AcDbLine
 10
48.38304155486438
 20
12.71070900158932
 30
0.0
 11
48.41871565033438
 21
12.71043639299933
 31
0.0
  0
LINE
  5
1AA
330
1F
100
AcDbEntity
  8
DEFAULT
 62
     7
100
AcDbLine
 10
47.94466297416438
 20
12.70717550265532
 30
0.0
 11
48.38304155486438
 21
12.71070900158932
 31
0.0
  0
LINE
  5
1AB
330
1F
100
AcDbEntity
  8
DEFAULT
 62
     7
100
AcDbLine
 10
47.92453603215439
 20
12.70689428351433
 30
0.0
 11
47.94466297416438
 21
12.70717550265532
 31
0.0
  0
LINE
  5
1AC
330
1F
100
AcDbEntity
  8
DEFAULT
 62
     7
100
AcDbLine
 10
47.89801698221438
 20
12.70670478124132
 30
0.0
 11
47.92453603215439
 21
12.70689428351433
 31
0.0
  0
ARC
  5
1AD
330
1F
100
AcDbEntity
  8
DEFAULT
 62
     7
100
AcDbCircle
 10
47.89613076646953
 20
12.76924213801082
 30
0.0
 40
0.0625849421592959
100
AcDbArc
 50
188.2624781276479
 51
236.3090706769359
  0
LINE
  5
1AE
330
1F
100
AcDbEntity
  8
DEFAULT
 62
     7
100
AcDbLine
 10
56.91478775185439
 20
18.25607676988133
 30
0.0
 11
57.00318953007439
 21
18.26195697621433
 31
0.0
  0
ARC
  5
1AF
330
1F
100
AcDbEntity
  8
DEFAULT
 62
     7
100
AcDbCircle
 10
47.89612977027765
 20
12.76945248188859
 30
0.0
 40
0.0627605560615154
100
AcDbArc
 50
237.2183339001783
 51
268.9837113060288
  0
LINE
  5
1B0
330
1F
100
AcDbEntity
  8
DEFAULT
 62
     7
100
AcDbLine
 10
47.99438251464438
 20
14.34240572303532
 30
0.0
 11
47.92366514031439
 21
14.27410477769332
 31
0.0
  0
LINE
  5
1B1
330
1F
100
AcDbEntity
  8
DEFAULT
 62
     7
100
AcDbLine
 10
50.11104462260439
 20
16.38480899808653
 30
0.0
 11
47.99438251464438
 21
14.34240572303532
 31
0.0
  0
LINE
  5
1B2
330
1F
100
AcDbEntity
  8
DEFAULT
 62
     7
100
AcDbLine
 10
51.23772167059439
 20
17.46690655165533
 30
0.0
 11
50.23691909604438
 21
16.50602057457543
 31
0.0
  0
LINE
  5
1B3
330
1F
100
AcDbEntity
  8
DEFAULT
 62
     7
100
AcDbLine
 10
53.33047815046439
 20
19.36618031027633
 30
0.0
 11
53.28132405851437
 21
19.33415625502932
 31
0.0
  0
ARC
  5
1B4
330
1F
100
AcDbEntity
  8
DEFAULT
 62
     7
100
AcDbCircle
 10
54.05802989383616
 20
18.189049359557
 30
0.0
 40
1.383823982457558
100
AcDbArc
 50
111.161662143222
 51
121.7190525141537
  0
LINE
  5
1B5
330
1F
100
AcDbEntity
  8
DEFAULT
 62
     7
100
AcDbLine
 10
53.27560013937438
 20
19.33015919285133
 30
0.0
 11
53.33045498035438
 21
19.36621736652933
 31
0.0
  0
ARC
  5
1B6
330
1F
100
AcDbEntity
  8
DEFAULT
 62
     7
100
AcDbCircle
 10
78.67368842659124
 20
-10.46478850324215
 30
0.0
 40
39.15242430533088
100
AcDbArc
 50
130.4666002665717
 51
134.4870221011396
  0
LINE
  5
1B7
330
1F
100
AcDbEntity
  8
DEFAULT
 62
     7
100
AcDbLine
 10
51.21211608859438
 20
17.44241947802733
 30
0.0
 11
51.23771753457438
 21
17.46691087572633
 31
0.0
  0
ARC
  5
1B8
330
1F
100
AcDbEntity
  8
DEFAULT
 62
     7
100
AcDbCircle
 10
56.97963275582586
 20
28.95313694827852
 30
0.0
 40
0.1065525526226091
100
AcDbArc
 50
322.8844511003979
 51
339.526534986337
  0
ARC
  5
1B9
330
1F
100
AcDbEntity
  8
DEFAULT
 62
     7
100
AcDbCircle
 10
56.97927008046187
 20
28.95370837212424
 30
0.0
 40
0.1071868299952268
100
AcDbArc
 50
300.6191526395355
 51
322.7578621474078
  0
LINE
  5
1BA
330
1F
100
AcDbEntity
  8
DEFAULT
 62
     7
100
AcDbLine
 10
57.01331370084438
 20
28.85203741629033
 30
0.0
 11
57.03386345353439
 21
28.86146640694033
 31
0.0
  0
LINE
  5
1BB
330
1F
100
AcDbEntity
  8
DEFAULT
 62
     7
100
AcDbLine
 10
52.35685457054439
 20
29.38557784468032
 30
0.0
 11
52.54767523161439
 21
29.38565327003033
 31
0.0
  0
LINE
  5
1BC
330
1F
100
AcDbEntity
  8
DEFAULT
 62
     7
100
AcDbLine
 10
52.33612087922438
 20
29.38547184872033
 30
0.0
 11
52.35685457054439
 21
29.38557784468032
 31
0.0
  0
LINE
  5
1BD
330
1F
100
AcDbEntity
  8
DEFAULT
 62
     7
100
AcDbLine
 10
52.22200611490439
 20
29.38454504966033
 30
0.0
 11
52.33612087922438
 21
29.38547184872033
 31
0.0
  0
ARC
  5
1BE
330
1F
100
AcDbEntity
  8
DEFAULT
 62
     7
100
AcDbCircle
 10
52.45235683485407
 20
7.252098034964027
 30
0.0
 40
22.13364350542247
100
AcDbArc
 50
90.61829135952553
 51
98.30713594033955
  0
LINE
  5
1BF
330
1F
100
AcDbEntity
  8
DEFAULT
 62
     7
100
AcDbLine
 10
56.19911738110437
 20
29.07552240361033
 30
0.0
 11
56.59743448654439
 21
29.00728043242033
 31
0.0
  0
ARC
  5
1C0
330
1F
100
AcDbEntity
  8
DEFAULT
 62
     7
100
AcDbCircle
 10
48.28136598648316
 20
29.29502407351286
 30
0.0
 40
0.2533394982654509
100
AcDbArc
 50
99.73135247110015
 51
179.3479055894886
  0
ARC
  5
1C1
330
1F
100
AcDbEntity
  8
DEFAULT
 62
     7
100
AcDbCircle
 10
52.4497535003602
 20
12.27002755523136
 30
0.0
 40
17.78058559342545
100
AcDbArc
 50
100.9087831913975
 51
103.7000924153144
  0
LINE
  5
1C2
330
1F
100
AcDbEntity
  8
DEFAULT
 62
     7
100
AcDbLine
 10
49.12784655470438
 20
29.73755507295033
 30
0.0
 11
49.08484931965439
 21
29.72931287565033
 31
0.0
  0
LINE
  5
1C3
330
1F
100
AcDbEntity
  8
DEFAULT
 62
     7
100
AcDbLine
 10
55.97192100835437
 20
29.11189976107033
 30
0.0
 11
56.19187782021439
 21
29.07671125700033
 31
0.0
  0
ARC
  5
1C4
330
1F
100
AcDbEntity
  8
DEFAULT
 62
     7
100
AcDbCircle
 10
52.42969938320366
 20
6.454294066720574
 30
0.0
 40
22.93282428839317
100
AcDbArc
 50
81.11447615418057
 51
84.23571837677055
  0
ARC
  5
1C5
330
1F
100
AcDbEntity
  8
DEFAULT
 62
     7
100
AcDbCircle
 10
52.45698146130736
 20
6.743794734486496
 30
0.0
 40
22.64204745445878
100
AcDbArc
 50
84.23082898499196
 51
89.63761661934822
  0
LINE
  5
1C6
330
1F
100
AcDbEntity
  8
DEFAULT
 62
     7
100
AcDbLine
 10
52.55498430216437
 20
29.38562388823032
 30
0.0
 11
52.6001865466844
 21
29.38538931688033
 31
0.0
  0
LINE
  5
1C7
330
1F
100
AcDbEntity
  8
DEFAULT
 62
     7
100
AcDbLine
 10
52.33612100802438
 20
29.38544810240033
 30
0.0
 11
52.22200649798438
 21
29.38450898818033
 31
0.0
  0
LINE
  5
1C8
330
1F
100
AcDbEntity
  8
DEFAULT
 62
     7
100
AcDbLine
 10
52.35685466800439
 20
29.38555633505033
 30
0.0
 11
52.33612100802438
 21
29.38544810240033
 31
0.0
  0
LINE
  5
1C9
330
1F
100
AcDbEntity
  8
DEFAULT
 62
     7
100
AcDbLine
 10
52.54767522705438
 20
29.38565234375033
 30
0.0
 11
52.35685466800439
 21
29.38555633505033
 31
0.0
  0
ARC
  5
1CA
330
1F
100
AcDbEntity
  8
DEFAULT
 62
     7
100
AcDbCircle
 10
48.10541466711525
 20
29.01879121550164
 30
0.0
 40
0.0802123327859052
100
AcDbArc
 50
188.5408032721009
 51
303.6958482438425
  0
ARC
  5
1CB
330
1F
100
AcDbEntity
  8
DEFAULT
 62
     7
100
AcDbCircle
 10
52.06295764408195
 20
9.870238739148785
 30
0.0
 40
19.48634831146599
100
AcDbArc
 50
98.33724555086293
 51
100.1224480992193
  0
ARC
  5
1CC
330
1F
100
AcDbEntity
  8
DEFAULT
 62
     7
100
AcDbCircle
 10
50.19078150221304
 20
19.98360965397134
 30
0.0
 40
9.201301456607897
100
AcDbArc
 50
99.99317709641774
 51
102.8880322710164
  0
ARC
  5
1CD
330
1F
100
AcDbEntity
  8
DEFAULT
 62
     7
100
AcDbCircle
 10
42.12417185120695
 20
2.274179084050722
 30
0.0
 40
0.1044479331266798
100
AcDbArc
 50
179.3653117388129
 51
270.0905496863784
  0
LINE
  5
1CE
330
1F
100
AcDbEntity
  8
DEFAULT
 62
     7
100
AcDbLine
 10
42.01702121347439
 20
2.228046681740324
 30
0.0
 11
42.01973032635438
 21
2.275336071910325
 31
0.0
  0
ARC
  5
1CF
330
1F
100
AcDbEntity
  8
DEFAULT
 62
     7
100
AcDbCircle
 10
57.41082489802652
 20
2.274179084060219
 30
0.0
 40
0.1044479331361522
100
AcDbArc
 50
179.3653117440801
 51
270.090549681116
  0
LINE
  5
1D0
330
1F
100
AcDbEntity
  8
DEFAULT
 62
     7
100
AcDbLine
 10
57.3036742602844
 20
2.228046681740324
 30
0.0
 11
57.30638337316438
 21
2.275336071910325
 31
0.0
  0
ARC
  5
1D1
330
1F
100
AcDbEntity
  8
DEFAULT
 62
     7
100
AcDbCircle
 10
52.58093662913478
 20
11.81582630819869
 30
0.0
 40
18.24841717405104
100
AcDbArc
 50
93.7838994391149
 51
94.84866179157929
  0
ARC
  5
1D2
330
1F
100
AcDbEntity
  8
DEFAULT
 62
     7
100
AcDbCircle
 10
52.58131621615427
 20
11.81016342431229
 30
0.0
 40
18.2540927634268
100
AcDbArc
 50
92.48285215668354
 51
93.78391527735248
  0
LINE
  5
1D3
330
1F
100
AcDbEntity
  8
DEFAULT
 62
     7
100
AcDbLine
 10
51.8740649423944
 20
30.05054990021032
 30
0.0
 11
51.79054190907439
 21
30.04711982090032
 31
0.0
  0
ARC
  5
1D4
330
1F
100
AcDbEntity
  8
DEFAULT
 62
     7
100
AcDbCircle
 10
52.58123700111918
 20
11.82473185631012
 30
0.0
 40
18.23953222234604
100
AcDbArc
 50
78.9960486376269
 51
92.221994071857
  0
LINE
  5
1D5
330
1F
100
AcDbEntity
  8
DEFAULT
 62
     7
100
AcDbLine
 10
56.12390215841438
 20
29.71692960087033
 30
0.0
 11
56.0896081731444
 21
29.72366773822033
 31
0.0
  0
ARC
  5
1D6
330
1F
100
AcDbEntity
  8
DEFAULT
 62
     7
100
AcDbCircle
 10
52.61599601025677
 20
11.93464627011342
 30
0.0
 40
18.12498292411877
100
AcDbArc
 50
76.1993902247326
 51
78.8405627521185
  0
LINE
  5
1D7
330
1F
100
AcDbEntity
  8
DEFAULT
 62
     7
100
AcDbLine
 10
56.9734861054844
 20
29.52802826302033
 30
0.0
 11
56.93959818404437
 21
29.53639249719032
 31
0.0
  0
LINE
  5
1D8
330
1F
100
AcDbEntity
  8
DEFAULT
 62
     7
100
AcDbLine
 10
57.00412632055438
 20
29.52040518542033
 30
0.0
 11
56.9734861054844
 21
29.52802826302033
 31
0.0
  0
ARC
  5
1D9
330
1F
100
AcDbEntity
  8
DEFAULT
 62
     7
100
AcDbCircle
 10
56.9494029612391
 20
29.24963541130355
 30
0.0
 40
0.2762411842917905
100
AcDbArc
 50
52.6695138629729
 51
78.55921643515262
  0
ARC
  5
1DA
330
1F
100
AcDbEntity
  8
DEFAULT
 62
     7
100
AcDbCircle
 10
56.96346180432345
 20
29.27213153843941
 30
0.0
 40
0.2497888570641839
100
AcDbArc
 50
359.6059286234874
 51
35.2739805895801
  0
ARC
  5
1DB
330
1F
100
AcDbEntity
  8
DEFAULT
 62
     7
100
AcDbCircle
 10
57.14787708996082
 20
28.98187827111465
 30
0.0
 40
0.0634805882610006
100
AcDbArc
 50
261.0458352774485
 51
359.2478763847364
  0
ARC
  5
1DC
330
1F
100
AcDbEntity
  8
DEFAULT
 62
     7
100
AcDbCircle
 10
37.40588190638653
 20
2.274179084060215
 30
0.0
 40
0.1044479331361593
100
AcDbArc
 50
179.3653117440782
 51
270.0905496811121
  0
LINE
  5
1DD
330
1F
100
AcDbEntity
  8
DEFAULT
 62
     7
100
AcDbLine
 10
37.29873126864438
 20
2.228046681740324
 30
0.0
 11
37.30144038152438
 21
2.275336071910325
 31
0.0
  0
ARC
  5
1DE
330
1F
100
AcDbEntity
  8
DEFAULT
 62
     7
100
AcDbCircle
 10
62.13335133006321
 20
2.274179084066823
 30
0.0
 40
0.1044479331427648
100
AcDbArc
 50
179.3653117477435
 51
270.0905496829305
  0
LINE
  5
1DF
330
1F
100
AcDbEntity
  8
DEFAULT
 62
     7
100
AcDbLine
 10
62.02620069231438
 20
2.228046681740324
 30
0.0
 11
62.02890980519439
 21
2.275336071910325
 31
0.0
  0
ARC
  5
1E0
330
1F
100
AcDbEntity
  8
DEFAULT
 62
     7
100
AcDbCircle
 10
77.7359519202644
 20
5.175544503950324
 30
0.0
 40
30.00000025752856
100
AcDbArc
 50
175.2284592952994
 51
176.2481547714524
  0
ARC
  5
1E1
330
1F
100
AcDbEntity
  8
DEFAULT
 62
     7
100
AcDbCircle
 10
20.23277392026439
 20
5.175544503950324
 30
0.0
 40
30.00000011928625
100
AcDbArc
 50
3.752333323435622
 51
4.771540704700644
  0
ARC
  5
1E2
330
1F
100
AcDbEntity
  8
DEFAULT
 62
     7
100
AcDbCircle
 10
107.7565099202644
 20
6.427816503950323
 30
0.0
 40
60.00000056852269
100
AcDbArc
 50
184.9587703752588
 51
185.4380139016438
  0
ARC
  5
1E3
330
1F
100
AcDbEntity
  8
DEFAULT
 62
     7
100
AcDbCircle
 10
107.7565099202644
 20
6.427816503950323
 30
0.0
 40
60.00000020251328
100
AcDbArc
 50
182.3773616461205
 51
183.8587150302668
  0
ARC
  5
1E4
330
1F
100
AcDbEntity
  8
DEFAULT
 62
     7
100
AcDbCircle
 10
-9.787784079735616
 20
6.427816503950323
 30
0.0
 40
60.00000056852269
100
AcDbArc
 50
354.5619860983562
 51
355.0412296247412
  0
ARC
  5
1E5
330
1F
100
AcDbEntity
  8
DEFAULT
 62
     7
100
AcDbCircle
 10
-9.787784079735616
 20
6.427816503950323
 30
0.0
 40
60.00000020251328
100
AcDbArc
 50
356.1412849697332
 51
357.6226383538795
  0
ARC
  5
1E6
330
1F
100
AcDbEntity
  8
DEFAULT
 62
     7
100
AcDbCircle
 10
49.99925292026439
 20
7.660216503950323
 30
0.0
 40
0.1300002790301681
100
AcDbArc
 50
4.771620717266838
 51
90.0
  0
ARC
  5
1E7
330
1F
100
AcDbEntity
  8
DEFAULT
 62
     7
100
AcDbCircle
 10
47.96947192026439
 20
7.660216503950323
 30
0.0
 40
0.1299997807630979
100
AcDbArc
 50
90.0
 51
175.2283426202488
  0
ARC
  5
1E8
330
1F
100
AcDbEntity
  8
DEFAULT
 62
     7
100
AcDbCircle
 10
48.11614592026438
 20
0.7502165039503235
 30
0.0
 40
0.0900000218499889
100
AcDbArc
 50
185.4378875598016
 51
270.0
  0
ARC
  5
1E9
330
1F
100
AcDbEntity
  8
DEFAULT
 62
     7
100
AcDbCircle
 10
49.85257992026438
 20
0.7502165039503235
 30
0.0
 40
0.090000021849996
100
AcDbArc
 50
270.0
 51
354.5621124401992
  0
ARC
  5
1EA
330
1F
100
AcDbEntity
  8
DEFAULT
 62
     7
100
AcDbCircle
 10
42.48422192026438
 20
20.56976450395033
 30
0.0
 40
1.249999793485379
100
AcDbArc
 50
194.4032520585547
 51
258.2239760569086
  0
ARC
  5
1EB
330
1F
100
AcDbEntity
  8
DEFAULT
 62
     7
100
AcDbCircle
 10
50.07538492026439
 20
12.76846650395032
 30
0.0
 40
0.0625001194877434
100
AcDbArc
 50
279.9283224287611
 51
353.2888778514545
  0
ARC
  5
1EC
330
1F
100
AcDbEntity
  8
DEFAULT
 62
     7
100
AcDbCircle
 10
42.08891792026439
 20
1.087633503950324
 30
0.0
 40
1.142676954349732
100
AcDbArc
 50
93.60742112016061
 51
201.3304775087081
  0
ARC
  5
1ED
330
1F
100
AcDbEntity
  8
DEFAULT
 62
     7
100
AcDbCircle
 10
41.15434792026438
 20
1.154837503950324
 30
0.0
 40
0.4999997394051853
100
AcDbArc
 50
183.0000011085596
 51
254.9499693759033
  0
ARC
  5
1EE
330
1F
100
AcDbEntity
  8
DEFAULT
 62
     7
100
AcDbCircle
 10
42.18257692026439
 20
2.266596503950325
 30
0.0
 40
0.1000002671244445
100
AcDbArc
 50
176.9997700225651
 51
265.2568182829034
  0
CIRCLE
  5
1EF
330
1F
100
AcDbEntity
  8
DEFAULT
 62
     7
100
AcDbCircle
 10
42.08891792026439
 20
1.087633503950324
 30
0.0
 40
1.082677
  0
ARC
  5
1F0
330
1F
100
AcDbEntity
  8
DEFAULT
 62
     7
100
AcDbCircle
 10
57.37557092026438
 20
1.087633503950324
 30
0.0
 40
1.142676954349732
100
AcDbArc
 50
93.60742112016061
 51
201.3304775087081
  0
ARC
  5
1F1
330
1F
100
AcDbEntity
  8
DEFAULT
 62
     7
100
AcDbCircle
 10
56.44100092026437
 20
1.154837503950324
 30
0.0
 40
0.4999997394051853
100
AcDbArc
 50
183.0000011085596
 51
254.9499693759033
  0
ARC
  5
1F2
330
1F
100
AcDbEntity
  8
DEFAULT
 62
     7
100
AcDbCircle
 10
57.46922992026438
 20
2.266596503950325
 30
0.0
 40
0.1000002671244445
100
AcDbArc
 50
176.9997700225651
 51
265.2568182829034
  0
CIRCLE
  5
1F3
330
1F
100
AcDbEntity
  8
DEFAULT
 62
     7
100
AcDbCircle
 10
57.37557092026438
 20
1.087633503950324
 30
0.0
 40
1.082677
  0
ARC
  5
1F4
330
1F
100
AcDbEntity
  8
DEFAULT
 62
     7
100
AcDbCircle
 10
37.37062792026439
 20
1.087633503950324
 30
0.0
 40
1.142676954349732
100
AcDbArc
 50
93.60742112016061
 51
201.3304775087081
  0
ARC
  5
1F5
330
1F
100
AcDbEntity
  8
DEFAULT
 62
     7
100
AcDbCircle
 10
36.43605792026438
 20
1.154837503950324
 30
0.0
 40
0.4999997394051853
100
AcDbArc
 50
183.0000011085596
 51
254.9499693759033
  0
ARC
  5
1F6
330
1F
100
AcDbEntity
  8
DEFAULT
 62
     7
100
AcDbCircle
 10
37.46428692026438
 20
2.266596503950325
 30
0.0
 40
0.1000002671244445
100
AcDbArc
 50
176.9997700225651
 51
265.2568182829034
  0
CIRCLE
  5
1F7
330
1F
100
AcDbEntity
  8
DEFAULT
 62
     7
100
AcDbCircle
 10
37.37062792026439
 20
1.087633503950324
 30
0.0
 40
1.082677
  0
ARC
  5
1F8
330
1F
100
AcDbEntity
  8
DEFAULT
 62
     7
100
AcDbCircle
 10
62.09809792026439
 20
1.087633503950324
 30
0.0
 40
1.142677420098695
100
AcDbArc
 50
93.60742112016078
 51
201.3304592698341
  0
ARC
  5
1F9
330
1F
100
AcDbEntity
  8
DEFAULT
 62
     7
100
AcDbCircle
 10
61.16352692026439
 20
1.154837503950324
 30
0.0
 40
0.4999997394051853
100
AcDbArc
 50
183.0000011085596
 51
254.9499693759033
  0
ARC
  5
1FA
330
1F
100
AcDbEntity
  8
DEFAULT
 62
     7
100
AcDbCircle
 10
62.1917559202644
 20
2.266596503950325
 30
0.0
 40
0.1000002671244522
100
AcDbArc
 50
176.9997700225656
 51
265.2568182828956
  0
CIRCLE
  5
1FB
330
1F
100
AcDbEntity
  8
DEFAULT
 62
     7
100
AcDbCircle
 10
62.09809792026439
 20
1.087633503950324
 30
0.0
 40
1.082677
  0
ARC
  5
1FC
330
1F
100
AcDbEntity
  8
DEFAULT
 62
     7
100
AcDbCircle
 10
49.73436292026438
 20
1.087633503950324
 30
0.0
 40
1.082677360012168
100
AcDbArc
 50
206.4669997693605
 51
69.16859906861083
  0
LINE
  5
1FD
330
1F
100
AcDbEntity
  8
DEFAULT
 62
     7
100
AcDbLine
 10
62.09189292026437
 20
2.271830503950325
 30
0.0
 11
62.09809792026439
 21
2.390216503950324
 31
0.0
  0
LINE
  5
1FE
330
1F
100
AcDbEntity
  8
DEFAULT
 62
     7
100
AcDbLine
 10
60.59809792026439
 20
2.390216503950324
 30
0.0
 11
60.59809792026439
 21
2.745073503950325
 31
0.0
  0
LINE
  5
1FF
330
1F
100
AcDbEntity
  8
DEFAULT
 62
     7
100
AcDbLine
 10
60.66421192026439
 20
1.128669503950324
 30
0.0
 11
60.59809792026439
 21
2.390216503950324
 31
0.0
  0
LINE
  5
200
330
1F
100
AcDbEntity
  8
DEFAULT
 62
     7
100
AcDbLine
 10
57.96334592026437
 20
19.39402550395033
 30
0.0
 11
57.98104192026437
 21
19.24640150395033
 31
0.0
  0
LINE
  5
201
330
1F
100
AcDbEntity
  8
DEFAULT
 62
     7
100
AcDbLine
 10
57.36936692026438
 20
2.271830503950325
 30
0.0
 11
57.37557092026438
 21
2.390216503950324
 31
0.0
  0
LINE
  5
202
330
1F
100
AcDbEntity
  8
DEFAULT
 62
     7
100
AcDbLine
 10
57.21132992026438
 20
28.98107250395033
 30
0.0
 11
57.21324492026437
 21
29.27041250395033
 31
0.0
  0
LINE
  5
203
330
1F
100
AcDbEntity
  8
DEFAULT
 62
     7
100
AcDbLine
 10
55.87557092026438
 20
2.390216503950324
 30
0.0
 11
55.87557092026438
 21
2.639727503950324
 31
0.0
  0
LINE
  5
204
330
1F
100
AcDbEntity
  8
DEFAULT
 62
     7
100
AcDbLine
 10
55.94168592026438
 20
1.128669503950324
 30
0.0
 11
55.87557092026438
 21
2.390216503950324
 31
0.0
  0
LINE
  5
205
330
1F
100
AcDbEntity
  8
DEFAULT
 62
     7
100
AcDbLine
 10
52.16685892026439
 20
27.74761850395032
 30
0.0
 11
52.41999192026438
 21
28.47848050395033
 31
0.0
  0
LINE
  5
206
330
1F
100
AcDbEntity
  8
DEFAULT
 62
     7
100
AcDbLine
 10
50.18383092026439
 20
13.80049650395032
 30
0.0
 11
50.13782292026439
 21
12.76569050395032
 31
0.0
  0
LINE
  5
207
330
1F
100
AcDbEntity
  8
DEFAULT
 62
     7
100
AcDbLine
 10
49.78336292026439
 20
0.6602165039503236
 30
0.0
 11
49.78336292026439
 21
0.6052165039503239
 31
0.0
  0
LINE
  5
208
330
1F
100
AcDbEntity
  8
DEFAULT
 62
     7
100
AcDbLine
 10
49.53536292026438
 20
12.70452650395033
 30
0.0
 11
49.53536292026438
 21
7.790216503950324
 31
0.0
  0
LINE
  5
209
330
1F
100
AcDbEntity
  8
DEFAULT
 62
     7
100
AcDbLine
 10
48.02802092026439
 20
29.29790550395033
 30
0.0
 11
48.02608092026438
 21
29.00687450395033
 31
0.0
  0
LINE
  5
20A
330
1F
100
AcDbEntity
  8
DEFAULT
 62
     7
100
AcDbLine
 10
48.43336292026438
 20
12.71043450395032
 30
0.0
 11
48.43336292026438
 21
7.790216503950324
 31
0.0
  0
LINE
  5
20B
330
1F
100
AcDbEntity
  8
DEFAULT
 62
     7
100
AcDbLine
 10
48.18536292026439
 20
0.6602165039503236
 30
0.0
 11
48.18536292026439
 21
0.6052165039503239
 31
0.0
  0
LINE
  5
20C
330
1F
100
AcDbEntity
  8
DEFAULT
 62
     7
100
AcDbLine
 10
47.83362292026438
 20
12.76629550395033
 30
0.0
 11
47.77243992026438
 21
14.08383150395032
 31
0.0
  0
LINE
  5
20D
330
1F
100
AcDbEntity
  8
DEFAULT
 62
     7
100
AcDbLine
 10
42.51519692026438
 20
19.66782850395033
 30
0.0
 11
42.54761092026438
 21
19.66729750395033
 31
0.0
  0
LINE
  5
20E
330
1F
100
AcDbEntity
  8
DEFAULT
 62
     7
100
AcDbLine
 10
43.81791692026439
 20
19.65638450395032
 30
0.0
 11
42.54763392026438
 21
19.66729150395033
 31
0.0
  0
LINE
  5
20F
330
1F
100
AcDbEntity
  8
DEFAULT
 62
     7
100
AcDbLine
 10
42.08271392026439
 20
2.271830503950325
 30
0.0
 11
42.08891792026439
 21
2.390216503950324
 31
0.0
  0
LINE
  5
210
330
1F
100
AcDbEntity
  8
DEFAULT
 62
     7
100
AcDbLine
 10
42.09315492026439
 20
2.390216503950324
 30
0.0
 11
42.09315492026439
 21
2.639727503950324
 31
0.0
  0
LINE
  5
211
330
1F
100
AcDbEntity
  8
DEFAULT
 62
     7
100
AcDbLine
 10
40.65503292026438
 20
1.128669503950324
 30
0.0
 11
40.58891792026439
 21
2.390216503950324
 31
0.0
  0
LINE
  5
212
330
1F
100
AcDbEntity
  8
DEFAULT
 62
     7
100
AcDbLine
 10
37.36442392026438
 20
2.271830503950325
 30
0.0
 11
37.37062792026439
 21
2.390216503950324
 31
0.0
  0
LINE
  5
213
330
1F
100
AcDbEntity
  8
DEFAULT
 62
     7
100
AcDbLine
 10
37.37062792026439
 20
2.390216503950324
 30
0.0
 11
37.37062792026439
 21
2.745073503950325
 31
0.0
  0
LINE
  5
214
330
1F
100
AcDbEntity
  8
DEFAULT
 62
     7
100
AcDbLine
 10
35.93674292026439
 20
1.128669503950324
 30
0.0
 11
35.87062792026439
 21
2.390216503950324
 31
0.0
  0
LINE
  5
215
330
1F
100
AcDbEntity
  8
DEFAULT
 62
     7
100
AcDbLine
 10
47.97014892026439
 20
7.790216503950324
 30
0.0
 11
49.99925292026439
 21
7.790216503950324
 31
0.0
  0
LINE
  5
216
330
1F
100
AcDbEntity
  8
DEFAULT
 62
     7
100
AcDbLine
 10
49.18298292026439
 20
4.161150503950324
 30
0.0
 11
56.02739192026439
 21
2.605214503950324
 31
0.0
  0
LINE
  5
217
330
1F
100
AcDbEntity
  8
DEFAULT
 62
     7
100
AcDbLine
 10
57.25714792026437
 20
3.234511503950325
 30
0.0
 11
61.59352492026437
 21
2.605214503950324
 31
0.0
  0
LINE
  5
218
330
1F
100
AcDbEntity
  8
DEFAULT
 62
     7
100
AcDbLine
 10
57.2766809202644
 20
3.157481503950324
 30
0.0
 11
60.59809792026439
 21
2.681458503950325
 31
0.0
  0
LINE
  5
219
330
1F
100
AcDbEntity
  8
DEFAULT
 62
     7
100
AcDbLine
 10
40.58891792026439
 20
2.390216503950324
 30
0.0
 11
42.09315492026439
 21
2.390216503950324
 31
0.0
  0
LINE
  5
21A
330
1F
100
AcDbEntity
  8
DEFAULT
 62
     7
100
AcDbLine
 10
37.37062792026439
 20
2.390216503950324
 30
0.0
 11
35.87062792026439
 21
2.390216503950324
 31
0.0
  0
LINE
  5
21B
330
1F
100
AcDbEntity
  8
DEFAULT
 62
     7
100
AcDbLine
 10
57.37557092026438
 20
2.390216503950324
 30
0.0
 11
55.87557092026438
 21
2.390216503950324
 31
0.0
  0
LINE
  5
21C
330
1F
100
AcDbEntity
  8
DEFAULT
 62
     7
100
AcDbLine
 10
62.09809792026439
 20
2.390216503950324
 30
0.0
 11
60.59809792026439
 21
2.390216503950324
 31
0.0
  0
LINE
  5
21D
330
1F
100
AcDbEntity
  8
DEFAULT
 62
     7
100
AcDbLine
 10
40.71161792026438
 20
3.234516503950325
 30
0.0
 11
36.37521392026438
 21
2.605216503950324
 31
0.0
  0
LINE
  5
21E
330
1F
100
AcDbEntity
  8
DEFAULT
 62
     7
100
AcDbLine
 10
48.78574192026438
 20
4.161150503950324
 30
0.0
 11
41.94134292026438
 21
2.605216503950324
 31
0.0
  0
LINE
  5
21F
330
1F
100
AcDbEntity
  8
DEFAULT
 62
     7
100
AcDbLine
 10
36.37118192026438
 20
0.6719885039503242
 30
0.0
 11
36.30622692026439
 21
0.6719885039503242
 31
0.0
  0
LINE
  5
220
330
1F
100
AcDbEntity
  8
DEFAULT
 62
     7
100
AcDbLine
 10
41.08947192026438
 20
0.6719885039503242
 30
0.0
 11
41.02451692026438
 21
0.6719885039503242
 31
0.0
  0
LINE
  5
221
330
1F
100
AcDbEntity
  8
DEFAULT
 62
     7
100
AcDbLine
 10
56.37612492026437
 20
0.6719885039503242
 30
0.0
 11
56.31116992026438
 21
0.6719885039503242
 31
0.0
  0
LINE
  5
222
330
1F
100
AcDbEntity
  8
DEFAULT
 62
     7
100
AcDbLine
 10
61.09865092026439
 20
0.6719885039503242
 30
0.0
 11
61.03369592026439
 21
0.6719885039503242
 31
0.0
  0
LINE
  5
223
330
1F
100
AcDbEntity
  8
DEFAULT
 62
     7
100
AcDbLine
 10
49.85194292026439
 20
0.6602165039503236
 30
0.0
 11
48.11614592026438
 21
0.6602165039503236
 31
0.0
  0
LINE
  5
224
330
1F
100
AcDbEntity
  8
DEFAULT
 62
     7
100
AcDbLine
 10
49.78336292026439
 20
0.6052165039503239
 30
0.0
 11
48.18536292026439
 21
0.6052165039503239
 31
0.0
  0
LINE
  5
225
330
1F
100
AcDbEntity
  8
DEFAULT
 62
     7
100
AcDbLine
 10
14.99452413656101
 20
52.51107305295508
 30
0.0
 11
15.00639706120101
 21
52.49276644042508
 31
0.0
  0
SPLINE
  5
226
330
1F
100
AcDbEntity
  8
DEFAULT
 62
     7
100
AcDbSpline
210
0.0
220
0.0
230
1.0
 70
     8
 71
     3
 72
    17
 73
    13
 74
     0
 42
0.0000000001
 43
0.0000000001
 40
0.0
 40
0.0
 40
0.0
 40
0.0
 40
0.01006440264836
 40
0.02751334291315
 40
0.08154548159865
 40
0.1659277451212
 40
0.2723407684734
 40
0.3960374613376
 40
0.5345897450502
 40
0.6859419598906
 40
0.8478151860319
 40
1.0
 40
1.0
 40
1.0
 40
1.0
 10
16.37934773634101
 20
52.93892982076508
 30
0.0
 10
16.37935104373101
 20
52.93884412274507
 30
0.0
 10
16.37935716262101
 20
52.93868531491507
 30
0.0
 10
16.37932107364101
 20
52.93962329968507
 30
0.0
 10
16.37928645220101
 20
52.94048853017507
 30
0.0
 10
16.37920564318101
 20
52.94244112574507
 30
0.0
 10
16.37910488659101
 20
52.94469932064508
 30
0.0
 10
16.37897417490101
 20
52.94743364590507
 30
0.0
 10
16.37881678598101
 20
52.95047236248508
 30
0.0
 10
16.37863024181101
 20
52.95379955971507
 30
0.0
 10
16.37842225442101
 20
52.95722369987508
 30
0.0
 10
16.37827112217101
 20
52.95953407164507
 30
0.0
 10
16.37819536014101
 20
52.96065343625508
 30
0.0
  0
SPLINE
  5
227
330
1F
100
AcDbEntity
  8
DEFAULT
 62
     7
100
AcDbSpline
210
0.0
220
0.0
230
1.0
 70
     8
 71
     3
 72
    64
 73
    60
 74
     0
 42
0.0000000001
 43
0.0000000001
 40
0.0
 40
0.0
 40
0.0
 40
0.0
 40
0.02421918222405
 40
0.0498592439348
 40
0.07522961748771
 40
0.1003291993211
 40
0.1251571456975
 40
0.1497129029315
 40
0.1739964624089
 40
0.1980078904224
 40
0.2217474013679
 40
0.2452153923501
 40
0.2684124333411
 40
0.2913392573449
 40
0.3139967506268
 40
0.3363859431582
 40
0.3585079989511
 40
0.3803642065867
 40
0.4019559696839
 40
0.423284797316
 40
0.4443522944776
 40
0.4651601523366
 40
0.4857100650623
 40
0.5059844156482
 40
0.5259204600831
 40
0.5454492990414001
 40
0.5645024087999
 40
0.5830118865057
 40
0.6009443741848
 40
0.6183405170553
 40
0.6352506649409
 40
0.6517251718695
 40
0.6678143353404
 40
0.6835597468106001
 40
0.6987381559163
 40
0.7129883400175
 40
0.7260196467116
 40
0.7375852245061
 40
0.7474328381269
 40
0.7551884468763001
 40
0.7603867852256
 40
0.7624855484272
 40
0.7638877595131
 40
0.7687158459061
 40
0.7764104366889
 40
0.7861799840789
 40
0.7975506768697001
 40
0.8102928082262
 40
0.8242197645517
 40
0.8391282047399
 40
0.8547825685354
 40
0.8711125157263
 40
0.8881540966389
 40
0.9059203465331001
 40
0.9244259963278
 40
0.9436837008146
 40
0.963705273855
 40
0.9844807761984
 40
1.0
 40
1.0
 40
1.0
 40
1.0
 10
14.92415758752101
 20
77.89001573755508
 30
0.0
 10
14.92481481830101
 20
77.89184587652508
 30
0.0
 10
14.92618264842101
 20
77.89560820673506
 30
0.0
 10
14.92829230005101
 20
77.90126809852507
 30
0.0
 10
14.93047385851101
 20
77.90697640340508
 30
0.0
 10
14.93267816225101
 20
77.91260599288506
 30
0.0
 10
14.93490346635101
 20
77.91815690717507
 30
0.0
 10
14.93714808307101
 20
77.92362928691506
 30
0.0
 10
14.93941037917101
 20
77.92902335754508
 30
0.0
 10
14.94168877361101
 20
77.93433941694508
 30
0.0
 10
14.94398172739101
 20
77.93957780721507
 30
0.0
 10
14.94628774738101
 20
77.94473892064508
 30
0.0
 10
14.94860538777101
 20
77.94982319947508
 30
0.0
 10
14.95093324985101
 20
77.95483113239507
 30
0.0
 10
14.95326998178101
 20
77.95976325123507
 30
0.0
 10
14.95561427814101
 20
77.96462012761506
 30
0.0
 10
14.95796487942101
 20
77.96940236971508
 30
0.0
 10
14.96032057134101
 20
77.97411061916506
 30
0.0
 10
14.96268018415101
 20
77.97874554790508
 30
0.0
 10
14.96504259168101
 20
77.98330785518508
 30
0.0
 10
14.96740671040101
 20
77.98779826460506
 30
0.0
 10
14.96977149552101
 20
77.99221751594507
 30
0.0
 10
14.97213519645101
 20
77.99656499555508
 30
0.0
 10
14.97449355232101
 20
78.00083558474506
 30
0.0
 10
14.97683939064101
 20
78.00501931748508
 30
0.0
 10
14.97916325761101
 20
78.00910284313508
 30
0.0
 10
14.98145517866101
 20
78.01307265635506
 30
0.0
 10
14.98370632378101
 20
78.01691791526508
 30
0.0
 10
14.98591212755101
 20
78.02063546880507
 30
0.0
 10
14.98807292199101
 20
78.02423033504508
 30
0.0
 10
14.99019271806101
 20
78.02771318181507
 30
0.0
 10
14.99227622666101
 20
78.03109522203508
 30
0.0
 10
14.99432799075101
 20
78.03438683168508
 30
0.0
 10
14.99634130934101
 20
78.03758002191506
 30
0.0
 10
14.99829069988101
 20
78.04063784238508
 30
0.0
 10
15.00013834859101
 20
78.04350571099508
 30
0.0
 10
15.00183481572101
 20
78.04611378236507
 30
0.0
 10
15.00336558563101
 20
78.04844605761508
 30
0.0
 10
15.00461808532101
 20
78.05034114481506
 30
0.0
 10
15.00573339155101
 20
78.05201621522508
 30
0.0
 10
15.00620113587101
 20
78.05271704198506
 30
0.0
 10
15.00688021080101
 20
78.05373000755506
 30
0.0
 10
15.00632754644101
 20
78.05290571666507
 30
0.0
 10
15.00584259737101
 20
78.05218025602508
 30
0.0
 10
15.00477616653101
 20
78.05057989902508
 30
0.0
 10
15.00352730239101
 20
78.04869284406507
 30
0.0
 10
15.00202342855101
 20
78.04640455415506
 30
0.0
 10
15.00035926074101
 20
78.04385029188507
 30
0.0
 10
14.99854795528101
 20
78.04104405696506
 30
0.0
 10
14.99662510544101
 20
78.03803424995508
 30
0.0
 10
14.99461370318101
 20
78.03485132620509
 30
0.0
 10
14.99252814153101
 20
78.03151295147507
 30
0.0
 10
14.99037152154101
 20
78.02801903785507
 30
0.0
 10
14.98814368341101
 20
78.02436389246506
 30
0.0
 10
14.98584559509101
 20
78.02054326641508
 30
0.0
 10
14.98347848079101
 20
78.01655294357508
 30
0.0
 10
14.98104475745101
 20
78.01239034103509
 30
0.0
 10
14.97878831882101
 20
78.00847190239509
 30
0.0
 10
14.97734892736101
 20
78.00593806854508
 30
0.0
 10
14.97673617980101
 20
78.00485309278508
 30
0.0
  0
SPLINE
  5
228
330
1F
100
AcDbEntity
  8
DEFAULT
 62
     7
100
AcDbSpline
210
0.0
220
0.0
230
1.0
 70
     8
 71
     3
 72
    18
 73
    14
 74
     0
 42
0.0000000001
 43
0.0000000001
 40
0.0
 40
0.0
 40
0.0
 40
0.0
 40
0.01178900782159
 40
0.02670604406918
 40
0.0780683107453
 40
0.1599250944867
 40
0.2638557323222
 40
0.3848197142972
 40
0.5203733675437
 40
0.6685314547344
 40
0.8271307875435
 40
0.9936654231047
 40
1.0
 40
1.0
 40
1.0
 40
1.0
 10
15.00666014006101
 20
78.05340171488507
 30
0.0
 10
15.00672109728101
 20
78.05349266408507
 30
0.0
 10
15.00681448152101
 20
78.05363197329507
 30
0.0
 10
15.00632754644101
 20
78.05290571666507
 30
0.0
 10
15.00584259737101
 20
78.05218025602508
 30
0.0
 10
15.00477616653101
 20
78.05057989902508
 30
0.0
 10
15.00352730239101
 20
78.04869284406507
 30
0.0
 10
15.00202342855101
 20
78.04640455415506
 30
0.0
 10
15.00035926074101
 20
78.04385029188507
 30
0.0
 10
14.99854795528101
 20
78.04104405696506
 30
0.0
 10
14.99662510544101
 20
78.03803424995508
 30
0.0
 10
14.99528861334101
 20
78.03591933116508
 30
0.0
 10
14.99459451880101
 20
78.03481455244508
 30
0.0
 10
14.99456908849101
 20
78.03477406679508
 30
0.0
  0
LINE
  5
229
330
1F
100
AcDbEntity
  8
DEFAULT
 62
     7
100
AcDbLine
 10
14.99452977584101
 20
78.03479868603506
 30
0.0
 11
15.00659329392101
 21
78.05344568809508
 31
0.0
  0
LINE
  5
22A
330
1F
100
AcDbEntity
  8
DEFAULT
 62
     7
100
AcDbLine
 10
16.37824184729101
 20
52.96065664618508
 30
0.0
 11
16.37942710788101
 21
52.93893347507507
 31
0.0
  0
LINE
  5
22B
330
1F
100
AcDbEntity
  8
DEFAULT
 62
     7
100
AcDbLine
 10
15.00633062786101
 20
52.49272270017507
 30
0.0
 11
14.99448464271101
 21
52.51104832663507
 31
0.0
  0
SPLINE
  5
22C
330
1F
100
AcDbEntity
  8
DEFAULT
 62
     7
100
AcDbSpline
210
0.0
220
0.0
230
1.0
 70
     8
 71
     3
 72
    33
 73
    29
 74
     0
 42
0.0000000001
 43
0.0000000001
 40
0.0
 40
0.0
 40
0.0
 40
0.0
 40
0.02752479975132
 40
0.06710816009094
 40
0.1044144041593
 40
0.1393474839702
 40
0.1719565536932
 40
0.2022164701814
 40
0.2300939789832
 40
0.2566687610555
 40
0.2851929809693
 40
0.3161214035912
 40
0.3484101602703
 40
0.3819075327446
 40
0.4164701183343
 40
0.4520267802312
 40
0.4887070680924
 40
0.5266743220946
 40
0.5660890310773
 40
0.6070413871171
 40
0.64961912564
 40
0.6939023254886
 40
0.7399957706488
 40
0.7880776496031
 40
0.8383288818097
 40
0.8909250597448
 40
0.9460518638202
 40
1.0
 40
1.0
 40
1.0
 40
1.0
 10
1.088553167051009
 20
57.06377474509507
 30
0.0
 10
1.100213450671009
 20
56.94694965860507
 30
0.0
 10
1.131896621201007
 20
56.66244425181507
 30
0.0
 10
1.195184777551009
 20
56.22147229286507
 30
0.0
 10
1.285481555231008
 20
55.75294073360508
 30
0.0
 10
1.395767671571007
 20
55.31916855899507
 30
0.0
 10
1.533438279361006
 20
54.92464842708507
 30
0.0
 10
1.706951205061009
 20
54.57686943411508
 30
0.0
 10
1.927622212381009
 20
54.28740174668507
 30
0.0
 10
2.201232487651008
 20
54.05825603597507
 30
0.0
 10
2.529618741741007
 20
53.88905098435507
 30
0.0
 10
2.903368676921008
 20
53.76971851348507
 30
0.0
 10
3.306346589281008
 20
53.68074270967508
 30
0.0
 10
3.727082921631008
 20
53.60195279301507
 30
0.0
 10
4.163736974481007
 20
53.53332785250507
 30
0.0
 10
4.615483401331008
 20
53.47445803219507
 30
0.0
 10
5.082815343571009
 20
53.42374835138508
 30
0.0
 10
5.567327523191007
 20
53.37958514143508
 30
0.0
 10
6.070582075721009
 20
53.34092055235508
 30
0.0
 10
6.593891898931008
 20
53.30715156405507
 30
0.0
 10
7.138243122171008
 20
53.27744904400507
 30
0.0
 10
7.704748303901009
 20
53.25174530831507
 30
0.0
 10
8.294902366611007
 20
53.22976394068507
 30
0.0
 10
8.910650583051007
 20
53.21153705277508
 30
0.0
 10
9.554240980661009
 20
53.19706165617507
 30
0.0
 10
10.22796070625101
 20
53.18656351508508
 30
0.0
 10
10.91750282037101
 20
53.18045811659507
 30
0.0
 10
11.38273381133101
 20
53.17920279618507
 30
0.0
 10
11.61283506444101
 20
53.17919845979507
 30
0.0
  0
ARC
  5
22D
330
1F
100
AcDbEntity
  8
DEFAULT
 62
     7
100
AcDbCircle
 10
19.39048687045973
 20
61.84418329511829
 30
0.0
 40
18.07617982302378
100
AcDbArc
 50
160.1286935160133
 51
166.3109496349631
  0
ARC
  5
22E
330
1F
100
AcDbEntity
  8
DEFAULT
 62
     7
100
AcDbCircle
 10
3.725820702187765
 20
61.81261832061964
 30
0.0
 40
18.1899471810718
100
AcDbArc
 50
13.66858809039769
 51
19.7514435980417
  0
SPLINE
  5
22F
330
1F
100
AcDbEntity
  8
DEFAULT
 62
     7
100
AcDbSpline
210
0.0
220
0.0
230
1.0
 70
     8
 71
     3
 72
    33
 73
    29
 74
     0
 42
0.0000000001
 43
0.0000000001
 40
0.0
 40
0.0
 40
0.0
 40
0.0
 40
0.05402980445102
 40
0.1092412838363
 40
0.1619186386629
 40
0.2122479017369
 40
0.2604050001631
 40
0.306571185529
 40
0.3509249623786
 40
0.3935709366514
 40
0.4345886462655
 40
0.4740653274533
 40
0.5120911580603
 40
0.5488282573002
 40
0.5844421112115
 40
0.6190643327527
 40
0.6526262099589
 40
0.6849864256080001
 40
0.7160004630609
 40
0.7446220532877
 40
0.7712464528042
 40
0.7991588839946
 40
0.8294657204556
 40
0.8621251963957
 40
0.897108323747
 40
0.9344666961953
 40
0.9741062638301
 40
1.0
 40
1.0
 40
1.0
 40
1.0
 10
11.61283506444101
 20
53.17919845978508
 30
0.0
 10
11.84288112381101
 20
53.17920279500508
 30
0.0
 10
12.30800572660101
 20
53.18045752758507
 30
0.0
 10
12.99739428090101
 20
53.18656003920507
 30
0.0
 10
13.67097260928101
 20
53.19705331262508
 30
0.0
 10
14.31443401964101
 20
53.21152219847507
 30
0.0
 10
14.93006597220101
 20
53.22974085907507
 30
0.0
 10
15.52011670396101
 20
53.25171251099507
 30
0.0
 10
16.08653006502101
 20
53.27740470522507
 30
0.0
 10
16.63079659702101
 20
53.30709368379507
 30
0.0
 10
17.15402171854101
 20
53.34084617085507
 30
0.0
 10
17.65718539740101
 20
53.37948886084508
 30
0.0
 10
18.14160286894101
 20
53.42362511437508
 30
0.0
 10
18.60884971996101
 20
53.47430022399508
 30
0.0
 10
19.06054245287101
 20
53.53312998406508
 30
0.0
 10
19.49720109131101
 20
53.60171379509507
 30
0.0
 10
19.91802642977101
 20
53.68048175000508
 30
0.0
 10
20.32123363404101
 20
53.76943957162508
 30
0.0
 10
20.69540210359101
 20
53.88876494808508
 30
0.0
 10
21.02415436900101
 20
54.05803987075507
 30
0.0
 10
21.29790628473101
 20
54.28726059776508
 30
0.0
 10
21.51857021165101
 20
54.57663844970508
 30
0.0
 10
21.69208180852101
 20
54.92429053591507
 30
0.0
 10
21.82976146023101
 20
55.31869868510507
 30
0.0
 10
21.94005145275101
 20
55.75233225064508
 30
0.0
 10
22.03035472406101
 20
56.22069873870508
 30
0.0
 10
22.09264273425101
 20
56.65447433172508
 30
0.0
 10
22.12376523293101
 20
56.93178811615507
 30
0.0
 10
22.13487540444101
 20
57.04148180990507
 30
0.0
  0
SPLINE
  5
230
330
1F
100
AcDbEntity
  8
DEFAULT
 62
     7
100
AcDbSpline
210
0.0
220
0.0
230
1.0
 70
     8
 71
     3
 72
    23
 73
    19
 74
     0
 42
0.0000000001
 43
0.0000000001
 40
0.0
 40
0.0
 40
0.0
 40
0.0
 40
0.09320550936057
 40
0.1879825559252
 40
0.2750315265856
 40
0.3555717496923
 40
0.4305036692455
 40
0.5005507582124
 40
0.5662480088401
 40
0.6280596436844
 40
0.6864703912566
 40
0.7419901441456001
 40
0.795025002161
 40
0.8454571770709
 40
0.8930640053313
 40
0.9377444824514
 40
0.9794910252393
 40
1.0
 40
1.0
 40
1.0
 40
1.0
 10
11.60614564807101
 20
74.02206355783508
 30
0.0
 10
11.31500860865101
 20
74.02246227932508
 30
0.0
 10
10.72777736223101
 20
74.01370852147508
 30
0.0
 10
9.869414502211006
 20
73.97647511613508
 30
0.0
 10
9.051722129501007
 20
73.92064155552507
 30
0.0
 10
8.297306945921006
 20
73.85123844401508
 30
0.0
 10
7.597589749361009
 20
73.76922867648509
 30
0.0
 10
6.946330695481009
 20
73.67420977206507
 30
0.0
 10
6.338563587331008
 20
73.56684796175506
 30
0.0
 10
5.77002654242101
 20
73.44802018153507
 30
0.0
 10
5.235966964011008
 20
73.32086040604509
 30
0.0
 10
4.731029254061009
 20
73.19023818045508
 30
0.0
 10
4.253202500301007
 20
73.05474937541507
 30
0.0
 10
3.803300610151008
 20
72.91207419475506
 30
0.0
 10
3.38385954082101
 20
72.76064327614506
 30
0.0
 10
2.997753489221007
 20
72.59812568718508
 30
0.0
 10
2.700948749541008
 20
72.44353589489506
 30
0.0
 10
2.54063810339101
 20
72.33194373809508
 30
0.0
 10
2.49020740818101
 20
72.29225430354506
 30
0.0
  0
SPLINE
  5
231
330
1F
100
AcDbEntity
  8
DEFAULT
 62
     7
100
AcDbSpline
210
0.0
220
0.0
230
1.0
 70
     8
 71
     3
 72
    20
 73
    16
 74
     0
 42
0.0000000001
 43
0.0000000001
 40
0.0
 40
0.0
 40
0.0
 40
0.0
 40
0.03148631049892
 40
0.1402636838371
 40
0.2446975044139
 40
0.347451950935
 40
0.4481093222508
 40
0.5418080362767
 40
0.6264863362214
 40
0.70414632713
 40
0.7764211433432
 40
0.8441410492315
 40
0.9076441181253
 40
0.9672224021977
 40
1.0
 40
1.0
 40
1.0
 40
1.0
 10
2.226877241151008
 20
72.02100319293507
 30
0.0
 10
2.211064107331008
 20
71.99930726623506
 30
0.0
 10
2.143541728161007
 20
71.90056533690506
 30
0.0
 10
2.04961113167101
 20
71.71363080049508
 30
0.0
 10
1.961754778291008
 20
71.45913175323508
 30
0.0
 10
1.897472743451007
 20
71.20505453625506
 30
0.0
 10
1.848246848801007
 20
70.95706396114508
 30
0.0
 10
1.810556509061007
 20
70.72265507847507
 30
0.0
 10
1.781767754001008
 20
70.50673020751506
 30
0.0
 10
1.759610743251008
 20
70.30836065782506
 30
0.0
 10
1.742398495191007
 20
70.12399026807506
 30
0.0
 10
1.728989175041007
 20
69.95138401736509
 30
0.0
 10
1.718747479441009
 20
69.78938359210508
 30
0.0
 10
1.712112985681009
 20
69.65695356272508
 30
0.0
 10
1.708958552201007
 20
69.57844679949508
 30
0.0
 10
1.707937097111009
 20
69.55058073651506
 30
0.0
  0
ARC
  5
232
330
1F
100
AcDbEntity
  8
DEFAULT
 62
     7
100
AcDbCircle
 10
3.333584971488282
 20
71.20837674561014
 30
0.0
 40
1.373294962142166
100
AcDbArc
 50
127.8945145565404
 51
143.7167092734842
  0
SPLINE
  5
233
330
1F
100
AcDbEntity
  8
DEFAULT
 62
     7
100
AcDbSpline
210
0.0
220
0.0
230
1.0
 70
     8
 71
     3
 72
    22
 73
    18
 74
     0
 42
0.0000000001
 43
0.0000000001
 40
0.0
 40
0.0
 40
0.0
 40
0.0
 40
0.02456704005032
 40
0.08285510519929
 40
0.1445956503205
 40
0.2108456961086
 40
0.2828954093175
 40
0.3612429877702
 40
0.4425720679549
 40
0.5227127333149
 40
0.5996149511486
 40
0.6747224846039001
 40
0.7503967069234
 40
0.8291241461107
 40
0.9113809779457001
 40
0.9969044115429
 40
1.0
 40
1.0
 40
1.0
 40
1.0
 10
21.49331931385101
 20
69.52354492757507
 30
0.0
 10
21.49259857578101
 20
69.54440225233506
 30
0.0
 10
21.48998259832101
 20
69.61473952553507
 30
0.0
 10
21.48432718016101
 20
69.73744612757508
 30
0.0
 10
21.47503456132101
 20
69.89542101822508
 30
0.0
 10
21.46269216396101
 20
70.06491199499507
 30
0.0
 10
21.44652449724101
 20
70.24825012751506
 30
0.0
 10
21.42574329961101
 20
70.44401363847507
 30
0.0
 10
21.40005113970101
 20
70.64612809196507
 30
0.0
 10
21.36980383822101
 20
70.84637497587508
 30
0.0
 10
21.33501269176101
 20
71.04052129791506
 30
0.0
 10
21.29469795807101
 20
71.22973603186506
 30
0.0
 10
21.24593766650101
 20
71.41858045730507
 30
0.0
 10
21.18410086159101
 20
71.61008260208507
 30
0.0
 10
21.10126153267101
 20
71.80281144022507
 30
0.0
 10
21.02767285806101
 20
71.92859388530508
 30
0.0
 10
20.98393817912101
 20
71.98994676801507
 30
0.0
 10
20.98240371802101
 20
71.99208515006507
 30
0.0
  0
ARC
  5
234
330
1F
100
AcDbEntity
  8
DEFAULT
 62
     7
100
AcDbCircle
 10
19.86933132230208
 20
71.18413665055765
 30
0.0
 40
1.37542283910339
100
AcDbArc
 50
35.96542706523817
 51
52.15676133779379
  0
SPLINE
  5
235
330
1F
100
AcDbEntity
  8
DEFAULT
 62
     7
100
AcDbSpline
210
0.0
220
0.0
230
1.0
 70
     8
 71
     3
 72
    29
 73
    25
 74
     0
 42
0.0000000001
 43
0.0000000001
 40
0.0
 40
0.0
 40
0.0
 40
0.0
 40
0.009310230373317
 40
0.03927243990419
 40
0.07067779030459
 40
0.1032680630747
 40
0.1373653082214
 40
0.1730354937541
 40
0.2101738855053
 40
0.2486778233562
 40
0.2884590383866
 40
0.329625717526
 40
0.3723950957689
 40
0.416961747632
 40
0.4635161319943
 40
0.5122383481719
 40
0.5633013153522
 40
0.6169052947008
 40
0.6733248595011
 40
0.7328520953189001
 40
0.7958604508822
 40
0.8628261506798
 40
0.9342350335156
 40
1.0
 40
1.0
 40
1.0
 40
1.0
 10
20.71300731693101
 20
72.27051019454507
 30
0.0
 10
20.69014481900101
 20
72.28851583001509
 30
0.0
 10
20.59170077402101
 20
72.36192965388509
 30
0.0
 10
20.40224979922101
 20
72.47599533789509
 30
0.0
 10
20.13845513731101
 20
72.60473179384508
 30
0.0
 10
19.85616073807101
 20
72.72371147857507
 30
0.0
 10
19.55704428724101
 20
72.83633269728509
 30
0.0
 10
19.24105594837101
 20
72.94391002315507
 30
0.0
 10
18.90928787567101
 20
73.04742289652506
 30
0.0
 10
18.56300353086101
 20
73.14718704321507
 30
0.0
 10
18.20282388852101
 20
73.24388848599509
 30
0.0
 10
17.82842783752101
 20
73.33884151078507
 30
0.0
 10
17.43801435934101
 20
73.43123626430509
 30
0.0
 10
17.02939944583101
 20
73.51945156828506
 30
0.0
 10
16.60064572841101
 20
73.60194652336509
 30
0.0
 10
16.15018282179101
 20
73.67835932299508
 30
0.0
 10
15.67639618221101
 20
73.74819897892508
 30
0.0
 10
15.17743322082101
 20
73.81126855691508
 30
0.0
 10
14.65110055448101
 20
73.86775022682508
 30
0.0
 10
14.09460729845101
 20
73.91750717371508
 30
0.0
 10
13.50450452721101
 20
73.96010493391506
 30
0.0
 10
12.87669364372101
 20
73.99427651914508
 30
0.0
 10
12.23971971433101
 20
74.01626938189509
 30
0.0
 10
11.81146125598101
 20
74.02177878271507
 30
0.0
 10
11.60614564757101
 20
74.02206355499507
 30
0.0
  0
LINE
  5
236
330
1F
100
AcDbEntity
  8
DEFAULT
 62
     7
100
AcDbLine
 10
3.557426998711008
 20
68.39235529647507
 30
0.0
 11
4.321160107591008
 21
68.86575000878509
 31
0.0
  0
LINE
  5
237
330
1F
100
AcDbEntity
  8
DEFAULT
 62
     7
100
AcDbLine
 10
3.522979476131009
 20
68.37168842838509
 30
0.0
 11
3.557426998711008
 21
68.39235529647507
 31
0.0
  0
ARC
  5
238
330
1F
100
AcDbEntity
  8
DEFAULT
 62
     7
100
AcDbCircle
 10
2.008540734892954
 20
70.89940352355261
 30
0.0
 40
2.946670715112305
100
AcDbArc
 50
295.8414208345668
 51
300.9272367355578
  0
ARC
  5
239
330
1F
100
AcDbEntity
  8
DEFAULT
 62
     7
100
AcDbCircle
 10
2.258604754834952
 20
70.14038195202765
 30
0.0
 40
2.15728818548356
100
AcDbArc
 50
276.4303556658764
 51
298.4538220612785
  0
LINE
  5
23A
330
1F
100
AcDbEntity
  8
DEFAULT
 62
     7
100
AcDbLine
 10
2.395789443411007
 20
67.98645012260508
 30
0.0
 11
2.500109679501008
 21
67.99657255959508
 31
0.0
  0
SPLINE
  5
23B
330
1F
100
AcDbEntity
  8
DEFAULT
 62
     7
100
AcDbSpline
210
0.0
220
0.0
230
1.0
 70
     8
 71
     3
 72
    29
 73
    25
 74
     0
 42
0.0000000001
 43
0.0000000001
 40
0.0
 40
0.0
 40
0.0
 40
0.0
 40
0.01257797105044
 40
0.06649939567741
 40
0.1184282130475
 40
0.1684190861197
 40
0.216413682967
 40
0.2623757112794
 40
0.3063156963262
 40
0.3482269657209
 40
0.3881058147917
 40
0.4259668152933
 40
0.4620645287834
 40
0.4966382730255
 40
0.5298911158488
 40
0.5623106693208
 40
0.5941612175289001
 40
0.62734471478
 40
0.6651091712825
 40
0.7149725392036
 40
0.7853117787266
 40
0.8803062627491
 40
0.9794103881308
 40
1.0
 40
1.0
 40
1.0
 40
1.0
 10
1.70793636200101
 20
69.55058027844507
 30
0.0
 10
1.707634075841009
 20
69.54233370963507
 30
0.0
 10
1.706081526821008
 20
69.49873265065509
 30
0.0
 10
1.703747454901008
 20
69.42106918521506
 30
0.0
 10
1.70158165588101
 20
69.31884756118507
 30
0.0
 10
1.700432499811007
 20
69.22049793899507
 30
0.0
 10
1.700312976221009
 20
69.12605607579508
 30
0.0
 10
1.701229212441009
 20
69.03558834126508
 30
0.0
 10
1.703189388351009
 20
68.94912886764507
 30
0.0
 10
1.706231618461007
 20
68.86669372407508
 30
0.0
 10
1.710393619721009
 20
68.78830033860507
 30
0.0
 10
1.71572695449101
 20
68.71380059687508
 30
0.0
 10
1.72231586819101
 20
68.64289415179508
 30
0.0
 10
1.730488538241007
 20
68.57519286356506
 30
0.0
 10
1.74068401279101
 20
68.51020124870507
 30
0.0
 10
1.753525123451008
 20
68.44749118222507
 30
0.0
 10
1.770108406611007
 20
68.38569116961509
 30
0.0
 10
1.793032104831009
 20
68.32214340989506
 30
0.0
 10
1.829192218301009
 20
68.25129005690508
 30
0.0
 10
1.892539595061008
 20
68.16836003771508
 30
0.0
 10
2.002648304551008
 20
68.07770559856508
 30
0.0
 10
2.16238892284101
 20
68.00453659117508
 30
0.0
 10
2.30350646416101
 20
67.98211337622507
 30
0.0
 10
2.382431407311009
 20
67.98544929561507
 30
0.0
 10
2.395963583761009
 20
67.98651952923507
 30
0.0
  0
ARC
  5
23C
330
1F
100
AcDbEntity
  8
DEFAULT
 62
     7
100
AcDbCircle
 10
21.19727627443771
 20
70.87197536040762
 30
0.0
 40
2.94562599077777
100
AcDbArc
 50
238.9148800322971
 51
244.0006922967092
  0
LINE
  5
23D
330
1F
100
AcDbEntity
  8
DEFAULT
 62
     7
100
AcDbLine
 10
19.64108350433101
 20
68.37067508888507
 30
0.0
 11
19.67641736754101
 21
68.34933772038508
 31
0.0
  0
LINE
  5
23E
330
1F
100
AcDbEntity
  8
DEFAULT
 62
     7
100
AcDbLine
 10
18.87815656300101
 20
68.84642870728507
 30
0.0
 11
19.64108350433101
 21
68.37067508888507
 31
0.0
  0
LINE
  5
23F
330
1F
100
AcDbEntity
  8
DEFAULT
 62
     7
100
AcDbLine
 10
19.94314110813101
 20
68.20484198815507
 30
0.0
 11
19.90944177156101
 21
68.22234980570508
 31
0.0
  0
ARC
  5
240
330
1F
100
AcDbEntity
  8
DEFAULT
 62
     7
100
AcDbCircle
 10
20.93643353040651
 20
70.07182224719985
 30
0.0
 40
2.113741998196321
100
AcDbArc
 50
244.55365387129
 51
263.5207936689706
  0
LINE
  5
241
330
1F
100
AcDbEntity
  8
DEFAULT
 62
     7
100
AcDbLine
 10
20.00298425421101
 20
68.17512825162507
 30
0.0
 11
20.02823110744101
 21
68.16313851387508
 31
0.0
  0
LINE
  5
242
330
1F
100
AcDbEntity
  8
DEFAULT
 62
     7
100
AcDbLine
 10
19.96675937540101
 20
68.19290048770506
 30
0.0
 11
20.00298425421101
 21
68.17512825162507
 31
0.0
  0
LINE
  5
243
330
1F
100
AcDbEntity
  8
DEFAULT
 62
     7
100
AcDbLine
 10
19.94267805076101
 20
68.20507886393509
 30
0.0
 11
19.96364060960101
 21
68.19446148710506
 31
0.0
  0
LINE
  5
244
330
1F
100
AcDbEntity
  8
DEFAULT
 62
     7
100
AcDbLine
 10
19.91226489595101
 20
68.22086243575507
 30
0.0
 11
19.94267805076101
 21
68.20507886393509
 31
0.0
  0
LINE
  5
245
330
1F
100
AcDbEntity
  8
DEFAULT
 62
     7
100
AcDbLine
 10
20.69800150532101
 20
67.97148890677508
 30
0.0
 11
20.80228235643101
 21
67.96107978409506
 31
0.0
  0
SPLINE
  5
246
330
1F
100
AcDbEntity
  8
DEFAULT
 62
     7
100
AcDbSpline
210
0.0
220
0.0
230
1.0
 70
     8
 71
     3
 72
    29
 73
    25
 74
     0
 42
0.0000000001
 43
0.0000000001
 40
0.0
 40
0.0
 40
0.0
 40
0.0
 40
0.02080440480159
 40
0.1200128989585
 40
0.2150160966142
 40
0.2853107602012
 40
0.3351173395512
 40
0.3728271209506
 40
0.4059804358001
 40
0.4378096401035
 40
0.4702108423599
 40
0.5034470259062001
 40
0.5380078552325001
 40
0.5740950519623
 40
0.6119473424415
 40
0.6518182552192
 40
0.6937222177993
 40
0.7376554131678
 40
0.7836110674046
 40
0.8315995567884
 40
0.8815845838379
 40
0.9335078428593
 40
0.9874238604029
 40
1.0
 40
1.0
 40
1.0
 40
1.0
 10
20.80210656062101
 20
67.96115010154509
 30
0.0
 10
20.81577729372101
 20
67.96003099006506
 30
0.0
 10
20.89490918096101
 20
67.95649933318506
 30
0.0
 10
21.03628791991101
 20
67.97869016113506
 30
0.0
 10
21.19619791965101
 20
68.05161123080507
 30
0.0
 10
21.30639113289101
 20
68.14207335921506
 30
0.0
 10
21.36977311828101
 20
68.22484961924508
 30
0.0
 10
21.40597108358101
 20
68.29557910398506
 30
0.0
 10
21.42895373261101
 20
68.35903158081507
 30
0.0
 10
21.44561467283101
 20
68.42076357835506
 30
0.0
 10
21.45854675797101
 20
68.48341763098506
 30
0.0
 10
21.46884615335101
 20
68.54836152089507
 30
0.0
 10
21.47713471953101
 20
68.61602277200507
 30
0.0
 10
21.48385112614101
 20
68.68689667273506
 30
0.0
 10
21.48932300384101
 20
68.76136914008507
 30
0.0
 10
21.49363460485101
 20
68.83973938088508
 30
0.0
 10
21.49683749688101
 20
68.92215469118509
 30
0.0
 10
21.49896910111101
 20
69.00859743107506
 30
0.0
 10
21.50006723508101
 20
69.09905129107509
 30
0.0
 10
21.50013982683101
 20
69.19348200938507
 30
0.0
 10
21.49919270193101
 20
69.29182316292508
 30
0.0
 10
21.49723857923101
 20
69.39403892480507
 30
0.0
 10
21.49506638838101
 20
69.47169937514508
 30
0.0
 10
21.49360506880101
 20
69.51529922250506
 30
0.0
 10
21.49332006049101
 20
69.52354527748508
 30
0.0
  0
ARC
  5
247
330
1F
100
AcDbEntity
  8
DEFAULT
 62
     7
100
AcDbCircle
 10
21.27447679847159
 20
65.51629162956685
 30
0.0
 40
1.170170899262849
100
AcDbArc
 50
25.8457334768881
 51
91.22759466356114
  0
ARC
  5
248
330
1F
100
AcDbEntity
  8
DEFAULT
 62
     7
100
AcDbCircle
 10
1.925894135011767
 20
65.53794868208271
 30
0.0
 40
1.178513685202031
100
AcDbArc
 50
87.15441400712166
 51
153.8150842496243
  0
LINE
  5
249
330
1F
100
AcDbEntity
  8
DEFAULT
 62
     7
100
AcDbLine
 10
22.89123287391101
 20
65.18463636824507
 30
0.0
 11
22.90520540571101
 21
65.13425763070507
 31
0.0
  0
LINE
  5
24A
330
1F
100
AcDbEntity
  8
DEFAULT
 62
     7
100
AcDbLine
 10
20.69741922162101
 20
65.05640298580508
 30
0.0
 11
20.70125062102101
 21
65.07759266882508
 31
0.0
  0
LINE
  5
24B
330
1F
100
AcDbEntity
  8
DEFAULT
 62
     7
100
AcDbLine
 10
22.22472501150101
 20
57.05005148309507
 30
0.0
 11
22.17926748672101
 21
57.04733233433507
 31
0.0
  0
SPLINE
  5
24C
330
1F
100
AcDbEntity
  8
DEFAULT
 62
     7
100
AcDbSpline
210
0.0
220
0.0
230
1.0
 70
     8
 71
     3
 72
    21
 73
    17
 74
     0
 42
0.0000000001
 43
0.0000000001
 40
0.0
 40
0.0
 40
0.0
 40
0.0
 40
0.09480025837618
 40
0.1819496603229
 40
0.2591365654416
 40
0.3270399341721
 40
0.3883596351618
 40
0.4452840668863
 40
0.4999890032901
 40
0.554681966384
 40
0.6116240485325
 40
0.6729684794664
 40
0.7408604119387
 40
0.8180406543374
 40
0.9051881114951
 40
1.0
 40
1.0
 40
1.0
 40
1.0
 10
22.89716522202101
 20
65.16196179379509
 30
0.0
 10
22.86917834973101
 20
65.26380254575508
 30
0.0
 10
22.79928703594101
 20
65.45534165484509
 30
0.0
 10
22.65386841302101
 20
65.70646656542508
 30
0.0
 10
22.48484159542101
 20
65.90434740156508
 30
0.0
 10
22.30396038497101
 20
66.04869069091507
 30
0.0
 10
22.11816339263101
 20
66.14394263366506
 30
0.0
 10
21.93113478706101
 20
66.19568364186506
 30
0.0
 10
21.74476499353101
 20
66.20668289566507
 30
0.0
 10
21.56028035764101
 20
66.17790479691507
 30
0.0
 10
21.37904017430101
 20
66.10846285916509
 30
0.0
 10
21.20318095515101
 20
65.99585118296508
 30
0.0
 10
21.03695937680101
 20
65.83483152457507
 30
0.0
 10
20.88767416268101
 20
65.62169232188506
 30
0.0
 10
20.76696538622101
 20
65.35779483598506
 30
0.0
 10
20.71573964252101
 20
65.16043064316509
 30
0.0
 10
20.69763502112101
 20
65.05636449313508
 30
0.0
  0
ARC
  5
24D
330
1F
100
AcDbEntity
  8
DEFAULT
 62
     7
100
AcDbCircle
 10
40.51266099358232
 20
61.71701271509944
 30
0.0
 40
20.09369324973977
100
AcDbArc
 50
179.1444158482459
 51
190.2194131262451
  0
ARC
  5
24E
330
1F
100
AcDbEntity
  8
DEFAULT
 62
     7
100
AcDbCircle
 10
22.11904004781157
 20
58.46005885025754
 30
0.0
 40
1.416069993352994
100
AcDbArc
 50
193.2973191342702
 51
269.1775513355354
  0
ARC
  5
24F
330
1F
100
AcDbEntity
  8
DEFAULT
 62
     7
100
AcDbCircle
 10
3.513823485637933
 20
59.93168038923459
 30
0.0
 40
20.07411704768474
100
AcDbArc
 50
355.1029207755349
 51
356.1735047494209
  0
ARC
  5
250
330
1F
100
AcDbEntity
  8
DEFAULT
 62
     7
100
AcDbCircle
 10
3.49888156481676
 20
59.93269153101987
 30
0.0
 40
20.08909314522534
100
AcDbArc
 50
356.199378433443
 51
357.2813873100189
  0
ARC
  5
251
330
1F
100
AcDbEntity
  8
DEFAULT
 62
     7
100
AcDbCircle
 10
3.496732057783216
 20
59.93280885174051
 30
0.0
 40
20.09124579645744
100
AcDbArc
 50
357.2973747877765
 51
358.3870057064934
  0
LINE
  5
252
330
1F
100
AcDbEntity
  8
DEFAULT
 62
     7
100
AcDbLine
 10
22.12762562064101
 20
57.04407573257507
 30
0.0
 11
22.18561070767101
 21
57.04574938528507
 31
0.0
  0
ARC
  5
253
330
1F
100
AcDbEntity
  8
DEFAULT
 62
     7
100
AcDbCircle
 10
22.12012834217756
 20
58.46028394426681
 30
0.0
 40
1.416049488249981
100
AcDbArc
 50
272.6504736225203
 51
341.121858971455
  0
LINE
  5
254
330
1F
100
AcDbEntity
  8
DEFAULT
 62
     7
100
AcDbLine
 10
23.47102830754101
 20
58.03576063190507
 30
0.0
 11
23.46000692554101
 21
58.00211199508507
 31
0.0
  0
ARC
  5
255
330
1F
100
AcDbEntity
  8
DEFAULT
 62
     7
100
AcDbCircle
 10
22.12042868159209
 20
58.45961313811891
 30
0.0
 40
1.415545935897919
100
AcDbArc
 50
342.576816397767
 51
349.9244676867145
  0
ARC
  5
256
330
1F
100
AcDbEntity
  8
DEFAULT
 62
     7
100
AcDbCircle
 10
3.484171248443874
 20
59.93299818874238
 30
0.0
 40
20.10380782267523
100
AcDbArc
 50
358.9312963936874
 51
0.60703911074998
  0
ARC
  5
257
330
1F
100
AcDbEntity
  8
DEFAULT
 62
     7
100
AcDbCircle
 10
3.468817068592629
 20
59.93274733136399
 30
0.0
 40
20.1191638133054
100
AcDbArc
 50
0.6143793398018081
 51
3.938910330265698
  0
ARC
  5
258
330
1F
100
AcDbEntity
  8
DEFAULT
 62
     7
100
AcDbCircle
 10
3.456621736358273
 20
59.93204865931124
 30
0.0
 40
20.13137833255135
100
AcDbArc
 50
3.945247840788015
 51
5.054696754234572
  0
ARC
  5
259
330
1F
100
AcDbEntity
  8
DEFAULT
 62
     7
100
AcDbCircle
 10
3.420900018177349
 20
59.92798705001571
 30
0.0
 40
20.16731900551028
100
AcDbArc
 50
5.057249385731894
 51
15.00774748061505
  0
ARC
  5
25A
330
1F
100
AcDbEntity
  8
DEFAULT
 62
     7
100
AcDbCircle
 10
40.58431292208133
 20
61.71714044166983
 30
0.0
 40
20.16537472900523
100
AcDbArc
 50
170.4983991466069
 51
176.3848671439091
  0
ARC
  5
25B
330
1F
100
AcDbEntity
  8
DEFAULT
 62
     7
100
AcDbCircle
 10
19.75536542862542
 20
59.90739247387705
 30
0.0
 40
20.16757674178486
100
AcDbArc
 50
164.8873535345649
 51
175.6676511855422
  0
SPLINE
  5
25C
330
1F
100
AcDbEntity
  8
DEFAULT
 62
     7
100
AcDbSpline
210
0.0
220
0.0
230
1.0
 70
     8
 71
     3
 72
    38
 73
    34
 74
     0
 42
0.0000000001
 43
0.0000000001
 40
0.0
 40
0.0
 40
0.0
 40
0.0
 40
0.01829472394588
 40
0.04263471018498
 40
0.06486066862624
 40
0.08666608980615
 40
0.1094260989273
 40
0.1343698637736
 40
0.162328765223
 40
0.1931000197436
 40
0.2271815617267
 40
0.2652391753545
 40
0.3080321978237
 40
0.3566308561693
 40
0.4116673870539
 40
0.4702816875425
 40
0.5284102311634
 40
0.5848851941301
 40
0.6376516591066
 40
0.6845829163543
 40
0.7258347094193
 40
0.7626010243603
 40
0.7955757064362
 40
0.8252947543491001
 40
0.8522348016175
 40
0.8768264467004
 40
0.8992626109305
 40
0.9193609443501
 40
0.9374102875345
 40
0.9545289119984
 40
0.9717437963886
 40
0.9889264324735
 40
1.0
 40
1.0
 40
1.0
 40
1.0
 10
2.489074214781009
 20
65.10269458130506
 30
0.0
 10
2.485464335231007
 20
65.12251724372507
 30
0.0
 10
2.476496374151007
 20
65.16861224020508
 30
0.0
 10
2.45997239832101
 20
65.23812838885507
 30
0.0
 10
2.439516890331009
 20
65.31060860715508
 30
0.0
 10
2.416727635921009
 20
65.38056312567508
 30
0.0
 10
2.389945343781007
 20
65.45229679363507
 30
0.0
 10
2.357164281701009
 20
65.52893694281508
 30
0.0
 10
2.316376268291008
 20
65.61162065060506
 30
0.0
 10
2.265455411511009
 20
65.70032880261508
 30
0.0
 10
2.20194002595101
 20
65.79432840882507
 30
0.0
 10
2.122077778071009
 20
65.89276694316507
 30
0.0
 10
2.020690794471007
 20
65.99345814262506
 30
0.0
 10
1.891568249141008
 20
66.09104655176506
 30
0.0
 10
1.732153595541009
 20
66.17399919780507
 30
0.0
 10
1.548809876551007
 20
66.22638978845507
 30
0.0
 10
1.356704376971009
 20
66.23682234056508
 30
0.0
 10
1.173564508151009
 20
66.20619927232508
 30
0.0
 10
1.011775072891008
 20
66.14518241895507
 30
0.0
 10
0.8768639669810081
 20
66.06730933881508
 30
0.0
 10
0.7675451508310072
 20
65.98322926922506
 30
0.0
 10
0.6789472060510089
 20
65.89875888439508
 30
0.0
 10
0.6064486107110081
 20
65.81650861700507
 30
0.0
 10
0.5466479265010082
 20
65.73788692548507
 30
0.0
 10
0.4969707447010083
 20
65.66340910916506
 30
0.0
 10
0.4554673062710097
 20
65.59327998090507
 30
0.0
 10
0.4208557715710082
 20
65.52793473735508
 30
0.0
 10
0.3920812225110086
 20
65.46772400089506
 30
0.0
 10
0.3678162075210085
 20
65.41189701117509
 30
0.0
 10
0.3465291928410064
 20
65.35827332861507
 30
0.0
 10
0.3271869567510091
 20
65.30493131801507
 30
0.0
 10
0.3116765744110086
 20
65.25730999936508
 30
0.0
 10
0.3027911762010074
 20
65.22748730880508
 30
0.0
 10
0.2993952452410074
 20
65.21577478318508
 30
0.0
  0
ARC
  5
25D
330
1F
100
AcDbEntity
  8
DEFAULT
 62
     7
100
AcDbCircle
 10
19.65788812394046
 20
59.90981688838552
 30
0.0
 40
20.06985819929966
100
AcDbArc
 50
183.6792752774695
 51
184.7322309278385
  0
ARC
  5
25E
330
1F
100
AcDbEntity
  8
DEFAULT
 62
     7
100
AcDbCircle
 10
19.67284968840684
 20
59.91078860868904
 30
0.0
 40
20.08485129603222
100
AcDbArc
 50
182.5721385730504
 51
183.6361514646728
  0
ARC
  5
25F
330
1F
100
AcDbEntity
  8
DEFAULT
 62
     7
100
AcDbCircle
 10
19.67502427990588
 20
59.910901409159
 30
0.0
 40
20.08702875615421
100
AcDbArc
 50
181.465124951718
 51
182.5366566617196
  0
ARC
  5
260
330
1F
100
AcDbEntity
  8
DEFAULT
 62
     7
100
AcDbCircle
 10
19.67917698949133
 20
59.91097202455193
 30
0.0
 40
20.09118192755065
100
AcDbArc
 50
180.3488630671488
 51
181.4327558362802
  0
ARC
  5
261
330
1F
100
AcDbEntity
  8
DEFAULT
 62
     7
100
AcDbCircle
 10
19.68996972742107
 20
59.91104343671388
 30
0.0
 40
20.10197490394238
100
AcDbArc
 50
179.2449780016501
 51
180.3336713534639
  0
LINE
  5
262
330
1F
100
AcDbEntity
  8
DEFAULT
 62
     7
100
AcDbLine
 10
-0.4099784720089919
 20
60.19648684935508
 30
0.0
 11
-0.4102598511889906
 21
60.17593195269507
 31
0.0
  0
LINE
  5
263
330
1F
100
AcDbEntity
  8
DEFAULT
 62
     7
100
AcDbLine
 10
-0.4085121123389908
 20
60.28577986029507
 30
0.0
 11
-0.4099784720089919
 21
60.19648684935508
 31
0.0
  0
LINE
  5
264
330
1F
100
AcDbEntity
  8
DEFAULT
 62
     7
100
AcDbLine
 10
2.758545372961009
 20
61.42271712666507
 30
0.0
 11
2.760934682541008
 21
61.58700474840507
 31
0.0
  0
ARC
  5
265
330
1F
100
AcDbEntity
  8
DEFAULT
 62
     7
100
AcDbCircle
 10
1.051949796623514
 20
58.48938779221644
 30
0.0
 40
1.416115789448097
100
AcDbArc
 50
198.7230347138826
 51
267.1917210221938
  0
ARC
  5
266
330
1F
100
AcDbEntity
  8
DEFAULT
 62
     7
100
AcDbCircle
 10
1.050664352622109
 20
58.48838924204335
 30
0.0
 40
1.414577941526655
100
AcDbArc
 50
189.9165260095026
 51
198.701442597021
  0
LINE
  5
267
330
1F
100
AcDbEntity
  8
DEFAULT
 62
     7
100
AcDbLine
 10
2.75437245783101
 20
61.24220286759508
 30
0.0
 11
2.758444492481007
 21
61.41734011894507
 31
0.0
  0
ARC
  5
268
330
1F
100
AcDbEntity
  8
DEFAULT
 62
     7
100
AcDbCircle
 10
-17.328541750314
 20
61.79586963643703
 30
0.0
 40
20.09054479058825
100
AcDbArc
 50
349.6145944633373
 51
358.4208100747551
  0
ARC
  5
269
330
1F
100
AcDbEntity
  8
DEFAULT
 62
     7
100
AcDbCircle
 10
1.053050939055488
 20
58.48901884367261
 30
0.0
 40
1.415993768761216
100
AcDbArc
 50
270.6650928756262
 51
346.5351064081352
  0
LINE
  5
26A
330
1F
100
AcDbEntity
  8
DEFAULT
 62
     7
100
AcDbLine
 10
-0.4011967775389931
 20
60.57018361632508
 30
0.0
 11
-0.4084387805289904
 21
60.28969281463507
 31
0.0
  0
ARC
  5
26B
330
1F
100
AcDbEntity
  8
DEFAULT
 62
     7
100
AcDbCircle
 10
19.70830605595987
 20
59.9104662825275
 30
0.0
 40
20.12032134860205
100
AcDbArc
 50
175.9120672809665
 51
178.121014350069
  0
ARC
  5
26C
330
1F
100
AcDbEntity
  8
DEFAULT
 62
     7
100
AcDbCircle
 10
-17.41379218940642
 20
61.79711134463494
 30
0.0
 40
20.17590616020636
100
AcDbArc
 50
1.626023099507202
 51
9.296216574607616
  0
ARC
  5
26D
330
1F
100
AcDbEntity
  8
DEFAULT
 62
     7
100
AcDbCircle
 10
-17.37046051536573
 20
61.79948405818634
 30
0.0
 40
20.13252463963744
100
AcDbArc
 50
359.4368267282567
 51
1.622772494497195
  0
LINE
  5
26E
330
1F
100
AcDbEntity
  8
DEFAULT
 62
     7
100
AcDbLine
 10
2.758539866911007
 20
61.42271726105508
 30
0.0
 11
2.761091593051009
 21
61.60160007270508
 31
0.0
  0
ARC
  5
26F
330
1F
100
AcDbEntity
  8
DEFAULT
 62
     7
100
AcDbCircle
 10
1.720850472231009
 20
71.38565460974508
 30
0.0
 40
0.2999998061040392
100
AcDbArc
 50
270.0
 51
303.066862771523
  0
ARC
  5
270
330
1F
100
AcDbEntity
  8
DEFAULT
 62
     7
100
AcDbCircle
 10
0.4587134722310065
 20
71.38565460974508
 30
0.0
 40
0.2999999042607995
100
AcDbArc
 50
200.8400441291695
 51
270.0000000000001
  0
ARC
  5
271
330
1F
100
AcDbEntity
  8
DEFAULT
 62
     7
100
AcDbCircle
 10
16.26112347223101
 20
77.66929960974508
 30
0.0
 40
0.2999993864131046
100
AcDbArc
 50
20.84011207462422
 51
81.82579113029269
  0
ARC
  5
272
330
1F
100
AcDbEntity
  8
DEFAULT
 62
     7
100
AcDbCircle
 10
16.26112347223101
 20
76.10394460974507
 30
0.0
 40
0.2999994369722794
100
AcDbArc
 50
270.0
 51
339.1598879253774
  0
ARC
  5
273
330
1F
100
AcDbEntity
  8
DEFAULT
 62
     7
100
AcDbCircle
 10
14.20505447223101
 20
76.88662260974508
 30
0.0
 40
2.499999737982278
100
AcDbArc
 50
339.1598219216112
 51
20.84015665947117
  0
ARC
  5
274
330
1F
100
AcDbEntity
  8
DEFAULT
 62
     7
100
AcDbCircle
 10
17.05505447223101
 20
76.88662260974508
 30
0.0
 40
2.499999620497469
100
AcDbArc
 50
159.1598433405289
 51
181.3681242135542
  0
ARC
  5
275
330
1F
100
AcDbEntity
  8
DEFAULT
 62
     7
100
AcDbCircle
 10
14.99898647223101
 20
77.66929960974508
 30
0.0
 40
0.2999996819114748
100
AcDbArc
 50
98.15492411256287
 51
159.1599558708303
  0
ARC
  5
276
330
1F
100
AcDbEntity
  8
DEFAULT
 62
     7
100
AcDbCircle
 10
15.63005447223101
 20
77.63662260974508
 30
0.0
 40
0.7499998622473902
100
AcDbArc
 50
346.5488733019828
 51
158.0960108175829
  0
ARC
  5
277
330
1F
100
AcDbEntity
  8
DEFAULT
 62
     7
100
AcDbCircle
 10
25.24390247223101
 20
65.30556460974506
 30
0.0
 40
0.3000002870156735
100
AcDbArc
 50
20.84022262018212
 51
81.84259108823692
  0
ARC
  5
278
330
1F
100
AcDbEntity
  8
DEFAULT
 62
     7
100
AcDbCircle
 10
25.24390247223101
 20
63.74021060974507
 30
0.0
 40
0.3000000821416451
100
AcDbArc
 50
270.0
 51
339.1597773798181
  0
ARC
  5
279
330
1F
100
AcDbEntity
  8
DEFAULT
 62
     7
100
AcDbCircle
 10
23.18783347223101
 20
64.52288760974508
 30
0.0
 40
2.50000085043986
100
AcDbArc
 50
339.1598300750824
 51
20.84016992491745
  0
ARC
  5
27A
330
1F
100
AcDbEntity
  8
DEFAULT
 62
     7
100
AcDbCircle
 10
26.03783347223101
 20
64.52288760974508
 30
0.0
 40
2.499999710209475
100
AcDbArc
 50
180.4766377225963
 51
200.8401780783887
  0
ARC
  5
27B
330
1F
100
AcDbEntity
  8
DEFAULT
 62
     7
100
AcDbCircle
 10
23.98176547223101
 20
63.74021060974507
 30
0.0
 40
0.3000000821416451
100
AcDbArc
 50
200.8402226201819
 51
270.0
  0
ARC
  5
27C
330
1F
100
AcDbEntity
  8
DEFAULT
 62
     7
100
AcDbCircle
 10
24.61283347223101
 20
65.27288760974508
 30
0.0
 40
0.7499999843406474
100
AcDbArc
 50
275.4156374209101
 51
84.58490216265088
  0
ARC
  5
27D
330
1F
100
AcDbEntity
  8
DEFAULT
 62
     7
100
AcDbCircle
 10
0.464544472231007
 20
56.09900160974507
 30
0.0
 40
0.2999999042607995
100
AcDbArc
 50
200.8400441291695
 51
270.0000000000001
  0
ARC
  5
27E
330
1F
100
AcDbEntity
  8
DEFAULT
 62
     7
100
AcDbCircle
 10
16.26112347223101
 20
52.94182960974508
 30
0.0
 40
0.3000000049073309
100
AcDbArc
 50
20.84029056611023
 51
79.78012070681368
  0
ARC
  5
27F
330
1F
100
AcDbEntity
  8
DEFAULT
 62
     7
100
AcDbCircle
 10
16.26112347223101
 20
51.37647560974508
 30
0.0
 40
0.2999996148536745
100
AcDbArc
 50
270.0
 51
339.1597094338891
  0
ARC
  5
280
330
1F
100
AcDbEntity
  8
DEFAULT
 62
     7
100
AcDbCircle
 10
14.20505447223101
 20
52.15915260974507
 30
0.0
 40
2.499999915863397
100
AcDbArc
 50
339.1598219216112
 51
20.8401780783888
  0
ARC
  5
281
330
1F
100
AcDbEntity
  8
DEFAULT
 62
     7
100
AcDbCircle
 10
17.05505447223101
 20
52.15915260974507
 30
0.0
 40
2.499999915863397
100
AcDbArc
 50
159.1598219216112
 51
200.8401780783888
  0
ARC
  5
282
330
1F
100
AcDbEntity
  8
DEFAULT
 62
     7
100
AcDbCircle
 10
14.99898647223101
 20
52.94182960974508
 30
0.0
 40
0.3000001102899749
100
AcDbArc
 50
142.343712336938
 51
159.1597773798192
  0
ARC
  5
283
330
1F
100
AcDbEntity
  8
DEFAULT
 62
     7
100
AcDbCircle
 10
14.99898647223101
 20
51.37647560974508
 30
0.0
 40
0.300000082141647
100
AcDbArc
 50
200.8402226201818
 51
270.0000000000003
  0
ARC
  5
284
330
1F
100
AcDbEntity
  8
DEFAULT
 62
     7
100
AcDbCircle
 10
15.63005447223101
 20
52.90915260974507
 30
0.0
 40
0.7500000185308797
100
AcDbArc
 50
201.6431209310399
 51
13.46063218996395
  0
ARC
  5
285
330
1F
100
AcDbEntity
  8
DEFAULT
 62
     7
100
AcDbCircle
 10
15.63005447223101
 20
52.90915260974507
 30
0.0
 40
0.7500000646209575
100
AcDbArc
 50
16.13252818518437
 51
16.52529096292419
  0
LINE
  5
286
330
1F
100
AcDbEntity
  8
DEFAULT
 62
     7
100
AcDbLine
 10
15.93005447223101
 20
75.80394460974506
 30
0.0
 11
15.857130472231
 21
75.80394460974506
 31
0.0
  0
LINE
  5
287
330
1F
100
AcDbEntity
  8
DEFAULT
 62
     7
100
AcDbLine
 10
16.26112347223101
 20
75.80394460974506
 30
0.0
 11
16.01005447223101
 21
75.80394460974506
 31
0.0
  0
LINE
  5
288
330
1F
100
AcDbEntity
  8
DEFAULT
 62
     7
100
AcDbLine
 10
0.7897814722310084
 20
71.91833260974508
 30
0.0
 11
0.7097814722310065
 21
71.91833260974508
 31
0.0
  0
LINE
  5
289
330
1F
100
AcDbEntity
  8
DEFAULT
 62
     7
100
AcDbLine
 10
24.99283347223101
 20
63.44021060974507
 30
0.0
 11
24.99283347223101
 21
64.62636860974507
 31
0.0
  0
LINE
  5
28A
330
1F
100
AcDbEntity
  8
DEFAULT
 62
     7
100
AcDbLine
 10
24.91283347223101
 20
63.44038860974508
 30
0.0
 11
24.91283347223101
 21
64.58554060974507
 31
0.0
  0
LINE
  5
28B
330
1F
100
AcDbEntity
  8
DEFAULT
 62
     7
100
AcDbLine
 10
0.7097814722310065
 20
71.08565460974506
 30
0.0
 11
0.4587134722310065
 21
71.08565460974506
 31
0.0
  0
LINE
  5
28C
330
1F
100
AcDbEntity
  8
DEFAULT
 62
     7
100
AcDbLine
 10
1.38978147223101
 20
71.08565460974506
 30
0.0
 11
0.7897814722310084
 21
71.08565460974506
 31
0.0
  0
LINE
  5
28D
330
1F
100
AcDbEntity
  8
DEFAULT
 62
     7
100
AcDbLine
 10
1.720850472231009
 20
71.08565460974506
 30
0.0
 11
1.469781472231008
 21
71.08565460974506
 31
0.0
  0
LINE
  5
28E
330
1F
100
AcDbEntity
  8
DEFAULT
 62
     7
100
AcDbLine
 10
24.31283347223101
 20
63.44038860974508
 30
0.0
 11
24.31283347223101
 21
64.51698260974507
 31
0.0
  0
LINE
  5
28F
330
1F
100
AcDbEntity
  8
DEFAULT
 62
     7
100
AcDbLine
 10
24.23283347223101
 20
63.44021060974507
 30
0.0
 11
24.23283347223101
 21
64.51544560974509
 31
0.0
  0
LINE
  5
290
330
1F
100
AcDbEntity
  8
DEFAULT
 62
     7
100
AcDbLine
 10
24.31283347223101
 20
64.27288760974508
 30
0.0
 11
24.23283347223101
 21
64.27288760974508
 31
0.0
  0
LINE
  5
291
330
1F
100
AcDbEntity
  8
DEFAULT
 62
     7
100
AcDbLine
 10
24.99283347223101
 20
64.27288760974508
 30
0.0
 11
24.91283347223101
 21
64.27288760974508
 31
0.0
  0
LINE
  5
292
330
1F
100
AcDbEntity
  8
DEFAULT
 62
     7
100
AcDbLine
 10
24.23283347223101
 20
63.44021060974507
 30
0.0
 11
23.98176547223101
 21
63.44021060974507
 31
0.0
  0
LINE
  5
293
330
1F
100
AcDbEntity
  8
DEFAULT
 62
     7
100
AcDbLine
 10
24.91283347223101
 20
63.44021060974507
 30
0.0
 11
24.31283347223101
 21
63.44021060974507
 31
0.0
  0
LINE
  5
294
330
1F
100
AcDbEntity
  8
DEFAULT
 62
     7
100
AcDbLine
 10
25.24390247223101
 20
63.44021060974507
 30
0.0
 11
24.99283347223101
 21
63.44021060974507
 31
0.0
  0
LINE
  5
295
330
1F
100
AcDbEntity
  8
DEFAULT
 62
     7
100
AcDbLine
 10
15.24866147223101
 20
73.80110060974508
 30
0.0
 11
16.34766947223101
 21
77.41860960974506
 31
0.0
  0
LINE
  5
296
330
1F
100
AcDbEntity
  8
DEFAULT
 62
     7
100
AcDbLine
 10
16.01005447223101
 20
75.80394460974506
 30
0.0
 11
16.01005447223101
 21
76.30731360974508
 31
0.0
  0
LINE
  5
297
330
1F
100
AcDbEntity
  8
DEFAULT
 62
     7
100
AcDbLine
 10
16.01005447223101
 20
51.07647560974507
 30
0.0
 11
16.01005447223101
 21
52.26266660974508
 31
0.0
  0
LINE
  5
298
330
1F
100
AcDbEntity
  8
DEFAULT
 62
     7
100
AcDbLine
 10
15.93005447223101
 20
75.80412360974506
 30
0.0
 11
15.93005447223101
 21
76.04398360974508
 31
0.0
  0
LINE
  5
299
330
1F
100
AcDbEntity
  8
DEFAULT
 62
     7
100
AcDbLine
 10
15.93005447223101
 20
51.07665460974507
 30
0.0
 11
15.93005447223101
 21
52.22184260974508
 31
0.0
  0
LINE
  5
29A
330
1F
100
AcDbEntity
  8
DEFAULT
 62
     7
100
AcDbLine
 10
15.33005447223101
 20
51.07665460974507
 30
0.0
 11
15.33005447223101
 21
52.22179160974508
 31
0.0
  0
LINE
  5
29B
330
1F
100
AcDbEntity
  8
DEFAULT
 62
     7
100
AcDbLine
 10
15.25005447223101
 20
51.07647560974507
 30
0.0
 11
15.25005447223101
 21
52.26262560974508
 31
0.0
  0
LINE
  5
29C
330
1F
100
AcDbEntity
  8
DEFAULT
 62
     7
100
AcDbLine
 10
16.29843047223101
 20
53.28923860974508
 30
0.0
 11
16.34766647223101
 21
53.12717560974507
 31
0.0
  0
LINE
  5
29D
330
1F
100
AcDbEntity
  8
DEFAULT
 62
     7
100
AcDbLine
 10
2.921642472231009
 20
72.55474460974509
 30
0.0
 11
1.524710472231009
 21
73.52921760974508
 31
0.0
  0
LINE
  5
29E
330
1F
100
AcDbEntity
  8
DEFAULT
 62
     7
100
AcDbLine
 10
13.56125147223101
 20
73.95456760974508
 30
0.0
 11
14.92134347223101
 21
77.88203560974506
 31
0.0
  0
LINE
  5
29F
330
1F
100
AcDbEntity
  8
DEFAULT
 62
     7
100
AcDbLine
 10
14.72732147223101
 20
53.22400560974507
 30
0.0
 11
14.92134747223101
 21
52.66372560974508
 31
0.0
  0
LINE
  5
2A0
330
1F
100
AcDbEntity
  8
DEFAULT
 62
     7
100
AcDbLine
 10
1.932835472231008
 20
71.34053060974506
 30
0.0
 11
0.6432074722310073
 21
72.31590760974507
 31
0.0
  0
LINE
  5
2A1
330
1F
100
AcDbEntity
  8
DEFAULT
 62
     7
100
AcDbLine
 10
0.795612472231009
 20
56.63167960974507
 30
0.0
 11
0.7156124722310071
 21
56.63167960974507
 31
0.0
  0
LINE
  5
2A2
330
1F
100
AcDbEntity
  8
DEFAULT
 62
     7
100
AcDbLine
 10
0.7156124722310071
 20
55.79900160974507
 30
0.0
 11
0.464544472231007
 21
55.79900160974507
 31
0.0
  0
LINE
  5
2A3
330
1F
100
AcDbEntity
  8
DEFAULT
 62
     7
100
AcDbLine
 10
1.280311472231008
 20
55.79900160974507
 30
0.0
 11
0.795612472231009
 21
55.79900160974507
 31
0.0
  0
LINE
  5
2A4
330
1F
100
AcDbEntity
  8
DEFAULT
 62
     7
100
AcDbLine
 10
15.33005447223101
 20
51.90915260974507
 30
0.0
 11
15.25005447223101
 21
51.90915260974507
 31
0.0
  0
LINE
  5
2A5
330
1F
100
AcDbEntity
  8
DEFAULT
 62
     7
100
AcDbLine
 10
16.01005447223101
 20
51.90915260974507
 30
0.0
 11
15.93005447223101
 21
51.90915260974507
 31
0.0
  0
LINE
  5
2A6
330
1F
100
AcDbEntity
  8
DEFAULT
 62
     7
100
AcDbLine
 10
15.25005447223101
 20
51.07647560974507
 30
0.0
 11
14.99898647223101
 21
51.07647560974507
 31
0.0
  0
LINE
  5
2A7
330
1F
100
AcDbEntity
  8
DEFAULT
 62
     7
100
AcDbLine
 10
15.93005447223101
 20
51.07647560974507
 30
0.0
 11
15.33005447223101
 21
51.07647560974507
 31
0.0
  0
LINE
  5
2A8
330
1F
100
AcDbEntity
  8
DEFAULT
 62
     7
100
AcDbLine
 10
16.26112347223101
 20
51.07647560974507
 30
0.0
 11
16.01005447223101
 21
51.07647560974507
 31
0.0
  0
LINE
  5
2A9
330
1F
100
AcDbEntity
  8
DEFAULT
 62
     7
100
AcDbLine
 10
1.469781472231008
 20
71.08565460974506
 30
0.0
 11
1.469781472231008
 21
71.69074960974507
 31
0.0
  0
LINE
  5
2AA
330
1F
100
AcDbEntity
  8
DEFAULT
 62
     7
100
AcDbLine
 10
1.38978147223101
 20
71.08583360974507
 30
0.0
 11
1.38978147223101
 21
71.75125560974507
 31
0.0
  0
LINE
  5
2AB
330
1F
100
AcDbEntity
  8
DEFAULT
 62
     7
100
AcDbLine
 10
0.795612472231009
 20
55.79918060974507
 30
0.0
 11
0.795612472231009
 21
56.94436260974508
 31
0.0
  0
LINE
  5
2AC
330
1F
100
AcDbEntity
  8
DEFAULT
 62
     7
100
AcDbLine
 10
0.7897814722310084
 20
71.08583360974507
 30
0.0
 11
0.7897814722310084
 21
72.20504960974506
 31
0.0
  0
LINE
  5
2AD
330
1F
100
AcDbEntity
  8
DEFAULT
 62
     7
100
AcDbLine
 10
0.7156124722310071
 20
55.79900160974507
 30
0.0
 11
0.7156124722310071
 21
56.98509960974507
 31
0.0
  0
LINE
  5
2AE
330
1F
100
AcDbEntity
  8
DEFAULT
 62
     7
100
AcDbLine
 10
0.7097814722310065
 20
71.08565460974506
 30
0.0
 11
0.7097814722310065
 21
72.26555560974506
 31
0.0
  0
LINE
  5
2AF
330
1F
100
AcDbEntity
  8
DEFAULT
 62
     7
100
AcDbLine
 10
7.061454248201009
 20
21.77046273593233
 30
0.0
 11
7.064090848481007
 21
21.73761487127433
 31
0.0
  0
LINE
  5
2B0
330
1F
100
AcDbEntity
  8
DEFAULT
 62
     7
100
AcDbLine
 10
7.046691253141009
 20
21.94064317988833
 30
0.0
 11
7.061454248201009
 21
21.77046273593233
 31
0.0
  0
LINE
  5
2B1
330
1F
100
AcDbEntity
  8
DEFAULT
 62
     7
100
AcDbLine
 10
7.015036914286008
 20
22.25696058230682
 30
0.0
 11
7.046691253141009
 21
21.94064317988833
 31
0.0
  0
LINE
  5
2B2
330
1F
100
AcDbEntity
  8
DEFAULT
 62
     7
100
AcDbLine
 10
7.003777873571008
 20
22.36914076749483
 30
0.0
 11
7.015036914286008
 21
22.25696058230682
 31
0.0
  0
LINE
  5
2B3
330
1F
100
AcDbEntity
  8
DEFAULT
 62
     7
100
AcDbLine
 10
6.961151811121009
 20
22.85573008416683
 30
0.0
 11
7.003777873571008
 21
22.36914076749483
 31
0.0
  0
LINE
  5
2B4
330
1F
100
AcDbEntity
  8
DEFAULT
 62
     7
100
AcDbLine
 10
6.962288824731007
 20
22.90757088216433
 30
0.0
 11
6.961269092191009
 21
22.88287485517333
 31
0.0
  0
LINE
  5
2B5
330
1F
100
AcDbEntity
  8
DEFAULT
 62
     7
100
AcDbLine
 10
5.096347961651008
 20
21.84829193505833
 30
0.0
 11
5.100977839811008
 21
21.75887231286233
 31
0.0
  0
ARC
  5
2B6
330
1F
100
AcDbEntity
  8
DEFAULT
 62
     7
100
AcDbCircle
 10
-0.1711180880297185
 20
21.57555844074207
 30
0.0
 40
5.274521982460692
100
AcDbArc
 50
2.963955783605991
 51
13.28746385840857
  0
LINE
  5
2B7
330
1F
100
AcDbEntity
  8
DEFAULT
 62
     7
100
AcDbLine
 10
4.944385305481009
 20
22.87072195804183
 30
0.0
 11
4.962200635171009
 21
22.78783771116532
 31
0.0
  0
ARC
  5
2B8
330
1F
100
AcDbEntity
  8
DEFAULT
 62
     7
100
AcDbCircle
 10
-3.395532662840704
 20
21.07812090546079
 30
0.0
 40
8.530395667965824
100
AcDbArc
 50
12.13071959386208
 51
20.44931650724232
  0
LINE
  5
2B9
330
1F
100
AcDbEntity
  8
DEFAULT
 62
     7
100
AcDbLine
 10
4.553531122201009
 20
24.17999464291533
 30
0.0
 11
4.597291238351008
 21
24.05845919776732
 31
0.0
  0
ARC
  5
2BA
330
1F
100
AcDbEntity
  8
DEFAULT
 62
     7
100
AcDbCircle
 10
-5.335820529948776
 20
20.61922949807013
 30
0.0
 40
10.51086697264418
100
AcDbArc
 50
19.80194624045229
 51
23.09665825904901
  0
LINE
  5
2BB
330
1F
100
AcDbEntity
  8
DEFAULT
 62
     7
100
AcDbLine
 10
4.312336260211008
 20
24.79005778602133
 30
0.0
 11
4.332541368811007
 21
24.74246884489833
 31
0.0
  0
ARC
  5
2BC
330
1F
100
AcDbEntity
  8
DEFAULT
 62
     7
100
AcDbCircle
 10
-5.89962516012217
 20
20.45430698661733
 30
0.0
 40
11.0942728939262
100
AcDbArc
 50
23.00489819020011
 51
26.9914276130738
  0
LINE
  5
2BD
330
1F
100
AcDbEntity
  8
DEFAULT
 62
     7
100
AcDbLine
 10
18.11557748881101
 20
21.84829193505833
 30
0.0
 11
18.11094761065101
 21
21.75887231286233
 31
0.0
  0
ARC
  5
2BE
330
1F
100
AcDbEntity
  8
DEFAULT
 62
     7
100
AcDbCircle
 10
23.38304353849192
 20
21.57555844074206
 30
0.0
 40
5.274521982460875
100
AcDbArc
 50
166.7125361415918
 51
177.036044216394
  0
LINE
  5
2BF
330
1F
100
AcDbEntity
  8
DEFAULT
 62
     7
100
AcDbLine
 10
18.26754014498101
 20
22.87072195804183
 30
0.0
 11
18.24972481529101
 21
22.78783771116532
 31
0.0
  0
ARC
  5
2C0
330
1F
100
AcDbEntity
  8
DEFAULT
 62
     7
100
AcDbCircle
 10
26.60745811330195
 20
21.07812090546105
 30
0.0
 40
8.53039566796501
100
AcDbArc
 50
159.5506834927575
 51
167.8692804061385
  0
LINE
  5
2C1
330
1F
100
AcDbEntity
  8
DEFAULT
 62
     7
100
AcDbLine
 10
18.65839432826101
 20
24.17999464291533
 30
0.0
 11
18.61463421211101
 21
24.05845919776732
 31
0.0
  0
ARC
  5
2C2
330
1F
100
AcDbEntity
  8
DEFAULT
 62
     7
100
AcDbCircle
 10
28.54774598041769
 20
20.6192294980674
 30
0.0
 40
10.51086697265159
100
AcDbArc
 50
156.9033417409521
 51
160.1980537595465
  0
LINE
  5
2C3
330
1F
100
AcDbEntity
  8
DEFAULT
 62
     7
100
AcDbLine
 10
18.89958919025101
 20
24.79005778602133
 30
0.0
 11
18.87938408165101
 21
24.74246884489833
 31
0.0
  0
ARC
  5
2C4
330
1F
100
AcDbEntity
  8
DEFAULT
 62
     7
100
AcDbCircle
 10
29.11155061058241
 20
20.45430698661806
 30
0.0
 40
11.09427289392428
100
AcDbArc
 50
153.0085723869254
 51
156.9951018097998
  0
LINE
  5
2C5
330
1F
100
AcDbEntity
  8
DEFAULT
 62
     7
100
AcDbLine
 10
16.15047120226101
 20
21.77046273593233
 30
0.0
 11
16.14783460198101
 21
21.73761487127433
 31
0.0
  0
LINE
  5
2C6
330
1F
100
AcDbEntity
  8
DEFAULT
 62
     7
100
AcDbLine
 10
16.16523419732101
 20
21.94064317988833
 30
0.0
 11
16.15047120226101
 21
21.77046273593233
 31
0.0
  0
LINE
  5
2C7
330
1F
100
AcDbEntity
  8
DEFAULT
 62
     7
100
AcDbLine
 10
16.19688853617601
 20
22.25696058230682
 30
0.0
 11
16.16523419732101
 21
21.94064317988833
 31
0.0
  0
LINE
  5
2C8
330
1F
100
AcDbEntity
  8
DEFAULT
 62
     7
100
AcDbLine
 10
16.20814757689101
 20
22.36914076749483
 30
0.0
 11
16.19688853617601
 21
22.25696058230682
 31
0.0
  0
LINE
  5
2C9
330
1F
100
AcDbEntity
  8
DEFAULT
 62
     7
100
AcDbLine
 10
16.25077363934101
 20
22.85573008416683
 30
0.0
 11
16.20814757689101
 21
22.36914076749483
 31
0.0
  0
LINE
  5
2CA
330
1F
100
AcDbEntity
  8
DEFAULT
 62
     7
100
AcDbLine
 10
16.24963662573101
 20
22.90757088216433
 30
0.0
 11
16.25065635827101
 21
22.88287485517333
 31
0.0
  0
ARC
  5
2CB
330
1F
100
AcDbEntity
  8
DEFAULT
 62
     7
100
AcDbCircle
 10
24.72909939647577
 20
28.66625855881077
 30
0.0
 40
2.303532505527818
100
AcDbArc
 50
175.2558053753015
 51
180.9910387068728
  0
LINE
  5
2CC
330
1F
100
AcDbEntity
  8
DEFAULT
 62
     7
100
AcDbLine
 10
22.42576597152101
 20
28.58304774052033
 30
0.0
 11
22.42591147049101
 21
28.62641660076033
 31
0.0
  0
LINE
  5
2CD
330
1F
100
AcDbEntity
  8
DEFAULT
 62
     7
100
AcDbLine
 10
22.42612326762101
 20
28.55176269645033
 30
0.0
 11
22.42576597152101
 21
28.58304774052033
 31
0.0
  0
LINE
  5
2CE
330
1F
100
AcDbEntity
  8
DEFAULT
 62
     7
100
AcDbLine
 10
22.43569488122101
 20
27.75469646272033
 30
0.0
 11
22.42612326762101
 21
28.55176269645033
 31
0.0
  0
ARC
  5
2CF
330
1F
100
AcDbEntity
  8
DEFAULT
 62
     7
100
AcDbCircle
 10
790.0067068254257
 20
36.9721150736209
 30
0.0
 40
767.6263538876835
100
AcDbArc
 50
180.6880064417635
 51
181.1827655993711
  0
SPLINE
  5
2D0
330
1F
100
AcDbEntity
  8
DEFAULT
 62
     7
100
AcDbSpline
210
0.0
220
0.0
230
1.0
 70
     8
 71
     3
 72
    15
 73
    11
 74
     0
 42
0.0000000001
 43
0.0000000001
 40
0.0
 40
0.0
 40
0.0
 40
0.0
 40
0.0148570330696
 40
0.1974352536564886
 40
0.3628791155040558
 40
0.5094530027716657
 40
0.6395965366459695
 40
0.7642345562638925
 40
0.8924631180058336
 40
1.0
 40
1.0
 40
1.0
 40
1.0
 10
21.24900638030101
 20
19.77153358419533
 30
0.0
 10
21.25889337116101
 20
19.77418470755533
 30
0.0
 10
21.39019214887101
 20
19.80976189047033
 30
0.0
 10
21.62923860214101
 20
19.88386798107833
 30
0.0
 10
21.94255366779101
 20
20.02028971694033
 30
0.0
 10
22.19824009838101
 20
20.19025293427333
 30
0.0
 10
22.38376627800101
 20
20.40046948167433
 30
0.0
 10
22.49344755130101
 20
20.64426528659733
 30
0.0
 10
22.53771737132369
 20
20.89017988572154
 30
0.0
 10
22.54367389055561
 20
21.05278371376643
 30
0.0
 10
22.54331153378601
 20
21.12690063344983
 30
0.0
  0
ARC
  5
2D1
330
1F
100
AcDbEntity
  8
DEFAULT
 62
     7
100
AcDbCircle
 10
-381.0094400174021
 20
34.33624616056591
 30
0.0
 40
402.723390746937
100
AcDbArc
 50
358.2261453327445
 51
359.0637803765408
  0
LINE
  5
2D2
330
1F
100
AcDbEntity
  8
DEFAULT
 62
     7
100
AcDbLine
 10
21.66092122393101
 20
27.80493690682033
 30
0.0
 11
21.66018848264601
 21
27.75599249195032
 31
0.0
  0
LINE
  5
2D3
330
1F
100
AcDbEntity
  8
DEFAULT
 62
     7
100
AcDbLine
 10
21.67135141086101
 20
28.57941656272033
 30
0.0
 11
21.66092122393101
 21
27.80493690682033
 31
0.0
  0
LINE
  5
2D4
330
1F
100
AcDbEntity
  8
DEFAULT
 62
     7
100
AcDbLine
 10
21.67039670180101
 20
28.62230034968033
 30
0.0
 11
21.67149154861101
 21
28.59076321524533
 31
0.0
  0
ARC
  5
2D5
330
1F
100
AcDbEntity
  8
DEFAULT
 62
     7
100
AcDbCircle
 10
20.63585051109732
 20
28.58638492435777
 30
0.0
 40
1.035169425010039
100
AcDbArc
 50
1.988288403587339
 51
16.54106592548813
  0
LINE
  5
2D6
330
1F
100
AcDbEntity
  8
DEFAULT
 62
     7
100
AcDbLine
 10
0.3456124722310096
 20
2.390216503950324
 30
0.0
 11
1.84561247223101
 21
2.390216503950324
 31
0.0
  0
LINE
  5
2D7
330
1F
100
AcDbEntity
  8
DEFAULT
 62
     7
100
AcDbLine
 10
0.795612472231009
 20
0.6719885039503242
 30
0.0
 11
1.395612472231007
 21
0.6719885039503242
 31
0.0
  0
LINE
  5
2D8
330
1F
100
AcDbEntity
  8
DEFAULT
 62
     7
100
AcDbLine
 10
1.72668147223101
 20
0.0049565039503235
 30
0.0
 11
1.475612472231009
 21
0.0049565039503235
 31
0.0
  0
ARC
  5
2D9
330
1F
100
AcDbEntity
  8
DEFAULT
 62
     7
100
AcDbCircle
 10
0.4564833801206916
 20
1.884932620118625
 30
0.0
 40
0.2854917122899886
100
AcDbArc
 50
88.38199173660971
 51
110.1728551970175
  0
ARC
  5
2DA
330
1F
100
AcDbEntity
  8
DEFAULT
 62
     7
100
AcDbCircle
 10
70.3856676332681
 20
6.427895353629054
 30
0.0
 40
60.00069097742542
100
AcDbArc
 50
183.8587459958691
 51
184.9587887513077
  0
ARC
  5
2DB
330
1F
100
AcDbEntity
  8
DEFAULT
 62
     7
100
AcDbCircle
 10
-47.15999926927125
 20
6.427900794715782
 30
0.0
 40
60.00069102978421
100
AcDbArc
 50
355.0412060377149
 51
356.1412487931539
  0
SPLINE
  5
2DC
330
1F
100
AcDbEntity
  8
DEFAULT
 62
     7
100
AcDbSpline
210
0.0
220
0.0
230
1.0
 70
     8
 71
     3
 72
    54
 73
    50
 74
     0
 42
0.0000000001
 43
0.0000000001
 40
0.0
 40
0.0
 40
0.0
 40
0.0
 40
0.008460002842825
 40
0.02096408849368
 40
0.03420471473684
 40
0.04807161142606
 40
0.0625879229391
 40
0.07776554026714
 40
0.09362375073169
 40
0.1101733614596
 40
0.1274287179308
 40
0.1454032673055
 40
0.1641284498226
 40
0.183669454922
 40
0.2040917913975
 40
0.2254131145025
 40
0.2475371054215
 40
0.2703466562575
 40
0.2937240569426
 40
0.3176265517908
 40
0.3421595283706
 40
0.3674453205299
 40
0.3936081737343
 40
0.4207724201478
 40
0.4490549972741
 40
0.4783231703637
 40
0.50813044741
 40
0.5380114029361
 40
0.5675023253788
 40
0.5961455794411
 40
0.6237166345663
 40
0.6503260770873
 40
0.6761117148751
 40
0.7012062279396
 40
0.7257369345622
 40
0.7498303091666
 40
0.7735137449611
 40
0.7967196643812
 40
0.8193854065217
 40
0.8414501367732
 40
0.8628507665765
 40
0.8835173082251
 40
0.9033573693125
 40
0.9222991466907
 40
0.9402933936462
 40
0.9572873115048
 40
0.9732399172915
 40
0.9881427874676
 40
1.0
 40
1.0
 40
1.0
 40
1.0
 10
16.37983109101101
 20
2.576256323420325
 30
0.0
 10
16.37982095365101
 20
2.580470618350324
 30
0.0
 10
16.37959521841101
 20
2.590914309810325
 30
0.0
 10
16.37864238438101
 20
2.607927335250324
 30
0.0
 10
16.37714371601101
 20
2.627602473890324
 30
0.0
 10
16.37521929999101
 20
2.648247310200324
 30
0.0
 10
16.37290141645101
 20
2.669822068420324
 30
0.0
 10
16.37021077326101
 20
2.692352634830325
 30
0.0
 10
16.36716845732101
 20
2.715859992610325
 30
0.0
 10
16.36375756337101
 20
2.740362080690325
 30
0.0
 10
16.35997224572101
 20
2.765875314500324
 30
0.0
 10
16.35579710838101
 20
2.792425225680324
 30
0.0
 10
16.35121550266101
 20
2.820062747630324
 30
0.0
 10
16.34619219272101
 20
2.848861949310324
 30
0.0
 10
16.34069120355101
 20
2.878889434480325
 30
0.0
 10
16.33469083679101
 20
2.910132311460324
 30
0.0
 10
16.32818463821101
 20
2.942487650400324
 30
0.0
 10
16.32117587961101
 20
2.975785230750324
 30
0.0
 10
16.31366880544101
 20
3.009881739830324
 30
0.0
 10
16.30564575037101
 20
3.044742072550325
 30
0.0
 10
16.29705316798101
 20
3.080444988360324
 30
0.0
 10
16.28781167406101
 20
3.117147751160325
 30
0.0
 10
16.27782921823101
 20
3.155013179510324
 30
0.0
 10
16.26699802669101
 20
3.194195787450325
 30
0.0
 10
16.25523504446101
 20
3.234722275520325
 30
0.0
 10
16.24252342278101
 20
3.276340220640325
 30
0.0
 10
16.22892663005101
 20
3.318515139550325
 30
0.0
 10
16.21459231833101
 20
3.360562678750324
 30
0.0
 10
16.19971168905101
 20
3.401804322300324
 30
0.0
 10
16.18448506750101
 20
3.441690316250325
 30
0.0
 10
16.16904019140101
 20
3.479948806410324
 30
0.0
 10
16.15339129456101
 20
3.516581458570324
 30
0.0
 10
16.13748932334101
 20
3.551755575470324
 30
0.0
 10
16.12126613882101
 20
3.585638478370325
 30
0.0
 10
16.10464081379101
 20
3.618383563290325
 30
0.0
 10
16.08754996560101
 20
3.650092226290325
 30
0.0
 10
16.06996432303101
 20
3.680771363810325
 30
0.0
 10
16.05189959591101
 20
3.710341204890325
 30
0.0
 10
16.03340786129101
 20
3.738688441230325
 30
0.0
 10
16.01455690431101
 20
3.765709054560324
 30
0.0
 10
15.99543284429101
 20
3.791304654600325
 30
0.0
 10
15.97614830172101
 20
3.815375317560325
 30
0.0
 10
15.95684096678101
 20
3.837835569680325
 30
0.0
 10
15.93766218493101
 20
3.858627877060324
 30
0.0
 10
15.91876633398101
 20
3.877729605580325
 30
0.0
 10
15.90031135299101
 20
3.895151296000325
 30
0.0
 10
15.88244672354101
 20
3.910935486000325
 30
0.0
 10
15.86606051205101
 20
3.924510958530324
 30
0.0
 10
15.85556021989101
 20
3.932725007500324
 30
0.0
 10
15.85086301250101
 20
3.936305685150325
 30
0.0
  0
LINE
  5
2DD
330
1F
100
AcDbEntity
  8
DEFAULT
 62
     7
100
AcDbLine
 10
0.9825674722310065
 20
57.07492660974507
 30
0.0
 11
1.056310472231007
 21
57.07301260974507
 31
0.0
  0
ARC
  5
2DE
330
1F
100
AcDbEntity
  8
DEFAULT
 62
     7
100
AcDbCircle
 10
1.089781472231009
 20
72.91833260974508
 30
0.0
 40
0.7499999137113248
100
AcDbArc
 50
54.3245385446533
 51
233.4496158934098
  0
LINE
  5
2DF
330
1F
100
AcDbEntity
  8
DEFAULT
 62
     7
100
AcDbLine
 10
20.42120802177101
 20
62.01705587221507
 30
0.0
 11
20.42252229600101
 21
62.09519222110507
 31
0.0
  0
LINE
  5
2E0
330
1F
100
AcDbEntity
  8
DEFAULT
 62
     7
100
AcDbLine
 10
20.44453318826101
 20
62.73160249717507
 30
0.0
 11
20.44601006598101
 21
62.76047811234508
 31
0.0
  0
LINE
  5
2E1
330
1F
100
AcDbEntity
  8
DEFAULT
 62
     7
100
AcDbLine
 10
20.44882622479101
 20
62.81456922095507
 30
0.0
 11
20.45906508065101
 21
62.98865028520508
 31
0.0
  0
LINE
  5
2E2
330
1F
100
AcDbEntity
  8
DEFAULT
 62
     7
100
AcDbLine
 10
20.44036057723101
 20
62.64620988694508
 30
0.0
 11
20.44882622479101
 21
62.81456922095507
 31
0.0
  0
LINE
  5
2E3
330
1F
100
AcDbEntity
  8
DEFAULT
 62
     7
100
AcDbLine
 10
20.43390364993101
 20
62.49351903033507
 30
0.0
 11
20.44036057723101
 21
62.64620988694508
 31
0.0
  0
LINE
  5
2E4
330
1F
100
AcDbEntity
  8
DEFAULT
 62
     7
100
AcDbLine
 10
20.42806887931101
 20
62.32313025567508
 30
0.0
 11
20.43390364993101
 21
62.49351903033507
 31
0.0
  0
LINE
  5
2E5
330
1F
100
AcDbEntity
  8
DEFAULT
 62
     7
100
AcDbLine
 10
20.42435441733101
 20
62.18304071103507
 30
0.0
 11
20.42806887931101
 21
62.32313025567508
 31
0.0
  0
LINE
  5
2E6
330
1F
100
AcDbEntity
  8
DEFAULT
 62
     7
100
AcDbLine
 10
20.42256570162101
 20
62.09745611369507
 30
0.0
 11
20.42435441733101
 21
62.18304071103507
 31
0.0
  0
LINE
  5
2E7
330
1F
100
AcDbEntity
  8
DEFAULT
 62
     7
100
AcDbLine
 10
43.47119967560439
 20
37.55715742766032
 30
0.0
 11
43.49382232661439
 21
37.49682202935033
 31
0.0
  0
LINE
  5
2E8
330
1F
100
AcDbEntity
  8
DEFAULT
 62
     7
100
AcDbLine
 10
43.45594753351438
 20
37.59777295959032
 30
0.0
 11
43.47119967560439
 21
37.55715742766032
 31
0.0
  0
LINE
  5
2E9
330
1F
100
AcDbEntity
  8
DEFAULT
 62
     7
100
AcDbLine
 10
44.23885179383438
 20
26.44022580272032
 30
0.0
 11
44.17926164229439
 21
26.32747344435033
 31
0.0
  0
LINE
  5
2EA
330
1F
100
AcDbEntity
  8
DEFAULT
 62
     7
100
AcDbLine
 10
56.08964861445438
 20
29.72366103961032
 30
0.0
 11
56.06273857786439
 21
29.72891244245033
 31
0.0
  0
LINE
  5
2EB
330
1F
100
AcDbEntity
  8
DEFAULT
 62
     7
100
AcDbLine
 10
60.73046789519438
 20
20.41664999742533
 30
0.0
 11
60.67833348916437
 21
20.46542625177033
 31
0.0
  0
SPLINE
  5
2EC
330
1F
100
AcDbEntity
  8
DEFAULT
 62
     7
100
AcDbSpline
210
0.0
220
0.0
230
1.0
 70
     8
 71
     5
 72
    12
 73
     6
 74
     0
 42
0.0000000001
 43
0.0000000001
 40
0.0
 40
0.0
 40
0.0
 40
0.0
 40
0.0
 40
0.0
 40
1.0
 40
1.0
 40
1.0
 40
1.0
 40
1.0
 40
1.0
 10
59.39826193629438
 20
18.88044370285233
 30
0.0
 10
59.64325733070901
 20
18.75486123795496
 30
0.0
 10
59.86919133442602
 20
18.59209242752862
 30
0.0
 10
60.26743883264351
 20
18.77025279811123
 30
0.0
 10
60.55468086360609
 20
18.85523426329846
 30
0.0
 10
60.76653025427439
 20
19.03105671478733
 30
0.0
  0
ARC
  5
2ED
330
1F
100
AcDbEntity
  8
DEFAULT
 62
     7
100
AcDbCircle
 10
52.61495923245941
 20
11.36156425084513
 30
0.0
 40
18.70392989511707
100
AcDbArc
 50
94.83489145422151
 51
100.7449494223535
  0
ARC
  5
2EE
330
1F
100
AcDbEntity
  8
DEFAULT
 62
     7
100
AcDbCircle
 10
41.38420888818526
 20
24.55761236486439
 30
0.0
 40
0.5864728922989028
100
AcDbArc
 50
305.9075480828938
 51
314.0250437303064
  0
ARC
  5
2EF
330
1F
100
AcDbEntity
  8
DEFAULT
 62
     7
100
AcDbCircle
 10
40.39759771688735
 20
40.73937763682979
 30
0.0
 40
0.1608672011890741
100
AcDbArc
 50
193.3119955910735
 51
300.2769957527411
  0
SPLINE
  5
2F0
330
1F
100
AcDbEntity
  8
DEFAULT
 62
     7
100
AcDbSpline
210
0.0
220
0.0
230
1.0
 70
     8
 71
     5
 72
    12
 73
     6
 74
     0
 42
0.0000000001
 43
0.0000000001
 40
0.0
 40
0.0
 40
0.0
 40
0.0
 40
0.0
 40
0.0
 40
1.0
 40
1.0
 40
1.0
 40
1.0
 40
1.0
 40
1.0
 10
40.35997295432438
 20
39.10639288897032
 30
0.0
 10
40.33910082088584
 20
39.29794818634006
 30
0.0
 10
40.58668989031433
 20
39.51875539230357
 30
0.0
 10
40.54769312863702
 20
39.66338472697785
 30
0.0
 10
40.57010706689636
 20
39.86008756323505
 30
0.0
 10
40.54739216990439
 20
40.05143309195032
 30
0.0
  0
ARC
  5
2F1
330
1F
100
AcDbEntity
  8
DEFAULT
 62
     7
100
AcDbCircle
 10
41.03601140096772
 20
36.64158235996878
 30
0.0
 40
2.363405232659471
100
AcDbArc
 50
95.72042732734964
 51
101.9363433162841
  0
ARC
  5
2F2
330
1F
100
AcDbEntity
  8
DEFAULT
 62
     7
100
AcDbCircle
 10
40.64816908622331
 20
40.68442136783585
 30
0.0
 40
0.3975754529215837
100
AcDbArc
 50
101.2722224302046
 51
117.8628355437972
  0
ARC
  5
2F3
330
1F
100
AcDbEntity
  8
DEFAULT
 62
     7
100
AcDbCircle
 10
107.757200529314
 20
6.427850628936516
 30
0.0
 40
60.00069154246148
100
AcDbArc
 50
183.8587031626664
 51
184.9587458355671
  0
ARC
  5
2F4
330
1F
100
AcDbEntity
  8
DEFAULT
 62
     7
100
AcDbCircle
 10
-9.788474688784604
 20
6.427850628935681
 30
0.0
 40
60.00069154246083
100
AcDbArc
 50
355.0412541644336
 51
356.1412968373343
  0
LINE
  5
2F5
330
1F
100
AcDbEntity
  8
DEFAULT
 62
     7
100
AcDbLine
 10
2.82982458677101
 20
29.63250294240033
 30
0.0
 11
2.829791586771008
 21
29.37061794240033
 31
0.0
  0
SPLINE
  5
2F6
330
1F
100
AcDbEntity
  8
DEFAULT
 62
     7
100
AcDbSpline
210
0.0
220
0.0
230
1.0
 70
     8
 71
     3
 72
    23
 73
    19
 74
     0
 42
0.0000000001
 43
0.0000000001
 40
0.0
 40
0.0
 40
0.0
 40
0.0
 40
0.05119990054059
 40
0.1405416700713
 40
0.2190654761836
 40
0.2866136849926
 40
0.3436373624033
 40
0.396960431192
 40
0.4472817590796
 40
0.4949347398529
 40
0.5403698182701
 40
0.5841533010522
 40
0.6258310855902
 40
0.6638766460968
 40
0.6928145117098
 40
0.8260035690832001
 40
0.9124387630264
 40
1.0
 40
1.0
 40
1.0
 40
1.0
 10
2.829801427721008
 20
29.37080619035033
 30
0.0
 10
2.82980403635101
 20
29.36495002537032
 30
0.0
 10
2.829101813571007
 20
29.34888354315033
 30
0.0
 10
2.825517428361009
 20
29.32405129700033
 30
0.0
 10
2.819307060721008
 20
29.29785300584033
 30
0.0
 10
2.812613049501009
 20
29.27561952552032
 30
0.0
 10
2.805949077431008
 20
29.25640876372033
 30
0.0
 10
2.799394075591009
 20
29.23925497614033
 30
0.0
 10
2.792815436751009
 20
29.22326346100033
 30
0.0
 10
2.786261500601007
 20
29.20824108648032
 30
0.0
 10
2.77975552543101
 20
29.19401568831033
 30
0.0
 10
2.773315645901007
 20
29.18051386995033
 30
0.0
 10
2.76709604699101
 20
29.16784211547033
 30
0.0
 10
2.761420870361007
 20
29.15679942229032
 30
0.0
 10
2.751217944451009
 20
29.13630811593032
 30
0.0
 10
2.73089665595101
 20
29.11506369775033
 30
0.0
 10
2.701030272911008
 20
29.09664383808033
 30
0.0
 10
2.683418452211007
 20
29.08735552215033
 30
0.0
 10
2.674412055201009
 20
29.08298909888032
 30
0.0
  0
LINE
  5
2F7
330
1F
100
AcDbEntity
  8
DEFAULT
 62
     7
100
AcDbLine
 10
2.674588059251007
 20
29.08306580041032
 30
0.0
 11
2.64713815669101
 21
29.07067596382032
 31
0.0
  0
LINE
  5
2F8
330
1F
100
AcDbEntity
  8
DEFAULT
 62
     7
100
AcDbLine
 10
2.64713815669101
 20
29.07067596382032
 30
0.0
 11
2.609995360421009
 21
29.05634749065033
 31
0.0
  0
ARC
  5
2F9
330
1F
100
AcDbEntity
  8
DEFAULT
 62
     7
100
AcDbCircle
 10
2.509665376991754
 20
29.64990776432859
 30
0.0
 40
0.320311872249456
100
AcDbArc
 50
358.1579961168264
 51
83.32202761683436
  0
SPLINE
  5
2FA
330
1F
100
AcDbEntity
  8
DEFAULT
 62
     7
100
AcDbSpline
210
0.0
220
0.0
230
1.0
 70
     8
 71
     5
 72
    12
 73
     6
 74
     0
 42
0.0000000001
 43
0.0000000001
 40
0.0
 40
0.0
 40
0.0
 40
0.0
 40
0.0
 40
0.0
 40
1.0
 40
1.0
 40
1.0
 40
1.0
 40
1.0
 40
1.0
 10
0.9936734256410087
 20
28.84403518263033
 30
0.0
 10
1.319665305848673
 20
28.83835904325733
 30
0.0
 10
1.646040131010977
 20
28.85467618797685
 30
0.0
 10
1.942305381712709
 20
28.98782912558038
 30
0.0
 10
2.30278007324869
 20
28.94716099035318
 30
0.0
 10
2.609995360421009
 20
29.05634749065033
 30
0.0
  0
SPLINE
  5
2FB
330
1F
100
AcDbEntity
  8
DEFAULT
 62
     7
100
AcDbSpline
210
0.0
220
0.0
230
1.0
 70
     8
 71
     5
 72
    12
 73
     6
 74
     0
 42
0.0000000001
 43
0.0000000001
 40
0.0
 40
0.0
 40
0.0
 40
0.0
 40
0.0
 40
0.0
 40
1.0
 40
1.0
 40
1.0
 40
1.0
 40
1.0
 40
1.0
 10
22.231996703241
 20
28.84403518263033
 30
0.0
 10
21.90600482303334
 20
28.83835904325733
 30
0.0
 10
21.57962999787103
 20
28.85467618797685
 30
0.0
 10
21.2833647471693
 20
28.98782912558038
 30
0.0
 10
20.92289005563332
 20
28.94716099035318
 30
0.0
 10
20.615674768461
 20
29.05634749065033
 30
0.0
  0
ARC
  5
2FC
330
1F
100
AcDbEntity
  8
DEFAULT
 62
     7
100
AcDbCircle
 10
20.71600475189025
 20
29.64990776432858
 30
0.0
 40
0.320311872249459
100
AcDbArc
 50
96.67797238316486
 51
181.8420038831729
  0
LINE
  5
2FD
330
1F
100
AcDbEntity
  8
DEFAULT
 62
     7
100
AcDbLine
 10
20.578531972191
 20
29.07067596382032
 30
0.0
 11
20.615674768461
 21
29.05634749065033
 31
0.0
  0
LINE
  5
2FE
330
1F
100
AcDbEntity
  8
DEFAULT
 62
     7
100
AcDbLine
 10
20.551082069631
 20
29.08306580041032
 30
0.0
 11
20.578531972191
 21
29.07067596382032
 31
0.0
  0
SPLINE
  5
2FF
330
1F
100
AcDbEntity
  8
DEFAULT
 62
     7
100
AcDbSpline
210
0.0
220
0.0
230
1.0
 70
     8
 71
     3
 72
    23
 73
    19
 74
     0
 42
0.0000000001
 43
0.0000000001
 40
0.0
 40
0.0
 40
0.0
 40
0.0
 40
0.05119990054059
 40
0.1405416700713
 40
0.2190654761836
 40
0.2866136849926
 40
0.3436373624033
 40
0.396960431192
 40
0.4472817590796
 40
0.4949347398529
 40
0.5403698182701
 40
0.5841533010522
 40
0.6258310855902
 40
0.6638766460968
 40
0.6928145117098
 40
0.8260035690832001
 40
0.9124387630264
 40
1.0
 40
1.0
 40
1.0
 40
1.0
 10
20.395868701161
 20
29.37080619035033
 30
0.0
 10
20.395866092531
 20
29.36495002537032
 30
0.0
 10
20.396568315311
 20
29.34888354315033
 30
0.0
 10
20.400152700521
 20
29.32405129700033
 30
0.0
 10
20.406363068161
 20
29.29785300584033
 30
0.0
 10
20.413057079381
 20
29.27561952552032
 30
0.0
 10
20.419721051451
 20
29.25640876372033
 30
0.0
 10
20.426276053291
 20
29.23925497614033
 30
0.0
 10
20.432854692131
 20
29.22326346100033
 30
0.0
 10
20.439408628281
 20
29.20824108648032
 30
0.0
 10
20.445914603451
 20
29.19401568831033
 30
0.0
 10
20.452354482981
 20
29.18051386995033
 30
0.0
 10
20.458574081891
 20
29.16784211547033
 30
0.0
 10
20.464249258521
 20
29.15679942229032
 30
0.0
 10
20.474452184431
 20
29.13630811593032
 30
0.0
 10
20.494773472931
 20
29.11506369775033
 30
0.0
 10
20.524639855971
 20
29.09664383808033
 30
0.0
 10
20.542251676671
 20
29.08735552215033
 30
0.0
 10
20.551258073681
 20
29.08298909888032
 30
0.0
  0
LINE
  5
300
330
1F
100
AcDbEntity
  8
DEFAULT
 62
     7
100
AcDbLine
 10
20.395845542111
 20
29.63250294240033
 30
0.0
 11
20.395878542111
 21
29.37061794240033
 31
0.0
  0
SPLINE
  5
301
330
1F
100
AcDbEntity
  8
DEFAULT
 62
     7
100
AcDbSpline
210
0.0
220
0.0
230
1.0
 70
     8
 71
     3
 72
    14
 73
    10
 74
     0
 42
0.0000000001
 43
0.0000000001
 40
0.0
 40
0.0
 40
0.0
 40
0.0
 40
0.07016120090856
 40
0.179652348165
 40
0.3162841608948
 40
0.4708561052931
 40
0.6401655578455
 40
0.822928941952
 40
1.0
 40
1.0
 40
1.0
 40
1.0
 10
23.407852899331
 20
29.05204790684033
 30
0.0
 10
23.386474964221
 20
29.03368462267033
 30
0.0
 10
23.322547348811
 20
28.99716702143033
 30
0.0
 10
23.202119547981
 20
28.95640625297033
 30
0.0
 10
23.045030699261
 20
28.91958269052033
 30
0.0
 10
22.862349083181
 20
28.88929057085032
 30
0.0
 10
22.659961174031
 20
28.86583811489033
 30
0.0
 10
22.447765771191
 20
28.85034921660033
 30
0.0
 10
22.303167231121
 20
28.84527439704032
 30
0.0
 10
22.231996703241
 20
28.84403518263033
 30
0.0
  0
ARC
  5
302
330
1F
100
AcDbEntity
  8
DEFAULT
 62
     7
100
AcDbCircle
 10
22.01379482450718
 20
20.52548113401597
 30
0.0
 40
9.536412451554076
100
AcDbArc
 50
81.91466042125998
 51
98.04562497076614
  0
ARC
  5
303
330
1F
100
AcDbEntity
  8
DEFAULT
 62
     7
100
AcDbCircle
 10
23.31751544687175
 20
29.64898032587859
 30
0.0
 40
0.3203118722494524
100
AcDbArc
 50
358.1579961168258
 51
83.32202761683436
  0
LINE
  5
304
330
1F
100
AcDbEntity
  8
DEFAULT
 62
     7
100
AcDbLine
 10
23.454988226571
 20
29.06974852537033
 30
0.0
 11
23.417845430301
 21
29.05542005220033
 31
0.0
  0
LINE
  5
305
330
1F
100
AcDbEntity
  8
DEFAULT
 62
     7
100
AcDbLine
 10
23.482438129131
 20
29.08213836196033
 30
0.0
 11
23.454988226571
 21
29.06974852537033
 31
0.0
  0
SPLINE
  5
306
330
1F
100
AcDbEntity
  8
DEFAULT
 62
     7
100
AcDbSpline
210
0.0
220
0.0
230
1.0
 70
     8
 71
     3
 72
    23
 73
    19
 74
     0
 42
0.0000000001
 43
0.0000000001
 40
0.0
 40
0.0
 40
0.0
 40
0.0
 40
0.05119990054059
 40
0.1405416700713
 40
0.2190654761836
 40
0.2866136849926
 40
0.3436373624033
 40
0.396960431192
 40
0.4472817590796
 40
0.4949347398529
 40
0.5403698182701
 40
0.5841533010522
 40
0.6258310855902
 40
0.6638766460968
 40
0.6928145117098
 40
0.8260035690832001
 40
0.9124387630264
 40
1.0
 40
1.0
 40
1.0
 40
1.0
 10
23.637651497601
 20
29.36987875190033
 30
0.0
 10
23.637654106231
 20
29.36402258692032
 30
0.0
 10
23.636951883451
 20
29.34795610470033
 30
0.0
 10
23.633367498241
 20
29.32312385855033
 30
0.0
 10
23.627157130601
 20
29.29692556739033
 30
0.0
 10
23.620463119381
 20
29.27469208707032
 30
0.0
 10
23.613799147311
 20
29.25548132527033
 30
0.0
 10
23.607244145471
 20
29.23832753769033
 30
0.0
 10
23.600665506631
 20
29.22233602255033
 30
0.0
 10
23.594111570481
 20
29.20731364803033
 30
0.0
 10
23.587605595311
 20
29.19308824986033
 30
0.0
 10
23.581165715781
 20
29.17958643150033
 30
0.0
 10
23.574946116871
 20
29.16691467702033
 30
0.0
 10
23.569270940241
 20
29.15587198384032
 30
0.0
 10
23.559068014331
 20
29.13538067748032
 30
0.0
 10
23.538746725831
 20
29.11413625930033
 30
0.0
 10
23.508880342791
 20
29.09571639963033
 30
0.0
 10
23.491268522091
 20
29.08642808370033
 30
0.0
 10
23.482262125081
 20
29.08206166043032
 30
0.0
  0
LINE
  5
307
330
1F
100
AcDbEntity
  8
DEFAULT
 62
     7
100
AcDbLine
 10
23.637674656651
 20
29.63157550395033
 30
0.0
 11
23.637641656651
 21
29.36969050395033
 31
0.0
  0
ARC
  5
308
330
1F
100
AcDbEntity
  8
DEFAULT
 62
     7
100
AcDbCircle
 10
14.00686748694998
 20
19.13581048326313
 30
0.0
 40
2.188566429566078
100
AcDbArc
 50
343.024788685817
 51
347.9457821688425
  0
LINE
  5
309
330
1F
100
AcDbEntity
  8
DEFAULT
 62
     7
100
AcDbLine
 10
11.06183347223101
 20
11.74462748561671
 30
0.0
 11
12.16383347223101
 21
11.74462748561671
 31
0.0
  0
ARC
  5
30A
330
1F
100
AcDbEntity
  8
DEFAULT
 62
     7
100
AcDbCircle
 10
9.218799457513846
 20
19.13581048326359
 30
0.0
 40
2.188566429567947
100
AcDbArc
 50
192.0542178311596
 51
196.9752113141809
  0
SPLINE
  5
30B
330
1F
100
AcDbEntity
  8
DEFAULT
 62
     7
100
AcDbSpline
210
0.0
220
0.0
230
1.0
 70
     8
 71
     3
 72
    84
 73
    80
 74
     0
 42
0.0000000001
 43
0.0000000001
 40
0.0
 40
0.0
 40
0.0
 40
0.0
 40
0.01676535974775
 40
0.04363510423026
 40
0.06727211619154
 40
0.08858359885158
 40
0.1075883402199
 40
0.1271993397507
 40
0.1486598423016
 40
0.1704583504503
 40
0.1912681821871
 40
0.2114292194945
 40
0.2308248166349
 40
0.2492284283637
 40
0.2669857692124
 40
0.2843237951053
 40
0.3014868418578
 40
0.3184965628121
 40
0.3353132520694
 40
0.3519088756934
 40
0.3682759278212
 40
0.3844116574676
 40
0.4003166040097
 40
0.4159930334689
 40
0.4314403573681
 40
0.4466586663986
 40
0.4616357342244
 40
0.476371553236
 40
0.4908738311612
 40
0.5051508491879
 40
0.5192114270439
 40
0.5330640706995
 40
0.5467172420082
 40
0.5601825931188
 40
0.5734691746791
 40
0.5865837939252
 40
0.5995329892112
 40
0.6123175996169
 40
0.6249378833922
 40
0.6374011738126
 40
0.649713714784
 40
0.6618805850642
 40
0.67390566125
 40
0.6857915406597001
 40
0.6975394140708
 40
0.7091493277024
 40
0.7206200335968001
 40
0.7319489504479
 40
0.7431321400437
 40
0.7541617745334001
 40
0.7650228134609
 40
0.7757245276316001
 40
0.7862768804357
 40
0.7966844482967
 40
0.8069520952787
 40
0.8170829217161
 40
0.8270645884099001
 40
0.8368804226464
 40
0.8465235497784001
 40
0.8559846228132
 40
0.8652508653412
 40
0.8743193246954
 40
0.8831654277575
 40
0.8917505377806
 40
0.8999980127111
 40
0.9078579776702
 40
0.9153075779732
 40
0.9224765281663
 40
0.9294842562537
 40
0.9363751006686
 40
0.9432471545056
 40
0.950252476135
 40
0.957186128984
 40
0.9636601123387
 40
0.9706338736632
 40
0.9791297252587
 40
0.9865233406854
 40
0.9931258615950001
 40
1.0
 40
1.0
 40
1.0
 40
1.0
 10
10.458589458781
 20
12.76304464790132
 30
0.0
 10
10.45559111718101
 20
12.80035146473732
 30
0.0
 10
10.44746591245101
 20
12.89742371656632
 30
0.0
 10
10.432998506001
 20
13.04691313003132
 30
0.0
 10
10.41313672522101
 20
13.20603933282432
 30
0.0
 10
10.38820296477101
 20
13.34671647185032
 30
0.0
 10
10.351317289521
 20
13.47577581226332
 30
0.0
 10
10.29445990443101
 20
13.59765837196432
 30
0.0
 10
10.22559056130101
 20
13.71996622572032
 30
0.0
 10
10.15095766416101
 20
13.84200816810832
 30
0.0
 10
10.07522821474101
 20
13.95991431064232
 30
0.0
 10
10.00060708209101
 20
14.07213295659332
 30
0.0
 10
9.928789130501004
 20
14.17976089583832
 30
0.0
 10
9.860076897741005
 20
14.28301104660232
 30
0.0
 10
9.793932449311006
 20
14.38245241846532
 30
0.0
 10
9.729608337431005
 20
14.47977806121232
 30
0.0
 10
9.666452639691007
 20
14.57587483218032
 30
0.0
 10
9.604195781801005
 20
14.67116919255932
 30
0.0
 10
9.542892378491006
 20
14.76557283702933
 30
0.0
 10
9.482596671941005
 20
14.85891977656732
 30
0.0
 10
9.423314999421004
 20
14.95111168643713
 30
0.0
 10
9.365026270931006
 20
15.04210874814972
 30
0.0
 10
9.307701118981006
 20
15.13189196475832
 30
0.0
 10
9.251312260301004
 20
15.22044955832772
 30
0.0
 10
9.195831822961006
 20
15.30776830801862
 30
0.0
 10
9.141248716011004
 20
15.39380742820563
 30
0.0
 10
9.087555228021005
 20
15.47852988435412
 30
0.0
 10
9.034735288341006
 20
15.56191351591322
 30
0.0
 10
8.982749769041005
 20
15.64397576868712
 30
0.0
 10
8.931551210101004
 20
15.72475213580638
 30
0.0
 10
8.881093400561005
 20
15.80428099398875
 30
0.0
 10
8.831332041761007
 20
15.88260238207345
 30
0.0
 10
8.782219841641007
 20
15.95976189133682
 30
0.0
 10
8.733711544721006
 20
16.03580780191903
 30
0.0
 10
8.685773589641007
 20
16.11079144043113
 30
0.0
 10
8.638377317781005
 20
16.18475371284613
 30
0.0
 10
8.591504039441004
 20
16.25772012727073
 30
0.0
 10
8.545142871491004
 20
16.32970381756192
 30
0.0
 10
8.499281901001007
 20
16.40071935093873
 30
0.0
 10
8.453902469291007
 20
16.47079128589943
 30
0.0
 10
8.408979792801004
 20
16.53995301773763
 30
0.0
 10
8.364492968551007
 20
16.60823124086283
 30
0.0
 10
8.320425187341007
 20
16.67564557799533
 30
0.0
 10
8.276764106081005
 20
16.74220817583513
 30
0.0
 10
8.233501417001007
 20
16.80792357119763
 30
0.0
 10
8.190633003201006
 20
16.87278874496433
 30
0.0
 10
8.148159089031006
 20
16.93679340958833
 30
0.0
 10
8.106084440951006
 20
16.99991956595333
 30
0.0
 10
8.064421665911004
 20
17.06213672986133
 30
0.0
 10
8.023198431131009
 20
17.12339095940733
 30
0.0
 10
7.982426246331004
 20
17.18365290462432
 30
0.0
 10
7.942091600251006
 20
17.24292415118433
 30
0.0
 10
7.902151519601008
 20
17.30123905177133
 30
0.0
 10
7.862567972361008
 20
17.35862321812833
 30
0.0
 10
7.823307228231004
 20
17.41508631930533
 30
0.0
 10
7.784378791181007
 20
17.47062185239733
 30
0.0
 10
7.745822537491003
 20
17.52518595264833
 30
0.0
 10
7.707688081481004
 20
17.57871438867032
 30
0.0
 10
7.670029845161006
 20
17.63115457178233
 30
0.0
 10
7.632908750391005
 20
17.68246950024133
 30
0.0
 10
7.596380018721009
 20
17.73262916401233
 30
0.0
 10
7.560525854021003
 20
17.78158143928733
 30
0.0
 10
7.525477613961003
 20
17.82923902950433
 30
0.0
 10
7.491472024551003
 20
17.87538833795433
 30
0.0
 10
7.458769647151003
 20
17.91976338083433
 30
0.0
 10
7.427550534931003
 20
17.96208262952433
 30
0.0
 10
7.397719819531007
 20
18.00243412543433
 30
0.0
 10
7.368991459091008
 20
18.04123459846633
 30
0.0
 10
7.341225603661004
 20
18.07919535303333
 30
0.0
 10
7.314301025651007
 20
18.11694759296433
 30
0.0
 10
7.288079526831007
 20
18.15518724923533
 30
0.0
 10
7.262803822461004
 20
18.19417668997633
 30
0.0
 10
7.239293102291002
 20
18.23322372331033
 30
0.0
 10
7.217085541451006
 20
18.27294220749633
 30
0.0
 10
7.194530408021002
 20
18.31644106793333
 30
0.0
 10
7.173348811671005
 20
18.36290973251133
 30
0.0
 10
7.154818319421004
 20
18.40959096844433
 30
0.0
 10
7.139158973301001
 20
18.45347924205233
 30
0.0
 10
7.130015493781002
 20
18.48214846226133
 30
0.0
 10
7.125586329911002
 20
18.49684114200933
 30
0.0
  0
ARC
  5
30C
330
1F
100
AcDbEntity
  8
DEFAULT
 62
     7
100
AcDbCircle
 10
9.491962729004166
 20
19.16479677376512
 30
0.0
 40
2.461927266854719
100
AcDbArc
 50
187.2608589504585
 51
191.3862869197074
  0
LINE
  5
30D
330
1F
100
AcDbEntity
  8
DEFAULT
 62
     7
100
AcDbLine
 10
16.21548667504101
 20
22.93013535718233
 30
0.0
 11
16.33892759196101
 21
22.99817967530032
 31
0.0
  0
LINE
  5
30E
330
1F
100
AcDbEntity
  8
DEFAULT
 62
     7
100
AcDbLine
 10
23.58001683662101
 20
59.36727357806507
 30
0.0
 11
23.58448199551101
 21
59.55803573409508
 31
0.0
  0
LINE
  5
30F
330
1F
100
AcDbEntity
  8
DEFAULT
 62
     7
100
AcDbLine
 10
-0.3545853285289919
 20
61.43088588725507
 30
0.0
 11
-0.3608255564889913
 21
61.34479103418507
 31
0.0
  0
LINE
  5
310
330
1F
100
AcDbEntity
  8
DEFAULT
 62
     7
100
AcDbLine
 10
2.489074214781009
 20
65.10269458130506
 30
0.0
 11
2.497131396651009
 21
65.05630009885508
 31
0.0
  0
SPLINE
  5
311
330
1F
100
AcDbEntity
  8
DEFAULT
 62
     7
100
AcDbSpline
210
0.0
220
0.0
230
1.0
 70
     8
 71
     3
 72
    11
 73
     7
 74
     0
 42
0.0000000001
 43
0.0000000001
 40
-2.103414332397752
 40
-2.103414332397752
 40
-2.103414332397752
 40
-2.103414332397752
 40
0.0
 40
0.2232796122472
 40
0.5877081430151
 40
1.0
 40
1.0
 40
1.0
 40
1.0
 10
47.54369549837976
 20
20.31758852171831
 30
0.0
 10
47.36438657807034
 20
20.43215169853493
 30
0.0
 10
47.14274404327445
 20
20.39720855673552
 30
0.0
 10
46.88463026896437
 20
20.38253015353433
 30
0.0
 10
46.78863207167439
 20
20.37894090108833
 30
0.0
 10
46.71403421561438
 20
20.37739680183332
 30
0.0
 10
46.67443413844439
 20
20.37677679961533
 30
0.0
  0
ARC
  5
312
330
1F
100
AcDbEntity
  8
DEFAULT
 62
     7
100
AcDbCircle
 10
42.38963241108363
 20
20.66206303578607
 30
0.0
 40
0.9760834179203725
100
AcDbArc
 50
228.5224085696924
 51
255.8984162087882
  0
ARC
  5
313
330
1F
100
AcDbEntity
  8
DEFAULT
 62
     7
100
AcDbCircle
 10
53.32519064041875
 20
28.17233745143264
 30
0.0
 40
0.9555670000444572
100
AcDbArc
 50
117.608178875368
 51
161.3141879070809
  0
ARC
  5
314
330
1F
100
AcDbEntity
  8
DEFAULT
 62
     7
100
AcDbCircle
 10
50.72126711021414
 20
28.61542474691455
 30
0.0
 40
0.5899130604442514
100
AcDbArc
 50
67.56152516875629
 51
96.83268473087402
  0
ARC
  5
315
330
1F
100
AcDbEntity
  8
DEFAULT
 62
     7
100
AcDbCircle
 10
52.53609563010708
 20
6.845064049063632
 30
0.0
 40
22.43545531062737
100
AcDbArc
 50
81.37294706298455
 51
82.41154517318952
  0
LINE
  5
316
330
1F
100
AcDbEntity
  8
DEFAULT
 62
     7
100
AcDbLine
 10
56.59743448654439
 20
29.00728043242033
 30
0.0
 11
57.13799669902441
 21
28.91917131009033
 31
0.0
  0
ARC
  5
317
330
1F
100
AcDbEntity
  8
DEFAULT
 62
     7
100
AcDbCircle
 10
56.96113960241911
 20
28.99529545538989
 30
0.0
 40
0.1524631178782006
100
AcDbArc
 50
258.1835247340837
 51
290.011454495078
  0
ARC
  5
318
330
1F
100
AcDbEntity
  8
DEFAULT
 62
     7
100
AcDbCircle
 10
56.96210072668033
 20
29.27107493466335
 30
0.0
 40
0.2515102272949324
100
AcDbArc
 50
35.29143212558605
 51
52.00782586225197
  0
LINE
  5
319
330
1F
100
AcDbEntity
  8
DEFAULT
 62
     7
100
AcDbLine
 10
48.59407134772439
 20
29.04531287014033
 30
0.0
 11
48.63818449242438
 21
29.05327028725032
 31
0.0
  0
SPLINE
  5
31A
330
1F
100
AcDbEntity
  8
DEFAULT
 62
     7
100
AcDbSpline
210
0.0
220
0.0
230
1.0
 70
     8
 71
     3
 72
    20
 73
    16
 74
     0
 42
0.0000000001
 43
0.0000000001
 40
0.0
 40
0.0
 40
0.0
 40
0.0
 40
0.1138376955714
 40
0.224780696824
 40
0.3327355401131
 40
0.4376285370769
 40
0.53940586768
 40
0.6374530965909
 40
0.7303657487671
 40
0.8168353944263
 40
0.8864234154834
 40
0.9290276567634
 40
0.9568327016405001
 40
1.0
 40
3.656438565125189
 40
3.656438565125189
 40
3.656438565125189
 40
3.656438565125189
 10
47.43950137446439
 20
19.96451658828132
 30
0.0
 10
47.44312932106439
 20
19.96666163458832
 30
0.0
 10
47.45002469662439
 20
19.97135061059532
 30
0.0
 10
47.45928686909439
 20
19.97950726411433
 30
0.0
 10
47.46726999809439
 20
19.98847779516733
 30
0.0
 10
47.47394424571438
 20
19.99804701584232
 30
0.0
 10
47.47930390696439
 20
20.00799282851333
 30
0.0
 10
47.4833622916344
 20
20.01805747901532
 30
0.0
 10
47.48617776937437
 20
20.02794727919633
 30
0.0
 10
47.4878060568244
 20
20.03702773598533
 30
0.0
 10
47.48848156916437
 20
20.04435485661132
 30
0.0
 10
47.48861989087439
 20
20.04953386937132
 30
0.0
 10
47.48865186138439
 20
20.05373579234333
 30
0.0
 10
47.4895784810394
 20
20.15464068737047
 30
0.0
 10
47.48860928078834
 20
20.25453475448879
 30
0.0
 10
47.47328710552532
 20
20.34998541104828
 30
0.0
  0
ARC
  5
31B
330
1F
100
AcDbEntity
  8
DEFAULT
 62
     7
100
AcDbCircle
 10
2.51478147223101
 20
72.16833260974508
 30
0.0
 40
2.4999999158634
100
AcDbArc
 50
159.1598219216111
 51
200.8401780783886
  0
ARC
  5
31C
330
1F
100
AcDbEntity
  8
DEFAULT
 62
     7
100
AcDbCircle
 10
0.4587134722310065
 20
72.95100960974509
 30
0.0
 40
0.2999999169315516
100
AcDbArc
 50
98.12540269780446
 51
159.1597773798208
  0
LINE
  5
31D
330
1F
100
AcDbEntity
  8
DEFAULT
 62
     7
100
AcDbLine
 10
56.14462686537439
 20
19.52477802380533
 30
0.0
 11
56.16757460176439
 21
19.52461361562133
 31
0.0
  0
LINE
  5
31E
330
1F
100
AcDbEntity
  8
DEFAULT
 62
     7
100
AcDbLine
 10
56.10186042574438
 20
19.52504244878532
 30
0.0
 11
56.14462686537439
 21
19.52477802380533
 31
0.0
  0
LINE
  5
31F
330
1F
100
AcDbEntity
  8
DEFAULT
 62
     7
100
AcDbLine
 10
55.53620843021437
 20
19.52419395602533
 30
0.0
 11
55.60187090732438
 21
19.52464258858633
 31
0.0
  0
ARC
  5
320
330
1F
100
AcDbEntity
  8
DEFAULT
 62
     7
100
AcDbCircle
 10
55.85186283415842
 20
21.56077605092587
 30
0.0
 40
2.521979045417512
100
AcDbArc
 50
247.6110682739405
 51
292.3889244669312
  0
ARC
  5
321
330
1F
100
AcDbEntity
  8
DEFAULT
 62
     7
100
AcDbCircle
 10
56.79110294432769
 20
19.2858243714212
 30
0.0
 40
0.060794832501433
100
AcDbArc
 50
290.5763330883403
 51
357.9628155509732
  0
ARC
  5
322
330
1F
100
AcDbEntity
  8
DEFAULT
 62
     7
100
AcDbCircle
 10
56.19817241407209
 20
19.95109452906054
 30
0.0
 40
0.4403845075781236
100
AcDbArc
 50
257.3674375793456
 51
265.8736729732418
  0
ARC
  5
323
330
1F
100
AcDbEntity
  8
DEFAULT
 62
     7
100
AcDbCircle
 10
55.85062334703266
 20
15.39302974245065
 30
0.0
 40
4.130917147270646
100
AcDbArc
 50
78.70520512380004
 51
85.60162400451107
  0
ARC
  5
324
330
1F
100
AcDbEntity
  8
DEFAULT
 62
     7
100
AcDbCircle
 10
55.85251255558244
 20
15.39229025058946
 30
0.0
 40
4.131658405108827
100
AcDbArc
 50
94.38932832889772
 51
101.2842963368767
  0
ARC
  5
325
330
1F
100
AcDbEntity
  8
DEFAULT
 62
     7
100
AcDbCircle
 10
56.66065876223591
 20
19.22432048990409
 30
0.0
 40
0.21804903637274
100
AcDbArc
 50
28.73127970176769
 51
88.09130335840531
  0
SPLINE
  5
326
330
1F
100
AcDbEntity
  8
DEFAULT
 62
     7
100
AcDbSpline
210
0.0
220
0.0
230
1.0
 70
     8
 71
     3
 72
    16
 73
    12
 74
     0
 42
0.0000000001
 43
0.0000000001
 40
0.0
 40
0.0
 40
0.0
 40
0.0
 40
0.1499508600259
 40
0.3133556282888
 40
0.4615559027383
 40
0.588418587741
 40
0.6930094261184
 40
0.7813636100497
 40
0.8626014872360001
 40
0.9412374128706
 40
1.0
 40
1.0
 40
1.0
 40
1.0
 10
55.04404035520437
 20
19.44407691574932
 30
0.0
 10
55.03239092555438
 20
19.44175237348733
 30
0.0
 10
55.00815958875438
 20
19.43630960361132
 30
0.0
 10
54.97293017963438
 20
19.42645178122933
 30
0.0
 10
54.94011202809438
 20
19.41498968326233
 30
0.0
 10
54.91255094009438
 20
19.40285328727633
 30
0.0
 10
54.89050206974437
 20
19.39025351217333
 30
0.0
 10
54.87331200419439
 20
19.37681163047833
 30
0.0
 10
54.86050332041438
 20
19.36164237801333
 30
0.0
 10
54.85330572402438
 20
19.34558037772233
 30
0.0
 10
54.85186609620439
 20
19.33465277416833
 30
0.0
 10
54.8518631231444
 20
19.32997496769033
 30
0.0
  0
ARC
  5
327
330
1F
100
AcDbEntity
  8
DEFAULT
 62
     7
100
AcDbCircle
 10
55.50795891768014
 20
19.93897510249504
 30
0.0
 40
0.4280229937146019
100
AcDbArc
 50
274.8139590685005
 51
282.6733447947463
  0
SPLINE
  5
328
330
1F
100
AcDbEntity
  8
DEFAULT
 62
     7
100
AcDbSpline
210
0.0
220
0.0
230
1.0
 70
     8
 71
     3
 72
    10
 73
     6
 74
     0
 42
0.0000000001
 43
0.0000000001
 40
0.0
 40
0.0
 40
0.0
 40
0.0
 40
0.4490887079264
 40
0.7239732200399
 40
1.0
 40
1.0
 40
1.0
 40
1.0
 10
55.61044797912439
 20
19.52343379652633
 30
0.0
 10
55.61097521782438
 20
19.52377148370933
 30
0.0
 10
55.61157534942439
 20
19.52416373979733
 30
0.0
 10
55.61036305725438
 20
19.52366844055833
 30
0.0
 10
55.60978205133438
 20
19.52346916151633
 30
0.0
 10
55.60950547230439
 20
19.52338268098132
 30
0.0
  0
ARC
  5
329
330
1F
100
AcDbEntity
  8
DEFAULT
 62
     7
100
AcDbCircle
 10
54.91262233647699
 20
19.28582416133227
 30
0.0
 40
0.0607945071214414
100
AcDbArc
 50
182.0376274097593
 51
249.4242317411528
  0
LINE
  5
32A
330
1F
100
AcDbEntity
  8
DEFAULT
 62
     7
100
AcDbLine
 10
56.10186283917437
 20
19.77450459849333
 30
0.0
 11
56.5413351593044
 21
19.77063926798233
 31
0.0
  0
LINE
  5
32B
330
1F
100
AcDbEntity
  8
DEFAULT
 62
     7
100
AcDbLine
 10
55.16133503186438
 20
19.78277790678833
 30
0.0
 11
55.6018628391644
 21
19.77890265539933
 31
0.0
  0
LINE
  5
32C
330
1F
100
AcDbEntity
  8
DEFAULT
 62
     7
100
AcDbLine
 10
54.96794634366438
 20
19.80559320739033
 30
0.0
 11
55.16133502821438
 21
19.78277753060933
 31
0.0
  0
ARC
  5
32D
330
1F
100
AcDbEntity
  8
DEFAULT
 62
     7
100
AcDbCircle
 10
54.98627680511596
 20
19.87780283964457
 30
0.0
 40
0.0744999114584773
100
AcDbArc
 50
182.8827204803817
 51
255.7562978824795
  0
SPLINE
  5
32E
330
1F
100
AcDbEntity
  8
DEFAULT
 62
     7
100
AcDbSpline
210
0.0
220
0.0
230
1.0
 70
     8
 71
     3
 72
    18
 73
    14
 74
     0
 42
0.0000000001
 43
0.0000000001
 40
0.0
 40
0.0
 40
0.0
 40
0.0
 40
0.1119813091272
 40
0.2539926301865
 40
0.3801342689579
 40
0.4886640424686
 40
0.5797885513872
 40
0.6571485493934
 40
0.7282963835033
 40
0.8033986632744
 40
0.8878178821518
 40
0.9752847488823
 40
1.0
 40
1.0
 40
1.0
 40
1.0
 10
56.54133515580438
 20
19.77063894192633
 30
0.0
 10
56.55216833788438
 20
19.77054328247032
 30
0.0
 10
56.57674361672437
 20
19.77063900620533
 30
0.0
 10
56.61350472070438
 20
19.77186950266733
 30
0.0
 10
56.64986500104439
 20
19.77442497677033
 30
0.0
 10
56.68119401038439
 20
19.77797314862733
 30
0.0
 10
56.70763809497439
 20
19.78242217399033
 30
0.0
 10
56.7301750304344
 20
19.78798070839633
 30
0.0
 10
56.75049448087438
 20
19.79563003340333
 30
0.0
 10
56.76954586816439
 20
19.80770379511433
 30
0.0
 10
56.78514166297438
 20
19.82648975672233
 30
0.0
 10
56.79118785003439
 20
19.84503078912033
 30
0.0
 10
56.79184345333439
 20
19.85596983067333
 30
0.0
 10
56.79185437986439
 20
19.85837988076233
 30
0.0
  0
LINE
  5
32F
330
1F
100
AcDbEntity
  8
DEFAULT
 62
     7
100
AcDbLine
 10
55.60669580494439
 20
19.97719743355033
 30
0.0
 11
55.62677756843439
 21
19.97796241354833
 31
0.0
  0
LINE
  5
330
330
1F
100
AcDbEntity
  8
DEFAULT
 62
     7
100
AcDbLine
 10
56.07677740254439
 20
19.97411142886532
 30
0.0
 11
56.0970121273044
 21
19.97290421336733
 31
0.0
  0
LINE
  5
331
330
1F
100
AcDbEntity
  8
DEFAULT
 62
     7
100
AcDbLine
 10
56.85186292026438
 20
19.32921350395032
 30
0.0
 11
56.85186292026438
 21
19.28369950395033
 31
0.0
  0
LINE
  5
332
330
1F
100
AcDbEntity
  8
DEFAULT
 62
     7
100
AcDbLine
 10
56.10186292026438
 20
19.97233150395033
 30
0.0
 11
56.10186292026438
 21
19.52137750395033
 31
0.0
  0
LINE
  5
333
330
1F
100
AcDbEntity
  8
DEFAULT
 62
     7
100
AcDbLine
 10
55.60186292026438
 20
19.52138450395033
 30
0.0
 11
55.60186292026438
 21
19.97662550395033
 31
0.0
  0
LINE
  5
334
330
1F
100
AcDbEntity
  8
DEFAULT
 62
     7
100
AcDbLine
 10
54.85186292026438
 20
19.33005150395033
 30
0.0
 11
54.85186292026438
 21
19.28369950395033
 31
0.0
  0
LINE
  5
335
330
1F
100
AcDbEntity
  8
DEFAULT
 62
     7
100
AcDbLine
 10
55.62677792026437
 20
19.97796250395033
 30
0.0
 11
56.07677792026439
 21
19.97412550395033
 31
0.0
  0
LINE
  5
336
330
1F
100
AcDbEntity
  8
DEFAULT
 62
     7
100
AcDbLine
 10
55.53620843021437
 20
19.52419395602533
 30
0.0
 11
56.16757460176439
 21
19.52461361562133
 31
0.0
  0
SPLINE
  5
337
330
1F
100
AcDbEntity
  8
DEFAULT
 62
     7
100
AcDbSpline
210
0.0
220
0.0
230
1.0
 70
     8
 71
     3
 72
     9
 73
     5
 74
     0
 42
0.0000000001
 43
0.0000000001
 40
0.0
 40
0.0
 40
0.0
 40
0.0
 40
1.0
 40
2.0
 40
2.0
 40
2.0
 40
2.0
 10
40.54720053340439
 20
38.95388602288033
 30
0.0
 10
41.30638412118936
 20
35.88432322099708
 30
0.0
 10
41.93566705660522
 20
30.32565729149034
 30
0.0
 10
41.93566705660522
 20
25.05541270738254
 30
0.0
 10
41.72816296208439
 20
24.08259020911833
 30
0.0
  0
SPLINE
  5
338
330
1F
100
AcDbEntity
  8
DEFAULT
 62
     7
100
AcDbSpline
210
0.0
220
0.0
230
1.0
 70
     8
 71
     5
 72
    12
 73
     6
 74
     0
 42
0.0000000001
 43
0.0000000001
 40
0.0
 40
0.0
 40
0.0
 40
0.0
 40
0.0
 40
0.0
 40
1.0
 40
1.0
 40
1.0
 40
1.0
 40
1.0
 40
1.0
 10
18.87815656300101
 20
68.84642870728507
 30
0.0
 10
16.34808499974569
 20
70.28691426758314
 30
0.0
 10
13.29138743593106
 20
70.80243292421416
 30
0.0
 10
9.914011127323999
 20
70.80543572873124
 30
0.0
 10
6.854963359894458
 20
70.29966138792847
 30
0.0
 10
4.321160107591008
 20
68.86575000878509
 30
0.0
  0
ARC
  5
339
330
1F
100
AcDbEntity
  8
DEFAULT
 62
     7
100
AcDbCircle
 10
2.242490853784482
 20
19.11423120172682
 30
0.0
 40
0.0717828738112963
100
AcDbArc
 50
139.8882594368362
 51
266.6543647793836
  0
ARC
  5
33A
330
1F
100
AcDbEntity
  8
DEFAULT
 62
     7
100
AcDbCircle
 10
3.420931360451109
 20
16.36885814420089
 30
0.0
 40
2.923476246961016
100
AcDbArc
 50
98.39107200998511
 51
113.5205103290592
  0
LINE
  5
33B
330
1F
100
AcDbEntity
  8
DEFAULT
 62
     7
100
AcDbLine
 10
47.65464074017438
 20
20.60345424496633
 30
0.0
 11
47.64216992871439
 21
20.57126270734833
 31
0.0
  0
ARC
  5
33C
330
1F
100
AcDbEntity
  8
DEFAULT
 62
     7
100
AcDbCircle
 10
1.049238443665398
 20
57.65678102119015
 30
0.0
 40
0.7499999843406474
100
AcDbArc
 50
216.6925562099798
 51
274.2503049691622
  0
ARC
  5
33D
330
1F
100
AcDbEntity
  8
DEFAULT
 62
     7
100
AcDbCircle
 10
2.52061273396815
 20
56.88167970937976
 30
0.0
 40
2.4999999158634
100
AcDbArc
 50
166.7874866729202
 51
200.8401780783888
  0
LINE
  5
33E
330
1F
100
AcDbEntity
  8
DEFAULT
 62
     7
100
AcDbLine
 10
22.25842004196724
 20
66.06827762903518
 30
0.0
 11
24.62723347223101
 21
66.02274960974506
 31
0.0
  0
LINE
  5
33F
330
1F
100
AcDbEntity
  8
DEFAULT
 62
     7
100
AcDbLine
 10
23.0647483528489
 20
64.49299455205166
 30
0.0
 11
24.62724647223101
 21
64.52302560974508
 31
0.0
  0
ENDSEC
  0
SECTION
  2
OBJECTS
  0
DICTIONARY
  5
C
330
0
100
AcDbDictionary
  3
ACAD_GROUP
350
D
  3
ACAD_LAYOUT
350
1A
  3
ACAD_MLINESTYLE
350
17
  3
ACAD_PLOTSETTINGS
350
19
  3
ACDBHEADERROUNDTRIPXREC
350
340
  0
DICTIONARY
  5
360
330
29
100
AcDbDictionary
280
     1
  3
ACAD_XREC_ROUNDTRIP
360
361
  0
DICTIONARY
  5
D
102
{ACAD_REACTORS
330
C
102
}
330
C
100
AcDbDictionary
  0
DICTIONARY
  5
1A
102
{ACAD_REACTORS
330
C
102
}
330
C
100
AcDbDictionary
  0
DICTIONARY
  5
17
102
{ACAD_REACTORS
330
C
102
}
330
C
100
AcDbDictionary
  3
STANDARD
350
18
  0
DICTIONARY
  5
19
102
{ACAD_REACTORS
330
C
102
}
330
C
100
AcDbDictionary
  0
DICTIONARY
  5
340
102
{ACAD_REACTORS
330
C
102
}
330
C
100
AcDbDictionary
  3
CEPSNTYPE
350
349
  3
DIMSTYLEDATA
350
35F
  3
FINGERPRINTGUID
350
34A
  3
HYPERLINKBASE
350
343
  3
INSUNITS
350
348
  3
LAYOUTDICT
350
345
  3
LWETCUNION
350
347
  3
PLOTSETDICT
350
346
  3
PSVPSCALE
350
34C
  3
PUCSBASE
350
34F
  3
PUCSORGBACK
350
355
  3
PUCSORGBOTTOM
350
351
  3
PUCSORGFRONT
350
354
  3
PUCSORGLEFT
350
352
  3
PUCSORGRIGHT
350
353
  3
PUCSORGTOP
350
350
  3
PUCSORTHOREF
350
34D
  3
PUCSORTHOVIEW
350
34E
  3
STYLESHEET
350
344
  3
TSTACKALIGN
350
341
  3
TSTACKSIZE
350
342
  3
UCSBASE
350
358
  3
UCSORGBACK
350
35E
  3
UCSORGBOTTOM
350
35A
  3
UCSORGFRONT
350
35D
  3
UCSORGLEFT
350
35B
  3
UCSORGRIGHT
350
35C
  3
UCSORGTOP
350
359
  3
UCSORTHOREF
350
356
  3
UCSORTHOVIEW
350
357
  3
VERSIONGUID
350
34B
  0
XRECORD
  5
361
102
{ACAD_REACTORS
330
360
102
}
330
360
100
AcDbXrecord
102
UCS
 74
     0
 71
     1
 10
0.0
 20
0.0
 30
0.0
 10
1.0
 20
0.0
 30
0.0
 10
0.0
 20
1.0
 30
0.0
146
0.0
 79
     0
102
VIEW
281
     0
  0
MLINESTYLE
  5
18
102
{ACAD_REACTORS
330
17
102
}
330
17
100
AcDbMlineStyle
  2
Standard
 70
     0
  3

 62
   256
 51
90.0
 52
90.0
 71
     2
 49
0.5
 62
   256
  6
BYLAYER
 49
-0.5
 62
   256
  6
BYLAYER
  0
XRECORD
  5
349
102
{ACAD_REACTORS
330
340
102
}
330
340
100
AcDbXrecord
 90
        0
  0
XRECORD
  5
35F
102
{ACAD_REACTORS
330
340
102
}
330
340
100
AcDbXrecord
1000
DSTYLE
1002
{
1070
   340
340
11
1002
}
  0
XRECORD
  5
34A
102
{ACAD_REACTORS
330
340
102
}
330
340
100
AcDbXrecord
  1
{FAEB1C30-E019-11D5-929B-00C0DF256EC4}
  0
XRECORD
  5
343
102
{ACAD_REACTORS
330
340
102
}
330
340
100
AcDbXrecord
  1

  0
XRECORD
  5
348
102
{ACAD_REACTORS
330
340
102
}
330
340
100
AcDbXrecord
 90
        1
  0
XRECORD
  5
345
102
{ACAD_REACTORS
330
340
102
}
330
340
100
AcDbXrecord
340
1A
  0
XRECORD
  5
347
102
{ACAD_REACTORS
330
340
102
}
330
340
100
AcDbXrecord
 90
     2560
  0
XRECORD
  5
346
102
{ACAD_REACTORS
330
340
102
}
330
340
100
AcDbXrecord
340
19
  0
XRECORD
  5
34C
102
{ACAD_REACTORS
330
340
102
}
330
340
100
AcDbXrecord
 40
0.0
  0
XRECORD
  5
34F
102
{ACAD_REACTORS
330
340
102
}
330
340
100
AcDbXrecord
340
0
  0
XRECORD
  5
355
102
{ACAD_REACTORS
330
340
102
}
330
340
100
AcDbXrecord
 10
0.0
 20
0.0
 30
0.0
  0
XRECORD
  5
351
102
{ACAD_REACTORS
330
340
102
}
330
340
100
AcDbXrecord
 10
0.0
 20
0.0
 30
0.0
  0
XRECORD
  5
354
102
{ACAD_REACTORS
330
340
102
}
330
340
100
AcDbXrecord
 10
0.0
 20
0.0
 30
0.0
  0
XRECORD
  5
352
102
{ACAD_REACTORS
330
340
102
}
330
340
100
AcDbXrecord
 10
0.0
 20
0.0
 30
0.0
  0
XRECORD
  5
353
102
{ACAD_REACTORS
330
340
102
}
330
340
100
AcDbXrecord
 10
0.0
 20
0.0
 30
0.0
  0
XRECORD
  5
350
102
{ACAD_REACTORS
330
340
102
}
330
340
100
AcDbXrecord
 10
0.0
 20
0.0
 30
0.0
  0
XRECORD
  5
34D
102
{ACAD_REACTORS
330
340
102
}
330
340
100
AcDbXrecord
340
0
  0
XRECORD
  5
34E
102
{ACAD_REACTORS
330
340
102
}
330
340
100
AcDbXrecord
 70
     0
  0
XRECORD
  5
344
102
{ACAD_REACTORS
330
340
102
}
330
340
100
AcDbXrecord
  1

  0
XRECORD
  5
341
102
{ACAD_REACTORS
330
340
102
}
330
340
100
AcDbXrecord
 90
        1
  0
XRECORD
  5
342
102
{ACAD_REACTORS
330
340
102
}
330
340
100
AcDbXrecord
 90
       70
  0
XRECORD
  5
358
102
{ACAD_REACTORS
330
340
102
}
330
340
100
AcDbXrecord
340
0
  0
XRECORD
  5
35E
102
{ACAD_REACTORS
330
340
102
}
330
340
100
AcDbXrecord
 10
0.0
 20
0.0
 30
0.0
  0
XRECORD
  5
35A
102
{ACAD_REACTORS
330
340
102
}
330
340
100
AcDbXrecord
 10
0.0
 20
0.0
 30
0.0
  0
XRECORD
  5
35D
102
{ACAD_REACTORS
330
340
102
}
330
340
100
AcDbXrecord
 10
0.0
 20
0.0
 30
0.0
  0
XRECORD
  5
35B
102
{ACAD_REACTORS
330
340
102
}
330
340
100
AcDbXrecord
 10
0.0
 20
0.0
 30
0.0
  0
XRECORD
  5
35C
102
{ACAD_REACTORS
330
340
102
}
330
340
100
AcDbXrecord
 10
0.0
 20
0.0
 30
0.0
  0
XRECORD
  5
359
102
{ACAD_REACTORS
330
340
102
}
330
340
100
AcDbXrecord
 10
0.0
 20
0.0
 30
0.0
  0
XRECORD
  5
356
102
{ACAD_REACTORS
330
340
102
}
330
340
100
AcDbXrecord
340
0
  0
XRECORD
  5
357
102
{ACAD_REACTORS
330
340
102
}
330
340
100
AcDbXrecord
 70
     0
  0
XRECORD
  5
34B
102
{ACAD_REACTORS
330
340
102
}
330
340
100
AcDbXrecord
  1
{FAEB1C32-E019-11D5-929B-00C0DF256EC4}
  0
ENDSEC
  0
EOF
