  0
SECTION
  2
HEADER
  9
$ACADVER
  1
AC1015
  9
$ACADMAINTVER
 70
     6
  9
$DWGCODEPAGE
  3
ANSI_1252
  9
$INSBASE
 10
0.0
 20
0.0
 30
0.0
  9
$EXTMIN
 10
-12.07828509957097
 20
0.0412254141733794
 30
0.0
  9
$EXTMAX
 10
45.18141983381594
 20
68.7794739904357
 30
0.0
  9
$LIMMIN
 10
0.0
 20
0.0
  9
$LIMMAX
 10
12.0
 20
9.0
  9
$ORTHOMODE
 70
     0
  9
$REGENMODE
 70
     1
  9
$FILLMODE
 70
     1
  9
$QTEXTMODE
 70
     0
  9
$MIRRTEXT
 70
     1
  9
$LTSCALE
 40
0.0393700787401575
  9
$ATTMODE
 70
     1
  9
$TEXTSIZE
 40
0.2
  9
$TRACEWID
 40
0.05
  9
$TEXTSTYLE
  7
Standard
  9
$CLAYER
  8
DEFAULT
  9
$CELTYPE
  6
ByLayer
  9
$CECOLOR
 62
   256
  9
$CELTSCALE
 40
1.0
  9
$DISPSILH
 70
     0
  9
$DIMSCALE
 40
1.0
  9
$DIMASZ
 40
0.18
  9
$DIMEXO
 40
0.0625
  9
$DIMDLI
 40
0.38
  9
$DIMRND
 40
0.0
  9
$DIMDLE
 40
0.0
  9
$DIMEXE
 40
0.18
  9
$DIMTP
 40
0.0
  9
$DIMTM
 40
0.0
  9
$DIMTXT
 40
0.18
  9
$DIMCEN
 40
0.09
  9
$DIMTSZ
 40
0.0
  9
$DIMTOL
 70
     0
  9
$DIMLIM
 70
     0
  9
$DIMTIH
 70
     1
  9
$DIMTOH
 70
     1
  9
$DIMSE1
 70
     0
  9
$DIMSE2
 70
     0
  9
$DIMTAD
 70
     0
  9
$DIMZIN
 70
     0
  9
$DIMBLK
  1

  9
$DIMASO
 70
     1
  9
$DIMSHO
 70
     1
  9
$DIMPOST
  1

  9
$DIMAPOST
  1

  9
$DIMALT
 70
     0
  9
$DIMALTD
 70
     2
  9
$DIMALTF
 40
25.4
  9
$DIMLFAC
 40
1.0
  9
$DIMTOFL
 70
     0
  9
$DIMTVP
 40
0.0
  9
$DIMTIX
 70
     0
  9
$DIMSOXD
 70
     0
  9
$DIMSAH
 70
     0
  9
$DIMBLK1
  1

  9
$DIMBLK2
  1

  9
$DIMSTYLE
  2
Standard
  9
$DIMCLRD
 70
     0
  9
$DIMCLRE
 70
     0
  9
$DIMCLRT
 70
     0
  9
$DIMTFAC
 40
1.0
  9
$DIMGAP
 40
0.09
  9
$DIMJUST
 70
     0
  9
$DIMSD1
 70
     0
  9
$DIMSD2
 70
     0
  9
$DIMTOLJ
 70
     1
  9
$DIMTZIN
 70
     0
  9
$DIMALTZ
 70
     0
  9
$DIMALTTZ
 70
     0
  9
$DIMUPT
 70
     0
  9
$DIMDEC
 70
     4
  9
$DIMTDEC
 70
     4
  9
$DIMALTU
 70
     2
  9
$DIMALTTD
 70
     2
  9
$DIMTXSTY
  7
Standard
  9
$DIMAUNIT
 70
     0
  9
$DIMADEC
 70
     0
  9
$DIMALTRND
 40
0.0
  9
$DIMAZIN
 70
     0
  9
$DIMDSEP
 70
    46
  9
$DIMATFIT
 70
     3
  9
$DIMFRAC
 70
     0
  9
$DIMLDRBLK
  1

  9
$DIMLUNIT
 70
     2
  9
$DIMLWD
 70
    -2
  9
$DIMLWE
 70
    -2
  9
$DIMTMOVE
 70
     2
  9
$LUNITS
 70
     2
  9
$LUPREC
 70
     3
  9
$SKETCHINC
 40
0.1
  9
$FILLETRAD
 40
0.5
  9
$AUNITS
 70
     0
  9
$AUPREC
 70
     0
  9
$MENU
  1
.
  9
$ELEVATION
 40
0.0
  9
$PELEVATION
 40
0.0
  9
$THICKNESS
 40
0.0
  9
$LIMCHECK
 70
     0
  9
$CHAMFERA
 40
0.5
  9
$CHAMFERB
 40
0.5
  9
$CHAMFERC
 40
1.0
  9
$CHAMFERD
 40
0.0
  9
$SKPOLY
 70
     0
  9
$TDCREATE
 40
2455309.694802847
  9
$TDUCREATE
 40
2455309.861469514
  9
$TDUPDATE
 40
2455309.694802859
  9
$TDUUPDATE
 40
2455309.861469525
  9
$TDINDWG
 40
0.0000000116
  9
$TDUSRTIMER
 40
0.0000000116
  9
$USRTIMER
 70
     1
  9
$ANGBASE
 50
0.0
  9
$ANGDIR
 70
     0
  9
$PDMODE
 70
     0
  9
$PDSIZE
 40
0.0
  9
$PLINEWID
 40
0.0
  9
$SPLFRAME
 70
     0
  9
$SPLINETYPE
 70
     6
  9
$SPLINESEGS
 70
     8
  9
$HANDSEED
  5
9C
  9
$SURFTAB1
 70
     6
  9
$SURFTAB2
 70
     6
  9
$SURFTYPE
 70
     6
  9
$SURFU
 70
     6
  9
$SURFV
 70
     6
  9
$UCSBASE
  2

  9
$UCSNAME
  2

  9
$UCSORG
 10
0.0
 20
0.0
 30
0.0
  9
$UCSXDIR
 10
1.0
 20
0.0
 30
0.0
  9
$UCSYDIR
 10
0.0
 20
1.0
 30
0.0
  9
$UCSORTHOREF
  2

  9
$UCSORTHOVIEW
 70
     0
  9
$UCSORGTOP
 10
0.0
 20
0.0
 30
0.0
  9
$UCSORGBOTTOM
 10
0.0
 20
0.0
 30
0.0
  9
$UCSORGLEFT
 10
0.0
 20
0.0
 30
0.0
  9
$UCSORGRIGHT
 10
0.0
 20
0.0
 30
0.0
  9
$UCSORGFRONT
 10
0.0
 20
0.0
 30
0.0
  9
$UCSORGBACK
 10
0.0
 20
0.0
 30
0.0
  9
$PUCSBASE
  2

  9
$PUCSNAME
  2

  9
$PUCSORG
 10
0.0
 20
0.0
 30
0.0
  9
$PUCSXDIR
 10
1.0
 20
0.0
 30
0.0
  9
$PUCSYDIR
 10
0.0
 20
1.0
 30
0.0
  9
$PUCSORTHOREF
  2

  9
$PUCSORTHOVIEW
 70
     0
  9
$PUCSORGTOP
 10
0.0
 20
0.0
 30
0.0
  9
$PUCSORGBOTTOM
 10
0.0
 20
0.0
 30
0.0
  9
$PUCSORGLEFT
 10
0.0
 20
0.0
 30
0.0
  9
$PUCSORGRIGHT
 10
0.0
 20
0.0
 30
0.0
  9
$PUCSORGFRONT
 10
0.0
 20
0.0
 30
0.0
  9
$PUCSORGBACK
 10
0.0
 20
0.0
 30
0.0
  9
$USERI1
 70
     0
  9
$USERI2
 70
     0
  9
$USERI3
 70
     0
  9
$USERI4
 70
     0
  9
$USERI5
 70
     0
  9
$USERR1
 40
0.0
  9
$USERR2
 40
0.0
  9
$USERR3
 40
0.0
  9
$USERR4
 40
0.0
  9
$USERR5
 40
0.0
  9
$WORLDVIEW
 70
     1
  9
$SHADEDGE
 70
     3
  9
$SHADEDIF
 70
    70
  9
$TILEMODE
 70
     1
  9
$MAXACTVP
 70
    64
  9
$PINSBASE
 10
0.0
 20
0.0
 30
0.0
  9
$PLIMCHECK
 70
     0
  9
$PEXTMIN
 10
1.000000000000000E+20
 20
1.000000000000000E+20
 30
1.000000000000000E+20
  9
$PEXTMAX
 10
-1.000000000000000E+20
 20
-1.000000000000000E+20
 30
-1.000000000000000E+20
  9
$PLIMMIN
 10
0.0
 20
0.0
  9
$PLIMMAX
 10
12.0
 20
9.0
  9
$UNITMODE
 70
     0
  9
$VISRETAIN
 70
     1
  9
$PLINEGEN
 70
     0
  9
$PSLTSCALE
 70
     1
  9
$TREEDEPTH
 70
  3020
  9
$CMLSTYLE
  2
Standard
  9
$CMLJUST
 70
     0
  9
$CMLSCALE
 40
1.0
  9
$PROXYGRAPHICS
 70
     1
  9
$MEASUREMENT
 70
     0
  9
$CELWEIGHT
370
    -1
  9
$ENDCAPS
280
     0
  9
$JOINSTYLE
280
     0
  9
$LWDISPLAY
290
     0
  9
$INSUNITS
 70
     1
  9
$HYPERLINKBASE
  1

  9
$STYLESHEET
  1

  9
$XEDIT
290
     1
  9
$CEPSNTYPE
380
     0
  9
$PSTYLEMODE
290
     1
  9
$FINGERPRINTGUID
  2
{20C7C31A-7BA4-4571-9D12-E6ABD5477B39}
  9
$VERSIONGUID
  2
{FAEB1C32-E019-11D5-929B-00C0DF256EC4}
  9
$EXTNAMES
290
     1
  9
$PSVPSCALE
 40
0.0
  9
$OLESTARTUP
290
     0
  0
ENDSEC
  0
SECTION
  2
CLASSES
  0
CLASS
  1
ACDBDICTIONARYWDFLT
  2
AcDbDictionaryWithDefault
  3
ObjectDBX Classes
 90
        0
280
     0
281
     0
  0
CLASS
  1
VISUALSTYLE
  2
AcDbVisualStyle
  3
ObjectDBX Classes
 90
     4095
280
     0
281
     0
  0
CLASS
  1
ACDBPLACEHOLDER
  2
AcDbPlaceHolder
  3
ObjectDBX Classes
 90
        0
280
     0
281
     0
  0
CLASS
  1
LAYOUT
  2
AcDbLayout
  3
ObjectDBX Classes
 90
        0
280
     0
281
     0
  0
ENDSEC
  0
SECTION
  2
TABLES
  0
TABLE
  2
VPORT
  5
8
330
0
100
AcDbSymbolTable
 70
     1
  0
VPORT
  5
29
330
8
100
AcDbSymbolTableRecord
100
AcDbViewportTableRecord
  2
*Active
 70
     0
 10
0.0
 20
0.0
 11
1.0
 21
1.0
 12
16.55156736712248
 22
34.41034970230454
 13
0.0
 23
0.0
 14
0.5
 24
0.5
 15
0.5
 25
0.5
 16
0.0
 26
0.0
 36
1.0
 17
0.0
 27
0.0
 37
0.0
 40
70.11301354778757
 41
0.8330108217677319
 42
50.0
 43
0.0
 44
0.0
 50
0.0
 51
0.0
 71
     0
 72
   100
 73
     1
 74
     3
 75
     0
 76
     0
 77
     0
 78
     0
281
     0
 65
     1
110
0.0
120
0.0
130
0.0
111
1.0
121
0.0
131
0.0
112
0.0
122
1.0
132
0.0
 79
     0
146
0.0
  0
ENDTAB
  0
TABLE
  2
LTYPE
  5
5
330
0
100
AcDbSymbolTable
 70
     1
  0
LTYPE
  5
14
330
5
100
AcDbSymbolTableRecord
100
AcDbLinetypeTableRecord
  2
ByBlock
 70
     0
  3

 72
    65
 73
     0
 40
0.0
  0
LTYPE
  5
15
330
5
100
AcDbSymbolTableRecord
100
AcDbLinetypeTableRecord
  2
ByLayer
 70
     0
  3

 72
    65
 73
     0
 40
0.0
  0
LTYPE
  5
16
330
5
100
AcDbSymbolTableRecord
100
AcDbLinetypeTableRecord
  2
Continuous
 70
     0
  3
Solid line
 72
    65
 73
     0
 40
0.0
  0
ENDTAB
  0
TABLE
  2
LAYER
  5
2
330
0
100
AcDbSymbolTable
 70
     4
  0
LAYER
  5
10
330
2
100
AcDbSymbolTableRecord
100
AcDbLayerTableRecord
  2
0
 70
     0
 62
     7
  6
Continuous
370
    -3
390
F
  0
LAYER
  5
3B
330
2
100
AcDbSymbolTableRecord
100
AcDbLayerTableRecord
  2
2D
 70
     0
 62
     7
  6
Continuous
370
    -3
390
F
  0
LAYER
  5
46
330
2
100
AcDbSymbolTableRecord
100
AcDbLayerTableRecord
  2
IGES LEVEL 0
 70
     0
 62
   255
  6
Continuous
370
    -3
390
F
  0
LAYER
  5
67
330
2
100
AcDbSymbolTableRecord
100
AcDbLayerTableRecord
  2
DEFAULT
 70
     0
 62
     7
  6
Continuous
370
    -3
390
F
  0
ENDTAB
  0
TABLE
  2
STYLE
  5
3
330
0
100
AcDbSymbolTable
 70
     1
  0
STYLE
  5
11
330
3
100
AcDbSymbolTableRecord
100
AcDbTextStyleTableRecord
  2
Standard
 70
     0
 40
0.0
 41
1.0
 50
0.0
 71
     0
 42
0.2
  3
txt
  4

  0
ENDTAB
  0
TABLE
  2
VIEW
  5
6
330
0
100
AcDbSymbolTable
 70
     0
  0
ENDTAB
  0
TABLE
  2
UCS
  5
7
330
0
100
AcDbSymbolTable
 70
     0
  0
ENDTAB
  0
TABLE
  2
APPID
  5
9
330
0
100
AcDbSymbolTable
 70
     1
  0
APPID
  5
12
330
9
100
AcDbSymbolTableRecord
100
AcDbRegAppTableRecord
  2
ACAD
 70
     0
  0
ENDTAB
  0
TABLE
  2
DIMSTYLE
  5
A
330
0
100
AcDbSymbolTable
 70
     1
100
AcDbDimStyleTable
  0
DIMSTYLE
105
27
330
A
100
AcDbSymbolTableRecord
100
AcDbDimStyleTableRecord
  2
Standard
 70
     0
340
11
  0
ENDTAB
  0
TABLE
  2
BLOCK_RECORD
  5
1
330
0
100
AcDbSymbolTable
 70
     1
  0
BLOCK_RECORD
  5
1F
330
1
100
AcDbSymbolTableRecord
100
AcDbBlockTableRecord
  2
*Model_Space
340
22
  0
BLOCK_RECORD
  5
1B
330
1
100
AcDbSymbolTableRecord
100
AcDbBlockTableRecord
  2
*Paper_Space
340
1E
  0
BLOCK_RECORD
  5
23
330
1
100
AcDbSymbolTableRecord
100
AcDbBlockTableRecord
  2
*Paper_Space0
340
26
  0
ENDTAB
  0
ENDSEC
  0
SECTION
  2
BLOCKS
  0
BLOCK
  5
20
330
1F
100
AcDbEntity
  8
0
100
AcDbBlockBegin
  2
*Model_Space
 70
     0
 10
0.0
 20
0.0
 30
0.0
  3
*Model_Space
  1

  0
ENDBLK
  5
21
330
1F
100
AcDbEntity
  8
0
100
AcDbBlockEnd
  0
BLOCK
  5
1C
330
1B
100
AcDbEntity
 67
     1
  8
0
100
AcDbBlockBegin
  2
*Paper_Space
 70
     0
 10
0.0
 20
0.0
 30
0.0
  3
*Paper_Space
  1

  0
ENDBLK
  5
1D
330
1B
100
AcDbEntity
 67
     1
  8
0
100
AcDbBlockEnd
  0
BLOCK
  5
24
330
23
100
AcDbEntity
  8
0
100
AcDbBlockBegin
  2
*Paper_Space0
 70
     0
 10
0.0
 20
0.0
 30
0.0
  3
*Paper_Space0
  1

  0
ENDBLK
  5
25
330
23
100
AcDbEntity
  8
0
100
AcDbBlockEnd
  0
ENDSEC
  0
SECTION
  2
ENTITIES
  0
SPLINE
  5
3C
330
1F
100
AcDbEntity
  8
2D
100
AcDbSpline
210
0.0
220
0.0
230
1.0
 70
     8
 71
     3
 72
    23
 73
    19
 74
     0
 42
0.0000000001
 43
0.0000000001
 40
0.0
 40
0.0
 40
0.0
 40
0.0
 40
1.0
 40
2.0
 40
3.0
 40
4.0
 40
5.0
 40
6.0
 40
7.0
 40
7.0
 40
7.0
 40
8.0
 40
9.0
 40
10.0
 40
11.0
 40
12.0
 40
13.0
 40
14.0
 40
14.0
 40
14.0
 40
14.0
 10
5.944333994400126
 20
15.76784383935895
 30
0.0
 10
5.85758247826018
 20
15.4468281677409
 30
0.0
 10
5.240152986721838
 20
15.29354463340479
 30
0.0
 10
4.393923363464175
 20
15.13032109184051
 30
0.0
 10
3.515725619084465
 20
15.00888007117294
 30
0.0
 10
2.640392209967335
 20
14.92069506347647
 30
0.0
 10
1.761285931970452
 20
14.85558497905549
 30
0.0
 10
0.88107926717646
 20
14.81687142710722
 30
0.0
 10
0.2936893372746724
 20
14.80788430490404
 30
0.0
 10
0.0
 20
14.80755141417338
 30
0.0
 10
-0.2936893372746724
 20
14.80788430490404
 30
0.0
 10
-0.88107926717646
 20
14.81687142710722
 30
0.0
 10
-1.761285931970452
 20
14.85558497905549
 30
0.0
 10
-2.640392209967335
 20
14.92069506347647
 30
0.0
 10
-3.515725619084465
 20
15.00888007117294
 30
0.0
 10
-4.393923363464175
 20
15.13032109184051
 30
0.0
 10
-5.240152986721838
 20
15.29354463340479
 30
0.0
 10
-5.85758247826018
 20
15.4468281677409
 30
0.0
 10
-5.944333994400126
 20
15.76784383935895
 30
0.0
  0
SPLINE
  5
3D
330
1F
100
AcDbEntity
  8
2D
100
AcDbSpline
210
0.0
220
0.0
230
1.0
 70
     8
 71
     3
 72
    43
 73
    39
 74
     0
 42
0.0000000001
 43
0.0000000001
 40
-17.0
 40
-17.0
 40
-17.0
 40
-17.0
 40
-15.99999997698935
 40
-14.9999999539787
 40
-13.99999993096806
 40
-12.99999990795741
 40
-11.99999988494676
 40
-10.99999986193612
 40
-9.99999983892547
 40
-8.999999815914823
 40
-7.999999792904177
 40
-6.99999976989353
 40
-5.999999746882883
 40
-4.999999723872236
 40
-3.999999700861588
 40
-2.999999677850941
 40
-1.999999654840294
 40
-0.9999996318296468
 40
0.0
 40
0.0
 40
0.0
 40
0.9999996318296468
 40
1.999999654840294
 40
2.999999677850941
 40
3.999999700861588
 40
4.999999723872236
 40
5.999999746882883
 40
6.99999976989353
 40
7.999999792904177
 40
8.999999815914823
 40
9.99999983892547
 40
10.99999986193612
 40
11.99999988494676
 40
12.99999990795741
 40
13.99999993096806
 40
14.9999999539787
 40
15.99999997698935
 40
17.0
 40
17.0
 40
17.0
 40
17.0
 10
-5.414257868530001
 20
16.25383104121338
 30
0.0
 10
-5.300327593810944
 20
16.23771463703095
 30
0.0
 10
-5.083905050809721
 20
16.19624206483145
 30
0.0
 10
-4.721623436737515
 20
16.13729253098741
 30
0.0
 10
-4.694596825498855
 20
15.70687678376541
 30
0.0
 10
-4.444133452146494
 20
15.58935934263924
 30
0.0
 10
-4.082764695098299
 20
15.55880660131827
 30
0.0
 10
-3.749846751436764
 20
15.51445050301928
 30
0.0
 10
-3.408553975925053
 20
15.48037198515121
 30
0.0
 10
-3.068971719839262
 20
15.44884205959878
 30
0.0
 10
-2.728526874173366
 20
15.4211775581562
 30
0.0
 10
-2.387965513856721
 20
15.39690694104
 30
0.0
 10
-2.047164071164299
 20
15.37567638306986
 30
0.0
 10
-1.706221290307422
 20
15.35705196217353
 30
0.0
 10
-1.365155933834489
 20
15.34077436151484
 30
0.0
 10
-1.023991685864733
 20
15.32673950979511
 30
0.0
 10
-0.682739205021251
 20
15.31503417677227
 30
0.0
 10
-0.3414084269802328
 20
15.30585878328398
 30
0.0
 10
-0.1138080731376128
 20
15.30180628089828
 30
0.0
 10
0.0
 20
15.30036966449338
 30
0.0
 10
0.1138080731376128
 20
15.30180628089828
 30
0.0
 10
0.3414084269802328
 20
15.30585878328398
 30
0.0
 10
0.682739205021251
 20
15.31503417677227
 30
0.0
 10
1.023991685864733
 20
15.32673950979511
 30
0.0
 10
1.365155933834489
 20
15.34077436151484
 30
0.0
 10
1.706221290307422
 20
15.35705196217353
 30
0.0
 10
2.047164071164299
 20
15.37567638306986
 30
0.0
 10
2.387965513856721
 20
15.39690694104
 30
0.0
 10
2.728526874173366
 20
15.4211775581562
 30
0.0
 10
3.068971719839262
 20
15.44884205959878
 30
0.0
 10
3.408553975925053
 20
15.48037198515121
 30
0.0
 10
3.749846751436764
 20
15.51445050301928
 30
0.0
 10
4.082764695098299
 20
15.55880660131827
 30
0.0
 10
4.444133452146494
 20
15.58935934263924
 30
0.0
 10
4.694596825498855
 20
15.70687678376541
 30
0.0
 10
4.721623436737515
 20
16.13729253098741
 30
0.0
 10
5.083905050809721
 20
16.19624206483145
 30
0.0
 10
5.300327593810944
 20
16.23771463703095
 30
0.0
 10
5.414257868530001
 20
16.25383104121338
 30
0.0
  0
SPLINE
  5
3E
330
1F
100
AcDbEntity
  8
2D
100
AcDbSpline
210
0.0
220
0.0
230
1.0
 70
    15
 71
     3
 72
    34
 73
    30
 74
     0
 42
0.0000000001
 43
0.0000000001
 40
-197.7144262691383
 40
-197.7144262691383
 40
-197.7144262691383
 40
-197.7144262691383
 40
-197.0160071624977
 40
-196.0160071624977
 40
-195.0160071624977
 40
-194.0160071624977
 40
-193.0160071624977
 40
-193.0160071624977
 40
-193.0160071624977
 40
-192.0160071624977
 40
-192.0160071624977
 40
-192.0160071624977
 40
-191.0160071624977
 40
-190.0160071624977
 40
-189.0160071624977
 40
-188.0160071624977
 40
-187.3175880558566
 40
-187.3175880558566
 40
-187.3175880558566
 40
-187.1793568210862
 40
-187.1793568210862
 40
-187.1793568210862
 40
-186.2193481610625
 40
-186.2193481610625
 40
-186.2193481610625
 40
-186.0266671473015
 40
-186.0266671473015
 40
-186.0266671473015
 40
-185.888435912531
 40
-185.888435912531
 40
-185.888435912531
 40
-185.888435912531
 10
6.78714895581719
 20
0.7409624081297206
 30
0.0
 41
1.0
 10
6.794388367922377
 20
0.7030096930965382
 30
0.0
 41
1.0
 10
6.810911182914877
 20
0.610558399605817
 30
0.0
 41
1.0
 10
6.833101251454997
 20
0.46227564711783
 30
0.0
 41
1.0
 10
6.841894992416803
 20
0.2982747504082652
 30
0.0
 41
1.0
 10
6.844418500307053
 20
0.1254379374369512
 30
0.0
 41
1.0
 10
6.756440976881175
 20
0.0382734028171406
 30
0.0
 41
1.0
 10
6.6972705
 20
0.0412254141733794
 30
0.0
 41
1.0
 10
6.2323235
 20
0.0412254141733794
 30
0.0
 41
1.0
 10
5.7673765
 20
0.0412254141733794
 30
0.0
 41
1.0
 10
5.302429500000001
 20
0.0412254141733794
 30
0.0
 41
1.0
 10
5.243259023118821
 20
0.0382734028171406
 30
0.0
 41
1.0
 10
5.15528149969295
 20
0.1254379374369512
 30
0.0
 41
1.0
 10
5.157805007583199
 20
0.2982747504082652
 30
0.0
 41
1.0
 10
5.166598748545005
 20
0.46227564711783
 30
0.0
 41
1.0
 10
5.188788817085126
 20
0.6105583996058356
 30
0.0
 41
1.0
 10
5.20531163207763
 20
0.7030096930965748
 30
0.0
 41
1.0
 10
5.212551044182857
 20
0.7409624081297597
 30
0.0
 41
1.0
 10
5.221951597697734
 20
0.790244935981278
 30
0.0
 41
0.8470063680253781
 10
5.260608899368003
 20
0.8222254141733795
 30
0.0
 41
0.8470063680253781
 10
5.310779986239047
 20
0.82222541417338
 30
0.0
 41
1.0
 10
5.705932990826033
 20
0.82222541417338
 30
0.0
 41
1.0
 10
6.101085995413018
 20
0.82222541417338
 30
0.0
 41
1.0
 10
6.496239000000003
 20
0.82222541417338
 30
0.0
 41
1.0
 10
6.560466004586996
 20
0.82222541417338
 30
0.0
 41
1.0
 10
6.624693009173991
 20
0.82222541417338
 30
0.0
 41
1.0
 10
6.688920013760984
 20
0.82222541417338
 30
0.0
 41
1.0
 10
6.739091100632048
 20
0.8222254141733841
 30
0.0
 41
0.8470063680252746
 10
6.777748402302329
 20
0.7902449359812633
 30
0.0
 41
0.8470063680252746
 10
6.78714895581719
 20
0.7409624081297207
 30
0.0
 41
1.0
  0
SPLINE
  5
3F
330
1F
100
AcDbEntity
  8
2D
100
AcDbSpline
210
0.0
220
0.0
230
1.0
 70
     8
 71
     3
 72
    11
 73
     7
 74
     0
 42
0.0000000001
 43
0.0000000001
 40
0.0
 40
0.0
 40
0.0
 40
0.0
 40
1.0
 40
1.0
 40
1.0
 40
1.992567117136974
 40
1.992567117136974
 40
1.992567117136974
 40
1.992567117136974
 10
9.617694
 20
17.00410641417338
 30
0.0
 10
9.857651666666667
 20
12.57336341417338
 30
0.0
 10
10.09760933333333
 20
8.142620414173381
 30
0.0
 10
10.337567
 20
3.711877414173382
 30
0.0
 10
10.3794692957785
 20
2.883064388521028
 30
0.0
 10
10.41396442013253
 20
2.053135892367252
 30
0.0
 10
10.40063941662376
 20
1.223109498565679
 30
0.0
  0
SPLINE
  5
40
330
1F
100
AcDbEntity
  8
2D
100
AcDbSpline
210
0.0
220
0.0
230
1.0
 70
    24
 71
     2
 72
     6
 73
     3
 74
     0
 42
0.0000000001
 43
0.0000000001
 40
0.0
 40
0.0
 40
0.0
 40
0.7458200283124906
 40
0.7458200283124906
 40
0.7458200283124906
 10
9.102219000000002
 20
0.3221164141733799
 30
0.0
 10
7.971069189509791
 20
0.3221164141733799
 30
0.0
 10
6.83991937901958
 20
0.3221164141733799
 30
0.0
  0
SPLINE
  5
41
330
1F
100
AcDbEntity
  8
2D
100
AcDbSpline
210
0.0
220
0.0
230
1.0
 70
    15
 71
     3
 72
    35
 73
    31
 74
     0
 42
0.0000000001
 43
0.0000000001
 40
-1.321633493038226
 40
-1.321633493038226
 40
-1.321633493038226
 40
-1.321633493038226
 40
-0.6608167465191129
 40
-0.6608167465191129
 40
-0.6608167465191129
 40
0.0
 40
0.0
 40
0.0
 40
1.0
 40
2.0
 40
3.0
 40
4.0
 40
5.0
 40
6.0
 40
7.0
 40
7.0
 40
7.0
 40
8.0
 40
8.0
 40
8.0
 40
9.0
 40
9.0
 40
9.0
 40
10.0
 40
11.0
 40
12.0
 40
13.0
 40
14.0
 40
15.0
 40
16.0
 40
16.0
 40
16.0
 40
16.0
 10
9.405746000000004
 20
1.25916841417338
 30
0.0
 41
1.0
 10
9.482647416591382
 20
1.0364447054867
 30
0.0
 41
0.8762412402947118
 10
9.67453235907988
 20
0.8996973211201378
 30
0.0
 41
0.8762412402947118
 10
9.910158500000003
 20
0.8996973211201378
 30
0.0
 41
1.0
 10
10.14578464092013
 20
0.8996973211201376
 30
0.0
 41
0.8762412402947118
 10
10.33766958340862
 20
1.036444705486699
 30
0.0
 41
0.8762412402947118
 10
10.414571
 20
1.25916841417338
 30
0.0
 41
1.0
 10
10.48071526034578
 20
1.2730965673509
 30
0.0
 41
1.0
 10
10.56167829374923
 20
1.177571861766624
 30
0.0
 41
1.0
 10
10.58901980119744
 20
1.001976730614469
 30
0.0
 41
1.0
 10
10.62726484393235
 20
0.8315799756052499
 30
0.0
 41
1.0
 10
10.64996539348969
 20
0.6574765954839428
 30
0.0
 41
1.0
 10
10.65775518576206
 20
0.4821353907233189
 30
0.0
 41
1.0
 10
10.67353315517792
 20
0.308797121578667
 30
0.0
 41
1.0
 10
10.62886138446044
 20
0.1871895326416624
 30
0.0
 41
1.0
 10
10.5591805
 20
0.1891546562883034
 30
0.0
 41
1.0
 10
10.10732666666667
 20
0.1891545704467155
 30
0.0
 41
1.0
 10
9.655472833333333
 20
0.1891544846051275
 30
0.0
 41
1.0
 10
9.203619
 20
0.1891543987635396
 30
0.0
 41
1.0
 10
9.151392685479069
 20
0.187784875344076
 30
0.0
 41
1.0
 10
9.104157171957345
 20
0.2335662161833844
 30
0.0
 41
1.0
 10
9.103580000000001
 20
0.28575841417338
 30
0.0
 41
1.0
 10
9.103256833959865
 20
0.3149815005271254
 30
0.0
 41
1.0
 10
9.178208766266215
 20
0.8268737964594294
 30
0.0
 41
1.0
 10
9.199700520030035
 20
0.9131729901789423
 30
0.0
 41
1.0
 10
9.221819231263952
 20
0.9993874910636383
 30
0.0
 41
1.0
 10
9.246756066300698
 20
1.085108633709408
 30
0.0
 41
1.0
 10
9.269461243969841
 20
1.170263877762511
 30
0.0
 41
1.0
 10
9.309650501402311
 20
1.254837938796737
 30
0.0
 41
1.0
 10
9.377273104781066
 20
1.261052016325125
 30
0.0
 41
1.0
 10
9.405746000000002
 20
1.259168414173381
 30
0.0
 41
1.0
  0
SPLINE
  5
42
330
1F
100
AcDbEntity
  8
2D
100
AcDbSpline
210
0.0
220
0.0
230
1.0
 70
    12
 71
     3
 72
    14
 73
    10
 74
     0
 42
0.0000000001
 43
0.0000000001
 40
0.0
 40
0.0
 40
0.0
 40
0.0
 40
1.0
 40
1.0
 40
1.0
 40
2.0
 40
2.0
 40
2.0
 40
2.044750755923642
 40
2.044750755923642
 40
2.044750755923642
 40
2.044750755923642
 10
9.401755000000001
 20
1.25864741417338
 30
0.0
 41
1.0
 10
9.412982946644005
 20
2.041751962663376
 30
0.0
 41
1.0
 10
9.380709433740043
 20
2.864497848135036
 30
0.0
 41
1.0
 10
9.3400515
 20
3.646397414173381
 30
0.0
 41
1.0
 10
9.120199239219145
 20
7.874413239970197
 30
0.0
 41
1.0
 10
8.88002300000012
 20
12.14115674750672
 30
0.0
 41
1.0
 10
8.651068000000123
 20
16.36868941417337
 30
0.0
 41
1.0
 10
8.646969636270246
 20
16.4443635271996
 30
0.0
 41
0.9999999995082542
 10
8.642874179096276
 20
16.52003779758578
 30
0.0
 41
0.9999999995082542
 10
8.638781628484255
 20
16.5957122252178
 30
0.0
 41
1.0
  0
SPLINE
  5
43
330
1F
100
AcDbEntity
  8
2D
100
AcDbSpline
210
0.0
220
0.0
230
1.0
 70
    12
 71
     3
 72
    14
 73
    10
 74
     0
 42
0.0000000001
 43
0.0000000001
 40
0.0
 40
0.0
 40
0.0
 40
0.0
 40
1.0
 40
1.0
 40
1.0
 40
2.0
 40
2.0
 40
2.0
 40
2.044750755923642
 40
2.044750755923642
 40
2.044750755923642
 40
2.044750755923642
 10
-9.401755000000001
 20
1.25864741417338
 30
0.0
 41
1.0
 10
-9.412982946644005
 20
2.041751962663376
 30
0.0
 41
1.0
 10
-9.380709433740043
 20
2.864497848135036
 30
0.0
 41
1.0
 10
-9.3400515
 20
3.646397414173381
 30
0.0
 41
1.0
 10
-9.120199239219145
 20
7.874413239970197
 30
0.0
 41
1.0
 10
-8.88002300000012
 20
12.14115674750672
 30
0.0
 41
1.0
 10
-8.651068000000123
 20
16.36868941417337
 30
0.0
 41
1.0
 10
-8.646969636270246
 20
16.4443635271996
 30
0.0
 41
0.9999999995082542
 10
-8.642874179096276
 20
16.52003779758578
 30
0.0
 41
0.9999999995082542
 10
-8.638781628484255
 20
16.5957122252178
 30
0.0
 41
1.0
  0
SPLINE
  5
44
330
1F
100
AcDbEntity
  8
2D
100
AcDbSpline
210
0.0
220
0.0
230
1.0
 70
     8
 71
     3
 72
    34
 73
    30
 74
     0
 42
0.0000000001
 43
0.0000000001
 40
0.0
 40
0.0
 40
0.0
 40
0.0
 40
1.0
 40
2.0
 40
3.0
 40
4.0
 40
5.0
 40
6.0
 40
7.0
 40
8.0
 40
9.0
 40
10.0
 40
11.0
 40
12.0
 40
13.0
 40
14.0
 40
15.0
 40
16.0
 40
17.0
 40
18.0
 40
19.0
 40
20.0
 40
21.0
 40
22.0
 40
23.0
 40
24.0
 40
25.0
 40
26.0
 40
27.0
 40
27.0
 40
27.0
 40
27.0
 10
-11.10054
 20
25.45360641417338
 30
0.0
 10
-11.05134904785013
 20
25.33704942421755
 30
0.0
 10
-10.9856293783001
 20
25.09214812562186
 30
0.0
 10
-10.93021840583134
 20
24.71690743607613
 30
0.0
 10
-10.90489399486772
 20
24.3383321579287
 30
0.0
 10
-10.91108583791212
 20
23.95921145475317
 30
0.0
 10
-10.91494093040438
 20
23.58022543788908
 30
0.0
 10
-10.91954778253431
 20
23.2012049333993
 30
0.0
 10
-10.92452276878636
 20
22.82220066159545
 30
0.0
 10
-10.92926006996467
 20
22.44319012471439
 30
0.0
 10
-10.93480921239039
 20
22.06419141974954
 30
0.0
 10
-10.93997570895122
 20
21.68518714612824
 30
0.0
 10
-10.94586094726706
 20
21.30619334760008
 30
0.0
 10
-10.95151138869018
 20
20.92719613800303
 30
0.0
 10
-10.95766555340665
 20
20.54820675792914
 30
0.0
 10
-10.96374030232094
 20
20.16921603232771
 30
0.0
 10
-10.97017836234965
 20
19.7902313263572
 30
0.0
 10
-10.97659150056929
 20
19.41124632658379
 30
0.0
 10
-10.98333472584622
 20
19.0322664768361
 30
0.0
 10
-10.9899762971366
 20
18.6532871847589
 30
0.0
 10
-10.99711273253701
 20
18.27430684692124
 30
0.0
 10
-11.00359290071533
 20
17.89535350181049
 30
0.0
 10
-11.01252301393436
 20
17.51629859449214
 30
0.0
 10
-11.01319280528762
 20
17.13763987354012
 30
0.0
 10
-10.93737711046982
 20
16.76021087995062
 30
0.0
 10
-10.71380671924488
 20
16.44457089616929
 30
0.0
 10
-10.3887852929253
 20
16.24041298955742
 30
0.0
 10
-10.03814178510904
 20
16.09655315524804
 30
0.0
 10
-9.794698680003386
 20
16.02698470518401
 30
0.0
 10
-9.672296000000003
 20
15.99590441417338
 30
0.0
  0
SPLINE
  5
45
330
1F
100
AcDbEntity
  8
2D
100
AcDbSpline
210
0.0
220
0.0
230
1.0
 70
    11
 71
     3
 72
   103
 73
    99
 74
     0
 42
0.0000000001
 43
0.0000000001
 40
0.0
 40
0.0
 40
0.0
 40
0.0
 40
1.0
 40
2.0
 40
3.0
 40
4.0
 40
5.0
 40
6.0
 40
7.0
 40
8.0
 40
9.0
 40
10.0
 40
11.0
 40
12.0
 40
13.0
 40
14.0
 40
15.0
 40
16.0
 40
17.0
 40
18.0
 40
19.0
 40
20.0
 40
21.0
 40
22.0
 40
23.0
 40
24.0
 40
25.0
 40
26.0
 40
27.0
 40
28.0
 40
29.0
 40
30.0
 40
31.0
 40
32.0
 40
33.0
 40
34.0
 40
35.0
 40
36.0
 40
37.0
 40
38.0
 40
39.0
 40
40.0
 40
41.0
 40
42.0
 40
43.0
 40
44.0
 40
45.0
 40
46.0
 40
47.0
 40
47.0
 40
47.0
 40
48.0
 40
49.0
 40
50.0
 40
51.0
 40
52.0
 40
53.0
 40
54.0
 40
55.0
 40
56.0
 40
57.0
 40
58.0
 40
59.0
 40
60.0
 40
61.0
 40
62.0
 40
63.0
 40
64.0
 40
65.0
 40
66.0
 40
67.0
 40
68.0
 40
69.0
 40
70.0
 40
71.0
 40
72.0
 40
73.0
 40
74.0
 40
75.0
 40
76.0
 40
77.0
 40
78.0
 40
79.0
 40
80.0
 40
81.0
 40
82.0
 40
83.0
 40
84.0
 40
85.0
 40
86.0
 40
87.0
 40
88.0
 40
89.0
 40
90.0
 40
91.0
 40
92.0
 40
93.0
 40
94.0
 40
94.0
 40
94.0
 40
94.0
 10
0.0000000989699984
 20
20.22470925725338
 30
0.0
 10
-0.2154686962947473
 20
20.22468199398539
 30
0.0
 10
-0.6464950723087233
 20
20.22935679401307
 30
0.0
 10
-1.291888426474935
 20
20.27223581568702
 30
0.0
 10
-1.93187524537226
 20
20.36813126799787
 30
0.0
 10
-2.558888586508977
 20
20.52961125656461
 30
0.0
 10
-3.162517729185519
 20
20.76406722232275
 30
0.0
 10
-3.734110176582447
 20
21.06858020351933
 30
0.0
 10
-4.260581851710966
 20
21.4471143451166
 30
0.0
 10
-4.753887612169285
 20
21.85889084467409
 30
0.0
 10
-5.169434919855334
 20
22.38702875231664
 30
0.0
 10
-5.116768643717396
 20
23.07360274842295
 30
0.0
 10
-4.734275526575602
 20
23.60895721432645
 30
0.0
 10
-4.234283948077103
 20
24.02082146626554
 30
0.0
 10
-3.700928458405076
 20
24.3867326267962
 30
0.0
 10
-3.237930776718196
 20
24.84533509982873
 30
0.0
 10
-2.926135709555277
 20
25.41897222774572
 30
0.0
 10
-2.758350959907084
 20
26.04797272262528
 30
0.0
 10
-2.773260955992596
 20
26.70240707218312
 30
0.0
 10
-3.006036979194224
 20
27.31501571358453
 30
0.0
 10
-3.415800007805778
 20
27.82508993269655
 30
0.0
 10
-3.953370125146745
 20
28.19264922087678
 30
0.0
 10
-4.547338657518272
 20
28.45166720598075
 30
0.0
 10
-5.167269515279669
 20
28.6384201920023
 30
0.0
 10
-5.802253561694989
 20
28.76000335264581
 30
0.0
 10
-6.434665768906355
 20
28.89882770032308
 30
0.0
 10
-7.041136595811602
 20
29.12284826096546
 30
0.0
 10
-7.577739285831774
 20
29.52485868618909
 30
0.0
 10
-7.754424653185197
 20
30.17159227850383
 30
0.0
 10
-7.787062273629827
 20
30.81361738842146
 30
0.0
 10
-7.818462064789343
 20
31.46027432016156
 30
0.0
 10
-7.842197611239104
 20
32.10593872448799
 30
0.0
 10
-7.859330787323304
 20
32.75254223209789
 30
0.0
 10
-7.866289067995277
 20
33.39776396942367
 30
0.0
 10
-7.866891881486699
 20
34.04855511355155
 30
0.0
 10
-7.828642910654199
 20
34.67855282184347
 30
0.0
 10
-7.808423676421941
 20
35.3819571902708
 30
0.0
 10
-7.211841645709756
 20
35.73396950114144
 30
0.0
 10
-6.552913516900063
 20
35.65364284458464
 30
0.0
 10
-5.910809749653995
 20
35.63499981656972
 30
0.0
 10
-5.26391903166347
 20
35.60606997551486
 30
0.0
 10
-4.618055888699935
 20
35.58674101031335
 30
0.0
 10
-3.971774245481675
 20
35.56961000507902
 30
0.0
 10
-3.325506327028984
 20
35.55586118952281
 30
0.0
 10
-2.679158641725822
 20
35.5449686743061
 30
0.0
 10
-2.032781799760711
 20
35.53650668059792
 30
0.0
 10
-1.386371218452962
 20
35.53095545202387
 30
0.0
 10
-0.7399438318523155
 20
35.52836876631523
 30
0.0
 10
-0.2154774074309795
 20
35.52780341266338
 30
0.0
 10
0.0
 20
35.52780341266338
 30
0.0
 10
0.2154774074309795
 20
35.52780341266338
 30
0.0
 10
0.7399438318523155
 20
35.52836876631523
 30
0.0
 10
1.386371218452962
 20
35.53095545202387
 30
0.0
 10
2.032781799760711
 20
35.53650668059792
 30
0.0
 10
2.679158641725822
 20
35.5449686743061
 30
0.0
 10
3.325506327028984
 20
35.55586118952281
 30
0.0
 10
3.971774245481675
 20
35.56961000507902
 30
0.0
 10
4.618055888699935
 20
35.58674101031335
 30
0.0
 10
5.26391903166347
 20
35.60606997551486
 30
0.0
 10
5.910809749653995
 20
35.63499981656972
 30
0.0
 10
6.552913516900063
 20
35.65364284458464
 30
0.0
 10
7.211841645709756
 20
35.73396950114144
 30
0.0
 10
7.808423676421941
 20
35.3819571902708
 30
0.0
 10
7.828642910654199
 20
34.67855282184347
 30
0.0
 10
7.866891881486699
 20
34.04855511355155
 30
0.0
 10
7.866289067995277
 20
33.39776396942367
 30
0.0
 10
7.859330787323304
 20
32.75254223209789
 30
0.0
 10
7.842197611239104
 20
32.10593872448799
 30
0.0
 10
7.818462064789343
 20
31.46027432016156
 30
0.0
 10
7.787062273629827
 20
30.81361738842146
 30
0.0
 10
7.754424653185197
 20
30.17159227850383
 30
0.0
 10
7.577739285831774
 20
29.52485868618909
 30
0.0
 10
7.041136595811602
 20
29.12284826096546
 30
0.0
 10
6.434665768906355
 20
28.89882770032308
 30
0.0
 10
5.802253561694989
 20
28.76000335264581
 30
0.0
 10
5.167269515279669
 20
28.6384201920023
 30
0.0
 10
4.547338657518272
 20
28.45166720598075
 30
0.0
 10
3.953370125146745
 20
28.19264922087678
 30
0.0
 10
3.415800007805778
 20
27.82508993269655
 30
0.0
 10
3.006036979194224
 20
27.31501571358453
 30
0.0
 10
2.773260955992596
 20
26.70240707218312
 30
0.0
 10
2.758350959907084
 20
26.04797272262528
 30
0.0
 10
2.926135709555277
 20
25.41897222774572
 30
0.0
 10
3.237930776718196
 20
24.84533509982873
 30
0.0
 10
3.700928458405076
 20
24.3867326267962
 30
0.0
 10
4.234283948077103
 20
24.02082146626554
 30
0.0
 10
4.734275526575602
 20
23.60895721432645
 30
0.0
 10
5.116768643717396
 20
23.07360274842295
 30
0.0
 10
5.169434919855334
 20
22.38702875231664
 30
0.0
 10
4.753887612169285
 20
21.85889084467409
 30
0.0
 10
4.260581851710966
 20
21.4471143451166
 30
0.0
 10
3.734110176582447
 20
21.06858020351933
 30
0.0
 10
3.162517729185519
 20
20.76406722232275
 30
0.0
 10
2.558888586508977
 20
20.52961125656461
 30
0.0
 10
1.93187524537226
 20
20.36813126799787
 30
0.0
 10
1.291888426474935
 20
20.27223581568702
 30
0.0
 10
0.6464950723087233
 20
20.22935679401307
 30
0.0
 10
0.2154686962947473
 20
20.22468199398539
 30
0.0
 10
-0.0000000989699984
 20
20.22470925725338
 30
0.0
  0
SPLINE
  5
47
330
1F
100
AcDbEntity
  8
IGES LEVEL 0
100
AcDbSpline
210
0.0
220
0.0
230
1.0
 70
    24
 71
     2
 72
     6
 73
     3
 74
     0
 42
0.0000000001
 43
0.0000000001
 40
0.0
 40
0.0
 40
0.0
 40
1.0
 40
1.0
 40
1.0
 10
-9.988501
 20
18.87269541417338
 30
0.0
 10
-9.988502
 20
18.87269541417338
 30
0.0
 10
-9.988503000000001
 20
18.87269541417338
 30
0.0
  0
SPLINE
  5
48
330
1F
100
AcDbEntity
  8
2D
100
AcDbSpline
210
0.0
220
0.0
230
1.0
 70
    24
 71
     2
 72
     6
 73
     3
 74
     0
 42
0.0000000001
 43
0.0000000001
 40
0.0
 40
0.0
 40
0.0
 40
1.0
 40
1.0
 40
1.0
 10
-10.173536
 20
48.4523039904357
 30
0.0
 10
-10.2419045
 20
48.2523594904357
 30
0.0
 10
-10.310273
 20
48.0524149904357
 30
0.0
  0
SPLINE
  5
49
330
1F
100
AcDbEntity
  8
2D
100
AcDbSpline
210
0.0
220
0.0
230
1.0
 70
     8
 71
     3
 72
    63
 73
    59
 74
     0
 42
0.0000000001
 43
0.0000000001
 40
-27.0
 40
-27.0
 40
-27.0
 40
-27.0
 40
-26.0
 40
-25.0
 40
-24.0
 40
-23.0
 40
-22.0
 40
-21.0
 40
-20.0
 40
-19.0
 40
-18.0
 40
-17.0
 40
-16.0
 40
-15.0
 40
-14.0
 40
-13.0
 40
-12.0
 40
-11.0
 40
-10.0
 40
-9.0
 40
-8.0
 40
-7.0
 40
-6.0
 40
-5.0
 40
-4.0
 40
-3.0
 40
-2.0
 40
-1.0
 40
0.0
 40
0.0
 40
0.0
 40
1.0
 40
2.0
 40
3.0
 40
4.0
 40
5.0
 40
6.0
 40
7.0
 40
8.0
 40
9.0
 40
10.0
 40
11.0
 40
12.0
 40
13.0
 40
14.0
 40
15.0
 40
16.0
 40
17.0
 40
18.0
 40
19.0
 40
20.0
 40
21.0
 40
22.0
 40
23.0
 40
24.0
 40
25.0
 40
26.0
 40
27.0
 40
27.0
 40
27.0
 40
27.0
 10
-9.737270000000002
 20
26.37222141417338
 30
0.0
 10
-9.767910716881305
 20
26.62396912079449
 30
0.0
 10
-9.815133586321052
 20
27.12912629941656
 30
0.0
 10
-9.855377736607556
 20
27.88901718740406
 30
0.0
 10
-9.881257728762492
 20
28.64944158747283
 30
0.0
 10
-9.895310167167697
 20
29.41019069449976
 30
0.0
 10
-9.900710557412962
 20
30.1710365934671
 30
0.0
 10
-9.89846810093903
 20
30.93189782390468
 30
0.0
 10
-9.890104183931529
 20
31.69271699642612
 30
0.0
 10
-9.874889782254794
 20
32.45342837175289
 30
0.0
 10
-9.852171228676049
 20
33.21396922766592
 30
0.0
 10
-9.820912806199146
 20
33.97415549077845
 30
0.0
 10
-9.778416631642745
 20
34.73402120627463
 30
0.0
 10
-9.723165994771554
 20
35.49225334966947
 30
0.0
 10
-9.638586475333273
 20
36.25120019410516
 30
0.0
 10
-9.530916117403637
 20
36.99430408499439
 30
0.0
 10
-9.167609738789125
 20
37.7388299199076
 30
0.0
 10
-8.34375732429536
 20
37.79203223251647
 30
0.0
 10
-7.601824391956448
 20
37.71728680843982
 30
0.0
 10
-6.839836205869096
 20
37.65011939794575
 30
0.0
 10
-6.082421402811828
 20
37.59031356059353
 30
0.0
 10
-5.323091662567927
 20
37.53757403762582
 30
0.0
 10
-4.563655177232766
 20
37.49217103364254
 30
0.0
 10
-3.803564122889632
 20
37.45716596770012
 30
0.0
 10
-3.043126755465232
 20
37.43165633001456
 30
0.0
 10
-2.282465398539949
 20
37.41396747582959
 30
0.0
 10
-1.521690036611528
 20
37.40245355026047
 30
0.0
 10
-0.7608569698665815
 20
37.39582982654184
 30
0.0
 10
-0.253619614147115
 20
37.39422948870468
 30
0.0
 10
0.0
 20
37.39414441417338
 30
0.0
 10
0.253619614147115
 20
37.39422948870468
 30
0.0
 10
0.7608569698665815
 20
37.39582982654184
 30
0.0
 10
1.521690036611528
 20
37.40245355026047
 30
0.0
 10
2.282465398539949
 20
37.41396747582959
 30
0.0
 10
3.043126755465232
 20
37.43165633001456
 30
0.0
 10
3.803564122889632
 20
37.45716596770012
 30
0.0
 10
4.563655177232766
 20
37.49217103364254
 30
0.0
 10
5.323091662567927
 20
37.53757403762582
 30
0.0
 10
6.082421402811828
 20
37.59031356059353
 30
0.0
 10
6.839836205869096
 20
37.65011939794575
 30
0.0
 10
7.601824391956448
 20
37.71728680843982
 30
0.0
 10
8.34375732429536
 20
37.79203223251647
 30
0.0
 10
9.167609738789125
 20
37.7388299199076
 30
0.0
 10
9.530916117403637
 20
36.99430408499439
 30
0.0
 10
9.638586475333273
 20
36.25120019410516
 30
0.0
 10
9.723165994771554
 20
35.49225334966947
 30
0.0
 10
9.778416631642745
 20
34.73402120627463
 30
0.0
 10
9.820912806199146
 20
33.97415549077845
 30
0.0
 10
9.852171228676049
 20
33.21396922766592
 30
0.0
 10
9.874889782254794
 20
32.45342837175289
 30
0.0
 10
9.890104183931529
 20
31.69271699642612
 30
0.0
 10
9.89846810093903
 20
30.93189782390468
 30
0.0
 10
9.900710557412962
 20
30.1710365934671
 30
0.0
 10
9.895310167167697
 20
29.41019069449976
 30
0.0
 10
9.881257728762492
 20
28.64944158747283
 30
0.0
 10
9.855377736607556
 20
27.88901718740406
 30
0.0
 10
9.815133586321052
 20
27.12912629941656
 30
0.0
 10
9.767910716881305
 20
26.62396912079449
 30
0.0
 10
9.737270000000002
 20
26.37222141417338
 30
0.0
  0
SPLINE
  5
4A
330
1F
100
AcDbEntity
  8
2D
100
AcDbSpline
210
0.0
220
0.0
230
1.0
 70
     8
 71
     3
 72
   377
 73
   373
 74
     0
 42
0.0000000001
 43
0.0000000001
 40
-45.0
 40
-45.0
 40
-45.0
 40
-45.0
 40
-44.0
 40
-44.0
 40
-44.0
 40
-43.0
 40
-43.0
 40
-43.0
 40
-42.0
 40
-42.0
 40
-42.0
 40
-41.0
 40
-41.0
 40
-41.0
 40
-40.0
 40
-40.0
 40
-40.0
 40
-39.0
 40
-39.0
 40
-39.0
 40
-38.0
 40
-38.0
 40
-38.0
 40
-37.0
 40
-37.0
 40
-37.0
 40
-36.0
 40
-36.0
 40
-36.0
 40
-35.0
 40
-35.0
 40
-35.0
 40
-34.0
 40
-34.0
 40
-34.0
 40
-33.0
 40
-33.0
 40
-33.0
 40
-32.0
 40
-32.0
 40
-32.0
 40
-31.0
 40
-31.0
 40
-31.0
 40
-30.0
 40
-30.0
 40
-30.0
 40
-29.0
 40
-29.0
 40
-29.0
 40
-28.0
 40
-28.0
 40
-28.0
 40
-27.0
 40
-27.0
 40
-27.0
 40
-26.0
 40
-26.0
 40
-26.0
 40
-25.0
 40
-25.0
 40
-25.0
 40
-24.0
 40
-24.0
 40
-24.0
 40
-23.0
 40
-23.0
 40
-23.0
 40
-22.0
 40
-22.0
 40
-22.0
 40
-21.0
 40
-21.0
 40
-21.0
 40
-20.0
 40
-20.0
 40
-20.0
 40
-19.0
 40
-19.0
 40
-19.0
 40
-18.0
 40
-18.0
 40
-18.0
 40
-17.0
 40
-17.0
 40
-17.0
 40
-16.0
 40
-16.0
 40
-16.0
 40
-15.0
 40
-15.0
 40
-15.0
 40
-14.0
 40
-14.0
 40
-14.0
 40
-13.0
 40
-13.0
 40
-13.0
 40
-12.0
 40
-12.0
 40
-12.0
 40
-11.0
 40
-11.0
 40
-11.0
 40
-10.0
 40
-10.0
 40
-10.0
 40
-9.0
 40
-9.0
 40
-9.0
 40
-8.0
 40
-8.0
 40
-8.0
 40
-7.0
 40
-7.0
 40
-7.0
 40
-6.0
 40
-6.0
 40
-6.0
 40
-5.0
 40
-5.0
 40
-5.0
 40
-4.0
 40
-4.0
 40
-4.0
 40
-3.0
 40
-3.0
 40
-3.0
 40
-2.0
 40
-2.0
 40
-2.0
 40
-1.0
 40
-1.0
 40
-1.0
 40
0.0
 40
0.0
 40
0.0
 40
1.0
 40
1.0
 40
1.0
 40
1.1238177861467
 40
1.1859530479391
 40
1.2482200048067
 40
1.310592224814
 40
1.3730408057203
 40
1.4980778474299
 40
1.6232790855246
 40
1.7486502821877
 40
1.8114045597236
 40
1.874208559515
 40
2.0
 40
2.0
 40
2.0
 40
2.1248735704004
 40
2.249700956506
 40
2.374641394193
 40
2.4996937056988
 40
2.6247595080163
 40
2.7498307891198
 40
3.0
 40
3.0
 40
3.0
 40
4.0
 40
4.0
 40
4.0
 40
4.249808555134262
 40
4.499665579490104
 40
4.749705567777892
 40
5.0
 40
5.0
 40
5.0
 40
5.1249914070915
 40
5.1873879073762
 40
5.2497973151468
 40
5.3748916563063
 40
5.5000283083146
 40
5.6250524878658
 40
5.7500017989559
 40
5.874954851524
 40
6.0
 40
6.0
 40
6.0
 40
6.1246117725965
 40
6.2494502996616
 40
6.3744724724084
 40
6.4996063957861
 40
6.7498814713236
 40
7.0
 40
7.0
 40
7.0
 40
8.000048880855179
 40
8.000048880855179
 40
8.000048880855179
 40
9.000097761710359
 40
9.000097761710359
 40
9.000097761710359
 40
10.0
 40
10.0
 40
10.0
 40
10.99907619751575
 40
10.99907619751575
 40
10.99907619751575
 40
11.99912495049366
 40
11.99912495049366
 40
11.99912495049366
 40
12.99917370347157
 40
12.99917370347157
 40
12.99917370347157
 40
13.99922245644948
 40
13.99922245644948
 40
13.99922245644948
 40
14.9992712094274
 40
14.9992712094274
 40
14.9992712094274
 40
15.99931996240531
 40
15.99931996240531
 40
15.99931996240531
 40
16.99936871538322
 40
16.99936871538322
 40
16.99936871538322
 40
17.99941746836113
 40
17.99941746836113
 40
17.99941746836113
 40
18.99946622133905
 40
18.99946622133905
 40
18.99946622133905
 40
19.99951497431695
 40
19.99951497431695
 40
19.99951497431695
 40
20.99956372729487
 40
20.99956372729487
 40
20.99956372729487
 40
21.99961248027278
 40
21.99961248027278
 40
21.99961248027278
 40
22.99966123325069
 40
22.99966123325069
 40
22.99966123325069
 40
23.99970998622861
 40
23.99970998622861
 40
23.99970998622861
 40
24.99975873920652
 40
24.99975873920652
 40
24.99975873920652
 40
25.99980749218443
 40
25.99980749218443
 40
25.99980749218443
 40
26.99985624516234
 40
26.99985624516234
 40
26.99985624516234
 40
27.99990499814026
 40
27.99990499814026
 40
27.99990499814026
 40
28.99995375111817
 40
28.99995375111817
 40
28.99995375111817
 40
30.00000250409608
 40
30.00000250409608
 40
30.00000250409608
 40
31.00005125707399
 40
31.00005125707399
 40
31.00005125707399
 40
32.00010001005191
 40
32.00010001005191
 40
32.00010001005191
 40
33.00014876302981
 40
33.00014876302981
 40
33.00014876302981
 40
34.00019751600773
 40
34.00019751600773
 40
34.00019751600773
 40
35.00024626898564
 40
35.00024626898564
 40
35.00024626898564
 40
36.00029502196355
 40
36.00029502196355
 40
36.00029502196355
 40
37.00034377494146
 40
37.00034377494146
 40
37.00034377494146
 40
38.00039252791937
 40
38.00039252791937
 40
38.00039252791937
 40
39.00044128089729
 40
39.00044128089729
 40
39.00044128089729
 40
40.0004900338752
 40
40.0004900338752
 40
40.0004900338752
 40
41.00053878685311
 40
41.00053878685311
 40
41.00053878685311
 40
42.00058753983102
 40
42.00058753983102
 40
42.00058753983102
 40
43.00063629280893
 40
43.00063629280893
 40
43.00063629280893
 40
44.00068504578685
 40
44.00068504578685
 40
44.00068504578685
 40
45.00073379876476
 40
45.00073379876476
 40
45.00073379876476
 40
46.00078255174267
 40
46.00078255174267
 40
46.00078255174267
 40
47.00083130472059
 40
47.00083130472059
 40
47.00083130472059
 40
48.0008800576985
 40
48.0008800576985
 40
48.0008800576985
 40
49.00092881067641
 40
49.00092881067641
 40
49.00092881067641
 40
50.00097756365432
 40
50.00097756365432
 40
50.00097756365432
 40
51.00102631663223
 40
51.00102631663223
 40
51.00102631663223
 40
52.0
 40
52.0
 40
52.0
 40
52.99988225358065
 40
52.99988225358065
 40
52.99988225358065
 40
53.9999215023871
 40
53.9999215023871
 40
53.9999215023871
 40
54.99996075119355
 40
54.99996075119355
 40
54.99996075119355
 40
56.0
 40
56.0
 40
56.0
 40
56.249919366577
 40
56.499872486919
 40
56.7498918798448
 40
57.0
 40
57.0
 40
57.0
 40
57.1249335765172
 40
57.2498972354009
 40
57.4998891537642
 40
57.7499305344765
 40
58.0
 40
58.0
 40
58.0
 40
58.1251079941946
 40
58.1876610465337
 40
58.2502119288562
 40
58.3752996490804
 40
58.5003554248061
 40
58.6253651714421
 40
58.7503170064439
 40
58.8751992240651
 40
59.0
 40
59.0
 40
59.0
 40
59.1257445916548
 40
59.2513230483055
 40
59.37670460742
 40
59.5018702826871
 40
59.6268112571514
 40
59.7515067106894
 40
59.8759206226101
 40
60.0
 40
60.0
 40
60.0
 40
61.0
 40
61.0
 40
61.0
 40
61.0
 10
-11.359901
 20
58.8660479904357
 30
0.0
 10
-11.35596
 20
58.88004365710237
 30
0.0
 10
-11.352019
 20
58.89403932376904
 30
0.0
 10
-11.348078
 20
58.90803499043571
 30
0.0
 10
-11.33904366666667
 20
58.93622432376904
 30
0.0
 10
-11.33000933333333
 20
58.96441365710237
 30
0.0
 10
-11.320975
 20
58.9926029904357
 30
0.0
 10
-11.31073233333333
 20
59.0202199904357
 30
0.0
 10
-11.30048966666667
 20
59.04783699043571
 30
0.0
 10
-11.290247
 20
59.0754539904357
 30
0.0
 10
-11.278698
 20
59.10231765710237
 30
0.0
 10
-11.267149
 20
59.12918132376904
 30
0.0
 10
-11.2556
 20
59.1560449904357
 30
0.0
 10
-11.24283866666667
 20
59.18208965710237
 30
0.0
 10
-11.23007733333333
 20
59.20813432376904
 30
0.0
 10
-11.217316
 20
59.23417899043571
 30
0.0
 10
-11.203505
 20
59.25898932376904
 30
0.0
 10
-11.189694
 20
59.28379965710237
 30
0.0
 10
-11.175883
 20
59.30860999043571
 30
0.0
 10
-11.16127966666667
 20
59.33197965710237
 30
0.0
 10
-11.14667633333334
 20
59.35534932376904
 30
0.0
 10
-11.132073
 20
59.37871899043571
 30
0.0
 10
-11.11644933333334
 20
59.40100765710238
 30
0.0
 10
-11.10082566666667
 20
59.42329632376904
 30
0.0
 10
-11.085202
 20
59.44558499043571
 30
0.0
 10
-11.06869133333333
 20
59.46647732376903
 30
0.0
 10
-11.05218066666667
 20
59.48736965710236
 30
0.0
 10
-11.03567
 20
59.5082619904357
 30
0.0
 10
-11.018714
 20
59.5274959904357
 30
0.0
 10
-11.001758
 20
59.5467299904357
 30
0.0
 10
-10.984802
 20
59.5659639904357
 30
0.0
 10
-10.96683566666667
 20
59.58418632376904
 30
0.0
 10
-10.94886933333333
 20
59.60240865710237
 30
0.0
 10
-10.930903
 20
59.6206309904357
 30
0.0
 10
-10.91261133333334
 20
59.63700399043571
 30
0.0
 10
-10.89431966666667
 20
59.6533769904357
 30
0.0
 10
-10.876028
 20
59.6697499904357
 30
0.0
 10
-10.857745
 20
59.68445865710237
 30
0.0
 10
-10.839462
 20
59.69916732376903
 30
0.0
 10
-10.821179
 20
59.7138759904357
 30
0.0
 10
-10.801782
 20
59.72751765710236
 30
0.0
 10
-10.782385
 20
59.74115932376903
 30
0.0
 10
-10.762988
 20
59.7548009904357
 30
0.0
 10
-10.74323866666666
 20
59.76668832376904
 30
0.0
 10
-10.72348933333333
 20
59.77857565710237
 30
0.0
 10
-10.70374
 20
59.79046299043571
 30
0.0
 10
-10.68379066666667
 20
59.80077765710237
 30
0.0
 10
-10.66384133333334
 20
59.81109232376904
 30
0.0
 10
-10.643892
 20
59.8214069904357
 30
0.0
 10
-10.62355
 20
59.83032499043571
 30
0.0
 10
-10.603208
 20
59.83924299043571
 30
0.0
 10
-10.582866
 20
59.8481609904357
 30
0.0
 10
-10.56184866666667
 20
59.85570865710238
 30
0.0
 10
-10.54083133333333
 20
59.86325632376904
 30
0.0
 10
-10.519814
 20
59.8708039904357
 30
0.0
 10
-10.49818166666667
 20
59.87679332376903
 30
0.0
 10
-10.47654933333334
 20
59.88278265710236
 30
0.0
 10
-10.454917
 20
59.88877199043569
 30
0.0
 10
-10.43330133333333
 20
59.8930439904357
 30
0.0
 10
-10.41168566666667
 20
59.89731599043571
 30
0.0
 10
-10.39007
 20
59.9015879904357
 30
0.0
 10
-10.36809566666667
 20
59.90429499043571
 30
0.0
 10
-10.34612133333333
 20
59.9070019904357
 30
0.0
 10
-10.324147
 20
59.9097089904357
 30
0.0
 10
-10.301776
 20
59.91068532376903
 30
0.0
 10
-10.279405
 20
59.91166165710236
 30
0.0
 10
-10.257034
 20
59.91263799043569
 30
0.0
 10
-10.23484
 20
59.9118369904357
 30
0.0
 10
-10.212646
 20
59.9110359904357
 30
0.0
 10
-10.190452
 20
59.9102349904357
 30
0.0
 10
-10.16813466666667
 20
59.9076889904357
 30
0.0
 10
-10.14581733333333
 20
59.9051429904357
 30
0.0
 10
-10.1235
 20
59.90259699043569
 30
0.0
 10
-10.10094666666667
 20
59.89811165710237
 30
0.0
 10
-10.07839333333333
 20
59.89362632376903
 30
0.0
 10
-10.05584
 20
59.88914099043571
 30
0.0
 10
-10.03411733333333
 20
59.88298265710237
 30
0.0
 10
-10.01239466666667
 20
59.87682432376904
 30
0.0
 10
-9.990672
 20
59.8706659904357
 30
0.0
 10
-9.969156666666667
 20
59.86290832376903
 30
0.0
 10
-9.947641333333333
 20
59.85515065710237
 30
0.0
 10
-9.926126
 20
59.84739299043571
 30
0.0
 10
-9.904402666666668
 20
59.8376399904357
 30
0.0
 10
-9.882679333333334
 20
59.8278869904357
 30
0.0
 10
-9.860956000000002
 20
59.8181339904357
 30
0.0
 10
-9.839820666666668
 20
59.80653765710237
 30
0.0
 10
-9.818685333333335
 20
59.79494132376905
 30
0.0
 10
-9.797550000000001
 20
59.78334499043572
 30
0.0
 10
-9.777029666666667
 20
59.7699829904357
 30
0.0
 10
-9.756509333333334
 20
59.75662099043571
 30
0.0
 10
-9.735989
 20
59.7432589904357
 30
0.0
 10
-9.716071000000001
 20
59.72817065710237
 30
0.0
 10
-9.696153
 20
59.71308232376904
 30
0.0
 10
-9.676235000000002
 20
59.69799399043571
 30
0.0
 10
-9.656972333333334
 20
59.68121732376903
 30
0.0
 10
-9.637709666666668
 20
59.66444065710238
 30
0.0
 10
-9.618447
 20
59.6476639904357
 30
0.0
 10
-9.600007
 20
59.6292859904357
 30
0.0
 10
-9.581567
 20
59.61090799043571
 30
0.0
 10
-9.563127000000001
 20
59.59252999043571
 30
0.0
 10
-9.545598666666669
 20
59.57262665710238
 30
0.0
 10
-9.528070333333334
 20
59.55272332376904
 30
0.0
 10
-9.510542000000001
 20
59.53281999043569
 30
0.0
 10
-9.494033666666668
 20
59.51153565710236
 30
0.0
 10
-9.477525333333334
 20
59.49025132376903
 30
0.0
 10
-9.461017000000002
 20
59.4689669904357
 30
0.0
 10
-9.445670000000002
 20
59.4465369904357
 30
0.0
 10
-9.430323000000003
 20
59.42410699043571
 30
0.0
 10
-9.414976000000003
 20
59.4016769904357
 30
0.0
 10
-9.400832666666668
 20
59.37825199043571
 30
0.0
 10
-9.386689333333335
 20
59.3548269904357
 30
0.0
 10
-9.372546
 20
59.3314019904357
 30
0.0
 10
-9.359569666666667
 20
59.3070039904357
 30
0.0
 10
-9.346593333333333
 20
59.28260599043571
 30
0.0
 10
-9.333617
 20
59.2582079904357
 30
0.0
 10
-9.321848000000001
 20
59.23295765710237
 30
0.0
 10
-9.310079000000002
 20
59.20770732376904
 30
0.0
 10
-9.29831
 20
59.1824569904357
 30
0.0
 10
-9.287674666666668
 20
59.15617265710237
 30
0.0
 10
-9.277039333333335
 20
59.12988832376903
 30
0.0
 10
-9.266404000000001
 20
59.10360399043569
 30
0.0
 10
-9.257040000000002
 20
59.0766709904357
 30
0.0
 10
-9.247676
 20
59.04973799043571
 30
0.0
 10
-9.238312
 20
59.0228049904357
 30
0.0
 10
-9.23043
 20
58.99606299043571
 30
0.0
 10
-9.222548000000002
 20
58.9693209904357
 30
0.0
 10
-9.214666000000001
 20
58.9425789904357
 30
0.0
 10
-9.20828
 20
58.91652232376904
 30
0.0
 10
-9.201894000000001
 20
58.89046565710237
 30
0.0
 10
-9.195508
 20
58.8644089904357
 30
0.0
 10
-9.190339
 20
58.83903165710237
 30
0.0
 10
-9.185170000000001
 20
58.81365432376904
 30
0.0
 10
-9.180001
 20
58.78827699043571
 30
0.0
 10
-9.178040666666666
 20
58.77656182376904
 30
0.0
 10
-9.176080333333333
 20
58.76484665710237
 30
0.0
 10
-9.17412
 20
58.7531314904357
 30
0.0
 10
-9.172149259768334
 20
58.74032465427237
 30
0.0
 10
-9.170178519536668
 20
58.72751781810904
 30
0.0
 10
-9.168207779305
 20
58.71471098194571
 30
0.0
 10
-9.154669680850002
 20
58.6281974956257
 30
0.0
 10
-9.134553419540001
 20
58.4982343628357
 30
0.0
 10
-9.10889158063
 20
58.3245733921557
 30
0.0
 10
-9.09036852865
 20
58.1937872656257
 30
0.0
 10
-9.07266125288
 20
58.0626644451757
 30
0.0
 10
-9.05021973754
 20
57.8873897931057
 30
0.0
 10
-9.02458759908
 20
57.6677332621657
 30
0.0
 10
-8.99765858728
 20
57.4034547725057
 30
0.0
 10
-8.978283881110002
 20
57.1827055232457
 30
0.0
 10
-8.96448450123
 20
57.00577969457571
 30
0.0
 10
-8.95178796807
 20
56.82847368776571
 30
0.0
 10
-8.943666396010002
 20
56.69533606702571
 30
0.0
 10
-8.938980538350002
 20
56.6064974600057
 30
0.0
 10
-8.93521592111
 20
56.5351245383257
 30
0.0
 10
-8.928643832240002
 20
56.3923534283157
 30
0.0
 10
-8.921263509580001
 20
56.17804835338571
 30
0.0
 10
-8.916125249700002
 20
55.9635754256657
 30
0.0
 10
-8.913239910560002
 20
55.7489237363157
 30
0.0
 10
-8.912673332780003
 20
55.53417839755571
 30
0.0
 10
-8.914763216290002
 20
55.2478296537457
 30
0.0
 10
-8.919162969000002
 20
55.03309024967571
 30
0.0
 10
-8.923241119325
 20
54.8899622419807
 30
0.0
 10
-8.924148691036669
 20
54.85988403987071
 30
0.0
 10
-8.925056262748335
 20
54.82980583776071
 30
0.0
 10
-8.925963834460001
 20
54.7997276356507
 30
0.0
 10
-8.927239583504102
 20
54.75963657113871
 30
0.0
 10
-8.92996691609434
 20
54.67945218323179
 30
0.0
 10
-8.934513020450002
 20
54.55915878091571
 30
0.0
 10
-8.939552024580003
 20
54.4388067630757
 30
0.0
 10
-8.943338596700002
 20
54.3585576858257
 30
0.0
 10
-8.945339401230001
 20
54.31841814730571
 30
0.0
 10
-8.94720473473
 20
54.2809963879957
 30
0.0
 10
-8.950155547520001
 20
54.2249011983357
 30
0.0
 10
-8.954169751430001
 20
54.1501280600457
 30
0.0
 10
-8.95823386988
 20
54.0753266913357
 30
0.0
 10
-8.963536685160001
 20
53.9817574623257
 30
0.0
 10
-8.97045760408
 20
53.8694812262257
 30
0.0
 10
-8.97786632995
 20
53.7572799044857
 30
0.0
 10
-8.985646244130002
 20
53.6451589052757
 30
0.0
 10
-8.993847009270002
 20
53.5330615579857
 30
0.0
 10
-8.99963119873
 20
53.4583437216457
 30
0.0
 10
-9.002623042670002
 20
53.4209789804657
 30
0.0
 10
-9.006001421660002
 20
53.3787868542457
 30
0.0
 10
-9.013016152840002
 20
53.2943456813457
 30
0.0
 10
-9.02448122726
 20
53.1676640267657
 30
0.0
 10
-9.037228336170003
 20
53.0409254173557
 30
0.0
 10
-9.056202663450001
 20
52.8720019093057
 30
0.0
 10
-9.08372778911
 20
52.6612946832857
 30
0.0
 10
-9.109780811980002
 20
52.4933194993957
 30
0.0
 10
-9.123507551080001
 20
52.4093438483257
 30
0.0
 10
-9.129717700720002
 20
52.37244922902904
 30
0.0
 10
-9.135927850360003
 20
52.33555460973238
 30
0.0
 10
-9.142138000000003
 20
52.2986599904357
 30
0.0
 10
-9.160019000000002
 20
52.20455099043571
 30
0.0
 10
-9.177900000000001
 20
52.1104419904357
 30
0.0
 10
-9.195781
 20
52.0163329904357
 30
0.0
 10
-9.212461833333334
 20
51.9394689904357
 30
0.0
 10
-9.22914266666667
 20
51.8626049904357
 30
0.0
 10
-9.245823500000002
 20
51.7857409904357
 30
0.0
 10
-9.248565000000001
 20
51.77422132376903
 30
0.0
 10
-9.251306500000002
 20
51.76270165710236
 30
0.0
 10
-9.254048000000001
 20
51.7511819904357
 30
0.0
 10
-9.262313666666667
 20
51.72265032376904
 30
0.0
 10
-9.270579333333334
 20
51.69411865710236
 30
0.0
 10
-9.278845
 20
51.66558699043569
 30
0.0
 10
-9.289111666666667
 20
51.63736032376903
 30
0.0
 10
-9.299378333333333
 20
51.60913365710237
 30
0.0
 10
-9.309645
 20
51.5809069904357
 30
0.0
 10
-9.321905
 20
51.55299165710236
 30
0.0
 10
-9.334165
 20
51.52507632376904
 30
0.0
 10
-9.346425
 20
51.4971609904357
 30
0.0
 10
-9.360651
 20
51.46962665710237
 30
0.0
 10
-9.374877000000001
 20
51.44209232376903
 30
0.0
 10
-9.389103000000002
 20
51.4145579904357
 30
0.0
 10
-9.405214000000003
 20
51.3876829904357
 30
0.0
 10
-9.421325000000001
 20
51.3608079904357
 30
0.0
 10
-9.437436000000002
 20
51.3339329904357
 30
0.0
 10
-9.455483000000001
 20
51.3078839904357
 30
0.0
 10
-9.473529999999998
 20
51.2818349904357
 30
0.0
 10
-9.491577
 20
51.2557859904357
 30
0.0
 10
-9.511591333333334
 20
51.23071732376903
 30
0.0
 10
-9.531605666666666
 20
51.20564865710238
 30
0.0
 10
-9.55162
 20
51.1805799904357
 30
0.0
 10
-9.573443666666668
 20
51.15680665710237
 30
0.0
 10
-9.595267333333334
 20
51.13303332376904
 30
0.0
 10
-9.617091000000002
 20
51.1092599904357
 30
0.0
 10
-9.640520000000002
 20
51.08696565710236
 30
0.0
 10
-9.663949000000002
 20
51.06467132376903
 30
0.0
 10
-9.687378000000002
 20
51.04237699043571
 30
0.0
 10
-9.712327000000002
 20
51.02163965710238
 30
0.0
 10
-9.737276000000001
 20
51.00090232376905
 30
0.0
 10
-9.762225
 20
50.9801649904357
 30
0.0
 10
-9.788712000000002
 20
50.96104465710237
 30
0.0
 10
-9.815199000000002
 20
50.94192432376904
 30
0.0
 10
-9.841686000000003
 20
50.9228039904357
 30
0.0
 10
-9.869605333333336
 20
50.90550999043571
 30
0.0
 10
-9.89752466666667
 20
50.8882159904357
 30
0.0
 10
-9.925444000000002
 20
50.8709219904357
 30
0.0
 10
-9.954665000000002
 20
50.85563365710237
 30
0.0
 10
-9.983886000000002
 20
50.84034532376904
 30
0.0
 10
-10.013107
 20
50.82505699043571
 30
0.0
 10
-10.04335266666667
 20
50.81191665710237
 30
0.0
 10
-10.07359833333333
 20
50.79877632376903
 30
0.0
 10
-10.103844
 20
50.7856359904357
 30
0.0
 10
-10.134737
 20
50.77479165710236
 30
0.0
 10
-10.16563
 20
50.76394732376903
 30
0.0
 10
-10.196523
 20
50.7531029904357
 30
0.0
 10
-10.22799633333334
 20
50.74440865710236
 30
0.0
 10
-10.25946966666667
 20
50.73571432376903
 30
0.0
 10
-10.290943
 20
50.7270199904357
 30
0.0
 10
-10.32290233333334
 20
50.72053965710236
 30
0.0
 10
-10.35486166666667
 20
50.71405932376903
 30
0.0
 10
-10.386821
 20
50.7075789904357
 30
0.0
 10
-10.419015
 20
50.70338065710237
 30
0.0
 10
-10.451209
 20
50.69918232376904
 30
0.0
 10
-10.483403
 20
50.6949839904357
 30
0.0
 10
-10.515698
 20
50.69306832376903
 30
0.0
 10
-10.547993
 20
50.69115265710237
 30
0.0
 10
-10.580288
 20
50.68923699043571
 30
0.0
 10
-10.61269333333333
 20
50.68963132376903
 30
0.0
 10
-10.64509866666667
 20
50.69002565710237
 30
0.0
 10
-10.677504
 20
50.69041999043569
 30
0.0
 10
-10.709811
 20
50.69314065710237
 30
0.0
 10
-10.742118
 20
50.69586132376903
 30
0.0
 10
-10.774425
 20
50.69858199043571
 30
0.0
 10
-10.80638633333334
 20
50.70358532376903
 30
0.0
 10
-10.83834766666667
 20
50.70858865710236
 30
0.0
 10
-10.870309
 20
50.7135919904357
 30
0.0
 10
-10.90194433333333
 20
50.72087099043571
 30
0.0
 10
-10.93357966666667
 20
50.7281499904357
 30
0.0
 10
-10.965215
 20
50.7354289904357
 30
0.0
 10
-10.996462
 20
50.74496765710236
 30
0.0
 10
-11.027709
 20
50.75450632376903
 30
0.0
 10
-11.058956
 20
50.7640449904357
 30
0.0
 10
-11.089404
 20
50.77570832376904
 30
0.0
 10
-11.119852
 20
50.78737165710237
 30
0.0
 10
-11.1503
 20
50.7990349904357
 30
0.0
 10
-11.18004233333333
 20
50.8128229904357
 30
0.0
 10
-11.20978466666667
 20
50.8266109904357
 30
0.0
 10
-11.239527
 20
50.84039899043571
 30
0.0
 10
-11.26835033333334
 20
50.85635365710237
 30
0.0
 10
-11.29717366666667
 20
50.87230832376904
 30
0.0
 10
-11.325997
 20
50.8882629904357
 30
0.0
 10
-11.35361866666667
 20
50.9063069904357
 30
0.0
 10
-11.38124033333334
 20
50.9243509904357
 30
0.0
 10
-11.408862
 20
50.9423949904357
 30
0.0
 10
-11.43501766666667
 20
50.9623049904357
 30
0.0
 10
-11.46117333333333
 20
50.9822149904357
 30
0.0
 10
-11.487329
 20
51.0021249904357
 30
0.0
 10
-11.51182533333333
 20
51.0236969904357
 30
0.0
 10
-11.53632166666667
 20
51.04526899043569
 30
0.0
 10
-11.560818
 20
51.0668409904357
 30
0.0
 10
-11.58364066666667
 20
51.08986532376903
 30
0.0
 10
-11.60646333333334
 20
51.11288965710236
 30
0.0
 10
-11.629286
 20
51.1359139904357
 30
0.0
 10
-11.65044133333333
 20
51.16033732376903
 30
0.0
 10
-11.67159666666667
 20
51.18476065710237
 30
0.0
 10
-11.692752
 20
51.20918399043571
 30
0.0
 10
-11.71222233333333
 20
51.23499032376903
 30
0.0
 10
-11.73169266666667
 20
51.26079665710237
 30
0.0
 10
-11.751163
 20
51.2866029904357
 30
0.0
 10
-11.768727
 20
51.31354599043571
 30
0.0
 10
-11.786291
 20
51.34048899043571
 30
0.0
 10
-11.803855
 20
51.3674319904357
 30
0.0
 10
-11.819351
 20
51.39516665710237
 30
0.0
 10
-11.834847
 20
51.42290132376903
 30
0.0
 10
-11.850343
 20
51.4506359904357
 30
0.0
 10
-11.86380933333334
 20
51.47901265710237
 30
0.0
 10
-11.87727566666667
 20
51.50738932376903
 30
0.0
 10
-11.890742
 20
51.5357659904357
 30
0.0
 10
-11.90225633333333
 20
51.56466432376903
 30
0.0
 10
-11.91377066666667
 20
51.59356265710237
 30
0.0
 10
-11.925285
 20
51.62246099043571
 30
0.0
 10
-11.934826
 20
51.65159365710237
 30
0.0
 10
-11.944367
 20
51.68072632376904
 30
0.0
 10
-11.953908
 20
51.70985899043571
 30
0.0
 10
-11.96143066666667
 20
51.73912665710237
 30
0.0
 10
-11.96895333333334
 20
51.76839432376903
 30
0.0
 10
-11.976476
 20
51.7976619904357
 30
0.0
 10
-11.98196
 20
51.82707199043571
 30
0.0
 10
-11.987444
 20
51.8564819904357
 30
0.0
 10
-11.992928
 20
51.8858919904357
 30
0.0
 10
-11.99473416666667
 20
51.89931015710237
 30
0.0
 10
-11.99654033333333
 20
51.91272832376902
 30
0.0
 10
-11.9983465
 20
51.9261464904357
 30
0.0
 10
-12.008515
 20
52.01842732376903
 30
0.0
 10
-12.0186835
 20
52.11070815710237
 30
0.0
 10
-12.028852
 20
52.2029889904357
 30
0.0
 10
-12.03766
 20
52.31452299043571
 30
0.0
 10
-12.046468
 20
52.4260569904357
 30
0.0
 10
-12.055276
 20
52.5375909904357
 30
0.0
 10
-12.06090533333334
 20
52.65093665710236
 30
0.0
 10
-12.06653466666667
 20
52.76428232376903
 30
0.0
 10
-12.072164
 20
52.87762799043571
 30
0.0
 10
-12.07366547183167
 20
52.93411422814737
 30
0.0
 10
-12.07516694366333
 20
52.99060046585904
 30
0.0
 10
-12.076668415495
 20
53.0470867035707
 30
0.0
 10
-12.07754371199
 20
53.0955407424957
 30
0.0
 10
-12.07862411194
 20
53.1923200664657
 30
0.0
 10
-12.07821075487
 20
53.3375113202857
 30
0.0
 10
-12.0762064546
 20
53.48272430630571
 30
0.0
 10
-12.07407969885
 20
53.5795325584657
 30
0.0
 10
-12.07287512818
 20
53.6279415365357
 30
0.0
 10
-12.07209450531
 20
53.6593130083157
 30
0.0
 10
-12.07041652549
 20
53.7220606378357
 30
0.0
 10
-12.06670266429
 20
53.8475694186857
 30
0.0
 10
-12.06131678335
 20
54.0044670167057
 30
0.0
 10
-12.05346426686
 20
54.19271771719571
 30
0.0
 10
-12.04750211882
 20
54.31819609267571
 30
0.0
 10
-12.0443699244
 20
54.38093113266571
 30
0.0
 10
-12.04049961725
 20
54.4584499077657
 30
0.0
 10
-12.03431386692
 20
54.5747095237957
 30
0.0
 10
-12.02498750843
 20
54.7296577835957
 30
0.0
 10
-12.01491228551
 20
54.8845465387457
 30
0.0
 10
-12.00103315111
 20
55.0780432295857
 30
0.0
 10
-11.98253445504
 20
55.3100496359057
 30
0.0
 10
-11.9619125007
 20
55.5417933809357
 30
0.0
 10
-11.93895452269
 20
55.7732097715957
 30
0.0
 10
-11.91352498632
 20
56.0042373868057
 30
0.0
 10
-11.89482532592
 20
56.15800872914571
 30
0.0
 10
-11.8850220137
 20
56.2348103249257
 30
0.0
 10
-11.87098647488
 20
56.3447682406857
 30
0.0
 10
-11.84104713441
 20
56.56430335574571
 30
0.0
 10
-11.79030974778
 20
56.8925049891057
 30
0.0
 10
-11.73395203198
 20
57.2192707225757
 30
0.0
 10
-11.67200690464
 20
57.5444517856657
 30
0.0
 10
-11.60442953113
 20
57.8678912329857
 30
0.0
 10
-11.531434915
 20
58.18947040186571
 30
0.0
 10
-11.453412117
 20
58.5090817260057
 30
0.0
 10
-11.39835478351
 20
58.7211176625157
 30
0.0
 10
-11.370149825325
 20
58.8268008728757
 30
0.0
 10
-11.36683321688334
 20
58.8391882453957
 30
0.0
 10
-11.36351660844167
 20
58.85157561791569
 30
0.0
 10
-11.3602
 20
58.8639629904357
 30
0.0
  0
SPLINE
  5
4B
330
1F
100
AcDbEntity
  8
2D
100
AcDbSpline
210
0.0
220
0.0
230
1.0
 70
     8
 71
     3
 72
   167
 73
   163
 74
     0
 42
0.0000000001
 43
0.0000000001
 40
0.0
 40
0.0
 40
0.0
 40
0.0
 40
1.0
 40
2.0
 40
3.0
 40
4.0
 40
5.0
 40
6.0
 40
7.0
 40
8.0
 40
9.0
 40
10.0
 40
11.0
 40
12.0
 40
13.0
 40
14.0
 40
15.0
 40
16.0
 40
17.0
 40
18.0
 40
19.0
 40
20.0
 40
21.0
 40
22.0
 40
23.0
 40
24.0
 40
25.0
 40
26.0
 40
27.0
 40
27.0
 40
27.0
 40
28.0
 40
28.0
 40
28.0
 40
29.0
 40
30.0
 40
31.0
 40
32.0
 40
33.0
 40
34.0
 40
35.0
 40
36.0
 40
37.0
 40
38.0
 40
39.0
 40
40.0
 40
41.0
 40
42.0
 40
43.0
 40
44.0
 40
45.0
 40
46.0
 40
47.0
 40
48.0
 40
49.0
 40
50.0
 40
51.0
 40
52.0
 40
53.0
 40
54.0
 40
55.0
 40
56.0
 40
57.0
 40
58.0
 40
59.0
 40
60.0
 40
61.0
 40
62.0
 40
63.0
 40
64.0
 40
65.0
 40
66.0
 40
67.0
 40
68.0
 40
69.0
 40
70.0
 40
71.0
 40
72.0
 40
73.0
 40
74.0
 40
75.0
 40
75.0
 40
75.0
 40
76.0
 40
77.0
 40
78.0
 40
79.0
 40
80.0
 40
81.0
 40
82.0
 40
83.0
 40
84.0
 40
85.0
 40
86.0
 40
87.0
 40
88.0
 40
89.0
 40
90.0
 40
91.0
 40
92.0
 40
93.0
 40
94.0
 40
95.0
 40
96.0
 40
97.0
 40
98.0
 40
99.0
 40
100.0
 40
101.0
 40
102.0
 40
103.0
 40
104.0
 40
105.0
 40
106.0
 40
107.0
 40
108.0
 40
109.0
 40
110.0
 40
111.0
 40
112.0
 40
113.0
 40
114.0
 40
115.0
 40
116.0
 40
117.0
 40
118.0
 40
119.0
 40
120.0
 40
121.0
 40
122.0
 40
122.0
 40
122.0
 40
123.0
 40
123.0
 40
123.0
 40
124.0
 40
125.0
 40
126.0
 40
127.0
 40
128.0
 40
129.0
 40
130.0
 40
131.0
 40
132.0
 40
133.0
 40
134.0
 40
135.0
 40
136.0
 40
137.0
 40
138.0
 40
139.0
 40
140.0
 40
141.0
 40
142.0
 40
143.0
 40
144.0
 40
145.0
 40
146.0
 40
147.0
 40
148.0
 40
149.0
 40
150.0
 40
150.0
 40
150.0
 40
150.0
 10
7.748797
 20
66.01383599043571
 30
0.0
 10
7.784859962583809
 20
65.93132298906393
 30
0.0
 10
7.830636733034291
 20
65.75646836491534
 30
0.0
 10
7.858652945077836
 20
65.48786890893659
 30
0.0
 10
7.867091294582438
 20
65.21822219379025
 30
0.0
 10
7.864026137588439
 20
64.9483729632472
 30
0.0
 10
7.850772196064607
 20
64.67928337818454
 30
0.0
 10
7.832587071146822
 20
64.40893919066964
 30
0.0
 10
7.794732575457151
 20
64.1458829986978
 30
0.0
 10
7.788869879828141
 20
63.8597488588284
 30
0.0
 10
7.558166938848351
 20
63.68483724095525
 30
0.0
 10
7.28163943237556
 20
63.6873141739737
 30
0.0
 10
7.014295256370466
 20
63.70632771454149
 30
0.0
 10
6.746284847529093
 20
63.74140830072083
 30
0.0
 10
6.480812464275906
 20
63.78853624564747
 30
0.0
 10
6.215698200582542
 20
63.83843876399273
 30
0.0
 10
5.952410042489947
 20
63.89708536201977
 30
0.0
 10
5.689803791364382
 20
63.95862074131006
 30
0.0
 10
5.427032088051383
 20
64.01946622493816
 30
0.0
 10
5.163465081718337
 20
64.07681213388237
 30
0.0
 10
4.901443606489456
 20
64.14092887872903
 30
0.0
 10
4.637456075167614
 20
64.19632208590198
 30
0.0
 10
4.374425953412974
 20
64.25604830089115
 30
0.0
 10
4.111342088395355
 20
64.31551327921434
 30
0.0
 10
3.848484670150806
 20
64.37598625650865
 30
0.0
 10
3.585578854163466
 20
64.43621466516534
 30
0.0
 10
3.322617070574523
 20
64.49631256941443
 30
0.0
 10
3.060204107342005
 20
64.5583788086103
 30
0.0
 10
2.88496790564529
 20
64.59946064391468
 30
0.0
 10
2.798870491680002
 20
64.6246054792657
 30
0.0
 10
2.78002801866435
 20
64.63010844224407
 30
0.0
 10
2.765841616590502
 20
64.57605935102954
 30
0.0
 10
2.783615000000001
 20
64.5677269904357
 30
0.0
 10
2.923456696785114
 20
64.50216764155866
 30
0.0
 10
3.20419530811196
 20
64.37330694971622
 30
0.0
 10
3.628197051762138
 20
64.18645515129901
 30
0.0
 10
4.053993558821945
 20
64.00375031351184
 30
0.0
 10
4.480783690695939
 20
63.82338014484118
 30
0.0
 10
4.90764019622666
 20
63.64317047867009
 30
0.0
 10
5.333583141059503
 20
63.46080653954284
 30
0.0
 10
5.757532518820096
 20
63.27382424070098
 30
0.0
 10
6.178296032347779
 20
63.07979218565008
 30
0.0
 10
6.595865394380036
 20
62.87890679764313
 30
0.0
 10
7.00800744495225
 20
62.66720441904521
 30
0.0
 10
7.413965893275228
 20
62.44338928275268
 30
0.0
 10
7.802903693017969
 20
62.19134316760123
 30
0.0
 10
8.196470562787825
 20
61.94690700441792
 30
0.0
 10
8.621773308638883
 20
61.75619579072077
 30
0.0
 10
9.071740890514981
 20
61.65140951345524
 30
0.0
 10
9.558402990648716
 20
61.67259027051226
 30
0.0
 10
9.869191978691823
 20
62.06244607122836
 30
0.0
 10
9.887282387618544
 20
62.53621819278762
 30
0.0
 10
9.904552310212656
 20
62.99636999604413
 30
0.0
 10
9.893448369067416
 20
63.46054692519264
 30
0.0
 10
9.871140229104773
 20
63.92313836786569
 30
0.0
 10
9.83288845033225
 20
64.38504899354
 30
0.0
 10
9.777513986663854
 20
64.84510914855117
 30
0.0
 10
9.699278506466536
 20
65.30213469942235
 30
0.0
 10
9.58264088892335
 20
65.75083922779486
 30
0.0
 10
9.38225731799734
 20
66.17493151154692
 30
0.0
 10
9.040995177986948
 20
66.49792906918744
 30
0.0
 10
8.632857812071421
 20
66.72074706247356
 30
0.0
 10
8.205435088371793
 20
66.89995548968263
 30
0.0
 10
7.768879976121659
 20
67.05560424731746
 30
0.0
 10
7.326530540716202
 20
67.19367147086945
 30
0.0
 10
6.880378553076717
 20
67.31881129694943
 30
0.0
 10
6.431698925318858
 20
67.43450690698585
 30
0.0
 10
5.98110254703269
 20
67.54250086732006
 30
0.0
 10
5.528325640599378
 20
67.6409998786363
 30
0.0
 10
5.073299203489646
 20
67.72851648281708
 30
0.0
 10
4.616451422431548
 20
67.80595670888097
 30
0.0
 10
4.158006974793826
 20
67.87330116922912
 30
0.0
 10
3.698344678630997
 20
67.93169333737987
 30
0.0
 10
3.237754276301865
 20
67.98219642489005
 30
0.0
 10
2.776463958484134
 20
68.02585251094766
 30
0.0
 10
2.314567313198386
 20
68.0625351759528
 30
0.0
 10
1.852230630433334
 20
68.09308946046913
 30
0.0
 10
1.389546306618102
 20
68.1178209825896
 30
0.0
 10
0.9265441132909282
 20
68.13582686031292
 30
0.0
 10
0.4633335852393569
 20
68.14699761292817
 30
0.0
 10
0.1544458768812681
 20
68.14975291628896
 30
0.0
 10
0.0
 20
68.1500229904357
 30
0.0
 10
-0.1544458768812681
 20
68.14975291628896
 30
0.0
 10
-0.4633335852393569
 20
68.14699761292817
 30
0.0
 10
-0.9265441132909282
 20
68.13582686031292
 30
0.0
 10
-1.389546306618102
 20
68.1178209825896
 30
0.0
 10
-1.852230630433334
 20
68.09308946046913
 30
0.0
 10
-2.314567313198386
 20
68.0625351759528
 30
0.0
 10
-2.776463958484134
 20
68.02585251094766
 30
0.0
 10
-3.237754276301865
 20
67.98219642489005
 30
0.0
 10
-3.698344678630997
 20
67.93169333737987
 30
0.0
 10
-4.158006974793826
 20
67.87330116922912
 30
0.0
 10
-4.616451422431548
 20
67.80595670888097
 30
0.0
 10
-5.073299203489646
 20
67.72851648281708
 30
0.0
 10
-5.528325640599378
 20
67.6409998786363
 30
0.0
 10
-5.98110254703269
 20
67.54250086732006
 30
0.0
 10
-6.431698925318858
 20
67.43450690698585
 30
0.0
 10
-6.880378553076717
 20
67.31881129694943
 30
0.0
 10
-7.326530540716202
 20
67.19367147086945
 30
0.0
 10
-7.768879976121659
 20
67.05560424731746
 30
0.0
 10
-8.205435088371793
 20
66.89995548968263
 30
0.0
 10
-8.632857812071421
 20
66.72074706247356
 30
0.0
 10
-9.040995177986948
 20
66.49792906918744
 30
0.0
 10
-9.38225731799734
 20
66.17493151154692
 30
0.0
 10
-9.58264088892335
 20
65.75083922779486
 30
0.0
 10
-9.699278506466536
 20
65.30213469942235
 30
0.0
 10
-9.777513986663854
 20
64.84510914855117
 30
0.0
 10
-9.83288845033225
 20
64.38504899354
 30
0.0
 10
-9.871140229104773
 20
63.92313836786569
 30
0.0
 10
-9.893448369067416
 20
63.46054692519264
 30
0.0
 10
-9.904552310212656
 20
62.99636999604413
 30
0.0
 10
-9.887282387618544
 20
62.53621819278762
 30
0.0
 10
-9.869191978691823
 20
62.06244607122836
 30
0.0
 10
-9.558402990648716
 20
61.67259027051226
 30
0.0
 10
-9.071740890514981
 20
61.65140951345524
 30
0.0
 10
-8.621773308638883
 20
61.75619579072077
 30
0.0
 10
-8.196470562787825
 20
61.94690700441792
 30
0.0
 10
-7.802903693017969
 20
62.19134316760123
 30
0.0
 10
-7.413965893275228
 20
62.44338928275268
 30
0.0
 10
-7.00800744495225
 20
62.66720441904521
 30
0.0
 10
-6.595865394380036
 20
62.87890679764313
 30
0.0
 10
-6.178296032347779
 20
63.07979218565008
 30
0.0
 10
-5.757532518820096
 20
63.27382424070098
 30
0.0
 10
-5.333583141059503
 20
63.46080653954284
 30
0.0
 10
-4.90764019622666
 20
63.64317047867009
 30
0.0
 10
-4.480783690695939
 20
63.82338014484118
 30
0.0
 10
-4.053993558821945
 20
64.00375031351184
 30
0.0
 10
-3.628197051762138
 20
64.18645515129901
 30
0.0
 10
-3.20419530811196
 20
64.37330694971622
 30
0.0
 10
-2.923456696785114
 20
64.50216764155866
 30
0.0
 10
-2.783615000000001
 20
64.5677269904357
 30
0.0
 10
-2.765841616590502
 20
64.57605935102954
 30
0.0
 10
-2.78002801866435
 20
64.63010844224407
 30
0.0
 10
-2.798870491680002
 20
64.6246054792657
 30
0.0
 10
-2.88496790564529
 20
64.59946064391468
 30
0.0
 10
-3.060204107342005
 20
64.5583788086103
 30
0.0
 10
-3.322617070574523
 20
64.49631256941443
 30
0.0
 10
-3.585578854163466
 20
64.43621466516534
 30
0.0
 10
-3.848484670150806
 20
64.37598625650865
 30
0.0
 10
-4.111342088395355
 20
64.31551327921434
 30
0.0
 10
-4.374425953412974
 20
64.25604830089115
 30
0.0
 10
-4.637456075167614
 20
64.19632208590198
 30
0.0
 10
-4.901443606489456
 20
64.14092887872903
 30
0.0
 10
-5.163465081718337
 20
64.07681213388237
 30
0.0
 10
-5.427032088051383
 20
64.01946622493816
 30
0.0
 10
-5.689803791364382
 20
63.95862074131006
 30
0.0
 10
-5.952410042489947
 20
63.89708536201977
 30
0.0
 10
-6.215698200582542
 20
63.83843876399273
 30
0.0
 10
-6.480812464275906
 20
63.78853624564747
 30
0.0
 10
-6.746284847529093
 20
63.74140830072083
 30
0.0
 10
-7.014295256370466
 20
63.70632771454149
 30
0.0
 10
-7.28163943237556
 20
63.6873141739737
 30
0.0
 10
-7.558166938848351
 20
63.68483724095525
 30
0.0
 10
-7.788869879828141
 20
63.8597488588284
 30
0.0
 10
-7.794732575457151
 20
64.1458829986978
 30
0.0
 10
-7.832587071146822
 20
64.40893919066964
 30
0.0
 10
-7.850772196064607
 20
64.67928337818454
 30
0.0
 10
-7.864026137588439
 20
64.9483729632472
 30
0.0
 10
-7.867091294582438
 20
65.21822219379025
 30
0.0
 10
-7.858652945077836
 20
65.48786890893659
 30
0.0
 10
-7.830636733034291
 20
65.75646836491534
 30
0.0
 10
-7.784859962583809
 20
65.93132298906393
 30
0.0
 10
-7.748797
 20
66.01383599043571
 30
0.0
  0
SPLINE
  5
4C
330
1F
100
AcDbEntity
  8
2D
100
AcDbSpline
210
0.0
220
0.0
230
1.0
 70
     8
 71
     3
 72
     8
 73
     4
 74
     0
 42
0.0000000001
 43
0.0000000001
 40
0.0
 40
0.0
 40
0.0
 40
0.0
 40
1.0
 40
1.0
 40
1.0
 40
1.0
 10
-9.630821000000001
 20
59.9992889904357
 30
0.0
 10
-9.806275056424559
 20
59.98158933595219
 30
0.0
 10
-9.980677546673897
 20
59.95158151899036
 30
0.0
 10
-10.151008
 20
59.9057349904357
 30
0.0
  0
SPLINE
  5
4D
330
1F
100
AcDbEntity
  8
2D
100
AcDbSpline
210
0.0
220
0.0
230
1.0
 70
    12
 71
     2
 72
    12
 73
     9
 74
     0
 42
0.0000000001
 43
0.0000000001
 40
-2.562121047927937
 40
-2.562121047927937
 40
-2.562121047927937
 40
-1.570796326794897
 40
-1.570796326794897
 40
-0.5707963267948966
 40
-0.5707963267948966
 40
0.4292036732051034
 40
0.4292036732051034
 40
1.420528394338144
 40
1.420528394338144
 40
1.420528394338144
 10
-8.970205205747147
 20
66.52441812507942
 30
0.0
 41
1.0
 10
-7.637960258086945
 20
68.5602027445479
 30
0.0
 41
0.8796538745949621
 10
-5.205000000000002
 20
68.56020274454788
 30
0.0
 41
1.0
 10
-2.602500000000001
 20
68.5602028674918
 30
0.0
 41
1.0
 10
0.0
 20
68.5602029904357
 30
0.0
 41
1.0
 10
2.602500000000001
 20
68.5602028674918
 30
0.0
 41
1.0
 10
5.205000000000002
 20
68.56020274454788
 30
0.0
 41
1.0
 10
7.637960258086945
 20
68.5602027445479
 30
0.0
 41
0.8796538745949621
 10
8.970205205747147
 20
66.52441812507942
 30
0.0
 41
1.0
  0
SPLINE
  5
4E
330
1F
100
AcDbEntity
  8
2D
100
AcDbSpline
210
0.0
220
0.0
230
1.0
 70
     8
 71
     2
 72
    96
 73
    93
 74
     0
 42
0.0000000001
 43
0.0000000001
 40
0.0
 40
0.0
 40
0.0
 40
1.0
 40
1.0
 40
1.997044618257766
 40
1.997044618257766
 40
2.997304192228556
 40
2.997304192228556
 40
3.997563766199346
 40
3.997563766199346
 40
4.997823340170136
 40
4.997823340170136
 40
5.998082914140926
 40
5.998082914140926
 40
6.998342488111716
 40
6.998342488111716
 40
7.998602062082505
 40
7.998602062082505
 40
8.998861636053295
 40
8.998861636053295
 40
9.999121210024084
 40
9.999121210024084
 40
10.99938078399487
 40
10.99938078399487
 40
11.99964035796567
 40
11.99964035796567
 40
12.99989993193646
 40
12.99989993193646
 40
14.00015950590725
 40
14.00015950590725
 40
15.00041907987803
 40
15.00041907987803
 40
16.00067865384882
 40
16.00067865384882
 40
17.00093822781961
 40
17.00093822781961
 40
18.00119780179041
 40
18.00119780179041
 40
19.00145737576119
 40
19.00145737576119
 40
20.00171694973199
 40
20.00171694973199
 40
21.00197652370277
 40
21.00197652370277
 40
22.0
 40
22.0
 40
23.0
 40
23.0
 40
24.0
 40
24.0
 40
25.00015279765235
 40
25.00015279765235
 40
26.0003055953047
 40
26.0003055953047
 40
27.00045839295705
 40
27.00045839295705
 40
28.0006111906094
 40
28.0006111906094
 40
29.00076398826175
 40
29.00076398826175
 40
30.0009167859141
 40
30.0009167859141
 40
31.00106958356645
 40
31.00106958356645
 40
32.00122238121881
 40
32.00122238121881
 40
33.00137517887116
 40
33.00137517887116
 40
34.00152797652351
 40
34.00152797652351
 40
35.00168077417586
 40
35.00168077417586
 40
36.00183357182821
 40
36.00183357182821
 40
37.00198636948056
 40
37.00198636948056
 40
38.00213916713291
 40
38.00213916713291
 40
39.00229196478526
 40
39.00229196478526
 40
40.00244476243762
 40
40.00244476243762
 40
41.00259756008997
 40
41.00259756008997
 40
42.00275035774231
 40
42.00275035774231
 40
43.00290315539466
 40
43.00290315539466
 40
44.00305595304702
 40
44.00305595304702
 40
45.0
 40
45.0
 40
46.0
 40
46.0
 40
46.0
 10
-5.361223000000003
 20
68.5566099904357
 30
0.0
 10
-5.377098000000002
 20
68.6382797404357
 30
0.0
 10
-5.392973000000001
 20
68.7199494904357
 30
0.0
 10
-5.393116000000001
 20
68.7206497404357
 30
0.0
 10
-5.393259
 20
68.7213499904357
 30
0.0
 10
-5.3938825
 20
68.7238504904357
 30
0.0
 10
-5.394506
 20
68.7263509904357
 30
0.0
 10
-5.395322500000001
 20
68.7288699904357
 30
0.0
 10
-5.396139000000002
 20
68.7313889904357
 30
0.0
 10
-5.397164000000002
 20
68.7339159904357
 30
0.0
 10
-5.398189000000002
 20
68.7364429904357
 30
0.0
 10
-5.399433500000002
 20
68.7389544904357
 30
0.0
 10
-5.400678000000003
 20
68.7414659904357
 30
0.0
 10
-5.402140000000003
 20
68.7439224904357
 30
0.0
 10
-5.403602000000003
 20
68.7463789904357
 30
0.0
 10
-5.405286000000002
 20
68.7487579904357
 30
0.0
 10
-5.406970000000001
 20
68.7511369904357
 30
0.0
 10
-5.408877
 20
68.75341699043571
 30
0.0
 10
-5.410784
 20
68.75569699043571
 30
0.0
 10
-5.412901
 20
68.75784199043571
 30
0.0
 10
-5.415018
 20
68.7599869904357
 30
0.0
 10
-5.417342
 20
68.7619774904357
 30
0.0
 10
-5.419665999999999
 20
68.7639679904357
 30
0.0
 10
-5.422185499999999
 20
68.76577849043571
 30
0.0
 10
-5.424704999999999
 20
68.7675889904357
 30
0.0
 10
-5.427379500000001
 20
68.7691824904357
 30
0.0
 10
-5.430054000000002
 20
68.77077599043571
 30
0.0
 10
-5.432867500000002
 20
68.7721394904357
 30
0.0
 10
-5.435681000000002
 20
68.7735029904357
 30
0.0
 10
-5.438614000000001
 20
68.7746234904357
 30
0.0
 10
-5.441547
 20
68.7757439904357
 30
0.0
 10
-5.444544
 20
68.7766014904357
 30
0.0
 10
-5.447541000000001
 20
68.7774589904357
 30
0.0
 10
-5.450584500000001
 20
68.7780544904357
 30
0.0
 10
-5.453628000000002
 20
68.7786499904357
 30
0.0
 10
-5.456692000000002
 20
68.7789844904357
 30
0.0
 10
-5.459756000000002
 20
68.7793189904357
 30
0.0
 10
-5.462769500000002
 20
68.7793964904357
 30
0.0
 10
-5.465783000000002
 20
68.7794739904357
 30
0.0
 10
-5.468712500000002
 20
68.7793139904357
 30
0.0
 10
-5.471642000000003
 20
68.7791539904357
 30
0.0
 10
-5.474489500000002
 20
68.7787744904357
 30
0.0
 10
-5.477337000000002
 20
68.7783949904357
 30
0.0
 10
-5.478132250000002
 20
68.7782489904357
 30
0.0
 10
-5.478927500000003
 20
68.7781029904357
 30
0.0
 10
-6.130402500000002
 20
68.6514689904357
 30
0.0
 10
-6.781877500000002
 20
68.5248349904357
 30
0.0
 10
-6.781873000000002
 20
68.5248359904357
 30
0.0
 10
-6.781868500000002
 20
68.5248369904357
 30
0.0
 10
-6.782665250000001
 20
68.5246734904357
 30
0.0
 10
-6.783462
 20
68.5245099904357
 30
0.0
 10
-6.786246500000001
 20
68.5237939904357
 30
0.0
 10
-6.789031000000001
 20
68.5230779904357
 30
0.0
 10
-6.791808500000002
 20
68.5221284904357
 30
0.0
 10
-6.794586000000002
 20
68.5211789904357
 30
0.0
 10
-6.797352500000002
 20
68.51997699043571
 30
0.0
 10
-6.800119000000002
 20
68.5187749904357
 30
0.0
 10
-6.802835000000002
 20
68.51731549043569
 30
0.0
 10
-6.805551000000001
 20
68.5158559904357
 30
0.0
 10
-6.808150000000001
 20
68.5141624904357
 30
0.0
 10
-6.810749000000001
 20
68.5124689904357
 30
0.0
 10
-6.813206000000001
 20
68.5105509904357
 30
0.0
 10
-6.815663000000001
 20
68.5086329904357
 30
0.0
 10
-6.817961500000001
 20
68.5064954904357
 30
0.0
 10
-6.820260000000001
 20
68.50435799043571
 30
0.0
 10
-6.822357000000002
 20
68.5020394904357
 30
0.0
 10
-6.824454000000003
 20
68.4997209904357
 30
0.0
 10
-6.826336000000001
 20
68.4972419904357
 30
0.0
 10
-6.828218
 20
68.4947629904357
 30
0.0
 10
-6.829874
 20
68.4921409904357
 30
0.0
 10
-6.831530000000001
 20
68.4895189904357
 30
0.0
 10
-6.832938500000001
 20
68.4868034904357
 30
0.0
 10
-6.834347000000001
 20
68.4840879904357
 30
0.0
 10
-6.835505500000002
 20
68.48130799043571
 30
0.0
 10
-6.836664000000003
 20
68.47852799043571
 30
0.0
 10
-6.837577500000002
 20
68.47570049043571
 30
0.0
 10
-6.838491000000001
 20
68.4728729904357
 30
0.0
 10
-6.839160000000001
 20
68.47003799043571
 30
0.0
 10
-6.839829000000002
 20
68.46720299043571
 30
0.0
 10
-6.840264500000002
 20
68.4643784904357
 30
0.0
 10
-6.840700000000002
 20
68.4615539904357
 30
0.0
 10
-6.840913000000002
 20
68.45876049043571
 30
0.0
 10
-6.841126000000003
 20
68.4559669904357
 30
0.0
 10
-6.841130000000001
 20
68.45323949043569
 30
0.0
 10
-6.841134
 20
68.4505119904357
 30
0.0
 10
-6.8409475
 20
68.4478709904357
 30
0.0
 10
-6.840761000000001
 20
68.4452299904357
 30
0.0
 10
-6.840402500000001
 20
68.4426774904357
 30
0.0
 10
-6.840044000000002
 20
68.4401249904357
 30
0.0
 10
-6.839914000000002
 20
68.4394212404357
 30
0.0
 10
-6.839784000000002
 20
68.4387174904357
 30
0.0
 10
-6.822791000000002
 20
68.3512952404357
 30
0.0
 10
-6.805798000000003
 20
68.2638729904357
 30
0.0
  0
SPLINE
  5
4F
330
1F
100
AcDbEntity
  8
2D
100
AcDbSpline
210
0.0
220
0.0
230
1.0
 70
     8
 71
     3
 72
    24
 73
    20
 74
     0
 42
0.0000000001
 43
0.0000000001
 40
0.0
 40
0.0
 40
0.0
 40
0.0
 40
1.0
 40
2.0
 40
3.0
 40
4.0
 40
5.0
 40
6.0
 40
7.0
 40
8.0
 40
9.0
 40
10.0
 40
11.0
 40
12.0
 40
13.0
 40
14.0
 40
15.0
 40
16.0
 40
17.0
 40
17.0
 40
17.0
 40
17.0
 10
-9.135685000000002
 20
25.72146641417338
 30
0.0
 10
-9.18015098289305
 20
25.69883069592221
 30
0.0
 10
-9.282404907784139
 20
25.64265239577393
 30
0.0
 10
-9.431667420331335
 20
25.5629934854926
 30
0.0
 10
-9.598843422697282
 20
25.5257161689411
 30
0.0
 10
-9.76605440360299
 20
25.49785301032612
 30
0.0
 10
-9.93480057378283
 20
25.47746301502643
 30
0.0
 10
-10.1039358618115
 20
25.46215469783268
 30
0.0
 10
-10.27343117487512
 20
25.45100621737616
 30
0.0
 10
-10.44314425346956
 20
25.44400702539279
 30
0.0
 10
-10.61296458216987
 20
25.44094854991227
 30
0.0
 10
-10.78282429516266
 20
25.44112747241732
 30
0.0
 10
-10.95260542458682
 20
25.44590880955941
 30
0.0
 10
-11.12228347916889
 20
25.45428886931225
 30
0.0
 10
-11.29151135747812
 20
25.46743280713435
 30
0.0
 10
-11.46084855048183
 20
25.48588957812706
 30
0.0
 10
-11.62682922300732
 20
25.51337141031453
 30
0.0
 10
-11.799168718694
 20
25.54896835786005
 30
0.0
 10
-11.88395536101032
 20
25.6122933882497
 30
0.0
 10
-11.921249
 20
25.65756441417338
 30
0.0
  0
SPLINE
  5
50
330
1F
100
AcDbEntity
  8
2D
100
AcDbSpline
210
0.0
220
0.0
230
1.0
 70
     8
 71
     3
 72
     9
 73
     5
 74
     0
 42
0.0000000001
 43
0.0000000001
 40
0.0
 40
0.0
 40
0.0
 40
0.0
 40
1.0
 40
2.0
 40
2.0
 40
2.0
 40
2.0
 10
-11.024007
 20
25.22409041417338
 30
0.0
 10
-11.10498582044215
 20
25.25106789906129
 30
0.0
 10
-11.25529735850259
 20
25.33343521642881
 30
0.0
 10
-11.38781828481581
 20
25.44089278226647
 30
0.0
 10
-11.459313
 20
25.48725441417338
 30
0.0
  0
SPLINE
  5
51
330
1F
100
AcDbEntity
  8
2D
100
AcDbSpline
210
0.0
220
0.0
230
1.0
 70
    15
 71
     3
 72
    35
 73
    31
 74
     0
 42
0.0000000001
 43
0.0000000001
 40
-1.321633493038226
 40
-1.321633493038226
 40
-1.321633493038226
 40
-1.321633493038226
 40
-0.6608167465191129
 40
-0.6608167465191129
 40
-0.6608167465191129
 40
0.0
 40
0.0
 40
0.0
 40
1.0
 40
2.0
 40
3.0
 40
4.0
 40
5.0
 40
6.0
 40
7.0
 40
7.0
 40
7.0
 40
8.0
 40
8.0
 40
8.0
 40
9.0
 40
9.0
 40
9.0
 40
10.0
 40
11.0
 40
12.0
 40
13.0
 40
14.0
 40
15.0
 40
16.0
 40
16.0
 40
16.0
 40
16.0
 10
-9.405746000000004
 20
1.25916841417338
 30
0.0
 41
1.0
 10
-9.482647416591382
 20
1.0364447054867
 30
0.0
 41
0.8762412402947118
 10
-9.67453235907988
 20
0.8996973211201378
 30
0.0
 41
0.8762412402947118
 10
-9.910158500000003
 20
0.8996973211201378
 30
0.0
 41
1.0
 10
-10.14578464092013
 20
0.8996973211201376
 30
0.0
 41
0.8762412402947118
 10
-10.33766958340862
 20
1.036444705486699
 30
0.0
 41
0.8762412402947118
 10
-10.414571
 20
1.25916841417338
 30
0.0
 41
1.0
 10
-10.48071526034578
 20
1.2730965673509
 30
0.0
 41
1.0
 10
-10.56167829374923
 20
1.177571861766624
 30
0.0
 41
1.0
 10
-10.58901980119744
 20
1.001976730614469
 30
0.0
 41
1.0
 10
-10.62726484393235
 20
0.8315799756052499
 30
0.0
 41
1.0
 10
-10.64996539348969
 20
0.6574765954839428
 30
0.0
 41
1.0
 10
-10.65775518576206
 20
0.4821353907233189
 30
0.0
 41
1.0
 10
-10.67353315517792
 20
0.308797121578667
 30
0.0
 41
1.0
 10
-10.62886138446044
 20
0.1871895326416624
 30
0.0
 41
1.0
 10
-10.5591805
 20
0.1891546562883034
 30
0.0
 41
1.0
 10
-10.10732666666667
 20
0.1891545704467155
 30
0.0
 41
1.0
 10
-9.655472833333333
 20
0.1891544846051275
 30
0.0
 41
1.0
 10
-9.203619
 20
0.1891543987635396
 30
0.0
 41
1.0
 10
-9.151392685479069
 20
0.187784875344076
 30
0.0
 41
1.0
 10
-9.104157171957345
 20
0.2335662161833844
 30
0.0
 41
1.0
 10
-9.103580000000001
 20
0.28575841417338
 30
0.0
 41
1.0
 10
-9.103256833959865
 20
0.3149815005271254
 30
0.0
 41
1.0
 10
-9.178208766266215
 20
0.8268737964594294
 30
0.0
 41
1.0
 10
-9.199700520030035
 20
0.9131729901789423
 30
0.0
 41
1.0
 10
-9.221819231263952
 20
0.9993874910636383
 30
0.0
 41
1.0
 10
-9.246756066300698
 20
1.085108633709408
 30
0.0
 41
1.0
 10
-9.269461243969841
 20
1.170263877762511
 30
0.0
 41
1.0
 10
-9.309650501402311
 20
1.254837938796737
 30
0.0
 41
1.0
 10
-9.377273104781066
 20
1.261052016325125
 30
0.0
 41
1.0
 10
-9.405746000000002
 20
1.259168414173381
 30
0.0
 41
1.0
  0
SPLINE
  5
52
330
1F
100
AcDbEntity
  8
2D
100
AcDbSpline
210
0.0
220
0.0
230
1.0
 70
     8
 71
     2
 72
   260
 73
   257
 74
     0
 42
0.0000000001
 43
0.0000000001
 40
0.0
 40
0.0
 40
0.0
 40
1.0
 40
1.0
 40
2.0
 40
2.0
 40
3.0
 40
3.0
 40
4.0
 40
4.0
 40
5.0
 40
5.0
 40
6.0
 40
6.0
 40
7.0
 40
7.0
 40
8.0
 40
8.0
 40
9.0
 40
9.0
 40
10.0
 40
10.0
 40
11.0
 40
11.0
 40
12.0
 40
12.0
 40
13.0
 40
13.0
 40
14.0
 40
14.0
 40
15.0
 40
15.0
 40
16.0
 40
16.0
 40
17.0
 40
17.0
 40
18.0
 40
18.0
 40
19.0
 40
19.0
 40
20.0
 40
20.0
 40
21.0
 40
21.0
 40
22.0
 40
22.0
 40
23.0
 40
23.0
 40
24.0
 40
24.0
 40
25.0
 40
25.0
 40
26.0
 40
26.0
 40
27.00001082251111
 40
27.00001082251111
 40
28.00002164502222
 40
28.00002164502222
 40
29.00003246753332
 40
29.00003246753332
 40
30.0
 40
30.0
 40
30.99998823803537
 40
30.99998823803537
 40
31.99999137796988
 40
31.99999137796988
 40
32.99999451790438
 40
32.99999451790438
 40
33.99999765783888
 40
33.99999765783888
 40
35.00000079777338
 40
35.00000079777338
 40
36.00000393770788
 40
36.00000393770788
 40
37.0
 40
37.0
 40
37.99999554264998
 40
37.99999554264998
 40
38.99999609981874
 40
38.99999609981874
 40
39.99999665698748
 40
39.99999665698748
 40
40.99999721415624
 40
40.99999721415624
 40
41.99999777132499
 40
41.99999777132499
 40
42.99999832849375
 40
42.99999832849375
 40
43.99999888566249
 40
43.99999888566249
 40
44.99999944283125
 40
44.99999944283125
 40
46.0
 40
46.0
 40
47.00000002809247
 40
47.00000002809247
 40
48.00000005618494
 40
48.00000005618494
 40
49.00000008427742
 40
49.00000008427742
 40
50.00000011236989
 40
50.00000011236989
 40
51.00000014046237
 40
51.00000014046237
 40
52.00000016855484
 40
52.00000016855484
 40
53.00000019664731
 40
53.00000019664731
 40
54.00000022473979
 40
54.00000022473979
 40
55.0
 40
55.0
 40
55.99999811572547
 40
55.99999811572547
 40
56.99999835125978
 40
56.99999835125978
 40
57.9999985867941
 40
57.9999985867941
 40
58.99999882232841
 40
58.99999882232841
 40
59.99999905786273
 40
59.99999905786273
 40
60.99999929339705
 40
60.99999929339705
 40
61.99999952893137
 40
61.99999952893137
 40
62.99999976446568
 40
62.99999976446568
 40
64.0
 40
64.0
 40
65.00000023553432
 40
65.00000023553432
 40
66.00000047106863
 40
66.00000047106863
 40
67.00000070660295
 40
67.00000070660295
 40
68.00000094213726
 40
68.00000094213726
 40
69.00000117767158
 40
69.00000117767158
 40
70.0000014132059
 40
70.0000014132059
 40
71.00000164874021
 40
71.00000164874021
 40
72.00000188427452
 40
72.00000188427452
 40
73.0
 40
73.0
 40
73.99999977526022
 40
73.99999977526022
 40
74.9999998033527
 40
74.9999998033527
 40
75.99999983144517
 40
75.99999983144517
 40
76.99999985953764
 40
76.99999985953764
 40
77.99999988763011
 40
77.99999988763011
 40
78.99999991572258
 40
78.99999991572258
 40
79.99999994381506
 40
79.99999994381506
 40
80.99999997190753
 40
80.99999997190753
 40
82.0
 40
82.0
 40
83.00000055716876
 40
83.00000055716876
 40
84.00000111433751
 40
84.00000111433751
 40
85.00000167150625
 40
85.00000167150625
 40
86.00000222867502
 40
86.00000222867502
 40
87.00000278584376
 40
87.00000278584376
 40
88.00000334301251
 40
88.00000334301251
 40
89.00000390018127
 40
89.00000390018127
 40
90.00000445735002
 40
90.00000445735002
 40
91.0
 40
91.0
 40
91.99999606229213
 40
91.99999606229213
 40
92.99999920222662
 40
92.99999920222662
 40
94.00000234216112
 40
94.00000234216112
 40
95.00000548209562
 40
95.00000548209562
 40
96.00000862203012
 40
96.00000862203012
 40
97.00001176196463
 40
97.00001176196463
 40
98.0
 40
98.0
 40
98.99996753246668
 40
98.99996753246668
 40
99.99997835497778
 40
99.99997835497778
 40
100.9999891774889
 40
100.9999891774889
 40
102.0
 40
102.0
 40
103.0
 40
103.0
 40
104.0
 40
104.0
 40
105.0
 40
105.0
 40
106.0
 40
106.0
 40
107.0
 40
107.0
 40
108.0
 40
108.0
 40
109.0
 40
109.0
 40
110.0
 40
110.0
 40
111.0
 40
111.0
 40
112.0
 40
112.0
 40
113.0
 40
113.0
 40
114.0
 40
114.0
 40
115.0
 40
115.0
 40
116.0
 40
116.0
 40
117.0
 40
117.0
 40
118.0
 40
118.0
 40
119.0
 40
119.0
 40
120.0
 40
120.0
 40
121.0
 40
121.0
 40
122.0
 40
122.0
 40
123.0
 40
123.0
 40
124.0
 40
124.0
 40
125.0
 40
125.0
 40
126.0
 40
126.0
 40
127.0
 40
127.0
 40
128.0
 40
128.0
 40
128.0
 10
-10.549578
 20
50.6910579904357
 30
0.0
 10
-10.5431905
 20
50.6073399904357
 30
0.0
 10
-10.536803
 20
50.5236219904357
 30
0.0
 10
-10.518777
 20
50.3409369904357
 30
0.0
 10
-10.500751
 20
50.1582519904357
 30
0.0
 10
-10.47871
 20
49.9804139904357
 30
0.0
 10
-10.456669
 20
49.8025759904357
 30
0.0
 10
-10.42733458643657
 20
49.60359151522274
 30
0.0
 10
-10.39800017287314
 20
49.40460704000978
 30
0.0
 10
-10.36987883643657
 20
49.26560376522274
 30
0.0
 10
-10.3417575
 20
49.12660049043571
 30
0.0
 10
-10.32498911497403
 20
49.04371465615975
 30
0.0
 10
-10.30822072994806
 20
48.9608288218838
 30
0.0
 10
-10.28221786497403
 20
48.85541140615975
 30
0.0
 10
-10.256215
 20
48.7499939904357
 30
0.0
 10
-10.2361965
 20
48.67426299043571
 30
0.0
 10
-10.216178
 20
48.5985319904357
 30
0.0
 10
-10.195111
 20
48.5262049904357
 30
0.0
 10
-10.174044
 20
48.4538779904357
 30
0.0
 10
-10.1517435
 20
48.3847604904357
 30
0.0
 10
-10.129443
 20
48.31564299043571
 30
0.0
 10
-10.105858
 20
48.25007549043571
 30
0.0
 10
-10.082273
 20
48.1845079904357
 30
0.0
 10
-10.057162
 20
48.12248549043571
 30
0.0
 10
-10.032051
 20
48.0604629904357
 30
0.0
 10
-10.0048215
 20
48.00152749043571
 30
0.0
 10
-9.977592000000001
 20
47.9425919904357
 30
0.0
 10
-9.9478065
 20
47.8869084904357
 30
0.0
 10
-9.918021
 20
47.8312249904357
 30
0.0
 10
-9.885892
 20
47.77955199043571
 30
0.0
 10
-9.853763
 20
47.72787899043571
 30
0.0
 10
-9.819536000000001
 20
47.6807384904357
 30
0.0
 10
-9.785309000000002
 20
47.6335979904357
 30
0.0
 10
-9.748587500000001
 20
47.5908379904357
 30
0.0
 10
-9.711866
 20
47.5480779904357
 30
0.0
 10
-9.671840000000001
 20
47.5092319904357
 30
0.0
 10
-9.631814000000002
 20
47.4703859904357
 30
0.0
 10
-9.5880915
 20
47.43519999043571
 30
0.0
 10
-9.544369
 20
47.4000139904357
 30
0.0
 10
-9.497203
 20
47.3684789904357
 30
0.0
 10
-9.450037000000002
 20
47.3369439904357
 30
0.0
 10
-9.399104500000002
 20
47.3085549904357
 30
0.0
 10
-9.348172000000002
 20
47.28016599043571
 30
0.0
 10
-9.292878000000002
 20
47.2540054904357
 30
0.0
 10
-9.237584000000002
 20
47.2278449904357
 30
0.0
 10
-9.177878000000002
 20
47.2031489904357
 30
0.0
 10
-9.118172000000001
 20
47.1784529904357
 30
0.0
 10
-9.0543115
 20
47.1547654904357
 30
0.0
 10
-8.990451
 20
47.1310779904357
 30
0.0
 10
-8.951807
 20
47.1177399904357
 30
0.0
 10
-8.913163
 20
47.1044019904357
 30
0.0
 10
-8.913168500000001
 20
47.1044039904357
 30
0.0
 10
-8.913174000000001
 20
47.1044059904357
 30
0.0
 10
-8.903541
 20
47.1011684904357
 30
0.0
 10
-8.893908
 20
47.0979309904357
 30
0.0
 10
-8.882028
 20
47.0939739904357
 30
0.0
 10
-8.870148
 20
47.0900169904357
 30
0.0
 10
-8.857908
 20
47.0859824904357
 30
0.0
 10
-8.845668
 20
47.0819479904357
 30
0.0
 10
-8.83874525
 20
47.07968574043571
 30
0.0
 10
-8.831822500000001
 20
47.07742349043571
 30
0.0
 10
-8.811724250000001
 20
47.0709312404357
 30
0.0
 10
-8.791626
 20
47.0644389904357
 30
0.0
 10
-8.763785
 20
47.05561799043571
 30
0.0
 10
-8.735944
 20
47.0467969904357
 30
0.0
 10
-8.7071035
 20
47.0378609904357
 30
0.0
 10
-8.678263000000001
 20
47.0289249904357
 30
0.0
 10
-8.648421
 20
47.0198834904357
 30
0.0
 10
-8.618579
 20
47.0108419904357
 30
0.0
 10
-8.587775500000001
 20
47.0017159904357
 30
0.0
 10
-8.556972000000002
 20
46.9925899904357
 30
0.0
 10
-8.5252095
 20
46.9833879904357
 30
0.0
 10
-8.493447
 20
46.9741859904357
 30
0.0
 10
-8.46075025
 20
46.9649204904357
 30
0.0
 10
-8.4280535
 20
46.9556549904357
 30
0.0
 10
-8.381560250000001
 20
46.94315299043571
 30
0.0
 10
-8.335067000000002
 20
46.9306509904357
 30
0.0
 10
-8.253794000000001
 20
46.9106034904357
 30
0.0
 10
-8.172521
 20
46.8905559904357
 30
0.0
 10
-8.0879615
 20
46.8719354904357
 30
0.0
 10
-8.003402000000001
 20
46.8533149904357
 30
0.0
 10
-7.915651500000001
 20
46.8361844904357
 30
0.0
 10
-7.827901000000001
 20
46.81905399043571
 30
0.0
 10
-7.737004500000001
 20
46.8034609904357
 30
0.0
 10
-7.646108000000002
 20
46.7878679904357
 30
0.0
 10
-7.552031000000001
 20
46.7738354904357
 30
0.0
 10
-7.457954000000001
 20
46.7598029904357
 30
0.0
 10
-7.360699500000001
 20
46.7473484904357
 30
0.0
 10
-7.263445000000001
 20
46.7348939904357
 30
0.0
 10
-7.163091000000001
 20
46.7240329904357
 30
0.0
 10
-7.062737000000002
 20
46.7131719904357
 30
0.0
 10
-6.996599000000002
 20
46.70703849043571
 30
0.0
 10
-6.930461000000001
 20
46.7009049904357
 30
0.0
 10
-6.770591000000001
 20
46.6877229904357
 30
0.0
 10
-6.610721000000002
 20
46.6745409904357
 30
0.0
 10
-6.406076000000001
 20
46.65814849043571
 30
0.0
 10
-6.201430999999999
 20
46.6417559904357
 30
0.0
 10
-5.989561500000001
 20
46.6253989904357
 30
0.0
 10
-5.777692000000002
 20
46.6090419904357
 30
0.0
 10
-5.558573000000001
 20
46.59287399043571
 30
0.0
 10
-5.339454
 20
46.57670599043571
 30
0.0
 10
-5.1131045
 20
46.5609564904357
 30
0.0
 10
-4.886755000000001
 20
46.5452069904357
 30
0.0
 10
-4.653228500000001
 20
46.5301369904357
 30
0.0
 10
-4.419702000000001
 20
46.5150669904357
 30
0.0
 10
-4.178990000000001
 20
46.5009499904357
 30
0.0
 10
-3.938278
 20
46.4868329904357
 30
0.0
 10
-3.690333500000001
 20
46.4739484904357
 30
0.0
 10
-3.442389000000002
 20
46.4610639904357
 30
0.0
 10
-3.221193000000001
 20
46.4510209904357
 30
0.0
 10
-2.999997
 20
46.4409779904357
 30
0.0
 10
-2.867152500000001
 20
46.4356274904357
 30
0.0
 10
-2.734308000000002
 20
46.4302769904357
 30
0.0
 10
-2.565583000000002
 20
46.4244669904357
 30
0.0
 10
-2.396858000000002
 20
46.4186569904357
 30
0.0
 10
-2.226170000000002
 20
46.4138559904357
 30
0.0
 10
-2.055482000000001
 20
46.4090549904357
 30
0.0
 10
-1.882848000000001
 20
46.4053199904357
 30
0.0
 10
-1.710214000000001
 20
46.4015849904357
 30
0.0
 10
-1.535641500000001
 20
46.39897399043571
 30
0.0
 10
-1.361069000000001
 20
46.3963629904357
 30
0.0
 10
-1.184553000000001
 20
46.3949029904357
 30
0.0
 10
-1.008037000000002
 20
46.3934429904357
 30
0.0
 10
-0.8295850000000016
 20
46.3931209904357
 30
0.0
 10
-0.6511330000000015
 20
46.3927989904357
 30
0.0
 10
-0.4707670000000022
 20
46.3935969904357
 30
0.0
 10
-0.2904010000000028
 20
46.3943949904357
 30
0.0
 10
-0.1452005000000014
 20
46.3958184904357
 30
0.0
 10
0.0
 20
46.3972419904357
 30
0.0
 10
0.1452005000000014
 20
46.3958184904357
 30
0.0
 10
0.2904010000000028
 20
46.3943949904357
 30
0.0
 10
0.4707670000000022
 20
46.3935969904357
 30
0.0
 10
0.6511330000000015
 20
46.3927989904357
 30
0.0
 10
0.8295850000000016
 20
46.3931209904357
 30
0.0
 10
1.008037000000002
 20
46.3934429904357
 30
0.0
 10
1.184553000000001
 20
46.3949029904357
 30
0.0
 10
1.361069000000001
 20
46.3963629904357
 30
0.0
 10
1.535641500000001
 20
46.39897399043571
 30
0.0
 10
1.710214000000001
 20
46.4015849904357
 30
0.0
 10
1.882848000000001
 20
46.4053199904357
 30
0.0
 10
2.055482000000001
 20
46.4090549904357
 30
0.0
 10
2.226170000000002
 20
46.4138559904357
 30
0.0
 10
2.396858000000002
 20
46.4186569904357
 30
0.0
 10
2.565583000000002
 20
46.4244669904357
 30
0.0
 10
2.734308000000002
 20
46.4302769904357
 30
0.0
 10
2.867152500000001
 20
46.4356274904357
 30
0.0
 10
2.999997
 20
46.4409779904357
 30
0.0
 10
3.221193000000001
 20
46.4510209904357
 30
0.0
 10
3.442389000000002
 20
46.4610639904357
 30
0.0
 10
3.690333500000001
 20
46.4739484904357
 30
0.0
 10
3.938278
 20
46.4868329904357
 30
0.0
 10
4.178990000000001
 20
46.5009499904357
 30
0.0
 10
4.419702000000001
 20
46.5150669904357
 30
0.0
 10
4.653228500000001
 20
46.5301369904357
 30
0.0
 10
4.886755000000001
 20
46.5452069904357
 30
0.0
 10
5.1131045
 20
46.5609564904357
 30
0.0
 10
5.339454
 20
46.57670599043571
 30
0.0
 10
5.558573000000001
 20
46.59287399043571
 30
0.0
 10
5.777692000000002
 20
46.6090419904357
 30
0.0
 10
5.989561500000001
 20
46.6253989904357
 30
0.0
 10
6.201430999999999
 20
46.6417559904357
 30
0.0
 10
6.406076000000001
 20
46.65814849043571
 30
0.0
 10
6.610721000000002
 20
46.6745409904357
 30
0.0
 10
6.770591000000001
 20
46.6877229904357
 30
0.0
 10
6.930461000000001
 20
46.7009049904357
 30
0.0
 10
6.996599000000002
 20
46.70703849043571
 30
0.0
 10
7.062737000000002
 20
46.7131719904357
 30
0.0
 10
7.163091000000001
 20
46.7240329904357
 30
0.0
 10
7.263445000000001
 20
46.7348939904357
 30
0.0
 10
7.360699500000001
 20
46.7473484904357
 30
0.0
 10
7.457954000000001
 20
46.7598029904357
 30
0.0
 10
7.552031000000001
 20
46.7738354904357
 30
0.0
 10
7.646108000000002
 20
46.7878679904357
 30
0.0
 10
7.737004500000001
 20
46.8034609904357
 30
0.0
 10
7.827901000000001
 20
46.81905399043571
 30
0.0
 10
7.915651500000001
 20
46.8361844904357
 30
0.0
 10
8.003402000000001
 20
46.8533149904357
 30
0.0
 10
8.0879615
 20
46.8719354904357
 30
0.0
 10
8.172521
 20
46.8905559904357
 30
0.0
 10
8.253794000000001
 20
46.9106034904357
 30
0.0
 10
8.335067000000002
 20
46.9306509904357
 30
0.0
 10
8.381560250000001
 20
46.94315299043571
 30
0.0
 10
8.4280535
 20
46.9556549904357
 30
0.0
 10
8.46075025
 20
46.9649204904357
 30
0.0
 10
8.493447
 20
46.9741859904357
 30
0.0
 10
8.5252095
 20
46.9833879904357
 30
0.0
 10
8.556972000000002
 20
46.9925899904357
 30
0.0
 10
8.587775500000001
 20
47.0017159904357
 30
0.0
 10
8.618579
 20
47.0108419904357
 30
0.0
 10
8.648421
 20
47.0198834904357
 30
0.0
 10
8.678263000000001
 20
47.0289249904357
 30
0.0
 10
8.7071035
 20
47.0378609904357
 30
0.0
 10
8.735944
 20
47.0467969904357
 30
0.0
 10
8.763785
 20
47.05561799043571
 30
0.0
 10
8.791626
 20
47.0644389904357
 30
0.0
 10
8.811724250000001
 20
47.0709312404357
 30
0.0
 10
8.831822500000001
 20
47.07742349043571
 30
0.0
 10
8.83874525
 20
47.07968574043571
 30
0.0
 10
8.845668
 20
47.0819479904357
 30
0.0
 10
8.857908
 20
47.0859824904357
 30
0.0
 10
8.870148
 20
47.0900169904357
 30
0.0
 10
8.882028
 20
47.0939739904357
 30
0.0
 10
8.893908
 20
47.0979309904357
 30
0.0
 10
8.903541
 20
47.1011684904357
 30
0.0
 10
8.913174000000001
 20
47.1044059904357
 30
0.0
 10
8.913168500000001
 20
47.1044039904357
 30
0.0
 10
8.913163
 20
47.1044019904357
 30
0.0
 10
8.951807
 20
47.1177399904357
 30
0.0
 10
8.990451
 20
47.1310779904357
 30
0.0
 10
9.0543115
 20
47.1547654904357
 30
0.0
 10
9.118172000000001
 20
47.1784529904357
 30
0.0
 10
9.177878000000002
 20
47.2031489904357
 30
0.0
 10
9.237584000000002
 20
47.2278449904357
 30
0.0
 10
9.292878000000002
 20
47.2540054904357
 30
0.0
 10
9.348172000000002
 20
47.28016599043571
 30
0.0
 10
9.399104500000002
 20
47.3085549904357
 30
0.0
 10
9.450037000000002
 20
47.3369439904357
 30
0.0
 10
9.497203
 20
47.3684789904357
 30
0.0
 10
9.544369
 20
47.4000139904357
 30
0.0
 10
9.5880915
 20
47.43519999043571
 30
0.0
 10
9.631814000000002
 20
47.4703859904357
 30
0.0
 10
9.671840000000001
 20
47.5092319904357
 30
0.0
 10
9.711866
 20
47.5480779904357
 30
0.0
 10
9.748587500000001
 20
47.5908379904357
 30
0.0
 10
9.785309000000002
 20
47.6335979904357
 30
0.0
 10
9.819536000000001
 20
47.6807384904357
 30
0.0
 10
9.853763
 20
47.72787899043571
 30
0.0
 10
9.885892
 20
47.77955199043571
 30
0.0
 10
9.918021
 20
47.8312249904357
 30
0.0
 10
9.9478065
 20
47.8869084904357
 30
0.0
 10
9.977592000000001
 20
47.9425919904357
 30
0.0
 10
10.0048215
 20
48.00152749043571
 30
0.0
 10
10.032051
 20
48.0604629904357
 30
0.0
 10
10.057162
 20
48.12248549043571
 30
0.0
 10
10.082273
 20
48.1845079904357
 30
0.0
 10
10.105858
 20
48.25007549043571
 30
0.0
 10
10.129443
 20
48.31564299043571
 30
0.0
 10
10.1517435
 20
48.3847604904357
 30
0.0
 10
10.174044
 20
48.4538779904357
 30
0.0
 10
10.195111
 20
48.5262049904357
 30
0.0
 10
10.216178
 20
48.5985319904357
 30
0.0
 10
10.2361965
 20
48.67426299043571
 30
0.0
 10
10.256215
 20
48.7499939904357
 30
0.0
 10
10.28221786497403
 20
48.85541140615975
 30
0.0
 10
10.30822072994806
 20
48.9608288218838
 30
0.0
 10
10.32498911497403
 20
49.04371465615975
 30
0.0
 10
10.3417575
 20
49.12660049043571
 30
0.0
 10
10.36987883643657
 20
49.26560376522274
 30
0.0
 10
10.39800017287314
 20
49.40460704000978
 30
0.0
 10
10.42733458643657
 20
49.60359151522274
 30
0.0
 10
10.456669
 20
49.8025759904357
 30
0.0
 10
10.47871
 20
49.9804139904357
 30
0.0
 10
10.500751
 20
50.1582519904357
 30
0.0
 10
10.518777
 20
50.3409369904357
 30
0.0
 10
10.536803
 20
50.5236219904357
 30
0.0
 10
10.5431905
 20
50.6073399904357
 30
0.0
 10
10.549578
 20
50.6910579904357
 30
0.0
  0
SPLINE
  5
53
330
1F
100
AcDbEntity
  8
2D
100
AcDbSpline
210
0.0
220
0.0
230
1.0
 70
    24
 71
     2
 72
     6
 73
     3
 74
     0
 42
0.0000000001
 43
0.0000000001
 40
0.0
 40
0.0
 40
0.0
 40
1.0
 40
1.0
 40
1.0
 10
-9.805406000000001
 20
62.0328149904357
 30
0.0
 10
-9.854254000000001
 20
60.9970049904357
 30
0.0
 10
-9.903102
 20
59.9611949904357
 30
0.0
  0
SPLINE
  5
54
330
1F
100
AcDbEntity
  8
2D
100
AcDbSpline
210
0.0
220
0.0
230
1.0
 70
     8
 71
     2
 72
    14
 73
    11
 74
     0
 42
0.0000000001
 43
0.0000000001
 40
0.0
 40
0.0
 40
0.0
 40
1.0
 40
1.0
 40
2.0
 40
2.0
 40
3.0
 40
3.0
 40
4.0
 40
4.0
 40
5.0
 40
5.0
 40
5.0
 10
-9.079066000000001
 20
61.6719849904357
 30
0.0
 10
-9.139838500000002
 20
61.5178774904357
 30
0.0
 10
-9.200611000000002
 20
61.3637699904357
 30
0.0
 10
-9.270855500000001
 20
61.1660539904357
 30
0.0
 10
-9.3411
 20
60.9683379904357
 30
0.0
 10
-9.408687
 20
60.7570049904357
 30
0.0
 10
-9.476274
 20
60.54567199043571
 30
0.0
 10
-9.540912500000001
 20
60.32087449043571
 30
0.0
 10
-9.605551000000002
 20
60.09607699043571
 30
0.0
 10
-9.656324000000001
 20
59.9016074904357
 30
0.0
 10
-9.707097000000001
 20
59.7071379904357
 30
0.0
  0
SPLINE
  5
55
330
1F
100
AcDbEntity
  8
2D
100
AcDbSpline
210
0.0
220
0.0
230
1.0
 70
     8
 71
     3
 72
    23
 73
    19
 74
     0
 42
0.0000000001
 43
0.0000000001
 40
-7.0
 40
-7.0
 40
-7.0
 40
-7.0
 40
-5.999975726545647
 40
-4.999951453091294
 40
-3.999927179636941
 40
-2.999902906182589
 40
-1.999878632728236
 40
-0.9998543592738827
 40
0.0
 40
0.0
 40
0.0
 40
0.9998543592738827
 40
1.999878632728236
 40
2.999902906182589
 40
3.999927179636941
 40
4.999951453091294
 40
5.999975726545647
 40
7.0
 40
7.0
 40
7.0
 40
7.0
 10
-6.468409000000001
 20
63.7990299904357
 30
0.0
 10
-6.208241874379998
 20
64.00740189873969
 30
0.0
 10
-5.682722580407722
 20
64.41933367792682
 30
0.0
 10
-4.826974715875991
 20
64.94064583438295
 30
0.0
 10
-3.918520226300849
 20
65.36294550507483
 30
0.0
 10
-2.969268927232521
 20
65.68226697147846
 30
0.0
 10
-1.993233810392848
 20
65.90727968951582
 30
0.0
 10
-0.9997602765098299
 20
66.03148018286346
 30
0.0
 10
-0.3334447099736862
 20
66.06526996713909
 30
0.0
 10
0.0
 20
66.0669409904357
 30
0.0
 10
0.3334447099736862
 20
66.06526996713909
 30
0.0
 10
0.9997602765098299
 20
66.03148018286346
 30
0.0
 10
1.993233810392848
 20
65.90727968951582
 30
0.0
 10
2.969268927232521
 20
65.68226697147846
 30
0.0
 10
3.918520226300849
 20
65.36294550507483
 30
0.0
 10
4.826974715875991
 20
64.94064583438295
 30
0.0
 10
5.682722580407722
 20
64.41933367792682
 30
0.0
 10
6.208241874379998
 20
64.00740189873969
 30
0.0
 10
6.468409000000001
 20
63.7990299904357
 30
0.0
  0
SPLINE
  5
56
330
1F
100
AcDbEntity
  8
2D
100
AcDbSpline
210
0.0
220
0.0
230
1.0
 70
    12
 71
     3
 72
    29
 73
    25
 74
     0
 42
0.0000000001
 43
0.0000000001
 40
-0.4632599848539553
 40
-0.4632599848539553
 40
-0.4632599848539553
 40
-0.4632599848539553
 40
0.0
 40
0.0
 40
0.0
 40
1.0
 40
2.0
 40
3.0
 40
4.0
 40
5.0
 40
6.0
 40
7.0
 40
7.0
 40
7.0
 40
8.0
 40
9.0
 40
10.0
 40
11.0
 40
12.0
 40
13.0
 40
14.0
 40
14.0
 40
14.0
 40
14.46325998485396
 40
14.46325998485396
 40
14.46325998485396
 40
14.46325998485396
 10
4.694099682167402
 20
64.18478795474776
 30
0.0
 41
1.0
 10
4.560136354238923
 20
64.26187882064848
 30
0.0
 41
0.9981737317851372
 10
4.420837730200335
 20
64.32884947225014
 30
0.0
 41
0.9981737317851372
 10
4.276967000000004
 20
64.3853329904357
 30
0.0
 41
1.0
 10
4.083064748615099
 20
64.46145883845962
 30
0.0
 41
1.0
 10
3.69047696445209
 20
64.60122701832562
 30
0.0
 41
1.0
 10
3.091580249499146
 20
64.78024618552992
 30
0.0
 41
1.0
 10
2.483492168326175
 20
64.92526580903505
 30
0.0
 41
1.0
 10
1.868345571717929
 20
65.03658276186512
 30
0.0
 41
1.0
 10
1.248132668420493
 20
65.1142686938184
 30
0.0
 41
1.0
 10
0.6248581786447638
 20
65.16125637341764
 30
0.0
 41
1.0
 10
0.208279698531134
 20
65.17030093969207
 30
0.0
 41
1.0
 10
0.0
 20
65.17233799043571
 30
0.0
 41
1.0
 10
-0.208279698531134
 20
65.17030093969207
 30
0.0
 41
1.0
 10
-0.6248581786447638
 20
65.16125637341764
 30
0.0
 41
1.0
 10
-1.248132668420493
 20
65.1142686938184
 30
0.0
 41
1.0
 10
-1.868345571717929
 20
65.03658276186512
 30
0.0
 41
1.0
 10
-2.483492168326175
 20
64.92526580903505
 30
0.0
 41
1.0
 10
-3.091580249499146
 20
64.78024618552992
 30
0.0
 41
1.0
 10
-3.69047696445209
 20
64.60122701832562
 30
0.0
 41
1.0
 10
-4.083064748615099
 20
64.46145883845962
 30
0.0
 41
1.0
 10
-4.276967000000003
 20
64.3853329904357
 30
0.0
 41
1.0
 10
-4.420837730200335
 20
64.32884947225014
 30
0.0
 41
0.9981737317851372
 10
-4.560136354238923
 20
64.26187882064848
 30
0.0
 41
0.9981737317851372
 10
-4.694099682167402
 20
64.18478795474776
 30
0.0
 41
1.0
  0
SPLINE
  5
57
330
1F
100
AcDbEntity
  8
2D
100
AcDbSpline
210
0.0
220
0.0
230
1.0
 70
     8
 71
     3
 72
    23
 73
    19
 74
     0
 42
0.0000000001
 43
0.0000000001
 40
0.0
 40
0.0
 40
0.0
 40
0.0
 40
1.0
 40
2.0
 40
3.0
 40
4.0
 40
5.0
 40
6.0
 40
7.0
 40
7.0
 40
7.0
 40
8.0
 40
9.0
 40
10.0
 40
11.0
 40
12.0
 40
13.0
 40
14.0
 40
14.0
 40
14.0
 40
14.0
 10
7.814587
 20
65.9675629904357
 30
0.0
 10
7.497087060079439
 20
66.17846715519906
 30
0.0
 10
6.770092434166579
 20
66.41723849765084
 30
0.0
 10
5.6611859569185
 20
66.6673039108189
 30
0.0
 10
4.538586568501171
 20
66.86010717376092
 30
0.0
 10
3.409171639350389
 20
67.0020277273227
 30
0.0
 10
2.275005864253335
 20
67.10021574529704
 30
0.0
 10
1.13822731635496
 20
67.1600545035848
 30
0.0
 10
0.3793905776469991
 20
67.1717227540378
 30
0.0
 10
0.0
 20
67.1717999904357
 30
0.0
 10
-0.3793905776469991
 20
67.1717227540378
 30
0.0
 10
-1.13822731635496
 20
67.1600545035848
 30
0.0
 10
-2.275005864253335
 20
67.10021574529704
 30
0.0
 10
-3.409171639350389
 20
67.0020277273227
 30
0.0
 10
-4.538586568501171
 20
66.86010717376092
 30
0.0
 10
-5.6611859569185
 20
66.6673039108189
 30
0.0
 10
-6.770092434166579
 20
66.41723849765084
 30
0.0
 10
-7.497087060079439
 20
66.17846715519906
 30
0.0
 10
-7.814587
 20
65.9675629904357
 30
0.0
  0
SPLINE
  5
58
330
1F
100
AcDbEntity
  8
2D
100
AcDbSpline
210
0.0
220
0.0
230
1.0
 70
     8
 71
     3
 72
    41
 73
    37
 74
     0
 42
0.0000000001
 43
0.0000000001
 40
0.0
 40
0.0
 40
0.0
 40
0.0
 40
1.000000269114953
 40
2.000000538229906
 40
3.000000807344858
 40
4.00000107645981
 40
5.0
 40
5.0
 40
5.0
 40
6.0
 40
7.0
 40
8.0
 40
9.0
 40
10.0
 40
11.0
 40
12.0
 40
13.0
 40
14.0
 40
15.0
 40
16.0
 40
17.0
 40
18.0
 40
19.0
 40
20.0
 40
21.0
 40
22.0
 40
23.0
 40
24.0
 40
25.0
 40
26.0
 40
27.0
 40
28.0
 40
29.0
 40
30.0
 40
31.0
 40
32.0
 40
32.0
 40
32.0
 40
32.0
 10
3.595824
 20
65.4651899904357
 30
0.0
 10
3.663300036380184
 20
65.44609024314231
 30
0.0
 10
3.798744688917763
 20
65.40943940122607
 30
0.0
 10
3.999452619536691
 20
65.34655187412045
 30
0.0
 10
4.20202583550188
 20
65.28834827990612
 30
0.0
 10
4.408188820728718
 20
65.25000753639391
 30
0.0
 10
4.553072672422489
 20
65.25546349539403
 30
0.0
 10
4.613172000000011
 20
65.29475299043571
 30
0.0
 10
4.597553452250277
 20
65.35956896603214
 30
0.0
 10
4.567681420192664
 20
65.4885723162444
 30
0.0
 10
4.517985968021298
 20
65.68447988592045
 30
0.0
 10
4.484348005670284
 20
65.87279992570608
 30
0.0
 10
4.476932472547702
 20
66.10351961666005
 30
0.0
 10
4.679998615813915
 20
66.17511511798453
 30
0.0
 10
4.876240270058625
 20
66.19209112978733
 30
0.0
 10
5.075957787728198
 20
66.20876580924521
 30
0.0
 10
5.275435774353474
 20
66.21284808847706
 30
0.0
 10
5.475036156900211
 20
66.20836234886077
 30
0.0
 10
5.674289751086097
 20
66.19459932425242
 30
0.0
 10
5.872347207229111
 20
66.17174270604629
 30
0.0
 10
6.070722521605155
 20
66.13907168238026
 30
0.0
 10
6.259257539929263
 20
66.08640853419813
 30
0.0
 10
6.473698223500076
 20
66.06021311993081
 30
0.0
 10
6.570186483108641
 20
65.87022896512869
 30
0.0
 10
6.637355776656324
 20
65.68569759930291
 30
0.0
 10
6.707535248639892
 20
65.49783468542562
 30
0.0
 10
6.77660416625699
 20
65.31074807160037
 30
0.0
 10
6.848317167351125
 20
65.12434100377521
 30
0.0
 10
6.921186318360075
 20
64.93845702883308
 30
0.0
 10
6.999075365848391
 20
64.75458728143109
 30
0.0
 10
7.082267437310702
 20
64.57312604405739
 30
0.0
 10
7.165900745039658
 20
64.39165895968613
 30
0.0
 10
7.269054446740641
 20
64.22028631659387
 30
0.0
 10
7.391919162287746
 20
64.06245786941487
 30
0.0
 10
7.532364543958895
 20
63.92006316850063
 30
0.0
 10
7.636501337886158
 20
63.83678535370568
 30
0.0
 10
7.690830104586132
 20
63.79834332194836
 30
0.0
  0
SPLINE
  5
59
330
1F
100
AcDbEntity
  8
2D
100
AcDbSpline
210
0.0
220
0.0
230
1.0
 70
    12
 71
     3
 72
    29
 73
    25
 74
     0
 42
0.0000000001
 43
0.0000000001
 40
-0.9126288722518636
 40
-0.9126288722518636
 40
-0.9126288722518636
 40
-0.9126288722518636
 40
0.0
 40
0.0
 40
0.0
 40
1.0
 40
2.0
 40
3.0
 40
4.0
 40
5.0
 40
6.0
 40
7.0
 40
7.0
 40
7.0
 40
8.0
 40
9.0
 40
10.0
 40
11.0
 40
12.0
 40
13.0
 40
14.0
 40
14.0
 40
14.0
 40
14.91262887225186
 40
14.91262887225186
 40
14.91262887225186
 40
14.91262887225186
 10
5.605398668578233
 20
63.97810666634455
 30
0.0
 41
1.0
 10
5.363972180570101
 20
64.16367999121884
 30
0.0
 41
0.9980516433931687
 10
5.109073991807215
 20
64.33026666950447
 30
0.0
 41
0.9980516433931687
 10
4.842194000000009
 20
64.4768929904357
 30
0.0
 41
1.0
 10
4.632093762116546
 20
64.59232399258396
 30
0.0
 41
1.0
 10
4.203156949938692
 20
64.80718612109632
 30
0.0
 41
1.0
 10
3.534993938297093
 20
65.07454445306627
 30
0.0
 41
1.0
 10
2.847869784767706
 20
65.28815975400826
 30
0.0
 41
1.0
 10
2.146487580434675
 20
65.44879967870271
 30
0.0
 41
1.0
 10
1.435613707302309
 20
65.55909462704345
 30
0.0
 41
1.0
 10
0.7191644344688284
 20
65.62509526729501
 30
0.0
 41
1.0
 10
0.2396812444569005
 20
65.63681719394039
 30
0.0
 41
1.0
 10
0.0
 20
65.6386369904357
 30
0.0
 41
1.0
 10
-0.2396812444569005
 20
65.63681719394039
 30
0.0
 41
1.0
 10
-0.7191644344688284
 20
65.62509526729501
 30
0.0
 41
1.0
 10
-1.435613707302309
 20
65.55909462704345
 30
0.0
 41
1.0
 10
-2.146487580434675
 20
65.44879967870271
 30
0.0
 41
1.0
 10
-2.847869784767706
 20
65.28815975400826
 30
0.0
 41
1.0
 10
-3.534993938297093
 20
65.07454445306627
 30
0.0
 41
1.0
 10
-4.203156949938692
 20
64.80718612109632
 30
0.0
 41
1.0
 10
-4.632093762116546
 20
64.59232399258396
 30
0.0
 41
1.0
 10
-4.842194000000003
 20
64.4768929904357
 30
0.0
 41
1.0
 10
-5.109073991807212
 20
64.33026666950448
 30
0.0
 41
0.9980516433931687
 10
-5.363972180570099
 20
64.16367999121884
 30
0.0
 41
0.9980516433931687
 10
-5.605398668578231
 20
63.97810666634455
 30
0.0
 41
1.0
  0
SPLINE
  5
5A
330
1F
100
AcDbEntity
  8
2D
100
AcDbSpline
210
0.0
220
0.0
230
1.0
 70
     8
 71
     3
 72
    14
 73
    10
 74
     0
 42
0.0000000001
 43
0.0000000001
 40
0.0
 40
0.0
 40
0.0
 40
0.0
 40
1.0
 40
1.0
 40
1.0
 40
2.0
 40
2.0
 40
2.0
 40
3.0
 40
3.0
 40
3.0
 40
3.0
 10
-10.578535
 20
50.68933999043571
 30
0.0
 10
-10.60593033333334
 20
49.90483749043571
 30
0.0
 10
-10.63332566666667
 20
49.12033499043571
 30
0.0
 10
-10.660721
 20
48.33583249043571
 30
0.0
 10
-10.67386244327677
 20
48.22698711974714
 30
0.0
 10
-10.58580348406866
 20
48.1158553122421
 30
0.0
 10
-10.473914
 20
48.1152244904357
 30
0.0
 10
-10.44802066666667
 20
48.1143199904357
 30
0.0
 10
-10.42212733333333
 20
48.1134154904357
 30
0.0
 10
-10.396234
 20
48.1125109904357
 30
0.0
  0
SPLINE
  5
5B
330
1F
100
AcDbEntity
  8
2D
100
AcDbSpline
210
0.0
220
0.0
230
1.0
 70
    24
 71
     2
 72
     6
 73
     3
 74
     0
 42
0.0000000001
 43
0.0000000001
 40
0.0
 40
0.0
 40
0.0
 40
1.0
 40
1.0
 40
1.0
 10
10.173536
 20
48.4523039904357
 30
0.0
 10
10.2419045
 20
48.2523594904357
 30
0.0
 10
10.310273
 20
48.0524149904357
 30
0.0
  0
SPLINE
  5
5C
330
1F
100
AcDbEntity
  8
2D
100
AcDbSpline
210
0.0
220
0.0
230
1.0
 70
     8
 71
     3
 72
    12
 73
     8
 74
     0
 42
0.0000000001
 43
0.0000000001
 40
0.0
 40
0.0
 40
0.0
 40
0.0
 40
1.0
 40
2.0
 40
3.0
 40
4.0
 40
5.0
 40
5.0
 40
5.0
 40
5.0
 10
10.392007
 20
49.39329799043571
 30
0.0
 10
10.3961672124105
 20
49.2196759312388
 30
0.0
 10
10.40688417056629
 20
48.87179101467393
 30
0.0
 10
10.39719795636835
 20
48.35201506421489
 30
0.0
 10
10.42144967656685
 20
47.82537919498829
 30
0.0
 10
10.14406389621477
 20
47.33234226271895
 30
0.0
 10
9.734683357021908
 20
47.34275310711874
 30
0.0
 10
9.589988000000002
 20
47.4367269904357
 30
0.0
  0
SPLINE
  5
5D
330
1F
100
AcDbEntity
  8
2D
100
AcDbSpline
210
0.0
220
0.0
230
1.0
 70
     8
 71
     3
 72
    14
 73
    10
 74
     0
 42
0.0000000001
 43
0.0000000001
 40
0.0
 40
0.0
 40
0.0
 40
0.0
 40
1.0
 40
1.0
 40
1.0
 40
2.0
 40
2.0
 40
2.0
 40
3.0
 40
3.0
 40
3.0
 40
3.0
 10
10.578535
 20
50.68933999043571
 30
0.0
 10
10.60593033333334
 20
49.90483749043571
 30
0.0
 10
10.63332566666667
 20
49.12033499043571
 30
0.0
 10
10.660721
 20
48.33583249043571
 30
0.0
 10
10.67386244327677
 20
48.22698711974714
 30
0.0
 10
10.58580348406866
 20
48.1158553122421
 30
0.0
 10
10.473914
 20
48.1152244904357
 30
0.0
 10
10.44802066666667
 20
48.1143199904357
 30
0.0
 10
10.42212733333333
 20
48.1134154904357
 30
0.0
 10
10.396234
 20
48.1125109904357
 30
0.0
  0
SPLINE
  5
5E
330
1F
100
AcDbEntity
  8
2D
100
AcDbSpline
210
0.0
220
0.0
230
1.0
 70
     8
 71
     2
 72
    14
 73
    11
 74
     0
 42
0.0000000001
 43
0.0000000001
 40
0.0
 40
0.0
 40
0.0
 40
1.0
 40
1.0
 40
2.0
 40
2.0
 40
3.0
 40
3.0
 40
4.0
 40
4.0
 40
5.0
 40
5.0
 40
5.0
 10
9.079066000000001
 20
61.6719849904357
 30
0.0
 10
9.139838500000002
 20
61.5178774904357
 30
0.0
 10
9.200611000000002
 20
61.3637699904357
 30
0.0
 10
9.270855500000001
 20
61.1660539904357
 30
0.0
 10
9.3411
 20
60.9683379904357
 30
0.0
 10
9.408687
 20
60.7570049904357
 30
0.0
 10
9.476274
 20
60.54567199043571
 30
0.0
 10
9.540912500000001
 20
60.32087449043571
 30
0.0
 10
9.605551000000002
 20
60.09607699043571
 30
0.0
 10
9.656324000000001
 20
59.9016074904357
 30
0.0
 10
9.707097000000001
 20
59.7071379904357
 30
0.0
  0
SPLINE
  5
5F
330
1F
100
AcDbEntity
  8
2D
100
AcDbSpline
210
0.0
220
0.0
230
1.0
 70
     8
 71
     3
 72
    41
 73
    37
 74
     0
 42
0.0000000001
 43
0.0000000001
 40
0.0
 40
0.0
 40
0.0
 40
0.0
 40
1.000000269114953
 40
2.000000538229906
 40
3.000000807344858
 40
4.00000107645981
 40
5.0
 40
5.0
 40
5.0
 40
6.0
 40
7.0
 40
8.0
 40
9.0
 40
10.0
 40
11.0
 40
12.0
 40
13.0
 40
14.0
 40
15.0
 40
16.0
 40
17.0
 40
18.0
 40
19.0
 40
20.0
 40
21.0
 40
22.0
 40
23.0
 40
24.0
 40
25.0
 40
26.0
 40
27.0
 40
28.0
 40
29.0
 40
30.0
 40
31.0
 40
32.0
 40
32.0
 40
32.0
 40
32.0
 10
-3.595824
 20
65.4651899904357
 30
0.0
 10
-3.663300036380184
 20
65.44609024314231
 30
0.0
 10
-3.798744688917763
 20
65.40943940122607
 30
0.0
 10
-3.999452619536691
 20
65.34655187412045
 30
0.0
 10
-4.20202583550188
 20
65.28834827990612
 30
0.0
 10
-4.408188820728718
 20
65.25000753639391
 30
0.0
 10
-4.553072672422489
 20
65.25546349539403
 30
0.0
 10
-4.613172000000011
 20
65.29475299043571
 30
0.0
 10
-4.597553452250277
 20
65.35956896603214
 30
0.0
 10
-4.567681420192664
 20
65.4885723162444
 30
0.0
 10
-4.517985968021298
 20
65.68447988592045
 30
0.0
 10
-4.484348005670284
 20
65.87279992570608
 30
0.0
 10
-4.476932472547702
 20
66.10351961666005
 30
0.0
 10
-4.679998615813915
 20
66.17511511798453
 30
0.0
 10
-4.876240270058625
 20
66.19209112978733
 30
0.0
 10
-5.075957787728198
 20
66.20876580924521
 30
0.0
 10
-5.275435774353474
 20
66.21284808847706
 30
0.0
 10
-5.475036156900211
 20
66.20836234886077
 30
0.0
 10
-5.674289751086097
 20
66.19459932425242
 30
0.0
 10
-5.872347207229111
 20
66.17174270604629
 30
0.0
 10
-6.070722521605155
 20
66.13907168238026
 30
0.0
 10
-6.259257539929263
 20
66.08640853419813
 30
0.0
 10
-6.473698223500076
 20
66.06021311993081
 30
0.0
 10
-6.570186483108641
 20
65.87022896512869
 30
0.0
 10
-6.637355776656324
 20
65.68569759930291
 30
0.0
 10
-6.707535248639892
 20
65.49783468542562
 30
0.0
 10
-6.77660416625699
 20
65.31074807160037
 30
0.0
 10
-6.848317167351125
 20
65.12434100377521
 30
0.0
 10
-6.921186318360075
 20
64.93845702883308
 30
0.0
 10
-6.999075365848391
 20
64.75458728143109
 30
0.0
 10
-7.082267437310702
 20
64.57312604405739
 30
0.0
 10
-7.165900745039658
 20
64.39165895968613
 30
0.0
 10
-7.269054446740641
 20
64.22028631659387
 30
0.0
 10
-7.391919162287746
 20
64.06245786941487
 30
0.0
 10
-7.532364543958895
 20
63.92006316850063
 30
0.0
 10
-7.636501337886158
 20
63.83678535370568
 30
0.0
 10
-7.690830104586132
 20
63.79834332194836
 30
0.0
  0
SPLINE
  5
60
330
1F
100
AcDbEntity
  8
2D
100
AcDbSpline
210
0.0
220
0.0
230
1.0
 70
     8
 71
     3
 72
    19
 73
    15
 74
     0
 42
0.0000000001
 43
0.0000000001
 40
-5.0
 40
-5.0
 40
-5.0
 40
-5.0
 40
-4.0
 40
-3.0
 40
-2.0
 40
-1.0
 40
0.0
 40
0.0
 40
0.0
 40
1.0
 40
2.0
 40
3.0
 40
4.0
 40
5.0
 40
5.0
 40
5.0
 40
5.0
 10
-4.508062000000002
 20
65.7362629904357
 30
0.0
 10
-4.218539057961537
 20
65.82794777489586
 30
0.0
 10
-3.626771590404238
 20
65.96574994255012
 30
0.0
 10
-2.727802299661306
 20
66.11256294499475
 30
0.0
 10
-1.820185470198771
 20
66.19171972371315
 30
0.0
 10
-0.910545804292593
 20
66.23239175804584
 30
0.0
 10
-0.3035008216737594
 20
66.24044598595255
 30
0.0
 10
0.0
 20
66.2401819904357
 30
0.0
 10
0.3035008216737594
 20
66.24044598595255
 30
0.0
 10
0.910545804292593
 20
66.23239175804584
 30
0.0
 10
1.820185470198771
 20
66.19171972371315
 30
0.0
 10
2.727802299661306
 20
66.11256294499475
 30
0.0
 10
3.626771590404238
 20
65.96574994255012
 30
0.0
 10
4.218539057961537
 20
65.82794777489586
 30
0.0
 10
4.508062000000002
 20
65.7362629904357
 30
0.0
  0
SPLINE
  5
61
330
1F
100
AcDbEntity
  8
2D
100
AcDbSpline
210
0.0
220
0.0
230
1.0
 70
     8
 71
     3
 72
     8
 73
     4
 74
     0
 42
0.0000000001
 43
0.0000000001
 40
0.0
 40
0.0
 40
0.0
 40
0.0
 40
1.0
 40
1.0
 40
1.0
 40
1.0
 10
9.630821000000001
 20
59.9992889904357
 30
0.0
 10
9.806275056424559
 20
59.98158933595219
 30
0.0
 10
9.980677546673897
 20
59.95158151899036
 30
0.0
 10
10.151008
 20
59.9057349904357
 30
0.0
  0
SPLINE
  5
62
330
1F
100
AcDbEntity
  8
2D
100
AcDbSpline
210
0.0
220
0.0
230
1.0
 70
     8
 71
     2
 72
    96
 73
    93
 74
     0
 42
0.0000000001
 43
0.0000000001
 40
0.0
 40
0.0
 40
0.0
 40
1.0
 40
1.0
 40
1.997044618257766
 40
1.997044618257766
 40
2.997304192228556
 40
2.997304192228556
 40
3.997563766199346
 40
3.997563766199346
 40
4.997823340170136
 40
4.997823340170136
 40
5.998082914140926
 40
5.998082914140926
 40
6.998342488111716
 40
6.998342488111716
 40
7.998602062082505
 40
7.998602062082505
 40
8.998861636053295
 40
8.998861636053295
 40
9.999121210024084
 40
9.999121210024084
 40
10.99938078399487
 40
10.99938078399487
 40
11.99964035796567
 40
11.99964035796567
 40
12.99989993193646
 40
12.99989993193646
 40
14.00015950590725
 40
14.00015950590725
 40
15.00041907987803
 40
15.00041907987803
 40
16.00067865384882
 40
16.00067865384882
 40
17.00093822781961
 40
17.00093822781961
 40
18.00119780179041
 40
18.00119780179041
 40
19.00145737576119
 40
19.00145737576119
 40
20.00171694973199
 40
20.00171694973199
 40
21.00197652370277
 40
21.00197652370277
 40
22.0
 40
22.0
 40
23.0
 40
23.0
 40
24.0
 40
24.0
 40
25.00015279765235
 40
25.00015279765235
 40
26.0003055953047
 40
26.0003055953047
 40
27.00045839295705
 40
27.00045839295705
 40
28.0006111906094
 40
28.0006111906094
 40
29.00076398826175
 40
29.00076398826175
 40
30.0009167859141
 40
30.0009167859141
 40
31.00106958356645
 40
31.00106958356645
 40
32.00122238121881
 40
32.00122238121881
 40
33.00137517887116
 40
33.00137517887116
 40
34.00152797652351
 40
34.00152797652351
 40
35.00168077417586
 40
35.00168077417586
 40
36.00183357182821
 40
36.00183357182821
 40
37.00198636948056
 40
37.00198636948056
 40
38.00213916713291
 40
38.00213916713291
 40
39.00229196478526
 40
39.00229196478526
 40
40.00244476243762
 40
40.00244476243762
 40
41.00259756008997
 40
41.00259756008997
 40
42.00275035774231
 40
42.00275035774231
 40
43.00290315539466
 40
43.00290315539466
 40
44.00305595304702
 40
44.00305595304702
 40
45.0
 40
45.0
 40
46.0
 40
46.0
 40
46.0
 10
5.361223000000003
 20
68.5566099904357
 30
0.0
 10
5.377098000000002
 20
68.6382797404357
 30
0.0
 10
5.392973000000001
 20
68.7199494904357
 30
0.0
 10
5.393116000000001
 20
68.7206497404357
 30
0.0
 10
5.393259
 20
68.7213499904357
 30
0.0
 10
5.3938825
 20
68.7238504904357
 30
0.0
 10
5.394506
 20
68.7263509904357
 30
0.0
 10
5.395322500000001
 20
68.7288699904357
 30
0.0
 10
5.396139000000002
 20
68.7313889904357
 30
0.0
 10
5.397164000000002
 20
68.7339159904357
 30
0.0
 10
5.398189000000002
 20
68.7364429904357
 30
0.0
 10
5.399433500000002
 20
68.7389544904357
 30
0.0
 10
5.400678000000003
 20
68.7414659904357
 30
0.0
 10
5.402140000000003
 20
68.7439224904357
 30
0.0
 10
5.403602000000003
 20
68.7463789904357
 30
0.0
 10
5.405286000000002
 20
68.7487579904357
 30
0.0
 10
5.406970000000001
 20
68.7511369904357
 30
0.0
 10
5.408877
 20
68.75341699043571
 30
0.0
 10
5.410784
 20
68.75569699043571
 30
0.0
 10
5.412901
 20
68.75784199043571
 30
0.0
 10
5.415018
 20
68.7599869904357
 30
0.0
 10
5.417342
 20
68.7619774904357
 30
0.0
 10
5.419665999999999
 20
68.7639679904357
 30
0.0
 10
5.422185499999999
 20
68.76577849043571
 30
0.0
 10
5.424704999999999
 20
68.7675889904357
 30
0.0
 10
5.427379500000001
 20
68.7691824904357
 30
0.0
 10
5.430054000000002
 20
68.77077599043571
 30
0.0
 10
5.432867500000002
 20
68.7721394904357
 30
0.0
 10
5.435681000000002
 20
68.7735029904357
 30
0.0
 10
5.438614000000001
 20
68.7746234904357
 30
0.0
 10
5.441547
 20
68.7757439904357
 30
0.0
 10
5.444544
 20
68.7766014904357
 30
0.0
 10
5.447541000000001
 20
68.7774589904357
 30
0.0
 10
5.450584500000001
 20
68.7780544904357
 30
0.0
 10
5.453628000000002
 20
68.7786499904357
 30
0.0
 10
5.456692000000002
 20
68.7789844904357
 30
0.0
 10
5.459756000000002
 20
68.7793189904357
 30
0.0
 10
5.462769500000002
 20
68.7793964904357
 30
0.0
 10
5.465783000000002
 20
68.7794739904357
 30
0.0
 10
5.468712500000002
 20
68.7793139904357
 30
0.0
 10
5.471642000000003
 20
68.7791539904357
 30
0.0
 10
5.474489500000002
 20
68.7787744904357
 30
0.0
 10
5.477337000000002
 20
68.7783949904357
 30
0.0
 10
5.478132250000002
 20
68.7782489904357
 30
0.0
 10
5.478927500000003
 20
68.7781029904357
 30
0.0
 10
6.130402500000002
 20
68.6514689904357
 30
0.0
 10
6.781877500000002
 20
68.5248349904357
 30
0.0
 10
6.781873000000002
 20
68.5248359904357
 30
0.0
 10
6.781868500000002
 20
68.5248369904357
 30
0.0
 10
6.782665250000001
 20
68.5246734904357
 30
0.0
 10
6.783462
 20
68.5245099904357
 30
0.0
 10
6.786246500000001
 20
68.5237939904357
 30
0.0
 10
6.789031000000001
 20
68.5230779904357
 30
0.0
 10
6.791808500000002
 20
68.5221284904357
 30
0.0
 10
6.794586000000002
 20
68.5211789904357
 30
0.0
 10
6.797352500000002
 20
68.51997699043571
 30
0.0
 10
6.800119000000002
 20
68.5187749904357
 30
0.0
 10
6.802835000000002
 20
68.51731549043569
 30
0.0
 10
6.805551000000001
 20
68.5158559904357
 30
0.0
 10
6.808150000000001
 20
68.5141624904357
 30
0.0
 10
6.810749000000001
 20
68.5124689904357
 30
0.0
 10
6.813206000000001
 20
68.5105509904357
 30
0.0
 10
6.815663000000001
 20
68.5086329904357
 30
0.0
 10
6.817961500000001
 20
68.5064954904357
 30
0.0
 10
6.820260000000001
 20
68.50435799043571
 30
0.0
 10
6.822357000000002
 20
68.5020394904357
 30
0.0
 10
6.824454000000003
 20
68.4997209904357
 30
0.0
 10
6.826336000000001
 20
68.4972419904357
 30
0.0
 10
6.828218
 20
68.4947629904357
 30
0.0
 10
6.829874
 20
68.4921409904357
 30
0.0
 10
6.831530000000001
 20
68.4895189904357
 30
0.0
 10
6.832938500000001
 20
68.4868034904357
 30
0.0
 10
6.834347000000001
 20
68.4840879904357
 30
0.0
 10
6.835505500000002
 20
68.48130799043571
 30
0.0
 10
6.836664000000003
 20
68.47852799043571
 30
0.0
 10
6.837577500000002
 20
68.47570049043571
 30
0.0
 10
6.838491000000001
 20
68.4728729904357
 30
0.0
 10
6.839160000000001
 20
68.47003799043571
 30
0.0
 10
6.839829000000002
 20
68.46720299043571
 30
0.0
 10
6.840264500000002
 20
68.4643784904357
 30
0.0
 10
6.840700000000002
 20
68.4615539904357
 30
0.0
 10
6.840913000000002
 20
68.45876049043571
 30
0.0
 10
6.841126000000003
 20
68.4559669904357
 30
0.0
 10
6.841130000000001
 20
68.45323949043569
 30
0.0
 10
6.841134
 20
68.4505119904357
 30
0.0
 10
6.8409475
 20
68.4478709904357
 30
0.0
 10
6.840761000000001
 20
68.4452299904357
 30
0.0
 10
6.840402500000001
 20
68.4426774904357
 30
0.0
 10
6.840044000000002
 20
68.4401249904357
 30
0.0
 10
6.839914000000002
 20
68.4394212404357
 30
0.0
 10
6.839784000000002
 20
68.4387174904357
 30
0.0
 10
6.822791000000002
 20
68.3512952404357
 30
0.0
 10
6.805798000000003
 20
68.2638729904357
 30
0.0
  0
SPLINE
  5
63
330
1F
100
AcDbEntity
  8
2D
100
AcDbSpline
210
0.0
220
0.0
230
1.0
 70
     8
 71
     3
 72
    44
 73
    40
 74
     0
 42
0.0000000001
 43
0.0000000001
 40
0.0
 40
0.0
 40
0.0
 40
0.0
 40
1.0
 40
2.0
 40
3.0
 40
4.0
 40
5.0
 40
6.0
 40
7.0
 40
8.0
 40
9.0
 40
10.0
 40
11.0
 40
12.0
 40
13.0
 40
14.0
 40
15.0
 40
16.0
 40
17.0
 40
18.0
 40
19.0
 40
20.0
 40
21.0
 40
22.0
 40
23.0
 40
24.0
 40
25.0
 40
26.0
 40
27.0
 40
28.0
 40
29.0
 40
30.0
 40
31.0
 40
32.0
 40
33.0
 40
34.0
 40
35.0
 40
36.0
 40
37.0
 40
37.0
 40
37.0
 40
37.0
 10
-9.3019
 20
25.34060841417338
 30
0.0
 10
-9.236616756755575
 20
25.3708868430081
 30
0.0
 10
-9.143177920421088
 20
25.47877489303923
 30
0.0
 10
-9.01114468920821
 20
25.64158159082209
 30
0.0
 10
-8.893870783590394
 20
25.82498425630736
 30
0.0
 10
-8.910193034145667
 20
26.04295012700974
 30
0.0
 10
-8.943477681399983
 20
26.2554680935931
 30
0.0
 10
-9.135131641957535
 20
26.38558103299147
 30
0.0
 10
-9.350372595628146
 20
26.36893865927724
 30
0.0
 10
-9.560905857472893
 20
26.37325255044651
 30
0.0
 10
-9.772700201571089
 20
26.37195122747223
 30
0.0
 10
-9.984156785877941
 20
26.37215449679728
 30
0.0
 10
-10.19570403694972
 20
26.3719546106837
 30
0.0
 10
-10.40722650301687
 20
26.37186275395907
 30
0.0
 10
-10.61875723508041
 20
26.37174193522957
 30
0.0
 10
-10.83027909959686
 20
26.3716289354498
 30
0.0
 10
-11.04182867225048
 20
26.3715136216027
 30
0.0
 10
-11.25327705177356
 20
26.37139974465666
 30
0.0
 10
-11.46510134064423
 20
26.37128243479999
 30
0.0
 10
-11.67552401178978
 20
26.37117741923663
 30
0.0
 10
-11.8911764782391
 20
26.37102665982612
 30
0.0
 10
-12.06620826898264
 20
26.2160793423943
 30
0.0
 10
-12.07660626559314
 20
26.0054632943989
 30
0.0
 10
-12.09489148105843
 20
25.7805568356486
 30
0.0
 10
-11.91660830655468
 20
25.63546638494361
 30
0.0
 10
-11.70712718363035
 20
25.59881399504134
 30
0.0
 10
-11.49868698715399
 20
25.56454469463568
 30
0.0
 10
-11.28799845339727
 20
25.54374595093052
 30
0.0
 10
-11.07696386802107
 20
25.52963195343429
 30
0.0
 10
-10.86555441031015
 20
25.5215967980916
 30
0.0
 10
-10.6540165096623
 20
25.51974665806378
 30
0.0
 10
-10.44250569351734
 20
25.52322246647377
 30
0.0
 10
-10.23113827524311
 20
25.53210344173499
 30
0.0
 10
-10.02014107900609
 20
25.54695132325296
 30
0.0
 10
-9.809521413602626
 20
25.56787076581592
 30
0.0
 10
-9.600460865619167
 20
25.59825351877652
 30
0.0
 10
-9.390929308590842
 20
25.63448706872387
 30
0.0
 10
-9.196264865589646
 20
25.7185649630505
 30
0.0
 10
-9.075182764322307
 20
25.79144100271374
 30
0.0
 10
-9.01117
 20
25.82095841417338
 30
0.0
  0
SPLINE
  5
64
330
1F
100
AcDbEntity
  8
2D
100
AcDbSpline
210
0.0
220
0.0
230
1.0
 70
     8
 71
     3
 72
   374
 73
   370
 74
     0
 42
0.0000000001
 43
0.0000000001
 40
-45.0
 40
-45.0
 40
-45.0
 40
-45.0
 40
-44.0
 40
-44.0
 40
-44.0
 40
-43.0
 40
-43.0
 40
-43.0
 40
-42.0
 40
-42.0
 40
-42.0
 40
-41.0
 40
-41.0
 40
-41.0
 40
-40.0
 40
-40.0
 40
-40.0
 40
-39.0
 40
-39.0
 40
-39.0
 40
-38.0
 40
-38.0
 40
-38.0
 40
-37.0
 40
-37.0
 40
-37.0
 40
-36.0
 40
-36.0
 40
-36.0
 40
-35.0
 40
-35.0
 40
-35.0
 40
-34.0
 40
-34.0
 40
-34.0
 40
-33.0
 40
-33.0
 40
-33.0
 40
-32.0
 40
-32.0
 40
-32.0
 40
-31.0
 40
-31.0
 40
-31.0
 40
-30.0
 40
-30.0
 40
-30.0
 40
-29.0
 40
-29.0
 40
-29.0
 40
-28.0
 40
-28.0
 40
-28.0
 40
-27.0
 40
-27.0
 40
-27.0
 40
-26.0
 40
-26.0
 40
-26.0
 40
-25.0
 40
-25.0
 40
-25.0
 40
-24.0
 40
-24.0
 40
-24.0
 40
-23.0
 40
-23.0
 40
-23.0
 40
-22.0
 40
-22.0
 40
-22.0
 40
-21.0
 40
-21.0
 40
-21.0
 40
-20.0
 40
-20.0
 40
-20.0
 40
-19.0
 40
-19.0
 40
-19.0
 40
-18.0
 40
-18.0
 40
-18.0
 40
-17.0
 40
-17.0
 40
-17.0
 40
-16.0
 40
-16.0
 40
-16.0
 40
-15.0
 40
-15.0
 40
-15.0
 40
-14.0
 40
-14.0
 40
-14.0
 40
-13.0
 40
-13.0
 40
-13.0
 40
-12.0
 40
-12.0
 40
-12.0
 40
-11.0
 40
-11.0
 40
-11.0
 40
-10.0
 40
-10.0
 40
-10.0
 40
-9.0
 40
-9.0
 40
-9.0
 40
-8.0
 40
-8.0
 40
-8.0
 40
-7.0
 40
-7.0
 40
-7.0
 40
-6.0
 40
-6.0
 40
-6.0
 40
-5.0
 40
-5.0
 40
-5.0
 40
-4.0
 40
-4.0
 40
-4.0
 40
-3.0
 40
-3.0
 40
-3.0
 40
-2.0
 40
-2.0
 40
-2.0
 40
-1.0
 40
-1.0
 40
-1.0
 40
0.0
 40
0.0
 40
0.0
 40
1.0
 40
1.0
 40
1.0
 40
1.1238177861467
 40
1.1859530479391
 40
1.2482200048067
 40
1.310592224814
 40
1.3730408057203
 40
1.4980778474299
 40
1.6232790855246
 40
1.7486502821877
 40
1.8114045597236
 40
1.874208559515
 40
2.0
 40
2.0
 40
2.0
 40
2.1248735704004
 40
2.249700956506
 40
2.374641394193
 40
2.4996937056988
 40
2.6247595080163
 40
2.7498307891198
 40
3.0
 40
3.0
 40
3.0
 40
4.0
 40
4.0
 40
4.0
 40
4.249808555134262
 40
4.499665579490104
 40
4.749705567777892
 40
5.0
 40
5.0
 40
5.0
 40
5.1249914070915
 40
5.1873879073762
 40
5.2497973151468
 40
5.3748916563063
 40
5.5000283083146
 40
5.6250524878658
 40
5.7500017989559
 40
5.874954851524
 40
6.0
 40
6.0
 40
6.0
 40
6.1246117725965
 40
6.2494502996616
 40
6.3744724724084
 40
6.4996063957861
 40
6.7498814713236
 40
7.0
 40
7.0
 40
7.0
 40
8.000048880855179
 40
8.000048880855179
 40
8.000048880855179
 40
9.000097761710359
 40
9.000097761710359
 40
9.000097761710359
 40
10.0
 40
10.0
 40
10.0
 40
10.99907619751575
 40
10.99907619751575
 40
10.99907619751575
 40
11.99912495049366
 40
11.99912495049366
 40
11.99912495049366
 40
12.99917370347157
 40
12.99917370347157
 40
12.99917370347157
 40
13.99922245644948
 40
13.99922245644948
 40
13.99922245644948
 40
14.9992712094274
 40
14.9992712094274
 40
14.9992712094274
 40
15.99931996240531
 40
15.99931996240531
 40
15.99931996240531
 40
16.99936871538322
 40
16.99936871538322
 40
16.99936871538322
 40
17.99941746836113
 40
17.99941746836113
 40
17.99941746836113
 40
18.99946622133905
 40
18.99946622133905
 40
18.99946622133905
 40
19.99951497431695
 40
19.99951497431695
 40
19.99951497431695
 40
20.99956372729487
 40
20.99956372729487
 40
20.99956372729487
 40
21.99961248027278
 40
21.99961248027278
 40
21.99961248027278
 40
22.99966123325069
 40
22.99966123325069
 40
22.99966123325069
 40
23.99970998622861
 40
23.99970998622861
 40
23.99970998622861
 40
24.99975873920652
 40
24.99975873920652
 40
24.99975873920652
 40
25.99980749218443
 40
25.99980749218443
 40
25.99980749218443
 40
26.99985624516234
 40
26.99985624516234
 40
26.99985624516234
 40
27.99990499814026
 40
27.99990499814026
 40
27.99990499814026
 40
28.99995375111817
 40
28.99995375111817
 40
28.99995375111817
 40
30.00000250409608
 40
30.00000250409608
 40
30.00000250409608
 40
31.00005125707399
 40
31.00005125707399
 40
31.00005125707399
 40
32.00010001005191
 40
32.00010001005191
 40
32.00010001005191
 40
33.00014876302981
 40
33.00014876302981
 40
33.00014876302981
 40
34.00019751600773
 40
34.00019751600773
 40
34.00019751600773
 40
35.00024626898564
 40
35.00024626898564
 40
35.00024626898564
 40
36.00029502196355
 40
36.00029502196355
 40
36.00029502196355
 40
37.00034377494146
 40
37.00034377494146
 40
37.00034377494146
 40
38.00039252791937
 40
38.00039252791937
 40
38.00039252791937
 40
39.00044128089729
 40
39.00044128089729
 40
39.00044128089729
 40
40.0004900338752
 40
40.0004900338752
 40
40.0004900338752
 40
41.00053878685311
 40
41.00053878685311
 40
41.00053878685311
 40
42.00058753983102
 40
42.00058753983102
 40
42.00058753983102
 40
43.00063629280893
 40
43.00063629280893
 40
43.00063629280893
 40
44.00068504578685
 40
44.00068504578685
 40
44.00068504578685
 40
45.00073379876476
 40
45.00073379876476
 40
45.00073379876476
 40
46.00078255174267
 40
46.00078255174267
 40
46.00078255174267
 40
47.00083130472059
 40
47.00083130472059
 40
47.00083130472059
 40
48.0008800576985
 40
48.0008800576985
 40
48.0008800576985
 40
49.00092881067641
 40
49.00092881067641
 40
49.00092881067641
 40
50.00097756365432
 40
50.00097756365432
 40
50.00097756365432
 40
51.00102631663223
 40
51.00102631663223
 40
51.00102631663223
 40
52.0
 40
52.0
 40
52.0
 40
52.99988225358065
 40
52.99988225358065
 40
52.99988225358065
 40
53.9999215023871
 40
53.9999215023871
 40
53.9999215023871
 40
54.99996075119355
 40
54.99996075119355
 40
54.99996075119355
 40
56.0
 40
56.0
 40
56.0
 40
56.249919366577
 40
56.499872486919
 40
56.7498918798448
 40
57.0
 40
57.0
 40
57.0
 40
57.1249335765172
 40
57.2498972354009
 40
57.4998891537642
 40
57.7499305344765
 40
58.0
 40
58.0
 40
58.0
 40
58.1251079941946
 40
58.1876610465337
 40
58.2502119288562
 40
58.3752996490804
 40
58.5003554248061
 40
58.6253651714421
 40
58.7503170064439
 40
58.8751992240651
 40
59.0
 40
59.0
 40
59.0
 40
59.1257445916548
 40
59.2513230483055
 40
59.37670460742
 40
59.5018702826871
 40
59.6268112571514
 40
59.7515067106894
 40
59.8759206226101
 40
60.0
 40
60.0
 40
60.0
 40
60.0
 10
11.359901
 20
58.8660479904357
 30
0.0
 10
11.35596
 20
58.88004365710237
 30
0.0
 10
11.352019
 20
58.89403932376904
 30
0.0
 10
11.348078
 20
58.90803499043571
 30
0.0
 10
11.33904366666667
 20
58.93622432376904
 30
0.0
 10
11.33000933333333
 20
58.96441365710237
 30
0.0
 10
11.320975
 20
58.9926029904357
 30
0.0
 10
11.31073233333333
 20
59.0202199904357
 30
0.0
 10
11.30048966666667
 20
59.04783699043571
 30
0.0
 10
11.290247
 20
59.0754539904357
 30
0.0
 10
11.278698
 20
59.10231765710237
 30
0.0
 10
11.267149
 20
59.12918132376904
 30
0.0
 10
11.2556
 20
59.1560449904357
 30
0.0
 10
11.24283866666667
 20
59.18208965710237
 30
0.0
 10
11.23007733333333
 20
59.20813432376904
 30
0.0
 10
11.217316
 20
59.23417899043571
 30
0.0
 10
11.203505
 20
59.25898932376904
 30
0.0
 10
11.189694
 20
59.28379965710237
 30
0.0
 10
11.175883
 20
59.30860999043571
 30
0.0
 10
11.16127966666667
 20
59.33197965710237
 30
0.0
 10
11.14667633333334
 20
59.35534932376904
 30
0.0
 10
11.132073
 20
59.37871899043571
 30
0.0
 10
11.11644933333334
 20
59.40100765710238
 30
0.0
 10
11.10082566666667
 20
59.42329632376904
 30
0.0
 10
11.085202
 20
59.44558499043571
 30
0.0
 10
11.06869133333333
 20
59.46647732376903
 30
0.0
 10
11.05218066666667
 20
59.48736965710236
 30
0.0
 10
11.03567
 20
59.5082619904357
 30
0.0
 10
11.018714
 20
59.5274959904357
 30
0.0
 10
11.001758
 20
59.5467299904357
 30
0.0
 10
10.984802
 20
59.5659639904357
 30
0.0
 10
10.96683566666667
 20
59.58418632376904
 30
0.0
 10
10.94886933333333
 20
59.60240865710237
 30
0.0
 10
10.930903
 20
59.6206309904357
 30
0.0
 10
10.91261133333334
 20
59.63700399043571
 30
0.0
 10
10.89431966666667
 20
59.6533769904357
 30
0.0
 10
10.876028
 20
59.6697499904357
 30
0.0
 10
10.857745
 20
59.68445865710237
 30
0.0
 10
10.839462
 20
59.69916732376903
 30
0.0
 10
10.821179
 20
59.7138759904357
 30
0.0
 10
10.801782
 20
59.72751765710236
 30
0.0
 10
10.782385
 20
59.74115932376903
 30
0.0
 10
10.762988
 20
59.7548009904357
 30
0.0
 10
10.74323866666666
 20
59.76668832376904
 30
0.0
 10
10.72348933333333
 20
59.77857565710237
 30
0.0
 10
10.70374
 20
59.79046299043571
 30
0.0
 10
10.68379066666667
 20
59.80077765710237
 30
0.0
 10
10.66384133333334
 20
59.81109232376904
 30
0.0
 10
10.643892
 20
59.8214069904357
 30
0.0
 10
10.62355
 20
59.83032499043571
 30
0.0
 10
10.603208
 20
59.83924299043571
 30
0.0
 10
10.582866
 20
59.8481609904357
 30
0.0
 10
10.56184866666667
 20
59.85570865710238
 30
0.0
 10
10.54083133333333
 20
59.86325632376904
 30
0.0
 10
10.519814
 20
59.8708039904357
 30
0.0
 10
10.49818166666667
 20
59.87679332376903
 30
0.0
 10
10.47654933333334
 20
59.88278265710236
 30
0.0
 10
10.454917
 20
59.88877199043569
 30
0.0
 10
10.43330133333333
 20
59.8930439904357
 30
0.0
 10
10.41168566666667
 20
59.89731599043571
 30
0.0
 10
10.39007
 20
59.9015879904357
 30
0.0
 10
10.36809566666667
 20
59.90429499043571
 30
0.0
 10
10.34612133333333
 20
59.9070019904357
 30
0.0
 10
10.324147
 20
59.9097089904357
 30
0.0
 10
10.301776
 20
59.91068532376903
 30
0.0
 10
10.279405
 20
59.91166165710236
 30
0.0
 10
10.257034
 20
59.91263799043569
 30
0.0
 10
10.23484
 20
59.9118369904357
 30
0.0
 10
10.212646
 20
59.9110359904357
 30
0.0
 10
10.190452
 20
59.9102349904357
 30
0.0
 10
10.16813466666667
 20
59.9076889904357
 30
0.0
 10
10.14581733333333
 20
59.9051429904357
 30
0.0
 10
10.1235
 20
59.90259699043569
 30
0.0
 10
10.10094666666667
 20
59.89811165710237
 30
0.0
 10
10.07839333333333
 20
59.89362632376903
 30
0.0
 10
10.05584
 20
59.88914099043571
 30
0.0
 10
10.03411733333333
 20
59.88298265710237
 30
0.0
 10
10.01239466666667
 20
59.87682432376904
 30
0.0
 10
9.990672
 20
59.8706659904357
 30
0.0
 10
9.969156666666667
 20
59.86290832376903
 30
0.0
 10
9.947641333333333
 20
59.85515065710237
 30
0.0
 10
9.926126
 20
59.84739299043571
 30
0.0
 10
9.904402666666668
 20
59.8376399904357
 30
0.0
 10
9.882679333333334
 20
59.8278869904357
 30
0.0
 10
9.860956000000002
 20
59.8181339904357
 30
0.0
 10
9.839820666666668
 20
59.80653765710237
 30
0.0
 10
9.818685333333335
 20
59.79494132376905
 30
0.0
 10
9.797550000000001
 20
59.78334499043572
 30
0.0
 10
9.777029666666667
 20
59.7699829904357
 30
0.0
 10
9.756509333333334
 20
59.75662099043571
 30
0.0
 10
9.735989
 20
59.7432589904357
 30
0.0
 10
9.716071000000001
 20
59.72817065710237
 30
0.0
 10
9.696153
 20
59.71308232376904
 30
0.0
 10
9.676235000000002
 20
59.69799399043571
 30
0.0
 10
9.656972333333334
 20
59.68121732376903
 30
0.0
 10
9.637709666666668
 20
59.66444065710238
 30
0.0
 10
9.618447
 20
59.6476639904357
 30
0.0
 10
9.600007
 20
59.6292859904357
 30
0.0
 10
9.581567
 20
59.61090799043571
 30
0.0
 10
9.563127000000001
 20
59.59252999043571
 30
0.0
 10
9.545598666666669
 20
59.57262665710238
 30
0.0
 10
9.528070333333334
 20
59.55272332376904
 30
0.0
 10
9.510542000000001
 20
59.53281999043569
 30
0.0
 10
9.494033666666668
 20
59.51153565710236
 30
0.0
 10
9.477525333333334
 20
59.49025132376903
 30
0.0
 10
9.461017000000002
 20
59.4689669904357
 30
0.0
 10
9.445670000000002
 20
59.4465369904357
 30
0.0
 10
9.430323000000003
 20
59.42410699043571
 30
0.0
 10
9.414976000000003
 20
59.4016769904357
 30
0.0
 10
9.400832666666668
 20
59.37825199043571
 30
0.0
 10
9.386689333333335
 20
59.3548269904357
 30
0.0
 10
9.372546
 20
59.3314019904357
 30
0.0
 10
9.359569666666667
 20
59.3070039904357
 30
0.0
 10
9.346593333333333
 20
59.28260599043571
 30
0.0
 10
9.333617
 20
59.2582079904357
 30
0.0
 10
9.321848000000001
 20
59.23295765710237
 30
0.0
 10
9.310079000000002
 20
59.20770732376904
 30
0.0
 10
9.29831
 20
59.1824569904357
 30
0.0
 10
9.287674666666668
 20
59.15617265710237
 30
0.0
 10
9.277039333333335
 20
59.12988832376903
 30
0.0
 10
9.266404000000001
 20
59.10360399043569
 30
0.0
 10
9.257040000000002
 20
59.0766709904357
 30
0.0
 10
9.247676
 20
59.04973799043571
 30
0.0
 10
9.238312
 20
59.0228049904357
 30
0.0
 10
9.23043
 20
58.99606299043571
 30
0.0
 10
9.222548000000002
 20
58.9693209904357
 30
0.0
 10
9.214666000000001
 20
58.9425789904357
 30
0.0
 10
9.20828
 20
58.91652232376904
 30
0.0
 10
9.201894000000001
 20
58.89046565710237
 30
0.0
 10
9.195508
 20
58.8644089904357
 30
0.0
 10
9.190339
 20
58.83903165710237
 30
0.0
 10
9.185170000000001
 20
58.81365432376904
 30
0.0
 10
9.180001
 20
58.78827699043571
 30
0.0
 10
9.178040666666666
 20
58.77656182376904
 30
0.0
 10
9.176080333333333
 20
58.76484665710237
 30
0.0
 10
9.17412
 20
58.7531314904357
 30
0.0
 10
9.172149259768334
 20
58.74032465427237
 30
0.0
 10
9.170178519536668
 20
58.72751781810904
 30
0.0
 10
9.168207779305
 20
58.71471098194571
 30
0.0
 10
9.154669680850002
 20
58.6281974956257
 30
0.0
 10
9.134553419540001
 20
58.4982343628357
 30
0.0
 10
9.10889158063
 20
58.3245733921557
 30
0.0
 10
9.09036852865
 20
58.1937872656257
 30
0.0
 10
9.07266125288
 20
58.0626644451757
 30
0.0
 10
9.05021973754
 20
57.8873897931057
 30
0.0
 10
9.02458759908
 20
57.6677332621657
 30
0.0
 10
8.99765858728
 20
57.4034547725057
 30
0.0
 10
8.978283881110002
 20
57.1827055232457
 30
0.0
 10
8.96448450123
 20
57.00577969457571
 30
0.0
 10
8.95178796807
 20
56.82847368776571
 30
0.0
 10
8.943666396010002
 20
56.69533606702571
 30
0.0
 10
8.938980538350002
 20
56.6064974600057
 30
0.0
 10
8.93521592111
 20
56.5351245383257
 30
0.0
 10
8.928643832240002
 20
56.3923534283157
 30
0.0
 10
8.921263509580001
 20
56.17804835338571
 30
0.0
 10
8.916125249700002
 20
55.9635754256657
 30
0.0
 10
8.913239910560002
 20
55.7489237363157
 30
0.0
 10
8.912673332780003
 20
55.53417839755571
 30
0.0
 10
8.914763216290002
 20
55.2478296537457
 30
0.0
 10
8.919162969000002
 20
55.03309024967571
 30
0.0
 10
8.923241119325
 20
54.8899622419807
 30
0.0
 10
8.924148691036669
 20
54.85988403987071
 30
0.0
 10
8.925056262748335
 20
54.82980583776071
 30
0.0
 10
8.925963834460001
 20
54.7997276356507
 30
0.0
 10
8.927239583504102
 20
54.75963657113871
 30
0.0
 10
8.92996691609434
 20
54.67945218323179
 30
0.0
 10
8.934513020450002
 20
54.55915878091571
 30
0.0
 10
8.939552024580003
 20
54.4388067630757
 30
0.0
 10
8.943338596700002
 20
54.3585576858257
 30
0.0
 10
8.945339401230001
 20
54.31841814730571
 30
0.0
 10
8.94720473473
 20
54.2809963879957
 30
0.0
 10
8.950155547520001
 20
54.2249011983357
 30
0.0
 10
8.954169751430001
 20
54.1501280600457
 30
0.0
 10
8.95823386988
 20
54.0753266913357
 30
0.0
 10
8.963536685160001
 20
53.9817574623257
 30
0.0
 10
8.97045760408
 20
53.8694812262257
 30
0.0
 10
8.97786632995
 20
53.7572799044857
 30
0.0
 10
8.985646244130002
 20
53.6451589052757
 30
0.0
 10
8.993847009270002
 20
53.5330615579857
 30
0.0
 10
8.99963119873
 20
53.4583437216457
 30
0.0
 10
9.002623042670002
 20
53.4209789804657
 30
0.0
 10
9.006001421660002
 20
53.3787868542457
 30
0.0
 10
9.013016152840002
 20
53.2943456813457
 30
0.0
 10
9.02448122726
 20
53.1676640267657
 30
0.0
 10
9.037228336170003
 20
53.0409254173557
 30
0.0
 10
9.056202663450001
 20
52.8720019093057
 30
0.0
 10
9.08372778911
 20
52.6612946832857
 30
0.0
 10
9.109780811980002
 20
52.4933194993957
 30
0.0
 10
9.123507551080001
 20
52.4093438483257
 30
0.0
 10
9.129717700720002
 20
52.37244922902904
 30
0.0
 10
9.135927850360003
 20
52.33555460973238
 30
0.0
 10
9.142138000000003
 20
52.2986599904357
 30
0.0
 10
9.160019000000002
 20
52.20455099043571
 30
0.0
 10
9.177900000000001
 20
52.1104419904357
 30
0.0
 10
9.195781
 20
52.0163329904357
 30
0.0
 10
9.212461833333334
 20
51.9394689904357
 30
0.0
 10
9.22914266666667
 20
51.8626049904357
 30
0.0
 10
9.245823500000002
 20
51.7857409904357
 30
0.0
 10
9.248565000000001
 20
51.77422132376903
 30
0.0
 10
9.251306500000002
 20
51.76270165710236
 30
0.0
 10
9.254048000000001
 20
51.7511819904357
 30
0.0
 10
9.262313666666667
 20
51.72265032376904
 30
0.0
 10
9.270579333333334
 20
51.69411865710236
 30
0.0
 10
9.278845
 20
51.66558699043569
 30
0.0
 10
9.289111666666667
 20
51.63736032376903
 30
0.0
 10
9.299378333333333
 20
51.60913365710237
 30
0.0
 10
9.309645
 20
51.5809069904357
 30
0.0
 10
9.321905
 20
51.55299165710236
 30
0.0
 10
9.334165
 20
51.52507632376904
 30
0.0
 10
9.346425
 20
51.4971609904357
 30
0.0
 10
9.360651
 20
51.46962665710237
 30
0.0
 10
9.374877000000001
 20
51.44209232376903
 30
0.0
 10
9.389103000000002
 20
51.4145579904357
 30
0.0
 10
9.405214000000003
 20
51.3876829904357
 30
0.0
 10
9.421325000000001
 20
51.3608079904357
 30
0.0
 10
9.437436000000002
 20
51.3339329904357
 30
0.0
 10
9.455483000000001
 20
51.3078839904357
 30
0.0
 10
9.473529999999998
 20
51.2818349904357
 30
0.0
 10
9.491577
 20
51.2557859904357
 30
0.0
 10
9.511591333333334
 20
51.23071732376903
 30
0.0
 10
9.531605666666666
 20
51.20564865710238
 30
0.0
 10
9.55162
 20
51.1805799904357
 30
0.0
 10
9.573443666666668
 20
51.15680665710237
 30
0.0
 10
9.595267333333334
 20
51.13303332376904
 30
0.0
 10
9.617091000000002
 20
51.1092599904357
 30
0.0
 10
9.640520000000002
 20
51.08696565710236
 30
0.0
 10
9.663949000000002
 20
51.06467132376903
 30
0.0
 10
9.687378000000002
 20
51.04237699043571
 30
0.0
 10
9.712327000000002
 20
51.02163965710238
 30
0.0
 10
9.737276000000001
 20
51.00090232376905
 30
0.0
 10
9.762225
 20
50.9801649904357
 30
0.0
 10
9.788712000000002
 20
50.96104465710237
 30
0.0
 10
9.815199000000002
 20
50.94192432376904
 30
0.0
 10
9.841686000000003
 20
50.9228039904357
 30
0.0
 10
9.869605333333336
 20
50.90550999043571
 30
0.0
 10
9.89752466666667
 20
50.8882159904357
 30
0.0
 10
9.925444000000002
 20
50.8709219904357
 30
0.0
 10
9.954665000000002
 20
50.85563365710237
 30
0.0
 10
9.983886000000002
 20
50.84034532376904
 30
0.0
 10
10.013107
 20
50.82505699043571
 30
0.0
 10
10.04335266666667
 20
50.81191665710237
 30
0.0
 10
10.07359833333333
 20
50.79877632376903
 30
0.0
 10
10.103844
 20
50.7856359904357
 30
0.0
 10
10.134737
 20
50.77479165710236
 30
0.0
 10
10.16563
 20
50.76394732376903
 30
0.0
 10
10.196523
 20
50.7531029904357
 30
0.0
 10
10.22799633333334
 20
50.74440865710236
 30
0.0
 10
10.25946966666667
 20
50.73571432376903
 30
0.0
 10
10.290943
 20
50.7270199904357
 30
0.0
 10
10.32290233333334
 20
50.72053965710236
 30
0.0
 10
10.35486166666667
 20
50.71405932376903
 30
0.0
 10
10.386821
 20
50.7075789904357
 30
0.0
 10
10.419015
 20
50.70338065710237
 30
0.0
 10
10.451209
 20
50.69918232376904
 30
0.0
 10
10.483403
 20
50.6949839904357
 30
0.0
 10
10.515698
 20
50.69306832376903
 30
0.0
 10
10.547993
 20
50.69115265710237
 30
0.0
 10
10.580288
 20
50.68923699043571
 30
0.0
 10
10.61269333333333
 20
50.68963132376903
 30
0.0
 10
10.64509866666667
 20
50.69002565710237
 30
0.0
 10
10.677504
 20
50.69041999043569
 30
0.0
 10
10.709811
 20
50.69314065710237
 30
0.0
 10
10.742118
 20
50.69586132376903
 30
0.0
 10
10.774425
 20
50.69858199043571
 30
0.0
 10
10.80638633333334
 20
50.70358532376903
 30
0.0
 10
10.83834766666667
 20
50.70858865710236
 30
0.0
 10
10.870309
 20
50.7135919904357
 30
0.0
 10
10.90194433333333
 20
50.72087099043571
 30
0.0
 10
10.93357966666667
 20
50.7281499904357
 30
0.0
 10
10.965215
 20
50.7354289904357
 30
0.0
 10
10.996462
 20
50.74496765710236
 30
0.0
 10
11.027709
 20
50.75450632376903
 30
0.0
 10
11.058956
 20
50.7640449904357
 30
0.0
 10
11.089404
 20
50.77570832376904
 30
0.0
 10
11.119852
 20
50.78737165710237
 30
0.0
 10
11.1503
 20
50.7990349904357
 30
0.0
 10
11.18004233333333
 20
50.8128229904357
 30
0.0
 10
11.20978466666667
 20
50.8266109904357
 30
0.0
 10
11.239527
 20
50.84039899043571
 30
0.0
 10
11.26835033333334
 20
50.85635365710237
 30
0.0
 10
11.29717366666667
 20
50.87230832376904
 30
0.0
 10
11.325997
 20
50.8882629904357
 30
0.0
 10
11.35361866666667
 20
50.9063069904357
 30
0.0
 10
11.38124033333334
 20
50.9243509904357
 30
0.0
 10
11.408862
 20
50.9423949904357
 30
0.0
 10
11.43501766666667
 20
50.9623049904357
 30
0.0
 10
11.46117333333333
 20
50.9822149904357
 30
0.0
 10
11.487329
 20
51.0021249904357
 30
0.0
 10
11.51182533333333
 20
51.0236969904357
 30
0.0
 10
11.53632166666667
 20
51.04526899043569
 30
0.0
 10
11.560818
 20
51.0668409904357
 30
0.0
 10
11.58364066666667
 20
51.08986532376903
 30
0.0
 10
11.60646333333334
 20
51.11288965710236
 30
0.0
 10
11.629286
 20
51.1359139904357
 30
0.0
 10
11.65044133333333
 20
51.16033732376903
 30
0.0
 10
11.67159666666667
 20
51.18476065710237
 30
0.0
 10
11.692752
 20
51.20918399043571
 30
0.0
 10
11.71222233333333
 20
51.23499032376903
 30
0.0
 10
11.73169266666667
 20
51.26079665710237
 30
0.0
 10
11.751163
 20
51.2866029904357
 30
0.0
 10
11.768727
 20
51.31354599043571
 30
0.0
 10
11.786291
 20
51.34048899043571
 30
0.0
 10
11.803855
 20
51.3674319904357
 30
0.0
 10
11.819351
 20
51.39516665710237
 30
0.0
 10
11.834847
 20
51.42290132376903
 30
0.0
 10
11.850343
 20
51.4506359904357
 30
0.0
 10
11.86380933333334
 20
51.47901265710237
 30
0.0
 10
11.87727566666667
 20
51.50738932376903
 30
0.0
 10
11.890742
 20
51.5357659904357
 30
0.0
 10
11.90225633333333
 20
51.56466432376903
 30
0.0
 10
11.91377066666667
 20
51.59356265710237
 30
0.0
 10
11.925285
 20
51.62246099043571
 30
0.0
 10
11.934826
 20
51.65159365710237
 30
0.0
 10
11.944367
 20
51.68072632376904
 30
0.0
 10
11.953908
 20
51.70985899043571
 30
0.0
 10
11.96143066666667
 20
51.73912665710237
 30
0.0
 10
11.96895333333334
 20
51.76839432376903
 30
0.0
 10
11.976476
 20
51.7976619904357
 30
0.0
 10
11.98196
 20
51.82707199043571
 30
0.0
 10
11.987444
 20
51.8564819904357
 30
0.0
 10
11.992928
 20
51.8858919904357
 30
0.0
 10
11.99473416666667
 20
51.89931015710237
 30
0.0
 10
11.99654033333333
 20
51.91272832376902
 30
0.0
 10
11.9983465
 20
51.9261464904357
 30
0.0
 10
12.008515
 20
52.01842732376903
 30
0.0
 10
12.0186835
 20
52.11070815710237
 30
0.0
 10
12.028852
 20
52.2029889904357
 30
0.0
 10
12.03766
 20
52.31452299043571
 30
0.0
 10
12.046468
 20
52.4260569904357
 30
0.0
 10
12.055276
 20
52.5375909904357
 30
0.0
 10
12.06090533333334
 20
52.65093665710236
 30
0.0
 10
12.06653466666667
 20
52.76428232376903
 30
0.0
 10
12.072164
 20
52.87762799043571
 30
0.0
 10
12.07366547183167
 20
52.93411422814737
 30
0.0
 10
12.07516694366333
 20
52.99060046585904
 30
0.0
 10
12.076668415495
 20
53.0470867035707
 30
0.0
 10
12.07754371199
 20
53.0955407424957
 30
0.0
 10
12.07862411194
 20
53.1923200664657
 30
0.0
 10
12.07821075487
 20
53.3375113202857
 30
0.0
 10
12.0762064546
 20
53.48272430630571
 30
0.0
 10
12.07407969885
 20
53.5795325584657
 30
0.0
 10
12.07287512818
 20
53.6279415365357
 30
0.0
 10
12.07209450531
 20
53.6593130083157
 30
0.0
 10
12.07041652549
 20
53.7220606378357
 30
0.0
 10
12.06670266429
 20
53.8475694186857
 30
0.0
 10
12.06131678335
 20
54.0044670167057
 30
0.0
 10
12.05346426686
 20
54.19271771719571
 30
0.0
 10
12.04750211882
 20
54.31819609267571
 30
0.0
 10
12.0443699244
 20
54.38093113266571
 30
0.0
 10
12.04049961725
 20
54.4584499077657
 30
0.0
 10
12.03431386692
 20
54.5747095237957
 30
0.0
 10
12.02498750843
 20
54.7296577835957
 30
0.0
 10
12.01491228551
 20
54.8845465387457
 30
0.0
 10
12.00103315111
 20
55.0780432295857
 30
0.0
 10
11.98253445504
 20
55.3100496359057
 30
0.0
 10
11.9619125007
 20
55.5417933809357
 30
0.0
 10
11.93895452269
 20
55.7732097715957
 30
0.0
 10
11.91352498632
 20
56.0042373868057
 30
0.0
 10
11.89482532592
 20
56.15800872914571
 30
0.0
 10
11.8850220137
 20
56.2348103249257
 30
0.0
 10
11.87098647488
 20
56.3447682406857
 30
0.0
 10
11.84104713441
 20
56.56430335574571
 30
0.0
 10
11.79030974778
 20
56.8925049891057
 30
0.0
 10
11.73395203198
 20
57.2192707225757
 30
0.0
 10
11.67200690464
 20
57.5444517856657
 30
0.0
 10
11.60442953113
 20
57.8678912329857
 30
0.0
 10
11.531434915
 20
58.18947040186571
 30
0.0
 10
11.453412117
 20
58.5090817260057
 30
0.0
 10
11.39835478351
 20
58.7211176625157
 30
0.0
 10
11.37014965065
 20
58.8268007553157
 30
0.0
  0
SPLINE
  5
65
330
1F
100
AcDbEntity
  8
2D
100
AcDbSpline
210
0.0
220
0.0
230
1.0
 70
     8
 71
     3
 72
    12
 73
     8
 74
     0
 42
0.0000000001
 43
0.0000000001
 40
0.0
 40
0.0
 40
0.0
 40
0.0
 40
1.0
 40
2.0
 40
3.0
 40
4.0
 40
5.0
 40
5.0
 40
5.0
 40
5.0
 10
-10.392007
 20
49.39329799043571
 30
0.0
 10
-10.3961672124105
 20
49.2196759312388
 30
0.0
 10
-10.40688417056629
 20
48.87179101467393
 30
0.0
 10
-10.39719795636835
 20
48.35201506421489
 30
0.0
 10
-10.42144967656685
 20
47.82537919498829
 30
0.0
 10
-10.14406389621477
 20
47.33234226271895
 30
0.0
 10
-9.734683357021908
 20
47.34275310711874
 30
0.0
 10
-9.589988000000002
 20
47.4367269904357
 30
0.0
  0
SPLINE
  5
66
330
1F
100
AcDbEntity
  8
2D
100
AcDbSpline
210
0.0
220
0.0
230
1.0
 70
     8
 71
     3
 72
    17
 73
    13
 74
     0
 42
0.0000000001
 43
0.0000000001
 40
-7.0
 40
-7.0
 40
-7.0
 40
-7.0
 40
-6.0
 40
-5.0
 40
-4.0
 40
-3.0
 40
-2.0
 40
-1.0
 40
0.0
 40
0.0
 40
0.0
 40
0.8719746719865213
 40
0.8719746719865213
 40
0.8719746719865213
 40
0.8719746719865213
 10
-7.439199000000002
 20
16.03890241417338
 30
0.0
 10
-7.447525311092541
 20
16.01421551136545
 30
0.0
 10
-7.467186203776343
 20
15.96587667793406
 30
0.0
 10
-7.504443149965997
 20
15.89703224673725
 30
0.0
 10
-7.549317730993772
 20
15.83289437600846
 30
0.0
 10
-7.602161640838972
 20
15.77498102823914
 30
0.0
 10
-7.664834987732473
 20
15.72758993568788
 30
0.0
 10
-7.737738240063854
 20
15.69697188533291
 30
0.0
 10
-7.790734866234622
 20
15.69511249979367
 30
0.0
 10
-7.816509
 20
15.69887641417338
 30
0.0
 10
-8.104769333333333
 20
15.73613474750671
 30
0.0
 10
-8.393029666666667
 20
15.77339308084005
 30
0.0
 10
-8.68129
 20
15.81065141417338
 30
0.0
  0
ARC
  5
68
330
1F
100
AcDbEntity
  8
DEFAULT
100
AcDbCircle
 10
2.108046682140123
 20
19.24114124299247
 30
0.0
 40
2.532667408802388
100
AcDbArc
 50
351.2788810690934
 51
2.692748793193573
  0
ARC
  5
69
330
1F
100
AcDbEntity
  8
DEFAULT
100
AcDbCircle
 10
-17.98214185693763
 20
16.77500575022581
 30
0.0
 40
11.58847861632777
100
AcDbArc
 50
10.3995346420304
 51
26.70250185266871
  0
ARC
  5
6A
330
1F
100
AcDbEntity
  8
DEFAULT
100
AcDbCircle
 10
-2.108046682140123
 20
19.24114124299247
 30
0.0
 40
2.532667408802388
100
AcDbArc
 50
177.3072512068065
 51
188.7211189309066
  0
ARC
  5
6B
330
1F
100
AcDbEntity
  8
DEFAULT
100
AcDbCircle
 10
17.98214185693763
 20
16.77500575022581
 30
0.0
 40
11.58847861632777
100
AcDbArc
 50
153.2974981473313
 51
169.6004653579696
  0
SPLINE
  5
6C
330
1F
100
AcDbEntity
  8
2D
100
AcDbSpline
210
0.0
220
0.0
230
1.0
 70
     8
 71
     3
 72
   104
 73
   100
 74
     0
 42
0.0000000001
 43
0.0000000001
 40
0.0
 40
0.0
 40
0.0
 40
0.0
 40
1.0
 40
2.0
 40
3.0
 40
4.0
 40
5.0
 40
6.0
 40
7.0
 40
8.0
 40
9.0
 40
10.0
 40
11.0
 40
12.0
 40
13.0
 40
14.0
 40
15.0
 40
16.0
 40
17.0
 40
18.0
 40
19.0
 40
20.0
 40
21.0
 40
22.0
 40
23.0
 40
24.0
 40
25.0
 40
26.0
 40
27.0
 40
28.0
 40
29.0
 40
30.0
 40
31.0
 40
32.0
 40
33.0
 40
34.0
 40
35.0
 40
36.0
 40
37.0
 40
38.0
 40
39.0
 40
40.0
 40
41.0
 40
42.0
 40
43.0
 40
44.0
 40
45.0
 40
46.0
 40
47.0
 40
48.0
 40
49.0
 40
50.0
 40
51.0
 40
52.0
 40
53.0
 40
54.0
 40
55.0
 40
56.0
 40
57.0
 40
58.0
 40
59.0
 40
60.0
 40
61.0
 40
62.0
 40
63.0
 40
64.0
 40
65.0
 40
66.0
 40
67.0
 40
68.0
 40
69.0
 40
70.0
 40
71.0
 40
72.0
 40
73.0
 40
74.0
 40
75.0
 40
76.0
 40
77.0
 40
78.0
 40
79.0
 40
80.0
 40
81.0
 40
82.0
 40
83.0
 40
84.0
 40
85.0
 40
86.0
 40
87.0
 40
88.0
 40
89.0
 40
90.0
 40
91.0
 40
92.0
 40
93.0
 40
94.0
 40
95.0
 40
96.0
 40
97.0
 40
97.0
 40
97.0
 40
97.0
 10
25.60428645422725
 20
20.45753541417338
 30
0.0
 10
25.65068481861698
 20
20.5115417741691
 30
0.0
 10
25.74204101239273
 20
20.62079334635801
 30
0.0
 10
25.87465540103162
 20
20.78826570881585
 30
0.0
 10
26.00275243669128
 20
20.95921873100932
 30
0.0
 10
26.12625682153062
 20
21.13351981104188
 30
0.0
 10
26.2450186875341
 20
21.3110817876179
 30
0.0
 10
26.35918650560613
 20
21.49164307419894
 30
0.0
 10
26.46780781673905
 20
21.67557731789897
 30
0.0
 10
26.5747364059073
 20
21.86048799602588
 30
0.0
 10
26.68065145520747
 20
22.04598180521128
 30
0.0
 10
26.78536669269658
 20
22.23215664065125
 30
0.0
 10
26.88892608615878
 20
22.41897577368831
 30
0.0
 10
26.99131348693143
 20
22.6064410432857
 30
0.0
 10
27.09252709699031
 20
22.79454138018115
 30
0.0
 10
27.19256416901018
 20
22.98327146023009
 30
0.0
 10
27.2914158254431
 20
23.1726233896055
 30
0.0
 10
27.38909428390995
 20
23.36258492010284
 30
0.0
 10
27.48530627723448
 20
23.55329397282741
 30
0.0
 10
27.57923139831205
 20
23.7451418099194
 30
0.0
 10
27.67047019660426
 20
23.93828028019577
 30
0.0
 10
27.7590090858596
 20
24.13267739827335
 30
0.0
 10
27.84345771155707
 20
24.32888617826147
 30
0.0
 10
27.92407803103301
 20
24.52669987436993
 30
0.0
 10
28.0001688584188
 20
24.72629544079909
 30
0.0
 10
28.07122046302759
 20
24.92776379302093
 30
0.0
 10
28.13500227423545
 20
25.131649350711
 30
0.0
 10
28.19251466419028
 20
25.3373937835577
 30
0.0
 10
28.24085173736119
 20
25.54551346307543
 30
0.0
 10
28.27983379096806
 20
25.75557959697163
 30
0.0
 10
28.30820540094189
 20
25.96735534392859
 30
0.0
 10
28.32493822880373
 20
26.18036730816725
 30
0.0
 10
28.33042102697986
 20
26.39395760180126
 30
0.0
 10
28.32517385872548
 20
26.60754884897301
 30
0.0
 10
28.30966093849258
 20
26.8206312427116
 30
0.0
 10
28.2851160264908
 20
27.03285352258067
 30
0.0
 10
28.2527910798282
 20
27.24401972491145
 30
0.0
 10
28.21407267892828
 20
27.45410943872776
 30
0.0
 10
28.16928342229382
 20
27.66298212521404
 30
0.0
 10
28.11991551241738
 20
27.87080827369478
 30
0.0
 10
28.06634759455833
 20
28.07759233030154
 30
0.0
 10
28.00973378384875
 20
28.28355910262632
 30
0.0
 10
27.95002862156775
 20
28.48865438186179
 30
0.0
 10
27.88766343965681
 20
28.69295111636013
 30
0.0
 10
27.82331008430823
 20
28.89663324503275
 30
0.0
 10
27.75665627100031
 20
29.09956882779201
 30
0.0
 10
27.68807935332858
 20
29.30186606707045
 30
0.0
 10
27.61801127800647
 20
29.50364919885489
 30
0.0
 10
27.54639304396233
 20
29.70488708318696
 30
0.0
 10
27.4736043029428
 20
29.90570492981673
 30
0.0
 10
27.39926378849017
 20
30.1059518144759
 30
0.0
 10
27.3248040101373
 20
30.30615697718216
 30
0.0
 10
27.24827247272871
 20
30.50558049803839
 30
0.0
 10
27.17167425714149
 20
30.70497338405923
 30
0.0
 10
27.09425640657007
 20
30.90405355509957
 30
0.0
 10
27.01566109131999
 20
31.10266947636384
 30
0.0
 10
26.93712069012315
 20
31.30130806600629
 30
0.0
 10
26.85714058611347
 20
31.4993723057312
 30
0.0
 10
26.7769202201518
 20
31.69733611169692
 30
0.0
 10
26.69606067901731
 20
31.89504352877707
 30
0.0
 10
26.61406001922723
 20
32.09227652490067
 30
0.0
 10
26.53227910694154
 20
32.28960569595133
 30
0.0
 10
26.4485874434942
 20
32.48612961203943
 30
0.0
 10
26.36550902254216
 20
32.68291349120044
 30
0.0
 10
26.28074836381261
 20
32.87898044606569
 30
0.0
 10
26.19550162187508
 20
33.07483252629049
 30
0.0
 10
26.10964399993445
 20
33.27041936565787
 30
0.0
 10
26.02281740161314
 20
33.46557921588142
 30
0.0
 10
25.93483298482063
 20
33.66021946328937
 30
0.0
 10
25.8459330934763
 20
33.85443983162111
 30
0.0
 10
25.75611851743484
 20
34.04824350525606
 30
0.0
 10
25.66428607380796
 20
34.24109958273164
 30
0.0
 10
25.57049554591985
 20
34.43301310483641
 30
0.0
 10
25.47399462057826
 20
34.62356727644337
 30
0.0
 10
25.37248678753677
 20
34.81160556400132
 30
0.0
 10
25.2620715002284
 20
34.99435787515036
 30
0.0
 10
25.13756111920106
 20
35.16889192477325
 30
0.0
 10
24.97454998701224
 20
35.30982803772656
 30
0.0
 10
24.77330707096548
 20
35.39134553202315
 30
0.0
 10
24.55808514992923
 20
35.40345879080081
 30
0.0
 10
24.34684277676708
 20
35.37216649781725
 30
0.0
 10
24.13553992720266
 20
35.33084247293243
 30
0.0
 10
23.93179938142841
 20
35.29433237048114
 30
0.0
 10
23.70279269546061
 20
35.2232976148299
 30
0.0
 10
23.55994622273828
 20
35.4367119686944
 30
0.0
 10
23.68236979273015
 20
35.63587524015961
 30
0.0
 10
23.72851957969533
 20
35.84155521913846
 30
0.0
 10
23.77091070821119
 20
36.05229500489695
 30
0.0
 10
23.77295547485963
 20
36.26579779721439
 30
0.0
 10
23.7361930336989
 20
36.48062443879489
 30
0.0
 10
23.65097649716476
 20
36.6665824548306
 30
0.0
 10
23.5627615303837
 20
36.89976695756752
 30
0.0
 10
23.82367261436745
 20
36.95904039870333
 30
0.0
 10
24.00495907470324
 20
37.04441045006479
 30
0.0
 10
24.20426975896357
 20
37.13062569530988
 30
0.0
 10
24.39711213965727
 20
37.2203649681506
 30
0.0
 10
24.59683279194649
 20
37.29728532766006
 30
0.0
 10
24.803137610241
 20
37.35399675175901
 30
0.0
 10
24.94537707085247
 20
37.36960286215836
 30
0.0
 10
25.01663052656725
 20
37.36763986461338
 30
0.0
  0
SPLINE
  5
6D
330
1F
100
AcDbEntity
  8
DEFAULT
100
AcDbSpline
210
0.0
220
0.0
230
1.0
 70
     8
 71
     3
 72
    11
 73
     7
 74
     0
 42
0.0000000001
 43
0.0000000001
 40
0.0
 40
0.0
 40
0.0
 40
0.0
 40
2.52607707312445
 40
4.621930333898206
 40
5.781549188854441
 40
6.41437351209431
 40
6.41437351209431
 40
6.41437351209431
 40
6.41437351209431
 10
32.34720645422725
 20
18.61473441417338
 30
0.0
 10
31.505325866431
 20
18.6303658013715
 30
0.0
 10
29.96409799917755
 20
18.56708923417177
 30
0.0
 10
28.04444532603642
 20
18.35017935671703
 30
0.0
 10
26.78570878353803
 20
18.02810956818057
 30
0.0
 10
26.22295217377365
 20
17.82613945428876
 30
0.0
 10
26.02667545422725
 20
17.74886241417338
 30
0.0
  0
SPLINE
  5
6E
330
1F
100
AcDbEntity
  8
2D
100
AcDbSpline
210
0.0
220
0.0
230
1.0
 70
     8
 71
     3
 72
    14
 73
    10
 74
     0
 42
0.0000000001
 43
0.0000000001
 40
0.0
 40
0.0
 40
0.0
 40
0.0
 40
1.0
 40
2.0
 40
3.0
 40
4.0
 40
5.0
 40
6.0
 40
7.0
 40
7.0
 40
7.0
 40
7.0
 10
33.89486145422725
 20
15.98669141417338
 30
0.0
 10
34.29161591386975
 20
16.00202895331546
 30
0.0
 10
35.08481902932152
 20
16.03540663493089
 30
0.0
 10
36.2753751118714
 20
16.08501425269571
 30
0.0
 10
37.46254258766213
 20
16.15859577335304
 30
0.0
 10
38.66010971493425
 20
16.18573127176047
 30
0.0
 10
39.80934864723393
 20
16.52216642332969
 30
0.0
 10
40.92952677118909
 20
16.86976633242163
 30
0.0
 10
41.7033507159156
 20
17.20305494895548
 30
0.0
 10
42.08029145422725
 20
16.98614941417338
 30
0.0
  0
SPLINE
  5
6F
330
1F
100
AcDbEntity
  8
2D
100
AcDbSpline
210
0.0
220
0.0
230
1.0
 70
    12
 71
     2
 72
   116
 73
   113
 74
     0
 42
0.0000000001
 43
0.0000000001
 40
-0.5925908569223227
 40
-0.5925908569223227
 40
-0.5925908569223227
 40
0.0
 40
0.0
 40
1.0
 40
1.0
 40
2.0
 40
2.0
 40
3.0
 40
3.0
 40
4.0
 40
4.0
 40
5.0
 40
5.0
 40
6.0
 40
6.0
 40
7.0
 40
7.0
 40
9.0
 40
9.0
 40
11.0
 40
11.0
 40
13.0
 40
13.0
 40
15.0
 40
15.0
 40
18.0
 40
18.0
 40
21.0
 40
21.0
 40
24.0
 40
24.0
 40
27.0
 40
27.0
 40
29.0
 40
29.0
 40
30.0
 40
30.0
 40
31.0
 40
31.0
 40
32.0
 40
32.0
 40
33.0
 40
33.0
 40
34.0
 40
34.0
 40
35.0
 40
35.0
 40
36.0
 40
36.0
 40
37.0
 40
37.0
 40
38.0
 40
38.0
 40
39.0
 40
39.0
 40
40.0
 40
40.0
 40
41.0
 40
41.0
 40
42.0
 40
42.0
 40
43.0
 40
43.0
 40
44.0
 40
44.0
 40
45.0
 40
45.0
 40
46.0
 40
46.0
 40
47.0
 40
47.0
 40
48.0
 40
48.0
 40
49.0
 40
49.0
 40
50.0
 40
50.0
 40
51.0
 40
51.0
 40
52.0
 40
52.0
 40
53.0
 40
53.0
 40
54.0
 40
54.0
 40
55.0
 40
55.0
 40
56.0
 40
56.0
 40
57.0
 40
57.0
 40
58.0
 40
58.0
 40
59.0
 40
59.0
 40
60.0
 40
60.0
 40
61.0
 40
61.0
 40
62.0
 40
62.0
 40
63.0
 40
63.0
 40
64.0
 40
64.0
 40
65.0
 40
65.0
 40
66.0
 40
66.0
 40
67.0
 40
67.0
 40
68.0
 40
68.0
 40
68.0
 10
24.78218845422725
 20
37.40412141417337
 30
0.0
 41
1.0
 10
25.10030059476784
 20
37.40252669409078
 30
0.0
 41
0.9002152851313934
 10
25.29652645422725
 20
37.15214041417339
 30
0.0
 41
1.0
 10
25.32101645422726
 20
37.12089091417338
 30
0.0
 41
1.0
 10
25.34550645422726
 20
37.08964141417338
 30
0.0
 41
1.0
 10
25.36949945422726
 20
37.05531091417338
 30
0.0
 41
1.0
 10
25.39349245422726
 20
37.02098041417338
 30
0.0
 41
1.0
 10
25.41692795422725
 20
36.98412491417338
 30
0.0
 41
1.0
 10
25.44036345422725
 20
36.94726941417338
 30
0.0
 41
1.0
 10
25.46340295422725
 20
36.90832491417338
 30
0.0
 41
1.0
 10
25.48644245422725
 20
36.86938041417338
 30
0.0
 41
1.0
 10
25.50918245422725
 20
36.82878741417338
 30
0.0
 41
1.0
 10
25.53192245422726
 20
36.78819441417338
 30
0.0
 41
1.0
 10
25.55444895422725
 20
36.74629941417338
 30
0.0
 41
1.0
 10
25.57697545422725
 20
36.70440441417338
 30
0.0
 41
1.0
 10
25.59939245422725
 20
36.66123391417338
 30
0.0
 41
1.0
 10
25.62180945422725
 20
36.61806341417338
 30
0.0
 41
1.0
 10
25.66651295422725
 20
36.52824041417338
 30
0.0
 41
1.0
 10
25.71121645422726
 20
36.43841741417338
 30
0.0
 41
1.0
 10
25.75629295422726
 20
36.34419041417338
 30
0.0
 41
1.0
 10
25.80136945422726
 20
36.24996341417338
 30
0.0
 41
1.0
 10
25.84725895422725
 20
36.15163741417338
 30
0.0
 41
1.0
 10
25.89314845422725
 20
36.05331141417338
 30
0.0
 41
1.0
 10
25.94002395422725
 20
35.95077991417338
 30
0.0
 41
1.0
 10
25.98689945422726
 20
35.84824841417338
 30
0.0
 41
1.0
 10
26.05966945422725
 20
35.68625341417338
 30
0.0
 41
1.0
 10
26.13243945422725
 20
35.52425841417338
 30
0.0
 41
1.0
 10
26.20875745422725
 20
35.35164591417338
 30
0.0
 41
1.0
 10
26.28507545422725
 20
35.17903341417338
 30
0.0
 41
1.0
 10
26.36556095422725
 20
34.99460241417339
 30
0.0
 41
1.0
 10
26.44604645422725
 20
34.81017141417338
 30
0.0
 41
1.0
 10
26.53134595422725
 20
34.61230641417338
 30
0.0
 41
1.0
 10
26.61664545422725
 20
34.41444141417338
 30
0.0
 41
1.0
 10
26.67656545422726
 20
34.27408041417338
 30
0.0
 41
1.0
 10
26.73648545422726
 20
34.13371941417338
 30
0.0
 41
1.0
 10
26.76739795422726
 20
34.06086591417338
 30
0.0
 41
1.0
 10
26.79831045422726
 20
33.98801241417338
 30
0.0
 41
1.0
 10
26.82997645422725
 20
33.91307041417338
 30
0.0
 41
1.0
 10
26.86164245422725
 20
33.83812841417338
 30
0.0
 41
1.0
 10
26.89404245422725
 20
33.76112091417338
 30
0.0
 41
1.0
 10
26.92644245422726
 20
33.68411341417338
 30
0.0
 41
1.0
 10
26.95957845422726
 20
33.60501191417338
 30
0.0
 41
1.0
 10
26.99271445422725
 20
33.52591041417338
 30
0.0
 41
1.0
 10
27.02673295422725
 20
33.44433891417339
 30
0.0
 41
1.0
 10
27.06075145422725
 20
33.36276741417338
 30
0.0
 41
1.0
 10
27.09562145422725
 20
33.27875891417338
 30
0.0
 41
1.0
 10
27.13049145422725
 20
33.19475041417338
 30
0.0
 41
1.0
 10
27.16621145422726
 20
33.10825941417338
 30
0.0
 41
1.0
 10
27.20193145422726
 20
33.02176841417338
 30
0.0
 41
1.0
 10
27.23868595422725
 20
32.93229491417338
 30
0.0
 41
1.0
 10
27.27544045422725
 20
32.84282141417338
 30
0.0
 41
1.0
 10
27.31319595422725
 20
32.75039791417338
 30
0.0
 41
1.0
 10
27.35095145422726
 20
32.65797441417338
 30
0.0
 41
1.0
 10
27.38970645422726
 20
32.56255541417338
 30
0.0
 41
1.0
 10
27.42846145422725
 20
32.46713641417338
 30
0.0
 41
1.0
 10
27.46844595422725
 20
32.36810191417338
 30
0.0
 41
1.0
 10
27.50843045422725
 20
32.26906741417339
 30
0.0
 41
1.0
 10
27.54956495422725
 20
32.16653991417338
 30
0.0
 41
1.0
 10
27.59069945422726
 20
32.06401241417338
 30
0.0
 41
1.0
 10
27.63300395422726
 20
31.95784891417338
 30
0.0
 41
1.0
 10
27.67530845422726
 20
31.85168541417338
 30
0.0
 41
1.0
 10
27.71914545422726
 20
31.74086341417338
 30
0.0
 41
1.0
 10
27.76298245422726
 20
31.63004141417338
 30
0.0
 41
1.0
 10
27.80746320422725
 20
31.51659666417338
 30
0.0
 41
1.0
 10
27.85194395422725
 20
31.40315191417338
 30
0.0
 41
1.0
 10
27.91290120422725
 20
31.24603066417338
 30
0.0
 41
1.0
 10
27.97385845422725
 20
31.08890941417338
 30
0.0
 41
1.0
 10
28.04869645422725
 20
30.89279691417338
 30
0.0
 41
1.0
 10
28.12353445422725
 20
30.69668441417338
 30
0.0
 41
1.0
 10
28.19504795422726
 20
30.50480591417338
 30
0.0
 41
1.0
 10
28.26656145422726
 20
30.31292741417338
 30
0.0
 41
1.0
 10
28.33445295422725
 20
30.12528991417338
 30
0.0
 41
1.0
 10
28.40234445422725
 20
29.93765241417338
 30
0.0
 41
1.0
 10
28.46636995422725
 20
29.75410241417338
 30
0.0
 41
1.0
 10
28.53039545422725
 20
29.57055241417338
 30
0.0
 41
1.0
 10
28.59034695422725
 20
29.39078441417338
 30
0.0
 41
1.0
 10
28.65029845422725
 20
29.21101641417338
 30
0.0
 41
1.0
 10
28.70590645422725
 20
29.03503091417338
 30
0.0
 41
1.0
 10
28.76151445422725
 20
28.85904541417338
 30
0.0
 41
1.0
 10
28.81248445422725
 20
28.68679491417338
 30
0.0
 41
1.0
 10
28.86345445422725
 20
28.51454441417338
 30
0.0
 41
1.0
 10
28.90936445422725
 20
28.34564441417338
 30
0.0
 41
1.0
 10
28.95527445422725
 20
28.17674441417338
 30
0.0
 41
1.0
 10
28.99558195422726
 20
28.01143891417338
 30
0.0
 41
1.0
 10
29.03588945422726
 20
27.84613341417338
 30
0.0
 41
1.0
 10
29.07001295422726
 20
27.68422641417338
 30
0.0
 41
1.0
 10
29.10413645422726
 20
27.52231941417338
 30
0.0
 41
1.0
 10
29.13123295422726
 20
27.36278591417338
 30
0.0
 41
1.0
 10
29.15832945422726
 20
27.20325241417338
 30
0.0
 41
1.0
 10
29.17684045422725
 20
27.04645691417338
 30
0.0
 41
1.0
 10
29.19535145422725
 20
26.88966141417338
 30
0.0
 41
1.0
 10
29.20344845422725
 20
26.73586691417338
 30
0.0
 41
1.0
 10
29.21154545422725
 20
26.58207241417338
 30
0.0
 41
1.0
 10
29.20807845422725
 20
26.43035041417338
 30
0.0
 41
1.0
 10
29.20461145422725
 20
26.27862841417338
 30
0.0
 41
1.0
 10
29.18925095422725
 20
26.13023241417338
 30
0.0
 41
1.0
 10
29.17389045422725
 20
25.98183641417338
 30
0.0
 41
1.0
 10
29.14750995422725
 20
25.83777441417338
 30
0.0
 41
1.0
 10
29.12112945422726
 20
25.69371241417338
 30
0.0
 41
1.0
 10
29.08531795422726
 20
25.55293241417338
 30
0.0
 41
1.0
 10
29.04950645422726
 20
25.41215241417338
 30
0.0
 41
1.0
 10
29.00673545422725
 20
25.27495291417338
 30
0.0
 41
1.0
 10
28.96396445422725
 20
25.13775341417338
 30
0.0
 41
1.0
 10
28.91705545422725
 20
25.00374691417338
 30
0.0
 41
1.0
 10
28.87014645422725
 20
24.86974041417338
 30
0.0
 41
1.0
 10
28.82016845422725
 20
24.73672541417338
 30
0.0
 41
1.0
 10
28.77019045422725
 20
24.60371041417338
 30
0.0
 41
1.0
 10
28.71789945422725
 20
24.47083691417338
 30
0.0
 41
1.0
 10
28.66560845422725
 20
24.33796341417338
 30
0.0
 41
1.0
 10
28.61144095422726
 20
24.20579191417338
 30
0.0
 41
1.0
 10
28.55727345422726
 20
24.07362041417338
 30
0.0
 41
1.0
 10
28.55149345422726
 20
24.05981841417338
 30
0.0
 41
1.0
 10
28.54571345422725
 20
24.04601641417338
 30
0.0
 41
1.0
  0
SPLINE
  5
70
330
1F
100
AcDbEntity
  8
2D
100
AcDbSpline
210
0.0
220
0.0
230
1.0
 70
     8
 71
     3
 72
    19
 73
    15
 74
     0
 42
0.0000000001
 43
0.0000000001
 40
0.0
 40
0.0
 40
0.0
 40
0.0
 40
1.0
 40
2.0
 40
3.0
 40
4.0
 40
5.0
 40
6.0
 40
7.0
 40
8.0
 40
9.0
 40
10.0
 40
11.0
 40
12.0
 40
12.0
 40
12.0
 40
12.0
 10
26.14847945422726
 20
19.45919641417338
 30
0.0
 10
26.12784334342683
 20
19.42962908927415
 30
0.0
 10
26.08714111640507
 20
19.37008491376696
 30
0.0
 10
26.0239503814213
 20
19.28230449465245
 30
0.0
 10
25.96048163536899
 20
19.19468652337761
 30
0.0
 10
25.89394635938164
 20
19.10938826650958
 30
0.0
 10
25.8263777081988
 20
19.02489650043899
 30
0.0
 10
25.75589184882207
 20
18.94293307426686
 30
0.0
 10
25.68416082337211
 20
18.86165037597192
 30
0.0
 10
25.60808006305169
 20
18.78569106296769
 30
0.0
 10
25.50637872227156
 20
18.73369982057279
 30
0.0
 10
25.47527254927054
 20
18.62298375234689
 30
0.0
 10
25.54195060150774
 20
18.52791304195863
 30
0.0
 10
25.59267773588875
 20
18.47918924694041
 30
0.0
 10
25.62192545422725
 20
18.45744741417338
 30
0.0
  0
SPLINE
  5
71
330
1F
100
AcDbEntity
  8
2D
100
AcDbSpline
210
0.0
220
0.0
230
1.0
 70
    15
 71
     3
 72
    40
 73
    36
 74
     0
 42
0.0000000001
 43
0.0000000001
 40
0.0
 40
0.0
 40
0.0
 40
0.0
 40
1.0
 40
1.0
 40
1.0
 40
1.285775837294519
 40
1.285775837294519
 40
1.285775837294519
 40
13.28577583729452
 40
13.28577583729452
 40
13.28577583729452
 40
14.18804489626731
 40
14.18804489626731
 40
14.18804489626731
 40
15.09031395524011
 40
15.09031395524011
 40
15.09031395524011
 40
16.09031395524011
 40
16.09031395524011
 40
16.09031395524011
 40
16.23831742895898
 40
16.23831742895898
 40
16.23831742895898
 40
17.23831742895898
 40
18.23831742895898
 40
19.23831742895898
 40
20.23831742895898
 40
21.23831742895898
 40
21.23831742895898
 40
21.23831742895898
 40
22.23831742895898
 40
23.23831742895898
 40
24.23831742895898
 40
25.23831742895898
 40
26.23831742895898
 40
26.23831742895898
 40
26.23831742895898
 40
26.23831742895898
 10
42.80850245422725
 20
1.24040441417338
 30
0.0
 41
1.0
 10
42.84482948223436
 20
1.264793742653664
 30
0.0
 41
1.0
 10
42.90325000403602
 20
1.254600072515776
 30
0.0
 41
1.0
 10
42.93934351262933
 20
1.229866473000674
 30
0.0
 41
1.0
 10
43.01823357505383
 20
1.175805915139286
 30
0.0
 41
0.9921390420363373
 10
43.08791599280991
 20
1.110303651657096
 30
0.0
 41
0.9921390420363373
 10
43.14674745422725
 20
1.034904414173381
 30
0.0
 41
1.0
 10
43.31329502000322
 20
0.8214546857160713
 30
0.0
 41
0.983667013198923
 10
43.42880392997666
 20
0.5765943786813265
 30
0.0
 41
0.983667013198923
 10
43.48761436764154
 20
0.3123213935578668
 30
0.0
 41
1.0
 10
43.4948293907938
 20
0.2820246696633195
 30
0.0
 41
0.9332984825579164
 10
43.48811322904869
 20
0.2516134676278325
 30
0.0
 41
0.9332984825579164
 10
43.46880981694554
 20
0.2271732074204171
 30
0.0
 41
1.0
 10
43.44950640484241
 20
0.2027329472130017
 30
0.0
 41
0.9332984825579164
 10
43.42147844301851
 20
0.1891542361611998
 30
0.0
 41
0.9332984825579164
 10
43.39033445422726
 20
0.1891542361611998
 30
0.0
 41
1.0
 10
42.53425378756059
 20
0.1891542954985944
 30
0.0
 41
1.0
 10
41.67817312089392
 20
0.1891543548359891
 30
0.0
 41
1.0
 10
40.82209245422726
 20
0.1891544141733837
 30
0.0
 41
1.0
 10
40.76775972891792
 20
0.1895816071387934
 30
0.0
 41
0.8288697010349231
 10
40.72765973898564
 20
0.2262451904443337
 30
0.0
 41
0.8288697010349231
 10
40.72237945422725
 20
0.2803224141733805
 30
0.0
 41
1.0
 10
40.71841093711225
 20
0.320965371460896
 30
0.0
 41
1.0
 10
40.71693908613571
 20
0.4030570759072749
 30
0.0
 41
1.0
 10
40.73766239038167
 20
0.5241740193201818
 30
0.0
 41
1.0
 10
40.77962285124678
 20
0.64069119774109
 30
0.0
 41
1.0
 10
40.84269897522409
 20
0.7435446333550113
 30
0.0
 41
1.0
 10
40.89525680394634
 20
0.8133279281200319
 30
0.0
 41
1.0
 10
40.94035445422725
 20
0.8141359141733804
 30
0.0
 41
1.0
 10
41.07125065536816
 20
0.8146148341953923
 30
0.0
 41
1.0
 10
41.33140928308531
 20
0.8117803140633236
 30
0.0
 41
1.0
 10
41.72244179567969
 20
0.821701134525564
 30
0.0
 41
1.0
 10
42.10610901273974
 20
0.903039615544916
 30
0.0
 41
1.0
 10
42.47272549718331
 20
1.039964335987961
 30
0.0
 41
1.0
 10
42.70044195216067
 20
1.167854491285915
 30
0.0
 41
1.0
 10
42.80850245422725
 20
1.24040441417338
 30
0.0
 41
1.0
  0
SPLINE
  5
72
330
1F
100
AcDbEntity
  8
2D
100
AcDbSpline
210
0.0
220
0.0
230
1.0
 70
    12
 71
     2
 72
    14
 73
    11
 74
     0
 42
0.0000000001
 43
0.0000000001
 40
-0.1501757160841543
 40
-0.1501757160841543
 40
-0.1501757160841543
 40
-0.0750878580420771
 40
-0.0750878580420771
 40
0.0
 40
0.0
 40
8.743518132848838
 40
8.743518132848838
 40
8.816646678248883
 40
8.816646678248883
 40
8.889775223648929
 40
8.889775223648929
 40
8.889775223648929
 10
31.83828445422725
 20
25.18634541417338
 30
0.0
 41
1.0
 10
31.838590243979
 20
25.14604681125709
 30
0.0
 41
0.9005117209322866
 10
31.87033993178438
 20
25.12122689528953
 30
0.0
 41
1.0
 10
31.90208961958977
 20
25.09640697932196
 30
0.0
 41
0.9005117209322866
 10
31.94127045422725
 20
25.10583741417338
 30
0.0
 41
1.0
 10
36.24777852163258
 20
26.14237081481493
 30
0.0
 41
0.9805630231844611
 10
40.62155745422726
 20
25.44203441417338
 30
0.0
 41
1.0
 10
40.66020893962182
 20
25.4358454771974
 30
0.0
 41
0.904019379192506
 10
40.68951694767271
 20
25.46179313466756
 30
0.0
 41
1.0
 10
40.7188249557236
 20
25.48774079213771
 30
0.0
 41
0.904019379192506
 10
40.71736545422724
 20
25.52685741417339
 30
0.0
 41
1.0
  0
SPLINE
  5
73
330
1F
100
AcDbEntity
  8
2D
100
AcDbSpline
210
0.0
220
0.0
230
1.0
 70
    12
 71
     3
 72
    17
 73
    13
 74
     0
 42
0.0000000001
 43
0.0000000001
 40
0.0
 40
0.0
 40
0.0
 40
0.0
 40
1.0
 40
1.0
 40
1.0
 40
2.0
 40
2.0
 40
2.0
 40
3.0
 40
3.0
 40
3.0
 40
3.78550152689474
 40
3.78550152689474
 40
3.78550152689474
 40
3.78550152689474
 10
41.14664545422725
 20
16.48865341417338
 30
0.0
 41
1.0
 10
41.82525478756059
 20
12.20408291417338
 30
0.0
 41
1.0
 10
42.50386412089392
 20
7.91951241417338
 30
0.0
 41
1.0
 10
43.18247345422725
 20
3.634941914173381
 30
0.0
 41
1.0
 10
43.40733281436493
 20
2.470403987309938
 30
0.0
 41
1.0
 10
42.39273912704531
 20
1.281908822896487
 30
0.0
 41
1.0
 10
41.20711045422725
 20
1.322084414173381
 30
0.0
 41
1.0
 10
35.30731412089391
 20
1.322084414173381
 30
0.0
 41
1.0
 10
29.40751778756058
 20
1.322084414173381
 30
0.0
 41
1.0
 10
23.50772145422725
 20
1.322084414173381
 30
0.0
 41
1.0
 10
23.21484161301014
 20
1.322084414173381
 30
0.0
 41
0.8050052867465053
 10
23.00762680277682
 20
1.115104647502025
 30
0.0
 41
0.8050052867465053
 10
23.00729440103726
 20
0.8222249949133809
 30
0.0
 41
1.0
  0
SPLINE
  5
74
330
1F
100
AcDbEntity
  8
2D
100
AcDbSpline
210
0.0
220
0.0
230
1.0
 70
    12
 71
     3
 72
    27
 73
    23
 74
     0
 42
0.0000000001
 43
0.0000000001
 40
-0.5169509898483728
 40
-0.5169509898483728
 40
-0.5169509898483728
 40
-0.5169509898483728
 40
-0.3656165970422043
 40
-0.3656165970422043
 40
-0.3656165970422043
 40
0.0
 40
0.0
 40
0.0
 40
0.09572888151513
 40
0.1972552775907999
 40
0.3058771808665
 40
0.4228952341633
 40
0.5495900912985
 40
0.6872085425197
 40
0.8369569650664
 40
1.0
 40
1.0
 40
1.0
 40
1.138161881153508
 40
1.138161881153508
 40
1.138161881153508
 40
1.276323762307016
 40
1.276323762307016
 40
1.276323762307016
 40
1.276323762307016
 10
25.65681945422725
 20
18.83784941417338
 30
0.0
 41
1.0
 10
25.62892591086727
 20
18.88249546615798
 30
0.0
 41
0.9192045403636495
 10
25.62571697690628
 20
18.93504089851723
 30
0.0
 41
0.9192045403636495
 10
25.64797045422726
 20
18.98274941417338
 30
0.0
 41
1.0
 10
25.69977488389521
 20
19.09381126793328
 30
0.0
 41
0.9889916540155195
 10
25.730624342836
 20
19.21241457807623
 30
0.0
 41
0.9889916540155195
 10
25.73950002649725
 20
19.33464246578338
 30
0.0
 41
1.0
 10
25.74164590301725
 20
19.36419353636338
 30
0.0
 41
1.0
 10
25.74342169812726
 20
19.42530438767338
 30
0.0
 41
1.0
 10
25.73836580182726
 20
19.51993732063338
 30
0.0
 41
1.0
 10
25.72510194335725
 20
19.62042289633338
 30
0.0
 41
1.0
 10
25.70307548404725
 20
19.72731278604338
 30
0.0
 41
1.0
 10
25.67173320300726
 20
19.84117859294338
 30
0.0
 41
1.0
 10
25.63051843795726
 20
19.96259520481338
 30
0.0
 41
1.0
 10
25.57887241893725
 20
20.09213900141338
 30
0.0
 41
1.0
 10
25.53890265416725
 20
20.18035297021338
 30
0.0
 41
1.0
 10
25.51718722361726
 20
20.22590482378338
 30
0.0
 41
1.0
 10
25.49681525596686
 20
20.26863853266412
 30
0.0
 41
0.9467856833757683
 10
25.49479961393402
 20
20.3159367792262
 30
0.0
 41
0.9467856833757683
 10
25.51146208055873
 20
20.36024873186466
 30
0.0
 41
1.0
 10
25.52812454718344
 20
20.40456068450311
 30
0.0
 41
0.9467856833757683
 10
25.56080507714159
 20
20.43881225238412
 30
0.0
 41
0.9467856833757683
 10
25.60428645422725
 20
20.45753541417338
 30
0.0
 41
1.0
  0
SPLINE
  5
75
330
1F
100
AcDbEntity
  8
2D
100
AcDbSpline
210
0.0
220
0.0
230
1.0
 70
     8
 71
     3
 72
    24
 73
    20
 74
     0
 42
0.0000000001
 43
0.0000000001
 40
0.0
 40
0.0
 40
0.0
 40
0.0
 40
1.0
 40
2.0
 40
3.0
 40
4.0
 40
5.0
 40
6.0
 40
7.0
 40
8.0
 40
9.0
 40
10.0
 40
11.0
 40
12.0
 40
13.0
 40
14.0
 40
15.0
 40
16.0
 40
17.0
 40
17.0
 40
17.0
 40
17.0
 10
27.80162545422726
 20
28.96209941417338
 30
0.0
 10
27.75593210474295
 20
28.84992677755471
 30
0.0
 10
27.57093628536662
 20
28.69987816701568
 30
0.0
 10
27.34167228454324
 20
28.43067927886376
 30
0.0
 10
27.18613148238511
 20
28.11086664452577
 30
0.0
 10
27.07955932249349
 20
27.774227599943
 30
0.0
 10
27.01130084407396
 20
27.42757513172786
 30
0.0
 10
26.964893469336
 20
27.07771062907719
 30
0.0
 10
26.93677589279294
 20
26.72584589172972
 30
0.0
 10
26.92476759271008
 20
26.37310406248088
 30
0.0
 10
26.92849225457378
 20
26.02018306696342
 30
0.0
 10
26.94542442430915
 20
25.66767575630979
 30
0.0
 10
26.97270813950431
 20
25.31584239794284
 30
0.0
 10
27.00424096677639
 20
24.96438688832241
 30
0.0
 10
27.05122060401523
 20
24.61441001890142
 30
0.0
 10
27.128593346531
 20
24.26995996996203
 30
0.0
 10
27.20707808337907
 20
23.92603442160075
 30
0.0
 10
27.29067888641925
 20
23.58293126479001
 30
0.0
 10
27.31951262662166
 20
23.3488607019771
 30
0.0
 10
27.32141938016832
 20
23.23115047322519
 30
0.0
  0
SPLINE
  5
76
330
1F
100
AcDbEntity
  8
2D
100
AcDbSpline
210
0.0
220
0.0
230
1.0
 70
    12
 71
     2
 72
    10
 73
     7
 74
     0
 42
0.0000000001
 43
0.0000000001
 40
0.0
 40
0.0
 40
0.0
 40
0.5
 40
0.5
 40
1.0
 40
1.0
 40
1.422674011004398
 40
1.422674011004398
 40
1.422674011004398
 10
29.58733789662726
 20
15.19999525567338
 30
0.0
 41
1.0
 10
29.50049810048387
 20
14.80538431307945
 30
0.0
 41
0.7777631155103533
 10
29.09645043578611
 20
14.8074892742122
 30
0.0
 41
1.0
 10
28.69240277108834
 20
14.80959423534495
 30
0.0
 41
0.7777631155103533
 10
28.60967917459725
 20
15.20508854983338
 30
0.0
 41
1.0
 10
28.56585145651768
 20
15.4146250551682
 30
0.0
 41
0.9809521157795035
 10
28.60518545422725
 20
15.62505141417338
 30
0.0
 41
1.0
  0
SPLINE
  5
77
330
1F
100
AcDbEntity
  8
2D
100
AcDbSpline
210
0.0
220
0.0
230
1.0
 70
     8
 71
     3
 72
    14
 73
    10
 74
     0
 42
0.0000000001
 43
0.0000000001
 40
0.0
 40
0.0
 40
0.0
 40
0.0
 40
1.0
 40
2.0
 40
3.0
 40
4.0
 40
5.0
 40
6.0
 40
7.0
 40
7.0
 40
7.0
 40
7.0
 10
9.498881
 20
25.21563341417338
 30
0.0
 10
9.379501351489148
 20
24.80390332134228
 30
0.0
 10
9.037234883939973
 20
24.01524330220504
 30
0.0
 10
8.361431044858119
 20
22.92021650897334
 30
0.0
 10
7.583052220535327
 20
21.89679069785051
 30
0.0
 10
6.721699915563005
 20
20.94153379659283
 30
0.0
 10
5.762566318124199
 20
20.08405512713407
 30
0.0
 10
4.701093002607341
 20
19.35401838808672
 30
0.0
 10
3.919691518521279
 20
18.99484674373915
 30
0.0
 10
3.516862
 20
18.84973741417338
 30
0.0
  0
SPLINE
  5
78
330
1F
100
AcDbEntity
  8
2D
100
AcDbSpline
210
0.0
220
0.0
230
1.0
 70
    24
 71
     2
 72
     6
 73
     3
 74
     0
 42
0.0000000001
 43
0.0000000001
 40
0.0
 40
0.0
 40
0.0
 40
0.7458200283124906
 40
0.7458200283124906
 40
0.7458200283124906
 10
-9.102219000000002
 20
0.3221164141733799
 30
0.0
 10
-7.971069189509791
 20
0.3221164141733799
 30
0.0
 10
-6.83991937901958
 20
0.3221164141733799
 30
0.0
  0
SPLINE
  5
79
330
1F
100
AcDbEntity
  8
2D
100
AcDbSpline
210
0.0
220
0.0
230
1.0
 70
     8
 71
     3
 72
    11
 73
     7
 74
     0
 42
0.0000000001
 43
0.0000000001
 40
0.0
 40
0.0
 40
0.0
 40
0.0
 40
1.0
 40
1.0
 40
1.0
 40
1.992567117136974
 40
1.992567117136974
 40
1.992567117136974
 40
1.992567117136974
 10
-9.617694
 20
17.00410641417338
 30
0.0
 10
-9.857651666666667
 20
12.57336341417338
 30
0.0
 10
-10.09760933333333
 20
8.142620414173381
 30
0.0
 10
-10.337567
 20
3.711877414173382
 30
0.0
 10
-10.3794692957785
 20
2.883064388521028
 30
0.0
 10
-10.41396442013253
 20
2.053135892367252
 30
0.0
 10
-10.40063941662376
 20
1.223109498565679
 30
0.0
  0
SPLINE
  5
7A
330
1F
100
AcDbEntity
  8
2D
100
AcDbSpline
210
0.0
220
0.0
230
1.0
 70
     8
 71
     3
 72
    14
 73
    10
 74
     0
 42
0.0000000001
 43
0.0000000001
 40
0.0
 40
0.0
 40
0.0
 40
0.0
 40
1.0
 40
2.0
 40
3.0
 40
4.0
 40
5.0
 40
6.0
 40
7.0
 40
7.0
 40
7.0
 40
7.0
 10
-9.498881
 20
25.21563341417338
 30
0.0
 10
-9.379501351489148
 20
24.80390332134228
 30
0.0
 10
-9.037234883939973
 20
24.01524330220504
 30
0.0
 10
-8.361431044858119
 20
22.92021650897334
 30
0.0
 10
-7.583052220535327
 20
21.89679069785051
 30
0.0
 10
-6.721699915563005
 20
20.94153379659283
 30
0.0
 10
-5.762566318124199
 20
20.08405512713407
 30
0.0
 10
-4.701093002607341
 20
19.35401838808672
 30
0.0
 10
-3.919691518521279
 20
18.99484674373915
 30
0.0
 10
-3.516862
 20
18.84973741417338
 30
0.0
  0
SPLINE
  5
7B
330
1F
100
AcDbEntity
  8
2D
100
AcDbSpline
210
0.0
220
0.0
230
1.0
 70
     8
 71
     3
 72
    24
 73
    20
 74
     0
 42
0.0000000001
 43
0.0000000001
 40
0.0
 40
0.0
 40
0.0
 40
0.0
 40
1.0
 40
2.0
 40
3.0
 40
4.0
 40
5.0
 40
6.0
 40
7.0
 40
8.0
 40
9.0
 40
10.0
 40
11.0
 40
12.0
 40
13.0
 40
14.0
 40
15.0
 40
16.0
 40
17.0
 40
17.0
 40
17.0
 40
17.0
 10
-4.951449596030002
 20
16.10140034372338
 30
0.0
 10
-4.957379708431765
 20
16.02297252728988
 30
0.0
 10
-5.007124597127994
 20
15.86842752294064
 30
0.0
 10
-5.178175148721927
 20
15.69801232842242
 30
0.0
 10
-5.411288956936505
 20
15.61768553584484
 30
0.0
 10
-5.643329424012951
 20
15.67590615128273
 30
0.0
 10
-5.866517636229996
 20
15.75061545636603
 30
0.0
 10
-6.09682993544847
 20
15.8048792873279
 30
0.0
 10
-6.327593361384977
 20
15.85481029711566
 30
0.0
 10
-6.560414222024385
 20
15.89488048833988
 30
0.0
 10
-6.793550528496139
 20
15.93264094313585
 30
0.0
 10
-7.026602316431712
 20
15.9710203951621
 30
0.0
 10
-7.259676935737304
 20
16.00923362801776
 30
0.0
 10
-7.492745052480057
 20
16.04749279027568
 30
0.0
 10
-7.725816057658536
 20
16.08573272738917
 30
0.0
 10
-7.958888206397507
 20
16.12396715447215
 30
0.0
 10
-8.191961566933477
 20
16.16219233020589
 30
0.0
 10
-8.425036613181074
 20
16.20040934104789
 30
0.0
 10
-8.580420671446156
 20
16.22588164625624
 30
0.0
 10
-8.65811300000005
 20
16.23861641417291
 30
0.0
  0
LINE
  5
7C
330
1F
100
AcDbEntity
  8
2D
100
AcDbLine
 10
-9.403032
 20
1.322084414173381
 30
0.0
 11
9.403032
 21
1.322084414173381
 31
0.0
  0
LINE
  5
7D
330
1F
100
AcDbEntity
  8
2D
100
AcDbLine
 10
-5.159232000000003
 20
0.3221164141733799
 30
0.0
 11
5.159232000000003
 21
0.3221164141733799
 31
0.0
  0
SPLINE
  5
7E
330
1F
100
AcDbEntity
  8
2D
100
AcDbSpline
210
0.0
220
0.0
230
1.0
 70
     8
 71
     3
 72
    24
 73
    20
 74
     0
 42
0.0000000001
 43
0.0000000001
 40
0.0
 40
0.0
 40
0.0
 40
0.0
 40
1.0
 40
2.0
 40
3.0
 40
4.0
 40
5.0
 40
6.0
 40
7.0
 40
8.0
 40
9.0
 40
10.0
 40
11.0
 40
12.0
 40
13.0
 40
14.0
 40
15.0
 40
16.0
 40
17.0
 40
17.0
 40
17.0
 40
17.0
 10
-10.112032
 20
25.10566841417338
 30
0.0
 10
-10.08439229440773
 20
25.10703241345258
 30
0.0
 10
-10.02908945139447
 20
25.10969650338159
 30
0.0
 10
-9.946381436628155
 20
25.11720455814122
 30
0.0
 10
-9.863930316288315
 20
25.12706425004664
 30
0.0
 10
-9.781899139166844
 20
25.13997777335874
 30
0.0
 10
-9.700383558510271
 20
25.15585692536235
 30
0.0
 10
-9.61973587877196
 20
25.17573272527019
 30
0.0
 10
-9.54026641136735
 20
25.19982096615302
 30
0.0
 10
-9.462296511308663
 20
25.22874164755968
 30
0.0
 10
-9.38875482519997
 20
25.26732683483891
 30
0.0
 10
-9.320945740676994
 20
25.31635927534591
 30
0.0
 10
-9.268215507434913
 20
25.38086159047958
 30
0.0
 10
-9.214713566242011
 20
25.4442790749174
 30
0.0
 10
-9.163050430016963
 20
25.50928353832343
 30
0.0
 10
-9.113340889592575
 20
25.57591250033249
 30
0.0
 10
-9.06800578315243
 20
25.6452120476563
 30
0.0
 10
-9.030204952279144
 20
25.72060110375448
 30
0.0
 10
-9.028942406564825
 20
25.77697451229161
 30
0.0
 10
-9.029408
 20
25.80451841417338
 30
0.0
  0
SPLINE
  5
7F
330
1F
100
AcDbEntity
  8
2D
100
AcDbSpline
210
0.0
220
0.0
230
1.0
 70
     8
 71
     3
 72
    14
 73
    10
 74
     0
 42
0.0000000001
 43
0.0000000001
 40
0.0
 40
0.0
 40
0.0
 40
0.0
 40
1.0
 40
2.0
 40
3.0
 40
4.0
 40
5.0
 40
6.0
 40
7.0
 40
7.0
 40
7.0
 40
7.0
 10
9.995288000000002
 20
18.87247941417338
 30
0.0
 10
10.00534396754085
 20
19.186679478184
 30
0.0
 10
10.02492716707004
 20
19.8150962614431
 30
0.0
 10
10.05388574309573
 20
20.75773449953813
 30
0.0
 10
10.08138618387667
 20
21.70041691606816
 30
0.0
 10
10.10823274633313
 20
22.64311519042267
 30
0.0
 10
10.13162707925972
 20
23.58592071218916
 30
0.0
 10
10.1603034959
 20
24.52853135675592
 30
0.0
 10
10.11937345520797
 20
25.15787396833153
 30
0.0
 10
10.057471
 20
25.46646841417338
 30
0.0
  0
SPLINE
  5
80
330
1F
100
AcDbEntity
  8
2D
100
AcDbSpline
210
0.0
220
0.0
230
1.0
 70
     8
 71
     3
 72
    24
 73
    20
 74
     0
 42
0.0000000001
 43
0.0000000001
 40
0.0
 40
0.0
 40
0.0
 40
0.0
 40
1.0
 40
2.0
 40
3.0
 40
4.0
 40
5.0
 40
6.0
 40
7.0
 40
8.0
 40
9.0
 40
10.0
 40
11.0
 40
12.0
 40
13.0
 40
14.0
 40
15.0
 40
16.0
 40
17.0
 40
17.0
 40
17.0
 40
17.0
 10
10.112032
 20
25.10566841417338
 30
0.0
 10
10.08439229440773
 20
25.10703241345258
 30
0.0
 10
10.02908945139447
 20
25.10969650338159
 30
0.0
 10
9.946381436628155
 20
25.11720455814122
 30
0.0
 10
9.863930316288315
 20
25.12706425004664
 30
0.0
 10
9.781899139166844
 20
25.13997777335874
 30
0.0
 10
9.700383558510271
 20
25.15585692536235
 30
0.0
 10
9.61973587877196
 20
25.17573272527019
 30
0.0
 10
9.54026641136735
 20
25.19982096615302
 30
0.0
 10
9.462296511308663
 20
25.22874164755968
 30
0.0
 10
9.38875482519997
 20
25.26732683483891
 30
0.0
 10
9.320945740676994
 20
25.31635927534591
 30
0.0
 10
9.268215507434913
 20
25.38086159047958
 30
0.0
 10
9.214713566242011
 20
25.4442790749174
 30
0.0
 10
9.163050430016963
 20
25.50928353832343
 30
0.0
 10
9.113340889592575
 20
25.57591250033249
 30
0.0
 10
9.06800578315243
 20
25.6452120476563
 30
0.0
 10
9.030204952279144
 20
25.72060110375448
 30
0.0
 10
9.028942406564825
 20
25.77697451229161
 30
0.0
 10
9.029408
 20
25.80451841417338
 30
0.0
  0
SPLINE
  5
81
330
1F
100
AcDbEntity
  8
2D
100
AcDbSpline
210
0.0
220
0.0
230
1.0
 70
     8
 71
     3
 72
    17
 73
    13
 74
     0
 42
0.0000000001
 43
0.0000000001
 40
-7.0
 40
-7.0
 40
-7.0
 40
-7.0
 40
-6.0
 40
-5.0
 40
-4.0
 40
-3.0
 40
-2.0
 40
-1.0
 40
0.0
 40
0.0
 40
0.0
 40
0.8719746719865213
 40
0.8719746719865213
 40
0.8719746719865213
 40
0.8719746719865213
 10
7.439199000000002
 20
16.03890241417338
 30
0.0
 10
7.447525311092541
 20
16.01421551136545
 30
0.0
 10
7.467186203776343
 20
15.96587667793406
 30
0.0
 10
7.504443149965997
 20
15.89703224673725
 30
0.0
 10
7.549317730993772
 20
15.83289437600846
 30
0.0
 10
7.602161640838972
 20
15.77498102823914
 30
0.0
 10
7.664834987732473
 20
15.72758993568788
 30
0.0
 10
7.737738240063854
 20
15.69697188533291
 30
0.0
 10
7.790734866234622
 20
15.69511249979367
 30
0.0
 10
7.816509
 20
15.69887641417338
 30
0.0
 10
8.104769333333333
 20
15.73613474750671
 30
0.0
 10
8.393029666666667
 20
15.77339308084005
 30
0.0
 10
8.68129
 20
15.81065141417338
 30
0.0
  0
SPLINE
  5
82
330
1F
100
AcDbEntity
  8
2D
100
AcDbSpline
210
0.0
220
0.0
230
1.0
 70
     8
 71
     3
 72
     9
 73
     5
 74
     0
 42
0.0000000001
 43
0.0000000001
 40
0.0
 40
0.0
 40
0.0
 40
0.0
 40
1.0
 40
2.0
 40
2.0
 40
2.0
 40
2.0
 10
11.024007
 20
25.22409041417338
 30
0.0
 10
11.10498582044215
 20
25.25106789906129
 30
0.0
 10
11.25529735850259
 20
25.33343521642881
 30
0.0
 10
11.38781828481581
 20
25.44089278226647
 30
0.0
 10
11.459313
 20
25.48725441417338
 30
0.0
  0
SPLINE
  5
83
330
1F
100
AcDbEntity
  8
2D
100
AcDbSpline
210
0.0
220
0.0
230
1.0
 70
     8
 71
     3
 72
    24
 73
    20
 74
     0
 42
0.0000000001
 43
0.0000000001
 40
0.0
 40
0.0
 40
0.0
 40
0.0
 40
1.0
 40
2.0
 40
3.0
 40
4.0
 40
5.0
 40
6.0
 40
7.0
 40
8.0
 40
9.0
 40
10.0
 40
11.0
 40
12.0
 40
13.0
 40
14.0
 40
15.0
 40
16.0
 40
17.0
 40
17.0
 40
17.0
 40
17.0
 10
9.135685000000002
 20
25.72146641417338
 30
0.0
 10
9.18015098289305
 20
25.69883069592221
 30
0.0
 10
9.282404907784139
 20
25.64265239577393
 30
0.0
 10
9.431667420331335
 20
25.5629934854926
 30
0.0
 10
9.598843422697282
 20
25.5257161689411
 30
0.0
 10
9.76605440360299
 20
25.49785301032612
 30
0.0
 10
9.93480057378283
 20
25.47746301502643
 30
0.0
 10
10.1039358618115
 20
25.46215469783268
 30
0.0
 10
10.27343117487512
 20
25.45100621737616
 30
0.0
 10
10.44314425346956
 20
25.44400702539279
 30
0.0
 10
10.61296458216987
 20
25.44094854991227
 30
0.0
 10
10.78282429516266
 20
25.44112747241732
 30
0.0
 10
10.95260542458682
 20
25.44590880955941
 30
0.0
 10
11.12228347916889
 20
25.45428886931225
 30
0.0
 10
11.29151135747812
 20
25.46743280713435
 30
0.0
 10
11.46084855048183
 20
25.48588957812706
 30
0.0
 10
11.62682922300732
 20
25.51337141031453
 30
0.0
 10
11.799168718694
 20
25.54896835786005
 30
0.0
 10
11.88395536101032
 20
25.6122933882497
 30
0.0
 10
11.921249
 20
25.65756441417338
 30
0.0
  0
SPLINE
  5
84
330
1F
100
AcDbEntity
  8
2D
100
AcDbSpline
210
0.0
220
0.0
230
1.0
 70
     8
 71
     3
 72
    34
 73
    30
 74
     0
 42
0.0000000001
 43
0.0000000001
 40
0.0
 40
0.0
 40
0.0
 40
0.0
 40
1.0
 40
2.0
 40
3.0
 40
4.0
 40
5.0
 40
6.0
 40
7.0
 40
8.0
 40
9.0
 40
10.0
 40
11.0
 40
12.0
 40
13.0
 40
14.0
 40
15.0
 40
16.0
 40
17.0
 40
18.0
 40
19.0
 40
20.0
 40
21.0
 40
22.0
 40
23.0
 40
24.0
 40
25.0
 40
26.0
 40
27.0
 40
27.0
 40
27.0
 40
27.0
 10
11.10054
 20
25.45360641417338
 30
0.0
 10
11.05134904785013
 20
25.33704942421755
 30
0.0
 10
10.9856293783001
 20
25.09214812562186
 30
0.0
 10
10.93021840583134
 20
24.71690743607613
 30
0.0
 10
10.90489399486772
 20
24.3383321579287
 30
0.0
 10
10.91108583791212
 20
23.95921145475317
 30
0.0
 10
10.91494093040438
 20
23.58022543788908
 30
0.0
 10
10.91954778253431
 20
23.2012049333993
 30
0.0
 10
10.92452276878636
 20
22.82220066159545
 30
0.0
 10
10.92926006996467
 20
22.44319012471439
 30
0.0
 10
10.93480921239039
 20
22.06419141974954
 30
0.0
 10
10.93997570895122
 20
21.68518714612824
 30
0.0
 10
10.94586094726706
 20
21.30619334760008
 30
0.0
 10
10.95151138869018
 20
20.92719613800303
 30
0.0
 10
10.95766555340665
 20
20.54820675792914
 30
0.0
 10
10.96374030232094
 20
20.16921603232771
 30
0.0
 10
10.97017836234965
 20
19.7902313263572
 30
0.0
 10
10.97659150056929
 20
19.41124632658379
 30
0.0
 10
10.98333472584622
 20
19.0322664768361
 30
0.0
 10
10.9899762971366
 20
18.6532871847589
 30
0.0
 10
10.99711273253701
 20
18.27430684692124
 30
0.0
 10
11.00359290071533
 20
17.89535350181049
 30
0.0
 10
11.01252301393436
 20
17.51629859449214
 30
0.0
 10
11.01319280528762
 20
17.13763987354012
 30
0.0
 10
10.93737711046982
 20
16.76021087995062
 30
0.0
 10
10.71380671924488
 20
16.44457089616929
 30
0.0
 10
10.3887852929253
 20
16.24041298955742
 30
0.0
 10
10.03814178510904
 20
16.09655315524804
 30
0.0
 10
9.794698680003386
 20
16.02698470518401
 30
0.0
 10
9.672296000000003
 20
15.99590441417338
 30
0.0
  0
SPLINE
  5
85
330
1F
100
AcDbEntity
  8
2D
100
AcDbSpline
210
0.0
220
0.0
230
1.0
 70
     8
 71
     3
 72
    44
 73
    40
 74
     0
 42
0.0000000001
 43
0.0000000001
 40
0.0
 40
0.0
 40
0.0
 40
0.0
 40
1.0
 40
2.0
 40
3.0
 40
4.0
 40
5.0
 40
6.0
 40
7.0
 40
8.0
 40
9.0
 40
10.0
 40
11.0
 40
12.0
 40
13.0
 40
14.0
 40
15.0
 40
16.0
 40
17.0
 40
18.0
 40
19.0
 40
20.0
 40
21.0
 40
22.0
 40
23.0
 40
24.0
 40
25.0
 40
26.0
 40
27.0
 40
28.0
 40
29.0
 40
30.0
 40
31.0
 40
32.0
 40
33.0
 40
34.0
 40
35.0
 40
36.0
 40
37.0
 40
37.0
 40
37.0
 40
37.0
 10
9.3019
 20
25.34060841417338
 30
0.0
 10
9.236616756755575
 20
25.3708868430081
 30
0.0
 10
9.143177920421088
 20
25.47877489303923
 30
0.0
 10
9.01114468920821
 20
25.64158159082209
 30
0.0
 10
8.893870783590394
 20
25.82498425630736
 30
0.0
 10
8.910193034145667
 20
26.04295012700974
 30
0.0
 10
8.943477681399983
 20
26.2554680935931
 30
0.0
 10
9.135131641957535
 20
26.38558103299147
 30
0.0
 10
9.350372595628146
 20
26.36893865927724
 30
0.0
 10
9.560905857472893
 20
26.37325255044651
 30
0.0
 10
9.772700201571089
 20
26.37195122747223
 30
0.0
 10
9.984156785877941
 20
26.37215449679728
 30
0.0
 10
10.19570403694972
 20
26.3719546106837
 30
0.0
 10
10.40722650301687
 20
26.37186275395907
 30
0.0
 10
10.61875723508041
 20
26.37174193522957
 30
0.0
 10
10.83027909959686
 20
26.3716289354498
 30
0.0
 10
11.04182867225048
 20
26.3715136216027
 30
0.0
 10
11.25327705177356
 20
26.37139974465666
 30
0.0
 10
11.46510134064423
 20
26.37128243479999
 30
0.0
 10
11.67552401178978
 20
26.37117741923663
 30
0.0
 10
11.8911764782391
 20
26.37102665982612
 30
0.0
 10
12.06620826898264
 20
26.2160793423943
 30
0.0
 10
12.07660626559314
 20
26.0054632943989
 30
0.0
 10
12.09489148105843
 20
25.7805568356486
 30
0.0
 10
11.91660830655468
 20
25.63546638494361
 30
0.0
 10
11.70712718363035
 20
25.59881399504134
 30
0.0
 10
11.49868698715399
 20
25.56454469463568
 30
0.0
 10
11.28799845339727
 20
25.54374595093052
 30
0.0
 10
11.07696386802107
 20
25.52963195343429
 30
0.0
 10
10.86555441031015
 20
25.5215967980916
 30
0.0
 10
10.6540165096623
 20
25.51974665806378
 30
0.0
 10
10.44250569351734
 20
25.52322246647377
 30
0.0
 10
10.23113827524311
 20
25.53210344173499
 30
0.0
 10
10.02014107900609
 20
25.54695132325296
 30
0.0
 10
9.809521413602626
 20
25.56787076581592
 30
0.0
 10
9.600460865619167
 20
25.59825351877652
 30
0.0
 10
9.390929308590842
 20
25.63448706872387
 30
0.0
 10
9.196264865589646
 20
25.7185649630505
 30
0.0
 10
9.075182764322307
 20
25.79144100271374
 30
0.0
 10
9.01117
 20
25.82095841417338
 30
0.0
  0
SPLINE
  5
86
330
1F
100
AcDbEntity
  8
2D
100
AcDbSpline
210
0.0
220
0.0
230
1.0
 70
     8
 71
     3
 72
    83
 73
    79
 74
     0
 42
0.0000000001
 43
0.0000000001
 40
-37.0
 40
-37.0
 40
-37.0
 40
-37.0
 40
-36.0
 40
-35.0
 40
-34.0
 40
-33.0
 40
-32.0
 40
-31.0
 40
-30.0
 40
-29.0
 40
-28.0
 40
-27.0
 40
-26.0
 40
-25.0
 40
-24.0
 40
-23.0
 40
-22.0
 40
-21.0
 40
-20.0
 40
-19.0
 40
-18.0
 40
-17.0
 40
-16.0
 40
-15.0
 40
-14.0
 40
-13.0
 40
-12.0
 40
-11.0
 40
-10.0
 40
-9.0
 40
-8.0
 40
-7.0
 40
-6.0
 40
-5.0
 40
-4.0
 40
-3.0
 40
-2.0
 40
-1.0
 40
0.0
 40
0.0
 40
0.0
 40
1.0
 40
2.0
 40
3.0
 40
4.0
 40
5.0
 40
6.0
 40
7.0
 40
8.0
 40
9.0
 40
10.0
 40
11.0
 40
12.0
 40
13.0
 40
14.0
 40
15.0
 40
16.0
 40
17.0
 40
18.0
 40
19.0
 40
20.0
 40
21.0
 40
22.0
 40
23.0
 40
24.0
 40
25.0
 40
26.0
 40
27.0
 40
28.0
 40
29.0
 40
30.0
 40
31.0
 40
32.0
 40
33.0
 40
34.0
 40
35.0
 40
36.0
 40
37.0
 40
37.0
 40
37.0
 40
37.0
 10
-9.620397
 20
16.95418341417338
 30
0.0
 10
-9.724504960722687
 20
17.00202689990994
 30
0.0
 10
-9.928662435672818
 20
17.10629011943045
 30
0.0
 10
-10.21500877298394
 20
17.29865174764156
 30
0.0
 10
-10.4500026486078
 20
17.5541500581716
 30
0.0
 10
-10.59565939857795
 20
17.87137746284908
 30
0.0
 10
-10.62402623743323
 20
18.21617419746172
 30
0.0
 10
-10.57493070051387
 20
18.56378380367315
 30
0.0
 10
-10.31078597033833
 20
18.81628807188823
 30
0.0
 10
-9.968616636271655
 20
18.88611397534354
 30
0.0
 10
-9.624926179613455
 20
18.88537325886481
 30
0.0
 10
-9.281182387820596
 20
18.88069916543268
 30
0.0
 10
-8.937447172279265
 20
18.87756709252326
 30
0.0
 10
-8.593704492360411
 20
18.87459638078269
 30
0.0
 10
-8.249958928187317
 20
18.87217965188
 30
0.0
 10
-7.906210280034766
 20
18.87019720572223
 30
0.0
 10
-7.562459342614243
 20
18.86871650671783
 30
0.0
 10
-7.218706605949166
 20
18.86769425936241
 30
0.0
 10
-6.874952200505161
 20
18.86742442333501
 30
0.0
 10
-6.531198844284505
 20
18.8667475099747
 30
0.0
 10
-6.187446418640341
 20
18.86563558678418
 30
0.0
 10
-5.843694820906387
 20
18.86423739317486
 30
0.0
 10
-5.499945442771812
 20
18.86246867760865
 30
0.0
 10
-5.156196426238557
 20
18.86053980245881
 30
0.0
 10
-4.812448492285427
 20
18.85844865417674
 30
0.0
 10
-4.468701550552548
 20
18.85622616871477
 30
0.0
 10
-4.124955371156105
 20
18.85387408125387
 30
0.0
 10
-3.781208825446501
 20
18.85156739056844
 30
0.0
 10
-3.437463596120038
 20
18.84911179276286
 30
0.0
 10
-3.093714139750343
 20
18.84716085198806
 30
0.0
 10
-2.749980354477257
 20
18.84340833268662
 30
0.0
 10
-2.406242003465414
 20
18.84009407053529
 30
0.0
 10
-2.06249863178415
 20
18.83737888251895
 30
0.0
 10
-1.718750670414171
 20
18.83529341286376
 30
0.0
 10
-1.374999260114284
 20
18.83390856125512
 30
0.0
 10
-1.031245269442821
 20
18.83333627987291
 30
0.0
 10
-0.6874911682313095
 20
18.83375447818214
 30
0.0
 10
-0.3437405867635845
 20
18.83534645148065
 30
0.0
 10
-0.1145790374366688
 20
18.83730448741124
 30
0.0
 10
0.0
 20
18.83843241417338
 30
0.0
 10
0.1145790374366688
 20
18.83730448741124
 30
0.0
 10
0.3437405867635845
 20
18.83534645148065
 30
0.0
 10
0.6874911682313095
 20
18.83375447818214
 30
0.0
 10
1.031245269442821
 20
18.83333627987291
 30
0.0
 10
1.374999260114284
 20
18.83390856125512
 30
0.0
 10
1.718750670414171
 20
18.83529341286376
 30
0.0
 10
2.06249863178415
 20
18.83737888251895
 30
0.0
 10
2.406242003465414
 20
18.84009407053529
 30
0.0
 10
2.749980354477257
 20
18.84340833268662
 30
0.0
 10
3.093714139750343
 20
18.84716085198806
 30
0.0
 10
3.437463596120038
 20
18.84911179276286
 30
0.0
 10
3.781208825446501
 20
18.85156739056844
 30
0.0
 10
4.124955371156105
 20
18.85387408125387
 30
0.0
 10
4.468701550552548
 20
18.85622616871477
 30
0.0
 10
4.812448492285427
 20
18.85844865417674
 30
0.0
 10
5.156196426238557
 20
18.86053980245881
 30
0.0
 10
5.499945442771812
 20
18.86246867760865
 30
0.0
 10
5.843694820906387
 20
18.86423739317486
 30
0.0
 10
6.187446418640341
 20
18.86563558678418
 30
0.0
 10
6.531198844284505
 20
18.8667475099747
 30
0.0
 10
6.874952200505161
 20
18.86742442333501
 30
0.0
 10
7.218706605949166
 20
18.86769425936241
 30
0.0
 10
7.562459342614243
 20
18.86871650671783
 30
0.0
 10
7.906210280034766
 20
18.87019720572223
 30
0.0
 10
8.249958928187317
 20
18.87217965188
 30
0.0
 10
8.593704492360411
 20
18.87459638078269
 30
0.0
 10
8.937447172279265
 20
18.87756709252326
 30
0.0
 10
9.281182387820596
 20
18.88069916543268
 30
0.0
 10
9.624926179613455
 20
18.88537325886481
 30
0.0
 10
9.968616636271655
 20
18.88611397534354
 30
0.0
 10
10.31078597033833
 20
18.81628807188823
 30
0.0
 10
10.57493070051387
 20
18.56378380367315
 30
0.0
 10
10.62402623743323
 20
18.21617419746172
 30
0.0
 10
10.59565939857795
 20
17.87137746284908
 30
0.0
 10
10.4500026486078
 20
17.5541500581716
 30
0.0
 10
10.21500877298394
 20
17.29865174764156
 30
0.0
 10
9.928662435672818
 20
17.10629011943045
 30
0.0
 10
9.724504960722687
 20
17.00202689990994
 30
0.0
 10
9.620397
 20
16.95418341417338
 30
0.0
  0
SPLINE
  5
87
330
1F
100
AcDbEntity
  8
2D
100
AcDbSpline
210
0.0
220
0.0
230
1.0
 70
    12
 71
     2
 72
     8
 73
     5
 74
     0
 42
0.0000000001
 43
0.0000000001
 40
-3.073356768425477
 40
-3.073356768425477
 40
-3.073356768425477
 40
-0.0000000000000001
 40
-0.0000000000000001
 40
1.0
 40
1.0
 40
1.0
 10
43.14703098902016
 20
1.034540936828488
 30
0.0
 41
1.0
 10
44.43403282296101
 20
2.125211099636068
 30
0.0
 41
0.8715546914541711
 10
44.17012945422725
 20
3.791431414173382
 30
0.0
 41
1.0
 10
43.12521045422725
 20
10.38879041417338
 30
0.0
 41
1.0
 10
42.08029145422725
 20
16.98614941417338
 30
0.0
 41
1.0
  0
SPLINE
  5
88
330
1F
100
AcDbEntity
  8
2D
100
AcDbSpline
210
0.0
220
0.0
230
1.0
 70
    24
 71
     2
 72
     6
 73
     3
 74
     0
 42
0.0000000001
 43
0.0000000001
 40
0.0
 40
0.0
 40
0.0
 40
1.0
 40
1.0
 40
1.0
 10
23.72748145422725
 20
0.3221164141733799
 30
0.0
 10
32.22347195422725
 20
0.3221164141733799
 30
0.0
 10
40.71946245422725
 20
0.3221164141733799
 30
0.0
  0
SPLINE
  5
89
330
1F
100
AcDbEntity
  8
DEFAULT
100
AcDbSpline
210
0.0
220
0.0
230
1.0
 70
    12
 71
     3
 72
    67
 73
    63
 74
     0
 42
0.0000000001
 43
0.0000000001
 40
-5.807305082266774
 40
-5.807305082266774
 40
-5.807305082266774
 40
-5.807305082266774
 40
-4.42902176660666
 40
-3.06953371841447
 40
-1.979166824914105
 40
-0.8769585640187317
 40
-0.4322822196771456
 40
0.0
 40
0.0
 40
0.0
 40
1.000000000977366
 40
2.000000001954731
 40
3.000000002932096
 40
4.000000003909462
 40
5.000000004886828
 40
6.000000005864193
 40
7.000000006841558
 40
8.000000007818924
 40
9.00000000879629
 40
10.00000000977366
 40
11.00000001075102
 40
12.00000001172839
 40
13.00000001270575
 40
14.00000001368312
 40
15.00000001466048
 40
16.00000001563785
 40
17.0
 40
17.0
 40
17.0
 40
17.15410692000116
 40
17.15410692000116
 40
17.15410692000116
 40
19.13650175921469
 40
19.13650175921469
 40
19.13650175921469
 40
19.22060901966358
 40
19.22060901966358
 40
19.22060901966358
 40
19.30471628011248
 40
19.30471628011248
 40
19.30471628011248
 40
19.34792260863962
 40
19.34792260863962
 40
19.34792260863962
 40
19.41153577310812
 40
19.4430541641264
 40
19.47413188962003
 40
19.53550079223323
 40
19.59745341504062
 40
19.66033067745122
 40
19.72341605866052
 40
19.75488685777612
 40
19.78627580080922
 40
19.84884385217982
 40
19.91124727101582
 40
19.97364695695082
 40
20.09851107344472
 40
20.22329319477992
 40
20.34792260863962
 40
20.34792260863962
 40
20.34792260863962
 40
24.67445281077883
 40
24.67445281077883
 40
24.67445281077883
 40
24.67445281077883
 10
28.5274272577239
 20
24.04515049592034
 30
0.0
 41
1.0
 10
28.34735508302464
 20
23.62248290847145
 30
0.0
 41
1.0
 10
27.97299127569248
 20
22.78979372193149
 30
0.0
 41
1.0
 10
27.39807958775042
 20
21.65039294709233
 30
0.0
 41
1.0
 10
26.83795117325383
 20
20.60680928923118
 30
0.0
 41
1.0
 10
26.38051088980649
 20
19.85588509003385
 30
0.0
 41
1.0
 10
26.04628164100681
 20
19.2870709113434
 30
0.0
 41
1.0
 10
25.67429806404143
 20
18.58167126542837
 30
0.0
 41
1.0
 10
25.61818145422725
 20
18.44895341417338
 30
0.0
 41
1.0
 10
25.55679933376125
 20
18.30378243608509
 30
0.0
 41
1.0
 10
25.44869034714429
 20
18.00691591710558
 30
0.0
 41
1.0
 10
25.35201457254734
 20
17.54257427626413
 30
0.0
 41
1.0
 10
25.34874540009951
 20
17.0659443938661
 30
0.0
 41
1.0
 10
25.49391738521796
 20
16.6079642239754
 30
0.0
 41
1.0
 10
25.8170808887842
 20
16.2445903554324
 30
0.0
 41
1.0
 10
26.2680519534919
 20
16.06646939244855
 30
0.0
 41
1.0
 10
26.74495122668768
 20
16.08397275306722
 30
0.0
 41
1.0
 10
27.21662348894805
 20
16.09842385443567
 30
0.0
 41
1.0
 10
27.68909550099561
 20
16.11659359995389
 30
0.0
 41
1.0
 10
28.16359513059894
 20
16.12294101512927
 30
0.0
 41
1.0
 10
28.62657552427869
 20
16.22223758897171
 30
0.0
 41
1.0
 10
29.08890153630839
 20
16.32129423714902
 30
0.0
 41
1.0
 10
29.55694073265597
 20
16.39080658721561
 30
0.0
 41
1.0
 10
30.02642320845048
 20
16.44756871885813
 30
0.0
 41
1.0
 10
30.49716570965037
 20
16.4934860652864
 30
0.0
 41
1.0
 10
30.9686041550404
 20
16.53109085166223
 30
0.0
 41
1.0
 10
31.28312264577938
 20
16.55315677056629
 30
0.0
 41
1.0
 10
31.44042177063001
 20
16.5635865257907
 30
0.0
 41
1.0
 10
31.49750945693656
 20
16.56728155184172
 30
0.0
 41
0.8116922754251045
 10
31.53589840917183
 20
16.60969552939194
 30
0.0
 41
0.8116922754251045
 10
31.53390181860311
 20
16.6668678196334
 30
0.0
 41
1.0
 10
31.52932380812108
 20
16.79795896476263
 30
0.0
 41
1.0
 10
31.52474579763905
 20
16.92905010989186
 30
0.0
 41
1.0
 10
31.52016778715702
 20
17.0601412550211
 30
0.0
 41
1.0
 10
31.51915931757574
 20
17.08901874072306
 30
0.0
 41
0.9419134174434998
 10
31.50644947979928
 20
17.11496842694582
 30
0.0
 41
0.9419134174434998
 10
31.48425308695148
 20
17.13346832791609
 30
0.0
 41
1.0
 10
31.46205669410368
 20
17.15196822888636
 30
0.0
 41
0.9419134174434998
 10
31.43424168400138
 20
17.15979455652915
 30
0.0
 41
0.9419134174434998
 10
31.40565509328642
 20
17.15558349696425
 30
0.0
 41
1.0
 10
31.39993317501003
 20
17.15474060741063
 30
0.0
 41
1.0
 10
31.39421125673364
 20
17.15389771785701
 30
0.0
 41
1.0
 10
31.38848933845725
 20
17.15305482830338
 30
0.0
 41
1.0
 10
31.38006489368725
 20
17.15181383251338
 30
0.0
 41
1.0
 10
31.36735721589726
 20
17.15067804478338
 30
0.0
 41
1.0
 10
31.35047334627725
 20
17.15007213105338
 30
0.0
 41
1.0
 10
31.33387952992726
 20
17.14992498872338
 30
0.0
 41
1.0
 10
31.31320232593725
 20
17.15001335407338
 30
0.0
 41
1.0
 10
31.28832621857725
 20
17.14826999047338
 30
0.0
 41
1.0
 10
31.26323370217726
 20
17.14655136662338
 30
0.0
 41
1.0
 10
31.24221411220725
 20
17.14502191670338
 30
0.0
 41
1.0
 10
31.22539312993726
 20
17.14388744931338
 30
0.0
 41
1.0
 10
31.20863413732725
 20
17.14286619575338
 30
0.0
 41
1.0
 10
31.18773559374725
 20
17.14170663796338
 30
0.0
 41
1.0
 10
31.16269210044726
 20
17.14032090969338
 30
0.0
 41
1.0
 10
31.12932774306725
 20
17.13837769078338
 30
0.0
 41
1.0
 10
31.08763443216725
 20
17.13583143314338
 30
0.0
 41
1.0
 10
31.03762676478725
 20
17.13277270947338
 30
0.0
 41
1.0
 10
31.00430320493726
 20
17.13072155909338
 30
0.0
 41
1.0
 10
30.98765186238725
 20
17.12969281424338
 30
0.0
 41
1.0
 10
29.54819357546644
 20
17.04076092811963
 30
0.0
 41
0.9999637935741008
 10
28.10788662437954
 20
16.96683578486439
 30
0.0
 41
0.9999637935741008
 10
26.66688745422726
 20
16.90792541417336
 30
0.0
 41
1.0
  0
SPLINE
  5
8A
330
1F
100
AcDbEntity
  8
2D
100
AcDbSpline
210
0.0
220
0.0
230
1.0
 70
    12
 71
     3
 72
    29
 73
    25
 74
     0
 42
0.0000000001
 43
0.0000000001
 40
-2.0
 40
-2.0
 40
-2.0
 40
-2.0
 40
-1.0
 40
-1.0
 40
-1.0
 40
-0.1540388902806994
 40
-0.1540388902806994
 40
-0.1540388902806994
 40
-0.0180865966558298
 40
-0.0180865966558298
 40
-0.0180865966558298
 40
0.4693997269342069
 40
0.4693997269342069
 40
0.4693997269342069
 40
1.469399726934207
 40
1.469399726934207
 40
1.469399726934207
 40
2.469399726934207
 40
2.469399726934207
 40
2.469399726934207
 40
2.66389149914711
 40
2.66389149914711
 40
2.66389149914711
 40
2.825189686756964
 40
2.825189686756964
 40
2.825189686756964
 40
2.825189686756964
 10
23.72748045417349
 20
0.3222247963026557
 30
0.0
 41
1.0
 10
23.45690176445151
 20
0.315741431098192
 30
0.0
 41
1.0
 10
23.23289305421605
 20
0.5616951945442561
 30
0.0
 41
1.0
 10
23.21939448692225
 20
0.8222251851133797
 30
0.0
 41
1.0
 10
23.13123235866626
 20
0.8222252497053303
 30
0.0
 41
1.0
 10
23.04307023041025
 20
0.8222253142972811
 30
0.0
 41
1.0
 10
22.95490810215426
 20
0.8222253788892318
 30
0.0
 41
1.0
 10
22.90571060897215
 20
0.8222254149337576
 30
0.0
 41
0.8518151225386448
 10
22.86744857988008
 20
0.7912995282825703
 30
0.0
 41
0.8518151225386448
 10
22.85713157715534
 20
0.7431959651070398
 30
0.0
 41
1.0
 10
22.82302780506593
 20
0.5841853494277426
 30
0.0
 41
0.9983868219669777
 10
22.80006171569903
 20
0.423188449120229
 30
0.0
 41
0.9983868219669777
 10
22.78834445422725
 20
0.2609844141733819
 30
0.0
 41
1.0
 10
22.78214349626163
 20
0.1751435028834459
 30
0.0
 41
1.0
 10
22.79321827982465
 20
0.0412254141733794
 30
0.0
 41
1.0
 10
22.92388045422725
 20
0.0412254141733794
 30
0.0
 41
1.0
 10
23.36596812089392
 20
0.0412254141733794
 30
0.0
 41
1.0
 10
23.80805578756059
 20
0.0412254141733794
 30
0.0
 41
1.0
 10
24.25014345422726
 20
0.0412254141733794
 30
0.0
 41
1.0
 10
24.32174587105449
 20
0.0412254141733785
 30
0.0
 41
0.8244699351630635
 10
24.37449572257947
 20
0.0896439979981141
 30
0.0
 41
0.8244699351630635
 10
24.38061545422725
 20
0.1609844141733798
 30
0.0
 41
1.0
 10
24.3852153302828
 20
0.2146072020740255
 30
0.0
 41
0.998007625676793
 10
24.38565888066787
 20
0.2684250941269476
 30
0.0
 41
0.998007625676793
 10
24.38194345422725
 20
0.32211641417338
 30
0.0
 41
1.0
  0
SPLINE
  5
8B
330
1F
100
AcDbEntity
  8
2D
100
AcDbSpline
210
0.0
220
0.0
230
1.0
 70
    12
 71
     3
 72
    25
 73
    21
 74
     0
 42
0.0000000001
 43
0.0000000001
 40
0.0
 40
0.0
 40
0.0
 40
0.0
 40
1.083268768368759
 40
2.102684273508384
 40
3.102008636819674
 40
3.40500486338494
 40
3.563930639079128
 40
3.775368006032864
 40
3.775368006032864
 40
3.775368006032864
 40
4.775368006032863
 40
5.775368006032863
 40
6.775368006032863
 40
7.775368006032863
 40
8.775368006032863
 40
9.775368006032863
 40
10.77536800603286
 40
10.77536800603286
 40
10.77536800603286
 40
11.11107647076138
 40
11.11107647076138
 40
11.11107647076138
 40
11.11107647076138
 10
31.80129945422725
 20
15.91248541417338
 30
0.0
 41
1.0
 10
31.44021584848013
 20
15.91040664666687
 30
0.0
 41
1.0
 10
30.74269639242169
 20
15.88808274772618
 30
0.0
 41
1.0
 10
29.69692637633053
 20
15.81703536831318
 30
0.0
 41
1.0
 10
28.96762805959643
 20
15.70513630817139
 30
0.0
 41
1.0
 10
28.43972684781485
 20
15.61654921677446
 30
0.0
 41
1.0
 10
28.33430595544228
 20
15.40517071658534
 30
0.0
 41
1.0
 10
28.289591225374
 20
15.29178847633607
 30
0.0
 41
1.0
 10
28.27368140760726
 20
15.22312855803338
 30
0.0
 41
1.0
 10
28.10136795994946
 20
15.22128495520665
 30
0.0
 41
1.0
 10
27.75649289657952
 20
15.23312975938784
 30
0.0
 41
1.0
 10
27.24367561838739
 20
15.30494623057296
 30
0.0
 41
1.0
 10
26.74302398861791
 20
15.43781814434768
 30
0.0
 41
1.0
 10
26.2652658481939
 20
15.640429002478
 30
0.0
 41
1.0
 10
25.82367371833238
 20
15.9070385696465
 30
0.0
 41
1.0
 10
25.43616270235282
 20
16.27293254893127
 30
0.0
 41
1.0
 10
25.36467577079749
 20
16.62431603017149
 30
0.0
 41
1.0
 10
25.33265755827576
 20
16.79131442650377
 30
0.0
 41
1.0
 10
25.3112799339972
 20
16.90281437265132
 30
0.0
 41
0.9716475832289158
 10
25.32298235798311
 20
17.01574042847351
 30
0.0
 41
0.9716475832289158
 10
25.36676945422725
 20
17.12048741417338
 30
0.0
 41
1.0
  0
SPLINE
  5
8C
330
1F
100
AcDbEntity
  8
2D
100
AcDbSpline
210
0.0
220
0.0
230
1.0
 70
    12
 71
     3
 72
    17
 73
    13
 74
     0
 42
0.0000000001
 43
0.0000000001
 40
0.0
 40
0.0
 40
0.0
 40
0.0
 40
1.0
 40
2.0
 40
3.0
 40
4.0
 40
5.0
 40
6.0
 40
7.0
 40
7.0
 40
7.0
 40
7.363765284505005
 40
7.363765284505005
 40
7.363765284505005
 40
7.363765284505005
 10
29.39866345422725
 20
15.13986441417338
 30
0.0
 41
1.0
 10
29.92885457234869
 20
15.31953548378365
 30
0.0
 41
1.0
 10
31.04207463805545
 20
15.3826376450912
 30
0.0
 41
1.0
 10
32.70429411172473
 20
15.44545867413792
 30
0.0
 41
1.0
 10
34.36855423409282
 20
15.51403545525251
 30
0.0
 41
1.0
 10
36.03286842598108
 20
15.5767614448587
 30
0.0
 41
1.0
 10
37.69590824617661
 20
15.63148750136412
 30
0.0
 41
1.0
 10
39.36652746505245
 20
15.64777072697724
 30
0.0
 41
1.0
 10
40.44706617520328
 20
15.95265080225139
 30
0.0
 41
1.0
 10
40.96216945422725
 20
16.15155941417338
 30
0.0
 41
1.0
 10
41.03712251373032
 20
16.18050275356214
 30
0.0
 41
0.9999364107347971
 10
41.11166867176546
 20
16.21047854956559
 30
0.0
 41
0.9999364107347971
 10
41.18579370732647
 20
16.24148108376718
 30
0.0
 41
1.0
  0
SPLINE
  5
8D
330
1F
100
AcDbEntity
  8
2D
100
AcDbSpline
210
0.0
220
0.0
230
1.0
 70
    12
 71
     3
 72
    25
 73
    21
 74
     0
 42
0.0000000001
 43
0.0000000001
 40
0.0
 40
0.0
 40
0.0
 40
0.0
 40
1.233027732750566
 40
2.18359305056992
 40
2.70193765673622
 40
2.70193765673622
 40
2.70193765673622
 40
3.647920784539689
 40
3.647920784539689
 40
3.647920784539689
 40
4.154780551612122
 40
4.154780551612122
 40
4.154780551612122
 40
5.154780551612122
 40
6.154780551612122
 40
7.154780551612122
 40
8.154780551612122
 40
9.154780551612122
 40
10.15478055161212
 40
11.15478055161212
 40
11.15478055161212
 40
11.15478055161212
 40
11.15478055161212
 10
42.20188545422725
 20
16.21843641417338
 30
0.0
 41
1.0
 10
42.6128158946791
 20
16.21038831072231
 30
0.0
 41
1.0
 10
43.33851828262816
 20
16.22992244771975
 30
0.0
 41
1.0
 10
44.24625534816617
 20
16.18794103248758
 30
0.0
 41
1.0
 10
44.72456491890743
 20
16.3099999544902
 30
0.0
 41
1.0
 10
44.88936915112726
 20
16.36189430884338
 30
0.0
 41
1.0
 10
45.14270210214468
 20
16.57871780351207
 30
0.0
 41
0.8958885405383407
 10
45.24012393207554
 20
16.89762060839855
 30
0.0
 41
0.8958885405383407
 10
45.15120645422725
 20
17.21899841417338
 30
0.0
 41
1.0
 10
45.10569039002284
 20
17.38350884784175
 30
0.0
 41
0.9798044110243392
 10
45.02136777855359
 20
17.53191737886818
 30
0.0
 41
0.9798044110243392
 10
44.90334745422726
 20
17.65523241417338
 30
0.0
 41
1.0
 10
44.54033285130608
 20
18.03453283408881
 30
0.0
 41
1.0
 10
43.6045128283783
 20
18.53001230535084
 30
0.0
 41
1.0
 10
42.05841567323117
 20
18.81105713753536
 30
0.0
 41
1.0
 10
40.50181567954372
 20
18.90706629898919
 30
0.0
 41
1.0
 10
38.94071170983469
 20
18.86461820627814
 30
0.0
 41
1.0
 10
37.38116260677103
 20
18.83044278696102
 30
0.0
 41
1.0
 10
35.82199828473565
 20
18.76749141915829
 30
0.0
 41
1.0
 10
34.78285228874085
 20
18.72203587643828
 30
0.0
 41
1.0
 10
34.26326645422725
 20
18.69893341417338
 30
0.0
 41
1.0
  0
SPLINE
  5
8E
330
1F
100
AcDbEntity
  8
2D
100
AcDbSpline
210
0.0
220
0.0
230
1.0
 70
     8
 71
     3
 72
    54
 73
    50
 74
     0
 42
0.0000000001
 43
0.0000000001
 40
0.0
 40
0.0
 40
0.0
 40
0.0
 40
1.0
 40
2.0
 40
3.0
 40
4.0
 40
5.0
 40
6.0
 40
7.0
 40
8.0
 40
9.0
 40
10.0
 40
11.0
 40
12.0
 40
13.0
 40
14.0
 40
15.0
 40
16.0
 40
17.0
 40
18.0
 40
19.0
 40
20.0
 40
21.0
 40
22.0
 40
23.0
 40
24.0
 40
25.0
 40
26.0
 40
27.0
 40
28.0
 40
29.0
 40
30.0
 40
31.0
 40
32.0
 40
33.0
 40
34.0
 40
35.0
 40
36.0
 40
37.0
 40
38.0
 40
39.0
 40
40.0
 40
41.0
 40
42.0
 40
43.0
 40
44.0
 40
45.0
 40
46.0
 40
47.0
 40
47.0
 40
47.0
 40
47.0
 10
34.40892045422726
 20
25.53733141417338
 30
0.0
 10
34.58438586567664
 20
25.55113501587796
 30
0.0
 10
34.89614853513802
 20
25.2918240001895
 30
0.0
 10
34.67490336152697
 20
24.76600837801377
 30
0.0
 10
34.50041187672108
 20
24.3102654611953
 30
0.0
 10
34.31901597059014
 20
23.83358584632423
 30
0.0
 10
34.14143965015529
 20
23.36176464921195
 30
0.0
 10
33.96277214593451
 20
22.8886663187084
 30
0.0
 10
33.78427720550237
 20
22.41595657329633
 30
0.0
 10
33.60568808030799
 20
21.94315996096962
 30
0.0
 10
33.42706316166728
 20
21.470410048735
 30
0.0
 10
33.24837287203476
 20
20.99767556903932
 30
0.0
 10
33.0696822277076
 20
20.52494468717149
 30
0.0
 10
32.89092485016638
 20
20.05223565997355
 30
0.0
 10
32.71217495188309
 20
19.57953233086202
 30
0.0
 10
32.53333065335333
 20
19.10683362078265
 30
0.0
 10
32.35472307093087
 20
18.63416317303584
 30
0.0
 10
32.1750950337109
 20
18.16143804536248
 30
0.0
 10
31.99926225043649
 20
17.68892274095638
 30
0.0
 10
31.80903977785335
 20
17.21570815007701
 30
0.0
 10
31.68015049139535
 20
16.74226099705371
 30
0.0
 10
31.4354853612258
 20
16.23027806235329
 30
0.0
 10
31.84864223218456
 20
15.8346755990642
 30
0.0
 10
32.33474595464149
 20
15.70728426574764
 30
0.0
 10
32.84459721895109
 20
15.66280250159693
 30
0.0
 10
33.33761644969285
 20
15.76916689202766
 30
0.0
 10
33.84589995237556
 20
15.86559234323485
 30
0.0
 10
34.17649190349888
 20
16.35995989980649
 30
0.0
 10
33.77357806169191
 20
16.79290846720812
 30
0.0
 10
33.82349212819764
 20
17.31060428925488
 30
0.0
 10
33.98900393943561
 20
17.78707052930967
 30
0.0
 10
34.1319399694714
 20
18.27221449048062
 30
0.0
 10
34.28092513074009
 20
18.75503328189735
 30
0.0
 10
34.42828959175987
 20
19.23847517348693
 30
0.0
 10
34.5760878630497
 20
19.72175029389162
 30
0.0
 10
34.72377160361103
 20
20.20506943192048
 30
0.0
 10
34.87153719949396
 20
20.68836129630219
 30
0.0
 10
35.01933232368471
 20
21.17164406415825
 30
0.0
 10
35.16718335929149
 20
21.65491062978797
 30
0.0
 10
35.31503806656851
 20
22.13817439637154
 30
0.0
 10
35.46307866169428
 20
22.62138768004616
 30
0.0
 10
35.61062793109235
 20
23.10472589002487
 30
0.0
 10
35.76000439245313
 20
23.58760230508446
 30
0.0
 10
35.90240397137779
 20
24.07224726529936
 30
0.0
 10
36.07112219264395
 20
24.55020689677328
 30
0.0
 10
36.35572445383342
 20
24.97261052199202
 30
0.0
 10
36.70830771416033
 20
25.33699787186514
 30
0.0
 10
37.13558414895952
 20
25.61546551527401
 30
0.0
 10
37.46572902422916
 20
25.70558047111647
 30
0.0
 10
37.63447245422725
 20
25.71242541417338
 30
0.0
  0
SPLINE
  5
8F
330
1F
100
AcDbEntity
  8
2D
100
AcDbSpline
210
0.0
220
0.0
230
1.0
 70
     8
 71
     3
 72
    54
 73
    50
 74
     0
 42
0.0000000001
 43
0.0000000001
 40
0.0
 40
0.0
 40
0.0
 40
0.0
 40
1.0
 40
2.0
 40
3.0
 40
4.0
 40
5.0
 40
6.0
 40
7.0
 40
8.0
 40
9.0
 40
10.0
 40
11.0
 40
12.0
 40
13.0
 40
14.0
 40
15.0
 40
16.0
 40
17.0
 40
18.0
 40
19.0
 40
20.0
 40
21.0
 40
22.0
 40
23.0
 40
24.0
 40
25.0
 40
26.0
 40
27.0
 40
28.0
 40
29.0
 40
30.0
 40
31.0
 40
32.0
 40
33.0
 40
34.0
 40
35.0
 40
36.0
 40
37.0
 40
38.0
 40
39.0
 40
40.0
 40
41.0
 40
42.0
 40
43.0
 40
44.0
 40
45.0
 40
46.0
 40
47.0
 40
47.0
 40
47.0
 40
47.0
 10
26.26158345422726
 20
18.54678141417338
 30
0.0
 10
26.38884025119005
 20
18.65843769473913
 30
0.0
 10
26.60877606903473
 20
18.91645362917657
 30
0.0
 10
26.90114812584555
 20
19.33080665859747
 30
0.0
 10
27.17247571779026
 20
19.75924807851861
 30
0.0
 10
27.43155598938711
 20
20.19511741843673
 30
0.0
 10
27.67948005907538
 20
20.6374121997606
 30
0.0
 10
27.92117172632142
 20
21.08312811368268
 30
0.0
 10
28.15543285708401
 20
21.53279505915027
 30
0.0
 10
28.38523085073756
 20
21.98475421252534
 30
0.0
 10
28.60916488852207
 20
22.43964544861209
 30
0.0
 10
28.8272783687226
 20
22.89737306980244
 30
0.0
 10
29.0363438958539
 20
23.35929005340495
 30
0.0
 10
29.23614615608314
 20
23.82533988938745
 30
0.0
 10
29.42174983132799
 20
24.29716972179467
 30
0.0
 10
29.59605058855838
 20
24.77341531382741
 30
0.0
 10
29.74297807914921
 20
25.25893548600395
 30
0.0
 10
29.85399459635193
 20
25.75398869671123
 30
0.0
 10
29.90885832521987
 20
26.25905700040013
 30
0.0
 10
29.9044572775008
 20
26.76645249677631
 30
0.0
 10
29.85329731745482
 20
27.27137420327497
 30
0.0
 10
29.76044003542602
 20
27.77004932748149
 30
0.0
 10
29.64377309502257
 20
28.26350839672954
 30
0.0
 10
29.5103973861498
 20
28.75274812258556
 30
0.0
 10
29.35966129712398
 20
29.23689969814784
 30
0.0
 10
29.19965344619039
 20
29.71801115409668
 30
0.0
 10
29.03099774536113
 20
30.19617039895621
 30
0.0
 10
28.85580696883309
 20
30.67196613708683
 30
0.0
 10
28.67531240051433
 20
31.14577627574554
 30
0.0
 10
28.49079535067002
 20
31.61803058625235
 30
0.0
 10
28.30302699544336
 20
32.08900102598172
 30
0.0
 10
28.11260308370848
 20
32.55890332607193
 30
0.0
 10
27.91937300068571
 20
33.02765899721119
 30
0.0
 10
27.72345458242638
 20
33.49529666298766
 30
0.0
 10
27.5247629628433
 20
33.96176400814674
 30
0.0
 10
27.32353681847873
 20
34.42714170980292
 30
0.0
 10
27.11976442399271
 20
34.89141403998119
 30
0.0
 10
26.9132876397972
 20
35.35447723150092
 30
0.0
 10
26.70453267626743
 20
35.81656450874859
 30
0.0
 10
26.49302235020011
 20
36.27722550475031
 30
0.0
 10
26.27484567701331
 20
36.73544017445428
 30
0.0
 10
26.03746949997374
 20
37.18183683161433
 30
0.0
 10
25.73931122201448
 20
37.60235234159742
 30
0.0
 10
25.25507013683151
 20
37.82203646013787
 30
0.0
 10
24.7473231032184
 20
37.71783803926853
 30
0.0
 10
24.26163828024047
 20
37.53443598372451
 30
0.0
 10
23.81317771108164
 20
37.45080796701094
 30
0.0
 10
23.19773455191156
 20
37.03682292111836
 30
0.0
 10
23.68101082662665
 20
36.94022576229933
 30
0.0
 10
23.83104645422726
 20
36.97130441417338
 30
0.0
  0
SPLINE
  5
90
330
1F
100
AcDbEntity
  8
2D
100
AcDbSpline
210
0.0
220
0.0
230
1.0
 70
    15
 71
     3
 72
    29
 73
    25
 74
     0
 42
0.0000000001
 43
0.0000000001
 40
-0.1063928047622674
 40
-0.1063928047622674
 40
-0.1063928047622674
 40
-0.1063928047622674
 40
0.0
 40
0.0
 40
0.0
 40
9.031051370023933
 40
9.031051370023933
 40
9.031051370023933
 40
9.137141425526835
 40
9.137141425526835
 40
9.137141425526835
 40
10.13714142552683
 40
10.13714142552683
 40
10.13714142552683
 40
11.13714142552683
 40
11.13714142552683
 40
11.13714142552683
 40
19.96035964247528
 40
19.96035964247528
 40
19.96035964247528
 40
20.96035964247528
 40
20.96035964247528
 40
20.96035964247528
 40
21.96035964247528
 40
21.96035964247528
 40
21.96035964247528
 40
21.96035964247528
 10
31.71168045422724
 20
25.22002841417338
 30
0.0
 41
1.0
 10
31.72522693055807
 20
25.18343698503036
 30
0.0
 41
0.8304783375206525
 10
31.75970826343123
 20
25.16517562169132
 30
0.0
 41
0.8304783375206525
 10
31.79758845422724
 20
25.17453141417338
 30
0.0
 41
1.0
 10
34.7404590324739
 20
25.90137269593756
 30
0.0
 41
0.9862533713399997
 10
37.76948898239549
 20
26.01868872921624
 30
0.0
 41
0.9862533713399997
 10
40.75976145422727
 20
25.52164141417338
 30
0.0
 41
1.0
 10
40.79815723801592
 20
25.51525921274495
 30
0.0
 41
0.8298659241972278
 10
40.83101314787433
 20
25.5361268406694
 30
0.0
 41
0.8298659241972278
 10
40.84155945422725
 20
25.57359341417338
 30
0.0
 41
1.0
 10
40.85268828756059
 20
25.64142958084004
 30
0.0
 41
1.0
 10
40.86381712089392
 20
25.70926574750671
 30
0.0
 41
1.0
 10
40.87494595422726
 20
25.77710191417338
 30
0.0
 41
1.0
 10
40.90369236379208
 20
25.92678970038118
 30
0.0
 41
1.0
 10
40.78842115343981
 20
26.08187192758401
 30
0.0
 41
1.0
 10
40.63779245422725
 20
26.10101241417338
 30
0.0
 41
1.0
 10
37.71339223714566
 20
26.5549077014642
 30
0.0
 41
0.9876653455761688
 10
34.75619084659825
 20
26.44046340393677
 30
0.0
 41
0.9876653455761688
 10
31.87561645422732
 20
25.7619144141734
 30
0.0
 41
1.0
 10
31.72638285979732
 20
25.73184059861085
 30
0.0
 41
1.0
 10
31.62255001397314
 20
25.56804772380542
 30
0.0
 41
1.0
 10
31.66281395422725
 20
25.42060091417338
 30
0.0
 41
1.0
 10
31.67910278756058
 20
25.35374341417338
 30
0.0
 41
1.0
 10
31.69539162089391
 20
25.28688591417338
 30
0.0
 41
1.0
 10
31.71168045422724
 20
25.22002841417338
 30
0.0
 41
1.0
  0
SPLINE
  5
91
330
1F
100
AcDbEntity
  8
IGES LEVEL 0
100
AcDbSpline
210
0.0
220
0.0
230
1.0
 70
    24
 71
     2
 72
     6
 73
     3
 74
     0
 42
0.0000000001
 43
0.0000000001
 40
0.0
 40
0.0
 40
0.0
 40
1.0
 40
1.0
 40
1.0
 10
40.94106545422726
 20
0.8141424141733808
 30
0.0
 10
40.94035445422725
 20
0.8141359141733804
 30
0.0
 10
40.93964345422725
 20
0.8141294141733799
 30
0.0
  0
SPLINE
  5
92
330
1F
100
AcDbEntity
  8
2D
100
AcDbSpline
210
0.0
220
0.0
230
1.0
 70
     8
 71
     3
 72
    24
 73
    20
 74
     0
 42
0.0000000001
 43
0.0000000001
 40
0.0
 40
0.0
 40
0.0
 40
0.0
 40
1.0
 40
2.0
 40
3.0
 40
4.0
 40
5.0
 40
6.0
 40
7.0
 40
8.0
 40
9.0
 40
10.0
 40
11.0
 40
12.0
 40
13.0
 40
14.0
 40
15.0
 40
16.0
 40
17.0
 40
17.0
 40
17.0
 40
17.0
 10
26.66209645422725
 20
16.90763141417338
 30
0.0
 10
26.51063165036508
 20
16.92187947946065
 30
0.0
 10
26.19307101497422
 20
17.0407233576639
 30
0.0
 10
25.99529629823915
 20
17.48856172341951
 30
0.0
 10
26.03649836528542
 20
17.96154447446895
 30
0.0
 10
26.18520394319833
 20
18.40430391385986
 30
0.0
 10
26.37954647625353
 20
18.82892159751368
 30
0.0
 10
26.6008098623656
 20
19.23962023791001
 30
0.0
 10
26.81760662975836
 20
19.65264821644547
 30
0.0
 10
27.02935029736709
 20
20.06829494914039
 30
0.0
 10
27.23633230827073
 20
20.48635837146478
 30
0.0
 10
27.43719336417804
 20
20.90731188405305
 30
0.0
 10
27.63853905733234
 20
21.32831170614908
 30
0.0
 10
27.82923157151479
 20
21.75332057504604
 30
0.0
 10
28.02063500693637
 20
22.18076245768657
 30
0.0
 10
28.09692501371231
 20
22.64324968760259
 30
0.0
 10
28.19935761798254
 20
23.0978911956396
 30
0.0
 10
28.3539336478722
 20
23.53884060215353
 30
0.0
 10
28.46226636486745
 20
23.83011374778604
 30
0.0
 10
28.51747345422726
 20
23.97551241417338
 30
0.0
  0
SPLINE
  5
93
330
1F
100
AcDbEntity
  8
2D
100
AcDbSpline
210
0.0
220
0.0
230
1.0
 70
     8
 71
     3
 72
    14
 73
    10
 74
     0
 42
0.0000000001
 43
0.0000000001
 40
0.0
 40
0.0
 40
0.0
 40
0.0
 40
1.0
 40
2.0
 40
3.0
 40
4.0
 40
5.0
 40
6.0
 40
7.0
 40
7.0
 40
7.0
 40
7.0
 10
-4.950002000000001
 20
16.13914741417338
 30
0.0
 10
-4.951501835040955
 20
16.0618112705
 30
0.0
 10
-4.942502740979397
 20
15.90776181753772
 30
0.0
 10
-4.973999465425046
 20
15.67435194522492
 30
0.0
 10
-5.121970774969338
 20
15.48497070376123
 30
0.0
 10
-5.334857348813442
 20
15.38037219154955
 30
0.0
 10
-5.573175494029329
 20
15.38227710998229
 30
0.0
 10
-5.785076865967176
 20
15.49045546766258
 30
0.0
 10
-5.879648472696631
 20
15.61795557099081
 30
0.0
 10
-5.909793379610001
 20
15.68911263359338
 30
0.0
  0
SPLINE
  5
94
330
1F
100
AcDbEntity
  8
2D
100
AcDbSpline
210
0.0
220
0.0
230
1.0
 70
     8
 71
     3
 72
    14
 73
    10
 74
     0
 42
0.0000000001
 43
0.0000000001
 40
0.0
 40
0.0
 40
0.0
 40
0.0
 40
1.0
 40
2.0
 40
3.0
 40
4.0
 40
5.0
 40
6.0
 40
7.0
 40
7.0
 40
7.0
 40
7.0
 10
-9.995288000000002
 20
18.87247941417338
 30
0.0
 10
-10.00534396754085
 20
19.186679478184
 30
0.0
 10
-10.02492716707004
 20
19.8150962614431
 30
0.0
 10
-10.05388574309573
 20
20.75773449953813
 30
0.0
 10
-10.08138618387667
 20
21.70041691606816
 30
0.0
 10
-10.10823274633313
 20
22.64311519042267
 30
0.0
 10
-10.13162707925972
 20
23.58592071218916
 30
0.0
 10
-10.1603034959
 20
24.52853135675592
 30
0.0
 10
-10.11937345520797
 20
25.15787396833153
 30
0.0
 10
-10.057471
 20
25.46646841417338
 30
0.0
  0
SPLINE
  5
95
330
1F
100
AcDbEntity
  8
2D
100
AcDbSpline
210
0.0
220
0.0
230
1.0
 70
    15
 71
     3
 72
    34
 73
    30
 74
     0
 42
0.0000000001
 43
0.0000000001
 40
-197.7144262691383
 40
-197.7144262691383
 40
-197.7144262691383
 40
-197.7144262691383
 40
-197.0160071624977
 40
-196.0160071624977
 40
-195.0160071624977
 40
-194.0160071624977
 40
-193.0160071624977
 40
-193.0160071624977
 40
-193.0160071624977
 40
-192.0160071624977
 40
-192.0160071624977
 40
-192.0160071624977
 40
-191.0160071624977
 40
-190.0160071624977
 40
-189.0160071624977
 40
-188.0160071624977
 40
-187.3175880558566
 40
-187.3175880558566
 40
-187.3175880558566
 40
-187.1793568210862
 40
-187.1793568210862
 40
-187.1793568210862
 40
-186.2193481610625
 40
-186.2193481610625
 40
-186.2193481610625
 40
-186.0266671473015
 40
-186.0266671473015
 40
-186.0266671473015
 40
-185.888435912531
 40
-185.888435912531
 40
-185.888435912531
 40
-185.888435912531
 10
-6.78714895581719
 20
0.7409624081297206
 30
0.0
 41
1.0
 10
-6.794388367922377
 20
0.7030096930965382
 30
0.0
 41
1.0
 10
-6.810911182914877
 20
0.610558399605817
 30
0.0
 41
1.0
 10
-6.833101251454997
 20
0.46227564711783
 30
0.0
 41
1.0
 10
-6.841894992416803
 20
0.2982747504082652
 30
0.0
 41
1.0
 10
-6.844418500307053
 20
0.1254379374369512
 30
0.0
 41
1.0
 10
-6.756440976881175
 20
0.0382734028171406
 30
0.0
 41
1.0
 10
-6.6972705
 20
0.0412254141733794
 30
0.0
 41
1.0
 10
-6.2323235
 20
0.0412254141733794
 30
0.0
 41
1.0
 10
-5.7673765
 20
0.0412254141733794
 30
0.0
 41
1.0
 10
-5.302429500000001
 20
0.0412254141733794
 30
0.0
 41
1.0
 10
-5.243259023118821
 20
0.0382734028171406
 30
0.0
 41
1.0
 10
-5.15528149969295
 20
0.1254379374369512
 30
0.0
 41
1.0
 10
-5.157805007583199
 20
0.2982747504082652
 30
0.0
 41
1.0
 10
-5.166598748545005
 20
0.46227564711783
 30
0.0
 41
1.0
 10
-5.188788817085126
 20
0.6105583996058356
 30
0.0
 41
1.0
 10
-5.20531163207763
 20
0.7030096930965748
 30
0.0
 41
1.0
 10
-5.212551044182857
 20
0.7409624081297597
 30
0.0
 41
1.0
 10
-5.221951597697734
 20
0.790244935981278
 30
0.0
 41
0.8470063680253781
 10
-5.260608899368003
 20
0.8222254141733795
 30
0.0
 41
0.8470063680253781
 10
-5.310779986239047
 20
0.82222541417338
 30
0.0
 41
1.0
 10
-5.705932990826033
 20
0.82222541417338
 30
0.0
 41
1.0
 10
-6.101085995413018
 20
0.82222541417338
 30
0.0
 41
1.0
 10
-6.496239000000003
 20
0.82222541417338
 30
0.0
 41
1.0
 10
-6.560466004586996
 20
0.82222541417338
 30
0.0
 41
1.0
 10
-6.624693009173991
 20
0.82222541417338
 30
0.0
 41
1.0
 10
-6.688920013760984
 20
0.82222541417338
 30
0.0
 41
1.0
 10
-6.739091100632048
 20
0.8222254141733841
 30
0.0
 41
0.8470063680252746
 10
-6.777748402302329
 20
0.7902449359812633
 30
0.0
 41
0.8470063680252746
 10
-6.78714895581719
 20
0.7409624081297207
 30
0.0
 41
1.0
  0
SPLINE
  5
96
330
1F
100
AcDbEntity
  8
2D
100
AcDbSpline
210
0.0
220
0.0
230
1.0
 70
     8
 71
     3
 72
    14
 73
    10
 74
     0
 42
0.0000000001
 43
0.0000000001
 40
0.0
 40
0.0
 40
0.0
 40
0.0
 40
1.0
 40
2.0
 40
3.0
 40
4.0
 40
5.0
 40
6.0
 40
7.0
 40
7.0
 40
7.0
 40
7.0
 10
4.950002000000001
 20
16.13914741417338
 30
0.0
 10
4.951501835040955
 20
16.0618112705
 30
0.0
 10
4.942502740979397
 20
15.90776181753772
 30
0.0
 10
4.973999465425046
 20
15.67435194522492
 30
0.0
 10
5.121970774969338
 20
15.48497070376123
 30
0.0
 10
5.334857348813442
 20
15.38037219154955
 30
0.0
 10
5.573175494029329
 20
15.38227710998229
 30
0.0
 10
5.785076865967176
 20
15.49045546766258
 30
0.0
 10
5.879648472696631
 20
15.61795557099081
 30
0.0
 10
5.909793379610001
 20
15.68911263359338
 30
0.0
  0
SPLINE
  5
97
330
1F
100
AcDbEntity
  8
2D
100
AcDbSpline
210
0.0
220
0.0
230
1.0
 70
     8
 71
     3
 72
    24
 73
    20
 74
     0
 42
0.0000000001
 43
0.0000000001
 40
0.0
 40
0.0
 40
0.0
 40
0.0
 40
1.0
 40
2.0
 40
3.0
 40
4.0
 40
5.0
 40
6.0
 40
7.0
 40
8.0
 40
9.0
 40
10.0
 40
11.0
 40
12.0
 40
13.0
 40
14.0
 40
15.0
 40
16.0
 40
17.0
 40
17.0
 40
17.0
 40
17.0
 10
4.951449596030002
 20
16.10140034372338
 30
0.0
 10
4.957379708431765
 20
16.02297252728988
 30
0.0
 10
5.007124597127994
 20
15.86842752294064
 30
0.0
 10
5.178175148721927
 20
15.69801232842242
 30
0.0
 10
5.411288956936505
 20
15.61768553584484
 30
0.0
 10
5.643329424012951
 20
15.67590615128273
 30
0.0
 10
5.866517636229996
 20
15.75061545636603
 30
0.0
 10
6.09682993544847
 20
15.8048792873279
 30
0.0
 10
6.327593361384977
 20
15.85481029711566
 30
0.0
 10
6.560414222024385
 20
15.89488048833988
 30
0.0
 10
6.793550528496139
 20
15.93264094313585
 30
0.0
 10
7.026602316431712
 20
15.9710203951621
 30
0.0
 10
7.259676935737304
 20
16.00923362801776
 30
0.0
 10
7.492745052480057
 20
16.04749279027568
 30
0.0
 10
7.725816057658536
 20
16.08573272738917
 30
0.0
 10
7.958888206397507
 20
16.12396715447215
 30
0.0
 10
8.191961566933477
 20
16.16219233020589
 30
0.0
 10
8.425036613181074
 20
16.20040934104789
 30
0.0
 10
8.580420671446156
 20
16.22588164625624
 30
0.0
 10
8.65811300000005
 20
16.23861641417291
 30
0.0
  0
SPLINE
  5
98
330
1F
100
AcDbEntity
  8
2D
100
AcDbSpline
210
0.0
220
0.0
230
1.0
 70
     8
 71
     2
 72
   272
 73
   269
 74
     0
 42
0.0000000001
 43
0.0000000001
 40
0.0
 40
0.0
 40
0.0
 40
1.0
 40
1.0
 40
2.0
 40
2.0
 40
3.0
 40
3.0
 40
4.0
 40
4.0
 40
5.0
 40
5.0
 40
6.0
 40
6.0
 40
7.0
 40
7.0
 40
8.0
 40
8.0
 40
9.0
 40
9.0
 40
10.0
 40
10.0
 40
11.0
 40
11.0
 40
12.0
 40
12.0
 40
13.0
 40
13.0
 40
14.0
 40
14.0
 40
15.0
 40
15.0
 40
16.0
 40
16.0
 40
17.0
 40
17.0
 40
18.0
 40
18.0
 40
19.0
 40
19.0
 40
20.0
 40
20.0
 40
21.0
 40
21.0
 40
22.0
 40
22.0
 40
23.0
 40
23.0
 40
24.0
 40
24.0
 40
25.0
 40
25.0
 40
26.0
 40
26.0
 40
27.0
 40
27.0
 40
28.0
 40
28.0
 40
29.0
 40
29.0
 40
30.0
 40
30.0
 40
31.0
 40
31.0
 40
32.0
 40
32.0
 40
33.0
 40
33.0
 40
34.0
 40
34.0
 40
35.0
 40
35.0
 40
36.0
 40
36.0
 40
37.0
 40
37.0
 40
38.0
 40
38.0
 40
39.0
 40
39.0
 40
40.0
 40
40.0
 40
41.0
 40
41.0
 40
42.0
 40
42.0
 40
43.0
 40
43.0
 40
44.0
 40
44.0
 40
45.0
 40
45.0
 40
46.0
 40
46.0
 40
47.0
 40
47.0
 40
48.0
 40
48.0
 40
49.0
 40
49.0
 40
50.0
 40
50.0
 40
51.0
 40
51.0
 40
52.0
 40
52.0
 40
53.0
 40
53.0
 40
54.0
 40
54.0
 40
55.0
 40
55.0
 40
56.0
 40
56.0
 40
57.0
 40
57.0
 40
58.0
 40
58.0
 40
59.0
 40
59.0
 40
60.0
 40
60.0
 40
61.0
 40
61.0
 40
62.0
 40
62.0
 40
63.0
 40
63.0
 40
64.0
 40
64.0
 40
65.0
 40
65.0
 40
66.0
 40
66.0
 40
67.0
 40
67.0
 40
68.0
 40
68.0
 40
69.0
 40
69.0
 40
70.0
 40
70.0
 40
71.0
 40
71.0
 40
72.0
 40
72.0
 40
73.0
 40
73.0
 40
74.0
 40
74.0
 40
75.0
 40
75.0
 40
76.0
 40
76.0
 40
77.0
 40
77.0
 40
78.0
 40
78.0
 40
79.0
 40
79.0
 40
80.0
 40
80.0
 40
81.0
 40
81.0
 40
82.0
 40
82.0
 40
83.0
 40
83.0
 40
84.0
 40
84.0
 40
85.0
 40
85.0
 40
86.0
 40
86.0
 40
87.0
 40
87.0
 40
88.0
 40
88.0
 40
89.0
 40
89.0
 40
90.0
 40
90.0
 40
91.0
 40
91.0
 40
92.0
 40
92.0
 40
93.0
 40
93.0
 40
94.0
 40
94.0
 40
95.0
 40
95.0
 40
96.0
 40
96.0
 40
97.0
 40
97.0
 40
98.0
 40
98.0
 40
99.0
 40
99.0
 40
100.0
 40
100.0
 40
101.0
 40
101.0
 40
102.0
 40
102.0
 40
103.0
 40
103.0
 40
104.0
 40
104.0
 40
105.0
 40
105.0
 40
106.0
 40
106.0
 40
107.0
 40
107.0
 40
108.0
 40
108.0
 40
109.0
 40
109.0
 40
110.0
 40
110.0
 40
111.0
 40
111.0
 40
112.0
 40
112.0
 40
113.0
 40
113.0
 40
114.0
 40
114.0
 40
115.0
 40
115.0
 40
116.0
 40
116.0
 40
117.0
 40
117.0
 40
118.0
 40
118.0
 40
119.0
 40
119.0
 40
120.0
 40
120.0
 40
121.0
 40
121.0
 40
122.0
 40
122.0
 40
123.0
 40
123.0
 40
124.0
 40
124.0
 40
125.0
 40
125.0
 40
126.0
 40
126.0
 40
127.0
 40
127.0
 40
128.0
 40
128.0
 40
129.0
 40
129.0
 40
130.0
 40
130.0
 40
131.0
 40
131.0
 40
132.0
 40
132.0
 40
133.0
 40
133.0
 40
134.0
 40
134.0
 40
134.0
 10
9.942336000000001
 20
17.25192041417338
 30
0.0
 10
9.9346025
 20
17.24475241417338
 30
0.0
 10
9.926869
 20
17.23758441417338
 30
0.0
 10
9.9176195
 20
17.22913341417338
 30
0.0
 10
9.908370000000001
 20
17.22068241417338
 30
0.0
 10
9.897366500000002
 20
17.21084691417338
 30
0.0
 10
9.886363000000003
 20
17.20101141417338
 30
0.0
 10
9.873591500000002
 20
17.18993841417338
 30
0.0
 10
9.86082
 20
17.17886541417338
 30
0.0
 10
9.846713000000001
 20
17.16709191417338
 30
0.0
 10
9.832606000000002
 20
17.15531841417338
 30
0.0
 10
9.816921500000001
 20
17.14281041417338
 30
0.0
 10
9.801237
 20
17.13030241417338
 30
0.0
 10
9.783929
 20
17.11718641417338
 30
0.0
 10
9.766621
 20
17.10407041417338
 30
0.0
 10
9.748539500000001
 20
17.09104641417338
 30
0.0
 10
9.730458000000002
 20
17.07802241417338
 30
0.0
 10
9.711935500000001
 20
17.06531141417338
 30
0.0
 10
9.693413
 20
17.05260041417338
 30
0.0
 10
9.674116
 20
17.03996341417338
 30
0.0
 10
9.654819
 20
17.02732641417338
 30
0.0
 10
9.634712
 20
17.01475041417338
 30
0.0
 10
9.614605000000001
 20
17.00217441417338
 30
0.0
 10
9.593744000000001
 20
16.98969441417338
 30
0.0
 10
9.572883000000001
 20
16.97721441417338
 30
0.0
 10
9.551251
 20
16.96482191417338
 30
0.0
 10
9.529619
 20
16.95242941417338
 30
0.0
 10
9.507097
 20
16.94006741417338
 30
0.0
 10
9.484575
 20
16.92770541417338
 30
0.0
 10
9.4612665
 20
16.91544291417338
 30
0.0
 10
9.437958000000002
 20
16.90318041417338
 30
0.0
 10
9.413844500000002
 20
16.89100591417338
 30
0.0
 10
9.389731000000001
 20
16.87883141417338
 30
0.0
 10
9.364493500000002
 20
16.86659941417338
 30
0.0
 10
9.339256000000002
 20
16.85436741417338
 30
0.0
 10
9.313001000000002
 20
16.84215791417338
 30
0.0
 10
9.286746
 20
16.82994841417338
 30
0.0
 10
9.259457500000002
 20
16.81778791417338
 30
0.0
 10
9.232169000000003
 20
16.80562741417338
 30
0.0
 10
9.203350000000002
 20
16.79335691417338
 30
0.0
 10
9.174531000000002
 20
16.78108641417338
 30
0.0
 10
9.144070000000001
 20
16.76874941417338
 30
0.0
 10
9.113609
 20
16.75641241417338
 30
0.0
 10
9.090501500000002
 20
16.74748766417338
 30
0.0
 10
9.067394000000002
 20
16.73856291417338
 30
0.0
 10
9.048929000000001
 20
16.73157966417338
 30
0.0
 10
9.030464000000002
 20
16.72459641417338
 30
0.0
 10
9.011551
 20
16.71750141417338
 30
0.0
 10
8.992638
 20
16.71040641417338
 30
0.0
 10
8.97267
 20
16.70304591417338
 30
0.0
 10
8.952702000000002
 20
16.69568541417338
 30
0.0
 10
8.931722500000001
 20
16.68814891417338
 30
0.0
 10
8.910743
 20
16.68061241417338
 30
0.0
 10
8.8891805
 20
16.67311441417338
 30
0.0
 10
8.867618
 20
16.66561641417338
 30
0.0
 10
8.845475500000001
 20
16.65820291417338
 30
0.0
 10
8.823333000000002
 20
16.65078941417338
 30
0.0
 10
8.800446
 20
16.64344791417338
 30
0.0
 10
8.777559
 20
16.63610641417338
 30
0.0
 10
8.754169000000001
 20
16.62894841417338
 30
0.0
 10
8.730779000000002
 20
16.62179041417338
 30
0.0
 10
8.706904000000002
 20
16.61484591417338
 30
0.0
 10
8.683029000000001
 20
16.60790141417338
 30
0.0
 10
8.658591500000002
 20
16.60116941417338
 30
0.0
 10
8.634154000000002
 20
16.59443741417338
 30
0.0
 10
8.609338500000002
 20
16.58797691417338
 30
0.0
 10
8.584523
 20
16.58151641417338
 30
0.0
 10
8.559608500000001
 20
16.57536491417338
 30
0.0
 10
8.534694000000002
 20
16.56921341417338
 30
0.0
 10
8.509798500000002
 20
16.56336091417338
 30
0.0
 10
8.484903000000003
 20
16.55750841417338
 30
0.0
 10
8.460110500000003
 20
16.55194391417338
 30
0.0
 10
8.435318000000002
 20
16.54637941417338
 30
0.0
 10
8.410940000000002
 20
16.54114341417338
 30
0.0
 10
8.386562000000001
 20
16.53590741417338
 30
0.0
 10
8.362639500000002
 20
16.53098491417338
 30
0.0
 10
8.338717000000003
 20
16.52606241417338
 30
0.0
 10
8.314927000000003
 20
16.52136991417338
 30
0.0
 10
8.291137000000003
 20
16.51667741417338
 30
0.0
 10
8.267683500000002
 20
16.51223641417338
 30
0.0
 10
8.244230000000002
 20
16.50779541417338
 30
0.0
 10
8.221340000000001
 20
16.50362791417338
 30
0.0
 10
8.198450000000001
 20
16.49946041417338
 30
0.0
 10
8.175906500000002
 20
16.49551091417338
 30
0.0
 10
8.153363000000002
 20
16.49156141417338
 30
0.0
 10
8.131322000000003
 20
16.48784691417338
 30
0.0
 10
8.109281000000003
 20
16.48413241417338
 30
0.0
 10
8.089483500000002
 20
16.48092141417338
 30
0.0
 10
8.069686
 20
16.47771041417338
 30
0.0
 10
8.0698135
 20
16.47773091417338
 30
0.0
 10
8.069941
 20
16.47775141417338
 30
0.0
 10
8.046302500000001
 20
16.47404891417338
 30
0.0
 10
8.022664000000002
 20
16.47034641417338
 30
0.0
 10
8.001048000000003
 20
16.46706041417338
 30
0.0
 10
7.979432000000003
 20
16.46377441417338
 30
0.0
 10
7.957101000000002
 20
16.46047591417338
 30
0.0
 10
7.93477
 20
16.45717741417338
 30
0.0
 10
7.911734000000001
 20
16.45387391417338
 30
0.0
 10
7.888698000000002
 20
16.45057041417338
 30
0.0
 10
7.864957000000002
 20
16.44726741417338
 30
0.0
 10
7.841216000000003
 20
16.44396441417338
 30
0.0
 10
7.826622500000003
 20
16.44198291417338
 30
0.0
 10
7.812029000000003
 20
16.44000141417338
 30
0.0
 10
7.812025000000002
 20
16.44000091417338
 30
0.0
 10
7.812021000000001
 20
16.44000041417338
 30
0.0
 10
7.546626500000002
 20
16.40821441417338
 30
0.0
 10
7.281232000000003
 20
16.37642841417338
 30
0.0
 10
6.984562000000002
 20
16.34945841417338
 30
0.0
 10
6.687892000000002
 20
16.32248841417338
 30
0.0
 10
6.395017000000001
 20
16.30321741417338
 30
0.0
 10
6.102142000000001
 20
16.28394641417338
 30
0.0
 10
5.817826500000001
 20
16.27088991417338
 30
0.0
 10
5.533511000000001
 20
16.25783341417338
 30
0.0
 10
5.257042500000001
 20
16.24856691417338
 30
0.0
 10
4.980574000000001
 20
16.23930041417338
 30
0.0
 10
4.705685000000001
 20
16.23222841417338
 30
0.0
 10
4.430796000000001
 20
16.22515641417338
 30
0.0
 10
4.154723000000001
 20
16.22031741417338
 30
0.0
 10
3.87865
 20
16.21547841417338
 30
0.0
 10
3.608017
 20
16.21336691417338
 30
0.0
 10
3.337384
 20
16.21125541417338
 30
0.0
 10
3.076766500000002
 20
16.21220841417338
 30
0.0
 10
2.816149000000003
 20
16.21316141417338
 30
0.0
 10
2.564539000000002
 20
16.21644891417338
 30
0.0
 10
2.312929
 20
16.21973641417338
 30
0.0
 10
2.065720500000001
 20
16.22393241417338
 30
0.0
 10
1.818512000000002
 20
16.22812841417338
 30
0.0
 10
1.574213500000001
 20
16.23225441417338
 30
0.0
 10
1.329915
 20
16.23638041417338
 30
0.0
 10
1.089778000000001
 20
16.23987991417338
 30
0.0
 10
0.8496410000000019
 20
16.24337941417338
 30
0.0
 10
0.614132500000002
 20
16.24585741417338
 30
0.0
 10
0.3786240000000021
 20
16.24833541417338
 30
0.0
 10
0.189312000000001
 20
16.24940441417338
 30
0.0
 10
0.0
 20
16.25047341417338
 30
0.0
 10
-0.189312000000001
 20
16.24940441417338
 30
0.0
 10
-0.3786240000000021
 20
16.24833541417338
 30
0.0
 10
-0.614132500000002
 20
16.24585741417338
 30
0.0
 10
-0.8496410000000019
 20
16.24337941417338
 30
0.0
 10
-1.089778000000001
 20
16.23987991417338
 30
0.0
 10
-1.329915
 20
16.23638041417338
 30
0.0
 10
-1.574213500000001
 20
16.23225441417338
 30
0.0
 10
-1.818512000000002
 20
16.22812841417338
 30
0.0
 10
-2.065720500000001
 20
16.22393241417338
 30
0.0
 10
-2.312929
 20
16.21973641417338
 30
0.0
 10
-2.564539000000002
 20
16.21644891417338
 30
0.0
 10
-2.816149000000003
 20
16.21316141417338
 30
0.0
 10
-3.076766500000002
 20
16.21220841417338
 30
0.0
 10
-3.337384
 20
16.21125541417338
 30
0.0
 10
-3.608017
 20
16.21336691417338
 30
0.0
 10
-3.87865
 20
16.21547841417338
 30
0.0
 10
-4.154723000000001
 20
16.22031741417338
 30
0.0
 10
-4.430796000000001
 20
16.22515641417338
 30
0.0
 10
-4.705685000000001
 20
16.23222841417338
 30
0.0
 10
-4.980574000000001
 20
16.23930041417338
 30
0.0
 10
-5.257042500000001
 20
16.24856691417338
 30
0.0
 10
-5.533511000000001
 20
16.25783341417338
 30
0.0
 10
-5.817826500000001
 20
16.27088991417338
 30
0.0
 10
-6.102142000000001
 20
16.28394641417338
 30
0.0
 10
-6.395017000000001
 20
16.30321741417338
 30
0.0
 10
-6.687892000000002
 20
16.32248841417338
 30
0.0
 10
-6.984562000000002
 20
16.34945841417338
 30
0.0
 10
-7.281232000000003
 20
16.37642841417338
 30
0.0
 10
-7.546626500000002
 20
16.40821441417338
 30
0.0
 10
-7.812021000000001
 20
16.44000041417338
 30
0.0
 10
-7.812025000000002
 20
16.44000091417338
 30
0.0
 10
-7.812029000000003
 20
16.44000141417338
 30
0.0
 10
-7.826622500000003
 20
16.44198291417338
 30
0.0
 10
-7.841216000000003
 20
16.44396441417338
 30
0.0
 10
-7.864957000000002
 20
16.44726741417338
 30
0.0
 10
-7.888698000000002
 20
16.45057041417338
 30
0.0
 10
-7.911734000000001
 20
16.45387391417338
 30
0.0
 10
-7.93477
 20
16.45717741417338
 30
0.0
 10
-7.957101000000002
 20
16.46047591417338
 30
0.0
 10
-7.979432000000003
 20
16.46377441417338
 30
0.0
 10
-8.001048000000003
 20
16.46706041417338
 30
0.0
 10
-8.022664000000002
 20
16.47034641417338
 30
0.0
 10
-8.046302500000001
 20
16.47404891417338
 30
0.0
 10
-8.069941
 20
16.47775141417338
 30
0.0
 10
-8.0698135
 20
16.47773091417338
 30
0.0
 10
-8.069686
 20
16.47771041417338
 30
0.0
 10
-8.089483500000002
 20
16.48092141417338
 30
0.0
 10
-8.109281000000003
 20
16.48413241417338
 30
0.0
 10
-8.131322000000003
 20
16.48784691417338
 30
0.0
 10
-8.153363000000002
 20
16.49156141417338
 30
0.0
 10
-8.175906500000002
 20
16.49551091417338
 30
0.0
 10
-8.198450000000001
 20
16.49946041417338
 30
0.0
 10
-8.221340000000001
 20
16.50362791417338
 30
0.0
 10
-8.244230000000002
 20
16.50779541417338
 30
0.0
 10
-8.267683500000002
 20
16.51223641417338
 30
0.0
 10
-8.291137000000003
 20
16.51667741417338
 30
0.0
 10
-8.314927000000003
 20
16.52136991417338
 30
0.0
 10
-8.338717000000003
 20
16.52606241417338
 30
0.0
 10
-8.362639500000002
 20
16.53098491417338
 30
0.0
 10
-8.386562000000001
 20
16.53590741417338
 30
0.0
 10
-8.410940000000002
 20
16.54114341417338
 30
0.0
 10
-8.435318000000002
 20
16.54637941417338
 30
0.0
 10
-8.460110500000003
 20
16.55194391417338
 30
0.0
 10
-8.484903000000003
 20
16.55750841417338
 30
0.0
 10
-8.509798500000002
 20
16.56336091417338
 30
0.0
 10
-8.534694000000002
 20
16.56921341417338
 30
0.0
 10
-8.559608500000001
 20
16.57536491417338
 30
0.0
 10
-8.584523
 20
16.58151641417338
 30
0.0
 10
-8.609338500000002
 20
16.58797691417338
 30
0.0
 10
-8.634154000000002
 20
16.59443741417338
 30
0.0
 10
-8.658591500000002
 20
16.60116941417338
 30
0.0
 10
-8.683029000000001
 20
16.60790141417338
 30
0.0
 10
-8.706904000000002
 20
16.61484591417338
 30
0.0
 10
-8.730779000000002
 20
16.62179041417338
 30
0.0
 10
-8.754169000000001
 20
16.62894841417338
 30
0.0
 10
-8.777559
 20
16.63610641417338
 30
0.0
 10
-8.800446
 20
16.64344791417338
 30
0.0
 10
-8.823333000000002
 20
16.65078941417338
 30
0.0
 10
-8.845475500000001
 20
16.65820291417338
 30
0.0
 10
-8.867618
 20
16.66561641417338
 30
0.0
 10
-8.8891805
 20
16.67311441417338
 30
0.0
 10
-8.910743
 20
16.68061241417338
 30
0.0
 10
-8.931722500000001
 20
16.68814891417338
 30
0.0
 10
-8.952702000000002
 20
16.69568541417338
 30
0.0
 10
-8.97267
 20
16.70304591417338
 30
0.0
 10
-8.992638
 20
16.71040641417338
 30
0.0
 10
-9.011551
 20
16.71750141417338
 30
0.0
 10
-9.030464000000002
 20
16.72459641417338
 30
0.0
 10
-9.048929000000001
 20
16.73157966417338
 30
0.0
 10
-9.067394000000002
 20
16.73856291417338
 30
0.0
 10
-9.090501500000002
 20
16.74748766417338
 30
0.0
 10
-9.113609
 20
16.75641241417338
 30
0.0
 10
-9.144070000000001
 20
16.76874941417338
 30
0.0
 10
-9.174531000000002
 20
16.78108641417338
 30
0.0
 10
-9.203350000000002
 20
16.79335691417338
 30
0.0
 10
-9.232169000000003
 20
16.80562741417338
 30
0.0
 10
-9.259457500000002
 20
16.81778791417338
 30
0.0
 10
-9.286746
 20
16.82994841417338
 30
0.0
 10
-9.313001000000002
 20
16.84215791417338
 30
0.0
 10
-9.339256000000002
 20
16.85436741417338
 30
0.0
 10
-9.364493500000002
 20
16.86659941417338
 30
0.0
 10
-9.389731000000001
 20
16.87883141417338
 30
0.0
 10
-9.413844500000002
 20
16.89100591417338
 30
0.0
 10
-9.437958000000002
 20
16.90318041417338
 30
0.0
 10
-9.4612665
 20
16.91544291417338
 30
0.0
 10
-9.484575
 20
16.92770541417338
 30
0.0
 10
-9.507097
 20
16.94006741417338
 30
0.0
 10
-9.529619
 20
16.95242941417338
 30
0.0
 10
-9.551251
 20
16.96482191417338
 30
0.0
 10
-9.572883000000001
 20
16.97721441417338
 30
0.0
 10
-9.593744000000001
 20
16.98969441417338
 30
0.0
 10
-9.614605000000001
 20
17.00217441417338
 30
0.0
 10
-9.634712
 20
17.01475041417338
 30
0.0
 10
-9.654819
 20
17.02732641417338
 30
0.0
 10
-9.674116
 20
17.03996341417338
 30
0.0
 10
-9.693413
 20
17.05260041417338
 30
0.0
 10
-9.711935500000001
 20
17.06531141417338
 30
0.0
 10
-9.730458000000002
 20
17.07802241417338
 30
0.0
 10
-9.748539500000001
 20
17.09104641417338
 30
0.0
 10
-9.766621
 20
17.10407041417338
 30
0.0
 10
-9.783929
 20
17.11718641417338
 30
0.0
 10
-9.801237
 20
17.13030241417338
 30
0.0
 10
-9.816921500000001
 20
17.14281041417338
 30
0.0
 10
-9.832606000000002
 20
17.15531841417338
 30
0.0
 10
-9.846713000000001
 20
17.16709191417338
 30
0.0
 10
-9.86082
 20
17.17886541417338
 30
0.0
 10
-9.873591500000002
 20
17.18993841417338
 30
0.0
 10
-9.886363000000003
 20
17.20101141417338
 30
0.0
 10
-9.897366500000002
 20
17.21084691417338
 30
0.0
 10
-9.908370000000001
 20
17.22068241417338
 30
0.0
 10
-9.9176195
 20
17.22913341417338
 30
0.0
 10
-9.926869
 20
17.23758441417338
 30
0.0
 10
-9.9346025
 20
17.24475241417338
 30
0.0
 10
-9.942336000000001
 20
17.25192041417338
 30
0.0
  0
ENDSEC
  0
SECTION
  2
OBJECTS
  0
DICTIONARY
  5
C
330
0
100
AcDbDictionary
281
     1
  3
ACAD_GROUP
350
D
  3
ACAD_LAYOUT
350
1A
  3
ACAD_MLEADERSTYLE
350
9B
  3
ACAD_MLINESTYLE
350
17
  3
ACAD_PLOTSETTINGS
350
19
  3
ACAD_PLOTSTYLENAME
350
E
  3
ACAD_VISUALSTYLE
350
2A
  3
AcDbVariableDictionary
350
99
  0
DICTIONARY
  5
D
102
{ACAD_REACTORS
330
C
102
}
330
C
100
AcDbDictionary
281
     1
  0
DICTIONARY
  5
1A
102
{ACAD_REACTORS
330
C
102
}
330
C
100
AcDbDictionary
281
     1
  3
Layout1
350
1E
  3
Layout2
350
26
  3
Model
350
22
  0
DICTIONARY
  5
9B
102
{ACAD_REACTORS
330
C
102
}
330
C
100
AcDbDictionary
281
     1
  0
DICTIONARY
  5
17
102
{ACAD_REACTORS
330
C
102
}
330
C
100
AcDbDictionary
281
     1
  3
Standard
350
18
  0
DICTIONARY
  5
19
102
{ACAD_REACTORS
330
C
102
}
330
C
100
AcDbDictionary
281
     1
  0
ACDBDICTIONARYWDFLT
  5
E
102
{ACAD_REACTORS
330
C
102
}
330
C
100
AcDbDictionary
281
     1
  3
Normal
350
F
100
AcDbDictionaryWithDefault
340
F
  0
DICTIONARY
  5
2A
102
{ACAD_REACTORS
330
C
102
}
330
C
100
AcDbDictionary
281
     1
  3
2dWireframe
350
2F
  3
3D Hidden
350
31
  3
3dWireframe
350
30
  3
Basic
350
32
  3
Brighten
350
36
  3
ColorChange
350
3A
  3
Conceptual
350
34
  3
Dim
350
35
  3
Facepattern
350
39
  3
Flat
350
2B
  3
FlatWithEdges
350
2C
  3
Gouraud
350
2D
  3
GouraudWithEdges
350
2E
  3
Linepattern
350
38
  3
Realistic
350
33
  3
Thicken
350
37
  0
DICTIONARY
  5
99
102
{ACAD_REACTORS
330
C
102
}
330
C
100
AcDbDictionary
281
     1
  0
LAYOUT
  5
1E
102
{ACAD_REACTORS
330
1A
102
}
330
1A
100
AcDbPlotSettings
  1

  2
none_device
  4

  6

 40
0.0
 41
0.0
 42
0.0
 43
0.0
 44
0.0
 45
0.0
 46
0.0
 47
0.0
 48
0.0
 49
0.0
140
0.0
141
0.0
142
1.0
143
1.0
 70
   688
 72
     0
 73
     0
 74
     5
  7

 75
    16
147
1.0
148
0.0
149
0.0
100
AcDbLayout
  1
Layout1
 70
     1
 71
     1
 10
0.0
 20
0.0
 11
12.0
 21
9.0
 12
0.0
 22
0.0
 32
0.0
 14
1.000000000000000E+20
 24
1.000000000000000E+20
 34
1.000000000000000E+20
 15
-1.000000000000000E+20
 25
-1.000000000000000E+20
 35
-1.000000000000000E+20
146
0.0
 13
0.0
 23
0.0
 33
0.0
 16
1.0
 26
0.0
 36
0.0
 17
0.0
 27
1.0
 37
0.0
 76
     0
330
1B
  0
LAYOUT
  5
26
102
{ACAD_REACTORS
330
1A
102
}
330
1A
100
AcDbPlotSettings
  1

  2
none_device
  4

  6

 40
0.0
 41
0.0
 42
0.0
 43
0.0
 44
0.0
 45
0.0
 46
0.0
 47
0.0
 48
0.0
 49
0.0
140
0.0
141
0.0
142
1.0
143
1.0
 70
   688
 72
     0
 73
     0
 74
     5
  7

 75
    16
147
1.0
148
0.0
149
0.0
100
AcDbLayout
  1
Layout2
 70
     1
 71
     2
 10
0.0
 20
0.0
 11
0.0
 21
0.0
 12
0.0
 22
0.0
 32
0.0
 14
0.0
 24
0.0
 34
0.0
 15
0.0
 25
0.0
 35
0.0
146
0.0
 13
0.0
 23
0.0
 33
0.0
 16
1.0
 26
0.0
 36
0.0
 17
0.0
 27
1.0
 37
0.0
 76
     0
330
23
  0
LAYOUT
  5
22
102
{ACAD_REACTORS
330
1A
102
}
330
1A
100
AcDbPlotSettings
  1

  2
none_device
  4

  6

 40
0.0
 41
0.0
 42
0.0
 43
0.0
 44
0.0
 45
0.0
 46
0.0
 47
0.0
 48
0.0
 49
0.0
140
0.0
141
0.0
142
1.0
143
1.0
 70
  1712
 72
     0
 73
     0
 74
     0
  7

 75
     0
147
1.0
148
0.0
149
0.0
100
AcDbLayout
  1
Model
 70
     1
 71
     0
 10
0.0
 20
0.0
 11
12.0
 21
9.0
 12
0.0
 22
0.0
 32
0.0
 14
-12.07828509957097
 24
0.0412254141733794
 34
0.0
 15
45.18141983381594
 25
68.7794739904357
 35
0.0
146
0.0
 13
0.0
 23
0.0
 33
0.0
 16
1.0
 26
0.0
 36
0.0
 17
0.0
 27
1.0
 37
0.0
 76
     0
330
1F
331
29
  0
MLINESTYLE
  5
18
102
{ACAD_REACTORS
330
17
102
}
330
17
100
AcDbMlineStyle
  2
Standard
 70
     0
  3

 62
   256
 51
90.0
 52
90.0
 71
     2
 49
0.5
 62
   256
  6
BYLAYER
 49
-0.5
 62
   256
  6
BYLAYER
  0
ACDBPLACEHOLDER
  5
F
102
{ACAD_REACTORS
330
E
102
}
330
E
  0
VISUALSTYLE
  5
2F
102
{ACAD_REACTORS
330
2A
102
}
330
2A
100
AcDbVisualStyle
  2
2dWireframe
 70
     4
 71
     0
 72
     2
 73
     0
 90
        0
 40
-0.6
 41
-30.0
 62
     5
 63
     7
 74
     1
 91
        4
 64
     7
 65
   257
 75
     1
175
     1
 42
1.0
 92
        0
 66
   257
 43
1.0
 76
     1
 77
     6
 78
     2
 67
     7
 79
     5
170
     0
171
     0
290
     0
174
     0
 93
        1
 44
0.0
173
     0
291
     0
 45
0.0
1001
ACAD
1000
AcDbSavedByObjectVersion
1070
     0
  0
VISUALSTYLE
  5
31
102
{ACAD_REACTORS
330
2A
102
}
330
2A
100
AcDbVisualStyle
  2
3D Hidden
 70
     6
 71
     1
 72
     2
 73
     2
 90
        0
 40
-0.6
 41
-30.0
 62
     5
 63
     7
 74
     2
 91
        2
 64
     7
 65
   257
 75
     2
175
     1
 42
40.0
 92
        0
 66
   257
 43
1.0
 76
     1
 77
     6
 78
     2
 67
     7
 79
     3
170
     0
171
     0
290
     0
174
     0
 93
        1
 44
0.0
173
     0
291
     0
 45
0.0
1001
ACAD
1000
AcDbSavedByObjectVersion
1070
     0
  0
VISUALSTYLE
  5
30
102
{ACAD_REACTORS
330
2A
102
}
330
2A
100
AcDbVisualStyle
  2
3dWireframe
 70
     5
 71
     0
 72
     2
 73
     0
 90
        0
 40
-0.6
 41
-30.0
 62
     5
 63
     7
 74
     1
 91
        4
 64
     7
 65
   257
 75
     1
175
     1
 42
1.0
 92
        0
 66
   257
 43
1.0
 76
     1
 77
     6
 78
     2
 67
     7
 79
     5
170
     0
171
     0
290
     0
174
     0
 93
        1
 44
0.0
173
     0
291
     0
 45
0.0
1001
ACAD
1000
AcDbSavedByObjectVersion
1070
     0
  0
VISUALSTYLE
  5
32
102
{ACAD_REACTORS
330
2A
102
}
330
2A
100
AcDbVisualStyle
  2
Basic
 70
     7
 71
     1
 72
     0
 73
     1
 90
        0
 40
-0.6
 41
-30.0
 62
     5
 63
     7
 74
     0
 91
        4
 64
     7
 65
   257
 75
     1
175
     1
 42
1.0
 92
        8
 66
     7
 43
1.0
 76
     1
 77
     6
 78
     2
 67
     7
 79
     5
170
     0
171
     0
290
     0
174
     0
 93
        1
 44
0.0
173
     0
291
     1
 45
0.0
1001
ACAD
1000
AcDbSavedByObjectVersion
1070
     0
  0
VISUALSTYLE
  5
36
102
{ACAD_REACTORS
330
2A
102
}
330
2A
100
AcDbVisualStyle
  2
Brighten
 70
    12
 71
     2
 72
     2
 73
     0
 90
        0
 40
-0.6
 41
-30.0
 62
     5
 63
     7
 74
     1
 91
        4
 64
     7
 65
   257
 75
     1
175
     1
 42
1.0
 92
        8
 66
     7
 43
1.0
 76
     1
 77
     6
 78
     2
 67
     7
 79
     5
170
     0
171
     0
290
     0
174
     0
 93
        1
 44
50.0
173
     0
291
     1
 45
0.0
1001
ACAD
1000
AcDbSavedByObjectVersion
1070
     0
  0
VISUALSTYLE
  5
3A
102
{ACAD_REACTORS
330
2A
102
}
330
2A
100
AcDbVisualStyle
  2
ColorChange
 70
    16
 71
     2
 72
     2
 73
     3
 90
        0
 40
-0.6
 41
-30.0
 62
     5
 63
     8
 74
     1
 91
        4
 64
     7
 65
   257
 75
     1
175
     1
 42
1.0
 92
        8
 66
     8
 43
1.0
 76
     1
 77
     6
 78
     2
 67
     7
 79
     5
170
     0
171
     0
290
     0
174
     0
 93
        1
 44
0.0
173
     0
291
     1
 45
0.0
1001
ACAD
1000
AcDbSavedByObjectVersion
1070
     0
  0
VISUALSTYLE
  5
34
102
{ACAD_REACTORS
330
2A
102
}
330
2A
100
AcDbVisualStyle
  2
Conceptual
 70
     9
 71
     3
 72
     2
 73
     0
 90
        0
 40
-0.6
 41
-30.0
 62
     5
 63
     7
 74
     2
 91
        2
 64
     7
 65
   257
 75
     1
175
     1
 42
40.0
 92
        8
 66
     7
 43
1.0
 76
     1
 77
     6
 78
     2
 67
     7
 79
     3
170
     0
171
     0
290
     0
174
     0
 93
        1
 44
0.0
173
     0
291
     0
 45
0.0
1001
ACAD
1000
AcDbSavedByObjectVersion
1070
     0
  0
VISUALSTYLE
  5
35
102
{ACAD_REACTORS
330
2A
102
}
330
2A
100
AcDbVisualStyle
  2
Dim
 70
    11
 71
     2
 72
     2
 73
     0
 90
        0
 40
-0.6
 41
-30.0
 62
     5
 63
     7
 74
     1
 91
        4
 64
     7
 65
   257
 75
     1
175
     1
 42
1.0
 92
        8
 66
     7
 43
1.0
 76
     1
 77
     6
 78
     2
 67
     7
 79
     5
170
     0
171
     0
290
     0
174
     0
 93
        1
 44
-50.0
173
     0
291
     1
 45
0.0
1001
ACAD
1000
AcDbSavedByObjectVersion
1070
     0
  0
VISUALSTYLE
  5
39
102
{ACAD_REACTORS
330
2A
102
}
330
2A
100
AcDbVisualStyle
  2
Facepattern
 70
    15
 71
     2
 72
     2
 73
     0
 90
        0
 40
-0.6
 41
-30.0
 62
     5
 63
     7
 74
     1
 91
        4
 64
     7
 65
   257
 75
     1
175
     1
 42
1.0
 92
        8
 66
     7
 43
1.0
 76
     1
 77
     6
 78
     2
 67
     7
 79
     5
170
     0
171
     0
290
     0
174
     0
 93
        1
 44
0.0
173
     0
291
     1
 45
0.0
1001
ACAD
1000
AcDbSavedByObjectVersion
1070
     0
  0
VISUALSTYLE
  5
2B
102
{ACAD_REACTORS
330
2A
102
}
330
2A
100
AcDbVisualStyle
  2
Flat
 70
     0
 71
     2
 72
     1
 73
     1
 90
        2
 40
-0.6
 41
30.0
 62
     5
 63
     7
 74
     0
 91
        4
 64
     7
 65
   257
 75
     1
175
     1
 42
1.0
 92
        8
 66
     7
 43
1.0
 76
     1
 77
     6
 78
     2
 67
     7
 79
     5
170
     0
171
     0
290
     0
174
     0
 93
       13
 44
0.0
173
     0
291
     1
 45
0.0
1001
ACAD
1000
AcDbSavedByObjectVersion
1070
     0
  0
VISUALSTYLE
  5
2C
102
{ACAD_REACTORS
330
2A
102
}
330
2A
100
AcDbVisualStyle
  2
FlatWithEdges
 70
     1
 71
     2
 72
     1
 73
     1
 90
        2
 40
-0.6
 41
30.0
 62
     5
 63
     7
 74
     1
 91
        4
 64
     7
 65
   257
 75
     1
175
     1
 42
1.0
 92
        0
 66
   257
 43
1.0
 76
     1
 77
     6
 78
     2
 67
     7
 79
     5
170
     0
171
     0
290
     0
174
     0
 93
       13
 44
0.0
173
     0
291
     1
 45
0.0
1001
ACAD
1000
AcDbSavedByObjectVersion
1070
     0
  0
VISUALSTYLE
  5
2D
102
{ACAD_REACTORS
330
2A
102
}
330
2A
100
AcDbVisualStyle
  2
Gouraud
 70
     2
 71
     2
 72
     2
 73
     1
 90
        2
 40
-0.6
 41
30.0
 62
     5
 63
     7
 74
     0
 91
        4
 64
     7
 65
   257
 75
     1
175
     1
 42
1.0
 92
        0
 66
     7
 43
1.0
 76
     1
 77
     6
 78
     2
 67
     7
 79
     5
170
     0
171
     0
290
     0
174
     0
 93
       13
 44
0.0
173
     0
291
     1
 45
0.0
1001
ACAD
1000
AcDbSavedByObjectVersion
1070
     0
  0
VISUALSTYLE
  5
2E
102
{ACAD_REACTORS
330
2A
102
}
330
2A
100
AcDbVisualStyle
  2
GouraudWithEdges
 70
     3
 71
     2
 72
     2
 73
     1
 90
        2
 40
-0.6
 41
30.0
 62
     5
 63
     7
 74
     1
 91
        4
 64
     7
 65
   257
 75
     1
175
     1
 42
1.0
 92
        0
 66
   257
 43
1.0
 76
     1
 77
     6
 78
     2
 67
     7
 79
     5
170
     0
171
     0
290
     0
174
     0
 93
       13
 44
0.0
173
     0
291
     1
 45
0.0
1001
ACAD
1000
AcDbSavedByObjectVersion
1070
     0
  0
VISUALSTYLE
  5
38
102
{ACAD_REACTORS
330
2A
102
}
330
2A
100
AcDbVisualStyle
  2
Linepattern
 70
    14
 71
     2
 72
     2
 73
     0
 90
        0
 40
-0.6
 41
-30.0
 62
     5
 63
     7
 74
     1
 91
        4
 64
     7
 65
   257
 75
     7
175
     7
 42
1.0
 92
        8
 66
     7
 43
1.0
 76
     1
 77
     6
 78
     2
 67
     7
 79
     5
170
     0
171
     0
290
     0
174
     0
 93
        1
 44
0.0
173
     0
291
     1
 45
0.0
1001
ACAD
1000
AcDbSavedByObjectVersion
1070
     0
  0
VISUALSTYLE
  5
33
102
{ACAD_REACTORS
330
2A
102
}
330
2A
100
AcDbVisualStyle
  2
Realistic
 70
     8
 71
     2
 72
     2
 73
     0
 90
        0
 40
-0.6
 41
-30.0
 62
     5
 63
     7
 74
     1
 91
        0
 64
     7
 65
   257
 75
     1
175
     1
 42
1.0
 92
        8
 66
     8
 43
1.0
 76
     1
 77
     6
 78
     2
 67
     7
 79
     5
170
     0
171
     0
290
     0
174
     0
 93
       13
 44
0.0
173
     0
291
     0
 45
0.0
1001
ACAD
1000
AcDbSavedByObjectVersion
1070
     0
  0
VISUALSTYLE
  5
37
102
{ACAD_REACTORS
330
2A
102
}
330
2A
100
AcDbVisualStyle
  2
Thicken
 70
    13
 71
     2
 72
     2
 73
     0
 90
        0
 40
-0.6
 41
-30.0
 62
     5
 63
     7
 74
     1
 91
        4
 64
     7
 65
   257
 75
     1
175
     1
 42
1.0
 92
       12
 66
     7
 43
1.0
 76
     1
 77
     6
 78
     2
 67
     7
 79
     5
170
     0
171
     0
290
     0
174
     0
 93
        1
 44
0.0
173
     0
291
     1
 45
0.0
1001
ACAD
1000
AcDbSavedByObjectVersion
1070
     0
  0
ENDSEC
  0
EOF
