  0
SECTION
  2
HEADER
  9
$ACADVER
  1
AC1021
  9
$ACADMAINTVER
 70
    25
  9
$DWGCODEPAGE
  3
ANSI_1252
  9
$INSBASE
 10
0.0
 20
0.0
 30
0.0
  9
$EXTMIN
 10
1.000000000000000E+20
 20
1.000000000000000E+20
 30
1.000000000000000E+20
  9
$EXTMAX
 10
-1.000000000000000E+20
 20
-1.000000000000000E+20
 30
-1.000000000000000E+20
  9
$LIMMIN
 10
0.0
 20
0.0
  9
$LIMMAX
 10
12.0
 20
9.0
  9
$ORTHOMODE
 70
     0
  9
$REGENMODE
 70
     1
  9
$FILLMODE
 70
     1
  9
$QTEXTMODE
 70
     0
  9
$MIRRTEXT
 70
     1
  9
$LTSCALE
 40
1.0
  9
$ATTMODE
 70
     1
  9
$TEXTSIZE
 40
0.2
  9
$TRACEWID
 40
0.05
  9
$TEXTSTYLE
  7
Standard
  9
$CLAYER
  8
Layer 01
  9
$CELTYPE
  6
ByLayer
  9
$CECOLOR
 62
   256
  9
$CELTSCALE
 40
1.0
  9
$DISPSILH
 70
     0
  9
$DIMSCALE
 40
1.0
  9
$DIMASZ
 40
0.18
  9
$DIMEXO
 40
0.0625
  9
$DIMDLI
 40
0.38
  9
$DIMRND
 40
0.0
  9
$DIMDLE
 40
0.0
  9
$DIMEXE
 40
0.18
  9
$DIMTP
 40
0.0
  9
$DIMTM
 40
0.0
  9
$DIMTXT
 40
0.18
  9
$DIMCEN
 40
0.09
  9
$DIMTSZ
 40
0.0
  9
$DIMTOL
 70
     0
  9
$DIMLIM
 70
     0
  9
$DIMTIH
 70
     1
  9
$DIMTOH
 70
     1
  9
$DIMSE1
 70
     0
  9
$DIMSE2
 70
     0
  9
$DIMTAD
 70
     0
  9
$DIMZIN
 70
     0
  9
$DIMBLK
  1

  9
$DIMASO
 70
     1
  9
$DIMSHO
 70
     1
  9
$DIMPOST
  1

  9
$DIMAPOST
  1

  9
$DIMALT
 70
     0
  9
$DIMALTD
 70
     2
  9
$DIMALTF
 40
25.4
  9
$DIMLFAC
 40
1.0
  9
$DIMTOFL
 70
     0
  9
$DIMTVP
 40
0.0
  9
$DIMTIX
 70
     0
  9
$DIMSOXD
 70
     0
  9
$DIMSAH
 70
     0
  9
$DIMBLK1
  1

  9
$DIMBLK2
  1

  9
$DIMSTYLE
  2
STANDARD_ACAD
  9
$DIMCLRD
 70
     0
  9
$DIMCLRE
 70
     0
  9
$DIMCLRT
 70
     0
  9
$DIMTFAC
 40
1.0
  9
$DIMGAP
 40
0.09
  9
$DIMJUST
 70
     0
  9
$DIMSD1
 70
     0
  9
$DIMSD2
 70
     0
  9
$DIMTOLJ
 70
     1
  9
$DIMTZIN
 70
     0
  9
$DIMALTZ
 70
     0
  9
$DIMALTTZ
 70
     0
  9
$DIMUPT
 70
     0
  9
$DIMDEC
 70
     4
  9
$DIMTDEC
 70
     4
  9
$DIMALTU
 70
     2
  9
$DIMALTTD
 70
     2
  9
$DIMTXSTY
  7
Standard
  9
$DIMAUNIT
 70
     0
  9
$DIMADEC
 70
     0
  9
$DIMALTRND
 40
0.0
  9
$DIMAZIN
 70
     0
  9
$DIMDSEP
 70
    46
  9
$DIMATFIT
 70
     3
  9
$DIMFRAC
 70
     0
  9
$DIMLDRBLK
  1

  9
$DIMLUNIT
 70
     2
  9
$DIMLWD
 70
    -2
  9
$DIMLWE
 70
    -2
  9
$DIMTMOVE
 70
     2
  9
$DIMFXL
 40
1.0
  9
$DIMFXLON
 70
     0
  9
$DIMJOGANG
 40
0.7853981633974483
  9
$DIMTFILL
 70
     0
  9
$DIMTFILLCLR
 70
     0
  9
$DIMARCSYM
 70
     0
  9
$DIMLTYPE
  6

  9
$DIMLTEX1
  6

  9
$DIMLTEX2
  6

  9
$LUNITS
 70
     2
  9
$LUPREC
 70
     3
  9
$SKETCHINC
 40
0.1
  9
$FILLETRAD
 40
0.5
  9
$AUNITS
 70
     0
  9
$AUPREC
 70
     0
  9
$MENU
  1
.
  9
$ELEVATION
 40
0.0
  9
$PELEVATION
 40
0.0
  9
$THICKNESS
 40
0.0
  9
$LIMCHECK
 70
     0
  9
$CHAMFERA
 40
0.0
  9
$CHAMFERB
 40
0.0
  9
$CHAMFERC
 40
0.0
  9
$CHAMFERD
 40
0.0
  9
$SKPOLY
 70
     0
  9
$TDCREATE
 40
2458602.738080694
  9
$TDUCREATE
 40
2458602.904747361
  9
$TDUPDATE
 40
2458602.73933728
  9
$TDUUPDATE
 40
2458602.906003947
  9
$TDINDWG
 40
0.0000000116
  9
$TDUSRTIMER
 40
0.0000000116
  9
$USRTIMER
 70
     1
  9
$ANGBASE
 50
0.0
  9
$ANGDIR
 70
     0
  9
$PDMODE
 70
     0
  9
$PDSIZE
 40
0.0
  9
$PLINEWID
 40
0.0
  9
$SPLFRAME
 70
     0
  9
$SPLINETYPE
 70
     6
  9
$SPLINESEGS
 70
     8
  9
$HANDSEED
  5
E6
  9
$SURFTAB1
 70
     6
  9
$SURFTAB2
 70
     6
  9
$SURFTYPE
 70
     6
  9
$SURFU
 70
     6
  9
$SURFV
 70
     6
  9
$UCSBASE
  2

  9
$UCSNAME
  2

  9
$UCSORG
 10
0.0
 20
0.0
 30
0.0
  9
$UCSXDIR
 10
1.0
 20
0.0
 30
0.0
  9
$UCSYDIR
 10
0.0
 20
1.0
 30
0.0
  9
$UCSORTHOREF
  2

  9
$UCSORTHOVIEW
 70
     0
  9
$UCSORGTOP
 10
0.0
 20
0.0
 30
0.0
  9
$UCSORGBOTTOM
 10
0.0
 20
0.0
 30
0.0
  9
$UCSORGLEFT
 10
0.0
 20
0.0
 30
0.0
  9
$UCSORGRIGHT
 10
0.0
 20
0.0
 30
0.0
  9
$UCSORGFRONT
 10
0.0
 20
0.0
 30
0.0
  9
$UCSORGBACK
 10
0.0
 20
0.0
 30
0.0
  9
$PUCSBASE
  2

  9
$PUCSNAME
  2

  9
$PUCSORG
 10
0.0
 20
0.0
 30
0.0
  9
$PUCSXDIR
 10
1.0
 20
0.0
 30
0.0
  9
$PUCSYDIR
 10
0.0
 20
1.0
 30
0.0
  9
$PUCSORTHOREF
  2

  9
$PUCSORTHOVIEW
 70
     0
  9
$PUCSORGTOP
 10
0.0
 20
0.0
 30
0.0
  9
$PUCSORGBOTTOM
 10
0.0
 20
0.0
 30
0.0
  9
$PUCSORGLEFT
 10
0.0
 20
0.0
 30
0.0
  9
$PUCSORGRIGHT
 10
0.0
 20
0.0
 30
0.0
  9
$PUCSORGFRONT
 10
0.0
 20
0.0
 30
0.0
  9
$PUCSORGBACK
 10
0.0
 20
0.0
 30
0.0
  9
$USERI1
 70
     0
  9
$USERI2
 70
     0
  9
$USERI3
 70
     0
  9
$USERI4
 70
     0
  9
$USERI5
 70
     0
  9
$USERR1
 40
0.0
  9
$USERR2
 40
0.0
  9
$USERR3
 40
0.0
  9
$USERR4
 40
0.0
  9
$USERR5
 40
0.0
  9
$WORLDVIEW
 70
     1
  9
$SHADEDGE
 70
     3
  9
$SHADEDIF
 70
    70
  9
$TILEMODE
 70
     1
  9
$MAXACTVP
 70
    64
  9
$PINSBASE
 10
0.0
 20
0.0
 30
0.0
  9
$PLIMCHECK
 70
     0
  9
$PEXTMIN
 10
1.000000000000000E+20
 20
1.000000000000000E+20
 30
1.000000000000000E+20
  9
$PEXTMAX
 10
-1.000000000000000E+20
 20
-1.000000000000000E+20
 30
-1.000000000000000E+20
  9
$PLIMMIN
 10
0.0
 20
0.0
  9
$PLIMMAX
 10
12.0
 20
9.0
  9
$UNITMODE
 70
     0
  9
$VISRETAIN
 70
     1
  9
$PLINEGEN
 70
     0
  9
$PSLTSCALE
 70
     1
  9
$TREEDEPTH
 70
  3020
  9
$CMLSTYLE
  2
Standard
  9
$CMLJUST
 70
     0
  9
$CMLSCALE
 40
1.0
  9
$PROXYGRAPHICS
 70
     1
  9
$MEASUREMENT
 70
     0
  9
$CELWEIGHT
370
    -1
  9
$ENDCAPS
280
     0
  9
$JOINSTYLE
280
     0
  9
$LWDISPLAY
290
     0
  9
$INSUNITS
 70
     1
  9
$HYPERLINKBASE
  1

  9
$STYLESHEET
  1

  9
$XEDIT
290
     1
  9
$CEPSNTYPE
380
     0
  9
$PSTYLEMODE
290
     1
  9
$FINGERPRINTGUID
  2
{5d853dc1-6d9f-45a6-8fe6-9052e79568ca}
  9
$VERSIONGUID
  2
{FAEB1C32-E019-11D5-929B-00C0DF256EC4}
  9
$EXTNAMES
290
     1
  9
$PSVPSCALE
 40
0.0
  9
$OLESTARTUP
290
     0
  9
$SORTENTS
280
   127
  9
$INDEXCTL
280
     0
  9
$HIDETEXT
280
     1
  9
$XCLIPFRAME
290
     0
  9
$HALOGAP
280
     0
  9
$OBSCOLOR
 70
   257
  9
$OBSLTYPE
280
     0
  9
$INTERSECTIONDISPLAY
280
     0
  9
$INTERSECTIONCOLOR
 70
   257
  9
$DIMASSOC
280
     2
  9
$PROJECTNAME
  1

  9
$CAMERADISPLAY
290
     0
  9
$LENSLENGTH
 40
50.0
  9
$CAMERAHEIGHT
 40
0.0
  9
$STEPSPERSEC
 40
2.0
  9
$STEPSIZE
 40
6.0
  9
$3DDWFPREC
 40
2.0
  9
$PSOLWIDTH
 40
0.25
  9
$PSOLHEIGHT
 40
4.0
  9
$LOFTANG1
 40
1.570796326794897
  9
$LOFTANG2
 40
1.570796326794897
  9
$LOFTMAG1
 40
0.0
  9
$LOFTMAG2
 40
0.0
  9
$LOFTPARAM
 70
     7
  9
$LOFTNORMALS
280
     1
  9
$LATITUDE
 40
37.795
  9
$LONGITUDE
 40
-122.394
  9
$NORTHDIRECTION
 40
0.0
  9
$TIMEZONE
 70
 -8000
  9
$LIGHTGLYPHDISPLAY
280
     1
  9
$TILEMODELIGHTSYNCH
280
     1
  9
$CMATERIAL
347
44
  9
$SOLIDHIST
280
     0
  9
$SHOWHIST
280
     1
  9
$DWFFRAME
280
     2
  9
$DGNFRAME
280
     2
  9
$REALWORLDSCALE
290
     1
  9
$INTERFERECOLOR
 62
   256
  9
$CSHADOW
280
     0
  9
$SHADOWPLANELOCATION
 40
0.0
  0
ENDSEC
  0
SECTION
  2
CLASSES
  0
CLASS
  1
ACDBDICTIONARYWDFLT
  2
AcDbDictionaryWithDefault
  3
ObjectDBX Classes
 90
        0
 91
        3
280
     0
281
     0
  0
CLASS
  1
VISUALSTYLE
  2
AcDbVisualStyle
  3
ObjectDBX Classes
 90
     4095
 91
        3
280
     0
281
     0
  0
CLASS
  1
MATERIAL
  2
AcDbMaterial
  3
ObjectDBX Classes
 90
     1153
 91
        3
280
     0
281
     0
  0
CLASS
  1
SCALE
  2
AcDbScale
  3
ObjectDBX Classes
 90
     1153
 91
        3
280
     0
281
     0
  0
CLASS
  1
TABLESTYLE
  2
AcDbTableStyle
  3
ObjectDBX Classes
 90
     4095
 91
        3
280
     0
281
     0
  0
CLASS
  1
MLEADERSTYLE
  2
AcDbMLeaderStyle
  3
ACDB_MLEADERSTYLE_CLASS
 90
     4095
 91
        3
280
     0
281
     0
  0
CLASS
  1
SUN
  2
AcDbSun
  3
SCENEOE
 90
     1153
 91
        3
280
     0
281
     0
  0
CLASS
  1
DICTIONARYVAR
  2
AcDbDictionaryVar
  3
ObjectDBX Classes
 90
        0
 91
        3
280
     0
281
     0
  0
CLASS
  1
CELLSTYLEMAP
  2
AcDbCellStyleMap
  3
ObjectDBX Classes
 90
     1152
 91
        3
280
     0
281
     0
  0
ENDSEC
  0
SECTION
  2
TABLES
  0
TABLE
  2
VPORT
  5
8
330
0
100
AcDbSymbolTable
 70
     1
  0
VPORT
  5
29
330
8
100
AcDbSymbolTableRecord
100
AcDbViewportTableRecord
  2
*Active
 70
     0
 10
0.0
 20
0.0
 11
1.0
 21
1.0
 12
10.42990654205607
 22
4.5
 13
0.0
 23
0.0
 14
0.5
 24
0.5
 15
0.5
 25
0.5
 16
0.0
 26
0.0
 36
1.0
 17
0.0
 27
0.0
 37
0.0
 40
9.0
 41
1.972972972850329
 42
50.0
 43
0.0
 44
0.0
 50
0.0
 51
0.0
 71
     0
 72
   100
 73
     1
 74
     3
 75
     0
 76
     0
 77
     0
 78
     0
281
     0
 65
     1
110
0.0
120
0.0
130
0.0
111
1.0
121
0.0
131
0.0
112
0.0
122
1.0
132
0.0
 79
     0
146
0.0
348
2F
 60
     3
 61
     5
292
     1
282
     1
141
0.0
142
0.0
 63
   250
361
6D
  0
ENDTAB
  0
TABLE
  2
LTYPE
  5
5
330
0
100
AcDbSymbolTable
 70
     1
  0
LTYPE
  5
14
330
5
100
AcDbSymbolTableRecord
100
AcDbLinetypeTableRecord
  2
ByBlock
 70
     0
  3

 72
    65
 73
     0
 40
0.0
  0
LTYPE
  5
15
330
5
100
AcDbSymbolTableRecord
100
AcDbLinetypeTableRecord
  2
ByLayer
 70
     0
  3

 72
    65
 73
     0
 40
0.0
  0
LTYPE
  5
16
330
5
100
AcDbSymbolTableRecord
100
AcDbLinetypeTableRecord
  2
Continuous
 70
     0
  3
Solid line
 72
    65
 73
     0
 40
0.0
  0
ENDTAB
  0
TABLE
  2
LAYER
  5
2
330
0
100
AcDbSymbolTable
 70
     2
  0
LAYER
  5
10
330
2
100
AcDbSymbolTableRecord
100
AcDbLayerTableRecord
  2
0
 70
     0
 62
     7
  6
Continuous
370
    -3
390
F
347
46
  0
LAYER
  5
6E
330
2
100
AcDbSymbolTableRecord
100
AcDbLayerTableRecord
  2
Layer 01
 70
     0
 62
    18
420
        0
  6
Continuous
370
    -3
390
F
347
46
  0
ENDTAB
  0
TABLE
  2
STYLE
  5
3
330
0
100
AcDbSymbolTable
 70
     1
  0
STYLE
  5
11
330
3
100
AcDbSymbolTableRecord
100
AcDbTextStyleTableRecord
  2
Standard
 70
     0
 40
0.0
 41
1.0
 50
0.0
 71
     0
 42
0.2
  3
txt
  4

  0
ENDTAB
  0
TABLE
  2
VIEW
  5
6
330
0
100
AcDbSymbolTable
 70
     0
  0
ENDTAB
  0
TABLE
  2
UCS
  5
7
330
0
100
AcDbSymbolTable
 70
     0
  0
ENDTAB
  0
TABLE
  2
APPID
  5
9
330
0
100
AcDbSymbolTable
 70
     2
  0
APPID
  5
12
330
9
100
AcDbSymbolTableRecord
100
AcDbRegAppTableRecord
  2
ACAD
 70
     0
  0
APPID
  5
DE
330
9
100
AcDbSymbolTableRecord
100
AcDbRegAppTableRecord
  2
ACAD_MLEADERVER
 70
     0
  0
ENDTAB
  0
TABLE
  2
DIMSTYLE
  5
A
330
0
100
AcDbSymbolTable
 70
     1
100
AcDbDimStyleTable
  0
DIMSTYLE
105
27
330
A
100
AcDbSymbolTableRecord
100
AcDbDimStyleTableRecord
  2
STANDARD_ACAD
 70
     0
178
     0
340
11
  0
ENDTAB
  0
TABLE
  2
BLOCK_RECORD
  5
1
330
0
100
AcDbSymbolTable
 70
     1
  0
BLOCK_RECORD
  5
1F
330
1
100
AcDbSymbolTableRecord
100
AcDbBlockTableRecord
  2
*Model_Space
340
22
 70
     0
280
     1
281
     0
  0
BLOCK_RECORD
  5
1B
330
1
100
AcDbSymbolTableRecord
100
AcDbBlockTableRecord
  2
*Paper_Space
340
1E
 70
     0
280
     1
281
     0
  0
BLOCK_RECORD
  5
23
330
1
100
AcDbSymbolTableRecord
100
AcDbBlockTableRecord
  2
*Paper_Space0
340
26
 70
     0
280
     1
281
     0
  0
ENDTAB
  0
ENDSEC
  0
SECTION
  2
BLOCKS
  0
BLOCK
  5
20
330
1F
100
AcDbEntity
  8
0
100
AcDbBlockBegin
  2
*Model_Space
 70
     0
 10
0.0
 20
0.0
 30
0.0
  3
*Model_Space
  1

  0
ENDBLK
  5
21
330
1F
100
AcDbEntity
  8
0
100
AcDbBlockEnd
  0
BLOCK
  5
1C
330
1B
100
AcDbEntity
 67
     1
  8
0
100
AcDbBlockBegin
  2
*Paper_Space
 70
     0
 10
0.0
 20
0.0
 30
0.0
  3
*Paper_Space
  1

  0
ENDBLK
  5
1D
330
1B
100
AcDbEntity
 67
     1
  8
0
100
AcDbBlockEnd
  0
BLOCK
  5
24
330
23
100
AcDbEntity
  8
0
100
AcDbBlockBegin
  2
*Paper_Space0
 70
     0
 10
0.0
 20
0.0
 30
0.0
  3
*Paper_Space0
  1

  0
ENDBLK
  5
25
330
23
100
AcDbEntity
  8
0
100
AcDbBlockEnd
  0
ENDSEC
  0
SECTION
  2
ENTITIES
  0
SPLINE
  5
6F
330
1F
100
AcDbEntity
  8
Layer 01
370
    -3
100
AcDbSpline
210
0.0
220
0.0
230
1.0
 70
     8
 71
     2
 72
    40
 73
    37
 74
     0
 42
0.000000001
 43
0.0000000001
 40
-17.36158818418872
 40
-17.36158818418872
 40
-17.36158818418872
 40
-16.0
 40
-15.0
 40
-14.0
 40
-13.0
 40
-12.0
 40
-11.0
 40
-10.0
 40
-9.0
 40
-7.999999999999998
 40
-6.999999999999998
 40
-5.999999999999998
 40
-4.999999999999998
 40
-3.999999999999998
 40
-2.999999999999998
 40
-1.999999999999998
 40
-0.9999999999999982
 40
0.0000000000000018
 40
0.0000000000000018
 40
1.000000000000002
 40
2.000000000000001
 40
3.000000000000001
 40
4.000000000000001
 40
5.000000000000001
 40
6.0
 40
7.0
 40
8.0
 40
9.000000000000002
 40
10.0
 40
11.0
 40
12.0
 40
13.0
 40
14.0
 40
15.0
 40
16.0
 40
17.36158818418872
 40
17.36158818418872
 40
17.36158818418872
 10
4.97449673731731
 20
18.28111914861769
 30
0.0
 10
4.973803252025107
 20
18.59430915443624
 30
0.0
 10
4.963587650147304
 20
19.13741000270693
 30
0.0
 10
4.946368136203546
 20
19.59712158058765
 30
0.0
 10
4.917454953618432
 20
20.05627419377123
 30
0.0
 10
4.871295199695481
 20
20.51401314024973
 30
0.0
 10
4.803631785870721
 20
20.96924217344835
 30
0.0
 10
4.654262268612911
 20
21.40933352828549
 30
0.0
 10
4.329367296649082
 20
21.74502988250169
 30
0.0
 10
3.896367856120605
 20
21.91387964990966
 30
0.0
 10
3.442564296106525
 20
21.99141048592439
 30
0.0
 10
2.986137939461287
 20
22.04886259656406
 30
0.0
 10
2.52811549145423
 20
22.09204158082648
 30
0.0
 10
2.069191323260782
 20
22.12399469778605
 30
0.0
 10
1.609722372832778
 20
22.14671591541775
 30
0.0
 10
1.149948242176379
 20
22.16193471441105
 30
0.0
 10
0.6900137971936431
 20
22.17097097566728
 30
0.0
 10
0.2300102762996232
 20
22.17500802101221
 30
0.0
 10
0.0
 20
22.17493807940433
 30
0.0
 10
-0.2300102762996232
 20
22.17500802101221
 30
0.0
 10
-0.6900137971936431
 20
22.17097097566728
 30
0.0
 10
-1.149948242176379
 20
22.16193471441105
 30
0.0
 10
-1.609722372832778
 20
22.14671591541775
 30
0.0
 10
-2.069191323260782
 20
22.12399469778605
 30
0.0
 10
-2.52811549145423
 20
22.09204158082648
 30
0.0
 10
-2.986137939461287
 20
22.04886259656406
 30
0.0
 10
-3.442564296106525
 20
21.99141048592439
 30
0.0
 10
-3.896367856120605
 20
21.91387964990966
 30
0.0
 10
-4.329367296649082
 20
21.74502988250169
 30
0.0
 10
-4.654262268612911
 20
21.40933352828549
 30
0.0
 10
-4.803631785870721
 20
20.96924217344835
 30
0.0
 10
-4.871295199695481
 20
20.51401314024973
 30
0.0
 10
-4.917454953618432
 20
20.05627419377123
 30
0.0
 10
-4.946368136203546
 20
19.59712158058765
 30
0.0
 10
-4.963587650147304
 20
19.13741000270693
 30
0.0
 10
-4.973803252025078
 20
18.59430915443624
 30
0.0
 10
-4.97449673731731
 20
18.28111914861769
 30
0.0
  0
SPLINE
  5
70
330
1F
100
AcDbEntity
  8
Layer 01
370
    -3
100
AcDbSpline
210
0.0
220
0.0
230
1.0
 70
     8
 71
     3
 72
   111
 73
   107
 74
     0
 42
0.000000001
 43
0.0000000001
 40
-23.23393211855461
 40
-23.23393211855461
 40
-23.23393211855461
 40
-23.23393211855461
 40
-22.23393211855461
 40
-22.23393211855461
 40
-21.23393211855461
 40
-21.23393211855461
 40
-20.23393211855461
 40
-20.23393211855461
 40
-19.23393211855461
 40
-19.23393211855461
 40
-19.23393211855461
 40
-19.1722841908423
 40
-19.1722841908423
 40
-19.1722841908423
 40
-18.1722841908423
 40
-18.1722841908423
 40
-18.1722841908423
 40
-17.1722841908423
 40
-17.1722841908423
 40
-16.1722841908423
 40
-16.1722841908423
 40
-15.1722841908423
 40
-15.1722841908423
 40
-14.1722841908423
 40
-14.1722841908423
 40
-13.1722841908423
 40
-13.1722841908423
 40
-12.1722841908423
 40
-12.1722841908423
 40
-11.1722841908423
 40
-11.1722841908423
 40
-10.1722841908423
 40
-10.1722841908423
 40
-10.1722841908423
 40
-9.172284190842298
 40
-9.172284190842298
 40
-8.172284190842298
 40
-8.172284190842298
 40
-7.172284190842298
 40
-7.172284190842298
 40
-6.172284190842298
 40
-6.172284190842298
 40
-5.172284190842298
 40
-5.172284190842298
 40
-4.172284190842298
 40
-4.172284190842298
 40
-3.172284190842298
 40
-3.172284190842298
 40
-2.172284190842298
 40
-2.172284190842298
 40
-1.172284190842298
 40
-1.172284190842298
 40
-0.1722841908422978
 40
-0.1722841908422978
 40
-0.1722841908422978
 40
0.8277158091577022
 40
0.8277158091577022
 40
1.827715809157702
 40
1.827715809157702
 40
2.827715809157702
 40
2.827715809157702
 40
3.827715809157702
 40
3.827715809157702
 40
4.827715809157702
 40
4.827715809157702
 40
5.827715809157702
 40
5.827715809157702
 40
6.827715809157702
 40
6.827715809157702
 40
7.827715809157702
 40
7.827715809157702
 40
8.827715809157702
 40
8.827715809157702
 40
9.827715809157702
 40
9.827715809157702
 40
9.827715809157702
 40
10.8277158091577
 40
10.8277158091577
 40
11.8277158091577
 40
11.8277158091577
 40
12.8277158091577
 40
12.8277158091577
 40
13.8277158091577
 40
13.8277158091577
 40
14.8277158091577
 40
14.8277158091577
 40
15.8277158091577
 40
15.8277158091577
 40
16.8277158091577
 40
16.8277158091577
 40
17.8277158091577
 40
17.8277158091577
 40
17.8277158091577
 40
18.8277158091577
 40
18.8277158091577
 40
18.8277158091577
 40
18.88936373687002
 40
18.88936373687002
 40
18.88936373687002
 40
19.88936373687002
 40
19.88936373687002
 40
20.88936373687002
 40
20.88936373687002
 40
21.88936373687002
 40
21.88936373687002
 40
22.88936373687002
 40
22.88936373687002
 40
22.88936373687002
 40
22.88936373687002
 10
8.721947538688767
 20
17.67681146451821
 30
0.0
 10
8.745403334096105
 20
17.67820150425907
 30
0.0
 10
8.76883025103013
 20
17.68021148584689
 30
0.0
 10
8.815626327951543
 20
17.68547133271646
 30
0.0
 10
8.838435793199684
 20
17.69122276509251
 30
0.0
 10
8.882877577270827
 20
17.70896864772713
 30
0.0
 10
8.90071140212008
 20
17.72342243349549
 30
0.0
 10
8.927604917445947
 20
17.76349169393429
 30
0.0
 10
8.934217676992782
 20
17.78565611486011
 30
0.0
 10
8.93399643842352
 20
17.80995032649236
 30
0.0
 10
8.933996356648342
 20
17.83049963512153
 30
0.0
 10
8.933996274873161
 20
17.8510489437507
 30
0.0
 10
8.933996193097983
 20
17.87159825237987
 30
0.0
 10
8.933995994897003
 20
17.90485719213238
 30
0.0
 10
8.923269375095174
 20
17.93945915523704
 30
0.0
 10
8.897590842700538
 20
17.95654184733029
 30
0.0
 10
8.758675877200497
 20
18.04895529005793
 30
0.0
 10
8.607999696982853
 20
18.11619759214691
 30
0.0
 10
8.283124907112358
 20
18.2003399150476
 30
0.0
 10
8.119538547574885
 20
18.23360630039518
 30
0.0
 10
7.790067899295498
 20
18.28252951888481
 30
0.0
 10
7.624344315741259
 20
18.29444881537636
 30
0.0
 10
7.290920629803689
 20
18.29320278285292
 30
0.0
 10
7.124570684799987
 20
18.28621647704407
 30
0.0
 10
6.792594590722747
 20
18.25951728633214
 30
0.0
 10
6.626733832530699
 20
18.24490124948925
 30
0.0
 10
6.295266893839742
 20
18.21313629282963
 30
0.0
 10
6.129767791427095
 20
18.19507028050013
 30
0.0
 10
5.799238320467457
 20
18.15457118784179
 30
0.0
 10
5.634076256977949
 20
18.13354774809076
 30
0.0
 10
5.303957473979551
 20
18.08995308174496
 30
0.0
 10
5.138910827009511
 20
18.06805805803679
 30
0.0
 10
4.973876924568629
 20
18.04606534379334
 30
0.0
 10
4.808843022127728
 20
18.02407262954989
 30
0.0
 10
4.643794131074249
 20
18.00219220120216
 30
0.0
 10
4.31366637174214
 20
17.95865591629816
 30
0.0
 10
4.148533330020787
 20
17.93742324239389
 30
0.0
 10
3.818128922467489
 20
17.89602883168081
 30
0.0
 10
3.652833154022408
 20
17.87610469692568
 30
0.0
 10
3.322054487795379
 20
17.8378025686182
 30
0.0
 10
3.156557381070485
 20
17.81962998626593
 30
0.0
 10
2.825347620397935
 20
17.78524178516432
 30
0.0
 10
2.659630866385404
 20
17.76919932469583
 30
0.0
 10
2.32797361100783
 20
17.73941768392349
 30
0.0
 10
2.16203877566258
 20
17.72581910452328
 30
0.0
 10
1.829956689659156
 20
17.70120642769476
 30
0.0
 10
1.663823066768259
 20
17.69030628192541
 30
0.0
 10
1.331370661208098
 20
17.67131837567651
 30
0.0
 10
1.165071885602724
 20
17.66333010615435
 30
0.0
 10
0.8323291887413878
 20
17.65036493431462
 30
0.0
 10
0.665910798170079
 20
17.64547503713177
 30
0.0
 10
0.3329799327461795
 20
17.63888062024008
 30
0.0
 10
0.1664981442601364
 20
17.63721857758431
 30
0.0
 10
0.0
 20
17.63719170071863
 30
0.0
 10
-0.1664981442601364
 20
17.63721857758431
 30
0.0
 10
-0.3329799327461795
 20
17.63888062024008
 30
0.0
 10
-0.665910798170079
 20
17.64547503713177
 30
0.0
 10
-0.8323291887413878
 20
17.65036493431462
 30
0.0
 10
-1.165071885602724
 20
17.66333010615435
 30
0.0
 10
-1.331370661208098
 20
17.67131837567651
 30
0.0
 10
-1.663823066768259
 20
17.69030628192541
 30
0.0
 10
-1.829956689659156
 20
17.70120642769476
 30
0.0
 10
-2.16203877566258
 20
17.72581910452328
 30
0.0
 10
-2.32797361100783
 20
17.73941768392349
 30
0.0
 10
-2.659630866385404
 20
17.76919932469583
 30
0.0
 10
-2.825347620397935
 20
17.78524178516432
 30
0.0
 10
-3.156557381070485
 20
17.81962998626593
 30
0.0
 10
-3.322054487795379
 20
17.8378025686182
 30
0.0
 10
-3.652833154022408
 20
17.87610469692568
 30
0.0
 10
-3.818128922467489
 20
17.89602883168081
 30
0.0
 10
-4.148533330020787
 20
17.93742324239389
 30
0.0
 10
-4.31366637174214
 20
17.95865591629816
 30
0.0
 10
-4.643794131074249
 20
18.00219220120216
 30
0.0
 10
-4.808843022127728
 20
18.02407262954989
 30
0.0
 10
-4.973876924568629
 20
18.04606534379334
 30
0.0
 10
-5.138910827009529
 20
18.06805805803679
 30
0.0
 10
-5.303957473979575
 20
18.08995308174496
 30
0.0
 10
-5.634076256977953
 20
18.13354774809075
 30
0.0
 10
-5.799238320467457
 20
18.15457118784179
 30
0.0
 10
-6.129767791427095
 20
18.19507028050013
 30
0.0
 10
-6.295266893839742
 20
18.21313629282962
 30
0.0
 10
-6.626733832530699
 20
18.24490124948925
 30
0.0
 10
-6.792594590722747
 20
18.25951728633214
 30
0.0
 10
-7.124570684799987
 20
18.28621647704408
 30
0.0
 10
-7.290920629803689
 20
18.29320278285292
 30
0.0
 10
-7.624344315741259
 20
18.29444881537637
 30
0.0
 10
-7.790067899295498
 20
18.28252951888481
 30
0.0
 10
-8.119538547574885
 20
18.23360630039518
 30
0.0
 10
-8.283124907112358
 20
18.2003399150476
 30
0.0
 10
-8.607999696982853
 20
18.11619759214691
 30
0.0
 10
-8.758675877200497
 20
18.04895529005793
 30
0.0
 10
-8.897590842700538
 20
17.95654184733029
 30
0.0
 10
-8.923269375095174
 20
17.93945915523704
 30
0.0
 10
-8.933995994897003
 20
17.90485719213238
 30
0.0
 10
-8.933996193097983
 20
17.87159825237987
 30
0.0
 10
-8.933996274873161
 20
17.8510489437507
 30
0.0
 10
-8.933996356648342
 20
17.83049963512153
 30
0.0
 10
-8.93399643842352
 20
17.80995032649236
 30
0.0
 10
-8.934217676992782
 20
17.78565611486011
 30
0.0
 10
-8.927604917445947
 20
17.76349169393429
 30
0.0
 10
-8.90071140212008
 20
17.72342243349549
 30
0.0
 10
-8.882877577270827
 20
17.70896864772713
 30
0.0
 10
-8.838435793199684
 20
17.6912227650925
 30
0.0
 10
-8.815626327951543
 20
17.68547133271646
 30
0.0
 10
-8.76883025103013
 20
17.68021148584689
 30
0.0
 10
-8.745403334096105
 20
17.67820150425907
 30
0.0
 10
-8.721947538688767
 20
17.67681146451821
 30
0.0
  0
SPLINE
  5
71
330
1F
100
AcDbEntity
  8
Layer 01
370
    -3
100
AcDbSpline
210
0.0
220
0.0
230
1.0
 70
     8
 71
     2
 72
    42
 73
    39
 74
     0
 42
0.000000001
 43
0.0000000001
 40
-18.0
 40
-18.0
 40
-18.0
 40
-17.0
 40
-16.0
 40
-15.0
 40
-14.0
 40
-13.0
 40
-12.0
 40
-11.0
 40
-10.0
 40
-9.0
 40
-8.0
 40
-7.0
 40
-6.0
 40
-5.0
 40
-4.0
 40
-3.0
 40
-2.0
 40
-1.0
 40
0.0
 40
0.0
 40
1.0
 40
2.0
 40
3.0
 40
4.0
 40
5.0
 40
6.0
 40
7.0
 40
8.0
 40
9.0
 40
10.0
 40
11.0
 40
12.0
 40
13.0
 40
14.0
 40
15.0
 40
16.0
 40
17.0
 40
18.0
 40
18.0
 40
18.0
 10
8.175006232669006
 20
18.22018506489754
 30
0.0
 10
7.951952849579442
 20
18.26612293182207
 30
0.0
 10
7.501199834795557
 20
18.33183586010379
 30
0.0
 10
7.046858102376234
 20
18.36456014772114
 30
0.0
 10
6.5914313879899
 20
18.37026485134289
 30
0.0
 10
6.136297876751087
 20
18.35473063841959
 30
0.0
 10
5.68160227610241
 20
18.33025216910528
 30
0.0
 10
5.227260110981661
 20
18.29990388216758
 30
0.0
 10
4.773160720538527
 20
18.26616490530477
 30
0.0
 10
4.319290392993707
 20
18.22947825378558
 30
0.0
 10
3.865417511258386
 20
18.19283412068238
 30
0.0
 10
3.411416221781508
 20
18.157806697947
 30
0.0
 10
2.957226590202339
 20
18.12529937613039
 30
0.0
 10
2.502800930647936
 20
18.09626834110987
 30
0.0
 10
2.048144535533652
 20
18.07109441228157
 30
0.0
 10
1.593278803516597
 20
18.05003027882847
 30
0.0
 10
1.138216794735968
 20
18.03371870209701
 30
0.0
 10
0.6829978349493331
 20
18.02259347566763
 30
0.0
 10
0.2276779772401483
 20
18.01690064052134
 30
0.0
 10
0.0
 20
18.01694501959103
 30
0.0
 10
-0.2276779772401483
 20
18.01690064052134
 30
0.0
 10
-0.6829978349493331
 20
18.02259347566763
 30
0.0
 10
-1.138216794735968
 20
18.03371870209701
 30
0.0
 10
-1.593278803516597
 20
18.05003027882847
 30
0.0
 10
-2.048144535533652
 20
18.07109441228157
 30
0.0
 10
-2.502800930647936
 20
18.09626834110987
 30
0.0
 10
-2.957226590202339
 20
18.12529937613039
 30
0.0
 10
-3.411416221781508
 20
18.157806697947
 30
0.0
 10
-3.865417511258386
 20
18.19283412068238
 30
0.0
 10
-4.319290392993707
 20
18.22947825378558
 30
0.0
 10
-4.773160720538527
 20
18.26616490530477
 30
0.0
 10
-5.227260110981661
 20
18.29990388216758
 30
0.0
 10
-5.68160227610241
 20
18.33025216910528
 30
0.0
 10
-6.136297876751087
 20
18.35473063841959
 30
0.0
 10
-6.5914313879899
 20
18.37026485134289
 30
0.0
 10
-7.046858102376234
 20
18.36456014772114
 30
0.0
 10
-7.501199834795557
 20
18.33183586010379
 30
0.0
 10
-7.951952849579442
 20
18.26612293182207
 30
0.0
 10
-8.175006232669006
 20
18.22018506489754
 30
0.0
  0
SPLINE
  5
72
330
1F
100
AcDbEntity
  8
Layer 01
370
    -3
100
AcDbSpline
210
0.0
220
0.0
230
1.0
 70
     8
 71
     2
 72
    42
 73
    39
 74
     0
 42
0.000000001
 43
0.0000000001
 40
-18.0
 40
-18.0
 40
-18.0
 40
-16.99999998675452
 40
-15.99999997350905
 40
-14.99999996026357
 40
-13.99999994701809
 40
-12.99999993377262
 40
-11.99999992052714
 40
-10.99999990728166
 40
-9.999999894036186
 40
-8.999999880790709
 40
-7.999999867545231
 40
-6.999999854299754
 40
-5.999999841054278
 40
-4.999999827808801
 40
-3.999999814563325
 40
-2.999999801317848
 40
-1.999999788072371
 40
-0.9999997748268945
 40
0.0
 40
0.0
 40
0.9999997748268945
 40
1.999999788072371
 40
2.999999801317848
 40
3.999999814563325
 40
4.999999827808801
 40
5.999999841054278
 40
6.999999854299754
 40
7.999999867545231
 40
8.999999880790709
 40
9.999999894036186
 40
10.99999990728166
 40
11.99999992052714
 40
12.99999993377262
 40
13.99999994701809
 40
14.99999996026357
 40
15.99999997350905
 40
16.99999998675452
 40
18.0
 40
18.0
 40
18.0
 10
8.825351827958514
 20
17.70766107052006
 30
0.0
 10
8.623387091521067
 20
17.84808100216188
 30
0.0
 10
8.137527995279015
 20
17.96927666974986
 30
0.0
 10
7.647013781604414
 20
18.03696296629682
 30
0.0
 10
7.151006752969408
 20
18.02997514854924
 30
0.0
 10
6.657168504538504
 20
17.99106118496136
 30
0.0
 10
6.164040330827106
 20
17.94421198636273
 30
0.0
 10
5.672181743930992
 20
17.88543909777215
 30
0.0
 10
5.180640134720676
 20
17.82425574096645
 30
0.0
 10
4.689029002352356
 20
17.76358563688954
 30
0.0
 10
4.197444519000413
 20
17.70270089022459
 30
0.0
 10
3.705488561802895
 20
17.64487918316149
 30
0.0
 10
3.213065791802592
 20
17.59116434247632
 30
0.0
 10
2.720100299443772
 20
17.54266493708197
 30
0.0
 10
2.226567672931623
 20
17.50030405015327
 30
0.0
 10
1.732493623544713
 20
17.46478706652001
 30
0.0
 10
1.237919044246354
 20
17.43705437603501
 30
0.0
 10
0.7429353464173687
 20
17.41792200381503
 30
0.0
 10
0.2476780414054645
 20
17.40805675908193
 30
0.0
 10
0.0
 20
17.40801210289449
 30
0.0
 10
-0.2476780414054645
 20
17.40805675908193
 30
0.0
 10
-0.7429353464173687
 20
17.41792200381503
 30
0.0
 10
-1.237919044246354
 20
17.43705437603501
 30
0.0
 10
-1.732493623544713
 20
17.46478706652001
 30
0.0
 10
-2.226567672931623
 20
17.50030405015327
 30
0.0
 10
-2.720100299443772
 20
17.54266493708197
 30
0.0
 10
-3.213065791802592
 20
17.59116434247632
 30
0.0
 10
-3.705488561802895
 20
17.64487918316149
 30
0.0
 10
-4.197444519000413
 20
17.70270089022459
 30
0.0
 10
-4.689029002352356
 20
17.76358563688954
 30
0.0
 10
-5.180640134720676
 20
17.82425574096645
 30
0.0
 10
-5.672181743930992
 20
17.88543909777215
 30
0.0
 10
-6.164040330827106
 20
17.94421198636273
 30
0.0
 10
-6.657168504538504
 20
17.99106118496136
 30
0.0
 10
-7.151006752969408
 20
18.02997514854924
 30
0.0
 10
-7.647013781604414
 20
18.03696296629682
 30
0.0
 10
-8.137527995279015
 20
17.96927666974986
 30
0.0
 10
-8.623387091521067
 20
17.84808100216188
 30
0.0
 10
-8.825351827958514
 20
17.70766107052006
 30
0.0
  0
SPLINE
  5
73
330
1F
100
AcDbEntity
  8
Layer 01
370
    -3
100
AcDbSpline
210
0.0
220
0.0
230
1.0
 70
     8
 71
     3
 72
   108
 73
   104
 74
     0
 42
0.000000001
 43
0.0000000001
 40
-21.85163343682722
 40
-21.85163343682722
 40
-21.85163343682722
 40
-21.85163343682722
 40
-20.99999995721641
 40
-20.99999995721641
 40
-19.99999991443283
 40
-19.99999991443283
 40
-18.99999987164924
 40
-18.99999987164924
 40
-17.99999982886565
 40
-17.99999982886565
 40
-16.99999978608207
 40
-16.99999978608207
 40
-15.99999974329848
 40
-15.99999974329848
 40
-14.9999997005149
 40
-14.9999997005149
 40
-13.99999965773131
 40
-13.99999965773131
 40
-12.99999961494773
 40
-12.99999961494773
 40
-11.99999957216414
 40
-11.99999957216414
 40
-10.99999952938055
 40
-10.99999952938055
 40
-9.999999486596968
 40
-9.999999486596968
 40
-8.999999443813381
 40
-8.999999443813381
 40
-7.999999401029796
 40
-7.999999401029796
 40
-6.999999358246209
 40
-6.999999358246209
 40
-5.999999315462624
 40
-5.999999315462624
 40
-4.999999272679037
 40
-4.999999272679037
 40
-3.999999229895452
 40
-3.999999229895452
 40
-2.999999187111866
 40
-2.999999187111866
 40
-1.99999914432828
 40
-1.99999914432828
 40
-0.9999991015446938
 40
-0.9999991015446938
 40
0.0
 40
0.0
 40
0.0
 40
0.9999978615642937
 40
0.9999978615642937
 40
1.999998574376196
 40
1.999998574376196
 40
2.999999287188098
 40
2.999999287188098
 40
4.0
 40
4.0
 40
4.0
 40
5.0
 40
5.0
 40
5.0
 40
6.0
 40
6.0
 40
7.0
 40
7.0
 40
8.0
 40
8.0
 40
9.0
 40
9.0
 40
9.0
 40
10.0
 40
10.0
 40
11.0
 40
11.0
 40
12.0
 40
12.0
 40
13.0
 40
13.0
 40
14.0
 40
14.0
 40
15.0
 40
15.0
 40
16.0
 40
16.0
 40
17.0
 40
17.0
 40
18.0
 40
18.0
 40
19.0
 40
19.0
 40
20.0
 40
20.0
 40
21.0
 40
21.0
 40
22.0
 40
22.0
 40
23.0
 40
23.0
 40
24.0
 40
24.0
 40
25.0
 40
25.0
 40
26.0
 40
26.0
 40
26.98186606663502
 40
26.98186606663502
 40
26.98186606663502
 40
26.98186606663502
 10
29.32512485731553
 20
17.68961929805985
 30
0.0
 10
29.50120718709097
 20
17.69417397809737
 30
0.0
 10
29.67728078940401
 20
17.69904585216782
 30
0.0
 10
30.0600835234377
 20
17.71032799722228
 30
0.0
 10
30.26682085634374
 20
17.71643545121583
 30
0.0
 10
30.68029446960185
 20
17.7286791132879
 30
0.0
 10
30.88702851217783
 20
17.73489369943838
 30
0.0
 10
31.30049106922363
 20
17.74750838196821
 30
0.0
 10
31.50721862482422
 20
17.75393538714134
 30
0.0
 10
31.92066629018078
 20
17.76702872530399
 30
0.0
 10
32.1273869262419
 20
17.77367477772738
 30
0.0
 10
32.54082180512987
 20
17.7871656492583
 30
0.0
 10
32.74753671891322
 20
17.79398748593679
 30
0.0
 10
33.16096149515867
 20
17.80778396111985
 30
0.0
 10
33.3676720359019
 20
17.81473697611204
 30
0.0
 10
33.78108942262938
 20
17.82875256089772
 30
0.0
 10
33.98779689983879
 20
17.83579623576142
 30
0.0
 10
34.40120942194896
 20
17.8499553504306
 30
0.0
 10
34.60791527766598
 20
17.85704649175318
 30
0.0
 10
35.02132617842391
 20
17.87125194237438
 30
0.0
 10
35.2280321317529
 20
17.87834001454872
 30
0.0
 10
35.64144504431095
 20
17.89248685262487
 30
0.0
 10
35.84815296212553
 20
17.89951769986328
 30
0.0
 10
36.26157172082584
 20
17.91349425074081
 30
0.0
 10
36.4682834663287
 20
17.92041148384675
 30
0.0
 10
36.88171168963984
 20
17.93410386539293
 30
0.0
 10
37.08842912893679
 20
17.94084833140265
 30
0.0
 10
37.50187066281344
 20
17.95413381389535
 30
0.0
 10
37.70859577784716
 20
17.96063879698378
 30
0.0
 10
38.12205470410539
 20
17.97337324684482
 30
0.0
 10
38.32879030627416
 20
17.97953559257978
 30
0.0
 10
38.74227378869102
 20
17.9914505256586
 30
0.0
 10
38.94902379723509
 20
17.99710962976937
 30
0.0
 10
39.36254034899449
 20
18.00783111313361
 30
0.0
 10
39.56931076337241
 20
18.01267835349891
 30
0.0
 10
39.98287586912466
 20
18.02134583159592
 30
0.0
 10
40.18966776127915
 20
18.02514078040283
 30
0.0
 10
40.60327022414488
 20
18.0316530975335
 30
0.0
 10
40.81009380521763
 20
18.03357875678468
 30
0.0
 10
41.2237856666429
 20
18.03476907665873
 30
0.0
 10
41.4305604681831
 20
18.03192211856481
 30
0.0
 10
41.84396781291861
 20
18.01934396631508
 30
0.0
 10
42.0505671955892
 20
18.00713068010436
 30
0.0
 10
42.46355718717484
 20
17.97085570458294
 30
0.0
 10
42.66594568311174
 20
17.9308856143393
 30
0.0
 10
42.8642277763733
 20
17.86908291307687
 30
0.0
 10
42.93708096608761
 20
17.84602763698554
 30
0.0
 10
43.00862031563383
 20
17.8194414875557
 30
0.0
 10
43.14907153462082
 20
17.75920735614772
 30
0.0
 10
43.2172934828263
 20
17.7250427534358
 30
0.0
 10
43.34972985643051
 20
17.64861855986739
 30
0.0
 10
43.413525818944
 20
17.60677394042984
 30
0.0
 10
43.53627329539381
 20
17.51581965624806
 30
0.0
 10
43.59636497481296
 20
17.46873287666568
 30
0.0
 10
43.65517459542633
 20
17.42003645959179
 30
0.0
 10
43.7286275779968
 20
17.35921482807533
 30
0.0
 10
43.86661250417086
 20
17.521145486653
 30
0.0
 10
43.75054251931437
 20
17.62292198202124
 30
0.0
 10
43.68726919425725
 20
17.6784034855518
 30
0.0
 10
43.62877658113498
 20
17.72682792909771
 30
0.0
 10
43.52135277876013
 20
17.80956269622018
 30
0.0
 10
43.46585643158006
 20
17.84840521957844
 30
0.0
 10
43.35129484523468
 20
17.921040545889
 30
0.0
 10
43.287745287733
 20
17.95683914875076
 30
0.0
 10
43.14810864407167
 20
18.02739823388723
 30
0.0
 10
43.08140348785664
 20
18.05683814236894
 30
0.0
 10
43.01781149725724
 20
18.08043841676411
 30
0.0
 10
42.78339408706133
 20
18.16743546075479
 30
0.0
 10
42.542072553332
 20
18.22229731209414
 30
0.0
 10
42.04562123880651
 20
18.26775062947017
 30
0.0
 10
41.79735409734432
 20
18.28216596928586
 30
0.0
 10
41.30073684602106
 20
18.29437401117258
 30
0.0
 10
41.05235245643239
 20
18.29618309401375
 30
0.0
 10
40.55543214940099
 20
18.29121138349172
 30
0.0
 10
40.30700569957265
 20
18.28753164946733
 30
0.0
 10
39.81022020729068
 20
18.27778442389182
 30
0.0
 10
39.56184057510436
 20
18.27222940399674
 30
0.0
 10
39.06510753864106
 20
18.2597565499919
 30
0.0
 10
38.81675322697318
 20
18.25308555340132
 30
0.0
 10
38.32006901676497
 20
18.23887442104386
 30
0.0
 10
38.07173505175217
 20
18.23149331112959
 30
0.0
 10
37.57508340190918
 20
18.21618000382997
 30
0.0
 10
37.32676332799181
 20
18.20834258411878
 30
0.0
 10
36.83013468216532
 20
18.19230621257363
 30
0.0
 10
36.5818243290814
 20
18.18416710645282
 30
0.0
 10
36.0852115625722
 20
18.16764705351475
 30
0.0
 10
35.83690744831534
 20
18.1593196504702
 30
0.0
 10
35.34030375779713
 20
18.14253009123007
 30
0.0
 10
35.09200249460934
 20
18.13411772253184
 30
0.0
 10
34.59540113237637
 20
18.11725780697904
 30
0.0
 10
34.34709953227937
 20
18.10885559104197
 30
0.0
 10
33.85049449412427
 20
18.09210664284649
 30
0.0
 10
33.60218958842625
 20
18.08380293492112
 30
0.0
 10
33.10557500378923
 20
18.06733705141512
 30
0.0
 10
32.85726413450565
 20
18.05921372872554
 30
0.0
 10
32.36063524200832
 20
18.04318632147323
 30
0.0
 10
32.11231599213671
 20
18.03532354705029
 30
0.0
 10
31.61566788514761
 20
18.01989985661084
 30
0.0
 10
31.36733790002105
 20
18.01238435140449
 30
0.0
 10
30.87066606650391
 20
17.99774602101853
 30
0.0
 10
30.62232585869324
 20
17.99057596582931
 30
0.0
 10
30.13014032356167
 20
17.97666139281052
 30
0.0
 10
29.88629780971847
 20
17.96982041418372
 30
0.0
 10
29.64245381830091
 20
17.96303208476344
 30
0.0
  0
SPLINE
  5
74
330
1F
100
AcDbEntity
  8
Layer 01
370
    -3
100
AcDbSpline
210
0.0
220
0.0
230
1.0
 70
     8
 71
     2
 72
    23
 73
    20
 74
     0
 42
0.000000001
 43
0.0000000001
 40
0.0
 40
0.0
 40
0.0
 40
1.0
 40
2.0
 40
3.0
 40
4.0
 40
5.0
 40
6.0
 40
7.0
 40
8.0
 40
9.0
 40
10.0
 40
11.0
 40
12.0
 40
13.0
 40
14.0
 40
15.0
 40
16.0
 40
17.0
 40
17.97741831064248
 40
17.97741831064248
 40
17.97741831064248
 10
42.94170928638562
 20
18.1079566339553
 30
0.0
 10
42.58949469259142
 20
18.2269208823527
 30
0.0
 10
41.85479860043057
 20
18.33768263688295
 30
0.0
 10
41.11339916925039
 20
18.36564470505914
 30
0.0
 10
40.37183100951279
 20
18.3690232618805
 30
0.0
 10
39.63025892278273
 20
18.36449414797668
 30
0.0
 10
38.88879750538229
 20
18.35096458376807
 30
0.0
 10
38.14747193882715
 20
18.33155098737181
 30
0.0
 10
37.40625952813633
 20
18.30824977134944
 30
0.0
 10
36.66512572237107
 20
18.28258762992563
 30
0.0
 10
35.92407821069372
 20
18.25453948154359
 30
0.0
 10
35.18313328366145
 20
18.22389930707567
 30
0.0
 10
34.44229286240119
 20
18.19083420687761
 30
0.0
 10
33.70153319999787
 20
18.15601293537916
 30
0.0
 10
32.96081690266845
 20
18.12028467443652
 30
0.0
 10
32.22011434962587
 20
18.08427356790593
 30
0.0
 10
31.47939631546444
 20
18.04857975379264
 30
0.0
 10
30.73864312680024
 20
18.01363316430881
 30
0.0
 10
30.0062435954116
 20
17.97924134273069
 30
0.0
 10
29.64412476581032
 20
17.9645716454533
 30
0.0
  0
SPLINE
  5
75
330
1F
100
AcDbEntity
  8
Layer 01
370
    -3
100
AcDbSpline
210
0.0
220
0.0
230
1.0
 70
     8
 71
     5
 72
    18
 73
    12
 74
     0
 42
0.000000001
 43
0.0000000001
 40
23.40915079708069
 40
23.40915079708069
 40
23.40915079708069
 40
23.40915079708069
 40
23.40915079708069
 40
23.40915079708069
 40
23.41311664401287
 40
23.42501027401287
 40
23.44879753301288
 40
23.47258479201287
 40
23.49637205101287
 40
23.52015931001288
 40
23.53494741991311
 40
23.53494741991311
 40
23.53494741991311
 40
23.53494741991311
 40
23.53494741991311
 40
23.53494741991311
 10
43.65744516478128
 20
17.4184349759419
 30
0.0
 10
43.64417151345557
 20
17.42557556930867
 30
0.0
 10
43.59072333181655
 20
17.45359249007146
 30
0.0
 10
43.45359675665179
 20
17.51832945108222
 30
0.0
 10
43.22287541330292
 20
17.60210891734723
 30
0.0
 10
42.89474998531466
 20
17.67958876177155
 30
0.0
 10
42.48219978331471
 20
17.73315655763637
 30
0.0
 10
42.05726313968853
 20
17.75141174822053
 30
0.0
 10
41.72715207172672
 20
17.75401578602269
 30
0.0
 10
41.4904473836171
 20
17.74975175543514
 30
0.0
 10
41.34521330108774
 20
17.74539555020815
 30
0.0
 10
41.28972801569626
 20
17.74350762889577
 30
0.0
  0
SPLINE
  5
76
330
1F
100
AcDbEntity
  8
Layer 01
370
    -3
100
AcDbSpline
210
0.0
220
0.0
230
1.0
 70
     8
 71
     3
 72
   160
 73
   156
 74
     0
 42
0.000000001
 43
0.0000000001
 40
-0.4613416585070519
 40
-0.4613416585070519
 40
-0.4613416585070519
 40
-0.4613416585070519
 40
-0.4317254448678454
 40
-0.2878169632451583
 40
-0.1439084816226223
 40
0.0
 40
0.0
 40
0.0
 40
0.6800787374875464
 40
0.7873341142564549
 40
0.9854525742054371
 40
1.083257048095966
 40
1.083257048095966
 40
1.083257048095966
 40
2.083253955146962
 40
2.083253955146962
 40
3.083254038740177
 40
3.083254038740177
 40
4.083254122333394
 40
4.083254122333394
 40
5.08325420592661
 40
5.08325420592661
 40
6.083254289519827
 40
6.083254289519827
 40
7.083254373113043
 40
7.083254373113043
 40
8.08325445670626
 40
8.08325445670626
 40
9.083254540299476
 40
9.083254540299476
 40
10.08325462389269
 40
10.08325462389269
 40
11.08325470748591
 40
11.08325470748591
 40
12.08325479107912
 40
12.08325479107912
 40
13.08325487467234
 40
13.08325487467234
 40
14.08325495826556
 40
14.08325495826556
 40
15.08325504185877
 40
15.08325504185877
 40
16.08325512545199
 40
16.08325512545199
 40
17.08325520904521
 40
17.08325520904521
 40
18.08325529263842
 40
18.08325529263842
 40
19.08325537623164
 40
19.08325537623164
 40
20.08325545982485
 40
20.08325545982485
 40
21.08325554341807
 40
21.08325554341807
 40
22.08325562701129
 40
22.08325562701129
 40
23.0832557106045
 40
23.0832557106045
 40
24.08325579419772
 40
24.08325579419772
 40
25.08325587779094
 40
25.08325587779094
 40
26.08325596138415
 40
26.08325596138415
 40
27.08325604497737
 40
27.08325604497737
 40
28.08325612857059
 40
28.08325612857059
 40
29.0832562121638
 40
29.0832562121638
 40
30.08325629575702
 40
30.08325629575702
 40
31.08325637935024
 40
31.08325637935024
 40
32.08325646294345
 40
32.08325646294345
 40
33.08325654653667
 40
33.08325654653667
 40
34.08325663012989
 40
34.08325663012989
 40
35.0832567137231
 40
35.0832567137231
 40
36.08325679731632
 40
36.08325679731632
 40
37.08325688090953
 40
37.08325688090953
 40
38.08325696450275
 40
38.08325696450275
 40
39.08325704809597
 40
39.08325704809597
 40
39.08325704809597
 40
40.08325704809597
 40
40.08325704809597
 40
40.08325704809597
 40
41.08325704809597
 40
41.08325704809597
 40
42.08325704809597
 40
42.08325704809597
 40
43.08325704809597
 40
43.08325704809597
 40
44.08325704809597
 40
44.08325704809597
 40
44.08325704809597
 40
54.84944549565003
 40
54.84944549565003
 40
54.84944549565003
 40
55.84944549565003
 40
55.84944549565003
 40
55.84944549565003
 40
56.84944549565003
 40
56.84944549565003
 40
57.84944549565003
 40
57.84944549565003
 40
58.84944549565003
 40
58.84944549565003
 40
59.84944549565003
 40
59.84944549565003
 40
60.84944549565003
 40
60.84944549565003
 40
61.84944549565003
 40
61.84944549565003
 40
62.84944549565003
 40
62.84944549565003
 40
63.84944549565003
 40
63.84944549565003
 40
64.84944549565003
 40
64.84944549565003
 40
65.84944549565003
 40
65.84944549565003
 40
66.84944549565003
 40
66.84944549565003
 40
67.84944549565003
 40
67.84944549565003
 40
68.84944549565003
 40
68.84944549565003
 40
69.84944549565003
 40
69.84944549565003
 40
70.84944549565003
 40
70.84944549565003
 40
71.84944549565003
 40
71.84944549565003
 40
72.84944549565003
 40
72.84944549565003
 40
73.84944549565003
 40
73.84944549565003
 40
73.84944549565003
 40
74.09874937522073
 40
74.34805325479128
 40
74.59735713436199
 40
74.84666101393269
 40
75.09596489350324
 40
75.34526877307394
 40
75.34526877307394
 40
75.34526877307394
 40
76.34526877307394
 40
76.34526877307394
 40
76.34526877307394
 40
76.34526877307394
 10
28.84393823344021
 20
17.2260836273419
 30
0.0
 10
28.84646530619261
 20
17.23183095949556
 30
0.0
 10
28.86249131817544
 20
17.2657228126207
 30
0.0
 10
28.90475646147948
 20
17.32931121803173
 30
0.0
 10
28.99146069933121
 20
17.41240378556132
 30
0.0
 10
29.05931689481639
 20
17.46784840248597
 30
0.0
 10
29.09631983461233
 20
17.49871000235055
 30
0.0
 10
29.26965983593595
 20
17.64480216681181
 30
0.0
 10
29.47411995922457
 20
17.80951902454609
 30
0.0
 10
29.71711246975084
 20
18.03074322697648
 30
0.0
 10
29.79590691533164
 20
18.14132071414641
 30
0.0
 10
29.84386079241156
 20
18.22713703501203
 30
0.0
 10
29.85807779630741
 20
18.25642831486739
 30
0.0
 10
29.9260123092179
 20
18.38906752950603
 30
0.0
 10
29.96205892578387
 20
18.53016044830168
 30
0.0
 10
29.97037637943719
 20
18.82925416924966
 30
0.0
 10
29.94072958932465
 20
18.97081823097566
 30
0.0
 10
29.81382496201077
 20
19.23798028188907
 30
0.0
 10
29.74833531606851
 20
19.36979199234268
 30
0.0
 10
29.61328135961334
 20
19.62987678324376
 30
0.0
 10
29.5461735492005
 20
19.76025847709511
 30
0.0
 10
29.41279626400426
 20
20.02170046159946
 30
0.0
 10
29.34609091121062
 20
20.15239146893368
 30
0.0
 10
29.21264678523228
 20
20.41371351376618
 30
0.0
 10
29.14594084960616
 20
20.54438642152004
 30
0.0
 10
29.01256123307998
 20
20.805756007703
 30
0.0
 10
28.94576666783699
 20
20.9363866549816
 30
0.0
 10
28.81196802339118
 20
21.19753965791305
 30
0.0
 10
28.74494949469256
 20
21.32805502861635
 30
0.0
 10
28.61067402434388
 20
21.58896350849814
 30
0.0
 10
28.54344332008312
 20
21.71936979470621
 30
0.0
 10
28.40879597338873
 20
21.98008645965669
 30
0.0
 10
28.34150949838553
 20
22.11046403363385
 30
0.0
 10
28.20701094506711
 20
22.37125766459198
 30
0.0
 10
28.14002229905977
 20
22.50178840410061
 30
0.0
 10
28.00656626834878
 20
22.76311773117705
 30
0.0
 10
27.94028038393205
 20
22.89400639808558
 30
0.0
 10
27.80859287697615
 20
23.15623173864323
 30
0.0
 10
27.74314721562783
 20
23.28754269234698
 30
0.0
 10
27.61305207719045
 20
23.5505611666043
 30
0.0
 10
27.54826315257437
 20
23.68219757850782
 30
0.0
 10
27.41920259254742
 20
23.94572475186461
 30
0.0
 10
27.3547727199374
 20
24.07753736699265
 30
0.0
 10
27.22611378952432
 20
24.34126065414799
 30
0.0
 10
27.16178760900407
 20
24.47312389553134
 30
0.0
 10
27.03314181733618
 20
24.73685357390938
 30
0.0
 10
26.96878564162991
 20
24.86870218150244
 30
0.0
 10
26.84000673047272
 20
25.13236693349665
 30
0.0
 10
26.77560858804476
 20
25.26419504622454
 30
0.0
 10
26.64679492949015
 20
25.5278427451419
 30
0.0
 10
26.58233452135886
 20
25.65964042382735
 30
0.0
 10
26.45330654738831
 20
25.92318343965179
 30
0.0
 10
26.3886557534516
 20
26.05488780845412
 30
0.0
 10
26.25908055167532
 20
26.31816226783897
 30
0.0
 10
26.19408944692803
 20
26.44969898883461
 30
0.0
 10
26.06370022971511
 20
26.71257141343228
 30
0.0
 10
25.99824899339757
 20
26.84387974640794
 30
0.0
 10
25.86683326534031
 20
27.1062406537129
 30
0.0
 10
25.80087653243905
 20
27.237295812281
 30
0.0
 10
25.66846532889127
 20
27.49915553924848
 30
0.0
 10
25.60204186623656
 20
27.62997476703928
 30
0.0
 10
25.4687592191655
 20
27.89139195123502
 30
0.0
 10
25.40196698684987
 20
28.02202334798768
 30
0.0
 10
25.26808070465846
 20
28.28313175080257
 30
0.0
 10
25.20112316232359
 20
28.41367856339189
 30
0.0
 10
25.06717927517554
 20
28.67475741093429
 30
0.0
 10
25.00029254372459
 20
28.80534037321052
 30
0.0
 10
24.86668950506884
 20
29.06659337477306
 30
0.0
 10
24.79975276073044
 20
29.1971513651329
 30
0.0
 10
24.66560882203261
 20
29.45813032500975
 30
0.0
 10
24.59751333298522
 20
29.58808592540462
 30
0.0
 10
24.45927531549349
 20
29.84692936710721
 30
0.0
 10
24.38841259396384
 20
29.97539275649714
 30
0.0
 10
24.24319972533692
 20
30.23040287235429
 30
0.0
 10
24.16841265701892
 20
30.35662000148017
 30
0.0
 10
24.01447725237385
 20
30.60647840212649
 30
0.0
 10
23.9347724922019
 20
30.72964257574258
 30
0.0
 10
23.7698888561592
 20
30.9724408695606
 30
0.0
 10
23.68443463783164
 20
31.09167764297362
 30
0.0
 10
23.50750140056412
 20
31.32582644280771
 30
0.0
 10
23.41655597180936
 20
31.44095125218202
 30
0.0
 10
23.22970749405782
 20
31.66730168984519
 30
0.0
 10
23.13308474596553
 20
31.77767367927283
 30
0.0
 10
22.9334422313479
 20
31.9928111993202
 30
0.0
 10
22.83105874921225
 20
32.0978698536083
 30
0.0
 10
22.62116733528728
 20
32.30296695071331
 30
0.0
 10
22.51261052152094
 20
32.40173131247041
 30
0.0
 10
22.28827468038055
 20
32.59169166239381
 30
0.0
 10
22.16875768702504
 20
32.67633850717966
 30
0.0
 10
22.04189162088423
 20
32.75065202178965
 30
0.0
 10
21.99799271131766
 20
32.77636640197557
 30
0.0
 10
21.94136938233777
 20
32.80201265731782
 30
0.0
 10
21.89729571979382
 20
32.79022195706447
 30
0.0
 10
21.88176215817471
 20
32.7870824245236
 30
0.0
 10
21.8673032204829
 20
32.78122056210107
 30
0.0
 10
21.84053459295383
 20
32.76405217749267
 30
0.0
 10
21.82904484528677
 20
32.75348045505186
 30
0.0
 10
21.80985448214759
 20
32.72836194989702
 30
0.0
 10
21.8037894943088
 20
32.71418268294377
 30
0.0
 10
21.7987199060928
 20
32.68258412028561
 30
0.0
 10
21.79947731435028
 20
32.66701119575976
 30
0.0
 10
21.80352692497323
 20
32.65166462803714
 30
0.0
 10
22.73120890664989
 20
29.18491031895114
 30
0.0
 10
23.65889088832655
 20
25.71815600986514
 30
0.0
 10
24.58657287000321
 20
22.25140170077914
 30
0.0
 10
24.59498666700648
 20
22.21995928021585
 30
0.0
 10
24.62296091612922
 20
22.1906047434177
 30
0.0
 10
24.65316968106328
 20
22.17633369833943
 30
0.0
 10
24.73680304813498
 20
22.13682412043605
 30
0.0
 10
24.81650262421228
 20
22.08974541886588
 30
0.0
 10
24.96803419437806
 20
21.98044976839196
 30
0.0
 10
25.03116024422674
 20
21.91398780971888
 30
0.0
 10
25.13213287345566
 20
21.75743562550046
 30
0.0
 10
25.17606922951404
 20
21.67596660555219
 30
0.0
 10
25.25084202451865
 20
21.50664270997754
 30
0.0
 10
25.28555299509065
 20
21.42091762381524
 30
0.0
 10
25.34962408237408
 20
21.24734117474067
 30
0.0
 10
25.38034136739494
 20
21.16009248231581
 30
0.0
 10
25.43913942019498
 20
20.98467416169094
 30
0.0
 10
25.46761580898184
 20
20.89667118248141
 30
0.0
 10
25.52272331132925
 20
20.72007758626817
 30
0.0
 10
25.54949928971392
 20
20.63154322395599
 30
0.0
 10
25.60149570090518
 20
20.45399937092052
 30
0.0
 10
25.62731034282795
 20
20.3651755352583
 30
0.0
 10
25.67857249932776
 20
20.18742404564489
 30
0.0
 10
25.70392931684046
 20
20.09846979475516
 30
0.0
 10
25.75409443039143
 20
19.92040428080966
 30
0.0
 10
25.77896672997359
 20
19.83131296729336
 30
0.0
 10
25.82829081475122
 20
19.65301322717364
 30
0.0
 10
25.85279367260929
 20
19.5638196367347
 30
0.0
 10
25.90148101926397
 20
19.3853450150986
 30
0.0
 10
25.92570840289288
 20
19.2960761687535
 30
0.0
 10
25.97393059075388
 20
19.11747540500924
 30
0.0
 10
25.99795365902783
 20
19.02815134724774
 30
0.0
 10
26.04582374426262
 20
18.84945587994602
 30
0.0
 10
26.06969352241832
 20
18.76009072866866
 30
0.0
 10
26.11730254980632
 20
18.58132559086096
 30
0.0
 10
26.14106238482487
 20
18.49193113834353
 30
0.0
 10
26.18849269751108
 20
18.31311846608147
 30
0.0
 10
26.21216265520729
 20
18.22370020040348
 30
0.0
 10
26.25941217330589
 20
18.04483980995361
 30
0.0
 10
26.2830037970131
 20
17.95540071571083
 30
0.0
 10
26.33012077374331
 20
17.77650472918955
 30
0.0
 10
26.35356117449819
 20
17.68702661635457
 30
0.0
 10
26.37688348764283
 20
17.59751838394524
 30
0.0
 10
26.40473724964022
 20
17.49171742719194
 30
0.0
 10
26.46907294788264
 20
17.29533687615424
 30
0.0
 10
26.59375091031993
 20
17.04681903841744
 30
0.0
 10
26.74324330435161
 20
16.85079984057593
 30
0.0
 10
26.90702351974363
 20
16.70923183329029
 30
0.0
 10
27.0872341158132
 20
16.60911860122974
 30
0.0
 10
27.23197406139121
 20
16.56489776167064
 30
0.0
 10
27.30987491530021
 20
16.54971266057744
 30
0.0
 10
27.65005681930433
 20
16.48901882091907
 30
0.0
 10
27.99156971017785
 20
16.4370720227506
 30
0.0
 10
28.33441358792078
 20
16.39387226607204
 30
0.0
  0
SPLINE
  5
77
330
1F
100
AcDbEntity
  8
Layer 01
370
    -3
100
AcDbSpline
210
0.0
220
0.0
230
1.0
 70
     8
 71
     3
 72
    69
 73
    65
 74
     0
 42
0.000000001
 43
0.0000000001
 40
1.56810609170424
 40
1.56810609170424
 40
1.56810609170424
 40
1.56810609170424
 40
1.734679903894255
 40
1.927422115438117
 40
2.120164326981728
 40
2.31290653852564
 40
2.505648750069452
 40
2.505648750069452
 40
2.505648750069452
 40
3.505648750069452
 40
3.505648750069452
 40
4.505648750069452
 40
4.505648750069452
 40
5.505648750069452
 40
5.505648750069452
 40
6.505648750069452
 40
6.505648750069452
 40
7.505648750069452
 40
7.505648750069452
 40
8.50564875006945
 40
8.50564875006945
 40
9.50564875006945
 40
9.50564875006945
 40
10.50564875006945
 40
10.50564875006945
 40
11.50564875006945
 40
11.50564875006945
 40
12.50564875006945
 40
12.50564875006945
 40
13.50564875006945
 40
13.50564875006945
 40
14.50564875006945
 40
14.50564875006945
 40
15.50564875006945
 40
15.50564875006945
 40
16.50564875006945
 40
16.50564875006945
 40
17.50564875006945
 40
17.50564875006945
 40
18.50564875006945
 40
18.50564875006945
 40
19.50564875006945
 40
19.50564875006945
 40
20.50564875006945
 40
20.50564875006945
 40
21.50564875006945
 40
21.50564875006945
 40
22.50564875006945
 40
22.50564875006945
 40
23.50564875006945
 40
23.50564875006945
 40
24.50564875006945
 40
24.50564875006945
 40
25.50564875006945
 40
25.50564875006945
 40
26.50564875006945
 40
26.50564875006945
 40
27.50564875006945
 40
27.50564875006945
 40
28.50564875006945
 40
28.50564875006945
 40
29.50564875006945
 40
29.50564875006945
 40
30.50564875006945
 40
30.50564875006945
 40
30.50564875006945
 40
30.50564875006945
 10
28.69188911686089
 20
17.04796634195136
 30
0.0
 10
28.68348385912091
 20
17.07667865958869
 30
0.0
 10
28.67577425337771
 20
17.13919114573275
 30
0.0
 10
28.69643844915123
 20
17.24214805566224
 30
0.0
 10
28.76035167965023
 20
17.36088523858734
 30
0.0
 10
28.87153101084721
 20
17.47615341933264
 30
0.0
 10
28.96239225868322
 20
17.55676334796474
 30
0.0
 10
29.01301716109623
 20
17.59754956428594
 30
0.0
 10
29.17209260516819
 20
17.73256047434706
 30
0.0
 10
29.33456037838799
 20
17.86847778860936
 30
0.0
 10
29.66628058312328
 20
18.14212522553631
 30
0.0
 10
29.76937877167127
 20
18.3181721376631
 30
0.0
 10
29.85005132112791
 20
18.74871234924332
 30
0.0
 10
29.81918160912538
 20
18.95082482450655
 30
0.0
 10
29.61503021165858
 20
19.32873451397926
 30
0.0
 10
29.51659102522934
 20
19.51660434530992
 30
0.0
 10
29.32698567697915
 20
19.89017398115983
 30
0.0
 10
29.23158937110343
 20
20.07716057211586
 30
0.0
 10
29.03960949585077
 20
20.45153730009008
 30
0.0
 10
28.94356194596041
 20
20.63860918955868
 30
0.0
 10
28.75135162165167
 20
21.01252001945889
 30
0.0
 10
28.65497581879807
 20
21.1993509945634
 30
0.0
 10
28.46168293169245
 20
21.57276406508125
 30
0.0
 10
28.36453180477555
 20
21.75920490823522
 30
0.0
 10
28.16922018421353
 20
22.13155521033327
 30
0.0
 10
28.0717268087762
 20
22.3178161137281
 30
0.0
 10
27.87706492758888
 20
22.6905094252094
 30
0.0
 10
27.78059214105775
 20
22.87729960769736
 30
0.0
 10
27.58936287612054
 20
23.25176702616794
 30
0.0
 10
27.4944704205559
 20
23.43936559289441
 30
0.0
 10
27.30612986323453
 20
23.81529244132972
 30
0.0
 10
27.21220634884918
 20
24.00337876171416
 30
0.0
 10
27.02485284862913
 20
24.37979719481663
 30
0.0
 10
26.93114464621354
 20
24.56799075677045
 30
0.0
 10
26.74366533677119
 20
24.94434657148321
 30
0.0
 10
26.6499404115905
 20
25.13253180246309
 30
0.0
 10
26.46252002031006
 20
25.50891691166983
 30
0.0
 10
26.36874571376785
 20
25.69707759883655
 30
0.0
 10
26.18106887887947
 20
26.0733352382967
 30
0.0
 10
26.08693010241811
 20
26.26131376272584
 30
0.0
 10
25.89805183146109
 20
26.63697022098225
 30
0.0
 10
25.80312170895307
 20
26.82455008263639
 30
0.0
 10
25.61227948987807
 20
27.19921307099653
 30
0.0
 10
25.51633365356068
 20
27.38627538676094
 30
0.0
 10
25.32339252736613
 20
27.75986166145844
 30
0.0
 10
25.22648196289317
 20
27.94642619887061
 30
0.0
 10
25.03178083119589
 20
28.31909807382177
 30
0.0
 10
24.93443766292519
 20
28.50543692078264
 30
0.0
 10
24.73976612153971
 20
28.87812043367495
 30
0.0
 10
24.64215315121002
 20
29.06432240469765
 30
0.0
 10
24.44637281127676
 20
29.4364467758961
 30
0.0
 10
24.34569081247382
 20
29.62099240818993
 30
0.0
 10
24.13874315719535
 20
29.98705056616682
 30
0.0
 10
24.03143642918489
 20
30.16782159221725
 30
0.0
 10
23.80915717242156
 20
30.5248475384421
 30
0.0
 10
23.69304606357665
 20
30.70006421025407
 30
0.0
 10
23.4508808849603
 20
31.04390495127711
 30
0.0
 10
23.32427696680331
 20
31.21173798222609
 30
0.0
 10
23.06002647279171
 20
31.53922936499898
 30
0.0
 10
22.92035192359525
 20
31.69612710843574
 30
0.0
 10
22.62590422082103
 20
31.99622669940989
 30
0.0
 10
22.47449595588287
 20
32.14248001033367
 30
0.0
 10
22.16331059890447
 20
32.42739366305462
 30
0.0
 10
21.99299192060382
 20
32.54919411080672
 30
0.0
 10
21.80794724249171
 20
32.65033817995047
 30
0.0
  0
SPLINE
  5
78
330
1F
100
AcDbEntity
  8
Layer 01
370
    -3
100
AcDbSpline
210
0.0
220
0.0
230
1.0
 70
    12
 71
     5
 72
    43
 73
    37
 74
     0
 42
0.000000001
 43
0.0000000001
 40
0.0
 40
0.0
 40
0.0
 40
0.0
 40
0.0
 40
0.0
 40
1.0
 40
1.0
 40
1.0
 40
1.0
 40
1.0
 40
1.003259931997497
 40
1.003259931997497
 40
1.003259931997497
 40
1.003259931997497
 40
1.003259931997497
 40
1.023292528876977
 40
1.023292528876977
 40
1.023292528876977
 40
1.023292528876977
 40
1.023292528876977
 40
1.168035628300413
 40
1.168035628300413
 40
1.168035628300413
 40
1.168035628300413
 40
1.168035628300413
 40
1.321287026872451
 40
1.321287026872451
 40
1.321287026872451
 40
1.321287026872451
 40
1.321287026872451
 40
1.476430366959079
 40
1.476430366959079
 40
1.476430366959079
 40
1.476430366959079
 40
1.476430366959079
 40
1.484050793620744
 40
1.492613412007535
 40
1.492613412007535
 40
1.492613412007535
 40
1.492613412007535
 40
1.492613412007535
 40
1.492613412007535
 10
26.26975141479537
 20
18.0095796538323
 30
0.0
 41
1.0
 10
26.25181767294513
 20
18.00937575219509
 30
0.0
 41
1.0
 10
26.23388935769626
 20
18.00944971131043
 30
0.0
 41
1.0
 10
26.21596646904874
 20
18.0098015311783
 30
0.0
 41
1.0
 10
26.19804900700256
 20
18.01043121179874
 30
0.0
 41
1.0
 10
26.18013697155774
 20
18.01133875317172
 30
0.0
 41
1.0
 10
26.17948659641965
 20
18.01138834672495
 30
0.0
 41
1.000142415013597
 10
26.1788363404548
 20
18.01143807037762
 30
0.0
 41
1.000311411011413
 10
26.17818625542991
 20
18.01148792010071
 30
0.0
 41
1.000506987993448
 10
26.17753639304666
 20
18.01153789184801
 30
0.0
 41
1.000729145959702
 10
26.17688680492813
 20
18.01158798155732
 30
0.0
 41
1.000977884910175
 10
26.17289080874254
 20
18.01189611263545
 30
0.0
 41
0.9989710767459838
 10
26.16888137993814
 20
18.01200409849499
 30
0.0
 41
0.9979676726638882
 10
26.16487057180785
 20
18.0119110097071
 30
0.0
 41
0.9979676726638882
 10
26.16087047017079
 20
18.0116171267774
 30
0.0
 41
0.9989710767459838
 10
26.15689307222118
 20
18.01112393733414
 30
0.0
 41
1.000977884910175
 10
26.12767838288766
 20
18.00750137390258
 30
0.0
 41
0.9006199931901712
 10
26.10016366638335
 20
17.99368879141396
 30
0.0
 41
0.8504410473301693
 10
26.0795202240665
 20
17.97032742096201
 30
0.0
 41
0.8504410473301693
 10
26.06919856619299
 20
17.94132206907551
 30
0.0
 41
0.9006199931901714
 10
26.06919867372801
 20
17.91188364115114
 30
0.0
 41
1.000977884910175
 10
26.06919865199486
 20
17.88123336143674
 30
0.0
 41
1.000977884910175
 10
26.06919863026171
 20
17.85058308172234
 30
0.0
 41
1.000977884910175
 10
26.06919860852856
 20
17.81993280200794
 30
0.0
 41
1.000977884910175
 10
26.06919858679541
 20
17.78928252229354
 30
0.0
 41
1.000977884910175
 10
26.06919856506227
 20
17.75863224257914
 30
0.0
 41
1.000977884910175
 10
26.06919810207438
 20
17.72739799927305
 30
0.0
 41
0.9614253096812
 10
26.07610780649442
 20
17.69642684146946
 30
0.0
 41
0.9416490220667125
 10
26.0899277074931
 20
17.66768669149792
 30
0.0
 41
0.9416490220667123
 10
26.10980498894146
 20
17.64295108329663
 30
0.0
 41
0.9614253096812002
 10
26.13420248001702
 20
17.62344876588734
 30
0.0
 41
1.000977884910175
 10
26.15816500417187
 20
17.60429451365097
 30
0.0
 41
1.000977884910175
 10
26.21051629654226
 20
17.5651699124131
 30
0.0
 41
1.000977884910175
 10
26.26570300367658
 20
17.52924057121945
 30
0.0
 41
1.000977884910175
 10
26.32279448082522
 20
17.49615126439506
 30
0.0
 41
1.000977884910175
 10
26.38135269501225
 20
17.4656276399781
 30
0.0
 41
1.000977884910175
 10
26.41269862076439
 20
17.45015708722446
 30
0.0
 41
1.000977884910175
  0
SPLINE
  5
79
330
1F
100
AcDbEntity
  8
Layer 01
370
    -3
100
AcDbSpline
210
0.0
220
0.0
230
1.0
 70
     8
 71
     2
 72
    21
 73
    18
 74
     0
 42
0.000000001
 43
0.0000000001
 40
2.512240428278854
 40
2.512240428278854
 40
2.512240428278854
 40
3.0
 40
4.0
 40
5.0
 40
6.0
 40
7.0
 40
8.0
 40
9.0
 40
10.0
 40
11.0
 40
12.0
 40
13.0
 40
14.0
 40
15.0
 40
16.0
 40
17.0
 40
18.0
 40
18.0
 40
18.0
 10
29.15890936712333
 20
16.38737534445044
 30
0.0
 10
29.16580277027458
 20
16.38809470676446
 30
0.0
 10
29.18697577533172
 20
16.38981360407171
 30
0.0
 10
29.21543455770774
 20
16.39147803209446
 30
0.0
 10
29.24392761397337
 20
16.39260877146477
 30
0.0
 10
29.27243292653748
 20
16.39330583481966
 30
0.0
 10
29.30094519201509
 20
16.39362002079349
 30
0.0
 10
29.32945907478776
 20
16.3935810133888
 30
0.0
 10
29.35797046221691
 20
16.39320212046142
 30
0.0
 10
29.38647531148976
 20
16.39248338052033
 30
0.0
 10
29.41496915849251
 20
16.39141156678147
 30
0.0
 10
29.44344586917632
 20
16.38995710165128
 30
0.0
 10
29.47189882636042
 20
16.38806929127927
 30
0.0
 10
29.50030308199499
 20
16.38564854882407
 30
0.0
 10
29.52869559739028
 20
16.38258146475333
 30
0.0
 10
29.5566407672182
 20
16.37821226719836
 30
0.0
 10
29.58608955016214
 20
16.37335188399267
 30
0.0
 10
29.59435062924038
 20
16.36271574913296
 30
0.0
  0
SPLINE
  5
7A
330
1F
100
AcDbEntity
  8
Layer 01
370
    -3
100
AcDbSpline
210
0.0
220
0.0
230
1.0
 70
    12
 71
     2
 72
    36
 73
    33
 74
     0
 42
0.000000001
 43
0.0000000001
 40
21.01551374237208
 40
21.01551374237208
 40
21.01551374237208
 40
21.20054176929184
 40
22.20054176929184
 40
23.20054176929184
 40
24.20054176929185
 40
25.20054176929185
 40
26.20054176929185
 40
27.20054176929185
 40
28.20054176929185
 40
29.20054176929185
 40
30.20054176929185
 40
31.20054176929185
 40
32.20054176929185
 40
33.20054176929185
 40
34.20054176929185
 40
35.20054176929185
 40
35.20054176929185
 40
35.29554176929185
 40
35.29554176929185
 40
36.29554176929185
 40
37.29554176929185
 40
38.29554176929185
 40
39.29554176929185
 40
40.29554176929185
 40
41.29554176929185
 40
42.29554176929185
 40
43.29554176929185
 40
44.29554176929185
 40
45.29554176929185
 40
46.29554176929185
 40
47.29554176929185
 40
47.63830460068262
 40
47.63830460068262
 40
47.63830460068262
 10
29.14016770785463
 20
16.35248133872535
 30
0.0
 41
1.0
 10
29.14342604642007
 20
16.35200916848436
 30
0.0
 41
1.0
 10
29.16428326605816
 20
16.34910668009101
 30
0.0
 41
1.0
 10
29.19970468987844
 20
16.345631266201
 30
0.0
 41
1.0
 10
29.2351817410653
 20
16.34293158623358
 30
0.0
 41
1.0
 10
29.27071091649481
 20
16.34100154720623
 30
0.0
 41
1.0
 10
29.30626881063642
 20
16.33972581995411
 30
0.0
 41
1.0
 10
29.34184202354226
 20
16.33899766742291
 30
0.0
 41
1.0
 10
29.37742190341592
 20
16.3387680015863
 30
0.0
 41
1.0
 10
29.41300119972999
 20
16.33908787136379
 30
0.0
 41
1.0
 10
29.44857066572803
 20
16.34000282636241
 30
0.0
 41
1.0
 10
29.48411356135631
 20
16.3416298631132
 30
0.0
 41
1.0
 10
29.51961643684712
 20
16.34411210924531
 30
0.0
 41
1.0
 10
29.5549335779684
 20
16.34825577311592
 30
0.0
 41
1.0
 10
29.59036793077289
 20
16.35256205343783
 30
0.0
 41
1.0
 10
29.62203172356394
 20
16.3721116647783
 30
0.0
 41
1.0
 10
29.62489605348384
 20
16.39201585371719
 30
0.0
 41
1.0
 10
29.6255517985153
 20
16.43983531204826
 30
0.0
 41
1.0
 10
29.62620754354674
 20
16.48765477037932
 30
0.0
 41
1.0
 10
29.6151187766728
 20
16.49851218174093
 30
0.0
 41
1.0
 10
29.58286660285989
 20
16.50404395673748
 30
0.0
 41
1.0
 10
29.55160073021105
 20
16.50883421557857
 30
0.0
 41
1.0
 10
29.51996079843022
 20
16.51223764848405
 30
0.0
 41
1.0
 10
29.48828826130128
 20
16.51492163786282
 30
0.0
 41
1.0
 10
29.45656555494747
 20
16.51701761476648
 30
0.0
 41
1.0
 10
29.4248160393999
 20
16.5186332890489
 30
0.0
 41
1.0
 10
29.39304768594587
 20
16.51982456352611
 30
0.0
 41
1.0
 10
29.36126713134664
 20
16.52062391981413
 30
0.0
 41
1.0
 10
29.32947934310991
 20
16.52104591256244
 30
0.0
 41
1.0
 10
29.29768877262362
 20
16.52109048279132
 30
0.0
 41
1.0
 10
29.26589998606295
 20
16.52074294895959
 30
0.0
 41
1.0
 10
29.24456267574647
 20
16.5202244520129
 30
0.0
 41
1.0
 10
29.23911679205574
 20
16.52006385053659
 30
0.0
 41
1.0
  0
SPLINE
  5
7B
330
1F
100
AcDbEntity
  8
Layer 01
370
    -3
100
AcDbSpline
210
0.0
220
0.0
230
1.0
 70
    15
 71
     2
 72
    45
 73
    42
 74
     0
 42
0.000000001
 43
0.0000000001
 40
18.10554176929185
 40
18.10554176929185
 40
18.10554176929185
 40
18.20054176929184
 40
18.20054176929184
 40
19.20054176929184
 40
20.20054176929184
 40
21.20054176929184
 40
22.20054176929184
 40
23.20054176929184
 40
24.20054176929185
 40
25.20054176929185
 40
26.20054176929185
 40
27.20054176929185
 40
28.20054176929185
 40
29.20054176929185
 40
30.20054176929185
 40
31.20054176929185
 40
32.20054176929185
 40
33.20054176929185
 40
34.20054176929185
 40
35.20054176929185
 40
35.20054176929185
 40
35.29554176929185
 40
35.29554176929185
 40
36.29554176929185
 40
37.29554176929185
 40
38.29554176929185
 40
39.29554176929185
 40
40.29554176929185
 40
41.29554176929185
 40
42.29554176929185
 40
43.29554176929185
 40
44.29554176929185
 40
45.29554176929185
 40
46.29554176929185
 40
47.29554176929185
 40
48.29554176929185
 40
49.29554176929185
 40
50.29554176929185
 40
51.29554176929185
 40
52.29554176929185
 40
53.29554176929185
 40
53.29554176929185
 40
53.29554176929185
 10
37.0736671815178
 20
16.63438341184875
 30
0.0
 41
0.9969152063605844
 10
37.07704156062451
 20
16.58726519548976
 30
0.0
 41
0.9969152063605844
 10
37.08041593973121
 20
16.54014697913076
 30
0.0
 41
0.9969152063605844
 10
37.08285931250592
 20
16.52120853505624
 30
0.0
 41
0.9969152063605844
 10
37.11502105665989
 20
16.50230169806018
 30
0.0
 41
0.9969152063605844
 10
37.15070532861478
 20
16.49930472318487
 30
0.0
 41
0.9969152063605844
 10
37.18619490564677
 20
16.49740406629156
 30
0.0
 41
0.9969152063605844
 10
37.22178339434596
 20
16.49694012742612
 30
0.0
 41
0.9969152063605844
 10
37.25736163225838
 20
16.49725384686863
 30
0.0
 41
0.9969152063605844
 10
37.29292664470799
 20
16.49833885691814
 30
0.0
 41
0.9969152063605844
 10
37.32846487468282
 20
16.50007826085719
 30
0.0
 41
0.9969152063605844
 10
37.36397200736627
 20
16.50236457036213
 30
0.0
 41
0.9969152063605844
 10
37.39944357812227
 20
16.50514814114894
 30
0.0
 41
0.9969152063605844
 10
37.434868040341
 20
16.50847922496523
 30
0.0
 41
0.9969152063605844
 10
37.47023232395719
 20
16.51240242497898
 30
0.0
 41
0.9969152063605844
 10
37.50550984337681
 20
16.51703290031431
 30
0.0
 41
0.9969152063605844
 10
37.54067507905771
 20
16.52251212594232
 30
0.0
 41
0.9969152063605844
 10
37.57551458140341
 20
16.52963107836226
 30
0.0
 41
0.9969152063605844
 10
37.61045710645766
 20
16.53692198720234
 30
0.0
 41
0.9969152063605844
 10
37.64035201579065
 20
16.55908225510347
 30
0.0
 41
0.9969152063605844
 10
37.64152084962851
 20
16.57915748737273
 30
0.0
 41
0.9969152063605844
 10
37.63812554997654
 20
16.62686076332833
 30
0.0
 41
0.9969152063605844
 10
37.63473025032457
 20
16.67456403928393
 30
0.0
 41
0.9969152063605844
 10
37.62276204368419
 20
16.68444362237598
 30
0.0
 41
0.9969152063605844
 10
37.59015732119204
 20
16.6872248669682
 30
0.0
 41
0.9969152063605844
 10
37.55859813975448
 20
16.68935076424927
 30
0.0
 41
0.9969152063605844
 10
37.52678365952485
 20
16.69006314501586
 30
0.0
 41
0.9969152063605844
 10
37.49499760354507
 20
16.69005590493862
 30
0.0
 41
0.9969152063605844
 10
37.46321134324057
 20
16.68945851608331
 30
0.0
 41
0.9969152063605844
 10
37.43143903538504
 20
16.68838027936225
 30
0.0
 41
0.9969152063605844
 10
37.39968388956686
 20
16.68687757176366
 30
0.0
 41
0.9969152063605844
 10
37.3679497686233
 20
16.68498332018336
 30
0.0
 41
0.9969152063605844
 10
37.33624038993927
 20
16.68271244759038
 30
0.0
 41
0.9969152063605844
 10
37.30456019391295
 20
16.68006527209869
 30
0.0
 41
0.9969152063605844
 10
37.27291497335392
 20
16.67702755148358
 30
0.0
 41
0.9969152063605844
 10
37.24131326921029
 20
16.67356724799707
 30
0.0
 41
0.9969152063605844
 10
37.20976625646648
 20
16.66962901339482
 30
0.0
 41
0.9969152063605844
 10
37.17830354881144
 20
16.66510668238578
 30
0.0
 41
0.9969152063605844
 10
37.1469152559746
 20
16.65986802452719
 30
0.0
 41
0.9969152063605844
 10
37.11598107983556
 20
16.65326665505032
 30
0.0
 41
0.9969152063605844
 10
37.08410541549699
 20
16.64586763613739
 30
0.0
 41
0.9969152063605844
 10
37.07366718151778
 20
16.63438341184875
 30
0.0
 41
0.9969152063605844
  0
SPLINE
  5
7C
330
1F
100
AcDbEntity
  8
Layer 01
370
    -3
100
AcDbSpline
210
0.0
220
0.0
230
1.0
 70
     8
 71
     2
 72
    23
 73
    20
 74
     0
 42
0.000000001
 43
0.0000000001
 40
0.0
 40
0.0
 40
0.0
 40
1.0
 40
2.0
 40
3.0
 40
4.0
 40
5.0
 40
6.0
 40
7.0
 40
8.0
 40
9.0
 40
10.0
 40
11.0
 40
12.0
 40
13.0
 40
14.0
 40
15.0
 40
16.0
 40
17.0
 40
18.0
 40
18.0
 40
18.0
 10
37.11271244109375
 20
16.51157057581248
 30
0.0
 10
37.12046489887962
 20
16.52262372722572
 30
0.0
 10
37.14954331926643
 20
16.52919058695273
 30
0.0
 10
37.17719433584847
 20
16.53517384448929
 30
0.0
 10
37.205359435464
 20
16.53988611466478
 30
0.0
 10
37.23357511225728
 20
16.54395406231266
 30
0.0
 10
37.26187012524696
 20
16.54749313942326
 30
0.0
 10
37.29021406821238
 20
16.55060113538062
 30
0.0
 10
37.31859735588552
 20
16.55332821740295
 30
0.0
 10
37.34701215857547
 20
16.55570351116226
 30
0.0
 10
37.37545325168546
 20
16.55773992852954
 30
0.0
 10
37.40391660365856
 20
16.55943716558602
 30
0.0
 10
37.43239888627102
 20
16.56078166508069
 30
0.0
 10
37.46089649172046
 20
16.56174343627567
 30
0.0
 10
37.48940711863986
 20
16.56227140709182
 30
0.0
 10
37.51791434019449
 20
16.56226423601117
 30
0.0
 10
37.54646458693048
 20
16.56161205008497
 30
0.0
 10
37.57467933930485
 20
16.55962455104355
 30
0.0
 10
37.60443389268815
 20
16.55727493517151
 30
0.0
 10
37.61356583006946
 20
16.54737642457878
 30
0.0
  0
SPLINE
  5
7D
330
1F
100
AcDbEntity
  8
Layer 01
370
    -3
100
AcDbSpline
210
0.0
220
0.0
230
1.0
 70
     8
 71
     2
 72
    56
 73
    53
 74
     0
 42
0.000000001
 43
0.0000000001
 40
-0.7173984775307034
 40
-0.7173984775307034
 40
-0.7173984775307034
 40
0.0
 40
0.0
 40
1.0
 40
2.0
 40
3.0
 40
4.0
 40
5.0
 40
6.0
 40
7.0
 40
8.0
 40
9.0
 40
10.0
 40
11.0
 40
12.0
 40
13.0
 40
13.0
 40
29.25833668380671
 40
29.25833668380671
 40
29.36390865402546
 40
29.36390865402546
 40
30.36390865402546
 40
31.36390865402546
 40
32.36390865402546
 40
33.36390865402546
 40
34.36390865402546
 40
35.36390865402546
 40
36.36390865402546
 40
37.36390865402546
 40
38.36390865402546
 40
39.36390865402546
 40
40.36390865402546
 40
41.36390865402546
 40
42.36390865402546
 40
42.36390865402546
 40
42.46948062424421
 40
42.46948062424421
 40
58.7251294454252
 40
58.7251294454252
 40
59.7251294454252
 40
60.7251294454252
 40
61.7251294454252
 40
62.7251294454252
 40
63.7251294454252
 40
64.7251294454252
 40
65.7251294454252
 40
66.7251294454252
 40
67.7251294454252
 40
68.7251294454252
 40
69.7251294454252
 40
70.7251294454252
 40
71.64681544186337
 40
71.64681544186337
 40
71.64681544186337
 10
30.43127742608007
 20
16.90553816460659
 30
0.0
 10
30.20459867992562
 20
16.93835432210585
 30
0.0
 10
29.97791993377118
 20
16.97117047960511
 30
0.0
 10
29.91681516449233
 20
16.97983805408655
 30
0.0
 10
29.79338091284291
 20
16.97191424124713
 30
0.0
 10
29.67602550312631
 20
16.93305171781083
 30
0.0
 10
29.56901433889252
 20
16.87165507383707
 30
0.0
 10
29.47197331010335
 20
16.79569322575097
 30
0.0
 10
29.38426430673542
 20
16.70920503137491
 30
0.0
 10
29.30526069521329
 20
16.61473682733052
 30
0.0
 10
29.23402549170982
 20
16.51431012377311
 30
0.0
 10
29.16996846370091
 20
16.40917213479539
 30
0.0
 10
29.11268379681266
 20
16.30020408599973
 30
0.0
 10
29.06192619315095
 20
16.18805132055072
 30
0.0
 10
29.01757468313198
 20
16.07321683979282
 30
0.0
 10
28.97960904251156
 20
15.95611690724615
 30
0.0
 10
28.96385208453
 20
15.89661774925552
 30
0.0
 10
26.88724749047341
 20
8.05472127296957
 30
0.0
 10
24.81064289641682
 20
0.2128247966836199
 30
0.0
 10
24.7885027390038
 20
0.1650241963010828
 30
0.0
 10
24.76636258159078
 20
0.1172235959185457
 30
0.0
 10
24.75262429671389
 20
0.0874182612642695
 30
0.0
 10
24.69572170762794
 20
0.0587018945581403
 30
0.0
 10
24.6331897356464
 20
0.0501833755848794
 30
0.0
 10
24.5706720053995
 20
0.0451427792768009
 30
0.0
 10
24.50786547320038
 20
0.0465051743863589
 30
0.0
 10
24.44548929960132
 20
0.0537621197787463
 30
0.0
 10
24.38408370190268
 20
0.0669319358032133
 30
0.0
 10
24.32420784898474
 20
0.0858785367233224
 30
0.0
 10
24.26641497449114
 20
0.1104434348452579
 30
0.0
 10
24.21116544435341
 20
0.1403433411579847
 30
0.0
 10
24.15933576578348
 20
0.1756641624375834
 30
0.0
 10
24.10921500110322
 20
0.2140141325341144
 30
0.0
 10
24.07398200466614
 20
0.2671288340536489
 30
0.0
 10
24.07679526565499
 20
0.2998272123415049
 30
0.0
 10
24.08138552161967
 20
0.3529688592636534
 30
0.0
 10
24.08597577758434
 20
0.4061105061858019
 30
0.0
 10
26.16256452763119
 20
8.247946224241781
 30
0.0
 10
28.23915327767804
 20
16.08978194229776
 30
0.0
 10
28.26151992134976
 20
16.17401114496326
 30
0.0
 10
28.31480940159474
 20
16.33740763800467
 30
0.0
 10
28.37735159740836
 20
16.49749418334665
 30
0.0
 10
28.44926650614644
 20
16.65359937906936
 30
0.0
 10
28.53070584164828
 20
16.80496023953609
 30
0.0
 10
28.6218771912101
 20
16.95067573709988
 30
0.0
 10
28.72309324235025
 20
17.08961617600952
 30
0.0
 10
28.83465181716659
 20
17.22041660144711
 30
0.0
 10
28.95677242829527
 20
17.34144247314469
 30
0.0
 10
29.08955626161506
 20
17.45070160355576
 30
0.0
 10
29.2328604265345
 20
17.54580133796728
 30
0.0
 10
29.38604311809007
 20
17.62408213849919
 30
0.0
 10
29.54154304788426
 20
17.68025578214814
 30
0.0
 10
29.61889359632215
 20
17.69752611570017
 30
0.0
  0
SPLINE
  5
7E
330
1F
100
AcDbEntity
  8
Layer 01
370
    -3
100
AcDbSpline
210
0.0
220
0.0
230
1.0
 70
    12
 71
     2
 72
    20
 73
    17
 74
     0
 42
0.000000001
 43
0.0000000001
 40
0.0
 40
0.0
 40
0.0
 40
1.0
 40
2.0
 40
3.0
 40
4.0
 40
5.0
 40
6.0
 40
7.0
 40
8.0
 40
9.0
 40
10.0
 40
11.0
 40
12.0
 40
13.0
 40
13.0
 40
13.90934713139221
 40
13.90934713139221
 40
13.90934713139221
 10
31.02400880755812
 20
16.91340490781707
 30
0.0
 41
1.0
 10
31.05347919242021
 20
16.94116694774587
 30
0.0
 41
1.0
 10
31.09907513154917
 20
17.00808169461376
 30
0.0
 41
1.0
 10
31.12909610319298
 20
17.08329348508853
 30
0.0
 41
1.0
 10
31.14192090478019
 20
17.16324982318959
 30
0.0
 41
1.0
 10
31.13727865124173
 20
17.24407520013241
 30
0.0
 41
1.0
 10
31.11643400484238
 20
17.32227142322746
 30
0.0
 41
1.0
 10
31.08030638009762
 20
17.39468836511971
 30
0.0
 41
1.0
 10
31.0306901346554
 20
17.45859439056876
 30
0.0
 41
1.0
 10
30.96994164677301
 20
17.51199653106413
 30
0.0
 41
1.0
 10
30.9010356161242
 20
17.55425635097075
 30
0.0
 41
1.0
 10
30.82644256600148
 20
17.58529209356914
 30
0.0
 41
1.0
 10
30.748638502793
 20
17.60683751533774
 30
0.0
 41
1.0
 10
30.66930200071289
 20
17.62152574991697
 30
0.0
 41
1.0
 10
30.62931915819227
 20
17.62713833965838
 30
0.0
 41
1.0
 10
30.34196879422465
 20
17.66873789412368
 30
0.0
 41
1.0
 10
30.05461843025703
 20
17.71033744858898
 30
0.0
 41
1.0
  0
SPLINE
  5
7F
330
1F
100
AcDbEntity
  8
Layer 01
370
    -3
100
AcDbSpline
210
0.0
220
0.0
230
1.0
 70
    12
 71
     2
 72
    10
 73
     7
 74
     0
 42
0.000000001
 43
0.0000000001
 40
-1.172312665114529
 40
-1.172312665114529
 40
-1.172312665114529
 40
-0.5890486225480862
 40
-0.5890486225480862
 40
-0.2393348717091717
 40
-0.2393348717091717
 40
0.0
 40
0.0
 40
0.0
 10
24.08575399036001
 20
0.4051308879506684
 30
0.0
 41
0.9943039465375694
 10
24.09684746530759
 20
0.4269030584253647
 30
0.0
 41
0.7099830535101778
 10
24.45433864868778
 20
0.3322361833923608
 30
0.0
 41
1.0
 10
24.63855244820237
 20
0.283454715348558
 30
0.0
 41
0.8261114919453466
 10
24.74460625355427
 20
0.2450847618630765
 30
0.0
 41
0.8586955909108764
 10
24.81266510339135
 20
0.2204612710429255
 30
0.0
 41
0.880995289241201
 10
24.81064289641802
 20
0.2128247966828525
 30
0.0
 41
1.0
  0
LINE
  5
80
330
1F
100
AcDbEntity
  8
Layer 01
370
    -3
100
AcDbLine
 10
40.40635494276506
 20
18.02800491790935
 30
0.0
 11
38.45295037552285
 21
17.67641200189924
 31
0.0
  0
SPLINE
  5
81
330
1F
100
AcDbEntity
  8
Layer 01
370
    -3
100
AcDbSpline
210
0.0
220
0.0
230
1.0
 70
     8
 71
     3
 72
   116
 73
   112
 74
     0
 42
0.000000001
 43
0.0000000001
 40
-0.4059190034543036
 40
-0.4059190034543036
 40
-0.4059190034543036
 40
-0.4059190034543036
 40
-0.3712877047376512
 40
-0.3248767416454099
 40
-0.2784657785532245
 40
-0.232054815461039
 40
-0.1856438523687977
 40
-0.1392328892766122
 40
-0.0928219261844267
 40
-0.0464109630922022
 40
0.0
 40
0.0
 40
0.0
 40
0.1080678847771992
 40
0.2161357695544339
 40
0.3242036543316331
 40
0.3242036543316331
 40
0.3242036543316331
 40
1.324203654331633
 40
1.324203654331633
 40
2.324203654331633
 40
2.324203654331633
 40
3.324203654331633
 40
3.324203654331633
 40
4.324203654331633
 40
4.324203654331633
 40
5.324203654331633
 40
5.324203654331633
 40
6.324203654331633
 40
6.324203654331633
 40
7.324203654331633
 40
7.324203654331633
 40
8.324203654331633
 40
8.324203654331633
 40
9.324203654331633
 40
9.324203654331633
 40
10.32420365433163
 40
10.32420365433163
 40
11.32420365433163
 40
11.32420365433163
 40
11.32420365433163
 40
12.32420365433163
 40
12.32420365433163
 40
13.32420365433163
 40
13.32420365433163
 40
14.32420365433163
 40
14.32420365433163
 40
15.32420365433163
 40
15.32420365433163
 40
16.32420365433163
 40
16.32420365433163
 40
17.32420365433163
 40
17.32420365433163
 40
18.32420365433163
 40
18.32420365433163
 40
19.32420365433163
 40
19.32420365433163
 40
20.32420365433163
 40
20.32420365433163
 40
21.32420365433163
 40
21.32420365433163
 40
22.32420365433163
 40
22.32420365433163
 40
22.32420365433163
 40
23.32420365433163
 40
23.32420365433163
 40
24.32420365433163
 40
24.32420365433163
 40
25.32420365433163
 40
25.32420365433163
 40
26.32420365433163
 40
26.32420365433163
 40
27.32420365433163
 40
27.32420365433163
 40
28.32420365433163
 40
28.32420365433163
 40
29.32420365433163
 40
29.32420365433163
 40
30.32420365433163
 40
30.32420365433163
 40
31.32420365433163
 40
31.32420365433163
 40
32.32420365433163
 40
32.32420365433163
 40
33.32420365433163
 40
33.32420365433163
 40
33.32420365433163
 40
34.32420365433163
 40
34.32420365433163
 40
34.32420365433163
 40
35.32420365433163
 40
35.32420365433163
 40
36.32420365433163
 40
36.32420365433163
 40
37.32420365433163
 40
37.32420365433163
 40
38.32420365433163
 40
38.32420365433163
 40
39.32420365433163
 40
39.32420365433163
 40
40.32420365433163
 40
40.32420365433163
 40
41.32420365433163
 40
41.32420365433163
 40
42.32420365433163
 40
42.32420365433163
 40
43.32420365433163
 40
43.32420365433163
 40
44.32420365433163
 40
44.32420365433163
 40
45.32420365433163
 40
45.32420365433163
 40
45.32420365433163
 40
45.32420365433163
 10
31.02247011511588
 20
16.91225043676958
 30
0.0
 10
31.03450013665778
 20
16.91929020662403
 30
0.0
 10
31.06056394881446
 20
16.93688942799911
 30
0.0
 10
31.09351836045516
 20
16.96646998993752
 30
0.0
 10
31.12172319894418
 20
17.00002674248091
 30
0.0
 10
31.14335762143918
 20
17.03389448453911
 30
0.0
 10
31.15929902554416
 20
17.06700112566511
 30
0.0
 10
31.17049552160216
 20
17.09858841220821
 30
0.0
 10
31.17787262285216
 20
17.12846710609382
 30
0.0
 10
31.18211703899917
 20
17.15565630499751
 30
0.0
 10
31.18344340667417
 20
17.17294754929231
 30
0.0
 10
31.18378367703116
 20
17.18126137654541
 30
0.0
 10
31.18527102107117
 20
17.21722342004642
 30
0.0
 10
31.18824484911917
 20
17.28913047525111
 30
0.0
 10
31.19270301058518
 20
17.39693995859572
 30
0.0
 10
31.19567339778817
 20
17.46877888354431
 30
0.0
 10
31.19715816121516
 20
17.50468982935331
 30
0.0
 10
31.19734664219716
 20
17.50912366091214
 30
0.0
 10
31.1978424819027
 20
17.51352297557646
 30
0.0
 10
31.19944887876083
 20
17.52225257111605
 30
0.0
 10
31.20055889582114
 20
17.52653802981845
 30
0.0
 10
31.20339256720426
 20
17.53495026908847
 30
0.0
 10
31.2051009840099
 20
17.53903435561282
 30
0.0
 10
31.20910097984932
 20
17.54695846244017
 30
0.0
 10
31.21137222202228
 20
17.55075836043606
 30
0.0
 10
31.21645719487466
 20
17.5580338455923
 30
0.0
 10
31.21924229686771
 20
17.56147506479553
 30
0.0
 10
31.22529773198751
 20
17.56796445645217
 30
0.0
 10
31.22853550738423
 20
17.57098375295326
 30
0.0
 10
31.23543117385134
 20
17.57657154730097
 30
0.0
 10
31.23905243226899
 20
17.57911856526673
 30
0.0
 10
31.2466417994725
 20
17.58371884278203
 30
0.0
 10
31.25057198885287
 20
17.5857574831794
 30
0.0
 10
31.25870337917087
 20
17.58931176725357
 30
0.0
 10
31.26286697305636
 20
17.59081772425782
 30
0.0
 10
31.27138995828031
 20
17.59328726820065
 30
0.0
 10
31.27571230120438
 20
17.59424756726055
 30
0.0
 10
31.28447868767668
 20
17.59561921955729
 30
0.0
 10
31.28888737122956
 20
17.59603155900852
 30
0.0
 10
31.29332154509916
 20
17.59617041176261
 30
0.0
 10
31.5088575506111
 20
17.60094181110628
 30
0.0
 10
31.72436023493093
 20
17.60689266866939
 30
0.0
 10
32.15529896118635
 20
17.62115330023452
 30
0.0
 10
32.37076966343659
 20
17.6282259856513
 30
0.0
 10
32.80171374618214
 20
17.64225609575328
 30
0.0
 10
33.01720067181068
 20
17.64878933124475
 30
0.0
 10
33.44820429157929
 20
17.66089216310868
 30
0.0
 10
33.66372071884522
 20
17.66636763912836
 30
0.0
 10
34.09478280814036
 20
17.67616671134317
 30
0.0
 10
34.31032444481422
 20
17.6805413721248
 30
0.0
 10
34.74142890221456
 20
17.68824094303647
 30
0.0
 10
34.95698759076277
 20
17.69168005276262
 30
0.0
 10
35.38811788755529
 20
17.69773692075553
 30
0.0
 10
35.60368591991692
 20
17.7005340810646
 30
0.0
 10
36.0348277525709
 20
17.70566585430793
 30
0.0
 10
36.25040025499856
 20
17.70811944956454
 30
0.0
 10
36.6815484320552
 20
17.71280205734764
 30
0.0
 10
36.89711559732097
 20
17.71559881825047
 30
0.0
 10
37.32823608132737
 20
17.72210325407868
 30
0.0
 10
37.54382685137944
 20
17.72350420424153
 30
0.0
 10
37.97506944758129
 20
17.72260356906471
 30
0.0
 10
38.1908326344621
 20
17.71553906050659
 30
0.0
 10
38.4067377101228
 20
17.70186036097878
 30
0.0
 10
38.41148000242129
 20
17.70160881567633
 30
0.0
 10
38.41579928971291
 20
17.70089635301432
 30
0.0
 10
38.42359185428247
 20
17.69854959297121
 30
0.0
 10
38.42732642819751
 20
17.69699237175216
 30
0.0
 10
38.43447215928811
 20
17.69311024691911
 30
0.0
 10
38.43784110646189
 20
17.69086602023158
 30
0.0
 10
38.44417116406638
 20
17.68577123831449
 30
0.0
 10
38.44712113145979
 20
17.68299674307229
 30
0.0
 10
38.45259094342894
 20
17.67699354402055
 30
0.0
 10
38.45510749687219
 20
17.6738200318388
 30
0.0
 10
38.45970389867608
 20
17.66712918216356
 30
0.0
 10
38.46181452732296
 20
17.66366998918626
 30
0.0
 10
38.46566064010662
 20
17.65652406695231
 30
0.0
 10
38.46738872127355
 20
17.65285957541876
 30
0.0
 10
38.47045493315761
 20
17.64534753151849
 30
0.0
 10
38.47181085385743
 20
17.64152897265479
 30
0.0
 10
38.47416832477266
 20
17.63376678110025
 30
0.0
 10
38.47517669410765
 20
17.62984203313057
 30
0.0
 10
38.47685270053235
 20
17.62190523280641
 30
0.0
 10
38.47752455149368
 20
17.61790897278606
 30
0.0
 10
38.47853594891429
 20
17.60986073302884
 30
0.0
 10
38.47887635258104
 20
17.60582269521608
 30
0.0
 10
38.47905146120422
 20
17.60177073946917
 30
0.0
 10
38.48203486233959
 20
17.53273582185187
 30
0.0
 10
38.48409106350951
 20
17.4118556468479
 30
0.0
 10
38.48707372138117
 20
17.34282068346541
 30
0.0
 10
38.48750848769567
 20
17.33280762560868
 30
0.0
 10
38.48819786701603
 20
17.32281209533352
 30
0.0
 10
38.49008585166845
 20
17.30285608994635
 30
0.0
 10
38.49128630451927
 20
17.29290901119776
 30
0.0
 10
38.49420013127015
 20
17.27307670159055
 30
0.0
 10
38.4959124580711
 20
17.26320486713939
 30
0.0
 10
38.49984793852401
 20
17.24354983894198
 30
0.0
 10
38.50207089223881
 20
17.23378033885765
 30
0.0
 10
38.50702722664513
 20
17.21435736671777
 30
0.0
 10
38.50976490414656
 20
17.20471951072072
 30
0.0
 10
38.51575927974593
 20
17.18559105887241
 30
0.0
 10
38.51901999606134
 20
17.17611743765018
 30
0.0
 10
38.52606848572358
 20
17.15735140460956
 30
0.0
 10
38.52986284243007
 20
17.14807875079633
 30
0.0
 10
38.53799177959377
 20
17.12975416858404
 30
0.0
 10
38.54233526074341
 20
17.12072587338897
 30
0.0
 10
38.5515802481782
 20
17.10293727482097
 30
0.0
 10
38.55649355239463
 20
17.0942062774686
 30
0.0
 10
38.56690178182553
 20
17.07707088662711
 30
0.0
 10
38.57241219247646
 20
17.06870427049993
 30
0.0
 10
38.58404560564929
 20
17.05237319683272
 30
0.0
 10
38.5901878836961
 20
17.04445997369588
 30
0.0
 10
38.59665573320331
 20
17.03679906425582
 30
0.0
  0
SPLINE
  5
82
330
1F
100
AcDbEntity
  8
Layer 01
370
    -3
100
AcDbSpline
210
0.0
220
0.0
230
1.0
 70
    24
 71
     2
 72
     6
 73
     3
 74
     0
 42
0.000000001
 43
0.0000000001
 40
0.4288739018910066
 40
0.4288739018910066
 40
0.4288739018910066
 40
0.5768962557733565
 40
0.5768962557733565
 40
0.5768962557733565
 10
39.35836053530878
 20
17.08084060066684
 30
0.0
 10
39.36094347217032
 20
17.00687450877746
 30
0.0
 10
39.36352640903186
 20
16.93290841688809
 30
0.0
  0
SPLINE
  5
83
330
1F
100
AcDbEntity
  8
Layer 01
370
    -3
100
AcDbSpline
210
0.0
220
0.0
230
1.0
 70
     8
 71
     2
 72
    50
 73
    47
 74
     0
 42
0.000000001
 43
0.0000000001
 40
0.0
 40
0.0
 40
0.0
 40
1.0
 40
2.0
 40
3.0
 40
4.0
 40
5.0
 40
6.0
 40
7.0
 40
7.0
 40
7.077209622780267
 40
7.077209622780267
 40
8.075003024357194
 40
9.075003024357194
 40
10.07500302435719
 40
11.07500302435719
 40
12.07500302435719
 40
13.07500302435719
 40
14.07500302435719
 40
15.07500302435719
 40
15.07500302435719
 40
16.07500302435719
 40
17.07500302435719
 40
18.07500302435719
 40
19.07500302435719
 40
20.07500302435719
 40
21.07500302435719
 40
22.07500302435719
 40
23.07500302435719
 40
23.07500302435719
 40
24.07500302435719
 40
25.07500302435719
 40
26.07500302435719
 40
27.07500302435719
 40
28.07500302435719
 40
28.07500302435719
 40
29.07500302435719
 40
30.07500302435719
 40
31.07500302435719
 40
32.07500302435719
 40
33.07500302435719
 40
34.07500302435719
 40
35.07500302435719
 40
36.07500302435719
 40
37.07500302435719
 40
38.07500302435719
 40
39.07500302435719
 40
39.07500302435719
 40
39.07500302435719
 10
29.11634749823682
 20
16.30625718735092
 30
0.0
 10
29.17744727997268
 20
16.29839882783261
 30
0.0
 10
29.29939320128139
 20
16.2808205033351
 30
0.0
 10
29.42098248468969
 20
16.26089253073303
 30
0.0
 10
29.54199522203371
 20
16.23779478443399
 30
0.0
 10
29.66186971692662
 20
16.20860006893055
 30
0.0
 10
29.77550936775367
 20
16.16061520433588
 30
0.0
 10
29.88360694886629
 20
16.10017857972788
 30
0.0
 10
29.92646523913783
 20
16.05545652212557
 30
0.0
 10
29.92977431156272
 20
16.05200354892813
 30
0.0
 10
29.93308338398762
 20
16.04855057573068
 30
0.0
 10
30.54049696853772
 20
16.02334693437617
 30
0.0
 10
31.757272433244
 20
16.04742122942032
 30
0.0
 10
32.97417141785263
 20
16.10299834687354
 30
0.0
 10
34.19008299581475
 20
16.17693515408448
 30
0.0
 10
35.40519184228563
 20
16.2629170916629
 30
0.0
 10
36.61971378425085
 20
16.35678246313912
 30
0.0
 10
37.83373356652942
 20
16.45692020490396
 30
0.0
 10
39.04735526566429
 20
16.56175991705592
 30
0.0
 10
39.65402125462117
 20
16.61582950031311
 30
0.0
 10
39.67392845303777
 20
16.61762258422394
 30
0.0
 10
39.70993646270173
 20
16.63499390254473
 30
0.0
 10
39.7374578053259
 20
16.66395956996248
 30
0.0
 10
39.75315340320196
 20
16.70082736406285
 30
0.0
 10
39.75380303236597
 20
16.74056334114431
 30
0.0
 10
39.74750837388211
 20
16.77984293447444
 30
0.0
 10
39.72722820046832
 20
16.81436030602601
 30
0.0
 10
39.694293302153
 20
16.84076508144181
 30
0.0
 10
39.67512616718574
 20
16.84644406494701
 30
0.0
 10
39.5706847931564
 20
16.87738874402329
 30
0.0
 10
39.36049791250838
 20
16.93481850010464
 30
0.0
 10
39.14813330523947
 20
16.98361473184204
 30
0.0
 10
38.9318155503874
 20
17.01078907657222
 30
0.0
 10
38.71009076507724
 20
17.03011663841277
 30
0.0
 10
38.60132323943529
 20
17.03627621647404
 30
0.0
 10
38.19357341557847
 20
17.05936736297836
 30
0.0
 10
37.37222385667957
 20
17.05337545521768
 30
0.0
 10
36.55583514715869
 20
17.03984557340796
 30
0.0
 10
35.73942862612569
 20
17.02635393836566
 30
0.0
 10
34.92306060807678
 20
17.01083543666008
 30
0.0
 10
34.10673841975839
 20
16.9930468462585
 30
0.0
 10
33.29048346589283
 20
16.97235908415839
 30
0.0
 10
32.47433768001338
 20
16.94782579427841
 30
0.0
 10
31.65818205249616
 20
16.92331007638656
 30
0.0
 10
30.84177834786141
 20
16.90969466504708
 30
0.0
 10
30.02531127581668
 20
16.89899155479587
 30
0.0
 10
29.61706943981716
 20
16.90035821929407
 30
0.0
  0
SPLINE
  5
84
330
1F
100
AcDbEntity
  8
Layer 01
370
    -3
100
AcDbSpline
210
0.0
220
0.0
230
1.0
 70
     8
 71
     2
 72
    24
 73
    21
 74
     0
 42
0.000000001
 43
0.0000000001
 40
0.0
 40
0.0
 40
0.0
 40
1.0
 40
2.0
 40
3.0
 40
4.0
 40
5.0
 40
6.0
 40
7.0
 40
7.0
 40
8.0
 40
9.0
 40
10.0
 40
11.0
 40
12.0
 40
13.0
 40
14.0
 40
15.0
 40
16.0
 40
17.0
 40
18.0
 40
18.0
 40
18.0
 10
39.65402125462117
 20
16.61582950031311
 30
0.0
 10
39.50688064862121
 20
16.65835927074888
 30
0.0
 10
39.21035456106904
 20
16.73894252261636
 30
0.0
 10
38.90582860607913
 20
16.77918982467031
 30
0.0
 10
38.59978746557121
 20
16.80225202986454
 30
0.0
 10
38.29317176963832
 20
16.81559640181682
 30
0.0
 10
37.98633798478036
 20
16.8218288008577
 30
0.0
 10
37.67944507079528
 20
16.82188827069269
 30
0.0
 10
37.52601432660117
 20
16.81981476315242
 30
0.0
 10
37.15476385657189
 20
16.81433716011813
 30
0.0
 10
36.41226851787667
 20
16.80301249553474
 30
0.0
 10
35.66978879076865
 20
16.79069944114175
 30
0.0
 10
34.9273352500461
 20
16.77688623410074
 30
0.0
 10
34.18492043401625
 20
16.76111818593946
 30
0.0
 10
33.44256651662121
 20
16.74269022320034
 30
0.0
 10
32.7002912797125
 20
16.72133429693446
 30
0.0
 10
31.95806729572763
 20
16.69831214068602
 30
0.0
 10
31.21568190482694
 20
16.68044473756173
 30
0.0
 10
30.47321232129212
 20
16.67183790322715
 30
0.0
 10
29.73039214859784
 20
16.65555130334786
 30
0.0
 10
29.35991344642184
 20
16.68114267494328
 30
0.0
  0
SPLINE
  5
85
330
1F
100
AcDbEntity
  8
Layer 01
370
    -3
100
AcDbSpline
210
0.0
220
0.0
230
1.0
 70
    12
 71
     3
 72
    94
 73
    90
 74
     0
 42
0.000000001
 43
0.0000000001
 40
-2.658397154661755
 40
-2.658397154661755
 40
-2.658397154661755
 40
-2.658397154661755
 40
0.0
 40
0.0
 40
0.0
 40
0.1770281234621098
 40
0.1770281234621098
 40
0.1770281234621098
 40
1.17702812346211
 40
1.17702812346211
 40
2.17702812346211
 40
2.17702812346211
 40
3.17702812346211
 40
3.17702812346211
 40
4.17702812346211
 40
4.17702812346211
 40
5.17702812346211
 40
5.17702812346211
 40
6.17702812346211
 40
6.17702812346211
 40
7.17702812346211
 40
7.17702812346211
 40
8.17702812346211
 40
8.17702812346211
 40
9.17702812346211
 40
9.17702812346211
 40
10.17702812346211
 40
10.17702812346211
 40
10.17702812346211
 40
26.24362638452313
 40
26.24362638452313
 40
26.24362638452313
 40
26.34919835470212
 40
26.34919835470212
 40
26.34919835470212
 40
27.34919676922633
 40
27.34919676922633
 40
28.34919690242236
 40
28.34919690242236
 40
29.34919703561838
 40
29.34919703561838
 40
30.3491971688144
 40
30.3491971688144
 40
31.34919730201043
 40
31.34919730201043
 40
32.34919743520645
 40
32.34919743520645
 40
33.34919756840247
 40
33.34919756840247
 40
34.3491977015985
 40
34.3491977015985
 40
35.34919783479452
 40
35.34919783479452
 40
36.34919796799055
 40
36.34919796799055
 40
37.34919810118657
 40
37.34919810118657
 40
38.3491982343826
 40
38.3491982343826
 40
39.34919836757862
 40
39.34919836757862
 40
40.34919850077465
 40
40.34919850077465
 40
41.34919863397067
 40
41.34919863397067
 40
42.34919835470212
 40
42.34919835470212
 40
42.34919835470212
 40
42.45477032492087
 40
42.45477032492087
 40
42.45477032492087
 40
58.5241954249334
 40
58.5241954249334
 40
58.5241954249334
 40
59.5241954249334
 40
59.5241954249334
 40
60.5241954249334
 40
60.5241954249334
 40
61.5241954249334
 40
61.5241954249334
 40
62.5241954249334
 40
62.5241954249334
 40
63.5241954249334
 40
63.5241954249334
 40
64.5241954249334
 40
64.5241954249334
 40
65.5241954249334
 40
65.5241954249334
 40
66.5241954249334
 40
66.5241954249334
 40
66.5241954249334
 40
66.5241954249334
 10
38.94365443626378
 20
17.00619772888624
 30
0.0
 41
1.0
 10
39.46189218796391
 20
17.0994752431092
 30
0.0
 41
1.0
 10
39.98012993966404
 20
17.19275275733215
 30
0.0
 41
1.0
 10
40.49836769136417
 20
17.28603027155511
 30
0.0
 41
1.0
 10
40.52263830818821
 20
17.29039873525501
 30
0.0
 41
0.9865511960284515
 10
40.54717703196608
 20
17.29274479098586
 30
0.0
 41
0.974036248653837
 10
40.57192289267386
 20
17.29298271670013
 30
0.0
 41
0.9624551578761563
 10
40.61749822469699
 20
17.29315349154634
 30
0.0
 41
0.9624551578761563
 10
40.65962039939355
 20
17.28167984372635
 30
0.0
 41
0.9624551578761563
 10
40.73695843413354
 20
17.23544370275397
 30
0.0
 41
0.9624551578761563
 10
40.77143953937583
 20
17.20758857985071
 30
0.0
 41
0.9624551578761563
 10
40.83202592560507
 20
17.14240422921006
 30
0.0
 41
0.9624551578761563
 10
40.86000366039717
 20
17.10798656430041
 30
0.0
 41
0.9624551578761563
 10
40.91132821333628
 20
17.03550025530246
 30
0.0
 41
0.9624551578761563
 10
40.93472868277873
 20
16.99785272771465
 30
0.0
 41
0.9624551578761563
 10
40.97700600760944
 20
16.91974892636136
 30
0.0
 41
0.9624551578761563
 10
40.99622434702119
 20
16.87978383965689
 30
0.0
 41
0.9624551578761563
 10
41.03082037983748
 20
16.79802729419231
 30
0.0
 41
0.9624551578761563
 10
41.04649105436346
 20
16.75653842060811
 30
0.0
 41
0.9624551578761563
 10
41.07457771965103
 20
16.67233947173589
 30
0.0
 41
0.9624551578761563
 10
41.08716369147955
 20
16.62981073031519
 30
0.0
 41
0.9624551578761563
 10
41.10942091350609
 20
16.54389471350462
 30
0.0
 41
0.9624551578761563
 10
41.11919300728364
 20
16.50063134674775
 30
0.0
 41
0.9624551578761563
 10
41.13602416036729
 20
16.41349389653086
 30
0.0
 41
0.9624551578761563
 10
41.14313441343495
 20
16.36971361701077
 30
0.0
 41
0.9624551578761563
 10
41.1547442726219
 20
16.28172994914729
 30
0.0
 41
0.9624551578761563
 10
41.1592575085399
 20
16.23760610412028
 30
0.0
 41
0.9624551578761563
 10
41.16247905078243
 20
16.19335024799801
 30
0.0
 41
0.9624551578761563
 10
41.54893944618708
 20
10.8710926246465
 30
0.0
 41
0.9624551578761563
 10
41.93539984159172
 20
5.548835001294993
 30
0.0
 41
0.9624551578761563
 10
42.32186023699638
 20
0.2265773779434849
 30
0.0
 41
0.9624551578761562
 10
42.33059556357978
 20
0.1909433481996949
 30
0.0
 41
0.9624551578761562
 10
42.33918952736105
 20
0.156956684335114
 30
0.0
 41
0.9624551578761563
 10
42.34778354302811
 20
0.1229700335905217
 30
0.0
 41
0.9624551578761563
 10
42.3520861483837
 20
0.1060894086637881
 30
0.0
 41
0.9624551578761563
 10
42.36018973962752
 20
0.0913284672486773
 30
0.0
 41
0.9624551578761563
 10
42.38399891435176
 20
0.0660459297154931
 30
0.0
 41
0.9624551578761563
 10
42.39793486652087
 20
0.0565450167924604
 30
0.0
 41
0.9624551578761563
 10
42.42986948001302
 20
0.0438239243597221
 30
0.0
 41
0.9624551578761563
 10
42.44593478073247
 20
0.0379766871651702
 30
0.0
 41
0.9624551578761563
 10
42.47826137011808
 20
0.0273088308197011
 30
0.0
 41
0.9624551578761563
 10
42.49462883073999
 20
0.0226306402886812
 30
0.0
 41
0.9624551578761563
 10
42.52777208384203
 20
0.0145857345100705
 30
0.0
 41
0.9624551578761563
 10
42.54447121786503
 20
0.0112096152110891
 30
0.0
 41
0.9624551578761563
 10
42.57812450085506
 20
0.005750043793774
 30
0.0
 41
0.9624551578761563
 10
42.5950323853467
 20
0.003677914695136
 30
0.0
 41
0.9624551578761563
 10
42.62901064032324
 20
0.0008489697178991
 30
0.0
 41
0.9624551578761563
 10
42.64602883887847
 20
0.0000995325899462
 30
0.0
 41
0.9624551578761563
 10
42.68012337812288
 20
-0.0000692709446286
 30
0.0
 41
0.9624551578761563
 10
42.69714843613185
 20
0.0005057608964817
 30
0.0
 41
0.9624551578761563
 10
42.73115412892335
 20
0.0029746917954975
 30
0.0
 41
0.9624551578761563
 10
42.74808367365509
 20
0.0048650741771299
 30
0.0
 41
0.9624551578761563
 10
42.7817961597905
 20
0.0099576728046436
 30
0.0
 41
0.9624551578761563
 10
42.79852757896588
 20
0.0131577499844962
 30
0.0
 41
0.9624551578761563
 10
42.83174076953204
 20
0.020865460076393
 30
0.0
 41
0.9624551578761563
 10
42.84817196575617
 20
0.0253583510949026
 30
0.0
 41
0.9624551578761563
 10
42.88068356008657
 20
0.0356222050770443
 30
0.0
 41
0.9624551578761563
 10
42.89671981771667
 20
0.0413752631419876
 30
0.0
 41
0.9624551578761563
 10
42.92835325390657
 20
0.0541236414196191
 30
0.0
 41
0.9624551578761563
 10
42.94387322234041
 20
0.0611171987532114
 30
0.0
 41
0.9624551578761563
 10
42.97431965988589
 20
0.076343049809949
 30
0.0
 41
0.9624551578761563
 10
42.98937175978699
 20
0.0844497388000431
 30
0.0
 41
0.9624551578761563
 10
43.01913372184595
 20
0.1016506437036819
 30
0.0
 41
0.9624551578761563
 10
43.03155100130524
 20
0.1130650725131483
 30
0.0
 41
0.9624551578761563
 10
43.05145815297796
 20
0.1415218769786631
 30
0.0
 41
0.9624551578761563
 10
43.05734441773151
 20
0.157298640931403
 30
0.0
 41
0.9624551578761563
 10
43.05916337345495
 20
0.1746237695384816
 30
0.0
 41
0.9624551578761563
 10
43.06275878833541
 20
0.2095774453159789
 30
0.0
 41
0.9624551578761563
 10
43.06635420321586
 20
0.2445311210934761
 30
0.0
 41
0.9624551578761563
 10
43.0699496180963
 20
0.2794847968709734
 30
0.0
 41
0.9624551578761563
 10
42.68346986406317
 20
5.602211635346261
 30
0.0
 41
0.9624551578761563
 10
42.29699011003004
 20
10.92493847382155
 30
0.0
 41
0.9624551578761563
 10
41.91051035599691
 20
16.24766531229684
 30
0.0
 41
0.9624551578761563
 10
41.90358712650982
 20
16.34374810664783
 30
0.0
 41
0.9624551578761563
 10
41.89217630337333
 20
16.43929835432451
 30
0.0
 41
0.9624551578761563
 10
41.86037946980156
 20
16.62933375632923
 30
0.0
 41
0.9624551578761563
 10
41.83967454044726
 20
16.72330168887206
 30
0.0
 41
0.9624551578761563
 10
41.78865165660186
 20
16.90913801703864
 30
0.0
 41
0.9624551578761563
 10
41.75789592513186
 20
17.00030048597579
 30
0.0
 41
0.9624551578761563
 10
41.68589588309729
 20
17.17911403355779
 30
0.0
 41
0.9624551578761563
 10
41.64414733830679
 20
17.26578128464416
 30
0.0
 41
0.9624551578761563
 10
41.54915320117934
 20
17.4336367414076
 30
0.0
 41
0.9624551578761563
 10
41.49515782238998
 20
17.51320859001031
 30
0.0
 41
0.9624551578761563
 10
41.37417044435998
 20
17.66364052765772
 30
0.0
 41
0.9624551578761563
 10
41.30669926566515
 20
17.73208471237545
 30
0.0
 41
0.9624551578761563
 10
41.15780192891588
 20
17.85542951359902
 30
0.0
 41
0.9624551578761563
 10
41.07679659573677
 20
17.90696585453514
 30
0.0
 41
0.9624551578761563
 10
40.90167259976964
 20
17.98976641705607
 30
0.0
 41
0.9624551578761563
 10
40.80996995283225
 20
18.01780403798922
 30
0.0
 41
0.9624551578761563
 10
40.71412665694106
 20
18.03247899859505
 30
0.0
 41
0.9624551578761563
  0
SPLINE
  5
86
330
1F
100
AcDbEntity
  8
Layer 01
370
    -3
100
AcDbSpline
210
0.0
220
0.0
230
1.0
 70
    12
 71
     2
 72
    12
 73
     9
 74
     0
 42
0.000000001
 43
0.0000000001
 40
-0.5970925607520959
 40
-0.5970925607520959
 40
-0.5970925607520959
 40
-0.2985462803760479
 40
-0.2985462803760479
 40
0.0
 40
0.0
 40
0.2962062464811164
 40
0.2962062464811164
 40
0.5924124929622328
 40
0.5924124929622328
 40
0.5924124929622328
 10
42.32200159980738
 20
0.2249300120293398
 30
0.0
 41
1.0
 10
42.31862811570176
 20
0.2382711748812397
 30
0.0
 41
0.9218140701088627
 10
42.42864295844763
 20
0.2559103741308917
 30
0.0
 41
1.0
 10
42.53865780119346
 20
0.2735495733805332
 30
0.0
 41
0.9218140701088627
 10
42.69593816891117
 20
0.2848850279573938
 30
0.0
 41
1.0
 10
42.85184701057388
 20
0.2961216343975016
 30
0.0
 41
0.9230190117422833
 10
42.96159563961405
 20
0.294464802312703
 30
0.0
 41
1.0
 10
43.07134426865424
 20
0.2928079702279182
 30
0.0
 41
0.9230190117422833
 10
43.06994573503755
 20
0.2792387821597728
 30
0.0
 41
1.0
  0
SPLINE
  5
87
330
1F
100
AcDbEntity
  8
Layer 01
370
    -3
100
AcDbSpline
210
0.0
220
0.0
230
1.0
 70
    12
 71
     2
 72
     6
 73
     3
 74
     0
 42
0.000000001
 43
0.0000000001
 40
-1.178097245096172
 40
-1.178097245096172
 40
-1.178097245096172
 40
-1.172312665114529
 40
-1.172312665114529
 40
-1.172312665114529
 10
24.08563246892032
 20
0.4048140672673668
 30
0.0
 41
1.0
 10
24.08567565223628
 20
0.4049771407260869
 30
0.0
 41
0.9971237276763698
 10
24.08575399036001
 20
0.4051308879506684
 30
0.0
 41
0.9943039465375694
  0
SPLINE
  5
88
330
1F
100
AcDbEntity
  8
Layer 01
370
    -3
100
AcDbSpline
210
0.0
220
0.0
230
1.0
 70
    12
 71
     2
 72
    12
 73
     9
 74
     0
 42
0.000000001
 43
0.0000000001
 40
0.7869661797835044
 40
0.7869661797835044
 40
0.7869661797835044
 40
17.85115635306605
 40
17.85115635306605
 40
19.42195267986094
 40
19.42195267986094
 40
20.99274900665584
 40
20.99274900665584
 40
39.68540951821299
 40
39.68540951821299
 40
39.68540951821299
 10
7.185972124843943
 20
42.95754489977246
 30
0.0
 41
1.0
 10
7.919220986558912
 20
42.34193599052966
 30
0.0
 41
1.0
 10
8.652469848273881
 20
41.72632708128686
 30
0.0
 41
1.0
 10
8.93765736616361
 20
41.48689407840827
 30
0.0
 41
0.7071067811865475
 10
9.17878087327719
 20
41.77409514790099
 30
0.0
 41
1.0
 10
9.419904380390763
 20
42.0612962173937
 30
0.0
 41
0.7071067811865475
 10
9.134716862500596
 20
42.30072922027178
 30
0.0
 41
1.0
 10
8.33149257213914
 20
42.97508693848199
 30
0.0
 41
1.0
 10
7.528268281777684
 20
43.64944465669219
 30
0.0
 41
1.0
  0
SPLINE
  5
89
330
1F
100
AcDbEntity
  8
Layer 01
370
    -3
100
AcDbSpline
210
0.0
220
0.0
230
1.0
 70
    11
 71
     2
 72
    82
 73
    79
 74
     0
 42
0.000000001
 43
0.0000000001
 40
0.0
 40
0.0
 40
0.0
 40
1.0
 40
2.0
 40
3.0
 40
4.0
 40
5.0
 40
6.0
 40
7.0
 40
8.0
 40
9.0
 40
10.0
 40
11.0
 40
12.0
 40
13.0
 40
14.0
 40
15.0
 40
16.0
 40
17.0
 40
18.0
 40
19.0
 40
20.0
 40
21.0
 40
22.0
 40
23.0
 40
24.0
 40
25.0
 40
26.0
 40
27.0
 40
28.0
 40
29.0
 40
30.0
 40
31.0
 40
32.0
 40
33.0
 40
34.0
 40
35.0
 40
36.0
 40
37.0
 40
38.0
 40
38.0
 40
39.0
 40
40.0
 40
41.0
 40
42.0
 40
43.0
 40
44.0
 40
45.0
 40
46.0
 40
47.0
 40
48.0
 40
49.0
 40
50.0
 40
51.0
 40
52.0
 40
53.0
 40
54.0
 40
55.0
 40
56.0
 40
57.0
 40
58.0
 40
59.0
 40
60.0
 40
61.0
 40
62.0
 40
63.0
 40
64.0
 40
65.0
 40
66.0
 40
67.0
 40
68.0
 40
69.0
 40
70.0
 40
71.0
 40
72.0
 40
73.0
 40
74.0
 40
75.0
 40
76.0
 40
76.0
 40
76.0
 10
0.0
 20
58.64026764596393
 30
0.0
 10
-0.401827319335041
 20
58.64016491867278
 30
0.0
 10
-1.204952452323823
 20
58.6111588353196
 30
0.0
 10
-2.006640192614157
 20
58.5552050448245
 30
0.0
 10
-2.806159675625196
 20
58.47395994759765
 30
0.0
 10
-3.602551625294637
 20
58.36623700348645
 30
0.0
 10
-4.394721120540453
 20
58.23083876728364
 30
0.0
 10
-5.181084743625547
 20
58.06486979658705
 30
0.0
 10
-5.958984674220005
 20
57.86271015187111
 30
0.0
 10
-6.723966737150647
 20
57.61558180896625
 30
0.0
 10
-7.466269413898317
 20
57.30633494882773
 30
0.0
 10
-8.165949018335994
 20
56.90669248520291
 30
0.0
 10
-8.738330969683943
 20
56.32445595363617
 30
0.0
 10
-8.932490075523162
 20
55.53138105249571
 30
0.0
 10
-8.936432637628457
 20
54.72714264362732
 30
0.0
 10
-8.918795202345478
 20
53.9238404454921
 30
0.0
 10
-8.882870755221575
 20
53.12102944469977
 30
0.0
 10
-8.834015230418288
 20
52.31893836537002
 30
0.0
 10
-8.774196960930453
 20
51.51758820410451
 30
0.0
 10
-8.70459885560706
 20
50.71703108774479
 30
0.0
 10
-8.625821445975674
 20
49.91732542989392
 30
0.0
 10
-8.537930584854848
 20
49.11856978328538
 30
0.0
 10
-8.440632793105607
 20
48.32090419992946
 30
0.0
 10
-8.33322774098724
 20
47.52453432130974
 30
0.0
 10
-8.214291798206943
 20
46.7298026380132
 30
0.0
 10
-8.081830026388303
 20
45.93719094546367
 30
0.0
 10
-7.931821036682209
 20
45.1477701144759
 30
0.0
 10
-7.762889804370872
 20
44.36180745948069
 30
0.0
 10
-7.523839205235561
 20
43.59382900802949
 30
0.0
 10
-7.161907888581709
 20
42.872092322787
 30
0.0
 10
-6.620007614680503
 20
42.27229348610072
 30
0.0
 10
-5.915867167789713
 20
41.87437947577549
 30
0.0
 10
-5.164179980542201
 20
41.5889244209319
 30
0.0
 10
-4.388298327764915
 20
41.3778473572258
 30
0.0
 10
-3.600294415667747
 20
41.21938814348098
 30
0.0
 10
-2.805394764224218
 20
41.1007603967805
 30
0.0
 10
-2.006354587492979
 20
41.01467483513677
 30
0.0
 10
-1.204838964704777
 20
40.95632797256204
 30
0.0
 10
-0.4018310111320602
 20
40.92399525251761
 30
0.0
 10
0.0
 20
40.92326760369076
 30
0.0
 10
0.4018310111320602
 20
40.92399525251761
 30
0.0
 10
1.204838964704777
 20
40.95632797256204
 30
0.0
 10
2.006354587492979
 20
41.01467483513677
 30
0.0
 10
2.805394764224218
 20
41.1007603967805
 30
0.0
 10
3.600294415667747
 20
41.21938814348098
 30
0.0
 10
4.388298327764915
 20
41.3778473572258
 30
0.0
 10
5.164179980542201
 20
41.5889244209319
 30
0.0
 10
5.915867167789713
 20
41.87437947577549
 30
0.0
 10
6.620007614680503
 20
42.27229348610072
 30
0.0
 10
7.161907888581709
 20
42.872092322787
 30
0.0
 10
7.523839205235532
 20
43.59382900802949
 30
0.0
 10
7.762889804370872
 20
44.36180745948069
 30
0.0
 10
7.931821036682209
 20
45.1477701144759
 30
0.0
 10
8.081830026388303
 20
45.93719094546367
 30
0.0
 10
8.214291798206943
 20
46.7298026380132
 30
0.0
 10
8.33322774098724
 20
47.52453432130974
 30
0.0
 10
8.440632793105607
 20
48.32090419992946
 30
0.0
 10
8.53793058485482
 20
49.11856978328538
 30
0.0
 10
8.625821445975674
 20
49.91732542989392
 30
0.0
 10
8.70459885560706
 20
50.71703108774479
 30
0.0
 10
8.774196960930453
 20
51.51758820410451
 30
0.0
 10
8.834015230418288
 20
52.31893836537002
 30
0.0
 10
8.882870755221575
 20
53.12102944469977
 30
0.0
 10
8.918795202345478
 20
53.9238404454921
 30
0.0
 10
8.936432637628457
 20
54.72714264362732
 30
0.0
 10
8.932490075523162
 20
55.53138105249571
 30
0.0
 10
8.738330969683943
 20
56.32445595363617
 30
0.0
 10
8.165949018335994
 20
56.90669248520291
 30
0.0
 10
7.466269413898317
 20
57.30633494882773
 30
0.0
 10
6.723966737150647
 20
57.61558180896625
 30
0.0
 10
5.958984674220005
 20
57.86271015187111
 30
0.0
 10
5.181084743625547
 20
58.06486979658705
 30
0.0
 10
4.394721120540453
 20
58.23083876728364
 30
0.0
 10
3.602551625294637
 20
58.36623700348645
 30
0.0
 10
2.806159675625196
 20
58.47395994759765
 30
0.0
 10
2.006640192614157
 20
58.5552050448245
 30
0.0
 10
1.204952452323823
 20
58.6111588353196
 30
0.0
 10
0.401827319335041
 20
58.64016491867278
 30
0.0
 10
0.0
 20
58.64026764596393
 30
0.0
  0
SPLINE
  5
8A
330
1F
100
AcDbEntity
  8
Layer 01
370
    -3
100
AcDbSpline
210
0.0
220
0.0
230
1.0
 70
    12
 71
     2
 72
    12
 73
     9
 74
     0
 42
0.000000001
 43
0.0000000001
 40
0.7869661797835044
 40
0.7869661797835044
 40
0.7869661797835044
 40
17.85115635306605
 40
17.85115635306605
 40
19.42195267986094
 40
19.42195267986094
 40
20.99274900665584
 40
20.99274900665584
 40
39.68540951821299
 40
39.68540951821299
 40
39.68540951821299
 10
-7.185972124843943
 20
42.95754489977246
 30
0.0
 41
1.0
 10
-7.919220986558912
 20
42.34193599052966
 30
0.0
 41
1.0
 10
-8.652469848273881
 20
41.72632708128686
 30
0.0
 41
1.0
 10
-8.93765736616361
 20
41.48689407840827
 30
0.0
 41
0.7071067811865475
 10
-9.17878087327719
 20
41.77409514790099
 30
0.0
 41
1.0
 10
-9.419904380390724
 20
42.0612962173937
 30
0.0
 41
0.7071067811865475
 10
-9.134716862500596
 20
42.30072922027178
 30
0.0
 41
1.0
 10
-8.33149257213914
 20
42.97508693848199
 30
0.0
 41
1.0
 10
-7.528268281777684
 20
43.64944465669219
 30
0.0
 41
1.0
  0
SPLINE
  5
8B
330
1F
100
AcDbEntity
  8
Layer 01
370
    -3
100
AcDbSpline
210
0.0
220
0.0
230
1.0
 70
    12
 71
     3
 72
    23
 73
    19
 74
     0
 42
0.000000001
 43
0.0000000001
 40
-0.0940356089726031
 40
-0.0940356089726031
 40
-0.0940356089726031
 40
-0.0940356089726031
 40
0.0
 40
0.0
 40
0.0
 40
1.0
 40
1.0
 40
1.0
 40
1.394662577107218
 40
1.394662577107218
 40
1.394662577107218
 40
1.735645870558158
 40
1.735645870558158
 40
1.735645870558158
 40
2.735645870558158
 40
2.735645870558158
 40
2.735645870558158
 40
2.824415438499726
 40
2.824415438499726
 40
2.824415438499726
 40
2.824415438499726
 10
6.959519256701185
 20
16.52260020053965
 30
0.0
 41
1.0
 10
6.963099208928952
 20
16.4914647758697
 30
0.0
 41
1.0
 10
6.966679161156719
 20
16.46032935119975
 30
0.0
 41
1.0
 10
6.970259113384486
 20
16.4291939265298
 30
0.0
 41
1.0
 10
6.972271234573498
 20
16.41169418247681
 30
0.0
 41
1.0
 10
6.961840175741429
 20
16.40089191716322
 30
0.0
 41
1.0
 10
6.943881790542974
 20
16.39596787862348
 30
0.0
 41
1.0
 10
6.925031066038677
 20
16.39079916813334
 30
0.0
 41
0.8047378541243649
 10
6.821845687662146
 20
16.37713199542221
 30
0.0
 41
0.8047378541243649
 10
6.694770250627755
 20
16.36297240490498
 30
0.0
 41
1.0
 10
6.572477904215267
 20
16.34891122659705
 30
0.0
 41
0.8312960654263303
 10
6.474915959149291
 20
16.33903336407445
 30
0.0
 41
0.808350118981933
 10
6.449727766675052
 20
16.33828672299687
 30
0.0
 41
0.9311621606668077
 10
6.428396503582405
 20
16.33765441096106
 30
0.0
 41
0.9311621606668077
 10
6.413710829018896
 20
16.34519893634778
 30
0.0
 41
0.9311621606668077
 10
6.411440887318605
 20
16.36494098716818
 30
0.0
 41
0.9311621606668077
 10
6.408061414202185
 20
16.39433281251844
 30
0.0
 41
0.9311621606668077
 10
6.404681941085765
 20
16.42372463786871
 30
0.0
 41
0.9311621606668077
 10
6.401302467969344
 20
16.45311646321898
 30
0.0
 41
0.9311621606668077
  0
SPLINE
  5
8C
330
1F
100
AcDbEntity
  8
Layer 01
370
    -3
100
AcDbSpline
210
0.0
220
0.0
230
1.0
 70
    15
 71
     2
 72
    45
 73
    42
 74
     0
 42
0.000000001
 43
0.0000000001
 40
18.10554176929185
 40
18.10554176929185
 40
18.10554176929185
 40
18.20054176929184
 40
18.20054176929184
 40
19.20054176929184
 40
20.20054176929184
 40
21.20054176929184
 40
22.20054176929184
 40
23.20054176929184
 40
24.20054176929185
 40
25.20054176929185
 40
26.20054176929185
 40
27.20054176929185
 40
28.20054176929185
 40
29.20054176929185
 40
30.20054176929185
 40
31.20054176929185
 40
32.20054176929185
 40
33.20054176929185
 40
34.20054176929185
 40
35.20054176929185
 40
35.20054176929185
 40
35.29554176929185
 40
35.29554176929185
 40
36.29554176929185
 40
37.29554176929185
 40
38.29554176929185
 40
39.29554176929185
 40
40.29554176929185
 40
41.29554176929185
 40
42.29554176929185
 40
43.29554176929185
 40
44.29554176929185
 40
45.29554176929185
 40
46.29554176929185
 40
47.29554176929185
 40
48.29554176929185
 40
49.29554176929185
 40
50.29554176929185
 40
51.29554176929185
 40
52.29554176929185
 40
53.29554176929185
 40
53.29554176929185
 40
53.29554176929185
 10
4.131333475235707
 20
16.68212325251834
 30
0.0
 41
0.9969152063605844
 10
4.135843592200538
 20
16.63510015614887
 30
0.0
 41
0.9969152063605844
 10
4.140353709165367
 20
16.5880770597794
 30
0.0
 41
0.9969152063605844
 10
4.141094532876139
 20
16.56899602430672
 30
0.0
 41
0.9969152063605844
 10
4.112525733876538
 20
16.54500290037628
 30
0.0
 41
0.9969152063605844
 10
4.07783708570787
 20
16.53611207299164
 30
0.0
 41
0.9969152063605844
 10
4.04315806227777
 20
16.52833467571036
 30
0.0
 41
0.9969152063605844
 10
4.008142526210833
 20
16.52195752892621
 30
0.0
 41
0.9969152063605844
 10
3.97300774502628
 20
16.51634891198826
 30
0.0
 41
0.9969152063605844
 10
3.937757711142297
 20
16.51150304070162
 30
0.0
 41
0.9969152063605844
 10
3.902425236920209
 20
16.50730690186319
 30
0.0
 41
0.9969152063605844
 10
3.867032456317787
 20
16.50365522227946
 30
0.0
 41
0.9969152063605844
 10
3.831592029439776
 20
16.50049979189277
 30
0.0
 41
0.9969152063605844
 10
3.79610698333147
 20
16.49789208301926
 30
0.0
 41
0.9969152063605844
 10
3.760582786836466
 20
16.49587825149229
 30
0.0
 41
0.9969152063605844
 10
3.725026499999046
 20
16.49457627431577
 30
0.0
 41
0.9969152063605844
 10
3.689439754372132
 20
16.49412990041148
 30
0.0
 41
0.9969152063605844
 10
3.653901457585306
 20
16.49535459169673
 30
0.0
 41
0.9969152063605844
 10
3.618232970637393
 20
16.49673170742513
 30
0.0
 41
0.9969152063605844
 10
3.585068461354809
 20
16.51361064108588
 30
0.0
 41
0.9969152063605844
 10
3.580576663041653
 20
16.53321178572386
 30
0.0
 41
0.9969152063605844
 10
3.575989858307681
 20
16.58081527108948
 30
0.0
 41
0.9969152063605844
 10
3.57140305357372
 20
16.6284187564551
 30
0.0
 41
0.9969152063605844
 10
3.58156119429998
 20
16.64015145901016
 30
0.0
 41
0.9969152063605844
 10
3.613249078011847
 20
16.64831731941399
 30
0.0
 41
0.9969152063605844
 10
3.64401499437804
 20
16.65566305031061
 30
0.0
 41
0.9969152063605844
 10
3.675267772617133
 20
16.66165742191871
 30
0.0
 41
0.9969152063605844
 10
3.706612221925838
 20
16.66693746971238
 30
0.0
 41
0.9969152063605844
 10
3.738055036101031
 20
16.67163562406645
 30
0.0
 41
0.9969152063605844
 10
3.769564074835927
 20
16.67585730843351
 30
0.0
 41
0.9969152063605844
 10
3.801126795693875
 20
16.67965758054273
 30
0.0
 41
0.9969152063605844
 10
3.832733912700178
 20
16.68306826605443
 30
0.0
 41
0.9969152063605844
 10
3.864379278019641
 20
16.68610346170854
 30
0.0
 41
0.9969152063605844
 10
3.896058460199157
 20
16.68876274258633
 30
0.0
 41
0.9969152063605844
 10
3.927768116133024
 20
16.69103110131453
 30
0.0
 41
0.9969152063605844
 10
3.9595051529096
 20
16.69287552578951
 30
0.0
 41
0.9969152063605844
 10
3.991267757666094
 20
16.69423958001246
 30
0.0
 41
0.9969152063605844
 10
4.023044388443339
 20
16.69501365183641
 30
0.0
 41
0.9969152063605844
 10
4.054866792503504
 20
16.69506899803321
 30
0.0
 41
0.9969152063605844
 10
4.086468075083105
 20
16.69370508025854
 30
0.0
 41
0.9969152063605844
 10
4.119130408366118
 20
16.69171122910846
 30
0.0
 41
0.9969152063605844
 10
4.131333475235693
 20
16.68212325251834
 30
0.0
 41
0.9969152063605844
  0
SPLINE
  5
8D
330
1F
100
AcDbEntity
  8
Layer 01
370
    -3
100
AcDbSpline
210
0.0
220
0.0
230
1.0
 70
     8
 71
     2
 72
    23
 73
    20
 74
     0
 42
0.000000001
 43
0.0000000001
 40
0.0
 40
0.0
 40
0.0
 40
1.0
 40
2.0
 40
3.0
 40
4.0
 40
5.0
 40
6.0
 40
7.0
 40
8.0
 40
9.0
 40
10.0
 40
11.0
 40
12.0
 40
13.0
 40
14.0
 40
15.0
 40
16.0
 40
17.0
 40
18.0
 40
18.0
 40
18.0
 10
4.113260433812655
 20
16.55452666101078
 30
0.0
 10
4.103777430868377
 20
16.56413631308797
 30
0.0
 10
4.074011791778958
 20
16.56577488211745
 30
0.0
 10
4.045750745808704
 20
16.5670754087172
 30
0.0
 10
4.017194190303712
 20
16.56703714319262
 30
0.0
 10
3.988694936680588
 20
16.5663551183459
 30
0.0
 10
3.960205422661204
 20
16.56513839412815
 30
0.0
 10
3.931739364916382
 20
16.56348845529109
 30
0.0
 10
3.903297870533436
 20
16.56145636455598
 30
0.0
 10
3.87488381546035
 20
16.55907214421042
 30
0.0
 10
3.846500203792431
 20
16.55634939529244
 30
0.0
 10
3.81815106147593
 20
16.55328848871295
 30
0.0
 10
3.789841925437258
 20
16.54987660969245
 30
0.0
 10
3.761581341778282
 20
16.54608478540333
 30
0.0
 10
3.733380074965879
 20
16.54186303805242
 30
0.0
 10
3.705271179804413
 20
16.53711417029371
 30
0.0
 10
3.677227148472241
 20
16.53172211671358
 30
0.0
 10
3.649736049285792
 20
16.52506915725883
 30
0.0
 10
3.620786833341185
 20
16.51780300022931
 30
0.0
 10
3.61342859819672
 20
16.50652340946327
 30
0.0
  0
SPLINE
  5
8E
330
1F
100
AcDbEntity
  8
Layer 01
370
    -3
100
AcDbSpline
210
0.0
220
0.0
230
1.0
 70
     8
 71
     2
 72
    67
 73
    64
 74
     0
 42
0.000000001
 43
0.0000000001
 40
0.0
 40
0.0
 40
0.0
 40
1.000195748633265
 40
2.00039149726653
 40
3.000587245899795
 40
4.000782994533061
 40
5.000978743166326
 40
6.001174491799591
 40
7.001370240432855
 40
8.0
 40
8.0
 40
8.70886125239439
 40
8.70886125239439
 40
9.708319179331072
 40
10.70837940967144
 40
11.70843964001181
 40
12.70849987035218
 40
13.70856010069255
 40
14.70862033103292
 40
15.70868056137328
 40
16.70874079171366
 40
17.70880102205402
 40
18.70886125239439
 40
18.70886125239439
 40
19.70886125239439
 40
19.70886125239439
 40
20.70886125239439
 40
20.70886125239439
 40
21.70886125239439
 40
22.70886125239439
 40
23.70886125239439
 40
24.70886125239439
 40
25.70886125239439
 40
26.70886125239439
 40
27.70886125239439
 40
28.70886125239439
 40
29.70886125239439
 40
30.70886125239439
 40
30.70886125239439
 40
31.70886125239439
 40
31.70886125239439
 40
32.70886125239439
 40
32.70886125239439
 40
32.85765838157067
 40
32.85765838157067
 40
33.00645551074696
 40
33.00645551074696
 40
33.15525263992325
 40
33.15525263992325
 40
33.30404976909954
 40
33.30404976909954
 40
33.45284689827582
 40
33.45284689827582
 40
33.60164402745211
 40
33.60164402745211
 40
33.7504411566284
 40
33.7504411566284
 40
33.89923828580469
 40
33.89923828580469
 40
34.04803541498097
 40
34.04803541498097
 40
34.19683254415726
 40
34.19683254415726
 40
35.12811211580976
 40
35.12811211580976
 40
35.12811211580976
 10
8.466524766725911
 20
16.96512924190834
 30
0.0
 10
8.42626842848162
 20
16.94124025017089
 30
0.0
 10
8.336980925919335
 20
16.91353554315366
 30
0.0
 10
8.244419307396129
 20
16.90175738384909
 30
0.0
 10
8.151284189533072
 20
16.89854795939029
 30
0.0
 10
8.05811996482322
 20
16.89923381309107
 30
0.0
 10
7.964981448407883
 20
16.90129795724602
 30
0.0
 10
7.871847683243232
 20
16.9035510494773
 30
0.0
 10
7.778786835827077
 20
16.90580520990634
 30
0.0
 10
7.732285988655917
 20
16.90667152150286
 30
0.0
 10
8.005078310894419
 20
16.93890509145962
 30
0.0
 10
8.27787063313292
 20
16.97113866141638
 30
0.0
 10
8.352039491935386
 20
16.97977177440818
 30
0.0
 10
8.500558587085038
 20
16.96334814734227
 30
0.0
 10
8.640976772067745
 20
16.91203982109792
 30
0.0
 10
8.765907217086436
 20
16.83016188510058
 30
0.0
 10
8.87217107177787
 20
16.72541224253553
 30
0.0
 10
8.959396565874187
 20
16.60449716154826
 30
0.0
 10
9.028579673056555
 20
16.47251608924952
 30
0.0
 10
9.081121460210596
 20
16.33312967474785
 30
0.0
 10
9.118378217281332
 20
16.18893789812068
 30
0.0
 10
9.141510671425891
 20
16.04184110932234
 30
0.0
 10
9.14645133642756
 20
15.96755722857154
 30
0.0
 10
9.671747387534964
 20
8.124554317423055
 30
0.0
 10
10.19704343864237
 20
0.2815514062745708
 30
0.0
 10
10.2097060841039
 20
0.2310185577255808
 30
0.0
 10
10.22236872956543
 20
0.1804857091765909
 30
0.0
 10
10.23334514924403
 20
0.1390820823707722
 30
0.0
 10
10.30020603909904
 20
0.0881872656764872
 30
0.0
 10
10.37944189006873
 20
0.064469945878139
 30
0.0
 10
10.46012340489929
 20
0.0485149431866631
 30
0.0
 10
10.5423195174705
 20
0.0431450590524854
 30
0.0
 10
10.62451112620386
 20
0.0480140906595736
 30
0.0
 10
10.70549211417404
 20
0.0630535467254091
 30
0.0
 10
10.78376187676056
 20
0.0884129600920139
 30
0.0
 10
10.85942999816319
 20
0.1213808833886197
 30
0.0
 10
10.92856480544634
 20
0.185586212894254
 30
0.0
 10
10.93333710536186
 20
0.2280945748554929
 30
0.0
 10
10.93914918122212
 20
0.2798645450562392
 30
0.0
 10
10.94496125708238
 20
0.3316345152569855
 30
0.0
 10
10.41987396110544
 20
8.174566694101163
 30
0.0
 10
9.894786665128493
 20
16.01749887294534
 30
0.0
 10
9.88761352946483
 20
16.1252346428705
 30
0.0
 10
9.870838911679783
 20
16.23190263382716
 30
0.0
 10
9.85362491954075
 20
16.3413645590612
 30
0.0
 10
9.825901727839806
 20
16.44865935816418
 30
0.0
 10
9.797166854015302
 20
16.55986958776217
 30
0.0
 10
9.756646327287854
 20
16.66736518774439
 30
0.0
 10
9.714174249543731
 20
16.78003799454923
 30
0.0
 10
9.658257916816552
 20
16.88670995325285
 30
0.0
 10
9.59888155306399
 20
16.99998263608576
 30
0.0
 10
9.524036799110206
 20
17.10373509492307
 30
0.0
 10
9.443558249513728
 20
17.21529732157495
 30
0.0
 10
9.345550041058516
 20
17.31190895714882
 30
0.0
 10
9.239348094545278
 20
17.41659757369937
 30
0.0
 10
9.114556348215757
 20
17.49838460821634
 30
0.0
 10
8.97968816268525
 20
17.58677562180229
 30
0.0
 10
8.828169819382566
 20
17.64213990806717
 30
0.0
 10
8.672951330626546
 20
17.69885621487052
 30
0.0
 10
8.508711118032465
 20
17.71701832391214
 30
0.0
 10
8.349667958030409
 20
17.73460572938768
 30
0.0
 10
8.190755094966505
 20
17.71604035313923
 30
0.0
 10
7.728475232848396
 20
17.66020363381959
 30
0.0
 10
7.266195370730287
 20
17.60436691449995
 30
0.0
  0
SPLINE
  5
8F
330
1F
100
AcDbEntity
  8
Layer 01
370
    -3
100
AcDbSpline
210
0.0
220
0.0
230
1.0
 70
     8
 71
     2
 72
    67
 73
    64
 74
     0
 42
0.000000001
 43
0.0000000001
 40
0.0
 40
0.0
 40
0.0
 40
1.000195748633265
 40
2.00039149726653
 40
3.000587245899795
 40
4.000782994533061
 40
5.000978743166326
 40
6.001174491799591
 40
7.001370240432855
 40
8.0
 40
8.0
 40
8.70886125239439
 40
8.70886125239439
 40
9.708319179331072
 40
10.70837940967144
 40
11.70843964001181
 40
12.70849987035218
 40
13.70856010069255
 40
14.70862033103292
 40
15.70868056137328
 40
16.70874079171366
 40
17.70880102205402
 40
18.70886125239439
 40
18.70886125239439
 40
19.70886125239439
 40
19.70886125239439
 40
20.70886125239439
 40
20.70886125239439
 40
21.70886125239439
 40
22.70886125239439
 40
23.70886125239439
 40
24.70886125239439
 40
25.70886125239439
 40
26.70886125239439
 40
27.70886125239439
 40
28.70886125239439
 40
29.70886125239439
 40
30.70886125239439
 40
30.70886125239439
 40
31.70886125239439
 40
31.70886125239439
 40
32.70886125239439
 40
32.70886125239439
 40
32.85765838157067
 40
32.85765838157067
 40
33.00645551074696
 40
33.00645551074696
 40
33.15525263992325
 40
33.15525263992325
 40
33.30404976909954
 40
33.30404976909954
 40
33.45284689827582
 40
33.45284689827582
 40
33.60164402745211
 40
33.60164402745211
 40
33.7504411566284
 40
33.7504411566284
 40
33.89923828580469
 40
33.89923828580469
 40
34.04803541498097
 40
34.04803541498097
 40
34.19683254415726
 40
34.19683254415726
 40
35.12811211580976
 40
35.12811211580976
 40
35.12811211580976
 10
-8.466524766725911
 20
16.96512924190834
 30
0.0
 10
-8.426268428481592
 20
16.94124025017089
 30
0.0
 10
-8.336980925919306
 20
16.91353554315366
 30
0.0
 10
-8.244419307396129
 20
16.90175738384909
 30
0.0
 10
-8.151284189533044
 20
16.89854795939029
 30
0.0
 10
-8.058119964823192
 20
16.89923381309107
 30
0.0
 10
-7.964981448407855
 20
16.90129795724602
 30
0.0
 10
-7.871847683243203
 20
16.9035510494773
 30
0.0
 10
-7.778786835827077
 20
16.90580520990634
 30
0.0
 10
-7.732285988655917
 20
16.90667152150286
 30
0.0
 10
-8.005078310894405
 20
16.93890509145962
 30
0.0
 10
-8.277870633132892
 20
16.97113866141638
 30
0.0
 10
-8.352039491935358
 20
16.97977177440818
 30
0.0
 10
-8.50055858708501
 20
16.96334814734227
 30
0.0
 10
-8.640976772067717
 20
16.91203982109792
 30
0.0
 10
-8.765907217086408
 20
16.83016188510058
 30
0.0
 10
-8.872171071777842
 20
16.72541224253553
 30
0.0
 10
-8.959396565874158
 20
16.60449716154826
 30
0.0
 10
-9.028579673056527
 20
16.47251608924952
 30
0.0
 10
-9.081121460210568
 20
16.33312967474785
 30
0.0
 10
-9.118378217281304
 20
16.18893789812068
 30
0.0
 10
-9.141510671425863
 20
16.04184110932234
 30
0.0
 10
-9.14645133642756
 20
15.96755722857154
 30
0.0
 10
-9.671747387534964
 20
8.124554317423055
 30
0.0
 10
-10.19704343864237
 20
0.2815514062745708
 30
0.0
 10
-10.20970608410389
 20
0.2310185577255808
 30
0.0
 10
-10.2223687295654
 20
0.1804857091765909
 30
0.0
 10
-10.23334514924403
 20
0.1390820823707722
 30
0.0
 10
-10.30020603909901
 20
0.0881872656764872
 30
0.0
 10
-10.37944189006873
 20
0.064469945878139
 30
0.0
 10
-10.46012340489926
 20
0.0485149431866631
 30
0.0
 10
-10.5423195174705
 20
0.0431450590524854
 30
0.0
 10
-10.62451112620383
 20
0.0480140906595736
 30
0.0
 10
-10.70549211417404
 20
0.0630535467254091
 30
0.0
 10
-10.78376187676054
 20
0.0884129600920139
 30
0.0
 10
-10.85942999816319
 20
0.1213808833886197
 30
0.0
 10
-10.92856480544634
 20
0.185586212894254
 30
0.0
 10
-10.93333710536183
 20
0.2280945748554929
 30
0.0
 10
-10.93914918122209
 20
0.2798645450562392
 30
0.0
 10
-10.94496125708235
 20
0.3316345152569855
 30
0.0
 10
-10.41987396110542
 20
8.174566694101163
 30
0.0
 10
-9.894786665128493
 20
16.01749887294534
 30
0.0
 10
-9.8876135294648
 20
16.1252346428705
 30
0.0
 10
-9.870838911679755
 20
16.23190263382716
 30
0.0
 10
-9.85362491954072
 20
16.3413645590612
 30
0.0
 10
-9.825901727839806
 20
16.44865935816418
 30
0.0
 10
-9.797166854015302
 20
16.55986958776217
 30
0.0
 10
-9.756646327287825
 20
16.66736518774439
 30
0.0
 10
-9.714174249543703
 20
16.78003799454923
 30
0.0
 10
-9.658257916816524
 20
16.88670995325285
 30
0.0
 10
-9.59888155306399
 20
16.99998263608576
 30
0.0
 10
-9.524036799110206
 20
17.10373509492307
 30
0.0
 10
-9.443558249513728
 20
17.21529732157495
 30
0.0
 10
-9.345550041058516
 20
17.31190895714882
 30
0.0
 10
-9.239348094545278
 20
17.41659757369937
 30
0.0
 10
-9.114556348215729
 20
17.49838460821634
 30
0.0
 10
-8.97968816268525
 20
17.58677562180229
 30
0.0
 10
-8.828169819382538
 20
17.64213990806717
 30
0.0
 10
-8.672951330626518
 20
17.69885621487052
 30
0.0
 10
-8.508711118032465
 20
17.71701832391214
 30
0.0
 10
-8.349667958030409
 20
17.73460572938768
 30
0.0
 10
-8.190755094966505
 20
17.71604035313923
 30
0.0
 10
-7.728475232848382
 20
17.66020363381959
 30
0.0
 10
-7.266195370730259
 20
17.60436691449995
 30
0.0
  0
SPLINE
  5
90
330
1F
100
AcDbEntity
  8
Layer 01
370
    -3
100
AcDbSpline
210
0.0
220
0.0
230
1.0
 70
    12
 71
     2
 72
    19
 73
    16
 74
     0
 42
0.000000001
 43
0.0000000001
 40
0.0
 40
0.0
 40
0.0
 40
1.0
 40
2.0
 40
3.0
 40
4.0
 40
5.0
 40
6.0
 40
7.0
 40
8.0
 40
9.0
 40
10.0
 40
11.0
 40
12.0
 40
12.0
 40
12.01801855534592
 40
12.01801855534592
 40
12.01801855534592
 10
10.94501530495035
 20
0.3338745909263673
 30
0.0
 41
1.0
 10
10.93631627743798
 20
0.3003006033231013
 30
0.0
 41
1.0
 10
10.87333829100896
 20
0.2700495130210231
 30
0.0
 41
1.0
 10
10.8103276064079
 20
0.2492341658509853
 30
0.0
 41
1.0
 10
10.7451019762012
 20
0.2342505612429199
 30
0.0
 41
1.0
 10
10.6792037242185
 20
0.2232905653163618
 30
0.0
 41
1.0
 10
10.61282105776854
 20
0.2156716793694569
 30
0.0
 41
1.0
 10
10.54616368334723
 20
0.2111064857275287
 30
0.0
 41
1.0
 10
10.47936318931306
 20
0.2095948429587308
 30
0.0
 41
1.0
 10
10.41258108683229
 20
0.2114275783768089
 30
0.0
 41
1.0
 10
10.34593772016711
 20
0.2172663859491313
 30
0.0
 41
1.0
 10
10.28048794024218
 20
0.2290091672780561
 30
0.0
 41
1.0
 10
10.21456507434357
 20
0.2495523226941429
 30
0.0
 41
1.0
 10
10.19739567082297
 20
0.2793385364530832
 30
0.0
 41
1.0
 10
10.19684037962747
 20
0.2815365938312839
 30
0.0
 41
1.004933129296679
 10
10.19669120648811
 20
0.2837642760018397
 30
0.0
 41
1.010439181883473
  0
SPLINE
  5
91
330
1F
100
AcDbEntity
  8
Layer 01
370
    -3
100
AcDbSpline
210
0.0
220
0.0
230
1.0
 70
    12
 71
     2
 72
    19
 73
    16
 74
     0
 42
0.000000001
 43
0.0000000001
 40
0.0
 40
0.0
 40
0.0
 40
1.0
 40
2.0
 40
3.0
 40
4.0
 40
5.0
 40
6.0
 40
7.0
 40
8.0
 40
9.0
 40
10.0
 40
11.0
 40
12.0
 40
12.0
 40
12.01801855534592
 40
12.01801855534592
 40
12.01801855534592
 10
-10.94501530495035
 20
0.3338745909263673
 30
0.0
 41
1.0
 10
-10.93631627743798
 20
0.3003006033231013
 30
0.0
 41
1.0
 10
-10.87333829100896
 20
0.2700495130210231
 30
0.0
 41
1.0
 10
-10.81032760640787
 20
0.2492341658509853
 30
0.0
 41
1.0
 10
-10.74510197620117
 20
0.2342505612429199
 30
0.0
 41
1.0
 10
-10.6792037242185
 20
0.2232905653163618
 30
0.0
 41
1.0
 10
-10.61282105776854
 20
0.2156716793694569
 30
0.0
 41
1.0
 10
-10.5461636833472
 20
0.2111064857275287
 30
0.0
 41
1.0
 10
-10.47936318931303
 20
0.2095948429587308
 30
0.0
 41
1.0
 10
-10.41258108683226
 20
0.2114275783768089
 30
0.0
 41
1.0
 10
-10.34593772016711
 20
0.2172663859491313
 30
0.0
 41
1.0
 10
-10.28048794024218
 20
0.2290091672780561
 30
0.0
 41
1.0
 10
-10.21456507434354
 20
0.2495523226941429
 30
0.0
 41
1.0
 10
-10.19739567082297
 20
0.2793385364530832
 30
0.0
 41
1.0
 10
-10.19684037962747
 20
0.2815365938312839
 30
0.0
 41
1.004933129296679
 10
-10.19669120648808
 20
0.2837642760018397
 30
0.0
 41
1.010439181883473
  0
SPLINE
  5
92
330
1F
100
AcDbEntity
  8
Layer 01
370
    -3
100
AcDbSpline
210
0.0
220
0.0
230
1.0
 70
     8
 71
     2
 72
    30
 73
    27
 74
     0
 42
0.000000001
 43
0.0000000001
 40
0.0
 40
0.0
 40
0.0
 40
1.0
 40
2.0
 40
3.0
 40
4.0
 40
5.0
 40
6.0
 40
7.0
 40
8.0
 40
9.0
 40
10.0
 40
11.0
 40
12.0
 40
12.0
 40
13.0
 40
14.0
 40
15.0
 40
16.0
 40
17.0
 40
18.0
 40
19.0
 40
20.0
 40
21.0
 40
22.0
 40
23.0
 40
24.0
 40
24.0
 40
24.0
 10
6.838615431242715
 20
16.96591424677814
 30
0.0
 10
6.554285628932632
 20
16.98904864621393
 30
0.0
 10
5.984627566051415
 20
17.02048879368631
 30
0.0
 10
5.414659749316144
 20
17.04524964967596
 30
0.0
 10
4.844287174468008
 20
17.06053896287344
 30
0.0
 10
4.274313698098041
 20
17.03109761032542
 30
0.0
 10
3.704923697526624
 20
16.99603741749668
 30
0.0
 10
3.135623884410904
 20
16.95887160049508
 30
0.0
 10
2.566167477677453
 20
16.92427997758866
 30
0.0
 10
1.996347709703144
 20
16.89619325182394
 30
0.0
 10
1.426254476283532
 20
16.87437550009605
 30
0.0
 10
0.8559424184733757
 20
16.85928520379123
 30
0.0
 10
0.2854844545803701
 20
16.85136284645012
 30
0.0
 10
0.0
 20
16.8513247731096
 30
0.0
 10
-0.2854844545803417
 20
16.85136284645012
 30
0.0
 10
-0.8559424184733473
 20
16.85928520379123
 30
0.0
 10
-1.426254476283532
 20
16.87437550009605
 30
0.0
 10
-1.996347709703144
 20
16.89619325182394
 30
0.0
 10
-2.566167477677425
 20
16.92427997758866
 30
0.0
 10
-3.135623884410876
 20
16.95887160049508
 30
0.0
 10
-3.704923697526624
 20
16.99603741749668
 30
0.0
 10
-4.274313698098013
 20
17.03109761032542
 30
0.0
 10
-4.844287174467979
 20
17.06053896287344
 30
0.0
 10
-5.414659749316115
 20
17.04524964967596
 30
0.0
 10
-5.984627566051415
 20
17.02048879368631
 30
0.0
 10
-6.554285628932632
 20
16.98904864621393
 30
0.0
 10
-6.838615431242715
 20
16.96591424677814
 30
0.0
  0
SPLINE
  5
93
330
1F
100
AcDbEntity
  8
Layer 01
370
    -3
100
AcDbSpline
210
0.0
220
0.0
230
1.0
 70
     8
 71
     2
 72
    30
 73
    27
 74
     0
 42
0.000000001
 43
0.0000000001
 40
-12.0
 40
-12.0
 40
-12.0
 40
-11.0
 40
-10.0
 40
-9.0
 40
-8.0
 40
-7.0
 40
-6.0
 40
-5.0
 40
-4.0
 40
-3.0
 40
-2.0
 40
-1.0
 40
0.0
 40
0.0
 40
1.0
 40
2.0
 40
3.0
 40
4.0
 40
5.0
 40
6.0
 40
7.0
 40
8.0
 40
9.0
 40
10.0
 40
11.0
 40
12.0
 40
12.0
 40
12.0
 10
-6.993695774429654
 20
16.72074808684069
 30
0.0
 10
-6.703111001616548
 20
16.74698656302859
 30
0.0
 10
-6.120588925549271
 20
16.78112296845569
 30
0.0
 10
-5.537646474624012
 20
16.80556903769409
 30
0.0
 10
-4.954396114262863
 20
16.82778639659527
 30
0.0
 10
-4.371305984099365
 20
16.80044527903707
 30
0.0
 10
-3.788928058982634
 20
16.76512092075847
 30
0.0
 10
-3.206666885387165
 20
16.72726768563454
 30
0.0
 10
-2.624280985957853
 20
16.691464645399
 30
0.0
 10
-2.041518960396786
 20
16.66231162944091
 30
0.0
 10
-1.458468187655228
 20
16.63967832505488
 30
0.0
 10
-0.8751857233262115
 20
16.62407487207735
 30
0.0
 10
-0.2917510205551821
 20
16.61588467395407
 30
0.0
 10
0.0
 20
16.61582950179633
 30
0.0
 10
0.2917510205552105
 20
16.61588467395407
 30
0.0
 10
0.8751857233262399
 20
16.62407487207735
 30
0.0
 10
1.458468187655228
 20
16.63967832505488
 30
0.0
 10
2.041518960396786
 20
16.66231162944091
 30
0.0
 10
2.624280985957853
 20
16.691464645399
 30
0.0
 10
3.206666885387165
 20
16.72726768563454
 30
0.0
 10
3.788928058982634
 20
16.76512092075847
 30
0.0
 10
4.371305984099365
 20
16.80044527903707
 30
0.0
 10
4.954396114262863
 20
16.82778639659527
 30
0.0
 10
5.53764647462404
 20
16.80556903769409
 30
0.0
 10
6.120588925549271
 20
16.78112296845569
 30
0.0
 10
6.703111001616548
 20
16.74698656302859
 30
0.0
 10
6.993695774429682
 20
16.72074808684069
 30
0.0
  0
SPLINE
  5
94
330
1F
100
AcDbEntity
  8
Layer 01
370
    -3
100
AcDbSpline
210
0.0
220
0.0
230
1.0
 70
     8
 71
     2
 72
    30
 73
    27
 74
     0
 42
0.000000001
 43
0.0000000001
 40
-12.0
 40
-12.0
 40
-12.0
 40
-11.0
 40
-10.0
 40
-9.0
 40
-8.0
 40
-7.0
 40
-6.0
 40
-5.0
 40
-4.0
 40
-3.0
 40
-2.0
 40
-1.0
 40
0.0
 40
0.0
 40
1.0
 40
2.0
 40
3.0
 40
4.0
 40
5.0
 40
6.0
 40
7.0
 40
8.0
 40
9.0
 40
10.0
 40
11.0
 40
12.0
 40
12.0
 40
12.0
 10
-7.068949623373669
 20
16.5354334817078
 30
0.0
 10
-6.775360103804815
 20
16.50135658384889
 30
0.0
 10
-6.18909986817863
 20
16.42572722258981
 30
0.0
 10
-5.60265292211119
 20
16.35159123345456
 30
0.0
 10
-5.01554108440078
 20
16.28286393186566
 30
0.0
 10
-4.427568426631211
 20
16.22191695706723
 30
0.0
 10
-3.838759094284342
 20
16.16964070597998
 30
0.0
 10
-3.249205439548689
 20
16.12656211505468
 30
0.0
 10
-2.659068001493154
 20
16.09242322302626
 30
0.0
 10
-2.068502065661932
 20
16.06676671408535
 30
0.0
 10
-1.477658580998025
 20
16.04867004216396
 30
0.0
 10
-0.8866506533253755
 20
16.03720899817107
 30
0.0
 10
-0.2955589281019684
 20
16.03161481043558
 30
0.0
 10
0.0
 20
16.03160851724787
 30
0.0
 10
0.2955589281019968
 20
16.03161481043558
 30
0.0
 10
0.8866506533253755
 20
16.03720899817107
 30
0.0
 10
1.477658580998053
 20
16.04867004216396
 30
0.0
 10
2.06850206566196
 20
16.06676671408535
 30
0.0
 10
2.659068001493154
 20
16.09242322302626
 30
0.0
 10
3.249205439548717
 20
16.12656211505468
 30
0.0
 10
3.83875909428437
 20
16.16964070597998
 30
0.0
 10
4.427568426631211
 20
16.22191695706723
 30
0.0
 10
5.015541084400809
 20
16.28286393186566
 30
0.0
 10
5.60265292211119
 20
16.35159123345456
 30
0.0
 10
6.189099868178658
 20
16.42572722258981
 30
0.0
 10
6.775360103804843
 20
16.50135658384889
 30
0.0
 10
7.068949623373669
 20
16.5354334817078
 30
0.0
  0
SPLINE
  5
95
330
1F
100
AcDbEntity
  8
Layer 01
370
    -3
100
AcDbSpline
210
0.0
220
0.0
230
1.0
 70
     8
 71
     2
 72
    13
 73
    10
 74
     0
 42
0.000000001
 43
0.0000000001
 40
0.0
 40
0.0
 40
0.0
 40
1.0
 40
2.0
 40
3.0
 40
4.0
 40
5.0
 40
6.0
 40
7.0
 40
8.0
 40
8.0
 40
8.0
 10
7.827702829226467
 20
16.60197403148413
 30
0.0
 10
7.886646908273917
 20
16.60465939229466
 30
0.0
 10
8.004429963946507
 20
16.61205112321554
 30
0.0
 10
8.121918973527329
 20
16.623229998282
 30
0.0
 10
8.238758781112892
 20
16.64018013879821
 30
0.0
 10
8.353761415502873
 20
16.66693332484569
 30
0.0
 10
8.465955438330894
 20
16.70383378707994
 30
0.0
 10
8.573540618930878
 20
16.75293370713922
 30
0.0
 10
8.667918548789999
 20
16.82453566499337
 30
0.0
 10
8.707622795314848
 20
16.86839072768213
 30
0.0
  0
SPLINE
  5
96
330
1F
100
AcDbEntity
  8
Layer 01
370
    -3
100
AcDbSpline
210
0.0
220
0.0
230
1.0
 70
     8
 71
     2
 72
    13
 73
    10
 74
     0
 42
0.000000001
 43
0.0000000001
 40
0.0
 40
0.0
 40
0.0
 40
1.0
 40
2.0
 40
3.0
 40
4.0
 40
5.0
 40
6.0
 40
7.0
 40
8.0
 40
8.0
 40
8.0
 10
8.491239863360676
 20
16.71548530638006
 30
0.0
 10
8.451345070502299
 20
16.69942985504682
 30
0.0
 10
8.367815331785096
 20
16.67906699223519
 30
0.0
 10
8.282578589511616
 20
16.66825887137602
 30
0.0
 10
8.196800222045255
 20
16.66406919873496
 30
0.0
 10
8.110938607615367
 20
16.66376216496279
 30
0.0
 10
8.025096679805301
 20
16.6652962783506
 30
0.0
 10
7.939267061609257
 20
16.66735804020118
 30
0.0
 10
7.853440624343676
 20
16.66955010253335
 30
0.0
 10
7.810528438857716
 20
16.67068523953813
 30
0.0
  0
SPLINE
  5
97
330
1F
100
AcDbEntity
  8
Layer 01
370
    -3
100
AcDbSpline
210
0.0
220
0.0
230
1.0
 70
    12
 71
     3
 72
    32
 73
    28
 74
     0
 42
0.000000001
 43
0.0000000001
 40
0.0
 40
0.0
 40
0.0
 40
0.0
 40
1.0
 40
1.0
 40
2.0
 40
2.0
 40
3.0
 40
3.0
 40
4.0
 40
4.0
 40
4.0
 40
4.084148150613579
 40
4.084148150613579
 40
4.084148150613579
 40
4.168355323165442
 40
4.168355323165442
 40
4.168355323165442
 40
4.252621438111643
 40
4.252621438111643
 40
4.252621438111643
 40
5.252621438111643
 40
5.252621438111643
 40
6.252621438111643
 40
6.252621438111643
 40
7.252621438111643
 40
7.252621438111643
 40
8.252621438111643
 40
8.252621438111643
 40
8.252621438111643
 40
8.252621438111643
 10
3.4961991040079
 20
16.98237652776139
 30
0.0
 41
1.0
 10
3.46107031609687
 20
16.99260981970841
 30
0.0
 41
1.0
 10
3.427906623330438
 20
17.00729352033367
 30
0.0
 41
1.0
 10
3.365509428086772
 20
17.04556173894069
 30
0.0
 41
1.0
 10
3.337528434541535
 20
17.0686346491404
 30
0.0
 41
1.0
 10
3.288001655604253
 20
17.12265807133222
 30
0.0
 41
1.0
 10
3.268061144637495
 20
17.15289226001061
 30
0.0
 41
1.0
 10
3.237825879707747
 20
17.21980559253235
 30
0.0
 41
1.0
 10
3.228878494979926
 20
17.25485958481898
 30
0.0
 41
1.0
 10
3.226101357989157
 20
17.29151090313136
 30
0.0
 41
1.0
 10
3.22402900528169
 20
17.31948120765693
 30
0.0
 41
1.0
 10
3.221955043616418
 20
17.34745132958069
 30
0.0
 41
1.0
 10
3.219879476182396
 20
17.3754213149107
 30
0.0
 41
1.0
 10
3.217802452831784
 20
17.40341091991901
 30
0.0
 41
1.0
 10
3.215723821462932
 20
17.4314003880869
 30
0.0
 41
1.0
 10
3.213643589156932
 20
17.45938971973682
 30
0.0
 41
1.0
 10
3.211561900641415
 20
17.48739864454996
 30
0.0
 41
1.0
 10
3.209478608950567
 20
17.51540743260013
 30
0.0
 41
1.0
 10
3.207393721665218
 20
17.54341608422992
 30
0.0
 41
1.0
 10
3.207082043936421
 20
17.5475893226599
 30
0.0
 41
1.0
 10
3.206476304862605
 20
17.55171944525537
 30
0.0
 41
1.0
 10
3.204676704024934
 20
17.55989345877733
 30
0.0
 41
1.0
 10
3.203491262839279
 20
17.56389583139896
 30
0.0
 41
1.0
 10
3.200549098934331
 20
17.57173130836349
 30
0.0
 41
1.0
 10
3.198811709157354
 20
17.57552695296854
 30
0.0
 41
1.0
 10
3.194804313954393
 20
17.58287405442423
 30
0.0
 41
1.0
 10
3.192560160246103
 20
17.58639419883066
 30
0.0
 41
1.0
 10
3.190075550431004
 20
17.58976093691567
 30
0.0
 41
1.0
  0
SPLINE
  5
98
330
1F
100
AcDbEntity
  8
Layer 01
370
    -3
100
AcDbSpline
210
0.0
220
0.0
230
1.0
 70
     8
 71
     2
 72
    46
 73
    43
 74
     0
 42
0.000000001
 43
0.0000000001
 40
-2.554851761541498
 40
-2.554851761541498
 40
-2.554851761541498
 40
0.0
 40
0.0
 40
1.0
 40
2.0
 40
3.0
 40
4.0
 40
5.0
 40
6.0
 40
7.0
 40
7.0
 40
23.06661371123543
 40
23.06661371123543
 40
23.17218568145417
 40
23.17218568145417
 40
24.17218568145417
 40
25.17218568145417
 40
26.17218568145417
 40
27.17218568145418
 40
28.17218568145418
 40
29.17218568145418
 40
30.17218568145418
 40
31.17218568145418
 40
32.17218568145418
 40
33.17218568145418
 40
33.17218568145418
 40
33.27555286807274
 40
33.27555286807274
 40
49.34112304777218
 40
49.34112304777218
 40
50.34112304777218
 40
51.34112304777218
 40
52.34112304777218
 40
53.34112304777218
 40
54.34112304777218
 40
55.34112304777218
 40
56.34112304777218
 40
57.34112304777218
 40
58.34112304777218
 40
59.34112304777218
 40
60.34112304777218
 40
61.34112304777218
 40
61.34112304777218
 40
61.34112304777218
 10
4.046562905536973
 20
17.01709729463799
 30
0.0
 10
5.073991535235493
 20
17.15156378383816
 30
0.0
 10
6.101420164934012
 20
17.28603027303834
 30
0.0
 10
6.221928268037772
 20
17.30274271781999
 30
0.0
 10
6.460806589278008
 20
17.25734971607585
 30
0.0
 10
6.672308855104347
 20
17.13789524405594
 30
0.0
 10
6.845177769336715
 20
16.96824479783396
 30
0.0
 10
6.977765800081272
 20
16.76596015967234
 30
0.0
 10
7.071716996283953
 20
16.54330149502874
 30
0.0
 10
7.128613677592682
 20
16.30852265017197
 30
0.0
 10
7.138980378149654
 20
16.18819605505662
 30
0.0
 10
7.82942378996151
 20
8.204927207517512
 30
0.0
 10
8.519867201773366
 20
0.2216583599784016
 30
0.0
 10
8.533527217503405
 20
0.1700940246128098
 30
0.0
 10
8.547187233233444
 20
0.1185296892472181
 30
0.0
 10
8.558995696517655
 20
0.0765360563210157
 30
0.0
 10
8.633751732927493
 20
0.0390495657560394
 30
0.0
 10
8.71216115827329
 20
0.0169357850833227
 30
0.0
 10
8.79277122454863
 20
0.0036740560648727
 30
0.0
 10
8.87439007409813
 20
0.0006376677452709
 30
0.0
 10
8.955760415362533
 20
0.007674747447045
 30
0.0
 10
9.03564616924271
 20
0.0246783624855212
 30
0.0
 10
9.11278257803184
 20
0.05158247676548
 30
0.0
 10
9.186231602052914
 20
0.0868284506889451
 30
0.0
 10
9.253440522764492
 20
0.1365972538208441
 30
0.0
 10
9.257869515455582
 20
0.1799939688993959
 30
0.0
 10
9.262402571885104
 20
0.2328495017205063
 30
0.0
 10
9.266935628314627
 20
0.2857050345416166
 30
0.0
 10
8.576563399823627
 20
8.26926228212851
 30
0.0
 10
7.886191171332626
 20
16.2528195297154
 30
0.0
 10
7.877942109718816
 20
16.34780895998661
 30
0.0
 10
7.846317096314266
 20
16.53586535931133
 30
0.0
 10
7.799287994964232
 20
16.72067938590459
 30
0.0
 10
7.736831428533321
 20
16.9008719019094
 30
0.0
 10
7.658885736094334
 20
17.07493566686311
 30
0.0
 10
7.565429669795748
 20
17.24120088900704
 30
0.0
 10
7.456558406894914
 20
17.3978232144785
 30
0.0
 10
7.332538160484432
 20
17.54276761383464
 30
0.0
 10
7.1938944151523
 20
17.67382070612499
 30
0.0
 10
7.041518911057267
 20
17.78865283711298
 30
0.0
 10
6.876758639645914
 20
17.88491611530552
 30
0.0
 10
6.701449420358756
 20
17.96032857224813
 30
0.0
 10
6.609719501707218
 20
17.9866282100779
 30
0.0
  0
SPLINE
  5
99
330
1F
100
AcDbEntity
  8
Layer 01
370
    -3
100
AcDbSpline
210
0.0
220
0.0
230
1.0
 70
     8
 71
     2
 72
    15
 73
    12
 74
     0
 42
0.000000001
 43
0.0000000001
 40
0.0
 40
0.0
 40
0.0
 40
1.0
 40
2.0
 40
3.0
 40
4.0
 40
5.0
 40
6.0
 40
7.0
 40
8.0
 40
9.0
 40
10.0
 40
10.0
 40
10.0
 10
9.264453883442627
 20
0.2877696333563772
 30
0.0
 10
9.227665867454675
 20
0.2955539836744354
 30
0.0
 10
9.152126016239123
 20
0.2945961975330003
 30
0.0
 10
9.07693504644567
 20
0.2922425988558151
 30
0.0
 10
9.001769250857507
 20
0.2880244594865312
 30
0.0
 10
8.92669197846979
 20
0.2826099818935741
 30
0.0
 10
8.851699237584484
 20
0.2760951532854086
 30
0.0
 10
8.776817615132302
 20
0.268471761438216
 30
0.0
 10
8.702028041949802
 20
0.2596735968912545
 30
0.0
 10
8.627707819736713
 20
0.2488143704964012
 30
0.0
 10
8.552328622218198
 20
0.2374888403550129
 30
0.0
 10
8.519988007249793
 20
0.2202615436160542
 30
0.0
  0
SPLINE
  5
9A
330
1F
100
AcDbEntity
  8
Layer 01
370
    -3
100
AcDbSpline
210
0.0
220
0.0
230
1.0
 70
    12
 71
     3
 72
    23
 73
    19
 74
     0
 42
0.000000001
 43
0.0000000001
 40
-0.0940356089726031
 40
-0.0940356089726031
 40
-0.0940356089726031
 40
-0.0940356089726031
 40
0.0
 40
0.0
 40
0.0
 40
1.0
 40
1.0
 40
1.0
 40
1.394662577107218
 40
1.394662577107218
 40
1.394662577107218
 40
1.735645870558158
 40
1.735645870558158
 40
1.735645870558158
 40
2.735645870558158
 40
2.735645870558158
 40
2.735645870558158
 40
2.824415438499726
 40
2.824415438499726
 40
2.824415438499726
 40
2.824415438499726
 10
-6.959519256701185
 20
16.52260020053965
 30
0.0
 41
1.0
 10
-6.963099208928942
 20
16.4914647758697
 30
0.0
 41
1.0
 10
-6.9666791611567
 20
16.46032935119975
 30
0.0
 41
1.0
 10
-6.970259113384458
 20
16.4291939265298
 30
0.0
 41
1.0
 10
-6.972271234573498
 20
16.41169418247681
 30
0.0
 41
1.0
 10
-6.961840175741429
 20
16.40089191716322
 30
0.0
 41
1.0
 10
-6.943881790542946
 20
16.39596787862348
 30
0.0
 41
1.0
 10
-6.925031066038665
 20
16.39079916813334
 30
0.0
 41
0.8047378541243649
 10
-6.821845687662146
 20
16.37713199542221
 30
0.0
 41
0.8047378541243649
 10
-6.694770250627755
 20
16.36297240490498
 30
0.0
 41
1.0
 10
-6.572477904215244
 20
16.34891122659705
 30
0.0
 41
0.8312960654263303
 10
-6.474915959149242
 20
16.33903336407445
 30
0.0
 41
0.808350118981933
 10
-6.449727766675021
 20
16.33828672299687
 30
0.0
 41
0.9311621606668077
 10
-6.428396503582405
 20
16.33765441096106
 30
0.0
 41
0.9311621606668077
 10
-6.413710829018896
 20
16.34519893634778
 30
0.0
 41
0.9311621606668077
 10
-6.411440887318576
 20
16.36494098716818
 30
0.0
 41
0.9311621606668077
 10
-6.408061414202156
 20
16.39433281251844
 30
0.0
 41
0.9311621606668077
 10
-6.404681941085737
 20
16.42372463786871
 30
0.0
 41
0.9311621606668077
 10
-6.401302467969316
 20
16.45311646321898
 30
0.0
 41
0.9311621606668077
  0
SPLINE
  5
9B
330
1F
100
AcDbEntity
  8
Layer 01
370
    -3
100
AcDbSpline
210
0.0
220
0.0
230
1.0
 70
    15
 71
     2
 72
    45
 73
    42
 74
     0
 42
0.000000001
 43
0.0000000001
 40
18.10554176929185
 40
18.10554176929185
 40
18.10554176929185
 40
18.20054176929184
 40
18.20054176929184
 40
19.20054176929184
 40
20.20054176929184
 40
21.20054176929184
 40
22.20054176929184
 40
23.20054176929184
 40
24.20054176929185
 40
25.20054176929185
 40
26.20054176929185
 40
27.20054176929185
 40
28.20054176929185
 40
29.20054176929185
 40
30.20054176929185
 40
31.20054176929185
 40
32.20054176929185
 40
33.20054176929185
 40
34.20054176929185
 40
35.20054176929185
 40
35.20054176929185
 40
35.29554176929185
 40
35.29554176929185
 40
36.29554176929185
 40
37.29554176929185
 40
38.29554176929185
 40
39.29554176929185
 40
40.29554176929185
 40
41.29554176929185
 40
42.29554176929185
 40
43.29554176929185
 40
44.29554176929185
 40
45.29554176929185
 40
46.29554176929185
 40
47.29554176929185
 40
48.29554176929185
 40
49.29554176929185
 40
50.29554176929185
 40
51.29554176929185
 40
52.29554176929185
 40
53.29554176929185
 40
53.29554176929185
 40
53.29554176929185
 10
-4.131333475235679
 20
16.68212325251834
 30
0.0
 41
0.9969152063605844
 10
-4.135843592200516
 20
16.63510015614887
 30
0.0
 41
0.9969152063605844
 10
-4.140353709165353
 20
16.5880770597794
 30
0.0
 41
0.9969152063605844
 10
-4.141094532876139
 20
16.56899602430672
 30
0.0
 41
0.9969152063605844
 10
-4.112525733876538
 20
16.54500290037628
 30
0.0
 41
0.9969152063605844
 10
-4.07783708570787
 20
16.53611207299164
 30
0.0
 41
0.9969152063605844
 10
-4.04315806227777
 20
16.52833467571036
 30
0.0
 41
0.9969152063605844
 10
-4.008142526210804
 20
16.52195752892621
 30
0.0
 41
0.9969152063605844
 10
-3.97300774502628
 20
16.51634891198826
 30
0.0
 41
0.9969152063605844
 10
-3.937757711142297
 20
16.51150304070162
 30
0.0
 41
0.9969152063605844
 10
-3.902425236920209
 20
16.50730690186319
 30
0.0
 41
0.9969152063605844
 10
-3.867032456317787
 20
16.50365522227946
 30
0.0
 41
0.9969152063605844
 10
-3.831592029439776
 20
16.50049979189277
 30
0.0
 41
0.9969152063605844
 10
-3.796106983331442
 20
16.49789208301926
 30
0.0
 41
0.9969152063605844
 10
-3.760582786836466
 20
16.49587825149229
 30
0.0
 41
0.9969152063605844
 10
-3.725026499999046
 20
16.49457627431577
 30
0.0
 41
0.9969152063605844
 10
-3.689439754372132
 20
16.49412990041148
 30
0.0
 41
0.9969152063605844
 10
-3.653901457585306
 20
16.49535459169673
 30
0.0
 41
0.9969152063605844
 10
-3.618232970637393
 20
16.49673170742513
 30
0.0
 41
0.9969152063605844
 10
-3.585068461354809
 20
16.51361064108588
 30
0.0
 41
0.9969152063605844
 10
-3.580576663041653
 20
16.53321178572386
 30
0.0
 41
0.9969152063605844
 10
-3.575989858307681
 20
16.58081527108948
 30
0.0
 41
0.9969152063605844
 10
-3.571403053573706
 20
16.6284187564551
 30
0.0
 41
0.9969152063605844
 10
-3.58156119429998
 20
16.64015145901016
 30
0.0
 41
0.9969152063605844
 10
-3.613249078011819
 20
16.64831731941399
 30
0.0
 41
0.9969152063605844
 10
-3.64401499437804
 20
16.65566305031061
 30
0.0
 41
0.9969152063605844
 10
-3.675267772617133
 20
16.66165742191871
 30
0.0
 41
0.9969152063605844
 10
-3.706612221925809
 20
16.66693746971238
 30
0.0
 41
0.9969152063605844
 10
-3.738055036101003
 20
16.67163562406645
 30
0.0
 41
0.9969152063605844
 10
-3.769564074835899
 20
16.67585730843351
 30
0.0
 41
0.9969152063605844
 10
-3.801126795693847
 20
16.67965758054273
 30
0.0
 41
0.9969152063605844
 10
-3.832733912700178
 20
16.68306826605443
 30
0.0
 41
0.9969152063605844
 10
-3.864379278019641
 20
16.68610346170854
 30
0.0
 41
0.9969152063605844
 10
-3.896058460199157
 20
16.68876274258633
 30
0.0
 41
0.9969152063605844
 10
-3.927768116133024
 20
16.69103110131453
 30
0.0
 41
0.9969152063605844
 10
-3.9595051529096
 20
16.69287552578951
 30
0.0
 41
0.9969152063605844
 10
-3.991267757666094
 20
16.69423958001246
 30
0.0
 41
0.9969152063605844
 10
-4.023044388443339
 20
16.69501365183641
 30
0.0
 41
0.9969152063605844
 10
-4.054866792503504
 20
16.69506899803321
 30
0.0
 41
0.9969152063605844
 10
-4.086468075083076
 20
16.69370508025854
 30
0.0
 41
0.9969152063605844
 10
-4.119130408366118
 20
16.69171122910846
 30
0.0
 41
0.9969152063605844
 10
-4.131333475235693
 20
16.68212325251834
 30
0.0
 41
0.9969152063605844
  0
SPLINE
  5
9C
330
1F
100
AcDbEntity
  8
Layer 01
370
    -3
100
AcDbSpline
210
0.0
220
0.0
230
1.0
 70
     8
 71
     2
 72
    23
 73
    20
 74
     0
 42
0.000000001
 43
0.0000000001
 40
0.0
 40
0.0
 40
0.0
 40
1.0
 40
2.0
 40
3.0
 40
4.0
 40
5.0
 40
6.0
 40
7.0
 40
8.0
 40
9.0
 40
10.0
 40
11.0
 40
12.0
 40
13.0
 40
14.0
 40
15.0
 40
16.0
 40
17.0
 40
18.0
 40
18.0
 40
18.0
 10
-4.113260433812627
 20
16.55452666101078
 30
0.0
 10
-4.103777430868377
 20
16.56413631308797
 30
0.0
 10
-4.074011791778958
 20
16.56577488211745
 30
0.0
 10
-4.045750745808704
 20
16.5670754087172
 30
0.0
 10
-4.017194190303712
 20
16.56703714319262
 30
0.0
 10
-3.98869493668056
 20
16.5663551183459
 30
0.0
 10
-3.960205422661204
 20
16.56513839412815
 30
0.0
 10
-3.931739364916382
 20
16.56348845529109
 30
0.0
 10
-3.903297870533436
 20
16.56145636455598
 30
0.0
 10
-3.87488381546035
 20
16.55907214421042
 30
0.0
 10
-3.846500203792431
 20
16.55634939529244
 30
0.0
 10
-3.81815106147593
 20
16.55328848871295
 30
0.0
 10
-3.78984192543723
 20
16.54987660969245
 30
0.0
 10
-3.761581341778282
 20
16.54608478540333
 30
0.0
 10
-3.733380074965851
 20
16.54186303805242
 30
0.0
 10
-3.705271179804384
 20
16.53711417029371
 30
0.0
 10
-3.677227148472241
 20
16.53172211671358
 30
0.0
 10
-3.649736049285792
 20
16.52506915725883
 30
0.0
 10
-3.620786833341185
 20
16.51780300022931
 30
0.0
 10
-3.61342859819672
 20
16.50652340946327
 30
0.0
  0
SPLINE
  5
9D
330
1F
100
AcDbEntity
  8
Layer 01
370
    -3
100
AcDbSpline
210
0.0
220
0.0
230
1.0
 70
     8
 71
     2
 72
    13
 73
    10
 74
     0
 42
0.000000001
 43
0.0000000001
 40
0.0
 40
0.0
 40
0.0
 40
1.0
 40
2.0
 40
3.0
 40
4.0
 40
5.0
 40
6.0
 40
7.0
 40
8.0
 40
8.0
 40
8.0
 10
-7.827702829226439
 20
16.60197403148413
 30
0.0
 10
-7.886646908273889
 20
16.60465939229466
 30
0.0
 10
-8.004429963946507
 20
16.61205112321554
 30
0.0
 10
-8.121918973527329
 20
16.623229998282
 30
0.0
 10
-8.238758781112892
 20
16.64018013879821
 30
0.0
 10
-8.353761415502845
 20
16.66693332484569
 30
0.0
 10
-8.465955438330866
 20
16.70383378707994
 30
0.0
 10
-8.57354061893085
 20
16.75293370713922
 30
0.0
 10
-8.66791854878997
 20
16.82453566499337
 30
0.0
 10
-8.707622795314819
 20
16.86839072768213
 30
0.0
  0
SPLINE
  5
9E
330
1F
100
AcDbEntity
  8
Layer 01
370
    -3
100
AcDbSpline
210
0.0
220
0.0
230
1.0
 70
     8
 71
     2
 72
    13
 73
    10
 74
     0
 42
0.000000001
 43
0.0000000001
 40
0.0
 40
0.0
 40
0.0
 40
1.0
 40
2.0
 40
3.0
 40
4.0
 40
5.0
 40
6.0
 40
7.0
 40
8.0
 40
8.0
 40
8.0
 10
-8.491239863360647
 20
16.71548530638006
 30
0.0
 10
-8.45134507050227
 20
16.69942985504682
 30
0.0
 10
-8.367815331785096
 20
16.67906699223519
 30
0.0
 10
-8.282578589511616
 20
16.66825887137602
 30
0.0
 10
-8.196800222045255
 20
16.66406919873496
 30
0.0
 10
-8.110938607615338
 20
16.66376216496279
 30
0.0
 10
-8.025096679805301
 20
16.6652962783506
 30
0.0
 10
-7.939267061609229
 20
16.66735804020118
 30
0.0
 10
-7.853440624343648
 20
16.66955010253335
 30
0.0
 10
-7.810528438857688
 20
16.67068523953813
 30
0.0
  0
SPLINE
  5
9F
330
1F
100
AcDbEntity
  8
Layer 01
370
    -3
100
AcDbSpline
210
0.0
220
0.0
230
1.0
 70
    12
 71
     3
 72
    32
 73
    28
 74
     0
 42
0.000000001
 43
0.0000000001
 40
0.0
 40
0.0
 40
0.0
 40
0.0
 40
1.0
 40
1.0
 40
2.0
 40
2.0
 40
3.0
 40
3.0
 40
4.0
 40
4.0
 40
4.0
 40
4.084148150613579
 40
4.084148150613579
 40
4.084148150613579
 40
4.168355323165442
 40
4.168355323165442
 40
4.168355323165442
 40
4.252621438111643
 40
4.252621438111643
 40
4.252621438111643
 40
5.252621438111643
 40
5.252621438111643
 40
6.252621438111643
 40
6.252621438111643
 40
7.252621438111643
 40
7.252621438111643
 40
8.252621438111643
 40
8.252621438111643
 40
8.252621438111643
 40
8.252621438111643
 10
-3.496199104007871
 20
16.98237652776139
 30
0.0
 41
1.0
 10
-3.461070316096842
 20
16.99260981970841
 30
0.0
 41
1.0
 10
-3.42790662333041
 20
17.00729352033367
 30
0.0
 41
1.0
 10
-3.365509428086744
 20
17.04556173894069
 30
0.0
 41
1.0
 10
-3.337528434541506
 20
17.0686346491404
 30
0.0
 41
1.0
 10
-3.288001655604224
 20
17.12265807133222
 30
0.0
 41
1.0
 10
-3.268061144637466
 20
17.15289226001061
 30
0.0
 41
1.0
 10
-3.237825879707719
 20
17.21980559253235
 30
0.0
 41
1.0
 10
-3.228878494979912
 20
17.25485958481898
 30
0.0
 41
1.0
 10
-3.226101357989172
 20
17.29151090313136
 30
0.0
 41
1.0
 10
-3.224029005281718
 20
17.31948120765693
 30
0.0
 41
1.0
 10
-3.221955043616446
 20
17.34745132958069
 30
0.0
 41
1.0
 10
-3.219879476182396
 20
17.3754213149107
 30
0.0
 41
1.0
 10
-3.217802452831784
 20
17.40341091991901
 30
0.0
 41
1.0
 10
-3.21572382146296
 20
17.4314003880869
 30
0.0
 41
1.0
 10
-3.213643589156961
 20
17.45938971973682
 30
0.0
 41
1.0
 10
-3.211561900641415
 20
17.48739864454996
 30
0.0
 41
1.0
 10
-3.209478608950567
 20
17.51540743260013
 30
0.0
 41
1.0
 10
-3.207393721665232
 20
17.54341608422992
 30
0.0
 41
1.0
 10
-3.207082043936426
 20
17.5475893226599
 30
0.0
 41
1.0
 10
-3.2064763048626
 20
17.55171944525537
 30
0.0
 41
1.0
 10
-3.20467670402491
 20
17.55989345877733
 30
0.0
 41
1.0
 10
-3.20349126283925
 20
17.56389583139896
 30
0.0
 41
1.0
 10
-3.200549098934303
 20
17.57173130836349
 30
0.0
 41
1.0
 10
-3.198811709157331
 20
17.57552695296854
 30
0.0
 41
1.0
 10
-3.194804313954388
 20
17.58287405442423
 30
0.0
 41
1.0
 10
-3.192560160246094
 20
17.58639419883066
 30
0.0
 41
1.0
 10
-3.190075550430976
 20
17.58976093691567
 30
0.0
 41
1.0
  0
SPLINE
  5
A0
330
1F
100
AcDbEntity
  8
Layer 01
370
    -3
100
AcDbSpline
210
0.0
220
0.0
230
1.0
 70
     8
 71
     2
 72
    46
 73
    43
 74
     0
 42
0.000000001
 43
0.0000000001
 40
-2.554851761541498
 40
-2.554851761541498
 40
-2.554851761541498
 40
0.0
 40
0.0
 40
1.0
 40
2.0
 40
3.0
 40
4.0
 40
5.0
 40
6.0
 40
7.0
 40
7.0
 40
23.06661371123543
 40
23.06661371123543
 40
23.17218568145417
 40
23.17218568145417
 40
24.17218568145417
 40
25.17218568145417
 40
26.17218568145417
 40
27.17218568145418
 40
28.17218568145418
 40
29.17218568145418
 40
30.17218568145418
 40
31.17218568145418
 40
32.17218568145418
 40
33.17218568145418
 40
33.17218568145418
 40
33.27555286807274
 40
33.27555286807274
 40
49.34112304777218
 40
49.34112304777218
 40
50.34112304777218
 40
51.34112304777218
 40
52.34112304777218
 40
53.34112304777218
 40
54.34112304777218
 40
55.34112304777218
 40
56.34112304777218
 40
57.34112304777218
 40
58.34112304777218
 40
59.34112304777218
 40
60.34112304777218
 40
61.34112304777218
 40
61.34112304777218
 40
61.34112304777218
 10
-4.046562905536945
 20
17.01709729463799
 30
0.0
 10
-5.073991535235464
 20
17.15156378383816
 30
0.0
 10
-6.101420164933984
 20
17.28603027303834
 30
0.0
 10
-6.221928268037772
 20
17.30274271781999
 30
0.0
 10
-6.460806589277979
 20
17.25734971607585
 30
0.0
 10
-6.672308855104319
 20
17.13789524405594
 30
0.0
 10
-6.845177769336715
 20
16.96824479783396
 30
0.0
 10
-6.977765800081272
 20
16.76596015967234
 30
0.0
 10
-7.071716996283953
 20
16.54330149502874
 30
0.0
 10
-7.128613677592682
 20
16.30852265017197
 30
0.0
 10
-7.138980378149625
 20
16.18819605505662
 30
0.0
 10
-7.829423789961496
 20
8.204927207517512
 30
0.0
 10
-8.519867201773366
 20
0.2216583599784016
 30
0.0
 10
-8.533527217503405
 20
0.1700940246128098
 30
0.0
 10
-8.547187233233444
 20
0.1185296892472181
 30
0.0
 10
-8.558995696517627
 20
0.0765360563210157
 30
0.0
 10
-8.633751732927493
 20
0.0390495657560394
 30
0.0
 10
-8.712161158273261
 20
0.0169357850833227
 30
0.0
 10
-8.79277122454863
 20
0.0036740560648727
 30
0.0
 10
-8.87439007409813
 20
0.0006376677452709
 30
0.0
 10
-8.955760415362505
 20
0.007674747447045
 30
0.0
 10
-9.035646169242682
 20
0.0246783624855212
 30
0.0
 10
-9.11278257803184
 20
0.05158247676548
 30
0.0
 10
-9.186231602052885
 20
0.0868284506889451
 30
0.0
 10
-9.253440522764492
 20
0.1365972538208441
 30
0.0
 10
-9.257869515455582
 20
0.1799939688993959
 30
0.0
 10
-9.262402571885104
 20
0.2328495017205063
 30
0.0
 10
-9.266935628314627
 20
0.2857050345416166
 30
0.0
 10
-8.576563399823613
 20
8.26926228212851
 30
0.0
 10
-7.886191171332598
 20
16.2528195297154
 30
0.0
 10
-7.877942109718788
 20
16.34780895998661
 30
0.0
 10
-7.846317096314237
 20
16.53586535931133
 30
0.0
 10
-7.799287994964232
 20
16.72067938590459
 30
0.0
 10
-7.736831428533321
 20
16.9008719019094
 30
0.0
 10
-7.658885736094305
 20
17.07493566686311
 30
0.0
 10
-7.565429669795719
 20
17.24120088900704
 30
0.0
 10
-7.456558406894885
 20
17.3978232144785
 30
0.0
 10
-7.332538160484432
 20
17.54276761383464
 30
0.0
 10
-7.193894415152272
 20
17.67382070612499
 30
0.0
 10
-7.041518911057238
 20
17.78865283711298
 30
0.0
 10
-6.876758639645914
 20
17.88491611530552
 30
0.0
 10
-6.701449420358756
 20
17.96032857224813
 30
0.0
 10
-6.609719501707218
 20
17.9866282100779
 30
0.0
  0
SPLINE
  5
A1
330
1F
100
AcDbEntity
  8
Layer 01
370
    -3
100
AcDbSpline
210
0.0
220
0.0
230
1.0
 70
     8
 71
     2
 72
    15
 73
    12
 74
     0
 42
0.000000001
 43
0.0000000001
 40
0.0
 40
0.0
 40
0.0
 40
1.0
 40
2.0
 40
3.0
 40
4.0
 40
5.0
 40
6.0
 40
7.0
 40
8.0
 40
9.0
 40
10.0
 40
10.0
 40
10.0
 10
-9.264453883442627
 20
0.2877696333563772
 30
0.0
 10
-9.227665867454675
 20
0.2955539836744354
 30
0.0
 10
-9.152126016239123
 20
0.2945961975330003
 30
0.0
 10
-9.07693504644567
 20
0.2922425988558151
 30
0.0
 10
-9.001769250857478
 20
0.2880244594865312
 30
0.0
 10
-8.926691978469762
 20
0.2826099818935741
 30
0.0
 10
-8.851699237584455
 20
0.2760951532854086
 30
0.0
 10
-8.776817615132273
 20
0.268471761438216
 30
0.0
 10
-8.702028041949802
 20
0.2596735968912545
 30
0.0
 10
-8.627707819736685
 20
0.2488143704964012
 30
0.0
 10
-8.55232862221817
 20
0.2374888403550129
 30
0.0
 10
-8.519988007249765
 20
0.2202615436160542
 30
0.0
  0
SPLINE
  5
A2
330
1F
100
AcDbEntity
  8
Layer 01
370
    -3
100
AcDbSpline
210
0.0
220
0.0
230
1.0
 70
    12
 71
     3
 72
   207
 73
   203
 74
     0
 42
0.000000001
 43
0.0000000001
 40
-9.258386390216147
 40
-9.258386390216147
 40
-9.258386390216147
 40
-9.258386390216147
 40
-9.179573124863367
 40
-9.179573124863367
 40
-9.179573124863367
 40
-9.05652974703967
 40
-9.05652974703967
 40
-9.05652974703967
 40
-8.929358978170962
 40
-8.929358978170962
 40
-8.929358978170962
 40
-8.928566095640413
 40
-8.928566095640413
 40
-8.928566095640413
 40
-8.291969322925446
 40
-8.291969322925446
 40
-8.291969322925446
 40
-7.720020133830779
 40
-7.720020133830779
 40
-7.720020133830779
 40
-7.208545911951918
 40
-7.208545911951918
 40
-7.208545911951918
 40
-6.753239878463385
 40
-6.753239878463385
 40
-6.753239878463385
 40
-6.348654272102658
 40
-6.348654272102658
 40
-6.348654272102658
 40
-5.989890410451524
 40
-5.989890410451524
 40
-5.989890410451524
 40
-5.673565517381912
 40
-5.673565517381912
 40
-5.673565517381912
 40
-5.52175468812776
 40
-5.52175468812776
 40
-5.52175468812776
 40
-5.380469135076201
 40
-5.380469135076201
 40
-5.380469135076201
 40
-5.256670372964303
 40
-5.256670372964303
 40
-5.256670372964303
 40
-5.148331380690937
 40
-5.148331380690937
 40
-5.148331380690937
 40
-5.051183055564686
 40
-5.051183055564686
 40
-5.051183055564686
 40
-4.961255364726339
 40
-4.961255364726339
 40
-4.961255364726339
 40
-4.875965751544623
 40
-4.875965751544623
 40
-4.875965751544623
 40
-4.793785590860447
 40
-4.793785590860447
 40
-4.793785590860447
 40
-4.713604399660506
 40
-4.713604399660506
 40
-4.713604399660506
 40
-4.634018322892273
 40
-4.634018322892273
 40
-4.634018322892273
 40
-4.553286940679213
 40
-4.553286940679213
 40
-4.553286940679213
 40
-4.469790633004106
 40
-4.469790633004106
 40
-4.469790633004106
 40
-4.382128968765127
 40
-4.382128968765127
 40
-4.382128968765127
 40
-4.288677602309466
 40
-4.288677602309466
 40
-4.288677602309466
 40
-4.187040108346022
 40
-4.187040108346022
 40
-4.187040108346022
 40
-4.074340392133928
 40
-4.074340392133928
 40
-4.074340392133928
 40
-3.947058055359586
 40
-3.947058055359586
 40
-3.947058055359586
 40
-3.801375359159094
 40
-3.801375359159094
 40
-3.801375359159094
 40
-3.638801408341149
 40
-3.638801408341149
 40
-3.638801408341149
 40
-3.234490140747729
 40
-2.830178873154308
 40
-2.425867605560888
 40
-2.021556337967467
 40
-1.617245070373682
 40
-1.212933802780262
 40
-0.8086225351868412
 40
-0.4043112675934206
 40
0.0
 40
0.0
 40
0.0
 40
0.4043112675934206
 40
0.8086225351868412
 40
1.212933802780262
 40
1.617245070373682
 40
2.021556337967467
 40
2.425867605560888
 40
2.830178873154308
 40
3.234490140747729
 40
3.638801408341149
 40
3.638801408341149
 40
3.638801408341149
 40
3.801375359159094
 40
3.801375359159094
 40
3.801375359159094
 40
3.947058055359586
 40
3.947058055359586
 40
3.947058055359586
 40
4.074340392133928
 40
4.074340392133928
 40
4.074340392133928
 40
4.187040108346022
 40
4.187040108346022
 40
4.187040108346022
 40
4.288677602309466
 40
4.288677602309466
 40
4.288677602309466
 40
4.382128968765127
 40
4.382128968765127
 40
4.382128968765127
 40
4.469790633004106
 40
4.469790633004106
 40
4.469790633004106
 40
4.553286940679213
 40
4.553286940679213
 40
4.553286940679213
 40
4.634018322892273
 40
4.634018322892273
 40
4.634018322892273
 40
4.713604399660506
 40
4.713604399660506
 40
4.713604399660506
 40
4.793785590860447
 40
4.793785590860447
 40
4.793785590860447
 40
4.875965751544623
 40
4.875965751544623
 40
4.875965751544623
 40
4.961255364726339
 40
4.961255364726339
 40
4.961255364726339
 40
5.051183055564686
 40
5.051183055564686
 40
5.051183055564686
 40
5.148331380690937
 40
5.148331380690937
 40
5.148331380690937
 40
5.256670372964303
 40
5.256670372964303
 40
5.256670372964303
 40
5.380469135076201
 40
5.380469135076201
 40
5.380469135076201
 40
5.52175468812776
 40
5.52175468812776
 40
5.52175468812776
 40
5.673565517381912
 40
5.673565517381912
 40
5.673565517381912
 40
5.989890410451524
 40
5.989890410451524
 40
5.989890410451524
 40
6.348654272102658
 40
6.348654272102658
 40
6.348654272102658
 40
6.753239878463385
 40
6.753239878463385
 40
6.753239878463385
 40
7.208545911951918
 40
7.208545911951918
 40
7.208545911951918
 40
7.720020133830779
 40
7.720020133830779
 40
7.720020133830779
 40
8.291969322925446
 40
8.291969322925446
 40
8.291969322925446
 40
8.928566095640413
 40
8.928566095640413
 40
8.928566095640413
 40
8.929358978170962
 40
8.929358978170962
 40
8.929358978170962
 40
9.05652974703967
 40
9.05652974703967
 40
9.05652974703967
 40
9.179573124863367
 40
9.179573124863367
 40
9.179573124863367
 40
9.258386390216147
 40
9.258386390216147
 40
9.258386390216147
 40
9.258386390216147
 10
4.975043021716402
 20
58.10720859857307
 30
0.0
 41
1.0
 10
4.975356775833575
 20
58.11746191754482
 30
0.0
 41
1.0
 10
4.975614073728934
 20
58.12716712759985
 30
0.0
 41
1.0
 10
4.975826461580681
 20
58.13639974391349
 30
0.0
 41
1.0
 10
4.97615812201829
 20
58.15081720490222
 30
0.0
 41
1.0
 10
4.976379351461532
 20
58.16404156506769
 30
0.0
 41
1.0
 10
4.976525276458659
 20
58.17628688111911
 30
0.0
 41
1.0
 10
4.976676031871392
 20
58.1889375421572
 30
0.0
 41
1.0
 10
4.976745718403407
 20
58.20048809055539
 30
0.0
 41
1.0
 10
4.976720945123231
 20
58.21255871088934
 30
0.0
 41
1.0
 10
4.976695414729841
 20
58.21374588610336
 30
0.0
 41
1.000768039664218
 10
4.97668222996876
 20
58.21445731072038
 30
0.0
 41
1.001540184673226
 10
4.976681362470232
 20
58.21469407549718
 30
0.0
 41
1.002316435027025
 10
4.976481582865432
 20
58.26928276634192
 30
0.0
 41
1.002316435027025
 10
4.976660953139288
 20
58.32299976526046
 30
0.0
 41
1.002316435027025
 10
4.976008304867236
 20
58.37606333806996
 30
0.0
 41
1.002316435027025
 10
4.975422076475837
 20
58.42372664196778
 30
0.0
 41
1.002316435027025
 10
4.97416703620766
 20
58.47086757799553
 30
0.0
 41
1.002316435027025
 10
4.971421005834146
 20
58.51769280452298
 30
0.0
 41
1.002316435027025
 10
4.968965952044955
 20
58.55955630717175
 30
0.0
 41
1.002316435027025
 10
4.965318120914645
 20
58.60122595136167
 30
0.0
 41
1.002316435027025
 10
4.959952947261513
 20
58.64293618869399
 30
0.0
 41
1.002316435027025
 10
4.955179395081842
 20
58.68004700881004
 30
0.0
 41
1.002316435027025
 10
4.949041772867787
 20
58.71722168021157
 30
0.0
 41
1.002316435027025
 10
4.94115401294107
 20
58.7545471793776
 30
0.0
 41
1.002316435027025
 10
4.934145147146154
 20
58.78771368251828
 30
0.0
 41
1.002316435027025
 10
4.925776715413321
 20
58.82089447078887
 30
0.0
 41
1.002316435027025
 10
4.915558129916718
 20
58.85431996159172
 30
0.0
 41
1.002316435027025
 10
4.906489747375105
 20
58.88398308251425
 30
0.0
 41
1.002316435027025
 10
4.896032496540187
 20
58.91363548360868
 30
0.0
 41
1.002316435027025
 10
4.883525706006737
 20
58.94377587208778
 30
0.0
 41
1.002316435027025
 10
4.872496066014946
 20
58.97035644311815
 30
0.0
 41
1.002316435027025
 10
4.859908009405076
 20
58.99724054792278
 30
0.0
 41
1.002316435027025
 10
4.845281698371026
 20
59.02462967839926
 30
0.0
 41
1.002316435027025
 10
4.83878002124203
 20
59.03665813901203
 30
0.0
 41
1.002316435027025
 10
4.831605457026768
 20
59.04869338371532
 30
0.0
 41
1.002316435027025
 10
4.823036314664364
 20
59.06147073208886
 30
0.0
 41
1.002316435027025
 10
4.814949342367328
 20
59.07343556453616
 30
0.0
 41
1.002316435027025
 10
4.806424737094375
 20
59.08488931198405
 30
0.0
 41
1.002316435027025
 10
4.796685072185056
 20
59.09660910397353
 30
0.0
 41
1.002316435027025
 10
4.788146674700783
 20
59.10688340430839
 30
0.0
 41
1.002316435027025
 10
4.778692744520498
 20
59.11734213424516
 30
0.0
 41
1.002316435027025
 10
4.768010643140229
 20
59.12806819643343
 30
0.0
 41
1.002316435027025
 10
4.758658358092731
 20
59.13745896960164
 30
0.0
 41
1.002316435027025
 10
4.748356948688127
 20
59.14706176763565
 30
0.0
 41
1.002316435027025
 10
4.736882810026685
 20
59.15690865584277
 30
0.0
 41
1.002316435027025
 10
4.72659406958286
 20
59.16573825777905
 30
0.0
 41
1.002316435027025
 10
4.71536453875396
 20
59.17476130558064
 30
0.0
 41
1.002316435027025
 10
4.703056983375888
 20
59.18397078585874
 30
0.0
 41
1.002316435027025
 10
4.691665273152466
 20
59.19249495880889
 30
0.0
 41
1.002316435027025
 10
4.679346273686832
 20
59.20118090806662
 30
0.0
 41
1.002316435027025
 10
4.666034683589686
 20
59.20999842657058
 30
0.0
 41
1.002316435027025
 10
4.653411273391015
 20
59.21836009878234
 30
0.0
 41
1.002316435027025
 10
4.639893594948347
 20
59.22684082024767
 30
0.0
 41
1.002316435027025
 10
4.62546328562965
 20
59.23540050733962
 30
0.0
 41
1.002316435027025
 10
4.611559894164061
 20
59.24364764035904
 30
0.0
 41
1.002316435027025
 10
4.596807003657233
 20
59.25196935479536
 30
0.0
 41
1.002316435027025
 10
4.581213751870763
 20
59.26032414011971
 30
0.0
 41
1.002316435027025
 10
4.56600000142646
 20
59.26847559054719
 30
0.0
 41
1.002316435027025
 10
4.549982482242058
 20
59.27666056224282
 30
0.0
 41
1.002316435027025
 10
4.533192544965772
 20
59.28483873470859
 30
0.0
 41
1.002316435027025
 10
4.516527297647657
 20
59.29295617222544
 30
0.0
 41
1.002316435027025
 10
4.499095039716593
 20
59.30106983255418
 30
0.0
 41
1.002316435027025
 10
4.48095487055926
 20
59.30914079392088
 30
0.0
 41
1.002316435027025
 10
4.462554130861946
 20
59.3173276888681
 30
0.0
 41
1.002316435027025
 10
4.44341772496719
 20
59.325473841087
 30
0.0
 41
1.002316435027025
 10
4.423633785936403
 20
59.3335416946601
 30
0.0
 41
1.002316435027025
 10
4.403171994877937
 20
59.34188597503044
 30
0.0
 41
1.002316435027025
 10
4.38200916360222
 20
59.35014993518647
 30
0.0
 41
1.002316435027025
 10
4.360251174464906
 20
59.35829990806904
 30
0.0
 41
1.002316435027025
 10
4.337406838744812
 20
59.36685679792975
 30
0.0
 41
1.002316435027025
 10
4.313897250761954
 20
59.37529152799034
 30
0.0
 41
1.002316435027025
 10
4.289840203915787
 20
59.38357586156243
 30
0.0
 41
1.002316435027025
 10
4.264193119915745
 20
59.39240774356219
 30
0.0
 41
1.002316435027025
 10
4.237913400448434
 20
59.40107233237394
 30
0.0
 41
1.002316435027025
 10
4.211133224966972
 20
59.40954803112044
 30
0.0
 41
1.002316435027025
 10
4.182006362035878
 20
59.41876643657132
 30
0.0
 41
1.002316435027025
 10
4.152272732883716
 20
59.42776601992781
 30
0.0
 41
1.002316435027025
 10
4.12208779768318
 20
59.43653306103113
 30
0.0
 41
1.002316435027025
 10
4.08861470986156
 20
59.44625512718229
 30
0.0
 41
1.002316435027025
 10
4.054568268320793
 20
59.45569651135487
 30
0.0
 41
1.002316435027025
 10
4.020112363602863
 20
59.46485513163957
 30
0.0
 41
1.002316435027025
 10
3.981196764805844
 20
59.4751991697791
 30
0.0
 41
1.002316435027025
 10
3.941734398452724
 20
59.48518913029825
 30
0.0
 41
1.002316435027025
 10
3.901911739893677
 20
59.49483364724424
 30
0.0
 41
1.002316435027025
 10
3.856322251026683
 20
59.50587481360146
 30
0.0
 41
1.002316435027025
 10
3.81024341732396
 20
59.51646774067501
 30
0.0
 41
1.002316435027025
 10
3.763826913953636
 20
59.526650402607
 30
0.0
 41
1.002316435027025
 10
3.712057197809401
 20
59.53800743037807
 30
0.0
 41
1.002316435027025
 10
3.659778020299001
 20
59.54887427167317
 30
0.0
 41
1.002316435027025
 10
3.607591726650583
 20
59.56103270737732
 30
0.0
 41
1.002316435027025
 10
3.515509789527954
 20
59.58113680386361
 30
0.0
 41
1.002316435027025
 10
3.31662549565695
 20
59.61849605695541
 30
0.0
 41
1.002316435027025
 10
2.973853486943938
 20
59.67551676204081
 30
0.0
 41
1.002316435027025
 10
2.591067127898924
 20
59.73037946703781
 30
0.0
 41
1.002316435027025
 10
2.167456779503937
 20
59.78110542342282
 30
0.0
 41
1.002316435027025
 10
1.69698802784194
 20
59.82578539075281
 30
0.0
 41
1.002316435027025
 10
1.20861117742794
 20
59.85997000990382
 30
0.0
 41
1.002316435027025
 10
0.7521994317087604
 20
59.88116285803282
 30
0.0
 41
1.002316435027025
 10
0.3555229746778252
 20
59.89147654100282
 30
0.0
 41
1.002316435027025
 10
0.1137603532905302
 20
59.89347032069182
 30
0.0
 41
1.002316435027025
 10
0.0
 20
59.89343868000782
 30
0.0
 41
1.002316435027025
 10
-0.1137603532905302
 20
59.89347032069182
 30
0.0
 41
1.002316435027025
 10
-0.3555229746778252
 20
59.89147654100282
 30
0.0
 41
1.002316435027025
 10
-0.7521994317087604
 20
59.88116285803282
 30
0.0
 41
1.002316435027025
 10
-1.20861117742794
 20
59.85997000990382
 30
0.0
 41
1.002316435027025
 10
-1.69698802784194
 20
59.82578539075281
 30
0.0
 41
1.002316435027025
 10
-2.167456779503937
 20
59.78110542342282
 30
0.0
 41
1.002316435027025
 10
-2.591067127898924
 20
59.73037946703781
 30
0.0
 41
1.002316435027025
 10
-2.973853486943938
 20
59.67551676204081
 30
0.0
 41
1.002316435027025
 10
-3.31662549565695
 20
59.61849605695541
 30
0.0
 41
1.002316435027025
 10
-3.515509789527954
 20
59.58113680386361
 30
0.0
 41
1.002316435027025
 10
-3.607591726650583
 20
59.56103270737732
 30
0.0
 41
1.002316435027025
 10
-3.659778020299001
 20
59.54887427167317
 30
0.0
 41
1.002316435027025
 10
-3.712057197809401
 20
59.53800743037807
 30
0.0
 41
1.002316435027025
 10
-3.763826913953636
 20
59.526650402607
 30
0.0
 41
1.002316435027025
 10
-3.81024341732396
 20
59.51646774067501
 30
0.0
 41
1.002316435027025
 10
-3.856322251026683
 20
59.50587481360146
 30
0.0
 41
1.002316435027025
 10
-3.901911739893677
 20
59.49483364724424
 30
0.0
 41
1.002316435027025
 10
-3.941734398452724
 20
59.48518913029825
 30
0.0
 41
1.002316435027025
 10
-3.981196764805844
 20
59.4751991697791
 30
0.0
 41
1.002316435027025
 10
-4.020112363602863
 20
59.46485513163957
 30
0.0
 41
1.002316435027025
 10
-4.054568268320793
 20
59.45569651135487
 30
0.0
 41
1.002316435027025
 10
-4.08861470986156
 20
59.44625512718229
 30
0.0
 41
1.002316435027025
 10
-4.12208779768318
 20
59.43653306103113
 30
0.0
 41
1.002316435027025
 10
-4.152272732883716
 20
59.42776601992781
 30
0.0
 41
1.002316435027025
 10
-4.182006362035878
 20
59.41876643657132
 30
0.0
 41
1.002316435027025
 10
-4.211133224966972
 20
59.40954803112044
 30
0.0
 41
1.002316435027025
 10
-4.237913400448434
 20
59.40107233237394
 30
0.0
 41
1.002316435027025
 10
-4.264193119915745
 20
59.39240774356219
 30
0.0
 41
1.002316435027025
 10
-4.289840203915787
 20
59.38357586156243
 30
0.0
 41
1.002316435027025
 10
-4.313897250761954
 20
59.37529152799034
 30
0.0
 41
1.002316435027025
 10
-4.337406838744812
 20
59.36685679792975
 30
0.0
 41
1.002316435027025
 10
-4.360251174464906
 20
59.35829990806904
 30
0.0
 41
1.002316435027025
 10
-4.38200916360222
 20
59.35014993518647
 30
0.0
 41
1.002316435027025
 10
-4.403171994877937
 20
59.34188597503044
 30
0.0
 41
1.002316435027025
 10
-4.423633785936403
 20
59.3335416946601
 30
0.0
 41
1.002316435027025
 10
-4.44341772496719
 20
59.325473841087
 30
0.0
 41
1.002316435027025
 10
-4.462554130861946
 20
59.3173276888681
 30
0.0
 41
1.002316435027025
 10
-4.48095487055926
 20
59.30914079392088
 30
0.0
 41
1.002316435027025
 10
-4.499095039716593
 20
59.30106983255418
 30
0.0
 41
1.002316435027025
 10
-4.516527297647657
 20
59.29295617222544
 30
0.0
 41
1.002316435027025
 10
-4.533192544965772
 20
59.28483873470859
 30
0.0
 41
1.002316435027025
 10
-4.549982482242058
 20
59.27666056224282
 30
0.0
 41
1.002316435027025
 10
-4.56600000142646
 20
59.26847559054719
 30
0.0
 41
1.002316435027025
 10
-4.581213751870763
 20
59.26032414011971
 30
0.0
 41
1.002316435027025
 10
-4.596807003657233
 20
59.25196935479536
 30
0.0
 41
1.002316435027025
 10
-4.611559894164061
 20
59.24364764035904
 30
0.0
 41
1.002316435027025
 10
-4.62546328562965
 20
59.23540050733962
 30
0.0
 41
1.002316435027025
 10
-4.639893594948347
 20
59.22684082024767
 30
0.0
 41
1.002316435027025
 10
-4.653411273391015
 20
59.21836009878234
 30
0.0
 41
1.002316435027025
 10
-4.666034683589686
 20
59.20999842657058
 30
0.0
 41
1.002316435027025
 10
-4.679346273686832
 20
59.20118090806662
 30
0.0
 41
1.002316435027025
 10
-4.691665273152466
 20
59.19249495880889
 30
0.0
 41
1.002316435027025
 10
-4.703056983375888
 20
59.18397078585874
 30
0.0
 41
1.002316435027025
 10
-4.71536453875396
 20
59.17476130558064
 30
0.0
 41
1.002316435027025
 10
-4.72659406958286
 20
59.16573825777905
 30
0.0
 41
1.002316435027025
 10
-4.736882810026685
 20
59.15690865584277
 30
0.0
 41
1.002316435027025
 10
-4.748356948688127
 20
59.14706176763565
 30
0.0
 41
1.002316435027025
 10
-4.758658358092731
 20
59.13745896960164
 30
0.0
 41
1.002316435027025
 10
-4.768010643140229
 20
59.12806819643343
 30
0.0
 41
1.002316435027025
 10
-4.778692744520498
 20
59.11734213424516
 30
0.0
 41
1.002316435027025
 10
-4.788146674700783
 20
59.10688340430839
 30
0.0
 41
1.002316435027025
 10
-4.796685072185056
 20
59.09660910397353
 30
0.0
 41
1.002316435027025
 10
-4.806424737094375
 20
59.08488931198405
 30
0.0
 41
1.002316435027025
 10
-4.814949342367328
 20
59.07343556453616
 30
0.0
 41
1.002316435027025
 10
-4.823036314664364
 20
59.06147073208886
 30
0.0
 41
1.002316435027025
 10
-4.831605457026768
 20
59.04869338371532
 30
0.0
 41
1.002316435027025
 10
-4.83878002124203
 20
59.03665813901203
 30
0.0
 41
1.002316435027025
 10
-4.845281698371026
 20
59.02462967839926
 30
0.0
 41
1.002316435027025
 10
-4.859908009405076
 20
58.99724054792278
 30
0.0
 41
1.002316435027025
 10
-4.872496066014946
 20
58.97035644311815
 30
0.0
 41
1.002316435027025
 10
-4.883525706006737
 20
58.94377587208778
 30
0.0
 41
1.002316435027025
 10
-4.896032496540187
 20
58.91363548360868
 30
0.0
 41
1.002316435027025
 10
-4.906489747375105
 20
58.88398308251425
 30
0.0
 41
1.002316435027025
 10
-4.915558129916718
 20
58.85431996159172
 30
0.0
 41
1.002316435027025
 10
-4.925776715413321
 20
58.82089447078887
 30
0.0
 41
1.002316435027025
 10
-4.934145147146154
 20
58.78771368251828
 30
0.0
 41
1.002316435027025
 10
-4.94115401294107
 20
58.7545471793776
 30
0.0
 41
1.002316435027025
 10
-4.949041772867787
 20
58.71722168021157
 30
0.0
 41
1.002316435027025
 10
-4.955179395081842
 20
58.68004700881004
 30
0.0
 41
1.002316435027025
 10
-4.959952947261513
 20
58.64293618869399
 30
0.0
 41
1.002316435027025
 10
-4.965318120914645
 20
58.60122595136167
 30
0.0
 41
1.002316435027025
 10
-4.968965952044955
 20
58.55955630717175
 30
0.0
 41
1.002316435027025
 10
-4.971421005834146
 20
58.51769280452298
 30
0.0
 41
1.002316435027025
 10
-4.97416703620766
 20
58.47086757799553
 30
0.0
 41
1.002316435027025
 10
-4.975422076475837
 20
58.42372664196778
 30
0.0
 41
1.002316435027025
 10
-4.976008304867236
 20
58.37606333806996
 30
0.0
 41
1.002316435027025
 10
-4.976660953139288
 20
58.32299976526046
 30
0.0
 41
1.002316435027025
 10
-4.976481582865432
 20
58.26928276634192
 30
0.0
 41
1.002316435027025
 10
-4.976681362470232
 20
58.21469407549718
 30
0.0
 41
1.002316435027025
 10
-4.976682229968797
 20
58.21445731072038
 30
0.0
 41
1.001540184673226
 10
-4.976695414729873
 20
58.21374588610336
 30
0.0
 41
1.000768039664218
 10
-4.976720945123217
 20
58.21255871088934
 30
0.0
 41
1.0
 10
-4.976745718403407
 20
58.20048809055539
 30
0.0
 41
1.0
 10
-4.976676031871392
 20
58.1889375421572
 30
0.0
 41
1.0
 10
-4.976525276458659
 20
58.17628688111911
 30
0.0
 41
1.0
 10
-4.976379351461532
 20
58.16404156506769
 30
0.0
 41
1.0
 10
-4.97615812201829
 20
58.15081720490222
 30
0.0
 41
1.0
 10
-4.975826461580681
 20
58.13639974391349
 30
0.0
 41
1.0
 10
-4.975614073728934
 20
58.12716712759985
 30
0.0
 41
1.0
 10
-4.975356775833575
 20
58.11746191754482
 30
0.0
 41
1.0
 10
-4.975043021716402
 20
58.10720859857307
 30
0.0
 41
1.0
  0
SPLINE
  5
A3
330
1F
100
AcDbEntity
  8
Layer 01
370
    -3
100
AcDbSpline
210
0.0
220
0.0
230
1.0
 70
     8
 71
     2
 72
    42
 73
    39
 74
     0
 42
0.000000001
 43
0.0000000001
 40
0.0
 40
0.0
 40
0.0
 40
1.0
 40
2.0
 40
3.0
 40
4.0
 40
5.0
 40
6.0
 40
7.0
 40
8.0
 40
9.0
 40
10.0
 40
11.0
 40
12.0
 40
13.0
 40
14.0
 40
15.0
 40
16.0
 40
17.0
 40
18.0
 40
18.0
 40
19.0
 40
20.0
 40
21.0
 40
22.0
 40
23.0
 40
24.0
 40
25.0
 40
26.0
 40
27.0
 40
28.0
 40
29.0
 40
30.0
 40
31.0
 40
32.0
 40
33.0
 40
34.0
 40
35.0
 40
36.0
 40
36.0
 40
36.0
 10
-9.139274803930988
 20
54.83215515116303
 30
0.0
 10
-9.117585545451618
 20
55.21912622825198
 30
0.0
 10
-9.034933640062633
 20
55.99269308182772
 30
0.0
 10
-8.946728125791083
 20
56.76532548557895
 30
0.0
 10
-8.789018092726508
 20
57.52717217361077
 30
0.0
 10
-8.573122638792114
 20
58.27439430899996
 30
0.0
 10
-8.302135234718094
 20
59.00350425753291
 30
0.0
 10
-7.985746483441233
 20
59.71377038203854
 30
0.0
 10
-7.606936431472576
 20
60.39523599994546
 30
0.0
 10
-7.076357756479666
 20
60.96902554585355
 30
0.0
 10
-6.422955733533513
 20
61.39534087579577
 30
0.0
 10
-5.714747337411723
 20
61.71814812911306
 30
0.0
 10
-4.985973864555092
 20
61.98962452782741
 30
0.0
 10
-4.239643572423773
 20
62.20858868019807
 30
0.0
 10
-3.481023808727912
 20
62.37978003826854
 30
0.0
 10
-2.713974244140786
 20
62.50776420732308
 30
0.0
 10
-1.941515505819098
 20
62.59715459574853
 30
0.0
 10
-1.165889303305079
 20
62.65217923161821
 30
0.0
 10
-0.3887712484196015
 20
62.67809611098617
 30
0.0
 10
0.0
 20
62.67777229744382
 30
0.0
 10
0.3887712484196015
 20
62.67809611098617
 30
0.0
 10
1.165889303305079
 20
62.65217923161821
 30
0.0
 10
1.941515505819098
 20
62.59715459574853
 30
0.0
 10
2.713974244140786
 20
62.50776420732308
 30
0.0
 10
3.481023808727912
 20
62.37978003826854
 30
0.0
 10
4.239643572423773
 20
62.20858868019807
 30
0.0
 10
4.985973864555092
 20
61.98962452782741
 30
0.0
 10
5.714747337411723
 20
61.71814812911306
 30
0.0
 10
6.422955733533513
 20
61.39534087579577
 30
0.0
 10
7.076357756479666
 20
60.96902554585355
 30
0.0
 10
7.606936431472576
 20
60.39523599994546
 30
0.0
 10
7.985746483441233
 20
59.71377038203854
 30
0.0
 10
8.302135234718094
 20
59.00350425753291
 30
0.0
 10
8.573122638792114
 20
58.27439430899996
 30
0.0
 10
8.789018092726508
 20
57.52717217361077
 30
0.0
 10
8.946728125791083
 20
56.76532548557895
 30
0.0
 10
9.034933640062633
 20
55.99269308182772
 30
0.0
 10
9.117585545451618
 20
55.21912622825198
 30
0.0
 10
9.139274803930988
 20
54.83215515116303
 30
0.0
  0
SPLINE
  5
A4
330
1F
100
AcDbEntity
  8
Layer 01
370
    -3
100
AcDbSpline
210
0.0
220
0.0
230
1.0
 70
     8
 71
     2
 72
   104
 73
   101
 74
     0
 42
0.000000001
 43
0.0000000001
 40
-10.0
 40
-10.0
 40
-10.0
 40
-9.0
 40
-8.0
 40
-7.0
 40
-6.0
 40
-5.0
 40
-4.0
 40
-3.0
 40
-2.0
 40
-1.0
 40
0.0
 40
0.0
 40
1.0
 40
2.0
 40
3.0
 40
4.0
 40
5.0
 40
6.0
 40
6.0
 40
6.023272504075661
 40
6.023272504075661
 40
7.023272504075661
 40
8.02327250407566
 40
9.02327250407566
 40
10.02327250407566
 40
11.02327250407566
 40
12.02327250407566
 40
13.02327250407566
 40
14.02327250407566
 40
15.02327250407566
 40
16.02327250407566
 40
16.02327250407566
 40
17.02327250407566
 40
18.02327250407566
 40
19.02327250407566
 40
20.02327250407566
 40
21.02327250407566
 40
22.02327250407566
 40
23.02327250407566
 40
24.02327250407566
 40
25.02327250407566
 40
26.02327250407566
 40
27.02327250407566
 40
28.02327250407566
 40
29.02327250407566
 40
30.02327250407566
 40
31.02327250407566
 40
32.02327250407566
 40
33.02327250407566
 40
34.02327250407566
 40
34.02327250407566
 40
35.02327250407566
 40
36.02327250407566
 40
37.02327250407566
 40
38.02327250407566
 40
39.02327250407566
 40
40.02327250407566
 40
41.02327250407566
 40
42.02327250407566
 40
43.02327250407566
 40
44.02327250407566
 40
45.02327250407566
 40
46.02327250407566
 40
47.02327250407566
 40
48.02327250407566
 40
49.02327250407566
 40
50.02327250407566
 40
51.02327250407566
 40
52.02327250407566
 40
52.02327250407566
 40
53.02327250407566
 40
54.02327250407566
 40
55.02327250407566
 40
56.02327250407566
 40
57.02327250407566
 40
58.02327250407566
 40
59.02327250407566
 40
60.02327250407566
 40
61.02327250407566
 40
62.02327250407566
 40
62.02327250407566
 40
62.04654500815133
 40
62.04654500815133
 40
63.04654500815133
 40
64.04654500815133
 40
65.04654500815133
 40
66.04654500815133
 40
67.04654500815133
 40
68.04654500815133
 40
68.04654500815133
 40
69.04654500815133
 40
70.04654500815133
 40
71.04654500815133
 40
72.04654500815133
 40
73.04654500815133
 40
74.04654500815133
 40
75.04654500815133
 40
76.04654500815133
 40
77.04654500815133
 40
78.04654500815133
 40
78.04654500815133
 40
78.04654500815133
 10
-7.513670344393546
 20
57.27641487013446
 30
0.0
 10
-7.644506952729017
 20
57.20998298063095
 30
0.0
 10
-7.899412396717992
 20
57.06455612181612
 30
0.0
 10
-8.145600229730917
 20
56.90465323980396
 30
0.0
 10
-8.375046787493318
 20
56.72112907784044
 30
0.0
 10
-8.573475919199211
 20
56.50392850098439
 30
0.0
 10
-8.726714122859335
 20
56.25275270532441
 30
0.0
 10
-8.834314087730974
 20
55.97902721133908
 30
0.0
 10
-8.900602630433752
 20
55.69299652698918
 30
0.0
 10
-8.96304473954828
 20
55.40634548545814
 30
0.0
 10
-9.035986953444848
 20
55.12209821075299
 30
0.0
 10
-9.075534887099735
 20
54.98082312405028
 30
0.0
 10
-9.083137009248446
 20
54.95400867575505
 30
0.0
 10
-9.099468479350264
 20
54.9007038777231
 30
0.0
 10
-9.117738758769377
 20
54.84805578896348
 30
0.0
 10
-9.141190128853253
 20
54.79716139182027
 30
0.0
 10
-9.180665188120116
 20
54.75669934607469
 30
0.0
 10
-9.234903393480295
 20
54.73941805469192
 30
0.0
 10
-9.262849548853097
 20
54.74469996171762
 30
0.0
 10
-9.274197985733082
 20
54.74727199240735
 30
0.0
 10
-9.285546422613066
 20
54.74984402309708
 30
0.0
 10
-9.312363332466532
 20
54.75672084222816
 30
0.0
 10
-9.353879403131998
 20
54.79341257447714
 30
0.0
 10
-9.374314255277909
 20
54.84454661133978
 30
0.0
 10
-9.376791101379467
 20
54.89913696279293
 30
0.0
 10
-9.373258970848951
 20
54.95337140643299
 30
0.0
 10
-9.368283796032443
 20
55.00750459671497
 30
0.0
 10
-9.363264710061628
 20
55.06162911585425
 30
0.0
 10
-9.358303369861574
 20
55.11575975886645
 30
0.0
 10
-9.353281269754632
 20
55.16988465994415
 30
0.0
 10
-9.348183838621566
 20
55.22400254530483
 30
0.0
 10
-9.34562294602162
 20
55.25106033029493
 30
0.0
 10
-9.308695129089898
 20
55.63637039059662
 30
0.0
 10
-9.22857690724922
 20
56.40651194476334
 30
0.0
 10
-9.109924067944291
 20
57.17176608655313
 30
0.0
 10
-8.924111457167328
 20
57.92389040202105
 30
0.0
 10
-8.682116115661245
 20
58.6595613475005
 30
0.0
 10
-8.393459391814758
 20
59.37815735875512
 30
0.0
 10
-8.058240621214367
 20
60.07672891113837
 30
0.0
 10
-7.633822051717516
 20
60.72670340688149
 30
0.0
 10
-7.070256675628343
 20
61.26278321015962
 30
0.0
 10
-6.406394774835121
 20
61.66481947302402
 30
0.0
 10
-5.696409084898818
 20
61.97526896843475
 30
0.0
 10
-4.967620650839422
 20
62.23707108620387
 30
0.0
 10
-4.222983774916429
 20
62.44995693442416
 30
0.0
 10
-3.466881169949914
 20
62.61727569825956
 30
0.0
 10
-2.702705909723818
 20
62.7424684237299
 30
0.0
 10
-1.933376369403589
 20
62.83025955944092
 30
0.0
 10
-1.160970896144846
 20
62.88423112011228
 30
0.0
 10
-0.3871283370361027
 20
62.90975792334202
 30
0.0
 10
0.0
 20
62.90948003541346
 30
0.0
 10
0.3871283370361027
 20
62.90975792334202
 30
0.0
 10
1.160970896144846
 20
62.88423112011228
 30
0.0
 10
1.933376369403589
 20
62.83025955944092
 30
0.0
 10
2.702705909723818
 20
62.7424684237299
 30
0.0
 10
3.466881169949914
 20
62.61727569825956
 30
0.0
 10
4.222983774916429
 20
62.44995693442416
 30
0.0
 10
4.967620650839422
 20
62.23707108620387
 30
0.0
 10
5.696409084898818
 20
61.97526896843475
 30
0.0
 10
6.406394774835121
 20
61.66481947302402
 30
0.0
 10
7.070256675628343
 20
61.26278321015962
 30
0.0
 10
7.633822051717516
 20
60.72670340688149
 30
0.0
 10
8.058240621214367
 20
60.07672891113837
 30
0.0
 10
8.393459391814758
 20
59.37815735875512
 30
0.0
 10
8.682116115661245
 20
58.6595613475005
 30
0.0
 10
8.924111457167328
 20
57.92389040202105
 30
0.0
 10
9.109924067944291
 20
57.17176608655313
 30
0.0
 10
9.22857690724922
 20
56.40651194476334
 30
0.0
 10
9.308695129089898
 20
55.63637039059662
 30
0.0
 10
9.34562294602162
 20
55.25106033029493
 30
0.0
 10
9.348183838621566
 20
55.22400254530483
 30
0.0
 10
9.353281269754632
 20
55.16988465994415
 30
0.0
 10
9.358303369861574
 20
55.11575975886645
 30
0.0
 10
9.363264710061628
 20
55.06162911585425
 30
0.0
 10
9.368283796032443
 20
55.00750459671497
 30
0.0
 10
9.373258970848951
 20
54.95337140643299
 30
0.0
 10
9.376791101379467
 20
54.89913696279293
 30
0.0
 10
9.374314255277909
 20
54.84454661133978
 30
0.0
 10
9.353879403131998
 20
54.79341257447714
 30
0.0
 10
9.312363332466532
 20
54.75672084222816
 30
0.0
 10
9.285546422613066
 20
54.74984402309708
 30
0.0
 10
9.274197985733082
 20
54.74727199240735
 30
0.0
 10
9.262849548853097
 20
54.74469996171762
 30
0.0
 10
9.234903393480295
 20
54.73941805469192
 30
0.0
 10
9.180665188120116
 20
54.75669934607469
 30
0.0
 10
9.141190128853253
 20
54.79716139182027
 30
0.0
 10
9.117738758769377
 20
54.84805578896348
 30
0.0
 10
9.099468479350264
 20
54.9007038777231
 30
0.0
 10
9.083137009248446
 20
54.95400867575505
 30
0.0
 10
9.075534887099735
 20
54.98082312405028
 30
0.0
 10
9.035986953444848
 20
55.12209821075299
 30
0.0
 10
8.96304473954828
 20
55.40634548545814
 30
0.0
 10
8.900602630433752
 20
55.69299652698918
 30
0.0
 10
8.834314087730974
 20
55.97902721133908
 30
0.0
 10
8.726714122859335
 20
56.25275270532441
 30
0.0
 10
8.573475919199211
 20
56.50392850098439
 30
0.0
 10
8.375046787493318
 20
56.72112907784044
 30
0.0
 10
8.145600229730917
 20
56.90465323980396
 30
0.0
 10
7.899412396717992
 20
57.06455612181612
 30
0.0
 10
7.644506952729017
 20
57.20998298063095
 30
0.0
 10
7.513670344393546
 20
57.27641487013446
 30
0.0
  0
SPLINE
  5
A5
330
1F
100
AcDbEntity
  8
Layer 01
370
    -3
100
AcDbSpline
210
0.0
220
0.0
230
1.0
 70
    12
 71
     3
 72
    25
 73
    21
 74
     0
 42
0.000000001
 43
0.0000000001
 40
1.505455568349398
 40
1.505455568349398
 40
1.505455568349398
 40
1.505455568349398
 40
2.04515992709732
 40
2.04515992709732
 40
2.04515992709732
 40
2.54082937522048
 40
2.54082937522048
 40
2.940680412286268
 40
2.940680412286268
 40
2.940680412286268
 40
19.19903482413644
 40
19.19903482413644
 40
19.19903482413644
 40
20.76983115093133
 40
20.76983115093133
 40
20.76983115093133
 40
22.34062747772623
 40
22.34062747772623
 40
22.34062747772623
 40
37.64813611562501
 40
37.64813611562501
 40
37.64813611562501
 40
37.64813611562501
 10
9.345622946004937
 20
55.25106033028655
 30
0.0
 41
1.0
 10
9.450655452582765
 20
55.36096222417221
 30
0.0
 41
1.0
 10
9.541938712882825
 20
55.46372016108066
 30
0.0
 41
1.0
 10
9.619460426031452
 20
55.56009945662933
 30
0.0
 41
1.0
 10
9.68904934322589
 20
55.64661626004843
 30
0.0
 41
1.0
 10
9.744377630931666
 20
55.72322161699532
 30
0.0
 41
1.0
 10
9.827803661984916
 20
55.86403598600569
 30
0.0
 41
1.0
 10
9.86423109417612
 20
55.93733184940207
 30
0.0
 41
1.0
 10
9.884169358383247
 20
56.01618075026046
 30
0.0
 41
1.0
 10
10.23424950991969
 20
57.4005853697706
 30
0.0
 41
1.0
 10
10.58432966145614
 20
58.78498998928075
 30
0.0
 41
1.0
 10
10.93440981299257
 20
60.16939460879088
 30
0.0
 41
1.0
 10
10.98768033754838
 20
60.38005470497322
 30
0.0
 41
0.8047378541243649
 10
10.87475836436246
 20
60.56709420884704
 30
0.0
 41
0.8047378541243649
 10
10.66179205383719
 20
60.62094791574259
 30
0.0
 41
1.0
 10
10.44882574331195
 20
60.67480162263815
 30
0.0
 41
0.8047378541243649
 10
10.2605678718245
 20
60.56392276144009
 30
0.0
 41
0.8047378541243649
 10
10.20729734726871
 20
60.35326266525776
 30
0.0
 41
1.0
 10
9.877690938867687
 20
59.0498229436657
 30
0.0
 41
1.0
 10
9.548084530466667
 20
57.74638322207365
 30
0.0
 41
1.0
 10
9.218478122065648
 20
56.44294350048159
 30
0.0
 41
1.0
  0
SPLINE
  5
A6
330
1F
100
AcDbEntity
  8
Layer 01
370
    -3
100
AcDbSpline
210
0.0
220
0.0
230
1.0
 70
    12
 71
     3
 72
    25
 73
    21
 74
     0
 42
0.000000001
 43
0.0000000001
 40
1.505455568349398
 40
1.505455568349398
 40
1.505455568349398
 40
1.505455568349398
 40
2.04515992709732
 40
2.04515992709732
 40
2.04515992709732
 40
2.54082937522048
 40
2.54082937522048
 40
2.940680412286268
 40
2.940680412286268
 40
2.940680412286268
 40
19.19903482413644
 40
19.19903482413644
 40
19.19903482413644
 40
20.76983115093133
 40
20.76983115093133
 40
20.76983115093133
 40
22.34062747772623
 40
22.34062747772623
 40
22.34062747772623
 40
37.64813611562501
 40
37.64813611562501
 40
37.64813611562501
 40
37.64813611562501
 10
-9.345622946004937
 20
55.25106033028655
 30
0.0
 41
1.0
 10
-9.450655452582765
 20
55.36096222417221
 30
0.0
 41
1.0
 10
-9.541938712882825
 20
55.46372016108066
 30
0.0
 41
1.0
 10
-9.619460426031452
 20
55.56009945662933
 30
0.0
 41
1.0
 10
-9.68904934322589
 20
55.64661626004843
 30
0.0
 41
1.0
 10
-9.744377630931666
 20
55.72322161699532
 30
0.0
 41
1.0
 10
-9.827803661984916
 20
55.86403598600569
 30
0.0
 41
1.0
 10
-9.86423109417612
 20
55.93733184940207
 30
0.0
 41
1.0
 10
-9.884169358383247
 20
56.01618075026046
 30
0.0
 41
1.0
 10
-10.23424950991969
 20
57.4005853697706
 30
0.0
 41
1.0
 10
-10.58432966145614
 20
58.78498998928075
 30
0.0
 41
1.0
 10
-10.93440981299257
 20
60.16939460879088
 30
0.0
 41
1.0
 10
-10.98768033754836
 20
60.38005470497322
 30
0.0
 41
0.8047378541243649
 10
-10.87475836436244
 20
60.56709420884704
 30
0.0
 41
0.8047378541243649
 10
-10.66179205383719
 20
60.62094791574259
 30
0.0
 41
1.0
 10
-10.44882574331195
 20
60.67480162263815
 30
0.0
 41
0.8047378541243649
 10
-10.2605678718245
 20
60.56392276144009
 30
0.0
 41
0.8047378541243649
 10
-10.20729734726871
 20
60.35326266525776
 30
0.0
 41
1.0
 10
-9.877690938867687
 20
59.0498229436657
 30
0.0
 41
1.0
 10
-9.548084530466667
 20
57.74638322207365
 30
0.0
 41
1.0
 10
-9.218478122065648
 20
56.44294350048159
 30
0.0
 41
1.0
  0
SPLINE
  5
A7
330
1F
100
AcDbEntity
  8
Layer 01
370
    -3
100
AcDbSpline
210
0.0
220
0.0
230
1.0
 70
    12
 71
     2
 72
    88
 73
    85
 74
     0
 42
0.000000001
 43
0.0000000001
 40
-0.146788862418836
 40
-0.146788862418836
 40
-0.146788862418836
 40
0.0
 40
0.0
 40
1.0
 40
2.0
 40
3.0
 40
4.0
 40
5.0
 40
6.0
 40
7.0
 40
8.0
 40
9.0
 40
10.0
 40
11.0
 40
12.0
 40
13.0
 40
14.0
 40
15.0
 40
16.0
 40
17.0
 40
18.0
 40
19.0
 40
20.0
 40
21.0
 40
22.0
 40
23.0
 40
24.0
 40
25.0
 40
26.0
 40
27.0
 40
28.0
 40
28.0
 40
29.0
 40
30.0
 40
31.0
 40
32.0
 40
33.0
 40
34.0
 40
35.0
 40
36.0
 40
37.0
 40
38.0
 40
38.0
 40
39.0
 40
40.0
 40
41.0
 40
42.0
 40
43.0
 40
44.0
 40
45.0
 40
46.0
 40
47.0
 40
48.0
 40
48.0
 40
49.0
 40
50.0
 40
51.0
 40
52.0
 40
53.0
 40
54.0
 40
55.0
 40
56.0
 40
57.0
 40
58.0
 40
59.0
 40
60.0
 40
61.0
 40
62.0
 40
63.00000000000001
 40
64.0
 40
65.0
 40
66.0
 40
67.0
 40
68.0
 40
69.0
 40
70.0
 40
71.00000000000001
 40
72.00000000000001
 40
73.00000000000001
 40
74.00000000000001
 40
75.00000000000001
 40
76.00000000000001
 40
76.00000000000001
 40
76.14678886241884
 40
76.14678886241884
 40
76.14678886241884
 10
9.115047717156642
 20
17.49923225482425
 30
0.0
 41
1.0
 10
9.12656379375647
 20
17.53649676143752
 30
0.0
 41
0.9999941080486612
 10
9.137823759950038
 20
17.57383945328883
 30
0.0
 41
1.0
 10
9.214532045436954
 20
17.82823576479931
 30
0.0
 41
1.0
 10
9.344012317100407
 20
18.34374199285758
 30
0.0
 41
1.0
 10
9.383274394399336
 20
18.8750601283893
 30
0.0
 41
1.0
 10
9.358779983497413
 20
19.40599575909288
 30
0.0
 41
1.0
 10
9.33306351261757
 20
19.93668251252907
 30
0.0
 41
1.0
 10
9.306166508230888
 20
20.46734324034476
 30
0.0
 41
1.0
 10
9.277544860407204
 20
20.99790847899862
 30
0.0
 41
1.0
 10
9.247283857908002
 20
21.52838306578478
 30
0.0
 41
1.0
 10
9.215821098254366
 20
22.05879084902424
 30
0.0
 41
1.0
 10
9.178132158315577
 20
22.58879805479528
 30
0.0
 41
1.0
 10
9.13196717841933
 20
23.11813636066609
 30
0.0
 41
1.0
 10
9.078462652867643
 20
23.64678024010093
 30
0.0
 41
1.0
 10
9.018265406951343
 20
24.17470307874642
 30
0.0
 41
1.0
 10
8.951520433398287
 20
24.70183868529153
 30
0.0
 41
1.0
 10
8.877661652148959
 20
25.22802614643431
 30
0.0
 41
1.0
 10
8.796150686862234
 20
25.75308338922832
 30
0.0
 41
1.0
 10
8.706878295371297
 20
26.27687663751666
 30
0.0
 41
1.0
 10
8.610235535142067
 20
26.79935953534897
 30
0.0
 41
1.0
 10
8.506182239746067
 20
27.32041837140805
 30
0.0
 41
1.0
 10
8.393912874295836
 20
27.83977241199755
 30
0.0
 41
1.0
 10
8.272079971518593
 20
28.35696914844578
 30
0.0
 41
1.0
 10
8.140565031188515
 20
28.87178534152127
 30
0.0
 41
1.0
 10
7.998328665968188
 20
29.38378626574937
 30
0.0
 41
1.0
 10
7.830738559984781
 20
29.88823502030565
 30
0.0
 41
1.0
 10
7.616929159709002
 20
30.37525353996509
 30
0.0
 41
1.0
 10
7.342005330527769
 20
30.83114674496692
 30
0.0
 41
1.0
 10
6.992355808989828
 20
31.23318217908194
 30
0.0
 41
1.0
 10
6.571324807875982
 20
31.56639106562306
 30
0.0
 41
1.0
 10
6.339945836392701
 20
31.69794121928003
 30
0.0
 41
1.0
 10
6.057070941174061
 20
31.85876930012576
 30
0.0
 41
1.0
 10
5.453865196085673
 20
32.11395272101213
 30
0.0
 41
1.0
 10
4.836769132384006
 20
32.31919208266022
 30
0.0
 41
1.0
 10
4.206026849194586
 20
32.47755993953155
 30
0.0
 41
1.0
 10
3.566510213402978
 20
32.59511081136326
 30
0.0
 41
1.0
 10
2.921766259639924
 20
32.67892294836124
 30
0.0
 41
1.0
 10
2.27407938009091
 20
32.73520534215481
 30
0.0
 41
1.0
 10
1.624866440607747
 20
32.76906207597607
 30
0.0
 41
1.0
 10
0.9750360349667062
 20
32.78666059825134
 30
0.0
 41
1.0
 10
0.3250297040278269
 20
32.7947174903463
 30
0.0
 41
1.0
 10
0.0000000858395595
 20
32.79394512638539
 30
0.0
 41
1.0
 10
-0.325029532348708
 20
32.7947174903463
 30
0.0
 41
1.0
 10
-0.9750358632875873
 20
32.78666059825134
 30
0.0
 41
1.0
 10
-1.624866268928628
 20
32.76906207597607
 30
0.0
 41
1.0
 10
-2.274079208411791
 20
32.73520534215481
 30
0.0
 41
1.0
 10
-2.921766087960805
 20
32.67892294836124
 30
0.0
 41
1.0
 10
-3.566510041723859
 20
32.59511081136326
 30
0.0
 41
1.0
 10
-4.206026677515467
 20
32.47755993953155
 30
0.0
 41
1.0
 10
-4.836768960704887
 20
32.31919208266022
 30
0.0
 41
1.0
 10
-5.453865024406554
 20
32.11395272101213
 30
0.0
 41
1.0
 10
-6.057070769494942
 20
31.85876930012576
 30
0.0
 41
1.0
 10
-6.339945664713582
 20
31.69794121928003
 30
0.0
 41
1.0
 10
-6.571324636196863
 20
31.56639106562306
 30
0.0
 41
1.0
 10
-6.992355637310709
 20
31.23318217908194
 30
0.0
 41
1.0
 10
-7.34200515884865
 20
30.83114674496692
 30
0.0
 41
1.0
 10
-7.616928988029883
 20
30.37525353996509
 30
0.0
 41
1.0
 10
-7.830738388305662
 20
29.88823502030565
 30
0.0
 41
1.0
 10
-7.998328494289069
 20
29.38378626574937
 30
0.0
 41
1.0
 10
-8.140564859509396
 20
28.87178534152127
 30
0.0
 41
1.0
 10
-8.272079799839474
 20
28.35696914844578
 30
0.0
 41
1.0
 10
-8.393912702616717
 20
27.83977241199755
 30
0.0
 41
1.0
 10
-8.506182068066948
 20
27.32041837140805
 30
0.0
 41
1.0
 10
-8.610235363462948
 20
26.79935953534897
 30
0.0
 41
1.0
 10
-8.706878123692178
 20
26.27687663751666
 30
0.0
 41
1.0
 10
-8.796150515183115
 20
25.75308338922832
 30
0.0
 41
1.0
 10
-8.87766148046984
 20
25.22802614643431
 30
0.0
 41
1.0
 10
-8.951520261719168
 20
24.70183868529153
 30
0.0
 41
1.0
 10
-9.018265235272224
 20
24.17470307874642
 30
0.0
 41
1.0
 10
-9.078462481188524
 20
23.64678024010093
 30
0.0
 41
1.0
 10
-9.131967006740211
 20
23.11813636066609
 30
0.0
 41
1.0
 10
-9.178131986636458
 20
22.58879805479528
 30
0.0
 41
1.0
 10
-9.215820926575248
 20
22.05879084902424
 30
0.0
 41
1.0
 10
-9.247283686228883
 20
21.52838306578478
 30
0.0
 41
1.0
 10
-9.277544688728085
 20
20.99790847899862
 30
0.0
 41
1.0
 10
-9.306166336551769
 20
20.46734324034476
 30
0.0
 41
1.0
 10
-9.333063340938452
 20
19.93668251252907
 30
0.0
 41
1.0
 10
-9.358779811818295
 20
19.40599575909288
 30
0.0
 41
1.0
 10
-9.383274222720217
 20
18.8750601283893
 30
0.0
 41
1.0
 10
-9.344012145421289
 20
18.34374199285758
 30
0.0
 41
1.0
 10
-9.214531873757835
 20
17.82823576479931
 30
0.0
 41
1.0
 10
-9.13782358827092
 20
17.57383945328883
 30
0.0
 41
1.0
 10
-9.126563622077333
 20
17.53649676143752
 30
0.0
 41
0.9999941080486612
 10
-9.115047545477523
 20
17.49923225482425
 30
0.0
 41
1.0
  0
SPLINE
  5
A8
330
1F
100
AcDbEntity
  8
Layer 01
370
    -3
100
AcDbSpline
210
0.0
220
0.0
230
1.0
 70
     8
 71
     2
 72
    42
 73
    39
 74
     0
 42
0.000000001
 43
0.0000000001
 40
0.0
 40
0.0
 40
0.0
 40
1.0
 40
2.0
 40
3.0
 40
4.0
 40
5.0
 40
6.0
 40
7.0
 40
8.0
 40
9.0
 40
10.0
 40
11.0
 40
12.0
 40
13.0
 40
14.0
 40
15.0
 40
16.0
 40
17.0
 40
18.0
 40
18.0
 40
19.0
 40
20.0
 40
21.0
 40
22.0
 40
23.0
 40
24.0
 40
25.0
 40
26.0
 40
27.0
 40
28.0
 40
29.0
 40
30.0
 40
31.0
 40
32.0
 40
33.0
 40
34.0
 40
35.0
 40
36.0
 40
36.0
 40
36.0
 10
-8.906729070208428
 20
17.60979051992102
 30
0.0
 10
-9.115339872149633
 20
18.16682009798126
 30
0.0
 10
-9.140861345463804
 20
19.34442235956881
 30
0.0
 10
-9.069009856408627
 20
20.51660219090053
 30
0.0
 10
-9.00911321588373
 20
21.68947861736536
 30
0.0
 10
-8.930651602870057
 20
22.86130325740381
 30
0.0
 10
-8.814554831566738
 20
24.03003146483432
 30
0.0
 10
-8.668133100782143
 20
25.19533921064331
 30
0.0
 10
-8.484594232058583
 20
26.35538959273087
 30
0.0
 10
-8.264933369717596
 20
27.50919042818997
 30
0.0
 10
-8.003559549097304
 20
28.65415353122211
 30
0.0
 10
-7.706780050003346
 20
29.79089845343676
 30
0.0
 10
-7.210239342780483
 20
30.86819720498042
 30
0.0
 10
-6.310006962389735
 20
31.64241554887403
 30
0.0
 10
-5.228368936508588
 20
32.11430545397444
 30
0.0
 10
-4.095507164129117
 20
32.42752701703402
 30
0.0
 10
-2.933178976632547
 20
32.60331479544563
 30
0.0
 10
-1.761440589488672
 20
32.68697445107617
 30
0.0
 10
-0.5872078423893186
 20
32.71387725540174
 30
0.0
 10
0.0000000858395595
 20
32.71265947165036
 30
0.0
 10
0.5872080140684375
 20
32.71387725540174
 30
0.0
 10
1.76144076116779
 20
32.68697445107617
 30
0.0
 10
2.933179148311666
 20
32.60331479544563
 30
0.0
 10
4.095507335808236
 20
32.42752701703402
 30
0.0
 10
5.228369108187707
 20
32.11430545397444
 30
0.0
 10
6.310007134068854
 20
31.64241554887403
 30
0.0
 10
7.210239514459602
 20
30.86819720498042
 30
0.0
 10
7.706780221682465
 20
29.79089845343676
 30
0.0
 10
8.003559720776423
 20
28.65415353122211
 30
0.0
 10
8.264933541396715
 20
27.50919042818997
 30
0.0
 10
8.484594403737702
 20
26.35538959273087
 30
0.0
 10
8.668133272461262
 20
25.19533921064331
 30
0.0
 10
8.814555003245857
 20
24.03003146483432
 30
0.0
 10
8.930651774549176
 20
22.86130325740381
 30
0.0
 10
9.009113387562849
 20
21.68947861736536
 30
0.0
 10
9.069010028087746
 20
20.51660219090053
 30
0.0
 10
9.140861517142923
 20
19.34442235956881
 30
0.0
 10
9.115340043828752
 20
18.16682009798126
 30
0.0
 10
8.906729241887547
 20
17.60979051992102
 30
0.0
  0
ENDSEC
  0
SECTION
  2
OBJECTS
  0
DICTIONARY
  5
C
330
0
100
AcDbDictionary
281
     1
  3
ACAD_DETAILVIEWSTYLE
350
E4
  3
ACAD_GROUP
350
D
  3
ACAD_LAYOUT
350
1A
  3
ACAD_MATERIAL
350
43
  3
ACAD_MLEADERSTYLE
350
6B
  3
ACAD_MLINESTYLE
350
17
  3
ACAD_PLOTSETTINGS
350
19
  3
ACAD_PLOTSTYLENAME
350
E
  3
ACAD_SCALELIST
350
47
  3
ACAD_SECTIONVIEWSTYLE
350
E5
  3
ACAD_TABLESTYLE
350
69
  3
ACAD_VISUALSTYLE
350
2A
  3
ACDB_RECOMPOSE_DATA
350
E1
  3
AcDbVariableDictionary
350
A9
  0
SUN
  5
6D
330
29
100
AcDbSun
 90
        1
290
     0
 63
     7
421
 16777215
 40
1.0
291
     1
 91
  2455826
 92
 54000000
292
     0
 70
     2
 71
   256
280
     1
  0
DICTIONARY
  5
E4
102
{ACAD_REACTORS
330
C
102
}
330
C
100
AcDbDictionary
281
     1
  0
DICTIONARY
  5
D
102
{ACAD_REACTORS
330
C
102
}
330
C
100
AcDbDictionary
281
     1
  0
DICTIONARY
  5
1A
102
{ACAD_REACTORS
330
C
102
}
330
C
100
AcDbDictionary
281
     1
  3
Layout1
350
1E
  3
Layout2
350
26
  3
Model
350
22
  0
DICTIONARY
  5
43
102
{ACAD_REACTORS
330
C
102
}
330
C
100
AcDbDictionary
281
     1
  3
ByBlock
350
45
  3
ByLayer
350
44
  3
Global
350
46
  0
DICTIONARY
  5
6B
102
{ACAD_REACTORS
330
C
102
}
330
C
100
AcDbDictionary
281
     1
  3
Standard
350
6C
  0
DICTIONARY
  5
17
102
{ACAD_REACTORS
330
C
102
}
330
C
100
AcDbDictionary
281
     1
  3
Standard
350
18
  0
DICTIONARY
  5
19
102
{ACAD_REACTORS
330
C
102
}
330
C
100
AcDbDictionary
281
     1
  0
ACDBDICTIONARYWDFLT
  5
E
102
{ACAD_REACTORS
330
C
102
}
330
C
100
AcDbDictionary
281
     1
  3
Normal
350
F
100
AcDbDictionaryWithDefault
340
F
  0
DICTIONARY
  5
47
102
{ACAD_REACTORS
330
C
102
}
330
C
100
AcDbDictionary
281
     1
  3
A0
350
48
  3
A1
350
49
  3
A2
350
4A
  3
A3
350
4B
  3
A4
350
4C
  3
A5
350
4D
  3
A6
350
4E
  3
A7
350
4F
  3
A8
350
50
  3
A9
350
51
  3
B0
350
52
  3
B1
350
53
  3
B2
350
54
  3
B3
350
55
  3
B4
350
56
  3
B5
350
57
  3
B6
350
58
  3
B7
350
59
  3
B8
350
5A
  3
B9
350
5B
  3
C0
350
5C
  3
C1
350
5D
  3
C2
350
5E
  3
C3
350
5F
  3
C4
350
60
  3
C5
350
61
  3
C6
350
62
  3
C7
350
63
  3
C8
350
64
  3
C9
350
65
  3
D0
350
66
  3
D1
350
67
  3
D2
350
68
  0
DICTIONARY
  5
E5
102
{ACAD_REACTORS
330
C
102
}
330
C
100
AcDbDictionary
281
     1
  0
DICTIONARY
  5
69
102
{ACAD_REACTORS
330
C
102
}
330
C
100
AcDbDictionary
281
     1
  3
Standard
350
6A
  0
DICTIONARY
  5
2A
102
{ACAD_REACTORS
330
C
102
}
330
C
100
AcDbDictionary
281
     1
  3
2dWireframe
350
2F
  3
Basic
350
32
  3
Brighten
350
36
  3
ColorChange
350
3A
  3
Conceptual
350
34
  3
Dim
350
35
  3
EdgeColorOff
350
3D
  3
Facepattern
350
39
  3
Flat
350
2B
  3
FlatWithEdges
350
2C
  3
Gouraud
350
2D
  3
GouraudWithEdges
350
2E
  3
Hidden
350
31
  3
JitterOff
350
3B
  3
Linepattern
350
38
  3
OverhangOff
350
3C
  3
Realistic
350
33
  3
Shaded
350
42
  3
Shaded with edges
350
41
  3
Shades of Gray
350
3E
  3
Sketchy
350
3F
  3
Thicken
350
37
  3
Wireframe
350
30
  3
X-Ray
350
40
  0
XRECORD
  5
E1
102
{ACAD_REACTORS
330
C
102
}
330
C
100
AcDbXrecord
280
     1
 90
        1
330
6A
  0
DICTIONARY
  5
A9
102
{ACAD_REACTORS
330
C
102
}
330
C
100
AcDbDictionary
281
     1
  3
CANNOSCALE
350
AA
  3
CMLEADERSTYLE
350
E3
  3
CTABLESTYLE
350
E2
  3
XCLIPFRAME
350
AB
  0
LAYOUT
  5
1E
102
{ACAD_REACTORS
330
1A
102
}
330
1A
100
AcDbPlotSettings
  1

  2
none_device
  4

  6

 40
0.0
 41
0.0
 42
0.0
 43
0.0
 44
0.0
 45
0.0
 46
0.0
 47
0.0
 48
0.0
 49
0.0
140
0.0
141
0.0
142
1.0
143
1.0
 70
   688
 72
     0
 73
     0
 74
     5
  7

 75
    16
 76
     0
 77
     2
 78
   300
147
1.0
148
0.0
149
0.0
100
AcDbLayout
  1
Layout1
 70
     1
 71
     1
 10
0.0
 20
0.0
 11
12.0
 21
9.0
 12
0.0
 22
0.0
 32
0.0
 14
1.000000000000000E+20
 24
1.000000000000000E+20
 34
1.000000000000000E+20
 15
-1.000000000000000E+20
 25
-1.000000000000000E+20
 35
-1.000000000000000E+20
146
0.0
 13
0.0
 23
0.0
 33
0.0
 16
1.0
 26
0.0
 36
0.0
 17
0.0
 27
1.0
 37
0.0
 76
     0
330
1B
  0
LAYOUT
  5
26
102
{ACAD_REACTORS
330
1A
102
}
330
1A
100
AcDbPlotSettings
  1

  2
none_device
  4

  6

 40
0.0
 41
0.0
 42
0.0
 43
0.0
 44
0.0
 45
0.0
 46
0.0
 47
0.0
 48
0.0
 49
0.0
140
0.0
141
0.0
142
1.0
143
1.0
 70
   688
 72
     0
 73
     0
 74
     5
  7

 75
    16
 76
     0
 77
     2
 78
   300
147
1.0
148
0.0
149
0.0
100
AcDbLayout
  1
Layout2
 70
     1
 71
     2
 10
0.0
 20
0.0
 11
0.0
 21
0.0
 12
0.0
 22
0.0
 32
0.0
 14
0.0
 24
0.0
 34
0.0
 15
0.0
 25
0.0
 35
0.0
146
0.0
 13
0.0
 23
0.0
 33
0.0
 16
1.0
 26
0.0
 36
0.0
 17
0.0
 27
1.0
 37
0.0
 76
     0
330
23
  0
LAYOUT
  5
22
102
{ACAD_REACTORS
330
1A
102
}
330
1A
100
AcDbPlotSettings
  1

  2
none_device
  4
Letter_(8.50_x_11.00_Inches)
  6

 40
6.35
 41
6.35
 42
6.35000508
 43
6.35000508
 44
215.9
 45
279.4
 46
0.0
 47
0.0
 48
0.0
 49
0.0
140
0.0
141
0.0
142
1.0
143
1.0
 70
  1712
 72
     0
 73
     0
 74
     0
  7

 75
     0
 76
     0
 77
     2
 78
   300
147
1.0
148
0.0
149
0.0
100
AcDbLayout
  1
Model
 70
     1
 71
     0
 10
0.0
 20
0.0
 11
12.0
 21
9.0
 12
0.0
 22
0.0
 32
0.0
 14
1.000000000000000E+20
 24
1.000000000000000E+20
 34
1.000000000000000E+20
 15
-1.000000000000000E+20
 25
-1.000000000000000E+20
 35
-1.000000000000000E+20
146
0.0
 13
0.0
 23
0.0
 33
0.0
 16
1.0
 26
0.0
 36
0.0
 17
0.0
 27
1.0
 37
0.0
 76
     0
330
1F
331
29
  0
MATERIAL
  5
45
102
{ACAD_REACTORS
330
43
102
}
330
43
100
AcDbMaterial
  1
ByBlock
 72
     1
 94
      127
  0
MATERIAL
  5
44
102
{ACAD_REACTORS
330
43
102
}
330
43
100
AcDbMaterial
  1
ByLayer
 72
     1
 94
      127
  0
MATERIAL
  5
46
102
{ACAD_REACTORS
330
43
102
}
330
43
100
AcDbMaterial
  1
Global
 72
     1
 94
      127
  0
MLEADERSTYLE
  5
6C
102
{ACAD_REACTORS
330
6B
102
}
102
{ACAD_XDICTIONARY
360
DF
102
}
330
6B
100
AcDbMLeaderStyle
170
     2
171
     1
172
     0
 90
        2
 40
0.0
 41
0.0
173
     1
 91
-1056964608
340
14
 92
       -2
290
     1
 42
0.09
291
     1
 43
0.36
  3
Standard
341
0
 44
0.18
300

342
11
174
     1
178
     6
175
     1
176
     0
 93
-1056964608
 45
0.18
292
     0
297
     0
 46
0.18
343
0
 94
-1056964608
 47
1.0
 49
1.0
140
1.0
293
     1
141
0.0
294
     1
177
     0
142
1.0
295
     0
296
     0
143
0.125
1001
ACAD_MLEADERVER
1070
     2
  0
MLINESTYLE
  5
18
102
{ACAD_REACTORS
330
17
102
}
330
17
100
AcDbMlineStyle
  2
Standard
 70
     0
  3

 62
   256
 51
90.0
 52
90.0
 71
     2
 49
0.5
 62
   256
  6
BYLAYER
 49
-0.5
 62
   256
  6
BYLAYER
  0
ACDBPLACEHOLDER
  5
F
102
{ACAD_REACTORS
330
E
102
}
330
E
  0
SCALE
  5
48
102
{ACAD_REACTORS
330
47
102
}
330
47
100
AcDbScale
 70
     0
300
1:1
140
1.0
141
1.0
290
     1
  0
SCALE
  5
49
102
{ACAD_REACTORS
330
47
102
}
330
47
100
AcDbScale
 70
     0
300
1:2
140
1.0
141
2.0
290
     0
  0
SCALE
  5
4A
102
{ACAD_REACTORS
330
47
102
}
330
47
100
AcDbScale
 70
     0
300
1:4
140
1.0
141
4.0
290
     0
  0
SCALE
  5
4B
102
{ACAD_REACTORS
330
47
102
}
330
47
100
AcDbScale
 70
     0
300
1:5
140
1.0
141
5.0
290
     0
  0
SCALE
  5
4C
102
{ACAD_REACTORS
330
47
102
}
330
47
100
AcDbScale
 70
     0
300
1:8
140
1.0
141
8.0
290
     0
  0
SCALE
  5
4D
102
{ACAD_REACTORS
330
47
102
}
330
47
100
AcDbScale
 70
     0
300
1:10
140
1.0
141
10.0
290
     0
  0
SCALE
  5
4E
102
{ACAD_REACTORS
330
47
102
}
330
47
100
AcDbScale
 70
     0
300
1:16
140
1.0
141
16.0
290
     0
  0
SCALE
  5
4F
102
{ACAD_REACTORS
330
47
102
}
330
47
100
AcDbScale
 70
     0
300
1:20
140
1.0
141
20.0
290
     0
  0
SCALE
  5
50
102
{ACAD_REACTORS
330
47
102
}
330
47
100
AcDbScale
 70
     0
300
1:30
140
1.0
141
30.0
290
     0
  0
SCALE
  5
51
102
{ACAD_REACTORS
330
47
102
}
330
47
100
AcDbScale
 70
     0
300
1:40
140
1.0
141
40.0
290
     0
  0
SCALE
  5
52
102
{ACAD_REACTORS
330
47
102
}
330
47
100
AcDbScale
 70
     0
300
1:50
140
1.0
141
50.0
290
     0
  0
SCALE
  5
53
102
{ACAD_REACTORS
330
47
102
}
330
47
100
AcDbScale
 70
     0
300
1:100
140
1.0
141
100.0
290
     0
  0
SCALE
  5
54
102
{ACAD_REACTORS
330
47
102
}
330
47
100
AcDbScale
 70
     0
300
2:1
140
2.0
141
1.0
290
     0
  0
SCALE
  5
55
102
{ACAD_REACTORS
330
47
102
}
330
47
100
AcDbScale
 70
     0
300
4:1
140
4.0
141
1.0
290
     0
  0
SCALE
  5
56
102
{ACAD_REACTORS
330
47
102
}
330
47
100
AcDbScale
 70
     0
300
8:1
140
8.0
141
1.0
290
     0
  0
SCALE
  5
57
102
{ACAD_REACTORS
330
47
102
}
330
47
100
AcDbScale
 70
     0
300
10:1
140
10.0
141
1.0
290
     0
  0
SCALE
  5
58
102
{ACAD_REACTORS
330
47
102
}
330
47
100
AcDbScale
 70
     0
300
100:1
140
100.0
141
1.0
290
     0
  0
SCALE
  5
59
102
{ACAD_REACTORS
330
47
102
}
330
47
100
AcDbScale
 70
     0
300
1/128" = 1'-0"
140
0.0078125
141
12.0
290
     0
  0
SCALE
  5
5A
102
{ACAD_REACTORS
330
47
102
}
330
47
100
AcDbScale
 70
     0
300
1/64" = 1'-0"
140
0.015625
141
12.0
290
     0
  0
SCALE
  5
5B
102
{ACAD_REACTORS
330
47
102
}
330
47
100
AcDbScale
 70
     0
300
1/32" = 1'-0"
140
0.03125
141
12.0
290
     0
  0
SCALE
  5
5C
102
{ACAD_REACTORS
330
47
102
}
330
47
100
AcDbScale
 70
     0
300
1/16" = 1'-0"
140
0.0625
141
12.0
290
     0
  0
SCALE
  5
5D
102
{ACAD_REACTORS
330
47
102
}
330
47
100
AcDbScale
 70
     0
300
3/32" = 1'-0"
140
0.09375
141
12.0
290
     0
  0
SCALE
  5
5E
102
{ACAD_REACTORS
330
47
102
}
330
47
100
AcDbScale
 70
     0
300
1/8" = 1'-0"
140
0.125
141
12.0
290
     0
  0
SCALE
  5
5F
102
{ACAD_REACTORS
330
47
102
}
330
47
100
AcDbScale
 70
     0
300
3/16" = 1'-0"
140
0.1875
141
12.0
290
     0
  0
SCALE
  5
60
102
{ACAD_REACTORS
330
47
102
}
330
47
100
AcDbScale
 70
     0
300
1/4" = 1'-0"
140
0.25
141
12.0
290
     0
  0
SCALE
  5
61
102
{ACAD_REACTORS
330
47
102
}
330
47
100
AcDbScale
 70
     0
300
3/8" = 1'-0"
140
0.375
141
12.0
290
     0
  0
SCALE
  5
62
102
{ACAD_REACTORS
330
47
102
}
330
47
100
AcDbScale
 70
     0
300
1/2" = 1'-0"
140
0.5
141
12.0
290
     0
  0
SCALE
  5
63
102
{ACAD_REACTORS
330
47
102
}
330
47
100
AcDbScale
 70
     0
300
3/4" = 1'-0"
140
0.75
141
12.0
290
     0
  0
SCALE
  5
64
102
{ACAD_REACTORS
330
47
102
}
330
47
100
AcDbScale
 70
     0
300
1" = 1'-0"
140
1.0
141
12.0
290
     0
  0
SCALE
  5
65
102
{ACAD_REACTORS
330
47
102
}
330
47
100
AcDbScale
 70
     0
300
1-1/2" = 1'-0"
140
1.5
141
12.0
290
     0
  0
SCALE
  5
66
102
{ACAD_REACTORS
330
47
102
}
330
47
100
AcDbScale
 70
     0
300
3" = 1'-0"
140
3.0
141
12.0
290
     0
  0
SCALE
  5
67
102
{ACAD_REACTORS
330
47
102
}
330
47
100
AcDbScale
 70
     0
300
6" = 1'-0"
140
6.0
141
12.0
290
     0
  0
SCALE
  5
68
102
{ACAD_REACTORS
330
47
102
}
330
47
100
AcDbScale
 70
     0
300
1'-0" = 1'-0"
140
12.0
141
12.0
290
     0
  0
TABLESTYLE
  5
6A
102
{ACAD_REACTORS
330
69
102
}
102
{ACAD_XDICTIONARY
360
DC
102
}
330
69
100
AcDbTableStyle
  3
Standard
 70
     0
 71
     0
 40
0.06
 41
0.06
280
     0
281
     0
  7
Standard
140
0.18
170
     2
 62
     0
 63
   257
283
     0
 90
        4
 91
        0
  1

274
    -2
284
     1
 64
     0
275
    -2
285
     1
 65
     0
276
    -2
286
     1
 66
     0
277
    -2
287
     1
 67
     0
278
    -2
288
     1
 68
     0
279
    -2
289
     1
 69
     0
  7
Standard
140
0.25
170
     5
 62
     0
 63
   257
283
     0
 90
        4
 91
        0
  1

274
    -2
284
     1
 64
     0
275
    -2
285
     1
 65
     0
276
    -2
286
     1
 66
     0
277
    -2
287
     1
 67
     0
278
    -2
288
     1
 68
     0
279
    -2
289
     1
 69
     0
  7
Standard
140
0.18
170
     5
 62
     0
 63
   257
283
     0
 90
        4
 91
        0
  1

274
    -2
284
     1
 64
     0
275
    -2
285
     1
 65
     0
276
    -2
286
     1
 66
     0
277
    -2
287
     1
 67
     0
278
    -2
288
     1
 68
     0
279
    -2
289
     1
 69
     0
  0
VISUALSTYLE
  5
2F
102
{ACAD_REACTORS
330
2A
102
}
102
{ACAD_XDICTIONARY
360
B4
102
}
330
2A
100
AcDbVisualStyle
  2
2dWireframe
 70
     4
 71
     0
 72
     2
 73
     0
 90
        0
 40
0.6
 41
30.0
 62
     5
 63
     7
421
 16777215
 74
     1
 91
        4
 64
     7
 65
   257
 75
     1
175
     1
 42
1.0
 92
        0
 66
   257
 43
1.0
 76
     1
 77
     6
 78
     2
 67
     7
 79
     5
170
     0
171
     0
290
     0
174
     0
 93
        1
 44
0.0
173
     0
291
     0
 45
0.0
  0
VISUALSTYLE
  5
32
102
{ACAD_REACTORS
330
2A
102
}
102
{ACAD_XDICTIONARY
360
BA
102
}
330
2A
100
AcDbVisualStyle
  2
Basic
 70
     7
 71
     1
 72
     0
 73
     1
 90
        0
 40
0.6
 41
30.0
 62
     5
 63
     7
421
 16777215
 74
     0
 91
        4
 64
     7
 65
   257
 75
     1
175
     1
 42
1.0
 92
        8
 66
     7
 43
1.0
 76
     1
 77
     6
 78
     2
 67
     7
 79
     5
170
     0
171
     0
290
     0
174
     0
 93
        1
 44
0.0
173
     0
291
     1
 45
0.0
  0
VISUALSTYLE
  5
36
102
{ACAD_REACTORS
330
2A
102
}
102
{ACAD_XDICTIONARY
360
C2
102
}
330
2A
100
AcDbVisualStyle
  2
Brighten
 70
    12
 71
     2
 72
     2
 73
     0
 90
        0
 40
0.6
 41
30.0
 62
     5
 63
     7
421
 16777215
 74
     1
 91
        4
 64
     7
 65
   257
 75
     1
175
     1
 42
1.0
 92
        8
 66
     7
 43
1.0
 76
     1
 77
     6
 78
     2
 67
     7
 79
     5
170
     0
171
     0
290
     0
174
     0
 93
        1
 44
50.0
173
     0
291
     1
 45
0.0
  0
VISUALSTYLE
  5
3A
102
{ACAD_REACTORS
330
2A
102
}
102
{ACAD_XDICTIONARY
360
CA
102
}
330
2A
100
AcDbVisualStyle
  2
ColorChange
 70
    16
 71
     2
 72
     2
 73
     3
 90
        0
 40
0.6
 41
30.0
 62
     5
 63
     8
421
  8421504
 74
     1
 91
        4
 64
     7
 65
   257
 75
     1
175
     1
 42
1.0
 92
        8
 66
     8
424
  8421504
 43
1.0
 76
     1
 77
     6
 78
     2
 67
     7
 79
     5
170
     0
171
     0
290
     0
174
     0
 93
        1
 44
0.0
173
     0
291
     1
 45
0.0
  0
VISUALSTYLE
  5
34
102
{ACAD_REACTORS
330
2A
102
}
102
{ACAD_XDICTIONARY
360
BE
102
}
330
2A
100
AcDbVisualStyle
  2
Conceptual
 70
     9
 71
     3
 72
     2
 73
     0
 90
        0
 40
0.6
 41
30.0
 62
     5
 63
     7
421
 16777215
 74
     2
 91
        2
 64
     7
 65
   257
 75
     1
175
     1
 42
179.0
 92
        8
 66
     7
 43
1.0
 76
     1
 77
     6
 78
     2
 67
     7
 79
     3
170
     0
171
     0
290
     0
174
     0
 93
        1
 44
0.0
173
     0
291
     0
 45
0.0
  0
VISUALSTYLE
  5
35
102
{ACAD_REACTORS
330
2A
102
}
102
{ACAD_XDICTIONARY
360
C0
102
}
330
2A
100
AcDbVisualStyle
  2
Dim
 70
    11
 71
     2
 72
     2
 73
     0
 90
        0
 40
0.6
 41
30.0
 62
     5
 63
     7
421
 16777215
 74
     1
 91
        4
 64
     7
 65
   257
 75
     1
175
     1
 42
1.0
 92
        8
 66
     7
 43
1.0
 76
     1
 77
     6
 78
     2
 67
     7
 79
     5
170
     0
171
     0
290
     0
174
     0
 93
        1
 44
-50.0
173
     0
291
     1
 45
0.0
  0
VISUALSTYLE
  5
3D
102
{ACAD_REACTORS
330
2A
102
}
102
{ACAD_XDICTIONARY
360
D0
102
}
330
2A
100
AcDbVisualStyle
  2
EdgeColorOff
 70
    22
 71
     2
 72
     2
 73
     0
 90
        0
 40
0.6
 41
30.0
 62
     5
 63
     7
421
 16777215
 74
     1
 91
        4
 64
     7
 65
   257
 75
     1
175
     1
 42
1.0
 92
        8
 66
     7
 43
1.0
 76
     1
 77
     6
 78
     2
 67
     7
 79
     5
170
     0
171
     0
290
     0
174
     0
 93
        1
 44
0.0
173
     0
291
     1
 45
0.0
  0
VISUALSTYLE
  5
39
102
{ACAD_REACTORS
330
2A
102
}
102
{ACAD_XDICTIONARY
360
C8
102
}
330
2A
100
AcDbVisualStyle
  2
Facepattern
 70
    15
 71
     2
 72
     2
 73
     0
 90
        0
 40
0.6
 41
30.0
 62
     5
 63
     7
421
 16777215
 74
     1
 91
        4
 64
     7
 65
   257
 75
     1
175
     1
 42
1.0
 92
        8
 66
     7
 43
1.0
 76
     1
 77
     6
 78
     2
 67
     7
 79
     5
170
     0
171
     0
290
     0
174
     0
 93
        1
 44
0.0
173
     0
291
     1
 45
0.0
  0
VISUALSTYLE
  5
2B
102
{ACAD_REACTORS
330
2A
102
}
102
{ACAD_XDICTIONARY
360
AC
102
}
330
2A
100
AcDbVisualStyle
  2
Flat
 70
     0
 71
     2
 72
     1
 73
     1
 90
        2
 40
0.6
 41
30.0
 62
     5
 63
     7
421
 16777215
 74
     0
 91
        0
 64
     7
 65
   257
 75
     1
175
     1
 42
1.0
 92
        8
 66
     7
 43
1.0
 76
     1
 77
     6
 78
     2
 67
     7
 79
     5
170
     0
171
     0
290
     0
174
     0
 93
       13
 44
0.0
173
     0
291
     1
 45
0.0
  0
VISUALSTYLE
  5
2C
102
{ACAD_REACTORS
330
2A
102
}
102
{ACAD_XDICTIONARY
360
AE
102
}
330
2A
100
AcDbVisualStyle
  2
FlatWithEdges
 70
     1
 71
     2
 72
     1
 73
     1
 90
        2
 40
0.6
 41
30.0
 62
     5
 63
     7
421
 16777215
 74
     1
 91
        0
 64
     7
 65
   257
 75
     1
175
     1
 42
1.0
 92
        0
 66
   257
 43
1.0
 76
     1
 77
     6
 78
     2
 67
     7
 79
     5
170
     0
171
     0
290
     0
174
     0
 93
       13
 44
0.0
173
     0
291
     1
 45
0.0
  0
VISUALSTYLE
  5
2D
102
{ACAD_REACTORS
330
2A
102
}
102
{ACAD_XDICTIONARY
360
B0
102
}
330
2A
100
AcDbVisualStyle
  2
Gouraud
 70
     2
 71
     2
 72
     2
 73
     1
 90
        2
 40
0.6
 41
30.0
 62
     5
 63
     7
421
 16777215
 74
     0
 91
        0
 64
     7
 65
   257
 75
     1
175
     1
 42
1.0
 92
        0
 66
     7
 43
1.0
 76
     1
 77
     6
 78
     2
 67
     7
 79
     5
170
     0
171
     0
290
     0
174
     0
 93
       13
 44
0.0
173
     0
291
     1
 45
0.0
  0
VISUALSTYLE
  5
2E
102
{ACAD_REACTORS
330
2A
102
}
102
{ACAD_XDICTIONARY
360
B2
102
}
330
2A
100
AcDbVisualStyle
  2
GouraudWithEdges
 70
     3
 71
     2
 72
     2
 73
     1
 90
        2
 40
0.6
 41
30.0
 62
     5
 63
     7
421
 16777215
 74
     1
 91
        0
 64
     7
 65
   257
 75
     1
175
     1
 42
1.0
 92
        0
 66
   257
 43
1.0
 76
     1
 77
     6
 78
     2
 67
     7
 79
     5
170
     0
171
     0
290
     0
174
     0
 93
       13
 44
0.0
173
     0
291
     1
 45
0.0
  0
VISUALSTYLE
  5
31
102
{ACAD_REACTORS
330
2A
102
}
102
{ACAD_XDICTIONARY
360
B8
102
}
330
2A
100
AcDbVisualStyle
  2
Hidden
 70
     6
 71
     1
 72
     2
 73
     2
 90
        0
 40
0.6
 41
30.0
 62
     5
 63
     7
421
 16777215
 74
     2
 91
        2
 64
     7
 65
   257
 75
     2
175
     1
 42
40.0
 92
        0
 66
   257
 43
1.0
 76
     1
 77
     6
 78
     2
 67
     7
 79
     3
170
     0
171
     0
290
     0
174
     0
 93
        1
 44
0.0
173
     0
291
     0
 45
0.0
  0
VISUALSTYLE
  5
3B
102
{ACAD_REACTORS
330
2A
102
}
102
{ACAD_XDICTIONARY
360
CC
102
}
330
2A
100
AcDbVisualStyle
  2
JitterOff
 70
    20
 71
     2
 72
     2
 73
     0
 90
        0
 40
0.6
 41
30.0
 62
     5
 63
     7
421
 16777215
 74
     1
 91
        4
 64
     7
 65
   257
 75
     1
175
     1
 42
1.0
 92
       10
 66
     7
 43
1.0
 76
     1
 77
     6
 78
     2
 67
     7
 79
     5
170
     0
171
     0
290
     0
174
     0
 93
        1
 44
0.0
173
     0
291
     1
 45
0.0
  0
VISUALSTYLE
  5
38
102
{ACAD_REACTORS
330
2A
102
}
102
{ACAD_XDICTIONARY
360
C6
102
}
330
2A
100
AcDbVisualStyle
  2
Linepattern
 70
    14
 71
     2
 72
     2
 73
     0
 90
        0
 40
0.6
 41
30.0
 62
     5
 63
     7
421
 16777215
 74
     1
 91
        4
 64
     7
 65
   257
 75
     7
175
     7
 42
1.0
 92
        8
 66
     7
 43
1.0
 76
     1
 77
     6
 78
     2
 67
     7
 79
     5
170
     0
171
     0
290
     0
174
     0
 93
        1
 44
0.0
173
     0
291
     1
 45
0.0
  0
VISUALSTYLE
  5
3C
102
{ACAD_REACTORS
330
2A
102
}
102
{ACAD_XDICTIONARY
360
CE
102
}
330
2A
100
AcDbVisualStyle
  2
OverhangOff
 70
    21
 71
     2
 72
     2
 73
     0
 90
        0
 40
0.6
 41
30.0
 62
     5
 63
     7
421
 16777215
 74
     1
 91
        4
 64
     7
 65
   257
 75
     1
175
     1
 42
1.0
 92
        9
 66
     7
 43
1.0
 76
     1
 77
     6
 78
     2
 67
     7
 79
     5
170
     0
171
     0
290
     0
174
     0
 93
        1
 44
0.0
173
     0
291
     1
 45
0.0
  0
VISUALSTYLE
  5
33
102
{ACAD_REACTORS
330
2A
102
}
102
{ACAD_XDICTIONARY
360
BC
102
}
330
2A
100
AcDbVisualStyle
  2
Realistic
 70
     8
 71
     2
 72
     3
 73
     0
 90
        2
 40
0.6
 41
30.0
 62
     5
 63
     7
421
 16777215
 74
     0
 91
        0
 64
     7
 65
   257
 75
     1
175
     1
 42
1.0
 92
        8
 66
   257
 43
1.0
 76
     1
 77
     6
 78
     2
 67
     7
 79
     3
170
     0
171
     0
290
     0
174
     0
 93
       13
 44
0.0
173
     0
291
     0
 45
0.0
  0
VISUALSTYLE
  5
42
102
{ACAD_REACTORS
330
2A
102
}
102
{ACAD_XDICTIONARY
360
DA
102
}
330
2A
100
AcDbVisualStyle
  2
Shaded
 70
    27
 71
     2
 72
     2
 73
     1
 90
        2
 40
0.6
 41
30.0
 62
     5
 63
     7
421
 16777215
 74
     0
 91
        4
 64
     7
 65
   257
 75
     1
175
     1
 42
1.0
 92
        8
 66
   257
 43
1.0
 76
     1
 77
     6
 78
     2
 67
     8
425
  7895160
 79
     3
170
     0
171
     0
290
     0
174
     0
 93
        5
 44
0.0
173
     0
291
     0
 45
0.0
  0
VISUALSTYLE
  5
41
102
{ACAD_REACTORS
330
2A
102
}
102
{ACAD_XDICTIONARY
360
D8
102
}
330
2A
100
AcDbVisualStyle
  2
Shaded with edges
 70
    26
 71
     2
 72
     2
 73
     1
 90
        2
 40
0.6
 41
30.0
 62
     5
 63
     7
421
 16777215
 74
     1
 91
       10
 64
     7
 65
   257
 75
     2
175
     1
 42
1.0
 92
        8
 66
   257
 43
1.0
 76
     1
 77
     6
 78
     2
 67
     7
 79
     3
170
     0
171
     0
290
     0
174
     0
 93
        5
 44
0.0
173
     0
291
     0
 45
0.0
  0
VISUALSTYLE
  5
3E
102
{ACAD_REACTORS
330
2A
102
}
102
{ACAD_XDICTIONARY
360
D2
102
}
330
2A
100
AcDbVisualStyle
  2
Shades of Gray
 70
    23
 71
     2
 72
     2
 73
     3
 90
        0
 40
0.6
 41
30.0
 62
     5
 63
     7
421
 16777215
 74
     2
 91
        2
 64
     7
 65
     7
 75
     1
175
     1
 42
40.0
 92
        8
 66
     7
 43
1.0
 76
     1
 77
     6
 78
     2
 67
     7
 79
     3
170
     0
171
     0
290
     0
174
     0
 93
        1
 44
0.0
173
     0
291
     0
 45
0.0
  0
VISUALSTYLE
  5
3F
102
{ACAD_REACTORS
330
2A
102
}
102
{ACAD_XDICTIONARY
360
D4
102
}
330
2A
100
AcDbVisualStyle
  2
Sketchy
 70
    24
 71
     1
 72
     2
 73
     2
 90
        0
 40
0.6
 41
30.0
 62
     5
 63
     7
421
 16777215
 74
     2
 91
        2
 64
     7
 65
     7
 75
     1
175
     1
 42
40.0
 92
       11
 66
     7
 43
1.0
 76
     1
 77
     6
 78
     2
 67
     7
 79
     6
170
     0
171
     0
290
     0
174
     0
 93
        1
 44
0.0
173
     0
291
     0
 45
0.0
  0
VISUALSTYLE
  5
37
102
{ACAD_REACTORS
330
2A
102
}
102
{ACAD_XDICTIONARY
360
C4
102
}
330
2A
100
AcDbVisualStyle
  2
Thicken
 70
    13
 71
     2
 72
     2
 73
     0
 90
        0
 40
0.6
 41
30.0
 62
     5
 63
     7
421
 16777215
 74
     1
 91
        4
 64
     7
 65
   257
 75
     1
175
     1
 42
1.0
 92
       12
 66
     7
 43
1.0
 76
     1
 77
     6
 78
     2
 67
     7
 79
     5
170
     0
171
     0
290
     0
174
     0
 93
        1
 44
0.0
173
     0
291
     1
 45
0.0
  0
VISUALSTYLE
  5
30
102
{ACAD_REACTORS
330
2A
102
}
102
{ACAD_XDICTIONARY
360
B6
102
}
330
2A
100
AcDbVisualStyle
  2
Wireframe
 70
     5
 71
     0
 72
     2
 73
     0
 90
        0
 40
0.6
 41
30.0
 62
     5
 63
     7
421
 16777215
 74
     1
 91
        4
 64
     7
 65
   257
 75
     1
175
     1
 42
1.0
 92
        0
 66
   257
 43
1.0
 76
     1
 77
     6
 78
     2
 67
     7
 79
     3
170
     0
171
     0
290
     0
174
     0
 93
        1
 44
0.0
173
     0
291
     0
 45
0.0
  0
VISUALSTYLE
  5
40
102
{ACAD_REACTORS
330
2A
102
}
102
{ACAD_XDICTIONARY
360
D6
102
}
330
2A
100
AcDbVisualStyle
  2
X-Ray
 70
    25
 71
     2
 72
     2
 73
     1
 90
        1
 40
0.5
 41
30.0
 62
     5
 63
     7
421
 16777215
 74
     1
 91
        0
 64
     7
 65
   257
 75
     1
175
     1
 42
1.0
 92
        8
 66
     7
 43
1.0
 76
     1
 77
     6
 78
     2
 67
     7
 79
     3
170
     0
171
     0
290
     0
174
     0
 93
       13
 44
0.0
173
     0
291
     0
 45
0.0
  0
DICTIONARYVAR
  5
AA
102
{ACAD_REACTORS
330
A9
102
}
330
A9
100
DictionaryVariables
280
     0
  1
1:1
  0
DICTIONARYVAR
  5
E3
102
{ACAD_REACTORS
330
A9
102
}
330
A9
100
DictionaryVariables
280
     0
  1
Standard
  0
DICTIONARYVAR
  5
E2
102
{ACAD_REACTORS
330
A9
102
}
330
A9
100
DictionaryVariables
280
     0
  1
Standard
  0
DICTIONARYVAR
  5
AB
102
{ACAD_REACTORS
330
A9
102
}
330
A9
100
DictionaryVariables
280
     0
  1
2
  0
DICTIONARY
  5
DF
330
6C
100
AcDbDictionary
280
     1
281
     1
  3
ACAD_XREC_ROUNDTRIP
360
E0
  0
DICTIONARY
  5
DC
330
6A
100
AcDbDictionary
280
     1
281
     1
  3
ACAD_ROUNDTRIP_2008_TABLESTYLE_CELLSTYLEMAP
360
DD
  0
DICTIONARY
  5
B4
330
2F
100
AcDbDictionary
280
     1
281
     1
  3
ACAD_XREC_ROUNDTRIP
360
B5
  0
DICTIONARY
  5
BA
330
32
100
AcDbDictionary
280
     1
281
     1
  3
ACAD_XREC_ROUNDTRIP
360
BB
  0
DICTIONARY
  5
C2
330
36
100
AcDbDictionary
280
     1
281
     1
  3
ACAD_XREC_ROUNDTRIP
360
C3
  0
DICTIONARY
  5
CA
330
3A
100
AcDbDictionary
280
     1
281
     1
  3
ACAD_XREC_ROUNDTRIP
360
CB
  0
DICTIONARY
  5
BE
330
34
100
AcDbDictionary
280
     1
281
     1
  3
ACAD_XREC_ROUNDTRIP
360
BF
  0
DICTIONARY
  5
C0
330
35
100
AcDbDictionary
280
     1
281
     1
  3
ACAD_XREC_ROUNDTRIP
360
C1
  0
DICTIONARY
  5
D0
330
3D
100
AcDbDictionary
280
     1
281
     1
  3
ACAD_XREC_ROUNDTRIP
360
D1
  0
DICTIONARY
  5
C8
330
39
100
AcDbDictionary
280
     1
281
     1
  3
ACAD_XREC_ROUNDTRIP
360
C9
  0
DICTIONARY
  5
AC
330
2B
100
AcDbDictionary
280
     1
281
     1
  3
ACAD_XREC_ROUNDTRIP
360
AD
  0
DICTIONARY
  5
AE
330
2C
100
AcDbDictionary
280
     1
281
     1
  3
ACAD_XREC_ROUNDTRIP
360
AF
  0
DICTIONARY
  5
B0
330
2D
100
AcDbDictionary
280
     1
281
     1
  3
ACAD_XREC_ROUNDTRIP
360
B1
  0
DICTIONARY
  5
B2
330
2E
100
AcDbDictionary
280
     1
281
     1
  3
ACAD_XREC_ROUNDTRIP
360
B3
  0
DICTIONARY
  5
B8
330
31
100
AcDbDictionary
280
     1
281
     1
  3
ACAD_XREC_ROUNDTRIP
360
B9
  0
DICTIONARY
  5
CC
330
3B
100
AcDbDictionary
280
     1
281
     1
  3
ACAD_XREC_ROUNDTRIP
360
CD
  0
DICTIONARY
  5
C6
330
38
100
AcDbDictionary
280
     1
281
     1
  3
ACAD_XREC_ROUNDTRIP
360
C7
  0
DICTIONARY
  5
CE
330
3C
100
AcDbDictionary
280
     1
281
     1
  3
ACAD_XREC_ROUNDTRIP
360
CF
  0
DICTIONARY
  5
BC
330
33
100
AcDbDictionary
280
     1
281
     1
  3
ACAD_XREC_ROUNDTRIP
360
BD
  0
DICTIONARY
  5
DA
330
42
100
AcDbDictionary
280
     1
281
     1
  3
ACAD_XREC_ROUNDTRIP
360
DB
  0
DICTIONARY
  5
D8
330
41
100
AcDbDictionary
280
     1
281
     1
  3
ACAD_XREC_ROUNDTRIP
360
D9
  0
DICTIONARY
  5
D2
330
3E
100
AcDbDictionary
280
     1
281
     1
  3
ACAD_XREC_ROUNDTRIP
360
D3
  0
DICTIONARY
  5
D4
330
3F
100
AcDbDictionary
280
     1
281
     1
  3
ACAD_XREC_ROUNDTRIP
360
D5
  0
DICTIONARY
  5
C4
330
37
100
AcDbDictionary
280
     1
281
     1
  3
ACAD_XREC_ROUNDTRIP
360
C5
  0
DICTIONARY
  5
B6
330
30
100
AcDbDictionary
280
     1
281
     1
  3
ACAD_XREC_ROUNDTRIP
360
B7
  0
DICTIONARY
  5
D6
330
40
100
AcDbDictionary
280
     1
281
     1
  3
ACAD_XREC_ROUNDTRIP
360
D7
  0
XRECORD
  5
E0
102
{ACAD_REACTORS
330
DF
102
}
330
DF
100
AcDbXrecord
280
     1
102
ACAD_ROUNDTRIP_2010_MLEADER_STYLE
  0
CELLSTYLEMAP
  5
DD
102
{ACAD_REACTORS
330
DC
102
}
330
DC
100
AcDbCellStyleMap
 90
        3
300
CELLSTYLE
  1
TABLEFORMAT_BEGIN
 90
        5
170
     1
 91
        0
 92
    32768
 62
   257
 93
        1
300
CONTENTFORMAT
  1
CONTENTFORMAT_BEGIN
 90
        0
 91
        0
 92
        4
 93
        0
300

 40
0.0
140
1.0
 94
        5
 62
     0
340
11
144
0.25
309
CONTENTFORMAT_END
171
     1
301
MARGIN
  1
CELLMARGIN_BEGIN
 40
0.06
 40
0.06
 40
0.06
 40
0.06
 40
0.06
 40
0.06
309
CELLMARGIN_END
 94
        6
 95
        1
302
GRIDFORMAT
  1
GRIDFORMAT_BEGIN
 90
        0
 91
        1
 62
     0
 92
       -2
340
14
 93
        0
 40
0.045
309
GRIDFORMAT_END
 95
        2
302
GRIDFORMAT
  1
GRIDFORMAT_BEGIN
 90
        0
 91
        1
 62
     0
 92
       -2
340
14
 93
        0
 40
0.045
309
GRIDFORMAT_END
 95
        4
302
GRIDFORMAT
  1
GRIDFORMAT_BEGIN
 90
        0
 91
        1
 62
     0
 92
       -2
340
14
 93
        0
 40
0.045
309
GRIDFORMAT_END
 95
        8
302
GRIDFORMAT
  1
GRIDFORMAT_BEGIN
 90
        0
 91
        1
 62
     0
 92
       -2
340
14
 93
        0
 40
0.045
309
GRIDFORMAT_END
 95
       16
302
GRIDFORMAT
  1
GRIDFORMAT_BEGIN
 90
        0
 91
        1
 62
     0
 92
       -2
340
14
 93
        0
 40
0.045
309
GRIDFORMAT_END
 95
       32
302
GRIDFORMAT
  1
GRIDFORMAT_BEGIN
 90
        0
 91
        1
 62
     0
 92
       -2
340
14
 93
        0
 40
0.045
309
GRIDFORMAT_END
309
TABLEFORMAT_END
  1
CELLSTYLE_BEGIN
 90
        1
 91
        1
300
_TITLE
309
CELLSTYLE_END
300
CELLSTYLE
  1
TABLEFORMAT_BEGIN
 90
        5
170
     1
 91
        0
 92
        0
 62
   257
 93
        1
300
CONTENTFORMAT
  1
CONTENTFORMAT_BEGIN
 90
        0
 91
        0
 92
        4
 93
        0
300

 40
0.0
140
1.0
 94
        5
 62
     0
340
11
144
0.18
309
CONTENTFORMAT_END
171
     1
301
MARGIN
  1
CELLMARGIN_BEGIN
 40
0.06
 40
0.06
 40
0.06
 40
0.06
 40
0.06
 40
0.06
309
CELLMARGIN_END
 94
        6
 95
        1
302
GRIDFORMAT
  1
GRIDFORMAT_BEGIN
 90
        0
 91
        1
 62
     0
 92
       -2
340
14
 93
        0
 40
0.045
309
GRIDFORMAT_END
 95
        2
302
GRIDFORMAT
  1
GRIDFORMAT_BEGIN
 90
        0
 91
        1
 62
     0
 92
       -2
340
14
 93
        0
 40
0.045
309
GRIDFORMAT_END
 95
        4
302
GRIDFORMAT
  1
GRIDFORMAT_BEGIN
 90
        0
 91
        1
 62
     0
 92
       -2
340
14
 93
        0
 40
0.045
309
GRIDFORMAT_END
 95
        8
302
GRIDFORMAT
  1
GRIDFORMAT_BEGIN
 90
        0
 91
        1
 62
     0
 92
       -2
340
14
 93
        0
 40
0.045
309
GRIDFORMAT_END
 95
       16
302
GRIDFORMAT
  1
GRIDFORMAT_BEGIN
 90
        0
 91
        1
 62
     0
 92
       -2
340
14
 93
        0
 40
0.045
309
GRIDFORMAT_END
 95
       32
302
GRIDFORMAT
  1
GRIDFORMAT_BEGIN
 90
        0
 91
        1
 62
     0
 92
       -2
340
14
 93
        0
 40
0.045
309
GRIDFORMAT_END
309
TABLEFORMAT_END
  1
CELLSTYLE_BEGIN
 90
        2
 91
        1
300
_HEADER
309
CELLSTYLE_END
300
CELLSTYLE
  1
TABLEFORMAT_BEGIN
 90
        5
170
     1
 91
        0
 92
        0
 62
   257
 93
        1
300
CONTENTFORMAT
  1
CONTENTFORMAT_BEGIN
 90
        0
 91
        0
 92
        4
 93
        0
300

 40
0.0
140
1.0
 94
        2
 62
     0
340
11
144
0.18
309
CONTENTFORMAT_END
171
     1
301
MARGIN
  1
CELLMARGIN_BEGIN
 40
0.06
 40
0.06
 40
0.06
 40
0.06
 40
0.06
 40
0.06
309
CELLMARGIN_END
 94
        6
 95
        1
302
GRIDFORMAT
  1
GRIDFORMAT_BEGIN
 90
        0
 91
        1
 62
     0
 92
       -2
340
14
 93
        0
 40
0.045
309
GRIDFORMAT_END
 95
        2
302
GRIDFORMAT
  1
GRIDFORMAT_BEGIN
 90
        0
 91
        1
 62
     0
 92
       -2
340
14
 93
        0
 40
0.045
309
GRIDFORMAT_END
 95
        4
302
GRIDFORMAT
  1
GRIDFORMAT_BEGIN
 90
        0
 91
        1
 62
     0
 92
       -2
340
14
 93
        0
 40
0.045
309
GRIDFORMAT_END
 95
        8
302
GRIDFORMAT
  1
GRIDFORMAT_BEGIN
 90
        0
 91
        1
 62
     0
 92
       -2
340
14
 93
        0
 40
0.045
309
GRIDFORMAT_END
 95
       16
302
GRIDFORMAT
  1
GRIDFORMAT_BEGIN
 90
        0
 91
        1
 62
     0
 92
       -2
340
14
 93
        0
 40
0.045
309
GRIDFORMAT_END
 95
       32
302
GRIDFORMAT
  1
GRIDFORMAT_BEGIN
 90
        0
 91
        1
 62
     0
 92
       -2
340
14
 93
        0
 40
0.045
309
GRIDFORMAT_END
309
TABLEFORMAT_END
  1
CELLSTYLE_BEGIN
 90
        3
 91
        2
300
_DATA
309
CELLSTYLE_END
  0
XRECORD
  5
B5
102
{ACAD_REACTORS
330
B4
102
}
330
B4
100
AcDbXrecord
280
     1
102
RTVSPropertyOp0
 70
     1
102
RTVSPropertyOp1
 70
     1
102
RTVSPropertyOp2
 70
     1
102
RTVSPropertyOp3
 70
     1
102
RTVSPropertyOp4
 70
     1
102
RTVSPropertyOp5
 70
     1
102
RTVSPropertyOp6
 70
     1
102
RTVSPropertyOp7
 70
     1
102
RTVSPropertyOp8
 70
     1
102
RTVSPropertyOp9
 70
     1
102
RTVSPropertyOp10
 70
     1
102
RTVSPropertyOp11
 70
     1
102
RTVSPropertyOp12
 70
     1
102
RTVSPropertyOp13
 70
     1
102
RTVSPropertyOp14
 70
     1
102
RTVSPropertyOp15
 70
     1
102
RTVSPropertyOp16
 70
     1
102
RTVSPropertyOp17
 70
     1
102
RTVSPropertyOp18
 70
     1
102
RTVSPropertyOp19
 70
     1
102
RTVSPropertyOp20
 70
     1
102
RTVSPropertyOp21
 70
     1
102
RTVSPropertyOp22
 70
     1
102
RTVSPropertyOp23
 70
     1
102
RTVSPropertyOp24
 70
     1
102
RTVSPropertyOp25
 70
     1
102
RTVSPropertyOp26
 70
     1
102
RTVSPropertyOp27
 70
     1
102
RTVSPropertyOp28
 70
     1
102
RTVSPropertyOp29
 70
     1
102
RTVSPropertyOp30
 70
     1
102
RTVSPropertyOp31
 70
     1
102
RTVSPropertyOp32
 70
     1
102
RTVSPropertyOp33
 70
     1
102
RTVSPropertyOp34
 70
     1
102
RTVSPropertyOp35
 70
     1
102
RTVSPropertyOp36
 70
     1
102
RTVSPropertyOp37
 70
     1
102
RTVSPropertyOp38
 70
     1
102
RTVSPropertyOp39
 70
     1
102
RTVSPropertyOp40
 70
     1
102
RTVSPropertyOp41
 70
     1
102
RTVSPropertyOp42
 70
     1
102
RTVSPropertyOp43
 70
     1
102
RTVSPropertyOp44
 70
     1
102
RTVSPropertyOp45
 70
     1
102
RTVSPropertyOp46
 70
     1
102
RTVSPropertyOp47
 70
     1
102
RTVSPropertyOp48
 70
     1
102
RTVSPropertyOp49
 70
     1
102
RTVSPropertyOp50
 70
     1
102
RTVSPropertyOp51
 70
     0
102
RTVSPropertyOp52
 70
     0
102
RTVSPropertyOp53
 70
     1
102
RTVSPropertyOp54
 70
     1
102
RTVSPropertyOp55
 70
     1
102
RTVSPropertyOp56
 70
     1
102
RTVSPropertyOp57
 70
     1
102
RTVSPost2010Prop28
280
     1
102
RTVSPost2010PropOp28
 70
     1
102
RTVSPost2010Prop29
280
     1
102
RTVSPost2010PropOp29
 70
     1
102
RTVSPost2010Prop30
280
     0
102
RTVSPost2010PropOp30
 70
     1
102
RTVSPost2010Prop31
280
     0
102
RTVSPost2010PropOp31
 70
     1
102
RTVSPost2010Prop32
280
     0
102
RTVSPost2010PropOp32
 70
     1
102
RTVSPost2010Prop33
280
     0
102
RTVSPost2010PropOp33
 70
     1
102
RTVSPost2010Prop34
280
     0
102
RTVSPost2010PropOp34
 70
     1
102
RTVSPost2010Prop35
280
     0
102
RTVSPost2010PropOp35
 70
     1
102
RTVSPost2010Prop36
280
     0
102
RTVSPost2010PropOp36
 70
     1
102
RTVSPost2010Prop37
 90
       50
102
RTVSPost2010PropOp37
 70
     1
102
RTVSPost2010Prop38
140
0.0
102
RTVSPost2010PropOp38
 70
     1
102
RTVSPost2010Prop39
140
1.0
102
RTVSPost2010PropOp39
 70
     1
102
RTVSPost2010Prop40
 90
        0
102
RTVSPost2010PropOp40
 70
     1
102
RTVSPost2010Prop41ColorIndex
 90
       18
102
RTVSPost2010Prop41ColorRGB
 90
        0
102
RTVSPost2010PropOp41
 70
     1
102
RTVSPost2010Prop42
 90
       50
102
RTVSPost2010PropOp42
 70
     1
102
RTVSPost2010Prop43
 90
        3
102
RTVSPost2010PropOp43
 70
     1
102
RTVSPost2010Prop44ColorIndex
 90
        5
102
RTVSPost2010Prop44ColorRGB
 90
      255
102
RTVSPost2010PropOp44
 70
     1
102
RTVSPost2010Prop45
280
     0
102
RTVSPost2010PropOp45
 70
     1
102
RTVSPost2010Prop46
 90
       50
102
RTVSPost2010PropOp46
 70
     1
102
RTVSPost2010Prop47
 90
       50
102
RTVSPost2010PropOp47
 70
     1
102
RTVSPost2010Prop48
 90
       50
102
RTVSPost2010PropOp48
 70
     1
102
RTVSPost2010Prop49
280
     0
102
RTVSPost2010PropOp49
 70
     1
102
RTVSPost2010Prop50
 90
       50
102
RTVSPost2010PropOp50
 70
     1
102
RTVSPost2010Prop51ColorIndex
 90
      256
102
RTVSPost2010Prop51ColorRGB
 90
-16777216
102
RTVSPost2010PropOp51
 70
     0
102
RTVSPost2010Prop52
140
1.0
102
RTVSPost2010PropOp52
 70
     0
102
RTVSPost2010Prop53
 90
        2
102
RTVSPost2010PropOp53
 70
     1
102
RTVSPost2010Prop54
  1
strokes_ogs.tif
102
RTVSPost2010PropOp54
 70
     1
102
RTVSPost2010Prop55
280
     0
102
RTVSPost2010PropOp55
 70
     1
102
RTVSPost2010Prop56
140
1.0
102
RTVSPost2010PropOp56
 70
     1
102
RTVSPost2010Prop57
140
1.0
102
RTVSPost2010PropOp57
 70
     1
  0
XRECORD
  5
BB
102
{ACAD_REACTORS
330
BA
102
}
330
BA
100
AcDbXrecord
280
     1
102
RTVSPropertyOp0
 70
     1
102
RTVSPropertyOp1
 70
     1
102
RTVSPropertyOp2
 70
     1
102
RTVSPropertyOp3
 70
     1
102
RTVSPropertyOp4
 70
     1
102
RTVSPropertyOp5
 70
     1
102
RTVSPropertyOp6
 70
     1
102
RTVSPropertyOp7
 70
     1
102
RTVSPropertyOp8
 70
     1
102
RTVSPropertyOp9
 70
     1
102
RTVSPropertyOp10
 70
     1
102
RTVSPropertyOp11
 70
     1
102
RTVSPropertyOp12
 70
     1
102
RTVSPropertyOp13
 70
     1
102
RTVSPropertyOp14
 70
     1
102
RTVSPropertyOp15
 70
     1
102
RTVSPropertyOp16
 70
     1
102
RTVSPropertyOp17
 70
     1
102
RTVSPropertyOp18
 70
     1
102
RTVSPropertyOp19
 70
     1
102
RTVSPropertyOp20
 70
     1
102
RTVSPropertyOp21
 70
     1
102
RTVSPropertyOp22
 70
     1
102
RTVSPropertyOp23
 70
     1
102
RTVSPropertyOp24
 70
     1
102
RTVSPropertyOp25
 70
     1
102
RTVSPropertyOp26
 70
     1
102
RTVSPropertyOp27
 70
     1
102
RTVSPropertyOp28
 70
     1
102
RTVSPropertyOp29
 70
     1
102
RTVSPropertyOp30
 70
     1
102
RTVSPropertyOp31
 70
     1
102
RTVSPropertyOp32
 70
     1
102
RTVSPropertyOp33
 70
     1
102
RTVSPropertyOp34
 70
     1
102
RTVSPropertyOp35
 70
     1
102
RTVSPropertyOp36
 70
     1
102
RTVSPropertyOp37
 70
     1
102
RTVSPropertyOp38
 70
     1
102
RTVSPropertyOp39
 70
     1
102
RTVSPropertyOp40
 70
     1
102
RTVSPropertyOp41
 70
     1
102
RTVSPropertyOp42
 70
     1
102
RTVSPropertyOp43
 70
     1
102
RTVSPropertyOp44
 70
     1
102
RTVSPropertyOp45
 70
     1
102
RTVSPropertyOp46
 70
     1
102
RTVSPropertyOp47
 70
     1
102
RTVSPropertyOp48
 70
     1
102
RTVSPropertyOp49
 70
     1
102
RTVSPropertyOp50
 70
     1
102
RTVSPropertyOp51
 70
     0
102
RTVSPropertyOp52
 70
     0
102
RTVSPropertyOp53
 70
     1
102
RTVSPropertyOp54
 70
     1
102
RTVSPropertyOp55
 70
     1
102
RTVSPropertyOp56
 70
     1
102
RTVSPropertyOp57
 70
     1
102
RTVSPost2010Prop28
280
     0
102
RTVSPost2010PropOp28
 70
     1
102
RTVSPost2010Prop29
280
     1
102
RTVSPost2010PropOp29
 70
     1
102
RTVSPost2010Prop30
280
     1
102
RTVSPost2010PropOp30
 70
     1
102
RTVSPost2010Prop31
280
     0
102
RTVSPost2010PropOp31
 70
     1
102
RTVSPost2010Prop32
280
     0
102
RTVSPost2010PropOp32
 70
     1
102
RTVSPost2010Prop33
280
     0
102
RTVSPost2010PropOp33
 70
     1
102
RTVSPost2010Prop34
280
     0
102
RTVSPost2010PropOp34
 70
     1
102
RTVSPost2010Prop35
280
     0
102
RTVSPost2010PropOp35
 70
     1
102
RTVSPost2010Prop36
280
     0
102
RTVSPost2010PropOp36
 70
     1
102
RTVSPost2010Prop37
 90
       50
102
RTVSPost2010PropOp37
 70
     1
102
RTVSPost2010Prop38
140
0.0
102
RTVSPost2010PropOp38
 70
     1
102
RTVSPost2010Prop39
140
1.0
102
RTVSPost2010PropOp39
 70
     1
102
RTVSPost2010Prop40
 90
        0
102
RTVSPost2010PropOp40
 70
     1
102
RTVSPost2010Prop41ColorIndex
 90
       18
102
RTVSPost2010Prop41ColorRGB
 90
        0
102
RTVSPost2010PropOp41
 70
     1
102
RTVSPost2010Prop42
 90
       50
102
RTVSPost2010PropOp42
 70
     1
102
RTVSPost2010Prop43
 90
        3
102
RTVSPost2010PropOp43
 70
     1
102
RTVSPost2010Prop44ColorIndex
 90
        5
102
RTVSPost2010Prop44ColorRGB
 90
      255
102
RTVSPost2010PropOp44
 70
     1
102
RTVSPost2010Prop45
280
     0
102
RTVSPost2010PropOp45
 70
     1
102
RTVSPost2010Prop46
 90
       50
102
RTVSPost2010PropOp46
 70
     1
102
RTVSPost2010Prop47
 90
       50
102
RTVSPost2010PropOp47
 70
     1
102
RTVSPost2010Prop48
 90
       50
102
RTVSPost2010PropOp48
 70
     1
102
RTVSPost2010Prop49
280
     0
102
RTVSPost2010PropOp49
 70
     1
102
RTVSPost2010Prop50
 90
       50
102
RTVSPost2010PropOp50
 70
     1
102
RTVSPost2010Prop51ColorIndex
 90
      256
102
RTVSPost2010Prop51ColorRGB
 90
-16777216
102
RTVSPost2010PropOp51
 70
     0
102
RTVSPost2010Prop52
140
1.0
102
RTVSPost2010PropOp52
 70
     0
102
RTVSPost2010Prop53
 90
        2
102
RTVSPost2010PropOp53
 70
     1
102
RTVSPost2010Prop54
  1
strokes_ogs.tif
102
RTVSPost2010PropOp54
 70
     1
102
RTVSPost2010Prop55
280
     0
102
RTVSPost2010PropOp55
 70
     1
102
RTVSPost2010Prop56
140
1.0
102
RTVSPost2010PropOp56
 70
     1
102
RTVSPost2010Prop57
140
1.0
102
RTVSPost2010PropOp57
 70
     1
  0
XRECORD
  5
C3
102
{ACAD_REACTORS
330
C2
102
}
330
C2
100
AcDbXrecord
280
     1
102
RTVSPropertyOp0
 70
     1
102
RTVSPropertyOp1
 70
     1
102
RTVSPropertyOp2
 70
     1
102
RTVSPropertyOp3
 70
     1
102
RTVSPropertyOp4
 70
     1
102
RTVSPropertyOp5
 70
     1
102
RTVSPropertyOp6
 70
     1
102
RTVSPropertyOp7
 70
     1
102
RTVSPropertyOp8
 70
     1
102
RTVSPropertyOp9
 70
     1
102
RTVSPropertyOp10
 70
     1
102
RTVSPropertyOp11
 70
     1
102
RTVSPropertyOp12
 70
     1
102
RTVSPropertyOp13
 70
     1
102
RTVSPropertyOp14
 70
     1
102
RTVSPropertyOp15
 70
     1
102
RTVSPropertyOp16
 70
     1
102
RTVSPropertyOp17
 70
     1
102
RTVSPropertyOp18
 70
     1
102
RTVSPropertyOp19
 70
     1
102
RTVSPropertyOp20
 70
     1
102
RTVSPropertyOp21
 70
     1
102
RTVSPropertyOp22
 70
     1
102
RTVSPropertyOp23
 70
     1
102
RTVSPropertyOp24
 70
     1
102
RTVSPropertyOp25
 70
     1
102
RTVSPropertyOp26
 70
     1
102
RTVSPropertyOp27
 70
     1
102
RTVSPropertyOp28
 70
     1
102
RTVSPropertyOp29
 70
     1
102
RTVSPropertyOp30
 70
     1
102
RTVSPropertyOp31
 70
     1
102
RTVSPropertyOp32
 70
     1
102
RTVSPropertyOp33
 70
     1
102
RTVSPropertyOp34
 70
     1
102
RTVSPropertyOp35
 70
     1
102
RTVSPropertyOp36
 70
     1
102
RTVSPropertyOp37
 70
     1
102
RTVSPropertyOp38
 70
     1
102
RTVSPropertyOp39
 70
     1
102
RTVSPropertyOp40
 70
     1
102
RTVSPropertyOp41
 70
     1
102
RTVSPropertyOp42
 70
     1
102
RTVSPropertyOp43
 70
     1
102
RTVSPropertyOp44
 70
     1
102
RTVSPropertyOp45
 70
     1
102
RTVSPropertyOp46
 70
     1
102
RTVSPropertyOp47
 70
     1
102
RTVSPropertyOp48
 70
     1
102
RTVSPropertyOp49
 70
     1
102
RTVSPropertyOp50
 70
     1
102
RTVSPropertyOp51
 70
     0
102
RTVSPropertyOp52
 70
     0
102
RTVSPropertyOp53
 70
     1
102
RTVSPropertyOp54
 70
     1
102
RTVSPropertyOp55
 70
     1
102
RTVSPropertyOp56
 70
     1
102
RTVSPropertyOp57
 70
     1
102
RTVSPost2010Prop28
280
     0
102
RTVSPost2010PropOp28
 70
     1
102
RTVSPost2010Prop29
280
     1
102
RTVSPost2010PropOp29
 70
     1
102
RTVSPost2010Prop30
280
     1
102
RTVSPost2010PropOp30
 70
     1
102
RTVSPost2010Prop31
280
     0
102
RTVSPost2010PropOp31
 70
     1
102
RTVSPost2010Prop32
280
     0
102
RTVSPost2010PropOp32
 70
     1
102
RTVSPost2010Prop33
280
     0
102
RTVSPost2010PropOp33
 70
     1
102
RTVSPost2010Prop34
280
     0
102
RTVSPost2010PropOp34
 70
     1
102
RTVSPost2010Prop35
280
     0
102
RTVSPost2010PropOp35
 70
     1
102
RTVSPost2010Prop36
280
     0
102
RTVSPost2010PropOp36
 70
     1
102
RTVSPost2010Prop37
 90
       50
102
RTVSPost2010PropOp37
 70
     1
102
RTVSPost2010Prop38
140
0.0
102
RTVSPost2010PropOp38
 70
     1
102
RTVSPost2010Prop39
140
1.0
102
RTVSPost2010PropOp39
 70
     1
102
RTVSPost2010Prop40
 90
        0
102
RTVSPost2010PropOp40
 70
     1
102
RTVSPost2010Prop41ColorIndex
 90
       18
102
RTVSPost2010Prop41ColorRGB
 90
        0
102
RTVSPost2010PropOp41
 70
     1
102
RTVSPost2010Prop42
 90
       50
102
RTVSPost2010PropOp42
 70
     1
102
RTVSPost2010Prop43
 90
        3
102
RTVSPost2010PropOp43
 70
     1
102
RTVSPost2010Prop44ColorIndex
 90
        5
102
RTVSPost2010Prop44ColorRGB
 90
      255
102
RTVSPost2010PropOp44
 70
     1
102
RTVSPost2010Prop45
280
     0
102
RTVSPost2010PropOp45
 70
     1
102
RTVSPost2010Prop46
 90
       50
102
RTVSPost2010PropOp46
 70
     1
102
RTVSPost2010Prop47
 90
       50
102
RTVSPost2010PropOp47
 70
     1
102
RTVSPost2010Prop48
 90
       50
102
RTVSPost2010PropOp48
 70
     1
102
RTVSPost2010Prop49
280
     0
102
RTVSPost2010PropOp49
 70
     1
102
RTVSPost2010Prop50
 90
       50
102
RTVSPost2010PropOp50
 70
     1
102
RTVSPost2010Prop51ColorIndex
 90
      256
102
RTVSPost2010Prop51ColorRGB
 90
-16777216
102
RTVSPost2010PropOp51
 70
     0
102
RTVSPost2010Prop52
140
1.0
102
RTVSPost2010PropOp52
 70
     0
102
RTVSPost2010Prop53
 90
        2
102
RTVSPost2010PropOp53
 70
     1
102
RTVSPost2010Prop54
  1
strokes_ogs.tif
102
RTVSPost2010PropOp54
 70
     1
102
RTVSPost2010Prop55
280
     0
102
RTVSPost2010PropOp55
 70
     1
102
RTVSPost2010Prop56
140
1.0
102
RTVSPost2010PropOp56
 70
     1
102
RTVSPost2010Prop57
140
1.0
102
RTVSPost2010PropOp57
 70
     1
  0
XRECORD
  5
CB
102
{ACAD_REACTORS
330
CA
102
}
330
CA
100
AcDbXrecord
280
     1
102
RTVSPropertyOp0
 70
     1
102
RTVSPropertyOp1
 70
     1
102
RTVSPropertyOp2
 70
     1
102
RTVSPropertyOp3
 70
     1
102
RTVSPropertyOp4
 70
     1
102
RTVSPropertyOp5
 70
     1
102
RTVSPropertyOp6
 70
     1
102
RTVSPropertyOp7
 70
     1
102
RTVSPropertyOp8
 70
     1
102
RTVSPropertyOp9
 70
     1
102
RTVSPropertyOp10
 70
     1
102
RTVSPropertyOp11
 70
     1
102
RTVSPropertyOp12
 70
     1
102
RTVSPropertyOp13
 70
     1
102
RTVSPropertyOp14
 70
     1
102
RTVSPropertyOp15
 70
     1
102
RTVSPropertyOp16
 70
     1
102
RTVSPropertyOp17
 70
     1
102
RTVSPropertyOp18
 70
     1
102
RTVSPropertyOp19
 70
     1
102
RTVSPropertyOp20
 70
     1
102
RTVSPropertyOp21
 70
     1
102
RTVSPropertyOp22
 70
     1
102
RTVSPropertyOp23
 70
     1
102
RTVSPropertyOp24
 70
     1
102
RTVSPropertyOp25
 70
     1
102
RTVSPropertyOp26
 70
     1
102
RTVSPropertyOp27
 70
     1
102
RTVSPropertyOp28
 70
     1
102
RTVSPropertyOp29
 70
     1
102
RTVSPropertyOp30
 70
     1
102
RTVSPropertyOp31
 70
     1
102
RTVSPropertyOp32
 70
     1
102
RTVSPropertyOp33
 70
     1
102
RTVSPropertyOp34
 70
     1
102
RTVSPropertyOp35
 70
     1
102
RTVSPropertyOp36
 70
     1
102
RTVSPropertyOp37
 70
     1
102
RTVSPropertyOp38
 70
     1
102
RTVSPropertyOp39
 70
     1
102
RTVSPropertyOp40
 70
     1
102
RTVSPropertyOp41
 70
     1
102
RTVSPropertyOp42
 70
     1
102
RTVSPropertyOp43
 70
     1
102
RTVSPropertyOp44
 70
     1
102
RTVSPropertyOp45
 70
     1
102
RTVSPropertyOp46
 70
     1
102
RTVSPropertyOp47
 70
     1
102
RTVSPropertyOp48
 70
     1
102
RTVSPropertyOp49
 70
     1
102
RTVSPropertyOp50
 70
     1
102
RTVSPropertyOp51
 70
     0
102
RTVSPropertyOp52
 70
     0
102
RTVSPropertyOp53
 70
     1
102
RTVSPropertyOp54
 70
     1
102
RTVSPropertyOp55
 70
     1
102
RTVSPropertyOp56
 70
     1
102
RTVSPropertyOp57
 70
     1
102
RTVSPost2010Prop28
280
     0
102
RTVSPost2010PropOp28
 70
     1
102
RTVSPost2010Prop29
280
     1
102
RTVSPost2010PropOp29
 70
     1
102
RTVSPost2010Prop30
280
     1
102
RTVSPost2010PropOp30
 70
     1
102
RTVSPost2010Prop31
280
     0
102
RTVSPost2010PropOp31
 70
     1
102
RTVSPost2010Prop32
280
     0
102
RTVSPost2010PropOp32
 70
     1
102
RTVSPost2010Prop33
280
     0
102
RTVSPost2010PropOp33
 70
     1
102
RTVSPost2010Prop34
280
     0
102
RTVSPost2010PropOp34
 70
     1
102
RTVSPost2010Prop35
280
     0
102
RTVSPost2010PropOp35
 70
     1
102
RTVSPost2010Prop36
280
     0
102
RTVSPost2010PropOp36
 70
     1
102
RTVSPost2010Prop37
 90
       50
102
RTVSPost2010PropOp37
 70
     1
102
RTVSPost2010Prop38
140
0.0
102
RTVSPost2010PropOp38
 70
     1
102
RTVSPost2010Prop39
140
1.0
102
RTVSPost2010PropOp39
 70
     1
102
RTVSPost2010Prop40
 90
        0
102
RTVSPost2010PropOp40
 70
     1
102
RTVSPost2010Prop41ColorIndex
 90
       18
102
RTVSPost2010Prop41ColorRGB
 90
        0
102
RTVSPost2010PropOp41
 70
     1
102
RTVSPost2010Prop42
 90
       50
102
RTVSPost2010PropOp42
 70
     1
102
RTVSPost2010Prop43
 90
        3
102
RTVSPost2010PropOp43
 70
     1
102
RTVSPost2010Prop44ColorIndex
 90
        5
102
RTVSPost2010Prop44ColorRGB
 90
      255
102
RTVSPost2010PropOp44
 70
     1
102
RTVSPost2010Prop45
280
     0
102
RTVSPost2010PropOp45
 70
     1
102
RTVSPost2010Prop46
 90
       50
102
RTVSPost2010PropOp46
 70
     1
102
RTVSPost2010Prop47
 90
       50
102
RTVSPost2010PropOp47
 70
     1
102
RTVSPost2010Prop48
 90
       50
102
RTVSPost2010PropOp48
 70
     1
102
RTVSPost2010Prop49
280
     0
102
RTVSPost2010PropOp49
 70
     1
102
RTVSPost2010Prop50
 90
       50
102
RTVSPost2010PropOp50
 70
     1
102
RTVSPost2010Prop51ColorIndex
 90
      256
102
RTVSPost2010Prop51ColorRGB
 90
-16777216
102
RTVSPost2010PropOp51
 70
     0
102
RTVSPost2010Prop52
140
1.0
102
RTVSPost2010PropOp52
 70
     0
102
RTVSPost2010Prop53
 90
        2
102
RTVSPost2010PropOp53
 70
     1
102
RTVSPost2010Prop54
  1
strokes_ogs.tif
102
RTVSPost2010PropOp54
 70
     1
102
RTVSPost2010Prop55
280
     0
102
RTVSPost2010PropOp55
 70
     1
102
RTVSPost2010Prop56
140
1.0
102
RTVSPost2010PropOp56
 70
     1
102
RTVSPost2010Prop57
140
1.0
102
RTVSPost2010PropOp57
 70
     1
  0
XRECORD
  5
BF
102
{ACAD_REACTORS
330
BE
102
}
330
BE
100
AcDbXrecord
280
     1
102
RTVSPropertyOp0
 70
     1
102
RTVSPropertyOp1
 70
     1
102
RTVSPropertyOp2
 70
     1
102
RTVSPropertyOp3
 70
     1
102
RTVSPropertyOp4
 70
     1
102
RTVSPropertyOp5
 70
     1
102
RTVSPropertyOp6
 70
     1
102
RTVSPropertyOp7
 70
     1
102
RTVSPropertyOp8
 70
     1
102
RTVSPropertyOp9
 70
     1
102
RTVSPropertyOp10
 70
     1
102
RTVSPropertyOp11
 70
     1
102
RTVSPropertyOp12
 70
     1
102
RTVSPropertyOp13
 70
     1
102
RTVSPropertyOp14
 70
     1
102
RTVSPropertyOp15
 70
     1
102
RTVSPropertyOp16
 70
     1
102
RTVSPropertyOp17
 70
     1
102
RTVSPropertyOp18
 70
     1
102
RTVSPropertyOp19
 70
     1
102
RTVSPropertyOp20
 70
     1
102
RTVSPropertyOp21
 70
     1
102
RTVSPropertyOp22
 70
     1
102
RTVSPropertyOp23
 70
     1
102
RTVSPropertyOp24
 70
     1
102
RTVSPropertyOp25
 70
     1
102
RTVSPropertyOp26
 70
     1
102
RTVSPropertyOp27
 70
     1
102
RTVSPropertyOp28
 70
     1
102
RTVSPropertyOp29
 70
     1
102
RTVSPropertyOp30
 70
     1
102
RTVSPropertyOp31
 70
     1
102
RTVSPropertyOp32
 70
     1
102
RTVSPropertyOp33
 70
     1
102
RTVSPropertyOp34
 70
     1
102
RTVSPropertyOp35
 70
     1
102
RTVSPropertyOp36
 70
     1
102
RTVSPropertyOp37
 70
     1
102
RTVSPropertyOp38
 70
     1
102
RTVSPropertyOp39
 70
     1
102
RTVSPropertyOp40
 70
     1
102
RTVSPropertyOp41
 70
     1
102
RTVSPropertyOp42
 70
     1
102
RTVSPropertyOp43
 70
     1
102
RTVSPropertyOp44
 70
     1
102
RTVSPropertyOp45
 70
     1
102
RTVSPropertyOp46
 70
     1
102
RTVSPropertyOp47
 70
     1
102
RTVSPropertyOp48
 70
     1
102
RTVSPropertyOp49
 70
     1
102
RTVSPropertyOp50
 70
     1
102
RTVSPropertyOp51
 70
     0
102
RTVSPropertyOp52
 70
     0
102
RTVSPropertyOp53
 70
     1
102
RTVSPropertyOp54
 70
     1
102
RTVSPropertyOp55
 70
     1
102
RTVSPropertyOp56
 70
     1
102
RTVSPropertyOp57
 70
     1
102
RTVSPost2010Prop28
280
     0
102
RTVSPost2010PropOp28
 70
     1
102
RTVSPost2010Prop29
280
     1
102
RTVSPost2010PropOp29
 70
     1
102
RTVSPost2010Prop30
280
     1
102
RTVSPost2010PropOp30
 70
     1
102
RTVSPost2010Prop31
280
     0
102
RTVSPost2010PropOp31
 70
     1
102
RTVSPost2010Prop32
280
     0
102
RTVSPost2010PropOp32
 70
     1
102
RTVSPost2010Prop33
280
     0
102
RTVSPost2010PropOp33
 70
     1
102
RTVSPost2010Prop34
280
     0
102
RTVSPost2010PropOp34
 70
     1
102
RTVSPost2010Prop35
280
     0
102
RTVSPost2010PropOp35
 70
     1
102
RTVSPost2010Prop36
280
     0
102
RTVSPost2010PropOp36
 70
     1
102
RTVSPost2010Prop37
 90
       50
102
RTVSPost2010PropOp37
 70
     1
102
RTVSPost2010Prop38
140
0.0
102
RTVSPost2010PropOp38
 70
     1
102
RTVSPost2010Prop39
140
1.0
102
RTVSPost2010PropOp39
 70
     1
102
RTVSPost2010Prop40
 90
        0
102
RTVSPost2010PropOp40
 70
     1
102
RTVSPost2010Prop41ColorIndex
 90
       18
102
RTVSPost2010Prop41ColorRGB
 90
        0
102
RTVSPost2010PropOp41
 70
     1
102
RTVSPost2010Prop42
 90
       50
102
RTVSPost2010PropOp42
 70
     1
102
RTVSPost2010Prop43
 90
        3
102
RTVSPost2010PropOp43
 70
     1
102
RTVSPost2010Prop44ColorIndex
 90
        5
102
RTVSPost2010Prop44ColorRGB
 90
      255
102
RTVSPost2010PropOp44
 70
     1
102
RTVSPost2010Prop45
280
     0
102
RTVSPost2010PropOp45
 70
     1
102
RTVSPost2010Prop46
 90
       50
102
RTVSPost2010PropOp46
 70
     1
102
RTVSPost2010Prop47
 90
       50
102
RTVSPost2010PropOp47
 70
     1
102
RTVSPost2010Prop48
 90
       50
102
RTVSPost2010PropOp48
 70
     1
102
RTVSPost2010Prop49
280
     0
102
RTVSPost2010PropOp49
 70
     1
102
RTVSPost2010Prop50
 90
       50
102
RTVSPost2010PropOp50
 70
     1
102
RTVSPost2010Prop51ColorIndex
 90
      256
102
RTVSPost2010Prop51ColorRGB
 90
-16777216
102
RTVSPost2010PropOp51
 70
     0
102
RTVSPost2010Prop52
140
1.0
102
RTVSPost2010PropOp52
 70
     0
102
RTVSPost2010Prop53
 90
        2
102
RTVSPost2010PropOp53
 70
     1
102
RTVSPost2010Prop54
  1
strokes_ogs.tif
102
RTVSPost2010PropOp54
 70
     1
102
RTVSPost2010Prop55
280
     0
102
RTVSPost2010PropOp55
 70
     1
102
RTVSPost2010Prop56
140
1.0
102
RTVSPost2010PropOp56
 70
     1
102
RTVSPost2010Prop57
140
1.0
102
RTVSPost2010PropOp57
 70
     1
  0
XRECORD
  5
C1
102
{ACAD_REACTORS
330
C0
102
}
330
C0
100
AcDbXrecord
280
     1
102
RTVSPropertyOp0
 70
     1
102
RTVSPropertyOp1
 70
     1
102
RTVSPropertyOp2
 70
     1
102
RTVSPropertyOp3
 70
     1
102
RTVSPropertyOp4
 70
     1
102
RTVSPropertyOp5
 70
     1
102
RTVSPropertyOp6
 70
     1
102
RTVSPropertyOp7
 70
     1
102
RTVSPropertyOp8
 70
     1
102
RTVSPropertyOp9
 70
     1
102
RTVSPropertyOp10
 70
     1
102
RTVSPropertyOp11
 70
     1
102
RTVSPropertyOp12
 70
     1
102
RTVSPropertyOp13
 70
     1
102
RTVSPropertyOp14
 70
     1
102
RTVSPropertyOp15
 70
     1
102
RTVSPropertyOp16
 70
     1
102
RTVSPropertyOp17
 70
     1
102
RTVSPropertyOp18
 70
     1
102
RTVSPropertyOp19
 70
     1
102
RTVSPropertyOp20
 70
     1
102
RTVSPropertyOp21
 70
     1
102
RTVSPropertyOp22
 70
     1
102
RTVSPropertyOp23
 70
     1
102
RTVSPropertyOp24
 70
     1
102
RTVSPropertyOp25
 70
     1
102
RTVSPropertyOp26
 70
     1
102
RTVSPropertyOp27
 70
     1
102
RTVSPropertyOp28
 70
     1
102
RTVSPropertyOp29
 70
     1
102
RTVSPropertyOp30
 70
     1
102
RTVSPropertyOp31
 70
     1
102
RTVSPropertyOp32
 70
     1
102
RTVSPropertyOp33
 70
     1
102
RTVSPropertyOp34
 70
     1
102
RTVSPropertyOp35
 70
     1
102
RTVSPropertyOp36
 70
     1
102
RTVSPropertyOp37
 70
     1
102
RTVSPropertyOp38
 70
     1
102
RTVSPropertyOp39
 70
     1
102
RTVSPropertyOp40
 70
     1
102
RTVSPropertyOp41
 70
     1
102
RTVSPropertyOp42
 70
     1
102
RTVSPropertyOp43
 70
     1
102
RTVSPropertyOp44
 70
     1
102
RTVSPropertyOp45
 70
     1
102
RTVSPropertyOp46
 70
     1
102
RTVSPropertyOp47
 70
     1
102
RTVSPropertyOp48
 70
     1
102
RTVSPropertyOp49
 70
     1
102
RTVSPropertyOp50
 70
     1
102
RTVSPropertyOp51
 70
     0
102
RTVSPropertyOp52
 70
     0
102
RTVSPropertyOp53
 70
     1
102
RTVSPropertyOp54
 70
     1
102
RTVSPropertyOp55
 70
     1
102
RTVSPropertyOp56
 70
     1
102
RTVSPropertyOp57
 70
     1
102
RTVSPost2010Prop28
280
     0
102
RTVSPost2010PropOp28
 70
     1
102
RTVSPost2010Prop29
280
     1
102
RTVSPost2010PropOp29
 70
     1
102
RTVSPost2010Prop30
280
     1
102
RTVSPost2010PropOp30
 70
     1
102
RTVSPost2010Prop31
280
     0
102
RTVSPost2010PropOp31
 70
     1
102
RTVSPost2010Prop32
280
     0
102
RTVSPost2010PropOp32
 70
     1
102
RTVSPost2010Prop33
280
     0
102
RTVSPost2010PropOp33
 70
     1
102
RTVSPost2010Prop34
280
     0
102
RTVSPost2010PropOp34
 70
     1
102
RTVSPost2010Prop35
280
     0
102
RTVSPost2010PropOp35
 70
     1
102
RTVSPost2010Prop36
280
     0
102
RTVSPost2010PropOp36
 70
     1
102
RTVSPost2010Prop37
 90
       50
102
RTVSPost2010PropOp37
 70
     1
102
RTVSPost2010Prop38
140
0.0
102
RTVSPost2010PropOp38
 70
     1
102
RTVSPost2010Prop39
140
1.0
102
RTVSPost2010PropOp39
 70
     1
102
RTVSPost2010Prop40
 90
        0
102
RTVSPost2010PropOp40
 70
     1
102
RTVSPost2010Prop41ColorIndex
 90
       18
102
RTVSPost2010Prop41ColorRGB
 90
        0
102
RTVSPost2010PropOp41
 70
     1
102
RTVSPost2010Prop42
 90
       50
102
RTVSPost2010PropOp42
 70
     1
102
RTVSPost2010Prop43
 90
        3
102
RTVSPost2010PropOp43
 70
     1
102
RTVSPost2010Prop44ColorIndex
 90
        5
102
RTVSPost2010Prop44ColorRGB
 90
      255
102
RTVSPost2010PropOp44
 70
     1
102
RTVSPost2010Prop45
280
     0
102
RTVSPost2010PropOp45
 70
     1
102
RTVSPost2010Prop46
 90
       50
102
RTVSPost2010PropOp46
 70
     1
102
RTVSPost2010Prop47
 90
       50
102
RTVSPost2010PropOp47
 70
     1
102
RTVSPost2010Prop48
 90
       50
102
RTVSPost2010PropOp48
 70
     1
102
RTVSPost2010Prop49
280
     0
102
RTVSPost2010PropOp49
 70
     1
102
RTVSPost2010Prop50
 90
       50
102
RTVSPost2010PropOp50
 70
     1
102
RTVSPost2010Prop51ColorIndex
 90
      256
102
RTVSPost2010Prop51ColorRGB
 90
-16777216
102
RTVSPost2010PropOp51
 70
     0
102
RTVSPost2010Prop52
140
1.0
102
RTVSPost2010PropOp52
 70
     0
102
RTVSPost2010Prop53
 90
        2
102
RTVSPost2010PropOp53
 70
     1
102
RTVSPost2010Prop54
  1
strokes_ogs.tif
102
RTVSPost2010PropOp54
 70
     1
102
RTVSPost2010Prop55
280
     0
102
RTVSPost2010PropOp55
 70
     1
102
RTVSPost2010Prop56
140
1.0
102
RTVSPost2010PropOp56
 70
     1
102
RTVSPost2010Prop57
140
1.0
102
RTVSPost2010PropOp57
 70
     1
  0
XRECORD
  5
D1
102
{ACAD_REACTORS
330
D0
102
}
330
D0
100
AcDbXrecord
280
     1
102
RTVSPropertyOp0
 70
     0
102
RTVSPropertyOp1
 70
     0
102
RTVSPropertyOp2
 70
     0
102
RTVSPropertyOp3
 70
     0
102
RTVSPropertyOp4
 70
     0
102
RTVSPropertyOp5
 70
     0
102
RTVSPropertyOp6
 70
     0
102
RTVSPropertyOp7
 70
     0
102
RTVSPropertyOp8
 70
     0
102
RTVSPropertyOp9
 70
     0
102
RTVSPropertyOp10
 70
     0
102
RTVSPropertyOp11
 70
     0
102
RTVSPropertyOp12
 70
     0
102
RTVSPropertyOp13
 70
     0
102
RTVSPropertyOp14
 70
     2
102
RTVSPropertyOp15
 70
     0
102
RTVSPropertyOp16
 70
     0
102
RTVSPropertyOp17
 70
     0
102
RTVSPropertyOp18
 70
     0
102
RTVSPropertyOp19
 70
     0
102
RTVSPropertyOp20
 70
     0
102
RTVSPropertyOp21
 70
     0
102
RTVSPropertyOp22
 70
     0
102
RTVSPropertyOp23
 70
     0
102
RTVSPropertyOp24
 70
     0
102
RTVSPropertyOp25
 70
     0
102
RTVSPropertyOp26
 70
     0
102
RTVSPropertyOp27
 70
     0
102
RTVSPropertyOp28
 70
     0
102
RTVSPropertyOp29
 70
     0
102
RTVSPropertyOp30
 70
     0
102
RTVSPropertyOp31
 70
     0
102
RTVSPropertyOp32
 70
     0
102
RTVSPropertyOp33
 70
     0
102
RTVSPropertyOp34
 70
     0
102
RTVSPropertyOp35
 70
     0
102
RTVSPropertyOp36
 70
     0
102
RTVSPropertyOp37
 70
     0
102
RTVSPropertyOp38
 70
     0
102
RTVSPropertyOp39
 70
     0
102
RTVSPropertyOp40
 70
     0
102
RTVSPropertyOp41
 70
     0
102
RTVSPropertyOp42
 70
     0
102
RTVSPropertyOp43
 70
     0
102
RTVSPropertyOp44
 70
     0
102
RTVSPropertyOp45
 70
     0
102
RTVSPropertyOp46
 70
     0
102
RTVSPropertyOp47
 70
     0
102
RTVSPropertyOp48
 70
     0
102
RTVSPropertyOp49
 70
     0
102
RTVSPropertyOp50
 70
     0
102
RTVSPropertyOp51
 70
     0
102
RTVSPropertyOp52
 70
     0
102
RTVSPropertyOp53
 70
     0
102
RTVSPropertyOp54
 70
     0
102
RTVSPropertyOp55
 70
     0
102
RTVSPropertyOp56
 70
     0
102
RTVSPropertyOp57
 70
     0
102
RTVSPost2010Prop28
280
     0
102
RTVSPost2010PropOp28
 70
     0
102
RTVSPost2010Prop29
280
     1
102
RTVSPost2010PropOp29
 70
     0
102
RTVSPost2010Prop30
280
     1
102
RTVSPost2010PropOp30
 70
     0
102
RTVSPost2010Prop31
280
     0
102
RTVSPost2010PropOp31
 70
     0
102
RTVSPost2010Prop32
280
     0
102
RTVSPost2010PropOp32
 70
     0
102
RTVSPost2010Prop33
280
     0
102
RTVSPost2010PropOp33
 70
     0
102
RTVSPost2010Prop34
280
     0
102
RTVSPost2010PropOp34
 70
     0
102
RTVSPost2010Prop35
280
     0
102
RTVSPost2010PropOp35
 70
     0
102
RTVSPost2010Prop36
280
     0
102
RTVSPost2010PropOp36
 70
     0
102
RTVSPost2010Prop37
 90
       50
102
RTVSPost2010PropOp37
 70
     0
102
RTVSPost2010Prop38
140
0.0
102
RTVSPost2010PropOp38
 70
     0
102
RTVSPost2010Prop39
140
1.0
102
RTVSPost2010PropOp39
 70
     0
102
RTVSPost2010Prop40
 90
        0
102
RTVSPost2010PropOp40
 70
     0
102
RTVSPost2010Prop41ColorIndex
 90
       18
102
RTVSPost2010Prop41ColorRGB
 90
        0
102
RTVSPost2010PropOp41
 70
     0
102
RTVSPost2010Prop42
 90
       50
102
RTVSPost2010PropOp42
 70
     0
102
RTVSPost2010Prop43
 90
        3
102
RTVSPost2010PropOp43
 70
     0
102
RTVSPost2010Prop44ColorIndex
 90
        5
102
RTVSPost2010Prop44ColorRGB
 90
      255
102
RTVSPost2010PropOp44
 70
     0
102
RTVSPost2010Prop45
280
     0
102
RTVSPost2010PropOp45
 70
     0
102
RTVSPost2010Prop46
 90
       50
102
RTVSPost2010PropOp46
 70
     0
102
RTVSPost2010Prop47
 90
       50
102
RTVSPost2010PropOp47
 70
     0
102
RTVSPost2010Prop48
 90
       50
102
RTVSPost2010PropOp48
 70
     0
102
RTVSPost2010Prop49
280
     0
102
RTVSPost2010PropOp49
 70
     0
102
RTVSPost2010Prop50
 90
       50
102
RTVSPost2010PropOp50
 70
     0
102
RTVSPost2010Prop51ColorIndex
 90
      256
102
RTVSPost2010Prop51ColorRGB
 90
-16777216
102
RTVSPost2010PropOp51
 70
     0
102
RTVSPost2010Prop52
140
1.0
102
RTVSPost2010PropOp52
 70
     0
102
RTVSPost2010Prop53
 90
        2
102
RTVSPost2010PropOp53
 70
     0
102
RTVSPost2010Prop54
  1
strokes_ogs.tif
102
RTVSPost2010PropOp54
 70
     0
102
RTVSPost2010Prop55
280
     0
102
RTVSPost2010PropOp55
 70
     0
102
RTVSPost2010Prop56
140
1.0
102
RTVSPost2010PropOp56
 70
     0
102
RTVSPost2010Prop57
140
1.0
102
RTVSPost2010PropOp57
 70
     0
  0
XRECORD
  5
C9
102
{ACAD_REACTORS
330
C8
102
}
330
C8
100
AcDbXrecord
280
     1
102
RTVSPropertyOp0
 70
     1
102
RTVSPropertyOp1
 70
     1
102
RTVSPropertyOp2
 70
     1
102
RTVSPropertyOp3
 70
     1
102
RTVSPropertyOp4
 70
     1
102
RTVSPropertyOp5
 70
     1
102
RTVSPropertyOp6
 70
     1
102
RTVSPropertyOp7
 70
     1
102
RTVSPropertyOp8
 70
     1
102
RTVSPropertyOp9
 70
     1
102
RTVSPropertyOp10
 70
     1
102
RTVSPropertyOp11
 70
     1
102
RTVSPropertyOp12
 70
     1
102
RTVSPropertyOp13
 70
     1
102
RTVSPropertyOp14
 70
     1
102
RTVSPropertyOp15
 70
     1
102
RTVSPropertyOp16
 70
     1
102
RTVSPropertyOp17
 70
     1
102
RTVSPropertyOp18
 70
     1
102
RTVSPropertyOp19
 70
     1
102
RTVSPropertyOp20
 70
     1
102
RTVSPropertyOp21
 70
     1
102
RTVSPropertyOp22
 70
     1
102
RTVSPropertyOp23
 70
     1
102
RTVSPropertyOp24
 70
     1
102
RTVSPropertyOp25
 70
     1
102
RTVSPropertyOp26
 70
     1
102
RTVSPropertyOp27
 70
     1
102
RTVSPropertyOp28
 70
     1
102
RTVSPropertyOp29
 70
     1
102
RTVSPropertyOp30
 70
     1
102
RTVSPropertyOp31
 70
     1
102
RTVSPropertyOp32
 70
     1
102
RTVSPropertyOp33
 70
     1
102
RTVSPropertyOp34
 70
     1
102
RTVSPropertyOp35
 70
     1
102
RTVSPropertyOp36
 70
     1
102
RTVSPropertyOp37
 70
     1
102
RTVSPropertyOp38
 70
     1
102
RTVSPropertyOp39
 70
     1
102
RTVSPropertyOp40
 70
     1
102
RTVSPropertyOp41
 70
     1
102
RTVSPropertyOp42
 70
     1
102
RTVSPropertyOp43
 70
     1
102
RTVSPropertyOp44
 70
     1
102
RTVSPropertyOp45
 70
     1
102
RTVSPropertyOp46
 70
     1
102
RTVSPropertyOp47
 70
     1
102
RTVSPropertyOp48
 70
     1
102
RTVSPropertyOp49
 70
     1
102
RTVSPropertyOp50
 70
     1
102
RTVSPropertyOp51
 70
     0
102
RTVSPropertyOp52
 70
     0
102
RTVSPropertyOp53
 70
     1
102
RTVSPropertyOp54
 70
     1
102
RTVSPropertyOp55
 70
     1
102
RTVSPropertyOp56
 70
     1
102
RTVSPropertyOp57
 70
     1
102
RTVSPost2010Prop28
280
     0
102
RTVSPost2010PropOp28
 70
     1
102
RTVSPost2010Prop29
280
     1
102
RTVSPost2010PropOp29
 70
     1
102
RTVSPost2010Prop30
280
     1
102
RTVSPost2010PropOp30
 70
     1
102
RTVSPost2010Prop31
280
     0
102
RTVSPost2010PropOp31
 70
     1
102
RTVSPost2010Prop32
280
     0
102
RTVSPost2010PropOp32
 70
     1
102
RTVSPost2010Prop33
280
     0
102
RTVSPost2010PropOp33
 70
     1
102
RTVSPost2010Prop34
280
     0
102
RTVSPost2010PropOp34
 70
     1
102
RTVSPost2010Prop35
280
     0
102
RTVSPost2010PropOp35
 70
     1
102
RTVSPost2010Prop36
280
     0
102
RTVSPost2010PropOp36
 70
     1
102
RTVSPost2010Prop37
 90
       50
102
RTVSPost2010PropOp37
 70
     1
102
RTVSPost2010Prop38
140
0.0
102
RTVSPost2010PropOp38
 70
     1
102
RTVSPost2010Prop39
140
1.0
102
RTVSPost2010PropOp39
 70
     1
102
RTVSPost2010Prop40
 90
        0
102
RTVSPost2010PropOp40
 70
     1
102
RTVSPost2010Prop41ColorIndex
 90
       18
102
RTVSPost2010Prop41ColorRGB
 90
        0
102
RTVSPost2010PropOp41
 70
     1
102
RTVSPost2010Prop42
 90
       50
102
RTVSPost2010PropOp42
 70
     1
102
RTVSPost2010Prop43
 90
        3
102
RTVSPost2010PropOp43
 70
     1
102
RTVSPost2010Prop44ColorIndex
 90
        5
102
RTVSPost2010Prop44ColorRGB
 90
      255
102
RTVSPost2010PropOp44
 70
     1
102
RTVSPost2010Prop45
280
     0
102
RTVSPost2010PropOp45
 70
     1
102
RTVSPost2010Prop46
 90
       50
102
RTVSPost2010PropOp46
 70
     1
102
RTVSPost2010Prop47
 90
       50
102
RTVSPost2010PropOp47
 70
     1
102
RTVSPost2010Prop48
 90
       50
102
RTVSPost2010PropOp48
 70
     1
102
RTVSPost2010Prop49
280
     0
102
RTVSPost2010PropOp49
 70
     1
102
RTVSPost2010Prop50
 90
       50
102
RTVSPost2010PropOp50
 70
     1
102
RTVSPost2010Prop51ColorIndex
 90
      256
102
RTVSPost2010Prop51ColorRGB
 90
-16777216
102
RTVSPost2010PropOp51
 70
     0
102
RTVSPost2010Prop52
140
1.0
102
RTVSPost2010PropOp52
 70
     0
102
RTVSPost2010Prop53
 90
        2
102
RTVSPost2010PropOp53
 70
     1
102
RTVSPost2010Prop54
  1
strokes_ogs.tif
102
RTVSPost2010PropOp54
 70
     1
102
RTVSPost2010Prop55
280
     0
102
RTVSPost2010PropOp55
 70
     1
102
RTVSPost2010Prop56
140
1.0
102
RTVSPost2010PropOp56
 70
     1
102
RTVSPost2010Prop57
140
1.0
102
RTVSPost2010PropOp57
 70
     1
  0
XRECORD
  5
AD
102
{ACAD_REACTORS
330
AC
102
}
330
AC
100
AcDbXrecord
280
     1
102
RTVSPropertyOp0
 70
     1
102
RTVSPropertyOp1
 70
     1
102
RTVSPropertyOp2
 70
     1
102
RTVSPropertyOp3
 70
     1
102
RTVSPropertyOp4
 70
     1
102
RTVSPropertyOp5
 70
     1
102
RTVSPropertyOp6
 70
     1
102
RTVSPropertyOp7
 70
     1
102
RTVSPropertyOp8
 70
     1
102
RTVSPropertyOp9
 70
     1
102
RTVSPropertyOp10
 70
     1
102
RTVSPropertyOp11
 70
     1
102
RTVSPropertyOp12
 70
     1
102
RTVSPropertyOp13
 70
     1
102
RTVSPropertyOp14
 70
     1
102
RTVSPropertyOp15
 70
     1
102
RTVSPropertyOp16
 70
     1
102
RTVSPropertyOp17
 70
     1
102
RTVSPropertyOp18
 70
     1
102
RTVSPropertyOp19
 70
     1
102
RTVSPropertyOp20
 70
     1
102
RTVSPropertyOp21
 70
     1
102
RTVSPropertyOp22
 70
     1
102
RTVSPropertyOp23
 70
     1
102
RTVSPropertyOp24
 70
     1
102
RTVSPropertyOp25
 70
     1
102
RTVSPropertyOp26
 70
     1
102
RTVSPropertyOp27
 70
     1
102
RTVSPropertyOp28
 70
     1
102
RTVSPropertyOp29
 70
     1
102
RTVSPropertyOp30
 70
     1
102
RTVSPropertyOp31
 70
     1
102
RTVSPropertyOp32
 70
     1
102
RTVSPropertyOp33
 70
     1
102
RTVSPropertyOp34
 70
     1
102
RTVSPropertyOp35
 70
     1
102
RTVSPropertyOp36
 70
     1
102
RTVSPropertyOp37
 70
     1
102
RTVSPropertyOp38
 70
     1
102
RTVSPropertyOp39
 70
     1
102
RTVSPropertyOp40
 70
     1
102
RTVSPropertyOp41
 70
     1
102
RTVSPropertyOp42
 70
     1
102
RTVSPropertyOp43
 70
     1
102
RTVSPropertyOp44
 70
     1
102
RTVSPropertyOp45
 70
     1
102
RTVSPropertyOp46
 70
     1
102
RTVSPropertyOp47
 70
     1
102
RTVSPropertyOp48
 70
     1
102
RTVSPropertyOp49
 70
     1
102
RTVSPropertyOp50
 70
     1
102
RTVSPropertyOp51
 70
     0
102
RTVSPropertyOp52
 70
     0
102
RTVSPropertyOp53
 70
     1
102
RTVSPropertyOp54
 70
     1
102
RTVSPropertyOp55
 70
     1
102
RTVSPropertyOp56
 70
     1
102
RTVSPropertyOp57
 70
     1
102
RTVSPost2010Prop28
280
     0
102
RTVSPost2010PropOp28
 70
     1
102
RTVSPost2010Prop29
280
     1
102
RTVSPost2010PropOp29
 70
     1
102
RTVSPost2010Prop30
280
     1
102
RTVSPost2010PropOp30
 70
     1
102
RTVSPost2010Prop31
280
     0
102
RTVSPost2010PropOp31
 70
     1
102
RTVSPost2010Prop32
280
     0
102
RTVSPost2010PropOp32
 70
     1
102
RTVSPost2010Prop33
280
     0
102
RTVSPost2010PropOp33
 70
     1
102
RTVSPost2010Prop34
280
     0
102
RTVSPost2010PropOp34
 70
     1
102
RTVSPost2010Prop35
280
     0
102
RTVSPost2010PropOp35
 70
     1
102
RTVSPost2010Prop36
280
     0
102
RTVSPost2010PropOp36
 70
     1
102
RTVSPost2010Prop37
 90
       50
102
RTVSPost2010PropOp37
 70
     1
102
RTVSPost2010Prop38
140
0.0
102
RTVSPost2010PropOp38
 70
     1
102
RTVSPost2010Prop39
140
1.0
102
RTVSPost2010PropOp39
 70
     1
102
RTVSPost2010Prop40
 90
        0
102
RTVSPost2010PropOp40
 70
     1
102
RTVSPost2010Prop41ColorIndex
 90
       18
102
RTVSPost2010Prop41ColorRGB
 90
        0
102
RTVSPost2010PropOp41
 70
     1
102
RTVSPost2010Prop42
 90
       50
102
RTVSPost2010PropOp42
 70
     1
102
RTVSPost2010Prop43
 90
        3
102
RTVSPost2010PropOp43
 70
     1
102
RTVSPost2010Prop44ColorIndex
 90
        5
102
RTVSPost2010Prop44ColorRGB
 90
      255
102
RTVSPost2010PropOp44
 70
     1
102
RTVSPost2010Prop45
280
     0
102
RTVSPost2010PropOp45
 70
     1
102
RTVSPost2010Prop46
 90
       50
102
RTVSPost2010PropOp46
 70
     1
102
RTVSPost2010Prop47
 90
       50
102
RTVSPost2010PropOp47
 70
     1
102
RTVSPost2010Prop48
 90
       50
102
RTVSPost2010PropOp48
 70
     1
102
RTVSPost2010Prop49
280
     0
102
RTVSPost2010PropOp49
 70
     1
102
RTVSPost2010Prop50
 90
       50
102
RTVSPost2010PropOp50
 70
     1
102
RTVSPost2010Prop51ColorIndex
 90
      256
102
RTVSPost2010Prop51ColorRGB
 90
-16777216
102
RTVSPost2010PropOp51
 70
     0
102
RTVSPost2010Prop52
140
1.0
102
RTVSPost2010PropOp52
 70
     0
102
RTVSPost2010Prop53
 90
        2
102
RTVSPost2010PropOp53
 70
     1
102
RTVSPost2010Prop54
  1
strokes_ogs.tif
102
RTVSPost2010PropOp54
 70
     1
102
RTVSPost2010Prop55
280
     0
102
RTVSPost2010PropOp55
 70
     1
102
RTVSPost2010Prop56
140
1.0
102
RTVSPost2010PropOp56
 70
     1
102
RTVSPost2010Prop57
140
1.0
102
RTVSPost2010PropOp57
 70
     1
  0
XRECORD
  5
AF
102
{ACAD_REACTORS
330
AE
102
}
330
AE
100
AcDbXrecord
280
     1
102
RTVSPropertyOp0
 70
     1
102
RTVSPropertyOp1
 70
     1
102
RTVSPropertyOp2
 70
     1
102
RTVSPropertyOp3
 70
     1
102
RTVSPropertyOp4
 70
     1
102
RTVSPropertyOp5
 70
     1
102
RTVSPropertyOp6
 70
     1
102
RTVSPropertyOp7
 70
     1
102
RTVSPropertyOp8
 70
     1
102
RTVSPropertyOp9
 70
     1
102
RTVSPropertyOp10
 70
     1
102
RTVSPropertyOp11
 70
     1
102
RTVSPropertyOp12
 70
     1
102
RTVSPropertyOp13
 70
     1
102
RTVSPropertyOp14
 70
     1
102
RTVSPropertyOp15
 70
     1
102
RTVSPropertyOp16
 70
     1
102
RTVSPropertyOp17
 70
     1
102
RTVSPropertyOp18
 70
     1
102
RTVSPropertyOp19
 70
     1
102
RTVSPropertyOp20
 70
     1
102
RTVSPropertyOp21
 70
     1
102
RTVSPropertyOp22
 70
     1
102
RTVSPropertyOp23
 70
     1
102
RTVSPropertyOp24
 70
     1
102
RTVSPropertyOp25
 70
     1
102
RTVSPropertyOp26
 70
     1
102
RTVSPropertyOp27
 70
     1
102
RTVSPropertyOp28
 70
     1
102
RTVSPropertyOp29
 70
     1
102
RTVSPropertyOp30
 70
     1
102
RTVSPropertyOp31
 70
     1
102
RTVSPropertyOp32
 70
     1
102
RTVSPropertyOp33
 70
     1
102
RTVSPropertyOp34
 70
     1
102
RTVSPropertyOp35
 70
     1
102
RTVSPropertyOp36
 70
     1
102
RTVSPropertyOp37
 70
     1
102
RTVSPropertyOp38
 70
     1
102
RTVSPropertyOp39
 70
     1
102
RTVSPropertyOp40
 70
     1
102
RTVSPropertyOp41
 70
     1
102
RTVSPropertyOp42
 70
     1
102
RTVSPropertyOp43
 70
     1
102
RTVSPropertyOp44
 70
     1
102
RTVSPropertyOp45
 70
     1
102
RTVSPropertyOp46
 70
     1
102
RTVSPropertyOp47
 70
     1
102
RTVSPropertyOp48
 70
     1
102
RTVSPropertyOp49
 70
     1
102
RTVSPropertyOp50
 70
     1
102
RTVSPropertyOp51
 70
     0
102
RTVSPropertyOp52
 70
     0
102
RTVSPropertyOp53
 70
     1
102
RTVSPropertyOp54
 70
     1
102
RTVSPropertyOp55
 70
     1
102
RTVSPropertyOp56
 70
     1
102
RTVSPropertyOp57
 70
     1
102
RTVSPost2010Prop28
280
     0
102
RTVSPost2010PropOp28
 70
     1
102
RTVSPost2010Prop29
280
     1
102
RTVSPost2010PropOp29
 70
     1
102
RTVSPost2010Prop30
280
     1
102
RTVSPost2010PropOp30
 70
     1
102
RTVSPost2010Prop31
280
     0
102
RTVSPost2010PropOp31
 70
     1
102
RTVSPost2010Prop32
280
     0
102
RTVSPost2010PropOp32
 70
     1
102
RTVSPost2010Prop33
280
     0
102
RTVSPost2010PropOp33
 70
     1
102
RTVSPost2010Prop34
280
     0
102
RTVSPost2010PropOp34
 70
     1
102
RTVSPost2010Prop35
280
     0
102
RTVSPost2010PropOp35
 70
     1
102
RTVSPost2010Prop36
280
     0
102
RTVSPost2010PropOp36
 70
     1
102
RTVSPost2010Prop37
 90
       50
102
RTVSPost2010PropOp37
 70
     1
102
RTVSPost2010Prop38
140
0.0
102
RTVSPost2010PropOp38
 70
     1
102
RTVSPost2010Prop39
140
1.0
102
RTVSPost2010PropOp39
 70
     1
102
RTVSPost2010Prop40
 90
        0
102
RTVSPost2010PropOp40
 70
     1
102
RTVSPost2010Prop41ColorIndex
 90
       18
102
RTVSPost2010Prop41ColorRGB
 90
        0
102
RTVSPost2010PropOp41
 70
     1
102
RTVSPost2010Prop42
 90
       50
102
RTVSPost2010PropOp42
 70
     1
102
RTVSPost2010Prop43
 90
        3
102
RTVSPost2010PropOp43
 70
     1
102
RTVSPost2010Prop44ColorIndex
 90
        5
102
RTVSPost2010Prop44ColorRGB
 90
      255
102
RTVSPost2010PropOp44
 70
     1
102
RTVSPost2010Prop45
280
     0
102
RTVSPost2010PropOp45
 70
     1
102
RTVSPost2010Prop46
 90
       50
102
RTVSPost2010PropOp46
 70
     1
102
RTVSPost2010Prop47
 90
       50
102
RTVSPost2010PropOp47
 70
     1
102
RTVSPost2010Prop48
 90
       50
102
RTVSPost2010PropOp48
 70
     1
102
RTVSPost2010Prop49
280
     0
102
RTVSPost2010PropOp49
 70
     1
102
RTVSPost2010Prop50
 90
       50
102
RTVSPost2010PropOp50
 70
     1
102
RTVSPost2010Prop51ColorIndex
 90
      256
102
RTVSPost2010Prop51ColorRGB
 90
-16777216
102
RTVSPost2010PropOp51
 70
     0
102
RTVSPost2010Prop52
140
1.0
102
RTVSPost2010PropOp52
 70
     0
102
RTVSPost2010Prop53
 90
        2
102
RTVSPost2010PropOp53
 70
     1
102
RTVSPost2010Prop54
  1
strokes_ogs.tif
102
RTVSPost2010PropOp54
 70
     1
102
RTVSPost2010Prop55
280
     0
102
RTVSPost2010PropOp55
 70
     1
102
RTVSPost2010Prop56
140
1.0
102
RTVSPost2010PropOp56
 70
     1
102
RTVSPost2010Prop57
140
1.0
102
RTVSPost2010PropOp57
 70
     1
  0
XRECORD
  5
B1
102
{ACAD_REACTORS
330
B0
102
}
330
B0
100
AcDbXrecord
280
     1
102
RTVSPropertyOp0
 70
     1
102
RTVSPropertyOp1
 70
     1
102
RTVSPropertyOp2
 70
     1
102
RTVSPropertyOp3
 70
     1
102
RTVSPropertyOp4
 70
     1
102
RTVSPropertyOp5
 70
     1
102
RTVSPropertyOp6
 70
     1
102
RTVSPropertyOp7
 70
     1
102
RTVSPropertyOp8
 70
     1
102
RTVSPropertyOp9
 70
     1
102
RTVSPropertyOp10
 70
     1
102
RTVSPropertyOp11
 70
     1
102
RTVSPropertyOp12
 70
     1
102
RTVSPropertyOp13
 70
     1
102
RTVSPropertyOp14
 70
     1
102
RTVSPropertyOp15
 70
     1
102
RTVSPropertyOp16
 70
     1
102
RTVSPropertyOp17
 70
     1
102
RTVSPropertyOp18
 70
     1
102
RTVSPropertyOp19
 70
     1
102
RTVSPropertyOp20
 70
     1
102
RTVSPropertyOp21
 70
     1
102
RTVSPropertyOp22
 70
     1
102
RTVSPropertyOp23
 70
     1
102
RTVSPropertyOp24
 70
     1
102
RTVSPropertyOp25
 70
     1
102
RTVSPropertyOp26
 70
     1
102
RTVSPropertyOp27
 70
     1
102
RTVSPropertyOp28
 70
     1
102
RTVSPropertyOp29
 70
     1
102
RTVSPropertyOp30
 70
     1
102
RTVSPropertyOp31
 70
     1
102
RTVSPropertyOp32
 70
     1
102
RTVSPropertyOp33
 70
     1
102
RTVSPropertyOp34
 70
     1
102
RTVSPropertyOp35
 70
     1
102
RTVSPropertyOp36
 70
     1
102
RTVSPropertyOp37
 70
     1
102
RTVSPropertyOp38
 70
     1
102
RTVSPropertyOp39
 70
     1
102
RTVSPropertyOp40
 70
     1
102
RTVSPropertyOp41
 70
     1
102
RTVSPropertyOp42
 70
     1
102
RTVSPropertyOp43
 70
     1
102
RTVSPropertyOp44
 70
     1
102
RTVSPropertyOp45
 70
     1
102
RTVSPropertyOp46
 70
     1
102
RTVSPropertyOp47
 70
     1
102
RTVSPropertyOp48
 70
     1
102
RTVSPropertyOp49
 70
     1
102
RTVSPropertyOp50
 70
     1
102
RTVSPropertyOp51
 70
     0
102
RTVSPropertyOp52
 70
     0
102
RTVSPropertyOp53
 70
     1
102
RTVSPropertyOp54
 70
     1
102
RTVSPropertyOp55
 70
     1
102
RTVSPropertyOp56
 70
     1
102
RTVSPropertyOp57
 70
     1
102
RTVSPost2010Prop28
280
     0
102
RTVSPost2010PropOp28
 70
     1
102
RTVSPost2010Prop29
280
     1
102
RTVSPost2010PropOp29
 70
     1
102
RTVSPost2010Prop30
280
     1
102
RTVSPost2010PropOp30
 70
     1
102
RTVSPost2010Prop31
280
     0
102
RTVSPost2010PropOp31
 70
     1
102
RTVSPost2010Prop32
280
     0
102
RTVSPost2010PropOp32
 70
     1
102
RTVSPost2010Prop33
280
     0
102
RTVSPost2010PropOp33
 70
     1
102
RTVSPost2010Prop34
280
     0
102
RTVSPost2010PropOp34
 70
     1
102
RTVSPost2010Prop35
280
     0
102
RTVSPost2010PropOp35
 70
     1
102
RTVSPost2010Prop36
280
     0
102
RTVSPost2010PropOp36
 70
     1
102
RTVSPost2010Prop37
 90
       50
102
RTVSPost2010PropOp37
 70
     1
102
RTVSPost2010Prop38
140
0.0
102
RTVSPost2010PropOp38
 70
     1
102
RTVSPost2010Prop39
140
1.0
102
RTVSPost2010PropOp39
 70
     1
102
RTVSPost2010Prop40
 90
        0
102
RTVSPost2010PropOp40
 70
     1
102
RTVSPost2010Prop41ColorIndex
 90
       18
102
RTVSPost2010Prop41ColorRGB
 90
        0
102
RTVSPost2010PropOp41
 70
     1
102
RTVSPost2010Prop42
 90
       50
102
RTVSPost2010PropOp42
 70
     1
102
RTVSPost2010Prop43
 90
        3
102
RTVSPost2010PropOp43
 70
     1
102
RTVSPost2010Prop44ColorIndex
 90
        5
102
RTVSPost2010Prop44ColorRGB
 90
      255
102
RTVSPost2010PropOp44
 70
     1
102
RTVSPost2010Prop45
280
     0
102
RTVSPost2010PropOp45
 70
     1
102
RTVSPost2010Prop46
 90
       50
102
RTVSPost2010PropOp46
 70
     1
102
RTVSPost2010Prop47
 90
       50
102
RTVSPost2010PropOp47
 70
     1
102
RTVSPost2010Prop48
 90
       50
102
RTVSPost2010PropOp48
 70
     1
102
RTVSPost2010Prop49
280
     0
102
RTVSPost2010PropOp49
 70
     1
102
RTVSPost2010Prop50
 90
       50
102
RTVSPost2010PropOp50
 70
     1
102
RTVSPost2010Prop51ColorIndex
 90
      256
102
RTVSPost2010Prop51ColorRGB
 90
-16777216
102
RTVSPost2010PropOp51
 70
     0
102
RTVSPost2010Prop52
140
1.0
102
RTVSPost2010PropOp52
 70
     0
102
RTVSPost2010Prop53
 90
        2
102
RTVSPost2010PropOp53
 70
     1
102
RTVSPost2010Prop54
  1
strokes_ogs.tif
102
RTVSPost2010PropOp54
 70
     1
102
RTVSPost2010Prop55
280
     0
102
RTVSPost2010PropOp55
 70
     1
102
RTVSPost2010Prop56
140
1.0
102
RTVSPost2010PropOp56
 70
     1
102
RTVSPost2010Prop57
140
1.0
102
RTVSPost2010PropOp57
 70
     1
  0
XRECORD
  5
B3
102
{ACAD_REACTORS
330
B2
102
}
330
B2
100
AcDbXrecord
280
     1
102
RTVSPropertyOp0
 70
     1
102
RTVSPropertyOp1
 70
     1
102
RTVSPropertyOp2
 70
     1
102
RTVSPropertyOp3
 70
     1
102
RTVSPropertyOp4
 70
     1
102
RTVSPropertyOp5
 70
     1
102
RTVSPropertyOp6
 70
     1
102
RTVSPropertyOp7
 70
     1
102
RTVSPropertyOp8
 70
     1
102
RTVSPropertyOp9
 70
     1
102
RTVSPropertyOp10
 70
     1
102
RTVSPropertyOp11
 70
     1
102
RTVSPropertyOp12
 70
     1
102
RTVSPropertyOp13
 70
     1
102
RTVSPropertyOp14
 70
     1
102
RTVSPropertyOp15
 70
     1
102
RTVSPropertyOp16
 70
     1
102
RTVSPropertyOp17
 70
     1
102
RTVSPropertyOp18
 70
     1
102
RTVSPropertyOp19
 70
     1
102
RTVSPropertyOp20
 70
     1
102
RTVSPropertyOp21
 70
     1
102
RTVSPropertyOp22
 70
     1
102
RTVSPropertyOp23
 70
     1
102
RTVSPropertyOp24
 70
     1
102
RTVSPropertyOp25
 70
     1
102
RTVSPropertyOp26
 70
     1
102
RTVSPropertyOp27
 70
     1
102
RTVSPropertyOp28
 70
     1
102
RTVSPropertyOp29
 70
     1
102
RTVSPropertyOp30
 70
     1
102
RTVSPropertyOp31
 70
     1
102
RTVSPropertyOp32
 70
     1
102
RTVSPropertyOp33
 70
     1
102
RTVSPropertyOp34
 70
     1
102
RTVSPropertyOp35
 70
     1
102
RTVSPropertyOp36
 70
     1
102
RTVSPropertyOp37
 70
     1
102
RTVSPropertyOp38
 70
     1
102
RTVSPropertyOp39
 70
     1
102
RTVSPropertyOp40
 70
     1
102
RTVSPropertyOp41
 70
     1
102
RTVSPropertyOp42
 70
     1
102
RTVSPropertyOp43
 70
     1
102
RTVSPropertyOp44
 70
     1
102
RTVSPropertyOp45
 70
     1
102
RTVSPropertyOp46
 70
     1
102
RTVSPropertyOp47
 70
     1
102
RTVSPropertyOp48
 70
     1
102
RTVSPropertyOp49
 70
     1
102
RTVSPropertyOp50
 70
     1
102
RTVSPropertyOp51
 70
     0
102
RTVSPropertyOp52
 70
     0
102
RTVSPropertyOp53
 70
     1
102
RTVSPropertyOp54
 70
     1
102
RTVSPropertyOp55
 70
     1
102
RTVSPropertyOp56
 70
     1
102
RTVSPropertyOp57
 70
     1
102
RTVSPost2010Prop28
280
     0
102
RTVSPost2010PropOp28
 70
     1
102
RTVSPost2010Prop29
280
     1
102
RTVSPost2010PropOp29
 70
     1
102
RTVSPost2010Prop30
280
     1
102
RTVSPost2010PropOp30
 70
     1
102
RTVSPost2010Prop31
280
     0
102
RTVSPost2010PropOp31
 70
     1
102
RTVSPost2010Prop32
280
     0
102
RTVSPost2010PropOp32
 70
     1
102
RTVSPost2010Prop33
280
     0
102
RTVSPost2010PropOp33
 70
     1
102
RTVSPost2010Prop34
280
     0
102
RTVSPost2010PropOp34
 70
     1
102
RTVSPost2010Prop35
280
     0
102
RTVSPost2010PropOp35
 70
     1
102
RTVSPost2010Prop36
280
     0
102
RTVSPost2010PropOp36
 70
     1
102
RTVSPost2010Prop37
 90
       50
102
RTVSPost2010PropOp37
 70
     1
102
RTVSPost2010Prop38
140
0.0
102
RTVSPost2010PropOp38
 70
     1
102
RTVSPost2010Prop39
140
1.0
102
RTVSPost2010PropOp39
 70
     1
102
RTVSPost2010Prop40
 90
        0
102
RTVSPost2010PropOp40
 70
     1
102
RTVSPost2010Prop41ColorIndex
 90
       18
102
RTVSPost2010Prop41ColorRGB
 90
        0
102
RTVSPost2010PropOp41
 70
     1
102
RTVSPost2010Prop42
 90
       50
102
RTVSPost2010PropOp42
 70
     1
102
RTVSPost2010Prop43
 90
        3
102
RTVSPost2010PropOp43
 70
     1
102
RTVSPost2010Prop44ColorIndex
 90
        5
102
RTVSPost2010Prop44ColorRGB
 90
      255
102
RTVSPost2010PropOp44
 70
     1
102
RTVSPost2010Prop45
280
     0
102
RTVSPost2010PropOp45
 70
     1
102
RTVSPost2010Prop46
 90
       50
102
RTVSPost2010PropOp46
 70
     1
102
RTVSPost2010Prop47
 90
       50
102
RTVSPost2010PropOp47
 70
     1
102
RTVSPost2010Prop48
 90
       50
102
RTVSPost2010PropOp48
 70
     1
102
RTVSPost2010Prop49
280
     0
102
RTVSPost2010PropOp49
 70
     1
102
RTVSPost2010Prop50
 90
       50
102
RTVSPost2010PropOp50
 70
     1
102
RTVSPost2010Prop51ColorIndex
 90
      256
102
RTVSPost2010Prop51ColorRGB
 90
-16777216
102
RTVSPost2010PropOp51
 70
     0
102
RTVSPost2010Prop52
140
1.0
102
RTVSPost2010PropOp52
 70
     0
102
RTVSPost2010Prop53
 90
        2
102
RTVSPost2010PropOp53
 70
     1
102
RTVSPost2010Prop54
  1
strokes_ogs.tif
102
RTVSPost2010PropOp54
 70
     1
102
RTVSPost2010Prop55
280
     0
102
RTVSPost2010PropOp55
 70
     1
102
RTVSPost2010Prop56
140
1.0
102
RTVSPost2010PropOp56
 70
     1
102
RTVSPost2010Prop57
140
1.0
102
RTVSPost2010PropOp57
 70
     1
  0
XRECORD
  5
B9
102
{ACAD_REACTORS
330
B8
102
}
330
B8
100
AcDbXrecord
280
     1
102
RTVSPropertyOp0
 70
     1
102
RTVSPropertyOp1
 70
     1
102
RTVSPropertyOp2
 70
     1
102
RTVSPropertyOp3
 70
     1
102
RTVSPropertyOp4
 70
     1
102
RTVSPropertyOp5
 70
     1
102
RTVSPropertyOp6
 70
     1
102
RTVSPropertyOp7
 70
     1
102
RTVSPropertyOp8
 70
     1
102
RTVSPropertyOp9
 70
     1
102
RTVSPropertyOp10
 70
     1
102
RTVSPropertyOp11
 70
     1
102
RTVSPropertyOp12
 70
     1
102
RTVSPropertyOp13
 70
     1
102
RTVSPropertyOp14
 70
     1
102
RTVSPropertyOp15
 70
     1
102
RTVSPropertyOp16
 70
     1
102
RTVSPropertyOp17
 70
     1
102
RTVSPropertyOp18
 70
     1
102
RTVSPropertyOp19
 70
     1
102
RTVSPropertyOp20
 70
     1
102
RTVSPropertyOp21
 70
     1
102
RTVSPropertyOp22
 70
     1
102
RTVSPropertyOp23
 70
     1
102
RTVSPropertyOp24
 70
     1
102
RTVSPropertyOp25
 70
     1
102
RTVSPropertyOp26
 70
     1
102
RTVSPropertyOp27
 70
     1
102
RTVSPropertyOp28
 70
     1
102
RTVSPropertyOp29
 70
     1
102
RTVSPropertyOp30
 70
     1
102
RTVSPropertyOp31
 70
     1
102
RTVSPropertyOp32
 70
     1
102
RTVSPropertyOp33
 70
     1
102
RTVSPropertyOp34
 70
     1
102
RTVSPropertyOp35
 70
     1
102
RTVSPropertyOp36
 70
     1
102
RTVSPropertyOp37
 70
     1
102
RTVSPropertyOp38
 70
     1
102
RTVSPropertyOp39
 70
     1
102
RTVSPropertyOp40
 70
     1
102
RTVSPropertyOp41
 70
     1
102
RTVSPropertyOp42
 70
     1
102
RTVSPropertyOp43
 70
     1
102
RTVSPropertyOp44
 70
     1
102
RTVSPropertyOp45
 70
     1
102
RTVSPropertyOp46
 70
     1
102
RTVSPropertyOp47
 70
     1
102
RTVSPropertyOp48
 70
     1
102
RTVSPropertyOp49
 70
     1
102
RTVSPropertyOp50
 70
     1
102
RTVSPropertyOp51
 70
     0
102
RTVSPropertyOp52
 70
     0
102
RTVSPropertyOp53
 70
     1
102
RTVSPropertyOp54
 70
     1
102
RTVSPropertyOp55
 70
     1
102
RTVSPropertyOp56
 70
     1
102
RTVSPropertyOp57
 70
     1
102
RTVSPost2010Prop28
280
     0
102
RTVSPost2010PropOp28
 70
     1
102
RTVSPost2010Prop29
280
     1
102
RTVSPost2010PropOp29
 70
     1
102
RTVSPost2010Prop30
280
     1
102
RTVSPost2010PropOp30
 70
     1
102
RTVSPost2010Prop31
280
     0
102
RTVSPost2010PropOp31
 70
     1
102
RTVSPost2010Prop32
280
     0
102
RTVSPost2010PropOp32
 70
     1
102
RTVSPost2010Prop33
280
     0
102
RTVSPost2010PropOp33
 70
     1
102
RTVSPost2010Prop34
280
     0
102
RTVSPost2010PropOp34
 70
     1
102
RTVSPost2010Prop35
280
     0
102
RTVSPost2010PropOp35
 70
     1
102
RTVSPost2010Prop36
280
     0
102
RTVSPost2010PropOp36
 70
     1
102
RTVSPost2010Prop37
 90
       50
102
RTVSPost2010PropOp37
 70
     1
102
RTVSPost2010Prop38
140
0.0
102
RTVSPost2010PropOp38
 70
     1
102
RTVSPost2010Prop39
140
1.0
102
RTVSPost2010PropOp39
 70
     1
102
RTVSPost2010Prop40
 90
        0
102
RTVSPost2010PropOp40
 70
     1
102
RTVSPost2010Prop41ColorIndex
 90
       18
102
RTVSPost2010Prop41ColorRGB
 90
        0
102
RTVSPost2010PropOp41
 70
     1
102
RTVSPost2010Prop42
 90
       50
102
RTVSPost2010PropOp42
 70
     1
102
RTVSPost2010Prop43
 90
        3
102
RTVSPost2010PropOp43
 70
     1
102
RTVSPost2010Prop44ColorIndex
 90
        5
102
RTVSPost2010Prop44ColorRGB
 90
      255
102
RTVSPost2010PropOp44
 70
     1
102
RTVSPost2010Prop45
280
     0
102
RTVSPost2010PropOp45
 70
     1
102
RTVSPost2010Prop46
 90
       50
102
RTVSPost2010PropOp46
 70
     1
102
RTVSPost2010Prop47
 90
       50
102
RTVSPost2010PropOp47
 70
     1
102
RTVSPost2010Prop48
 90
       50
102
RTVSPost2010PropOp48
 70
     1
102
RTVSPost2010Prop49
280
     0
102
RTVSPost2010PropOp49
 70
     1
102
RTVSPost2010Prop50
 90
       50
102
RTVSPost2010PropOp50
 70
     1
102
RTVSPost2010Prop51ColorIndex
 90
      256
102
RTVSPost2010Prop51ColorRGB
 90
-16777216
102
RTVSPost2010PropOp51
 70
     0
102
RTVSPost2010Prop52
140
1.0
102
RTVSPost2010PropOp52
 70
     0
102
RTVSPost2010Prop53
 90
        2
102
RTVSPost2010PropOp53
 70
     1
102
RTVSPost2010Prop54
  1
strokes_ogs.tif
102
RTVSPost2010PropOp54
 70
     1
102
RTVSPost2010Prop55
280
     0
102
RTVSPost2010PropOp55
 70
     1
102
RTVSPost2010Prop56
140
1.0
102
RTVSPost2010PropOp56
 70
     1
102
RTVSPost2010Prop57
140
1.0
102
RTVSPost2010PropOp57
 70
     1
  0
XRECORD
  5
CD
102
{ACAD_REACTORS
330
CC
102
}
330
CC
100
AcDbXrecord
280
     1
102
RTVSPropertyOp0
 70
     0
102
RTVSPropertyOp1
 70
     0
102
RTVSPropertyOp2
 70
     0
102
RTVSPropertyOp3
 70
     0
102
RTVSPropertyOp4
 70
     0
102
RTVSPropertyOp5
 70
     0
102
RTVSPropertyOp6
 70
     0
102
RTVSPropertyOp7
 70
     0
102
RTVSPropertyOp8
 70
     0
102
RTVSPropertyOp9
 70
     0
102
RTVSPropertyOp10
 70
     0
102
RTVSPropertyOp11
 70
     0
102
RTVSPropertyOp12
 70
     0
102
RTVSPropertyOp13
 70
     0
102
RTVSPropertyOp14
 70
     2
102
RTVSPropertyOp15
 70
     0
102
RTVSPropertyOp16
 70
     0
102
RTVSPropertyOp17
 70
     0
102
RTVSPropertyOp18
 70
     0
102
RTVSPropertyOp19
 70
     0
102
RTVSPropertyOp20
 70
     0
102
RTVSPropertyOp21
 70
     0
102
RTVSPropertyOp22
 70
     0
102
RTVSPropertyOp23
 70
     0
102
RTVSPropertyOp24
 70
     0
102
RTVSPropertyOp25
 70
     0
102
RTVSPropertyOp26
 70
     0
102
RTVSPropertyOp27
 70
     0
102
RTVSPropertyOp28
 70
     0
102
RTVSPropertyOp29
 70
     0
102
RTVSPropertyOp30
 70
     0
102
RTVSPropertyOp31
 70
     0
102
RTVSPropertyOp32
 70
     0
102
RTVSPropertyOp33
 70
     0
102
RTVSPropertyOp34
 70
     0
102
RTVSPropertyOp35
 70
     0
102
RTVSPropertyOp36
 70
     0
102
RTVSPropertyOp37
 70
     0
102
RTVSPropertyOp38
 70
     0
102
RTVSPropertyOp39
 70
     0
102
RTVSPropertyOp40
 70
     0
102
RTVSPropertyOp41
 70
     0
102
RTVSPropertyOp42
 70
     0
102
RTVSPropertyOp43
 70
     0
102
RTVSPropertyOp44
 70
     0
102
RTVSPropertyOp45
 70
     0
102
RTVSPropertyOp46
 70
     0
102
RTVSPropertyOp47
 70
     0
102
RTVSPropertyOp48
 70
     0
102
RTVSPropertyOp49
 70
     0
102
RTVSPropertyOp50
 70
     0
102
RTVSPropertyOp51
 70
     0
102
RTVSPropertyOp52
 70
     0
102
RTVSPropertyOp53
 70
     0
102
RTVSPropertyOp54
 70
     0
102
RTVSPropertyOp55
 70
     0
102
RTVSPropertyOp56
 70
     0
102
RTVSPropertyOp57
 70
     0
102
RTVSPost2010Prop28
280
     0
102
RTVSPost2010PropOp28
 70
     0
102
RTVSPost2010Prop29
280
     1
102
RTVSPost2010PropOp29
 70
     0
102
RTVSPost2010Prop30
280
     1
102
RTVSPost2010PropOp30
 70
     0
102
RTVSPost2010Prop31
280
     0
102
RTVSPost2010PropOp31
 70
     0
102
RTVSPost2010Prop32
280
     0
102
RTVSPost2010PropOp32
 70
     0
102
RTVSPost2010Prop33
280
     0
102
RTVSPost2010PropOp33
 70
     0
102
RTVSPost2010Prop34
280
     0
102
RTVSPost2010PropOp34
 70
     0
102
RTVSPost2010Prop35
280
     0
102
RTVSPost2010PropOp35
 70
     0
102
RTVSPost2010Prop36
280
     0
102
RTVSPost2010PropOp36
 70
     0
102
RTVSPost2010Prop37
 90
       50
102
RTVSPost2010PropOp37
 70
     0
102
RTVSPost2010Prop38
140
0.0
102
RTVSPost2010PropOp38
 70
     0
102
RTVSPost2010Prop39
140
1.0
102
RTVSPost2010PropOp39
 70
     0
102
RTVSPost2010Prop40
 90
        0
102
RTVSPost2010PropOp40
 70
     0
102
RTVSPost2010Prop41ColorIndex
 90
       18
102
RTVSPost2010Prop41ColorRGB
 90
        0
102
RTVSPost2010PropOp41
 70
     0
102
RTVSPost2010Prop42
 90
       50
102
RTVSPost2010PropOp42
 70
     0
102
RTVSPost2010Prop43
 90
        3
102
RTVSPost2010PropOp43
 70
     0
102
RTVSPost2010Prop44ColorIndex
 90
        5
102
RTVSPost2010Prop44ColorRGB
 90
      255
102
RTVSPost2010PropOp44
 70
     0
102
RTVSPost2010Prop45
280
     0
102
RTVSPost2010PropOp45
 70
     0
102
RTVSPost2010Prop46
 90
       50
102
RTVSPost2010PropOp46
 70
     0
102
RTVSPost2010Prop47
 90
       50
102
RTVSPost2010PropOp47
 70
     0
102
RTVSPost2010Prop48
 90
       50
102
RTVSPost2010PropOp48
 70
     0
102
RTVSPost2010Prop49
280
     0
102
RTVSPost2010PropOp49
 70
     0
102
RTVSPost2010Prop50
 90
       50
102
RTVSPost2010PropOp50
 70
     0
102
RTVSPost2010Prop51ColorIndex
 90
      256
102
RTVSPost2010Prop51ColorRGB
 90
-16777216
102
RTVSPost2010PropOp51
 70
     0
102
RTVSPost2010Prop52
140
1.0
102
RTVSPost2010PropOp52
 70
     0
102
RTVSPost2010Prop53
 90
        2
102
RTVSPost2010PropOp53
 70
     0
102
RTVSPost2010Prop54
  1
strokes_ogs.tif
102
RTVSPost2010PropOp54
 70
     0
102
RTVSPost2010Prop55
280
     0
102
RTVSPost2010PropOp55
 70
     0
102
RTVSPost2010Prop56
140
1.0
102
RTVSPost2010PropOp56
 70
     0
102
RTVSPost2010Prop57
140
1.0
102
RTVSPost2010PropOp57
 70
     0
  0
XRECORD
  5
C7
102
{ACAD_REACTORS
330
C6
102
}
330
C6
100
AcDbXrecord
280
     1
102
RTVSPropertyOp0
 70
     1
102
RTVSPropertyOp1
 70
     1
102
RTVSPropertyOp2
 70
     1
102
RTVSPropertyOp3
 70
     1
102
RTVSPropertyOp4
 70
     1
102
RTVSPropertyOp5
 70
     1
102
RTVSPropertyOp6
 70
     1
102
RTVSPropertyOp7
 70
     1
102
RTVSPropertyOp8
 70
     1
102
RTVSPropertyOp9
 70
     1
102
RTVSPropertyOp10
 70
     1
102
RTVSPropertyOp11
 70
     1
102
RTVSPropertyOp12
 70
     1
102
RTVSPropertyOp13
 70
     1
102
RTVSPropertyOp14
 70
     1
102
RTVSPropertyOp15
 70
     1
102
RTVSPropertyOp16
 70
     1
102
RTVSPropertyOp17
 70
     1
102
RTVSPropertyOp18
 70
     1
102
RTVSPropertyOp19
 70
     1
102
RTVSPropertyOp20
 70
     1
102
RTVSPropertyOp21
 70
     1
102
RTVSPropertyOp22
 70
     1
102
RTVSPropertyOp23
 70
     1
102
RTVSPropertyOp24
 70
     1
102
RTVSPropertyOp25
 70
     1
102
RTVSPropertyOp26
 70
     1
102
RTVSPropertyOp27
 70
     1
102
RTVSPropertyOp28
 70
     1
102
RTVSPropertyOp29
 70
     1
102
RTVSPropertyOp30
 70
     1
102
RTVSPropertyOp31
 70
     1
102
RTVSPropertyOp32
 70
     1
102
RTVSPropertyOp33
 70
     1
102
RTVSPropertyOp34
 70
     1
102
RTVSPropertyOp35
 70
     1
102
RTVSPropertyOp36
 70
     1
102
RTVSPropertyOp37
 70
     1
102
RTVSPropertyOp38
 70
     1
102
RTVSPropertyOp39
 70
     1
102
RTVSPropertyOp40
 70
     1
102
RTVSPropertyOp41
 70
     1
102
RTVSPropertyOp42
 70
     1
102
RTVSPropertyOp43
 70
     1
102
RTVSPropertyOp44
 70
     1
102
RTVSPropertyOp45
 70
     1
102
RTVSPropertyOp46
 70
     1
102
RTVSPropertyOp47
 70
     1
102
RTVSPropertyOp48
 70
     1
102
RTVSPropertyOp49
 70
     1
102
RTVSPropertyOp50
 70
     1
102
RTVSPropertyOp51
 70
     0
102
RTVSPropertyOp52
 70
     0
102
RTVSPropertyOp53
 70
     1
102
RTVSPropertyOp54
 70
     1
102
RTVSPropertyOp55
 70
     1
102
RTVSPropertyOp56
 70
     1
102
RTVSPropertyOp57
 70
     1
102
RTVSPost2010Prop28
280
     0
102
RTVSPost2010PropOp28
 70
     1
102
RTVSPost2010Prop29
280
     1
102
RTVSPost2010PropOp29
 70
     1
102
RTVSPost2010Prop30
280
     1
102
RTVSPost2010PropOp30
 70
     1
102
RTVSPost2010Prop31
280
     0
102
RTVSPost2010PropOp31
 70
     1
102
RTVSPost2010Prop32
280
     0
102
RTVSPost2010PropOp32
 70
     1
102
RTVSPost2010Prop33
280
     0
102
RTVSPost2010PropOp33
 70
     1
102
RTVSPost2010Prop34
280
     0
102
RTVSPost2010PropOp34
 70
     1
102
RTVSPost2010Prop35
280
     0
102
RTVSPost2010PropOp35
 70
     1
102
RTVSPost2010Prop36
280
     0
102
RTVSPost2010PropOp36
 70
     1
102
RTVSPost2010Prop37
 90
       50
102
RTVSPost2010PropOp37
 70
     1
102
RTVSPost2010Prop38
140
0.0
102
RTVSPost2010PropOp38
 70
     1
102
RTVSPost2010Prop39
140
1.0
102
RTVSPost2010PropOp39
 70
     1
102
RTVSPost2010Prop40
 90
        0
102
RTVSPost2010PropOp40
 70
     1
102
RTVSPost2010Prop41ColorIndex
 90
       18
102
RTVSPost2010Prop41ColorRGB
 90
        0
102
RTVSPost2010PropOp41
 70
     1
102
RTVSPost2010Prop42
 90
       50
102
RTVSPost2010PropOp42
 70
     1
102
RTVSPost2010Prop43
 90
        3
102
RTVSPost2010PropOp43
 70
     1
102
RTVSPost2010Prop44ColorIndex
 90
        5
102
RTVSPost2010Prop44ColorRGB
 90
      255
102
RTVSPost2010PropOp44
 70
     1
102
RTVSPost2010Prop45
280
     0
102
RTVSPost2010PropOp45
 70
     1
102
RTVSPost2010Prop46
 90
       50
102
RTVSPost2010PropOp46
 70
     1
102
RTVSPost2010Prop47
 90
       50
102
RTVSPost2010PropOp47
 70
     1
102
RTVSPost2010Prop48
 90
       50
102
RTVSPost2010PropOp48
 70
     1
102
RTVSPost2010Prop49
280
     0
102
RTVSPost2010PropOp49
 70
     1
102
RTVSPost2010Prop50
 90
       50
102
RTVSPost2010PropOp50
 70
     1
102
RTVSPost2010Prop51ColorIndex
 90
      256
102
RTVSPost2010Prop51ColorRGB
 90
-16777216
102
RTVSPost2010PropOp51
 70
     0
102
RTVSPost2010Prop52
140
1.0
102
RTVSPost2010PropOp52
 70
     0
102
RTVSPost2010Prop53
 90
        2
102
RTVSPost2010PropOp53
 70
     1
102
RTVSPost2010Prop54
  1
strokes_ogs.tif
102
RTVSPost2010PropOp54
 70
     1
102
RTVSPost2010Prop55
280
     0
102
RTVSPost2010PropOp55
 70
     1
102
RTVSPost2010Prop56
140
1.0
102
RTVSPost2010PropOp56
 70
     1
102
RTVSPost2010Prop57
140
1.0
102
RTVSPost2010PropOp57
 70
     1
  0
XRECORD
  5
CF
102
{ACAD_REACTORS
330
CE
102
}
330
CE
100
AcDbXrecord
280
     1
102
RTVSPropertyOp0
 70
     0
102
RTVSPropertyOp1
 70
     0
102
RTVSPropertyOp2
 70
     0
102
RTVSPropertyOp3
 70
     0
102
RTVSPropertyOp4
 70
     0
102
RTVSPropertyOp5
 70
     0
102
RTVSPropertyOp6
 70
     0
102
RTVSPropertyOp7
 70
     0
102
RTVSPropertyOp8
 70
     0
102
RTVSPropertyOp9
 70
     0
102
RTVSPropertyOp10
 70
     0
102
RTVSPropertyOp11
 70
     0
102
RTVSPropertyOp12
 70
     0
102
RTVSPropertyOp13
 70
     0
102
RTVSPropertyOp14
 70
     2
102
RTVSPropertyOp15
 70
     0
102
RTVSPropertyOp16
 70
     0
102
RTVSPropertyOp17
 70
     0
102
RTVSPropertyOp18
 70
     0
102
RTVSPropertyOp19
 70
     0
102
RTVSPropertyOp20
 70
     0
102
RTVSPropertyOp21
 70
     0
102
RTVSPropertyOp22
 70
     0
102
RTVSPropertyOp23
 70
     0
102
RTVSPropertyOp24
 70
     0
102
RTVSPropertyOp25
 70
     0
102
RTVSPropertyOp26
 70
     0
102
RTVSPropertyOp27
 70
     0
102
RTVSPropertyOp28
 70
     0
102
RTVSPropertyOp29
 70
     0
102
RTVSPropertyOp30
 70
     0
102
RTVSPropertyOp31
 70
     0
102
RTVSPropertyOp32
 70
     0
102
RTVSPropertyOp33
 70
     0
102
RTVSPropertyOp34
 70
     0
102
RTVSPropertyOp35
 70
     0
102
RTVSPropertyOp36
 70
     0
102
RTVSPropertyOp37
 70
     0
102
RTVSPropertyOp38
 70
     0
102
RTVSPropertyOp39
 70
     0
102
RTVSPropertyOp40
 70
     0
102
RTVSPropertyOp41
 70
     0
102
RTVSPropertyOp42
 70
     0
102
RTVSPropertyOp43
 70
     0
102
RTVSPropertyOp44
 70
     0
102
RTVSPropertyOp45
 70
     0
102
RTVSPropertyOp46
 70
     0
102
RTVSPropertyOp47
 70
     0
102
RTVSPropertyOp48
 70
     0
102
RTVSPropertyOp49
 70
     0
102
RTVSPropertyOp50
 70
     0
102
RTVSPropertyOp51
 70
     0
102
RTVSPropertyOp52
 70
     0
102
RTVSPropertyOp53
 70
     0
102
RTVSPropertyOp54
 70
     0
102
RTVSPropertyOp55
 70
     0
102
RTVSPropertyOp56
 70
     0
102
RTVSPropertyOp57
 70
     0
102
RTVSPost2010Prop28
280
     0
102
RTVSPost2010PropOp28
 70
     0
102
RTVSPost2010Prop29
280
     1
102
RTVSPost2010PropOp29
 70
     0
102
RTVSPost2010Prop30
280
     1
102
RTVSPost2010PropOp30
 70
     0
102
RTVSPost2010Prop31
280
     0
102
RTVSPost2010PropOp31
 70
     0
102
RTVSPost2010Prop32
280
     0
102
RTVSPost2010PropOp32
 70
     0
102
RTVSPost2010Prop33
280
     0
102
RTVSPost2010PropOp33
 70
     0
102
RTVSPost2010Prop34
280
     0
102
RTVSPost2010PropOp34
 70
     0
102
RTVSPost2010Prop35
280
     0
102
RTVSPost2010PropOp35
 70
     0
102
RTVSPost2010Prop36
280
     0
102
RTVSPost2010PropOp36
 70
     0
102
RTVSPost2010Prop37
 90
       50
102
RTVSPost2010PropOp37
 70
     0
102
RTVSPost2010Prop38
140
0.0
102
RTVSPost2010PropOp38
 70
     0
102
RTVSPost2010Prop39
140
1.0
102
RTVSPost2010PropOp39
 70
     0
102
RTVSPost2010Prop40
 90
        0
102
RTVSPost2010PropOp40
 70
     0
102
RTVSPost2010Prop41ColorIndex
 90
       18
102
RTVSPost2010Prop41ColorRGB
 90
        0
102
RTVSPost2010PropOp41
 70
     0
102
RTVSPost2010Prop42
 90
       50
102
RTVSPost2010PropOp42
 70
     0
102
RTVSPost2010Prop43
 90
        3
102
RTVSPost2010PropOp43
 70
     0
102
RTVSPost2010Prop44ColorIndex
 90
        5
102
RTVSPost2010Prop44ColorRGB
 90
      255
102
RTVSPost2010PropOp44
 70
     0
102
RTVSPost2010Prop45
280
     0
102
RTVSPost2010PropOp45
 70
     0
102
RTVSPost2010Prop46
 90
       50
102
RTVSPost2010PropOp46
 70
     0
102
RTVSPost2010Prop47
 90
       50
102
RTVSPost2010PropOp47
 70
     0
102
RTVSPost2010Prop48
 90
       50
102
RTVSPost2010PropOp48
 70
     0
102
RTVSPost2010Prop49
280
     0
102
RTVSPost2010PropOp49
 70
     0
102
RTVSPost2010Prop50
 90
       50
102
RTVSPost2010PropOp50
 70
     0
102
RTVSPost2010Prop51ColorIndex
 90
      256
102
RTVSPost2010Prop51ColorRGB
 90
-16777216
102
RTVSPost2010PropOp51
 70
     0
102
RTVSPost2010Prop52
140
1.0
102
RTVSPost2010PropOp52
 70
     0
102
RTVSPost2010Prop53
 90
        2
102
RTVSPost2010PropOp53
 70
     0
102
RTVSPost2010Prop54
  1
strokes_ogs.tif
102
RTVSPost2010PropOp54
 70
     0
102
RTVSPost2010Prop55
280
     0
102
RTVSPost2010PropOp55
 70
     0
102
RTVSPost2010Prop56
140
1.0
102
RTVSPost2010PropOp56
 70
     0
102
RTVSPost2010Prop57
140
1.0
102
RTVSPost2010PropOp57
 70
     0
  0
XRECORD
  5
BD
102
{ACAD_REACTORS
330
BC
102
}
330
BC
100
AcDbXrecord
280
     1
102
RTVSPropertyOp0
 70
     1
102
RTVSPropertyOp1
 70
     1
102
RTVSPropertyOp2
 70
     1
102
RTVSPropertyOp3
 70
     1
102
RTVSPropertyOp4
 70
     1
102
RTVSPropertyOp5
 70
     1
102
RTVSPropertyOp6
 70
     1
102
RTVSPropertyOp7
 70
     1
102
RTVSPropertyOp8
 70
     1
102
RTVSPropertyOp9
 70
     1
102
RTVSPropertyOp10
 70
     1
102
RTVSPropertyOp11
 70
     1
102
RTVSPropertyOp12
 70
     1
102
RTVSPropertyOp13
 70
     1
102
RTVSPropertyOp14
 70
     1
102
RTVSPropertyOp15
 70
     1
102
RTVSPropertyOp16
 70
     1
102
RTVSPropertyOp17
 70
     1
102
RTVSPropertyOp18
 70
     1
102
RTVSPropertyOp19
 70
     1
102
RTVSPropertyOp20
 70
     1
102
RTVSPropertyOp21
 70
     1
102
RTVSPropertyOp22
 70
     1
102
RTVSPropertyOp23
 70
     1
102
RTVSPropertyOp24
 70
     1
102
RTVSPropertyOp25
 70
     1
102
RTVSPropertyOp26
 70
     1
102
RTVSPropertyOp27
 70
     1
102
RTVSPropertyOp28
 70
     1
102
RTVSPropertyOp29
 70
     1
102
RTVSPropertyOp30
 70
     1
102
RTVSPropertyOp31
 70
     1
102
RTVSPropertyOp32
 70
     1
102
RTVSPropertyOp33
 70
     1
102
RTVSPropertyOp34
 70
     1
102
RTVSPropertyOp35
 70
     1
102
RTVSPropertyOp36
 70
     1
102
RTVSPropertyOp37
 70
     1
102
RTVSPropertyOp38
 70
     1
102
RTVSPropertyOp39
 70
     1
102
RTVSPropertyOp40
 70
     1
102
RTVSPropertyOp41
 70
     1
102
RTVSPropertyOp42
 70
     1
102
RTVSPropertyOp43
 70
     1
102
RTVSPropertyOp44
 70
     1
102
RTVSPropertyOp45
 70
     1
102
RTVSPropertyOp46
 70
     1
102
RTVSPropertyOp47
 70
     1
102
RTVSPropertyOp48
 70
     1
102
RTVSPropertyOp49
 70
     1
102
RTVSPropertyOp50
 70
     1
102
RTVSPropertyOp51
 70
     0
102
RTVSPropertyOp52
 70
     0
102
RTVSPropertyOp53
 70
     1
102
RTVSPropertyOp54
 70
     1
102
RTVSPropertyOp55
 70
     1
102
RTVSPropertyOp56
 70
     1
102
RTVSPropertyOp57
 70
     1
102
RTVSPost2010Prop28
280
     0
102
RTVSPost2010PropOp28
 70
     1
102
RTVSPost2010Prop29
280
     1
102
RTVSPost2010PropOp29
 70
     1
102
RTVSPost2010Prop30
280
     1
102
RTVSPost2010PropOp30
 70
     1
102
RTVSPost2010Prop31
280
     0
102
RTVSPost2010PropOp31
 70
     1
102
RTVSPost2010Prop32
280
     0
102
RTVSPost2010PropOp32
 70
     1
102
RTVSPost2010Prop33
280
     0
102
RTVSPost2010PropOp33
 70
     1
102
RTVSPost2010Prop34
280
     0
102
RTVSPost2010PropOp34
 70
     1
102
RTVSPost2010Prop35
280
     0
102
RTVSPost2010PropOp35
 70
     1
102
RTVSPost2010Prop36
280
     0
102
RTVSPost2010PropOp36
 70
     1
102
RTVSPost2010Prop37
 90
       50
102
RTVSPost2010PropOp37
 70
     1
102
RTVSPost2010Prop38
140
0.0
102
RTVSPost2010PropOp38
 70
     1
102
RTVSPost2010Prop39
140
1.0
102
RTVSPost2010PropOp39
 70
     1
102
RTVSPost2010Prop40
 90
        0
102
RTVSPost2010PropOp40
 70
     1
102
RTVSPost2010Prop41ColorIndex
 90
       18
102
RTVSPost2010Prop41ColorRGB
 90
        0
102
RTVSPost2010PropOp41
 70
     1
102
RTVSPost2010Prop42
 90
       50
102
RTVSPost2010PropOp42
 70
     1
102
RTVSPost2010Prop43
 90
        3
102
RTVSPost2010PropOp43
 70
     1
102
RTVSPost2010Prop44ColorIndex
 90
        5
102
RTVSPost2010Prop44ColorRGB
 90
      255
102
RTVSPost2010PropOp44
 70
     1
102
RTVSPost2010Prop45
280
     0
102
RTVSPost2010PropOp45
 70
     1
102
RTVSPost2010Prop46
 90
       50
102
RTVSPost2010PropOp46
 70
     1
102
RTVSPost2010Prop47
 90
       50
102
RTVSPost2010PropOp47
 70
     1
102
RTVSPost2010Prop48
 90
       50
102
RTVSPost2010PropOp48
 70
     1
102
RTVSPost2010Prop49
280
     0
102
RTVSPost2010PropOp49
 70
     1
102
RTVSPost2010Prop50
 90
       50
102
RTVSPost2010PropOp50
 70
     1
102
RTVSPost2010Prop51ColorIndex
 90
      256
102
RTVSPost2010Prop51ColorRGB
 90
-16777216
102
RTVSPost2010PropOp51
 70
     0
102
RTVSPost2010Prop52
140
1.0
102
RTVSPost2010PropOp52
 70
     0
102
RTVSPost2010Prop53
 90
        2
102
RTVSPost2010PropOp53
 70
     1
102
RTVSPost2010Prop54
  1
strokes_ogs.tif
102
RTVSPost2010PropOp54
 70
     1
102
RTVSPost2010Prop55
280
     0
102
RTVSPost2010PropOp55
 70
     1
102
RTVSPost2010Prop56
140
1.0
102
RTVSPost2010PropOp56
 70
     1
102
RTVSPost2010Prop57
140
1.0
102
RTVSPost2010PropOp57
 70
     1
  0
XRECORD
  5
DB
102
{ACAD_REACTORS
330
DA
102
}
330
DA
100
AcDbXrecord
280
     1
102
RTVSPropertyOp0
 70
     1
102
RTVSPropertyOp1
 70
     1
102
RTVSPropertyOp2
 70
     1
102
RTVSPropertyOp3
 70
     1
102
RTVSPropertyOp4
 70
     1
102
RTVSPropertyOp5
 70
     1
102
RTVSPropertyOp6
 70
     1
102
RTVSPropertyOp7
 70
     1
102
RTVSPropertyOp8
 70
     1
102
RTVSPropertyOp9
 70
     1
102
RTVSPropertyOp10
 70
     1
102
RTVSPropertyOp11
 70
     1
102
RTVSPropertyOp12
 70
     1
102
RTVSPropertyOp13
 70
     1
102
RTVSPropertyOp14
 70
     1
102
RTVSPropertyOp15
 70
     1
102
RTVSPropertyOp16
 70
     1
102
RTVSPropertyOp17
 70
     1
102
RTVSPropertyOp18
 70
     1
102
RTVSPropertyOp19
 70
     1
102
RTVSPropertyOp20
 70
     1
102
RTVSPropertyOp21
 70
     1
102
RTVSPropertyOp22
 70
     1
102
RTVSPropertyOp23
 70
     1
102
RTVSPropertyOp24
 70
     1
102
RTVSPropertyOp25
 70
     1
102
RTVSPropertyOp26
 70
     1
102
RTVSPropertyOp27
 70
     1
102
RTVSPropertyOp28
 70
     1
102
RTVSPropertyOp29
 70
     1
102
RTVSPropertyOp30
 70
     1
102
RTVSPropertyOp31
 70
     1
102
RTVSPropertyOp32
 70
     1
102
RTVSPropertyOp33
 70
     1
102
RTVSPropertyOp34
 70
     1
102
RTVSPropertyOp35
 70
     1
102
RTVSPropertyOp36
 70
     1
102
RTVSPropertyOp37
 70
     1
102
RTVSPropertyOp38
 70
     1
102
RTVSPropertyOp39
 70
     1
102
RTVSPropertyOp40
 70
     1
102
RTVSPropertyOp41
 70
     1
102
RTVSPropertyOp42
 70
     1
102
RTVSPropertyOp43
 70
     1
102
RTVSPropertyOp44
 70
     1
102
RTVSPropertyOp45
 70
     1
102
RTVSPropertyOp46
 70
     1
102
RTVSPropertyOp47
 70
     1
102
RTVSPropertyOp48
 70
     1
102
RTVSPropertyOp49
 70
     1
102
RTVSPropertyOp50
 70
     1
102
RTVSPropertyOp51
 70
     0
102
RTVSPropertyOp52
 70
     0
102
RTVSPropertyOp53
 70
     1
102
RTVSPropertyOp54
 70
     1
102
RTVSPropertyOp55
 70
     1
102
RTVSPropertyOp56
 70
     1
102
RTVSPropertyOp57
 70
     1
102
RTVSPost2010Prop28
280
     0
102
RTVSPost2010PropOp28
 70
     1
102
RTVSPost2010Prop29
280
     1
102
RTVSPost2010PropOp29
 70
     1
102
RTVSPost2010Prop30
280
     1
102
RTVSPost2010PropOp30
 70
     1
102
RTVSPost2010Prop31
280
     0
102
RTVSPost2010PropOp31
 70
     1
102
RTVSPost2010Prop32
280
     0
102
RTVSPost2010PropOp32
 70
     1
102
RTVSPost2010Prop33
280
     0
102
RTVSPost2010PropOp33
 70
     1
102
RTVSPost2010Prop34
280
     0
102
RTVSPost2010PropOp34
 70
     1
102
RTVSPost2010Prop35
280
     0
102
RTVSPost2010PropOp35
 70
     1
102
RTVSPost2010Prop36
280
     0
102
RTVSPost2010PropOp36
 70
     1
102
RTVSPost2010Prop37
 90
       50
102
RTVSPost2010PropOp37
 70
     1
102
RTVSPost2010Prop38
140
0.0
102
RTVSPost2010PropOp38
 70
     1
102
RTVSPost2010Prop39
140
1.0
102
RTVSPost2010PropOp39
 70
     1
102
RTVSPost2010Prop40
 90
        0
102
RTVSPost2010PropOp40
 70
     1
102
RTVSPost2010Prop41ColorIndex
 90
       18
102
RTVSPost2010Prop41ColorRGB
 90
        0
102
RTVSPost2010PropOp41
 70
     1
102
RTVSPost2010Prop42
 90
       50
102
RTVSPost2010PropOp42
 70
     1
102
RTVSPost2010Prop43
 90
        3
102
RTVSPost2010PropOp43
 70
     1
102
RTVSPost2010Prop44ColorIndex
 90
        5
102
RTVSPost2010Prop44ColorRGB
 90
      255
102
RTVSPost2010PropOp44
 70
     1
102
RTVSPost2010Prop45
280
     0
102
RTVSPost2010PropOp45
 70
     1
102
RTVSPost2010Prop46
 90
       50
102
RTVSPost2010PropOp46
 70
     1
102
RTVSPost2010Prop47
 90
       50
102
RTVSPost2010PropOp47
 70
     1
102
RTVSPost2010Prop48
 90
       50
102
RTVSPost2010PropOp48
 70
     1
102
RTVSPost2010Prop49
280
     0
102
RTVSPost2010PropOp49
 70
     1
102
RTVSPost2010Prop50
 90
       50
102
RTVSPost2010PropOp50
 70
     1
102
RTVSPost2010Prop51ColorIndex
 90
      256
102
RTVSPost2010Prop51ColorRGB
 90
-16777216
102
RTVSPost2010PropOp51
 70
     0
102
RTVSPost2010Prop52
140
1.0
102
RTVSPost2010PropOp52
 70
     0
102
RTVSPost2010Prop53
 90
        2
102
RTVSPost2010PropOp53
 70
     1
102
RTVSPost2010Prop54
  1
strokes_ogs.tif
102
RTVSPost2010PropOp54
 70
     1
102
RTVSPost2010Prop55
280
     0
102
RTVSPost2010PropOp55
 70
     1
102
RTVSPost2010Prop56
140
1.0
102
RTVSPost2010PropOp56
 70
     1
102
RTVSPost2010Prop57
140
1.0
102
RTVSPost2010PropOp57
 70
     1
  0
XRECORD
  5
D9
102
{ACAD_REACTORS
330
D8
102
}
330
D8
100
AcDbXrecord
280
     1
102
RTVSPropertyOp0
 70
     1
102
RTVSPropertyOp1
 70
     1
102
RTVSPropertyOp2
 70
     1
102
RTVSPropertyOp3
 70
     1
102
RTVSPropertyOp4
 70
     1
102
RTVSPropertyOp5
 70
     1
102
RTVSPropertyOp6
 70
     1
102
RTVSPropertyOp7
 70
     1
102
RTVSPropertyOp8
 70
     1
102
RTVSPropertyOp9
 70
     1
102
RTVSPropertyOp10
 70
     1
102
RTVSPropertyOp11
 70
     1
102
RTVSPropertyOp12
 70
     1
102
RTVSPropertyOp13
 70
     1
102
RTVSPropertyOp14
 70
     1
102
RTVSPropertyOp15
 70
     1
102
RTVSPropertyOp16
 70
     1
102
RTVSPropertyOp17
 70
     1
102
RTVSPropertyOp18
 70
     1
102
RTVSPropertyOp19
 70
     1
102
RTVSPropertyOp20
 70
     1
102
RTVSPropertyOp21
 70
     1
102
RTVSPropertyOp22
 70
     1
102
RTVSPropertyOp23
 70
     1
102
RTVSPropertyOp24
 70
     1
102
RTVSPropertyOp25
 70
     1
102
RTVSPropertyOp26
 70
     1
102
RTVSPropertyOp27
 70
     1
102
RTVSPropertyOp28
 70
     1
102
RTVSPropertyOp29
 70
     1
102
RTVSPropertyOp30
 70
     1
102
RTVSPropertyOp31
 70
     1
102
RTVSPropertyOp32
 70
     1
102
RTVSPropertyOp33
 70
     1
102
RTVSPropertyOp34
 70
     1
102
RTVSPropertyOp35
 70
     1
102
RTVSPropertyOp36
 70
     1
102
RTVSPropertyOp37
 70
     1
102
RTVSPropertyOp38
 70
     1
102
RTVSPropertyOp39
 70
     1
102
RTVSPropertyOp40
 70
     1
102
RTVSPropertyOp41
 70
     1
102
RTVSPropertyOp42
 70
     1
102
RTVSPropertyOp43
 70
     1
102
RTVSPropertyOp44
 70
     1
102
RTVSPropertyOp45
 70
     1
102
RTVSPropertyOp46
 70
     1
102
RTVSPropertyOp47
 70
     1
102
RTVSPropertyOp48
 70
     1
102
RTVSPropertyOp49
 70
     1
102
RTVSPropertyOp50
 70
     1
102
RTVSPropertyOp51
 70
     0
102
RTVSPropertyOp52
 70
     0
102
RTVSPropertyOp53
 70
     1
102
RTVSPropertyOp54
 70
     1
102
RTVSPropertyOp55
 70
     1
102
RTVSPropertyOp56
 70
     1
102
RTVSPropertyOp57
 70
     1
102
RTVSPost2010Prop28
280
     0
102
RTVSPost2010PropOp28
 70
     1
102
RTVSPost2010Prop29
280
     1
102
RTVSPost2010PropOp29
 70
     1
102
RTVSPost2010Prop30
280
     1
102
RTVSPost2010PropOp30
 70
     1
102
RTVSPost2010Prop31
280
     0
102
RTVSPost2010PropOp31
 70
     1
102
RTVSPost2010Prop32
280
     0
102
RTVSPost2010PropOp32
 70
     1
102
RTVSPost2010Prop33
280
     0
102
RTVSPost2010PropOp33
 70
     1
102
RTVSPost2010Prop34
280
     0
102
RTVSPost2010PropOp34
 70
     1
102
RTVSPost2010Prop35
280
     0
102
RTVSPost2010PropOp35
 70
     1
102
RTVSPost2010Prop36
280
     0
102
RTVSPost2010PropOp36
 70
     1
102
RTVSPost2010Prop37
 90
       50
102
RTVSPost2010PropOp37
 70
     1
102
RTVSPost2010Prop38
140
0.0
102
RTVSPost2010PropOp38
 70
     1
102
RTVSPost2010Prop39
140
1.0
102
RTVSPost2010PropOp39
 70
     1
102
RTVSPost2010Prop40
 90
        0
102
RTVSPost2010PropOp40
 70
     1
102
RTVSPost2010Prop41ColorIndex
 90
       18
102
RTVSPost2010Prop41ColorRGB
 90
        0
102
RTVSPost2010PropOp41
 70
     1
102
RTVSPost2010Prop42
 90
       50
102
RTVSPost2010PropOp42
 70
     1
102
RTVSPost2010Prop43
 90
        3
102
RTVSPost2010PropOp43
 70
     1
102
RTVSPost2010Prop44ColorIndex
 90
        5
102
RTVSPost2010Prop44ColorRGB
 90
      255
102
RTVSPost2010PropOp44
 70
     1
102
RTVSPost2010Prop45
280
     0
102
RTVSPost2010PropOp45
 70
     1
102
RTVSPost2010Prop46
 90
       50
102
RTVSPost2010PropOp46
 70
     1
102
RTVSPost2010Prop47
 90
       50
102
RTVSPost2010PropOp47
 70
     1
102
RTVSPost2010Prop48
 90
       50
102
RTVSPost2010PropOp48
 70
     1
102
RTVSPost2010Prop49
280
     0
102
RTVSPost2010PropOp49
 70
     1
102
RTVSPost2010Prop50
 90
       50
102
RTVSPost2010PropOp50
 70
     1
102
RTVSPost2010Prop51ColorIndex
 90
      256
102
RTVSPost2010Prop51ColorRGB
 90
-16777216
102
RTVSPost2010PropOp51
 70
     0
102
RTVSPost2010Prop52
140
1.0
102
RTVSPost2010PropOp52
 70
     0
102
RTVSPost2010Prop53
 90
        2
102
RTVSPost2010PropOp53
 70
     1
102
RTVSPost2010Prop54
  1
strokes_ogs.tif
102
RTVSPost2010PropOp54
 70
     1
102
RTVSPost2010Prop55
280
     0
102
RTVSPost2010PropOp55
 70
     1
102
RTVSPost2010Prop56
140
1.0
102
RTVSPost2010PropOp56
 70
     1
102
RTVSPost2010Prop57
140
1.0
102
RTVSPost2010PropOp57
 70
     1
  0
XRECORD
  5
D3
102
{ACAD_REACTORS
330
D2
102
}
330
D2
100
AcDbXrecord
280
     1
102
RTVSPropertyOp0
 70
     1
102
RTVSPropertyOp1
 70
     1
102
RTVSPropertyOp2
 70
     1
102
RTVSPropertyOp3
 70
     1
102
RTVSPropertyOp4
 70
     1
102
RTVSPropertyOp5
 70
     1
102
RTVSPropertyOp6
 70
     1
102
RTVSPropertyOp7
 70
     1
102
RTVSPropertyOp8
 70
     1
102
RTVSPropertyOp9
 70
     1
102
RTVSPropertyOp10
 70
     1
102
RTVSPropertyOp11
 70
     1
102
RTVSPropertyOp12
 70
     1
102
RTVSPropertyOp13
 70
     1
102
RTVSPropertyOp14
 70
     1
102
RTVSPropertyOp15
 70
     1
102
RTVSPropertyOp16
 70
     1
102
RTVSPropertyOp17
 70
     1
102
RTVSPropertyOp18
 70
     1
102
RTVSPropertyOp19
 70
     1
102
RTVSPropertyOp20
 70
     1
102
RTVSPropertyOp21
 70
     1
102
RTVSPropertyOp22
 70
     1
102
RTVSPropertyOp23
 70
     1
102
RTVSPropertyOp24
 70
     1
102
RTVSPropertyOp25
 70
     1
102
RTVSPropertyOp26
 70
     1
102
RTVSPropertyOp27
 70
     1
102
RTVSPropertyOp28
 70
     1
102
RTVSPropertyOp29
 70
     1
102
RTVSPropertyOp30
 70
     1
102
RTVSPropertyOp31
 70
     1
102
RTVSPropertyOp32
 70
     1
102
RTVSPropertyOp33
 70
     1
102
RTVSPropertyOp34
 70
     1
102
RTVSPropertyOp35
 70
     1
102
RTVSPropertyOp36
 70
     1
102
RTVSPropertyOp37
 70
     1
102
RTVSPropertyOp38
 70
     1
102
RTVSPropertyOp39
 70
     1
102
RTVSPropertyOp40
 70
     1
102
RTVSPropertyOp41
 70
     1
102
RTVSPropertyOp42
 70
     1
102
RTVSPropertyOp43
 70
     1
102
RTVSPropertyOp44
 70
     1
102
RTVSPropertyOp45
 70
     1
102
RTVSPropertyOp46
 70
     1
102
RTVSPropertyOp47
 70
     1
102
RTVSPropertyOp48
 70
     1
102
RTVSPropertyOp49
 70
     1
102
RTVSPropertyOp50
 70
     1
102
RTVSPropertyOp51
 70
     0
102
RTVSPropertyOp52
 70
     0
102
RTVSPropertyOp53
 70
     1
102
RTVSPropertyOp54
 70
     1
102
RTVSPropertyOp55
 70
     1
102
RTVSPropertyOp56
 70
     1
102
RTVSPropertyOp57
 70
     1
102
RTVSPost2010Prop28
280
     0
102
RTVSPost2010PropOp28
 70
     1
102
RTVSPost2010Prop29
280
     1
102
RTVSPost2010PropOp29
 70
     1
102
RTVSPost2010Prop30
280
     1
102
RTVSPost2010PropOp30
 70
     1
102
RTVSPost2010Prop31
280
     0
102
RTVSPost2010PropOp31
 70
     1
102
RTVSPost2010Prop32
280
     0
102
RTVSPost2010PropOp32
 70
     1
102
RTVSPost2010Prop33
280
     0
102
RTVSPost2010PropOp33
 70
     1
102
RTVSPost2010Prop34
280
     0
102
RTVSPost2010PropOp34
 70
     1
102
RTVSPost2010Prop35
280
     0
102
RTVSPost2010PropOp35
 70
     1
102
RTVSPost2010Prop36
280
     0
102
RTVSPost2010PropOp36
 70
     1
102
RTVSPost2010Prop37
 90
       50
102
RTVSPost2010PropOp37
 70
     1
102
RTVSPost2010Prop38
140
0.0
102
RTVSPost2010PropOp38
 70
     1
102
RTVSPost2010Prop39
140
1.0
102
RTVSPost2010PropOp39
 70
     1
102
RTVSPost2010Prop40
 90
        0
102
RTVSPost2010PropOp40
 70
     1
102
RTVSPost2010Prop41ColorIndex
 90
       18
102
RTVSPost2010Prop41ColorRGB
 90
        0
102
RTVSPost2010PropOp41
 70
     1
102
RTVSPost2010Prop42
 90
       50
102
RTVSPost2010PropOp42
 70
     1
102
RTVSPost2010Prop43
 90
        3
102
RTVSPost2010PropOp43
 70
     1
102
RTVSPost2010Prop44ColorIndex
 90
        5
102
RTVSPost2010Prop44ColorRGB
 90
      255
102
RTVSPost2010PropOp44
 70
     1
102
RTVSPost2010Prop45
280
     0
102
RTVSPost2010PropOp45
 70
     1
102
RTVSPost2010Prop46
 90
       50
102
RTVSPost2010PropOp46
 70
     1
102
RTVSPost2010Prop47
 90
       50
102
RTVSPost2010PropOp47
 70
     1
102
RTVSPost2010Prop48
 90
       50
102
RTVSPost2010PropOp48
 70
     1
102
RTVSPost2010Prop49
280
     0
102
RTVSPost2010PropOp49
 70
     1
102
RTVSPost2010Prop50
 90
       50
102
RTVSPost2010PropOp50
 70
     1
102
RTVSPost2010Prop51ColorIndex
 90
      256
102
RTVSPost2010Prop51ColorRGB
 90
-16777216
102
RTVSPost2010PropOp51
 70
     0
102
RTVSPost2010Prop52
140
1.0
102
RTVSPost2010PropOp52
 70
     0
102
RTVSPost2010Prop53
 90
        2
102
RTVSPost2010PropOp53
 70
     1
102
RTVSPost2010Prop54
  1
strokes_ogs.tif
102
RTVSPost2010PropOp54
 70
     1
102
RTVSPost2010Prop55
280
     0
102
RTVSPost2010PropOp55
 70
     1
102
RTVSPost2010Prop56
140
1.0
102
RTVSPost2010PropOp56
 70
     1
102
RTVSPost2010Prop57
140
1.0
102
RTVSPost2010PropOp57
 70
     1
  0
XRECORD
  5
D5
102
{ACAD_REACTORS
330
D4
102
}
330
D4
100
AcDbXrecord
280
     1
102
RTVSPropertyOp0
 70
     1
102
RTVSPropertyOp1
 70
     1
102
RTVSPropertyOp2
 70
     1
102
RTVSPropertyOp3
 70
     1
102
RTVSPropertyOp4
 70
     1
102
RTVSPropertyOp5
 70
     1
102
RTVSPropertyOp6
 70
     1
102
RTVSPropertyOp7
 70
     1
102
RTVSPropertyOp8
 70
     1
102
RTVSPropertyOp9
 70
     1
102
RTVSPropertyOp10
 70
     1
102
RTVSPropertyOp11
 70
     1
102
RTVSPropertyOp12
 70
     1
102
RTVSPropertyOp13
 70
     1
102
RTVSPropertyOp14
 70
     1
102
RTVSPropertyOp15
 70
     1
102
RTVSPropertyOp16
 70
     1
102
RTVSPropertyOp17
 70
     1
102
RTVSPropertyOp18
 70
     1
102
RTVSPropertyOp19
 70
     1
102
RTVSPropertyOp20
 70
     1
102
RTVSPropertyOp21
 70
     1
102
RTVSPropertyOp22
 70
     1
102
RTVSPropertyOp23
 70
     1
102
RTVSPropertyOp24
 70
     1
102
RTVSPropertyOp25
 70
     1
102
RTVSPropertyOp26
 70
     1
102
RTVSPropertyOp27
 70
     1
102
RTVSPropertyOp28
 70
     1
102
RTVSPropertyOp29
 70
     1
102
RTVSPropertyOp30
 70
     1
102
RTVSPropertyOp31
 70
     1
102
RTVSPropertyOp32
 70
     1
102
RTVSPropertyOp33
 70
     1
102
RTVSPropertyOp34
 70
     1
102
RTVSPropertyOp35
 70
     1
102
RTVSPropertyOp36
 70
     1
102
RTVSPropertyOp37
 70
     1
102
RTVSPropertyOp38
 70
     1
102
RTVSPropertyOp39
 70
     1
102
RTVSPropertyOp40
 70
     1
102
RTVSPropertyOp41
 70
     1
102
RTVSPropertyOp42
 70
     1
102
RTVSPropertyOp43
 70
     1
102
RTVSPropertyOp44
 70
     1
102
RTVSPropertyOp45
 70
     1
102
RTVSPropertyOp46
 70
     1
102
RTVSPropertyOp47
 70
     1
102
RTVSPropertyOp48
 70
     1
102
RTVSPropertyOp49
 70
     1
102
RTVSPropertyOp50
 70
     1
102
RTVSPropertyOp51
 70
     0
102
RTVSPropertyOp52
 70
     0
102
RTVSPropertyOp53
 70
     1
102
RTVSPropertyOp54
 70
     1
102
RTVSPropertyOp55
 70
     1
102
RTVSPropertyOp56
 70
     1
102
RTVSPropertyOp57
 70
     1
102
RTVSPost2010Prop28
280
     0
102
RTVSPost2010PropOp28
 70
     1
102
RTVSPost2010Prop29
280
     1
102
RTVSPost2010PropOp29
 70
     1
102
RTVSPost2010Prop30
280
     1
102
RTVSPost2010PropOp30
 70
     1
102
RTVSPost2010Prop31
280
     0
102
RTVSPost2010PropOp31
 70
     1
102
RTVSPost2010Prop32
280
     0
102
RTVSPost2010PropOp32
 70
     1
102
RTVSPost2010Prop33
280
     0
102
RTVSPost2010PropOp33
 70
     1
102
RTVSPost2010Prop34
280
     0
102
RTVSPost2010PropOp34
 70
     1
102
RTVSPost2010Prop35
280
     0
102
RTVSPost2010PropOp35
 70
     1
102
RTVSPost2010Prop36
280
     0
102
RTVSPost2010PropOp36
 70
     1
102
RTVSPost2010Prop37
 90
       50
102
RTVSPost2010PropOp37
 70
     1
102
RTVSPost2010Prop38
140
0.0
102
RTVSPost2010PropOp38
 70
     1
102
RTVSPost2010Prop39
140
1.0
102
RTVSPost2010PropOp39
 70
     1
102
RTVSPost2010Prop40
 90
        0
102
RTVSPost2010PropOp40
 70
     1
102
RTVSPost2010Prop41ColorIndex
 90
       18
102
RTVSPost2010Prop41ColorRGB
 90
        0
102
RTVSPost2010PropOp41
 70
     1
102
RTVSPost2010Prop42
 90
       50
102
RTVSPost2010PropOp42
 70
     1
102
RTVSPost2010Prop43
 90
        3
102
RTVSPost2010PropOp43
 70
     1
102
RTVSPost2010Prop44ColorIndex
 90
        5
102
RTVSPost2010Prop44ColorRGB
 90
      255
102
RTVSPost2010PropOp44
 70
     1
102
RTVSPost2010Prop45
280
     0
102
RTVSPost2010PropOp45
 70
     1
102
RTVSPost2010Prop46
 90
       50
102
RTVSPost2010PropOp46
 70
     1
102
RTVSPost2010Prop47
 90
       50
102
RTVSPost2010PropOp47
 70
     1
102
RTVSPost2010Prop48
 90
       50
102
RTVSPost2010PropOp48
 70
     1
102
RTVSPost2010Prop49
280
     0
102
RTVSPost2010PropOp49
 70
     1
102
RTVSPost2010Prop50
 90
       50
102
RTVSPost2010PropOp50
 70
     1
102
RTVSPost2010Prop51ColorIndex
 90
      256
102
RTVSPost2010Prop51ColorRGB
 90
-16777216
102
RTVSPost2010PropOp51
 70
     0
102
RTVSPost2010Prop52
140
1.0
102
RTVSPost2010PropOp52
 70
     0
102
RTVSPost2010Prop53
 90
        2
102
RTVSPost2010PropOp53
 70
     1
102
RTVSPost2010Prop54
  1
strokes_ogs.tif
102
RTVSPost2010PropOp54
 70
     1
102
RTVSPost2010Prop55
280
     0
102
RTVSPost2010PropOp55
 70
     1
102
RTVSPost2010Prop56
140
1.0
102
RTVSPost2010PropOp56
 70
     1
102
RTVSPost2010Prop57
140
1.0
102
RTVSPost2010PropOp57
 70
     1
  0
XRECORD
  5
C5
102
{ACAD_REACTORS
330
C4
102
}
330
C4
100
AcDbXrecord
280
     1
102
RTVSPropertyOp0
 70
     1
102
RTVSPropertyOp1
 70
     1
102
RTVSPropertyOp2
 70
     1
102
RTVSPropertyOp3
 70
     1
102
RTVSPropertyOp4
 70
     1
102
RTVSPropertyOp5
 70
     1
102
RTVSPropertyOp6
 70
     1
102
RTVSPropertyOp7
 70
     1
102
RTVSPropertyOp8
 70
     1
102
RTVSPropertyOp9
 70
     1
102
RTVSPropertyOp10
 70
     1
102
RTVSPropertyOp11
 70
     1
102
RTVSPropertyOp12
 70
     1
102
RTVSPropertyOp13
 70
     1
102
RTVSPropertyOp14
 70
     1
102
RTVSPropertyOp15
 70
     1
102
RTVSPropertyOp16
 70
     1
102
RTVSPropertyOp17
 70
     1
102
RTVSPropertyOp18
 70
     1
102
RTVSPropertyOp19
 70
     1
102
RTVSPropertyOp20
 70
     1
102
RTVSPropertyOp21
 70
     1
102
RTVSPropertyOp22
 70
     1
102
RTVSPropertyOp23
 70
     1
102
RTVSPropertyOp24
 70
     1
102
RTVSPropertyOp25
 70
     1
102
RTVSPropertyOp26
 70
     1
102
RTVSPropertyOp27
 70
     1
102
RTVSPropertyOp28
 70
     1
102
RTVSPropertyOp29
 70
     1
102
RTVSPropertyOp30
 70
     1
102
RTVSPropertyOp31
 70
     1
102
RTVSPropertyOp32
 70
     1
102
RTVSPropertyOp33
 70
     1
102
RTVSPropertyOp34
 70
     1
102
RTVSPropertyOp35
 70
     1
102
RTVSPropertyOp36
 70
     1
102
RTVSPropertyOp37
 70
     1
102
RTVSPropertyOp38
 70
     1
102
RTVSPropertyOp39
 70
     1
102
RTVSPropertyOp40
 70
     1
102
RTVSPropertyOp41
 70
     1
102
RTVSPropertyOp42
 70
     1
102
RTVSPropertyOp43
 70
     1
102
RTVSPropertyOp44
 70
     1
102
RTVSPropertyOp45
 70
     1
102
RTVSPropertyOp46
 70
     1
102
RTVSPropertyOp47
 70
     1
102
RTVSPropertyOp48
 70
     1
102
RTVSPropertyOp49
 70
     1
102
RTVSPropertyOp50
 70
     1
102
RTVSPropertyOp51
 70
     0
102
RTVSPropertyOp52
 70
     0
102
RTVSPropertyOp53
 70
     1
102
RTVSPropertyOp54
 70
     1
102
RTVSPropertyOp55
 70
     1
102
RTVSPropertyOp56
 70
     1
102
RTVSPropertyOp57
 70
     1
102
RTVSPost2010Prop28
280
     0
102
RTVSPost2010PropOp28
 70
     1
102
RTVSPost2010Prop29
280
     1
102
RTVSPost2010PropOp29
 70
     1
102
RTVSPost2010Prop30
280
     1
102
RTVSPost2010PropOp30
 70
     1
102
RTVSPost2010Prop31
280
     0
102
RTVSPost2010PropOp31
 70
     1
102
RTVSPost2010Prop32
280
     0
102
RTVSPost2010PropOp32
 70
     1
102
RTVSPost2010Prop33
280
     0
102
RTVSPost2010PropOp33
 70
     1
102
RTVSPost2010Prop34
280
     0
102
RTVSPost2010PropOp34
 70
     1
102
RTVSPost2010Prop35
280
     0
102
RTVSPost2010PropOp35
 70
     1
102
RTVSPost2010Prop36
280
     0
102
RTVSPost2010PropOp36
 70
     1
102
RTVSPost2010Prop37
 90
       50
102
RTVSPost2010PropOp37
 70
     1
102
RTVSPost2010Prop38
140
0.0
102
RTVSPost2010PropOp38
 70
     1
102
RTVSPost2010Prop39
140
1.0
102
RTVSPost2010PropOp39
 70
     1
102
RTVSPost2010Prop40
 90
        0
102
RTVSPost2010PropOp40
 70
     1
102
RTVSPost2010Prop41ColorIndex
 90
       18
102
RTVSPost2010Prop41ColorRGB
 90
        0
102
RTVSPost2010PropOp41
 70
     1
102
RTVSPost2010Prop42
 90
       50
102
RTVSPost2010PropOp42
 70
     1
102
RTVSPost2010Prop43
 90
        3
102
RTVSPost2010PropOp43
 70
     1
102
RTVSPost2010Prop44ColorIndex
 90
        5
102
RTVSPost2010Prop44ColorRGB
 90
      255
102
RTVSPost2010PropOp44
 70
     1
102
RTVSPost2010Prop45
280
     0
102
RTVSPost2010PropOp45
 70
     1
102
RTVSPost2010Prop46
 90
       50
102
RTVSPost2010PropOp46
 70
     1
102
RTVSPost2010Prop47
 90
       50
102
RTVSPost2010PropOp47
 70
     1
102
RTVSPost2010Prop48
 90
       50
102
RTVSPost2010PropOp48
 70
     1
102
RTVSPost2010Prop49
280
     0
102
RTVSPost2010PropOp49
 70
     1
102
RTVSPost2010Prop50
 90
       50
102
RTVSPost2010PropOp50
 70
     1
102
RTVSPost2010Prop51ColorIndex
 90
      256
102
RTVSPost2010Prop51ColorRGB
 90
-16777216
102
RTVSPost2010PropOp51
 70
     0
102
RTVSPost2010Prop52
140
1.0
102
RTVSPost2010PropOp52
 70
     0
102
RTVSPost2010Prop53
 90
        2
102
RTVSPost2010PropOp53
 70
     1
102
RTVSPost2010Prop54
  1
strokes_ogs.tif
102
RTVSPost2010PropOp54
 70
     1
102
RTVSPost2010Prop55
280
     0
102
RTVSPost2010PropOp55
 70
     1
102
RTVSPost2010Prop56
140
1.0
102
RTVSPost2010PropOp56
 70
     1
102
RTVSPost2010Prop57
140
1.0
102
RTVSPost2010PropOp57
 70
     1
  0
XRECORD
  5
B7
102
{ACAD_REACTORS
330
B6
102
}
330
B6
100
AcDbXrecord
280
     1
102
RTVSPropertyOp0
 70
     1
102
RTVSPropertyOp1
 70
     1
102
RTVSPropertyOp2
 70
     1
102
RTVSPropertyOp3
 70
     1
102
RTVSPropertyOp4
 70
     1
102
RTVSPropertyOp5
 70
     1
102
RTVSPropertyOp6
 70
     1
102
RTVSPropertyOp7
 70
     1
102
RTVSPropertyOp8
 70
     1
102
RTVSPropertyOp9
 70
     1
102
RTVSPropertyOp10
 70
     1
102
RTVSPropertyOp11
 70
     1
102
RTVSPropertyOp12
 70
     1
102
RTVSPropertyOp13
 70
     1
102
RTVSPropertyOp14
 70
     1
102
RTVSPropertyOp15
 70
     1
102
RTVSPropertyOp16
 70
     1
102
RTVSPropertyOp17
 70
     1
102
RTVSPropertyOp18
 70
     1
102
RTVSPropertyOp19
 70
     1
102
RTVSPropertyOp20
 70
     1
102
RTVSPropertyOp21
 70
     1
102
RTVSPropertyOp22
 70
     1
102
RTVSPropertyOp23
 70
     1
102
RTVSPropertyOp24
 70
     1
102
RTVSPropertyOp25
 70
     1
102
RTVSPropertyOp26
 70
     1
102
RTVSPropertyOp27
 70
     1
102
RTVSPropertyOp28
 70
     1
102
RTVSPropertyOp29
 70
     1
102
RTVSPropertyOp30
 70
     1
102
RTVSPropertyOp31
 70
     1
102
RTVSPropertyOp32
 70
     1
102
RTVSPropertyOp33
 70
     1
102
RTVSPropertyOp34
 70
     1
102
RTVSPropertyOp35
 70
     1
102
RTVSPropertyOp36
 70
     1
102
RTVSPropertyOp37
 70
     1
102
RTVSPropertyOp38
 70
     1
102
RTVSPropertyOp39
 70
     1
102
RTVSPropertyOp40
 70
     1
102
RTVSPropertyOp41
 70
     1
102
RTVSPropertyOp42
 70
     1
102
RTVSPropertyOp43
 70
     1
102
RTVSPropertyOp44
 70
     1
102
RTVSPropertyOp45
 70
     1
102
RTVSPropertyOp46
 70
     1
102
RTVSPropertyOp47
 70
     1
102
RTVSPropertyOp48
 70
     1
102
RTVSPropertyOp49
 70
     1
102
RTVSPropertyOp50
 70
     1
102
RTVSPropertyOp51
 70
     0
102
RTVSPropertyOp52
 70
     0
102
RTVSPropertyOp53
 70
     1
102
RTVSPropertyOp54
 70
     1
102
RTVSPropertyOp55
 70
     1
102
RTVSPropertyOp56
 70
     1
102
RTVSPropertyOp57
 70
     1
102
RTVSPost2010Prop28
280
     0
102
RTVSPost2010PropOp28
 70
     1
102
RTVSPost2010Prop29
280
     1
102
RTVSPost2010PropOp29
 70
     1
102
RTVSPost2010Prop30
280
     1
102
RTVSPost2010PropOp30
 70
     1
102
RTVSPost2010Prop31
280
     0
102
RTVSPost2010PropOp31
 70
     1
102
RTVSPost2010Prop32
280
     0
102
RTVSPost2010PropOp32
 70
     1
102
RTVSPost2010Prop33
280
     0
102
RTVSPost2010PropOp33
 70
     1
102
RTVSPost2010Prop34
280
     0
102
RTVSPost2010PropOp34
 70
     1
102
RTVSPost2010Prop35
280
     0
102
RTVSPost2010PropOp35
 70
     1
102
RTVSPost2010Prop36
280
     0
102
RTVSPost2010PropOp36
 70
     1
102
RTVSPost2010Prop37
 90
       50
102
RTVSPost2010PropOp37
 70
     1
102
RTVSPost2010Prop38
140
0.0
102
RTVSPost2010PropOp38
 70
     1
102
RTVSPost2010Prop39
140
1.0
102
RTVSPost2010PropOp39
 70
     1
102
RTVSPost2010Prop40
 90
        0
102
RTVSPost2010PropOp40
 70
     1
102
RTVSPost2010Prop41ColorIndex
 90
       18
102
RTVSPost2010Prop41ColorRGB
 90
        0
102
RTVSPost2010PropOp41
 70
     1
102
RTVSPost2010Prop42
 90
       50
102
RTVSPost2010PropOp42
 70
     1
102
RTVSPost2010Prop43
 90
        3
102
RTVSPost2010PropOp43
 70
     1
102
RTVSPost2010Prop44ColorIndex
 90
        5
102
RTVSPost2010Prop44ColorRGB
 90
      255
102
RTVSPost2010PropOp44
 70
     1
102
RTVSPost2010Prop45
280
     0
102
RTVSPost2010PropOp45
 70
     1
102
RTVSPost2010Prop46
 90
       50
102
RTVSPost2010PropOp46
 70
     1
102
RTVSPost2010Prop47
 90
       50
102
RTVSPost2010PropOp47
 70
     1
102
RTVSPost2010Prop48
 90
       50
102
RTVSPost2010PropOp48
 70
     1
102
RTVSPost2010Prop49
280
     0
102
RTVSPost2010PropOp49
 70
     1
102
RTVSPost2010Prop50
 90
       50
102
RTVSPost2010PropOp50
 70
     1
102
RTVSPost2010Prop51ColorIndex
 90
      256
102
RTVSPost2010Prop51ColorRGB
 90
-16777216
102
RTVSPost2010PropOp51
 70
     0
102
RTVSPost2010Prop52
140
1.0
102
RTVSPost2010PropOp52
 70
     0
102
RTVSPost2010Prop53
 90
        2
102
RTVSPost2010PropOp53
 70
     1
102
RTVSPost2010Prop54
  1
strokes_ogs.tif
102
RTVSPost2010PropOp54
 70
     1
102
RTVSPost2010Prop55
280
     0
102
RTVSPost2010PropOp55
 70
     1
102
RTVSPost2010Prop56
140
1.0
102
RTVSPost2010PropOp56
 70
     1
102
RTVSPost2010Prop57
140
1.0
102
RTVSPost2010PropOp57
 70
     1
  0
XRECORD
  5
D7
102
{ACAD_REACTORS
330
D6
102
}
330
D6
100
AcDbXrecord
280
     1
102
RTVSPropertyOp0
 70
     1
102
RTVSPropertyOp1
 70
     1
102
RTVSPropertyOp2
 70
     1
102
RTVSPropertyOp3
 70
     1
102
RTVSPropertyOp4
 70
     1
102
RTVSPropertyOp5
 70
     1
102
RTVSPropertyOp6
 70
     1
102
RTVSPropertyOp7
 70
     1
102
RTVSPropertyOp8
 70
     1
102
RTVSPropertyOp9
 70
     1
102
RTVSPropertyOp10
 70
     1
102
RTVSPropertyOp11
 70
     1
102
RTVSPropertyOp12
 70
     1
102
RTVSPropertyOp13
 70
     1
102
RTVSPropertyOp14
 70
     1
102
RTVSPropertyOp15
 70
     1
102
RTVSPropertyOp16
 70
     1
102
RTVSPropertyOp17
 70
     1
102
RTVSPropertyOp18
 70
     1
102
RTVSPropertyOp19
 70
     1
102
RTVSPropertyOp20
 70
     1
102
RTVSPropertyOp21
 70
     1
102
RTVSPropertyOp22
 70
     1
102
RTVSPropertyOp23
 70
     1
102
RTVSPropertyOp24
 70
     1
102
RTVSPropertyOp25
 70
     1
102
RTVSPropertyOp26
 70
     1
102
RTVSPropertyOp27
 70
     1
102
RTVSPropertyOp28
 70
     1
102
RTVSPropertyOp29
 70
     1
102
RTVSPropertyOp30
 70
     1
102
RTVSPropertyOp31
 70
     1
102
RTVSPropertyOp32
 70
     1
102
RTVSPropertyOp33
 70
     1
102
RTVSPropertyOp34
 70
     1
102
RTVSPropertyOp35
 70
     1
102
RTVSPropertyOp36
 70
     1
102
RTVSPropertyOp37
 70
     1
102
RTVSPropertyOp38
 70
     1
102
RTVSPropertyOp39
 70
     1
102
RTVSPropertyOp40
 70
     1
102
RTVSPropertyOp41
 70
     1
102
RTVSPropertyOp42
 70
     1
102
RTVSPropertyOp43
 70
     1
102
RTVSPropertyOp44
 70
     1
102
RTVSPropertyOp45
 70
     1
102
RTVSPropertyOp46
 70
     1
102
RTVSPropertyOp47
 70
     1
102
RTVSPropertyOp48
 70
     1
102
RTVSPropertyOp49
 70
     1
102
RTVSPropertyOp50
 70
     1
102
RTVSPropertyOp51
 70
     0
102
RTVSPropertyOp52
 70
     0
102
RTVSPropertyOp53
 70
     1
102
RTVSPropertyOp54
 70
     1
102
RTVSPropertyOp55
 70
     1
102
RTVSPropertyOp56
 70
     1
102
RTVSPropertyOp57
 70
     1
102
RTVSPost2010Prop28
280
     0
102
RTVSPost2010PropOp28
 70
     1
102
RTVSPost2010Prop29
280
     1
102
RTVSPost2010PropOp29
 70
     1
102
RTVSPost2010Prop30
280
     1
102
RTVSPost2010PropOp30
 70
     1
102
RTVSPost2010Prop31
280
     0
102
RTVSPost2010PropOp31
 70
     1
102
RTVSPost2010Prop32
280
     0
102
RTVSPost2010PropOp32
 70
     1
102
RTVSPost2010Prop33
280
     0
102
RTVSPost2010PropOp33
 70
     1
102
RTVSPost2010Prop34
280
     0
102
RTVSPost2010PropOp34
 70
     1
102
RTVSPost2010Prop35
280
     0
102
RTVSPost2010PropOp35
 70
     1
102
RTVSPost2010Prop36
280
     0
102
RTVSPost2010PropOp36
 70
     1
102
RTVSPost2010Prop37
 90
       50
102
RTVSPost2010PropOp37
 70
     1
102
RTVSPost2010Prop38
140
0.0
102
RTVSPost2010PropOp38
 70
     1
102
RTVSPost2010Prop39
140
1.0
102
RTVSPost2010PropOp39
 70
     1
102
RTVSPost2010Prop40
 90
        0
102
RTVSPost2010PropOp40
 70
     1
102
RTVSPost2010Prop41ColorIndex
 90
       18
102
RTVSPost2010Prop41ColorRGB
 90
        0
102
RTVSPost2010PropOp41
 70
     1
102
RTVSPost2010Prop42
 90
       50
102
RTVSPost2010PropOp42
 70
     1
102
RTVSPost2010Prop43
 90
        3
102
RTVSPost2010PropOp43
 70
     1
102
RTVSPost2010Prop44ColorIndex
 90
        5
102
RTVSPost2010Prop44ColorRGB
 90
      255
102
RTVSPost2010PropOp44
 70
     1
102
RTVSPost2010Prop45
280
     0
102
RTVSPost2010PropOp45
 70
     1
102
RTVSPost2010Prop46
 90
       50
102
RTVSPost2010PropOp46
 70
     1
102
RTVSPost2010Prop47
 90
       50
102
RTVSPost2010PropOp47
 70
     1
102
RTVSPost2010Prop48
 90
       50
102
RTVSPost2010PropOp48
 70
     1
102
RTVSPost2010Prop49
280
     0
102
RTVSPost2010PropOp49
 70
     1
102
RTVSPost2010Prop50
 90
       50
102
RTVSPost2010PropOp50
 70
     1
102
RTVSPost2010Prop51ColorIndex
 90
      256
102
RTVSPost2010Prop51ColorRGB
 90
-16777216
102
RTVSPost2010PropOp51
 70
     0
102
RTVSPost2010Prop52
140
1.0
102
RTVSPost2010PropOp52
 70
     0
102
RTVSPost2010Prop53
 90
        2
102
RTVSPost2010PropOp53
 70
     1
102
RTVSPost2010Prop54
  1
strokes_ogs.tif
102
RTVSPost2010PropOp54
 70
     1
102
RTVSPost2010Prop55
280
     0
102
RTVSPost2010PropOp55
 70
     1
102
RTVSPost2010Prop56
140
1.0
102
RTVSPost2010PropOp56
 70
     1
102
RTVSPost2010Prop57
140
1.0
102
RTVSPost2010PropOp57
 70
     1
  0
ENDSEC
  0
EOF
