  0
SECTION
  2
HEADER
  9
$ACADVER
  1
AC1021
  9
$ACADMAINTVER
 70
    25
  9
$DWGCODEPAGE
  3
ANSI_1252
  9
$INSBASE
 10
0.0
 20
0.0
 30
0.0
  9
$EXTMIN
 10
1.000000000000000E+20
 20
1.000000000000000E+20
 30
1.000000000000000E+20
  9
$EXTMAX
 10
-1.000000000000000E+20
 20
-1.000000000000000E+20
 30
-1.000000000000000E+20
  9
$LIMMIN
 10
0.0
 20
0.0
  9
$LIMMAX
 10
12.0
 20
9.0
  9
$ORTHOMODE
 70
     0
  9
$REGENMODE
 70
     1
  9
$FILLMODE
 70
     1
  9
$QTEXTMODE
 70
     0
  9
$MIRRTEXT
 70
     1
  9
$LTSCALE
 40
1.0
  9
$ATTMODE
 70
     1
  9
$TEXTSIZE
 40
0.2
  9
$TRACEWID
 40
0.05
  9
$TEXTSTYLE
  7
Standard
  9
$CLAYER
  8
Layer 01
  9
$CELTYPE
  6
ByLayer
  9
$CECOLOR
 62
   256
  9
$CELTSCALE
 40
1.0
  9
$DISPSILH
 70
     0
  9
$DIMSCALE
 40
1.0
  9
$DIMASZ
 40
0.18
  9
$DIMEXO
 40
0.0625
  9
$DIMDLI
 40
0.38
  9
$DIMRND
 40
0.0
  9
$DIMDLE
 40
0.0
  9
$DIMEXE
 40
0.18
  9
$DIMTP
 40
0.0
  9
$DIMTM
 40
0.0
  9
$DIMTXT
 40
0.18
  9
$DIMCEN
 40
0.09
  9
$DIMTSZ
 40
0.0
  9
$DIMTOL
 70
     0
  9
$DIMLIM
 70
     0
  9
$DIMTIH
 70
     1
  9
$DIMTOH
 70
     1
  9
$DIMSE1
 70
     0
  9
$DIMSE2
 70
     0
  9
$DIMTAD
 70
     0
  9
$DIMZIN
 70
     0
  9
$DIMBLK
  1

  9
$DIMASO
 70
     1
  9
$DIMSHO
 70
     1
  9
$DIMPOST
  1

  9
$DIMAPOST
  1

  9
$DIMALT
 70
     0
  9
$DIMALTD
 70
     2
  9
$DIMALTF
 40
25.4
  9
$DIMLFAC
 40
1.0
  9
$DIMTOFL
 70
     0
  9
$DIMTVP
 40
0.0
  9
$DIMTIX
 70
     0
  9
$DIMSOXD
 70
     0
  9
$DIMSAH
 70
     0
  9
$DIMBLK1
  1

  9
$DIMBLK2
  1

  9
$DIMSTYLE
  2
STANDARD_ACAD
  9
$DIMCLRD
 70
     0
  9
$DIMCLRE
 70
     0
  9
$DIMCLRT
 70
     0
  9
$DIMTFAC
 40
1.0
  9
$DIMGAP
 40
0.09
  9
$DIMJUST
 70
     0
  9
$DIMSD1
 70
     0
  9
$DIMSD2
 70
     0
  9
$DIMTOLJ
 70
     1
  9
$DIMTZIN
 70
     0
  9
$DIMALTZ
 70
     0
  9
$DIMALTTZ
 70
     0
  9
$DIMUPT
 70
     0
  9
$DIMDEC
 70
     4
  9
$DIMTDEC
 70
     4
  9
$DIMALTU
 70
     2
  9
$DIMALTTD
 70
     2
  9
$DIMTXSTY
  7
Standard
  9
$DIMAUNIT
 70
     0
  9
$DIMADEC
 70
     0
  9
$DIMALTRND
 40
0.0
  9
$DIMAZIN
 70
     0
  9
$DIMDSEP
 70
    46
  9
$DIMATFIT
 70
     3
  9
$DIMFRAC
 70
     0
  9
$DIMLDRBLK
  1

  9
$DIMLUNIT
 70
     2
  9
$DIMLWD
 70
    -2
  9
$DIMLWE
 70
    -2
  9
$DIMTMOVE
 70
     2
  9
$DIMFXL
 40
1.0
  9
$DIMFXLON
 70
     0
  9
$DIMJOGANG
 40
0.7853981633974483
  9
$DIMTFILL
 70
     0
  9
$DIMTFILLCLR
 70
     0
  9
$DIMARCSYM
 70
     0
  9
$DIMLTYPE
  6

  9
$DIMLTEX1
  6

  9
$DIMLTEX2
  6

  9
$LUNITS
 70
     2
  9
$LUPREC
 70
     3
  9
$SKETCHINC
 40
0.1
  9
$FILLETRAD
 40
0.5
  9
$AUNITS
 70
     0
  9
$AUPREC
 70
     0
  9
$MENU
  1
.
  9
$ELEVATION
 40
0.0
  9
$PELEVATION
 40
0.0
  9
$THICKNESS
 40
0.0
  9
$LIMCHECK
 70
     0
  9
$CHAMFERA
 40
0.0
  9
$CHAMFERB
 40
0.0
  9
$CHAMFERC
 40
0.0
  9
$CHAMFERD
 40
0.0
  9
$SKPOLY
 70
     0
  9
$TDCREATE
 40
2458602.740066783
  9
$TDUCREATE
 40
2458602.906733449
  9
$TDUPDATE
 40
2458602.740078009
  9
$TDUUPDATE
 40
2458602.906744676
  9
$TDINDWG
 40
0.0000000116
  9
$TDUSRTIMER
 40
0.0000000116
  9
$USRTIMER
 70
     1
  9
$ANGBASE
 50
0.0
  9
$ANGDIR
 70
     0
  9
$PDMODE
 70
     0
  9
$PDSIZE
 40
0.0
  9
$PLINEWID
 40
0.0
  9
$SPLFRAME
 70
     0
  9
$SPLINETYPE
 70
     6
  9
$SPLINESEGS
 70
     8
  9
$HANDSEED
  5
F3
  9
$SURFTAB1
 70
     6
  9
$SURFTAB2
 70
     6
  9
$SURFTYPE
 70
     6
  9
$SURFU
 70
     6
  9
$SURFV
 70
     6
  9
$UCSBASE
  2

  9
$UCSNAME
  2

  9
$UCSORG
 10
0.0
 20
0.0
 30
0.0
  9
$UCSXDIR
 10
1.0
 20
0.0
 30
0.0
  9
$UCSYDIR
 10
0.0
 20
1.0
 30
0.0
  9
$UCSORTHOREF
  2

  9
$UCSORTHOVIEW
 70
     0
  9
$UCSORGTOP
 10
0.0
 20
0.0
 30
0.0
  9
$UCSORGBOTTOM
 10
0.0
 20
0.0
 30
0.0
  9
$UCSORGLEFT
 10
0.0
 20
0.0
 30
0.0
  9
$UCSORGRIGHT
 10
0.0
 20
0.0
 30
0.0
  9
$UCSORGFRONT
 10
0.0
 20
0.0
 30
0.0
  9
$UCSORGBACK
 10
0.0
 20
0.0
 30
0.0
  9
$PUCSBASE
  2

  9
$PUCSNAME
  2

  9
$PUCSORG
 10
0.0
 20
0.0
 30
0.0
  9
$PUCSXDIR
 10
1.0
 20
0.0
 30
0.0
  9
$PUCSYDIR
 10
0.0
 20
1.0
 30
0.0
  9
$PUCSORTHOREF
  2

  9
$PUCSORTHOVIEW
 70
     0
  9
$PUCSORGTOP
 10
0.0
 20
0.0
 30
0.0
  9
$PUCSORGBOTTOM
 10
0.0
 20
0.0
 30
0.0
  9
$PUCSORGLEFT
 10
0.0
 20
0.0
 30
0.0
  9
$PUCSORGRIGHT
 10
0.0
 20
0.0
 30
0.0
  9
$PUCSORGFRONT
 10
0.0
 20
0.0
 30
0.0
  9
$PUCSORGBACK
 10
0.0
 20
0.0
 30
0.0
  9
$USERI1
 70
     0
  9
$USERI2
 70
     0
  9
$USERI3
 70
     0
  9
$USERI4
 70
     0
  9
$USERI5
 70
     0
  9
$USERR1
 40
0.0
  9
$USERR2
 40
0.0
  9
$USERR3
 40
0.0
  9
$USERR4
 40
0.0
  9
$USERR5
 40
0.0
  9
$WORLDVIEW
 70
     1
  9
$SHADEDGE
 70
     3
  9
$SHADEDIF
 70
    70
  9
$TILEMODE
 70
     1
  9
$MAXACTVP
 70
    64
  9
$PINSBASE
 10
0.0
 20
0.0
 30
0.0
  9
$PLIMCHECK
 70
     0
  9
$PEXTMIN
 10
1.000000000000000E+20
 20
1.000000000000000E+20
 30
1.000000000000000E+20
  9
$PEXTMAX
 10
-1.000000000000000E+20
 20
-1.000000000000000E+20
 30
-1.000000000000000E+20
  9
$PLIMMIN
 10
0.0
 20
0.0
  9
$PLIMMAX
 10
12.0
 20
9.0
  9
$UNITMODE
 70
     0
  9
$VISRETAIN
 70
     1
  9
$PLINEGEN
 70
     0
  9
$PSLTSCALE
 70
     1
  9
$TREEDEPTH
 70
  3020
  9
$CMLSTYLE
  2
Standard
  9
$CMLJUST
 70
     0
  9
$CMLSCALE
 40
1.0
  9
$PROXYGRAPHICS
 70
     1
  9
$MEASUREMENT
 70
     0
  9
$CELWEIGHT
370
    -1
  9
$ENDCAPS
280
     0
  9
$JOINSTYLE
280
     0
  9
$LWDISPLAY
290
     0
  9
$INSUNITS
 70
     1
  9
$HYPERLINKBASE
  1

  9
$STYLESHEET
  1

  9
$XEDIT
290
     1
  9
$CEPSNTYPE
380
     0
  9
$PSTYLEMODE
290
     1
  9
$FINGERPRINTGUID
  2
{0d19771e-4edd-43c9-9791-4bc9601a059b}
  9
$VERSIONGUID
  2
{FAEB1C32-E019-11D5-929B-00C0DF256EC4}
  9
$EXTNAMES
290
     1
  9
$PSVPSCALE
 40
0.0
  9
$OLESTARTUP
290
     0
  9
$SORTENTS
280
   127
  9
$INDEXCTL
280
     0
  9
$HIDETEXT
280
     1
  9
$XCLIPFRAME
290
     0
  9
$HALOGAP
280
     0
  9
$OBSCOLOR
 70
   257
  9
$OBSLTYPE
280
     0
  9
$INTERSECTIONDISPLAY
280
     0
  9
$INTERSECTIONCOLOR
 70
   257
  9
$DIMASSOC
280
     2
  9
$PROJECTNAME
  1

  9
$CAMERADISPLAY
290
     0
  9
$LENSLENGTH
 40
50.0
  9
$CAMERAHEIGHT
 40
0.0
  9
$STEPSPERSEC
 40
2.0
  9
$STEPSIZE
 40
6.0
  9
$3DDWFPREC
 40
2.0
  9
$PSOLWIDTH
 40
0.25
  9
$PSOLHEIGHT
 40
4.0
  9
$LOFTANG1
 40
1.570796326794897
  9
$LOFTANG2
 40
1.570796326794897
  9
$LOFTMAG1
 40
0.0
  9
$LOFTMAG2
 40
0.0
  9
$LOFTPARAM
 70
     7
  9
$LOFTNORMALS
280
     1
  9
$LATITUDE
 40
37.795
  9
$LONGITUDE
 40
-122.394
  9
$NORTHDIRECTION
 40
0.0
  9
$TIMEZONE
 70
 -8000
  9
$LIGHTGLYPHDISPLAY
280
     1
  9
$TILEMODELIGHTSYNCH
280
     1
  9
$CMATERIAL
347
44
  9
$SOLIDHIST
280
     0
  9
$SHOWHIST
280
     1
  9
$DWFFRAME
280
     2
  9
$DGNFRAME
280
     2
  9
$REALWORLDSCALE
290
     1
  9
$INTERFERECOLOR
 62
   256
  9
$CSHADOW
280
     0
  9
$SHADOWPLANELOCATION
 40
0.0
  0
ENDSEC
  0
SECTION
  2
CLASSES
  0
CLASS
  1
ACDBDICTIONARYWDFLT
  2
AcDbDictionaryWithDefault
  3
ObjectDBX Classes
 90
        0
 91
        3
280
     0
281
     0
  0
CLASS
  1
VISUALSTYLE
  2
AcDbVisualStyle
  3
ObjectDBX Classes
 90
     4095
 91
        3
280
     0
281
     0
  0
CLASS
  1
MATERIAL
  2
AcDbMaterial
  3
ObjectDBX Classes
 90
     1153
 91
        3
280
     0
281
     0
  0
CLASS
  1
SCALE
  2
AcDbScale
  3
ObjectDBX Classes
 90
     1153
 91
        3
280
     0
281
     0
  0
CLASS
  1
TABLESTYLE
  2
AcDbTableStyle
  3
ObjectDBX Classes
 90
     4095
 91
        3
280
     0
281
     0
  0
CLASS
  1
MLEADERSTYLE
  2
AcDbMLeaderStyle
  3
ACDB_MLEADERSTYLE_CLASS
 90
     4095
 91
        3
280
     0
281
     0
  0
CLASS
  1
SUN
  2
AcDbSun
  3
SCENEOE
 90
     1153
 91
        3
280
     0
281
     0
  0
CLASS
  1
DICTIONARYVAR
  2
AcDbDictionaryVar
  3
ObjectDBX Classes
 90
        0
 91
        3
280
     0
281
     0
  0
CLASS
  1
CELLSTYLEMAP
  2
AcDbCellStyleMap
  3
ObjectDBX Classes
 90
     1152
 91
        3
280
     0
281
     0
  0
ENDSEC
  0
SECTION
  2
TABLES
  0
TABLE
  2
VPORT
  5
8
330
0
100
AcDbSymbolTable
 70
     1
  0
VPORT
  5
29
330
8
100
AcDbSymbolTableRecord
100
AcDbViewportTableRecord
  2
*Active
 70
     0
 10
0.0
 20
0.0
 11
1.0
 21
1.0
 12
10.42990654205607
 22
4.5
 13
0.0
 23
0.0
 14
0.5
 24
0.5
 15
0.5
 25
0.5
 16
0.0
 26
0.0
 36
1.0
 17
0.0
 27
0.0
 37
0.0
 40
9.0
 41
1.972972972850329
 42
50.0
 43
0.0
 44
0.0
 50
0.0
 51
0.0
 71
     0
 72
   100
 73
     1
 74
     3
 75
     0
 76
     0
 77
     0
 78
     0
281
     0
 65
     1
110
0.0
120
0.0
130
0.0
111
1.0
121
0.0
131
0.0
112
0.0
122
1.0
132
0.0
 79
     0
146
0.0
348
2F
 60
     3
 61
     5
292
     1
282
     1
141
0.0
142
0.0
 63
   250
361
6D
  0
ENDTAB
  0
TABLE
  2
LTYPE
  5
5
330
0
100
AcDbSymbolTable
 70
     1
  0
LTYPE
  5
14
330
5
100
AcDbSymbolTableRecord
100
AcDbLinetypeTableRecord
  2
ByBlock
 70
     0
  3

 72
    65
 73
     0
 40
0.0
  0
LTYPE
  5
15
330
5
100
AcDbSymbolTableRecord
100
AcDbLinetypeTableRecord
  2
ByLayer
 70
     0
  3

 72
    65
 73
     0
 40
0.0
  0
LTYPE
  5
16
330
5
100
AcDbSymbolTableRecord
100
AcDbLinetypeTableRecord
  2
Continuous
 70
     0
  3
Solid line
 72
    65
 73
     0
 40
0.0
  0
ENDTAB
  0
TABLE
  2
LAYER
  5
2
330
0
100
AcDbSymbolTable
 70
     2
  0
LAYER
  5
10
330
2
100
AcDbSymbolTableRecord
100
AcDbLayerTableRecord
  2
0
 70
     0
 62
     7
  6
Continuous
370
    -3
390
F
347
46
  0
LAYER
  5
6E
330
2
100
AcDbSymbolTableRecord
100
AcDbLayerTableRecord
  2
Layer 01
 70
     0
 62
    18
420
        0
  6
Continuous
370
    -3
390
F
347
46
  0
ENDTAB
  0
TABLE
  2
STYLE
  5
3
330
0
100
AcDbSymbolTable
 70
     1
  0
STYLE
  5
11
330
3
100
AcDbSymbolTableRecord
100
AcDbTextStyleTableRecord
  2
Standard
 70
     0
 40
0.0
 41
1.0
 50
0.0
 71
     0
 42
0.2
  3
txt
  4

  0
ENDTAB
  0
TABLE
  2
VIEW
  5
6
330
0
100
AcDbSymbolTable
 70
     0
  0
ENDTAB
  0
TABLE
  2
UCS
  5
7
330
0
100
AcDbSymbolTable
 70
     0
  0
ENDTAB
  0
TABLE
  2
APPID
  5
9
330
0
100
AcDbSymbolTable
 70
     2
  0
APPID
  5
12
330
9
100
AcDbSymbolTableRecord
100
AcDbRegAppTableRecord
  2
ACAD
 70
     0
  0
APPID
  5
EB
330
9
100
AcDbSymbolTableRecord
100
AcDbRegAppTableRecord
  2
ACAD_MLEADERVER
 70
     0
  0
ENDTAB
  0
TABLE
  2
DIMSTYLE
  5
A
330
0
100
AcDbSymbolTable
 70
     1
100
AcDbDimStyleTable
  0
DIMSTYLE
105
27
330
A
100
AcDbSymbolTableRecord
100
AcDbDimStyleTableRecord
  2
STANDARD_ACAD
 70
     0
178
     0
340
11
  0
ENDTAB
  0
TABLE
  2
BLOCK_RECORD
  5
1
330
0
100
AcDbSymbolTable
 70
     1
  0
BLOCK_RECORD
  5
1F
330
1
100
AcDbSymbolTableRecord
100
AcDbBlockTableRecord
  2
*Model_Space
340
22
 70
     0
280
     1
281
     0
  0
BLOCK_RECORD
  5
1B
330
1
100
AcDbSymbolTableRecord
100
AcDbBlockTableRecord
  2
*Paper_Space
340
1E
 70
     0
280
     1
281
     0
  0
BLOCK_RECORD
  5
23
330
1
100
AcDbSymbolTableRecord
100
AcDbBlockTableRecord
  2
*Paper_Space0
340
26
 70
     0
280
     1
281
     0
  0
ENDTAB
  0
ENDSEC
  0
SECTION
  2
BLOCKS
  0
BLOCK
  5
20
330
1F
100
AcDbEntity
  8
0
100
AcDbBlockBegin
  2
*Model_Space
 70
     0
 10
0.0
 20
0.0
 30
0.0
  3
*Model_Space
  1

  0
ENDBLK
  5
21
330
1F
100
AcDbEntity
  8
0
100
AcDbBlockEnd
  0
BLOCK
  5
1C
330
1B
100
AcDbEntity
 67
     1
  8
0
100
AcDbBlockBegin
  2
*Paper_Space
 70
     0
 10
0.0
 20
0.0
 30
0.0
  3
*Paper_Space
  1

  0
ENDBLK
  5
1D
330
1B
100
AcDbEntity
 67
     1
  8
0
100
AcDbBlockEnd
  0
BLOCK
  5
24
330
23
100
AcDbEntity
  8
0
100
AcDbBlockBegin
  2
*Paper_Space0
 70
     0
 10
0.0
 20
0.0
 30
0.0
  3
*Paper_Space0
  1

  0
ENDBLK
  5
25
330
23
100
AcDbEntity
  8
0
100
AcDbBlockEnd
  0
ENDSEC
  0
SECTION
  2
ENTITIES
  0
SPLINE
  5
6F
330
1F
100
AcDbEntity
  8
Layer 01
370
    -3
100
AcDbSpline
210
0.0
220
0.0
230
1.0
 70
     8
 71
     3
 72
   108
 73
   104
 74
     0
 42
0.000000001
 43
0.0000000001
 40
-21.99604537371825
 40
-21.99604537371825
 40
-21.99604537371825
 40
-21.99604537371825
 40
-20.99999995721641
 40
-20.99999995721641
 40
-19.99999991443283
 40
-19.99999991443283
 40
-18.99999987164924
 40
-18.99999987164924
 40
-17.99999982886565
 40
-17.99999982886565
 40
-16.99999978608207
 40
-16.99999978608207
 40
-15.99999974329848
 40
-15.99999974329848
 40
-14.9999997005149
 40
-14.9999997005149
 40
-13.99999965773131
 40
-13.99999965773131
 40
-12.99999961494773
 40
-12.99999961494773
 40
-11.99999957216414
 40
-11.99999957216414
 40
-10.99999952938055
 40
-10.99999952938055
 40
-9.99999948659697
 40
-9.99999948659697
 40
-8.999999443813383
 40
-8.999999443813383
 40
-7.999999401029796
 40
-7.999999401029796
 40
-6.999999358246209
 40
-6.999999358246209
 40
-5.999999315462625
 40
-5.999999315462625
 40
-4.999999272679038
 40
-4.999999272679038
 40
-3.999999229895453
 40
-3.999999229895453
 40
-2.999999187111867
 40
-2.999999187111867
 40
-1.999999144328281
 40
-1.999999144328281
 40
-0.9999991015446947
 40
-0.9999991015446947
 40
-0.0000000000000009
 40
-0.0000000000000009
 40
-0.0000000000000009
 40
0.9999978615642932
 40
0.9999978615642932
 40
1.999998574376196
 40
1.999998574376196
 40
2.999999287188098
 40
2.999999287188098
 40
4.0
 40
4.0
 40
4.0
 40
5.0
 40
5.0
 40
5.0
 40
6.0
 40
6.0
 40
7.0
 40
7.0
 40
8.0
 40
8.0
 40
9.0
 40
9.0
 40
9.0
 40
10.0
 40
10.0
 40
11.0
 40
11.0
 40
12.0
 40
12.0
 40
13.0
 40
13.0
 40
14.0
 40
14.0
 40
15.0
 40
15.0
 40
16.0
 40
16.0
 40
17.0
 40
17.0
 40
18.0
 40
18.0
 40
19.0
 40
19.0
 40
20.0
 40
20.0
 40
21.0
 40
21.0
 40
22.0
 40
22.0
 40
23.0
 40
23.0
 40
24.0
 40
24.0
 40
25.0
 40
25.0
 40
26.0
 40
26.0
 40
27.17151327209065
 40
27.17151327209065
 40
27.17151327209065
 40
27.17151327209065
 10
29.23554898475257
 20
17.68732964154096
 30
0.0
 10
29.44149314950729
 20
17.69253084625126
 30
0.0
 10
29.64742537600799
 20
17.69816593916133
 30
0.0
 10
30.06008352343769
 20
17.71032799722228
 30
0.0
 10
30.26682085634374
 20
17.71643545121583
 30
0.0
 10
30.68029446960185
 20
17.7286791132879
 30
0.0
 10
30.88702851217783
 20
17.73489369943838
 30
0.0
 10
31.30049106922363
 20
17.74750838196821
 30
0.0
 10
31.50721862482422
 20
17.75393538714134
 30
0.0
 10
31.92066629018078
 20
17.76702872530399
 30
0.0
 10
32.1273869262419
 20
17.77367477772738
 30
0.0
 10
32.54082180512987
 20
17.7871656492583
 30
0.0
 10
32.74753671891322
 20
17.79398748593679
 30
0.0
 10
33.16096149515867
 20
17.80778396111985
 30
0.0
 10
33.3676720359019
 20
17.81473697611204
 30
0.0
 10
33.78108942262938
 20
17.82875256089772
 30
0.0
 10
33.98779689983879
 20
17.83579623576142
 30
0.0
 10
34.40120942194896
 20
17.8499553504306
 30
0.0
 10
34.60791527766598
 20
17.85704649175318
 30
0.0
 10
35.02132617842391
 20
17.87125194237438
 30
0.0
 10
35.2280321317529
 20
17.87834001454872
 30
0.0
 10
35.64144504431095
 20
17.89248685262487
 30
0.0
 10
35.84815296212553
 20
17.89951769986328
 30
0.0
 10
36.26157172082583
 20
17.91349425074081
 30
0.0
 10
36.4682834663287
 20
17.92041148384675
 30
0.0
 10
36.88171168963985
 20
17.93410386539293
 30
0.0
 10
37.08842912893679
 20
17.94084833140265
 30
0.0
 10
37.50187066281343
 20
17.95413381389535
 30
0.0
 10
37.70859577784716
 20
17.96063879698378
 30
0.0
 10
38.12205470410539
 20
17.97337324684482
 30
0.0
 10
38.32879030627416
 20
17.97953559257978
 30
0.0
 10
38.74227378869102
 20
17.9914505256586
 30
0.0
 10
38.94902379723509
 20
17.99710962976937
 30
0.0
 10
39.3625403489945
 20
18.00783111313361
 30
0.0
 10
39.56931076337241
 20
18.01267835349891
 30
0.0
 10
39.98287586912466
 20
18.02134583159592
 30
0.0
 10
40.18966776127915
 20
18.02514078040283
 30
0.0
 10
40.60327022414488
 20
18.0316530975335
 30
0.0
 10
40.81009380521763
 20
18.03357875678468
 30
0.0
 10
41.2237856666429
 20
18.03476907665873
 30
0.0
 10
41.4305604681831
 20
18.03192211856481
 30
0.0
 10
41.84396781291861
 20
18.01934396631508
 30
0.0
 10
42.0505671955892
 20
18.00713068010436
 30
0.0
 10
42.46355718717484
 20
17.97085570458294
 30
0.0
 10
42.66594568311174
 20
17.9308856143393
 30
0.0
 10
42.8642277763733
 20
17.86908291307687
 30
0.0
 10
42.93708096608761
 20
17.84602763698554
 30
0.0
 10
43.00862031563383
 20
17.8194414875557
 30
0.0
 10
43.14907153462082
 20
17.75920735614772
 30
0.0
 10
43.2172934828263
 20
17.7250427534358
 30
0.0
 10
43.34972985643051
 20
17.64861855986739
 30
0.0
 10
43.413525818944
 20
17.60677394042984
 30
0.0
 10
43.53627329539381
 20
17.51581965624806
 30
0.0
 10
43.59636497481296
 20
17.46873287666568
 30
0.0
 10
43.65517459542633
 20
17.42003645959179
 30
0.0
 10
43.7286275779968
 20
17.35921482807533
 30
0.0
 10
43.86661250417086
 20
17.521145486653
 30
0.0
 10
43.75054251931437
 20
17.62292198202124
 30
0.0
 10
43.68726919425725
 20
17.6784034855518
 30
0.0
 10
43.62877658113498
 20
17.72682792909771
 30
0.0
 10
43.52135277876013
 20
17.80956269622018
 30
0.0
 10
43.46585643158006
 20
17.84840521957844
 30
0.0
 10
43.35129484523468
 20
17.921040545889
 30
0.0
 10
43.287745287733
 20
17.95683914875076
 30
0.0
 10
43.14810864407167
 20
18.02739823388723
 30
0.0
 10
43.08140348785664
 20
18.05683814236893
 30
0.0
 10
43.01781149725724
 20
18.08043841676411
 30
0.0
 10
42.78339408706133
 20
18.16743546075479
 30
0.0
 10
42.542072553332
 20
18.22229731209414
 30
0.0
 10
42.04562123880651
 20
18.26775062947017
 30
0.0
 10
41.79735409734432
 20
18.28216596928586
 30
0.0
 10
41.30073684602106
 20
18.29437401117258
 30
0.0
 10
41.05235245643239
 20
18.29618309401375
 30
0.0
 10
40.55543214940099
 20
18.29121138349172
 30
0.0
 10
40.30700569957265
 20
18.28753164946733
 30
0.0
 10
39.81022020729068
 20
18.27778442389182
 30
0.0
 10
39.56184057510436
 20
18.27222940399674
 30
0.0
 10
39.06510753864106
 20
18.2597565499919
 30
0.0
 10
38.81675322697318
 20
18.25308555340132
 30
0.0
 10
38.32006901676497
 20
18.23887442104386
 30
0.0
 10
38.07173505175217
 20
18.23149331112959
 30
0.0
 10
37.57508340190918
 20
18.21618000382997
 30
0.0
 10
37.32676332799181
 20
18.20834258411878
 30
0.0
 10
36.83013468216532
 20
18.19230621257363
 30
0.0
 10
36.5818243290814
 20
18.18416710645282
 30
0.0
 10
36.0852115625722
 20
18.16764705351475
 30
0.0
 10
35.83690744831534
 20
18.1593196504702
 30
0.0
 10
35.34030375779713
 20
18.14253009123007
 30
0.0
 10
35.09200249460934
 20
18.13411772253184
 30
0.0
 10
34.59540113237637
 20
18.11725780697904
 30
0.0
 10
34.34709953227937
 20
18.10885559104197
 30
0.0
 10
33.85049449412427
 20
18.09210664284649
 30
0.0
 10
33.60218958842625
 20
18.08380293492112
 30
0.0
 10
33.10557500378923
 20
18.06733705141512
 30
0.0
 10
32.85726413450565
 20
18.05921372872554
 30
0.0
 10
32.36063524200832
 20
18.04318632147323
 30
0.0
 10
32.11231599213671
 20
18.03532354705029
 30
0.0
 10
31.61566788514761
 20
18.01989985661084
 30
0.0
 10
31.36733790002105
 20
18.01238435140449
 30
0.0
 10
30.87066606650391
 20
17.99774602101853
 30
0.0
 10
30.62232585869324
 20
17.99057596582931
 30
0.0
 10
30.08304248336205
 20
17.97532989017643
 30
0.0
 10
29.79210150340934
 20
17.96717971145507
 30
0.0
 10
29.50115841997234
 20
17.95910448447974
 30
0.0
  0
SPLINE
  5
70
330
1F
100
AcDbEntity
  8
Layer 01
370
    -3
100
AcDbSpline
210
0.0
220
0.0
230
1.0
 70
     8
 71
     2
 72
    23
 73
    20
 74
     0
 42
0.000000001
 43
0.0000000001
 40
0.0
 40
0.0
 40
0.0
 40
1.0
 40
2.0
 40
3.0
 40
4.0
 40
5.0
 40
6.0
 40
7.0
 40
8.0
 40
9.0
 40
10.0
 40
11.0
 40
12.0
 40
13.0
 40
14.0
 40
15.0
 40
16.0
 40
17.0
 40
17.97741831064248
 40
17.97741831064248
 40
17.97741831064248
 10
42.94170928638562
 20
18.1079566339553
 30
0.0
 10
42.58949469259142
 20
18.2269208823527
 30
0.0
 10
41.85479860043057
 20
18.33768263688295
 30
0.0
 10
41.11339916925039
 20
18.36564470505914
 30
0.0
 10
40.37183100951279
 20
18.3690232618805
 30
0.0
 10
39.63025892278273
 20
18.36449414797668
 30
0.0
 10
38.88879750538229
 20
18.35096458376807
 30
0.0
 10
38.14747193882715
 20
18.33155098737181
 30
0.0
 10
37.40625952813633
 20
18.30824977134944
 30
0.0
 10
36.66512572237107
 20
18.28258762992563
 30
0.0
 10
35.92407821069372
 20
18.25453948154359
 30
0.0
 10
35.18313328366145
 20
18.22389930707567
 30
0.0
 10
34.44229286240119
 20
18.19083420687761
 30
0.0
 10
33.70153319999787
 20
18.15601293537916
 30
0.0
 10
32.96081690266845
 20
18.12028467443652
 30
0.0
 10
32.22011434962587
 20
18.08427356790593
 30
0.0
 10
31.47939631546444
 20
18.04857975379264
 30
0.0
 10
30.73864312680024
 20
18.01363316430881
 30
0.0
 10
30.0062435954116
 20
17.97924134273069
 30
0.0
 10
29.64412476581032
 20
17.9645716454533
 30
0.0
  0
SPLINE
  5
71
330
1F
100
AcDbEntity
  8
Layer 01
370
    -3
100
AcDbSpline
210
0.0
220
0.0
230
1.0
 70
     8
 71
     5
 72
    18
 73
    12
 74
     0
 42
0.000000001
 43
0.0000000001
 40
23.40915079708069
 40
23.40915079708069
 40
23.40915079708069
 40
23.40915079708069
 40
23.40915079708069
 40
23.40915079708069
 40
23.41311664401287
 40
23.42501027401287
 40
23.44879753301288
 40
23.47258479201287
 40
23.49637205101287
 40
23.52015931001288
 40
23.53494741991311
 40
23.53494741991311
 40
23.53494741991311
 40
23.53494741991311
 40
23.53494741991311
 40
23.53494741991311
 10
43.65744516478128
 20
17.4184349759419
 30
0.0
 10
43.64417151345557
 20
17.42557556930867
 30
0.0
 10
43.59072333181655
 20
17.45359249007146
 30
0.0
 10
43.45359675665179
 20
17.51832945108222
 30
0.0
 10
43.22287541330292
 20
17.60210891734723
 30
0.0
 10
42.89474998531466
 20
17.67958876177155
 30
0.0
 10
42.48219978331471
 20
17.73315655763637
 30
0.0
 10
42.05726313968853
 20
17.75141174822053
 30
0.0
 10
41.72715207172672
 20
17.75401578602269
 30
0.0
 10
41.4904473836171
 20
17.74975175543514
 30
0.0
 10
41.34521330108774
 20
17.74539555020815
 30
0.0
 10
41.28972801569626
 20
17.74350762889577
 30
0.0
  0
SPLINE
  5
72
330
1F
100
AcDbEntity
  8
Layer 01
370
    -3
100
AcDbSpline
210
0.0
220
0.0
230
1.0
 70
    12
 71
     3
 72
    23
 73
    19
 74
     0
 42
0.000000001
 43
0.0000000001
 40
-0.0940356089726031
 40
-0.0940356089726031
 40
-0.0940356089726031
 40
-0.0940356089726031
 40
0.0
 40
0.0
 40
0.0
 40
1.0
 40
1.0
 40
1.0
 40
1.394662577107218
 40
1.394662577107218
 40
1.394662577107218
 40
1.735645870558158
 40
1.735645870558158
 40
1.735645870558158
 40
2.735645870558158
 40
2.735645870558158
 40
2.735645870558158
 40
2.824415438499726
 40
2.824415438499726
 40
2.824415438499726
 40
2.824415438499726
 10
6.959519256701185
 20
16.52260020053965
 30
0.0
 41
1.0
 10
6.963099208928952
 20
16.4914647758697
 30
0.0
 41
1.0
 10
6.966679161156719
 20
16.46032935119975
 30
0.0
 41
1.0
 10
6.970259113384486
 20
16.4291939265298
 30
0.0
 41
1.0
 10
6.972271234573498
 20
16.41169418247681
 30
0.0
 41
1.0
 10
6.961840175741429
 20
16.40089191716322
 30
0.0
 41
1.0
 10
6.943881790542974
 20
16.39596787862348
 30
0.0
 41
1.0
 10
6.925031066038677
 20
16.39079916813334
 30
0.0
 41
0.8047378541243649
 10
6.821845687662146
 20
16.37713199542221
 30
0.0
 41
0.8047378541243649
 10
6.694770250627755
 20
16.36297240490498
 30
0.0
 41
1.0
 10
6.572477904215279
 20
16.34891122659705
 30
0.0
 41
0.8312960654263303
 10
6.474915959149296
 20
16.33903336407445
 30
0.0
 41
0.808350118981933
 10
6.449727766675045
 20
16.33828672299687
 30
0.0
 41
0.9311621606668077
 10
6.428396503582405
 20
16.33765441096106
 30
0.0
 41
0.9311621606668077
 10
6.413710829018896
 20
16.34519893634778
 30
0.0
 41
0.9311621606668077
 10
6.411440887318605
 20
16.36494098716818
 30
0.0
 41
0.9311621606668077
 10
6.408061414202185
 20
16.39433281251844
 30
0.0
 41
0.9311621606668077
 10
6.404681941085765
 20
16.42372463786871
 30
0.0
 41
0.9311621606668077
 10
6.401302467969344
 20
16.45311646321898
 30
0.0
 41
0.9311621606668077
  0
SPLINE
  5
73
330
1F
100
AcDbEntity
  8
Layer 01
370
    -3
100
AcDbSpline
210
0.0
220
0.0
230
1.0
 70
    15
 71
     2
 72
    45
 73
    42
 74
     0
 42
0.000000001
 43
0.0000000001
 40
18.10554176929185
 40
18.10554176929185
 40
18.10554176929185
 40
18.20054176929184
 40
18.20054176929184
 40
19.20054176929184
 40
20.20054176929184
 40
21.20054176929184
 40
22.20054176929184
 40
23.20054176929184
 40
24.20054176929185
 40
25.20054176929185
 40
26.20054176929185
 40
27.20054176929185
 40
28.20054176929185
 40
29.20054176929185
 40
30.20054176929185
 40
31.20054176929185
 40
32.20054176929185
 40
33.20054176929185
 40
34.20054176929185
 40
35.20054176929185
 40
35.20054176929185
 40
35.29554176929185
 40
35.29554176929185
 40
36.29554176929185
 40
37.29554176929185
 40
38.29554176929185
 40
39.29554176929185
 40
40.29554176929185
 40
41.29554176929185
 40
42.29554176929185
 40
43.29554176929185
 40
44.29554176929185
 40
45.29554176929185
 40
46.29554176929185
 40
47.29554176929185
 40
48.29554176929185
 40
49.29554176929185
 40
50.29554176929185
 40
51.29554176929185
 40
52.29554176929185
 40
53.29554176929185
 40
53.29554176929185
 40
53.29554176929185
 10
4.131333475235722
 20
16.68212325251834
 30
0.0
 41
0.9969152063605844
 10
4.135843592200549
 20
16.63510015614887
 30
0.0
 41
0.9969152063605844
 10
4.140353709165375
 20
16.5880770597794
 30
0.0
 41
0.9969152063605844
 10
4.141094532876139
 20
16.56899602430672
 30
0.0
 41
0.9969152063605844
 10
4.112525733876538
 20
16.54500290037628
 30
0.0
 41
0.9969152063605844
 10
4.07783708570787
 20
16.53611207299164
 30
0.0
 41
0.9969152063605844
 10
4.04315806227777
 20
16.52833467571036
 30
0.0
 41
0.9969152063605844
 10
4.008142526210833
 20
16.52195752892621
 30
0.0
 41
0.9969152063605844
 10
3.97300774502628
 20
16.51634891198826
 30
0.0
 41
0.9969152063605844
 10
3.937757711142297
 20
16.51150304070162
 30
0.0
 41
0.9969152063605844
 10
3.902425236920209
 20
16.50730690186319
 30
0.0
 41
0.9969152063605844
 10
3.867032456317787
 20
16.50365522227946
 30
0.0
 41
0.9969152063605844
 10
3.831592029439776
 20
16.50049979189277
 30
0.0
 41
0.9969152063605844
 10
3.79610698333147
 20
16.49789208301926
 30
0.0
 41
0.9969152063605844
 10
3.760582786836466
 20
16.49587825149229
 30
0.0
 41
0.9969152063605844
 10
3.725026499999046
 20
16.49457627431577
 30
0.0
 41
0.9969152063605844
 10
3.689439754372132
 20
16.49412990041148
 30
0.0
 41
0.9969152063605844
 10
3.653901457585306
 20
16.49535459169673
 30
0.0
 41
0.9969152063605844
 10
3.618232970637393
 20
16.49673170742513
 30
0.0
 41
0.9969152063605844
 10
3.585068461354809
 20
16.51361064108588
 30
0.0
 41
0.9969152063605844
 10
3.580576663041646
 20
16.53321178572386
 30
0.0
 41
0.9969152063605844
 10
3.57598985830767
 20
16.58081527108948
 30
0.0
 41
0.9969152063605844
 10
3.571403053573713
 20
16.6284187564551
 30
0.0
 41
0.9969152063605844
 10
3.58156119429998
 20
16.64015145901016
 30
0.0
 41
0.9969152063605844
 10
3.613249078011847
 20
16.64831731941399
 30
0.0
 41
0.9969152063605844
 10
3.64401499437804
 20
16.65566305031061
 30
0.0
 41
0.9969152063605844
 10
3.675267772617133
 20
16.66165742191871
 30
0.0
 41
0.9969152063605844
 10
3.706612221925838
 20
16.66693746971238
 30
0.0
 41
0.9969152063605844
 10
3.738055036101031
 20
16.67163562406645
 30
0.0
 41
0.9969152063605844
 10
3.769564074835927
 20
16.67585730843351
 30
0.0
 41
0.9969152063605844
 10
3.801126795693875
 20
16.67965758054273
 30
0.0
 41
0.9969152063605844
 10
3.832733912700178
 20
16.68306826605443
 30
0.0
 41
0.9969152063605844
 10
3.864379278019641
 20
16.68610346170854
 30
0.0
 41
0.9969152063605844
 10
3.896058460199157
 20
16.68876274258633
 30
0.0
 41
0.9969152063605844
 10
3.927768116133024
 20
16.69103110131453
 30
0.0
 41
0.9969152063605844
 10
3.9595051529096
 20
16.69287552578951
 30
0.0
 41
0.9969152063605844
 10
3.991267757666094
 20
16.69423958001246
 30
0.0
 41
0.9969152063605844
 10
4.023044388443339
 20
16.69501365183641
 30
0.0
 41
0.9969152063605844
 10
4.054866792503504
 20
16.69506899803321
 30
0.0
 41
0.9969152063605844
 10
4.086468075083105
 20
16.69370508025854
 30
0.0
 41
0.9969152063605844
 10
4.119130408366118
 20
16.69171122910846
 30
0.0
 41
0.9969152063605844
 10
4.131333475235693
 20
16.68212325251834
 30
0.0
 41
0.9969152063605844
  0
SPLINE
  5
74
330
1F
100
AcDbEntity
  8
Layer 01
370
    -3
100
AcDbSpline
210
0.0
220
0.0
230
1.0
 70
     8
 71
     2
 72
    23
 73
    20
 74
     0
 42
0.000000001
 43
0.0000000001
 40
0.0
 40
0.0
 40
0.0
 40
1.0
 40
2.0
 40
3.0
 40
4.0
 40
5.0
 40
6.0
 40
7.0
 40
8.0
 40
9.0
 40
10.0
 40
11.0
 40
12.0
 40
13.0
 40
14.0
 40
15.0
 40
16.0
 40
17.0
 40
18.0
 40
18.0
 40
18.0
 10
4.113260433812655
 20
16.55452666101078
 30
0.0
 10
4.103777430868377
 20
16.56413631308797
 30
0.0
 10
4.074011791778958
 20
16.56577488211745
 30
0.0
 10
4.045750745808704
 20
16.5670754087172
 30
0.0
 10
4.017194190303712
 20
16.56703714319262
 30
0.0
 10
3.988694936680588
 20
16.5663551183459
 30
0.0
 10
3.960205422661204
 20
16.56513839412815
 30
0.0
 10
3.931739364916382
 20
16.56348845529109
 30
0.0
 10
3.903297870533436
 20
16.56145636455598
 30
0.0
 10
3.87488381546035
 20
16.55907214421042
 30
0.0
 10
3.846500203792431
 20
16.55634939529244
 30
0.0
 10
3.81815106147593
 20
16.55328848871295
 30
0.0
 10
3.789841925437258
 20
16.54987660969245
 30
0.0
 10
3.761581341778282
 20
16.54608478540333
 30
0.0
 10
3.733380074965879
 20
16.54186303805242
 30
0.0
 10
3.705271179804413
 20
16.53711417029371
 30
0.0
 10
3.677227148472241
 20
16.53172211671358
 30
0.0
 10
3.649736049285792
 20
16.52506915725883
 30
0.0
 10
3.620786833341185
 20
16.51780300022931
 30
0.0
 10
3.61342859819672
 20
16.50652340946327
 30
0.0
  0
SPLINE
  5
75
330
1F
100
AcDbEntity
  8
Layer 01
370
    -3
100
AcDbSpline
210
0.0
220
0.0
230
1.0
 70
     8
 71
     2
 72
    67
 73
    64
 74
     0
 42
0.000000001
 43
0.0000000001
 40
0.0
 40
0.0
 40
0.0
 40
1.000195748633265
 40
2.00039149726653
 40
3.000587245899795
 40
4.000782994533061
 40
5.000978743166326
 40
6.001174491799591
 40
7.001370240432855
 40
8.0
 40
8.0
 40
8.70886125239439
 40
8.70886125239439
 40
9.708319179331072
 40
10.70837940967144
 40
11.70843964001181
 40
12.70849987035218
 40
13.70856010069255
 40
14.70862033103292
 40
15.70868056137328
 40
16.70874079171366
 40
17.70880102205402
 40
18.70886125239439
 40
18.70886125239439
 40
19.70886125239439
 40
19.70886125239439
 40
20.70886125239439
 40
20.70886125239439
 40
21.70886125239439
 40
22.70886125239439
 40
23.70886125239439
 40
24.70886125239439
 40
25.70886125239439
 40
26.70886125239439
 40
27.70886125239439
 40
28.70886125239439
 40
29.70886125239439
 40
30.70886125239439
 40
30.70886125239439
 40
31.70886125239439
 40
31.70886125239439
 40
32.70886125239439
 40
32.70886125239439
 40
32.85765838157067
 40
32.85765838157067
 40
33.00645551074696
 40
33.00645551074696
 40
33.15525263992325
 40
33.15525263992325
 40
33.30404976909954
 40
33.30404976909954
 40
33.45284689827582
 40
33.45284689827582
 40
33.60164402745211
 40
33.60164402745211
 40
33.7504411566284
 40
33.7504411566284
 40
33.89923828580469
 40
33.89923828580469
 40
34.04803541498097
 40
34.04803541498097
 40
34.19683254415726
 40
34.19683254415726
 40
35.12811211580976
 40
35.12811211580976
 40
35.12811211580976
 10
8.466524766725911
 20
16.96512924190834
 30
0.0
 10
8.42626842848162
 20
16.94124025017089
 30
0.0
 10
8.336980925919335
 20
16.91353554315366
 30
0.0
 10
8.244419307396129
 20
16.90175738384909
 30
0.0
 10
8.151284189533072
 20
16.89854795939029
 30
0.0
 10
8.05811996482322
 20
16.89923381309107
 30
0.0
 10
7.964981448407883
 20
16.90129795724602
 30
0.0
 10
7.871847683243232
 20
16.9035510494773
 30
0.0
 10
7.778786835827077
 20
16.90580520990634
 30
0.0
 10
7.732285988655917
 20
16.90667152150286
 30
0.0
 10
8.005078310894419
 20
16.93890509145962
 30
0.0
 10
8.27787063313292
 20
16.97113866141638
 30
0.0
 10
8.352039491935386
 20
16.97977177440818
 30
0.0
 10
8.500558587085038
 20
16.96334814734227
 30
0.0
 10
8.640976772067745
 20
16.91203982109792
 30
0.0
 10
8.765907217086436
 20
16.83016188510058
 30
0.0
 10
8.87217107177787
 20
16.72541224253553
 30
0.0
 10
8.959396565874187
 20
16.60449716154826
 30
0.0
 10
9.028579673056555
 20
16.47251608924952
 30
0.0
 10
9.081121460210596
 20
16.33312967474785
 30
0.0
 10
9.118378217281332
 20
16.18893789812068
 30
0.0
 10
9.141510671425891
 20
16.04184110932234
 30
0.0
 10
9.14645133642756
 20
15.96755722857154
 30
0.0
 10
9.671747387534964
 20
8.124554317423055
 30
0.0
 10
10.19704343864237
 20
0.2815514062745708
 30
0.0
 10
10.2097060841039
 20
0.2310185577255808
 30
0.0
 10
10.22236872956543
 20
0.1804857091765909
 30
0.0
 10
10.23334514924403
 20
0.1390820823707722
 30
0.0
 10
10.30020603909904
 20
0.0881872656764872
 30
0.0
 10
10.37944189006873
 20
0.064469945878139
 30
0.0
 10
10.46012340489929
 20
0.0485149431866631
 30
0.0
 10
10.5423195174705
 20
0.0431450590524854
 30
0.0
 10
10.62451112620386
 20
0.0480140906595736
 30
0.0
 10
10.70549211417404
 20
0.0630535467254091
 30
0.0
 10
10.78376187676056
 20
0.0884129600920139
 30
0.0
 10
10.85942999816319
 20
0.1213808833886197
 30
0.0
 10
10.92856480544634
 20
0.185586212894254
 30
0.0
 10
10.93333710536186
 20
0.2280945748554929
 30
0.0
 10
10.93914918122212
 20
0.2798645450562392
 30
0.0
 10
10.94496125708238
 20
0.3316345152569855
 30
0.0
 10
10.41987396110544
 20
8.174566694101163
 30
0.0
 10
9.894786665128493
 20
16.01749887294534
 30
0.0
 10
9.88761352946483
 20
16.1252346428705
 30
0.0
 10
9.870838911679783
 20
16.23190263382716
 30
0.0
 10
9.85362491954075
 20
16.3413645590612
 30
0.0
 10
9.825901727839806
 20
16.44865935816418
 30
0.0
 10
9.797166854015302
 20
16.55986958776217
 30
0.0
 10
9.756646327287854
 20
16.66736518774439
 30
0.0
 10
9.714174249543731
 20
16.78003799454923
 30
0.0
 10
9.658257916816552
 20
16.88670995325285
 30
0.0
 10
9.59888155306399
 20
16.99998263608576
 30
0.0
 10
9.524036799110206
 20
17.10373509492307
 30
0.0
 10
9.443558249513728
 20
17.21529732157495
 30
0.0
 10
9.345550041058516
 20
17.31190895714882
 30
0.0
 10
9.239348094545278
 20
17.41659757369937
 30
0.0
 10
9.114556348215757
 20
17.49838460821634
 30
0.0
 10
8.97968816268525
 20
17.58677562180229
 30
0.0
 10
8.828169819382566
 20
17.64213990806717
 30
0.0
 10
8.672951330626546
 20
17.69885621487052
 30
0.0
 10
8.508711118032465
 20
17.71701832391214
 30
0.0
 10
8.349667958030409
 20
17.73460572938768
 30
0.0
 10
8.190755094966505
 20
17.71604035313923
 30
0.0
 10
7.728475232848396
 20
17.66020363381959
 30
0.0
 10
7.266195370730287
 20
17.60436691449995
 30
0.0
  0
SPLINE
  5
76
330
1F
100
AcDbEntity
  8
Layer 01
370
    -3
100
AcDbSpline
210
0.0
220
0.0
230
1.0
 70
     8
 71
     2
 72
    67
 73
    64
 74
     0
 42
0.000000001
 43
0.0000000001
 40
0.0
 40
0.0
 40
0.0
 40
1.000195748633265
 40
2.00039149726653
 40
3.000587245899795
 40
4.000782994533061
 40
5.000978743166326
 40
6.001174491799591
 40
7.001370240432855
 40
8.0
 40
8.0
 40
8.70886125239439
 40
8.70886125239439
 40
9.708319179331072
 40
10.70837940967144
 40
11.70843964001181
 40
12.70849987035218
 40
13.70856010069255
 40
14.70862033103292
 40
15.70868056137328
 40
16.70874079171366
 40
17.70880102205402
 40
18.70886125239439
 40
18.70886125239439
 40
19.70886125239439
 40
19.70886125239439
 40
20.70886125239439
 40
20.70886125239439
 40
21.70886125239439
 40
22.70886125239439
 40
23.70886125239439
 40
24.70886125239439
 40
25.70886125239439
 40
26.70886125239439
 40
27.70886125239439
 40
28.70886125239439
 40
29.70886125239439
 40
30.70886125239439
 40
30.70886125239439
 40
31.70886125239439
 40
31.70886125239439
 40
32.70886125239439
 40
32.70886125239439
 40
32.85765838157067
 40
32.85765838157067
 40
33.00645551074696
 40
33.00645551074696
 40
33.15525263992325
 40
33.15525263992325
 40
33.30404976909954
 40
33.30404976909954
 40
33.45284689827582
 40
33.45284689827582
 40
33.60164402745211
 40
33.60164402745211
 40
33.7504411566284
 40
33.7504411566284
 40
33.89923828580469
 40
33.89923828580469
 40
34.04803541498097
 40
34.04803541498097
 40
34.19683254415726
 40
34.19683254415726
 40
35.12811211580976
 40
35.12811211580976
 40
35.12811211580976
 10
-8.466524766725911
 20
16.96512924190834
 30
0.0
 10
-8.426268428481592
 20
16.94124025017089
 30
0.0
 10
-8.336980925919306
 20
16.91353554315366
 30
0.0
 10
-8.244419307396129
 20
16.90175738384909
 30
0.0
 10
-8.151284189533044
 20
16.89854795939029
 30
0.0
 10
-8.058119964823192
 20
16.89923381309107
 30
0.0
 10
-7.964981448407855
 20
16.90129795724602
 30
0.0
 10
-7.871847683243203
 20
16.9035510494773
 30
0.0
 10
-7.778786835827077
 20
16.90580520990634
 30
0.0
 10
-7.732285988655917
 20
16.90667152150286
 30
0.0
 10
-8.005078310894405
 20
16.93890509145962
 30
0.0
 10
-8.277870633132892
 20
16.97113866141638
 30
0.0
 10
-8.352039491935358
 20
16.97977177440818
 30
0.0
 10
-8.50055858708501
 20
16.96334814734227
 30
0.0
 10
-8.640976772067717
 20
16.91203982109792
 30
0.0
 10
-8.765907217086408
 20
16.83016188510058
 30
0.0
 10
-8.872171071777842
 20
16.72541224253553
 30
0.0
 10
-8.959396565874158
 20
16.60449716154826
 30
0.0
 10
-9.028579673056527
 20
16.47251608924952
 30
0.0
 10
-9.081121460210568
 20
16.33312967474785
 30
0.0
 10
-9.118378217281304
 20
16.18893789812068
 30
0.0
 10
-9.141510671425863
 20
16.04184110932234
 30
0.0
 10
-9.14645133642756
 20
15.96755722857154
 30
0.0
 10
-9.671747387534964
 20
8.124554317423055
 30
0.0
 10
-10.19704343864237
 20
0.2815514062745708
 30
0.0
 10
-10.20970608410389
 20
0.2310185577255808
 30
0.0
 10
-10.2223687295654
 20
0.1804857091765909
 30
0.0
 10
-10.23334514924403
 20
0.1390820823707722
 30
0.0
 10
-10.30020603909901
 20
0.0881872656764872
 30
0.0
 10
-10.37944189006873
 20
0.064469945878139
 30
0.0
 10
-10.46012340489926
 20
0.0485149431866631
 30
0.0
 10
-10.5423195174705
 20
0.0431450590524854
 30
0.0
 10
-10.62451112620383
 20
0.0480140906595736
 30
0.0
 10
-10.70549211417404
 20
0.0630535467254091
 30
0.0
 10
-10.78376187676054
 20
0.0884129600920139
 30
0.0
 10
-10.85942999816319
 20
0.1213808833886197
 30
0.0
 10
-10.92856480544634
 20
0.185586212894254
 30
0.0
 10
-10.93333710536183
 20
0.2280945748554929
 30
0.0
 10
-10.93914918122209
 20
0.2798645450562392
 30
0.0
 10
-10.94496125708235
 20
0.3316345152569855
 30
0.0
 10
-10.41987396110542
 20
8.174566694101163
 30
0.0
 10
-9.894786665128493
 20
16.01749887294534
 30
0.0
 10
-9.8876135294648
 20
16.1252346428705
 30
0.0
 10
-9.870838911679755
 20
16.23190263382716
 30
0.0
 10
-9.85362491954072
 20
16.3413645590612
 30
0.0
 10
-9.825901727839806
 20
16.44865935816418
 30
0.0
 10
-9.797166854015302
 20
16.55986958776217
 30
0.0
 10
-9.756646327287825
 20
16.66736518774439
 30
0.0
 10
-9.714174249543703
 20
16.78003799454923
 30
0.0
 10
-9.658257916816524
 20
16.88670995325285
 30
0.0
 10
-9.59888155306399
 20
16.99998263608576
 30
0.0
 10
-9.524036799110206
 20
17.10373509492307
 30
0.0
 10
-9.443558249513728
 20
17.21529732157495
 30
0.0
 10
-9.345550041058516
 20
17.31190895714882
 30
0.0
 10
-9.239348094545278
 20
17.41659757369937
 30
0.0
 10
-9.114556348215729
 20
17.49838460821634
 30
0.0
 10
-8.97968816268525
 20
17.58677562180229
 30
0.0
 10
-8.828169819382538
 20
17.64213990806717
 30
0.0
 10
-8.672951330626518
 20
17.69885621487052
 30
0.0
 10
-8.508711118032465
 20
17.71701832391214
 30
0.0
 10
-8.349667958030409
 20
17.73460572938768
 30
0.0
 10
-8.190755094966505
 20
17.71604035313923
 30
0.0
 10
-7.728475232848382
 20
17.66020363381959
 30
0.0
 10
-7.266195370730259
 20
17.60436691449995
 30
0.0
  0
SPLINE
  5
77
330
1F
100
AcDbEntity
  8
Layer 01
370
    -3
100
AcDbSpline
210
0.0
220
0.0
230
1.0
 70
    12
 71
     2
 72
    19
 73
    16
 74
     0
 42
0.000000001
 43
0.0000000001
 40
0.0
 40
0.0
 40
0.0
 40
1.0
 40
2.0
 40
3.0
 40
4.0
 40
5.0
 40
6.0
 40
7.0
 40
8.0
 40
9.0
 40
10.0
 40
11.0
 40
12.0
 40
12.0
 40
12.01801855534592
 40
12.01801855534592
 40
12.01801855534592
 10
10.94501530495035
 20
0.3338745909263673
 30
0.0
 41
1.0
 10
10.93631627743798
 20
0.3003006033231013
 30
0.0
 41
1.0
 10
10.87333829100896
 20
0.2700495130210231
 30
0.0
 41
1.0
 10
10.8103276064079
 20
0.2492341658509853
 30
0.0
 41
1.0
 10
10.7451019762012
 20
0.2342505612429199
 30
0.0
 41
1.0
 10
10.6792037242185
 20
0.2232905653163618
 30
0.0
 41
1.0
 10
10.61282105776854
 20
0.2156716793694569
 30
0.0
 41
1.0
 10
10.54616368334723
 20
0.2111064857275287
 30
0.0
 41
1.0
 10
10.47936318931306
 20
0.2095948429587308
 30
0.0
 41
1.0
 10
10.41258108683229
 20
0.2114275783768089
 30
0.0
 41
1.0
 10
10.34593772016711
 20
0.2172663859491313
 30
0.0
 41
1.0
 10
10.28048794024218
 20
0.2290091672780561
 30
0.0
 41
1.0
 10
10.21456507434357
 20
0.2495523226941429
 30
0.0
 41
1.0
 10
10.19739567082297
 20
0.2793385364530832
 30
0.0
 41
1.0
 10
10.19684037962744
 20
0.2815365938312839
 30
0.0
 41
1.004933129296679
 10
10.19669120648811
 20
0.2837642760018397
 30
0.0
 41
1.010439181883473
  0
SPLINE
  5
78
330
1F
100
AcDbEntity
  8
Layer 01
370
    -3
100
AcDbSpline
210
0.0
220
0.0
230
1.0
 70
    12
 71
     2
 72
    19
 73
    16
 74
     0
 42
0.000000001
 43
0.0000000001
 40
0.0
 40
0.0
 40
0.0
 40
1.0
 40
2.0
 40
3.0
 40
4.0
 40
5.0
 40
6.0
 40
7.0
 40
8.0
 40
9.0
 40
10.0
 40
11.0
 40
12.0
 40
12.0
 40
12.01801855534592
 40
12.01801855534592
 40
12.01801855534592
 10
-10.94501530495035
 20
0.3338745909263673
 30
0.0
 41
1.0
 10
-10.93631627743798
 20
0.3003006033231013
 30
0.0
 41
1.0
 10
-10.87333829100896
 20
0.2700495130210231
 30
0.0
 41
1.0
 10
-10.81032760640787
 20
0.2492341658509853
 30
0.0
 41
1.0
 10
-10.74510197620117
 20
0.2342505612429199
 30
0.0
 41
1.0
 10
-10.6792037242185
 20
0.2232905653163618
 30
0.0
 41
1.0
 10
-10.61282105776854
 20
0.2156716793694569
 30
0.0
 41
1.0
 10
-10.5461636833472
 20
0.2111064857275287
 30
0.0
 41
1.0
 10
-10.47936318931303
 20
0.2095948429587308
 30
0.0
 41
1.0
 10
-10.41258108683226
 20
0.2114275783768089
 30
0.0
 41
1.0
 10
-10.34593772016711
 20
0.2172663859491313
 30
0.0
 41
1.0
 10
-10.28048794024218
 20
0.2290091672780561
 30
0.0
 41
1.0
 10
-10.21456507434354
 20
0.2495523226941429
 30
0.0
 41
1.0
 10
-10.19739567082297
 20
0.2793385364530832
 30
0.0
 41
1.0
 10
-10.19684037962748
 20
0.2815365938312839
 30
0.0
 41
1.004933129296679
 10
-10.19669120648808
 20
0.2837642760018397
 30
0.0
 41
1.010439181883473
  0
SPLINE
  5
79
330
1F
100
AcDbEntity
  8
Layer 01
370
    -3
100
AcDbSpline
210
0.0
220
0.0
230
1.0
 70
     8
 71
     2
 72
    30
 73
    27
 74
     0
 42
0.000000001
 43
0.0000000001
 40
0.0
 40
0.0
 40
0.0
 40
1.0
 40
2.0
 40
3.0
 40
4.0
 40
5.0
 40
6.0
 40
7.0
 40
8.0
 40
9.0
 40
10.0
 40
11.0
 40
12.0
 40
12.0
 40
13.0
 40
14.0
 40
15.0
 40
16.0
 40
17.0
 40
18.0
 40
19.0
 40
20.0
 40
21.0
 40
22.0
 40
23.0
 40
24.0
 40
24.0
 40
24.0
 10
6.838615431242715
 20
16.96591424677814
 30
0.0
 10
6.554285628932632
 20
16.98904864621393
 30
0.0
 10
5.984627566051415
 20
17.02048879368631
 30
0.0
 10
5.414659749316144
 20
17.04524964967596
 30
0.0
 10
4.844287174468008
 20
17.06053896287344
 30
0.0
 10
4.274313698098041
 20
17.03109761032542
 30
0.0
 10
3.704923697526624
 20
16.99603741749668
 30
0.0
 10
3.135623884410904
 20
16.95887160049508
 30
0.0
 10
2.566167477677453
 20
16.92427997758866
 30
0.0
 10
1.996347709703144
 20
16.89619325182394
 30
0.0
 10
1.426254476283532
 20
16.87437550009605
 30
0.0
 10
0.8559424184733757
 20
16.85928520379123
 30
0.0
 10
0.2854844545803701
 20
16.85136284645012
 30
0.0
 10
0.0
 20
16.8513247731096
 30
0.0
 10
-0.2854844545803417
 20
16.85136284645012
 30
0.0
 10
-0.8559424184733473
 20
16.85928520379123
 30
0.0
 10
-1.426254476283532
 20
16.87437550009605
 30
0.0
 10
-1.996347709703144
 20
16.89619325182394
 30
0.0
 10
-2.566167477677425
 20
16.92427997758866
 30
0.0
 10
-3.135623884410876
 20
16.95887160049508
 30
0.0
 10
-3.704923697526624
 20
16.99603741749668
 30
0.0
 10
-4.274313698098013
 20
17.03109761032542
 30
0.0
 10
-4.844287174467979
 20
17.06053896287344
 30
0.0
 10
-5.414659749316115
 20
17.04524964967596
 30
0.0
 10
-5.984627566051415
 20
17.02048879368631
 30
0.0
 10
-6.554285628932632
 20
16.98904864621393
 30
0.0
 10
-6.838615431242715
 20
16.96591424677814
 30
0.0
  0
SPLINE
  5
7A
330
1F
100
AcDbEntity
  8
Layer 01
370
    -3
100
AcDbSpline
210
0.0
220
0.0
230
1.0
 70
     8
 71
     2
 72
    30
 73
    27
 74
     0
 42
0.000000001
 43
0.0000000001
 40
-12.0
 40
-12.0
 40
-12.0
 40
-11.0
 40
-10.0
 40
-9.0
 40
-8.0
 40
-7.0
 40
-6.0
 40
-5.0
 40
-4.0
 40
-3.0
 40
-2.0
 40
-1.0
 40
0.0
 40
0.0
 40
1.0
 40
2.0
 40
3.0
 40
4.0
 40
5.0
 40
6.0
 40
7.0
 40
8.0
 40
9.0
 40
10.0
 40
11.0
 40
12.0
 40
12.0
 40
12.0
 10
-6.993695774429654
 20
16.72074808684069
 30
0.0
 10
-6.703111001616548
 20
16.74698656302859
 30
0.0
 10
-6.120588925549271
 20
16.78112296845569
 30
0.0
 10
-5.537646474624012
 20
16.80556903769409
 30
0.0
 10
-4.954396114262863
 20
16.82778639659527
 30
0.0
 10
-4.371305984099365
 20
16.80044527903707
 30
0.0
 10
-3.788928058982634
 20
16.76512092075847
 30
0.0
 10
-3.206666885387165
 20
16.72726768563454
 30
0.0
 10
-2.624280985957853
 20
16.691464645399
 30
0.0
 10
-2.041518960396786
 20
16.66231162944091
 30
0.0
 10
-1.458468187655228
 20
16.63967832505488
 30
0.0
 10
-0.8751857233262115
 20
16.62407487207735
 30
0.0
 10
-0.2917510205551821
 20
16.61588467395407
 30
0.0
 10
0.0
 20
16.61582950179633
 30
0.0
 10
0.2917510205552105
 20
16.61588467395407
 30
0.0
 10
0.8751857233262399
 20
16.62407487207735
 30
0.0
 10
1.458468187655228
 20
16.63967832505488
 30
0.0
 10
2.041518960396786
 20
16.66231162944091
 30
0.0
 10
2.624280985957853
 20
16.691464645399
 30
0.0
 10
3.206666885387165
 20
16.72726768563454
 30
0.0
 10
3.788928058982634
 20
16.76512092075847
 30
0.0
 10
4.371305984099365
 20
16.80044527903707
 30
0.0
 10
4.954396114262863
 20
16.82778639659527
 30
0.0
 10
5.53764647462404
 20
16.80556903769409
 30
0.0
 10
6.120588925549271
 20
16.78112296845569
 30
0.0
 10
6.703111001616548
 20
16.74698656302859
 30
0.0
 10
6.993695774429682
 20
16.72074808684069
 30
0.0
  0
SPLINE
  5
7B
330
1F
100
AcDbEntity
  8
Layer 01
370
    -3
100
AcDbSpline
210
0.0
220
0.0
230
1.0
 70
     8
 71
     2
 72
    30
 73
    27
 74
     0
 42
0.000000001
 43
0.0000000001
 40
-12.0
 40
-12.0
 40
-12.0
 40
-11.0
 40
-10.0
 40
-9.0
 40
-8.0
 40
-7.0
 40
-6.0
 40
-5.0
 40
-4.0
 40
-3.0
 40
-2.0
 40
-1.0
 40
0.0
 40
0.0
 40
1.0
 40
2.0
 40
3.0
 40
4.0
 40
5.0
 40
6.0
 40
7.0
 40
8.0
 40
9.0
 40
10.0
 40
11.0
 40
12.0
 40
12.0
 40
12.0
 10
-7.068949623373669
 20
16.5354334817078
 30
0.0
 10
-6.775360103804815
 20
16.50135658384889
 30
0.0
 10
-6.18909986817863
 20
16.42572722258981
 30
0.0
 10
-5.60265292211119
 20
16.35159123345456
 30
0.0
 10
-5.01554108440078
 20
16.28286393186566
 30
0.0
 10
-4.427568426631211
 20
16.22191695706723
 30
0.0
 10
-3.838759094284342
 20
16.16964070597998
 30
0.0
 10
-3.249205439548689
 20
16.12656211505468
 30
0.0
 10
-2.659068001493154
 20
16.09242322302626
 30
0.0
 10
-2.068502065661932
 20
16.06676671408535
 30
0.0
 10
-1.477658580998025
 20
16.04867004216396
 30
0.0
 10
-0.8866506533253755
 20
16.03720899817107
 30
0.0
 10
-0.2955589281019684
 20
16.03161481043558
 30
0.0
 10
0.0
 20
16.03160851724787
 30
0.0
 10
0.2955589281019968
 20
16.03161481043558
 30
0.0
 10
0.8866506533253755
 20
16.03720899817107
 30
0.0
 10
1.477658580998053
 20
16.04867004216396
 30
0.0
 10
2.06850206566196
 20
16.06676671408535
 30
0.0
 10
2.659068001493154
 20
16.09242322302626
 30
0.0
 10
3.249205439548717
 20
16.12656211505468
 30
0.0
 10
3.83875909428437
 20
16.16964070597998
 30
0.0
 10
4.427568426631211
 20
16.22191695706723
 30
0.0
 10
5.015541084400809
 20
16.28286393186566
 30
0.0
 10
5.60265292211119
 20
16.35159123345456
 30
0.0
 10
6.189099868178658
 20
16.42572722258981
 30
0.0
 10
6.775360103804843
 20
16.50135658384889
 30
0.0
 10
7.068949623373669
 20
16.5354334817078
 30
0.0
  0
SPLINE
  5
7C
330
1F
100
AcDbEntity
  8
Layer 01
370
    -3
100
AcDbSpline
210
0.0
220
0.0
230
1.0
 70
     8
 71
     2
 72
    13
 73
    10
 74
     0
 42
0.000000001
 43
0.0000000001
 40
0.0
 40
0.0
 40
0.0
 40
1.0
 40
2.0
 40
3.0
 40
4.0
 40
5.0
 40
6.0
 40
7.0
 40
8.0
 40
8.0
 40
8.0
 10
7.827702829226467
 20
16.60197403148413
 30
0.0
 10
7.886646908273917
 20
16.60465939229466
 30
0.0
 10
8.004429963946507
 20
16.61205112321554
 30
0.0
 10
8.121918973527329
 20
16.623229998282
 30
0.0
 10
8.238758781112892
 20
16.64018013879821
 30
0.0
 10
8.353761415502873
 20
16.66693332484569
 30
0.0
 10
8.465955438330894
 20
16.70383378707994
 30
0.0
 10
8.573540618930878
 20
16.75293370713922
 30
0.0
 10
8.667918548789999
 20
16.82453566499337
 30
0.0
 10
8.707622795314848
 20
16.86839072768213
 30
0.0
  0
SPLINE
  5
7D
330
1F
100
AcDbEntity
  8
Layer 01
370
    -3
100
AcDbSpline
210
0.0
220
0.0
230
1.0
 70
     8
 71
     2
 72
    13
 73
    10
 74
     0
 42
0.000000001
 43
0.0000000001
 40
0.0
 40
0.0
 40
0.0
 40
1.0
 40
2.0
 40
3.0
 40
4.0
 40
5.0
 40
6.0
 40
7.0
 40
8.0
 40
8.0
 40
8.0
 10
8.491239863360676
 20
16.71548530638006
 30
0.0
 10
8.451345070502299
 20
16.69942985504682
 30
0.0
 10
8.367815331785096
 20
16.67906699223519
 30
0.0
 10
8.282578589511616
 20
16.66825887137602
 30
0.0
 10
8.196800222045255
 20
16.66406919873496
 30
0.0
 10
8.110938607615367
 20
16.66376216496279
 30
0.0
 10
8.025096679805301
 20
16.6652962783506
 30
0.0
 10
7.939267061609257
 20
16.66735804020118
 30
0.0
 10
7.853440624343676
 20
16.66955010253335
 30
0.0
 10
7.810528438857716
 20
16.67068523953813
 30
0.0
  0
SPLINE
  5
7E
330
1F
100
AcDbEntity
  8
Layer 01
370
    -3
100
AcDbSpline
210
0.0
220
0.0
230
1.0
 70
    12
 71
     3
 72
    32
 73
    28
 74
     0
 42
0.000000001
 43
0.0000000001
 40
0.0
 40
0.0
 40
0.0
 40
0.0
 40
1.0
 40
1.0
 40
2.0
 40
2.0
 40
3.0
 40
3.0
 40
4.0
 40
4.0
 40
4.0
 40
4.084148150613579
 40
4.084148150613579
 40
4.084148150613579
 40
4.168355323165442
 40
4.168355323165442
 40
4.168355323165442
 40
4.252621438111643
 40
4.252621438111643
 40
4.252621438111643
 40
5.252621438111643
 40
5.252621438111643
 40
6.252621438111643
 40
6.252621438111643
 40
7.252621438111643
 40
7.252621438111643
 40
8.252621438111643
 40
8.252621438111643
 40
8.252621438111643
 40
8.252621438111643
 10
3.4961991040079
 20
16.98237652776139
 30
0.0
 41
1.0
 10
3.46107031609687
 20
16.99260981970841
 30
0.0
 41
1.0
 10
3.427906623330438
 20
17.00729352033367
 30
0.0
 41
1.0
 10
3.365509428086772
 20
17.04556173894069
 30
0.0
 41
1.0
 10
3.337528434541535
 20
17.0686346491404
 30
0.0
 41
1.0
 10
3.288001655604253
 20
17.12265807133222
 30
0.0
 41
1.0
 10
3.268061144637495
 20
17.15289226001061
 30
0.0
 41
1.0
 10
3.237825879707747
 20
17.21980559253235
 30
0.0
 41
1.0
 10
3.228878494979929
 20
17.25485958481898
 30
0.0
 41
1.0
 10
3.226101357989164
 20
17.29151090313136
 30
0.0
 41
1.0
 10
3.224029005281704
 20
17.31948120765693
 30
0.0
 41
1.0
 10
3.221955043616433
 20
17.34745132958069
 30
0.0
 41
1.0
 10
3.219879476182382
 20
17.3754213149107
 30
0.0
 41
1.0
 10
3.21780245283177
 20
17.40341091991901
 30
0.0
 41
1.0
 10
3.215723821462946
 20
17.4314003880869
 30
0.0
 41
1.0
 10
3.213643589156947
 20
17.45938971973682
 30
0.0
 41
1.0
 10
3.211561900641401
 20
17.48739864454996
 30
0.0
 41
1.0
 10
3.209478608950553
 20
17.51540743260013
 30
0.0
 41
1.0
 10
3.207393721665225
 20
17.54341608422992
 30
0.0
 41
1.0
 10
3.207082043936424
 20
17.5475893226599
 30
0.0
 41
1.0
 10
3.206476304862605
 20
17.55171944525537
 30
0.0
 41
1.0
 10
3.204676704024934
 20
17.55989345877733
 30
0.0
 41
1.0
 10
3.203491262839279
 20
17.56389583139896
 30
0.0
 41
1.0
 10
3.200549098934331
 20
17.57173130836349
 30
0.0
 41
1.0
 10
3.198811709157354
 20
17.57552695296854
 30
0.0
 41
1.0
 10
3.194804313954393
 20
17.58287405442423
 30
0.0
 41
1.0
 10
3.192560160246103
 20
17.58639419883066
 30
0.0
 41
1.0
 10
3.190075550431004
 20
17.58976093691567
 30
0.0
 41
1.0
  0
SPLINE
  5
7F
330
1F
100
AcDbEntity
  8
Layer 01
370
    -3
100
AcDbSpline
210
0.0
220
0.0
230
1.0
 70
     8
 71
     2
 72
    46
 73
    43
 74
     0
 42
0.000000001
 43
0.0000000001
 40
-2.554851761541498
 40
-2.554851761541498
 40
-2.554851761541498
 40
0.0
 40
0.0
 40
1.0
 40
2.0
 40
3.0
 40
4.0
 40
5.0
 40
6.0
 40
7.0
 40
7.0
 40
23.06661371123543
 40
23.06661371123543
 40
23.17218568145417
 40
23.17218568145417
 40
24.17218568145417
 40
25.17218568145417
 40
26.17218568145417
 40
27.17218568145418
 40
28.17218568145418
 40
29.17218568145418
 40
30.17218568145418
 40
31.17218568145418
 40
32.17218568145418
 40
33.17218568145418
 40
33.17218568145418
 40
33.27555286807274
 40
33.27555286807274
 40
49.34112304777218
 40
49.34112304777218
 40
50.34112304777218
 40
51.34112304777218
 40
52.34112304777218
 40
53.34112304777218
 40
54.34112304777218
 40
55.34112304777218
 40
56.34112304777218
 40
57.34112304777218
 40
58.34112304777218
 40
59.34112304777218
 40
60.34112304777218
 40
61.34112304777218
 40
61.34112304777218
 40
61.34112304777218
 10
4.046562905536973
 20
17.01709729463799
 30
0.0
 10
5.073991535235493
 20
17.15156378383816
 30
0.0
 10
6.101420164934012
 20
17.28603027303834
 30
0.0
 10
6.221928268037772
 20
17.30274271781999
 30
0.0
 10
6.460806589278008
 20
17.25734971607585
 30
0.0
 10
6.672308855104347
 20
17.13789524405594
 30
0.0
 10
6.845177769336715
 20
16.96824479783396
 30
0.0
 10
6.977765800081272
 20
16.76596015967234
 30
0.0
 10
7.071716996283953
 20
16.54330149502874
 30
0.0
 10
7.128613677592682
 20
16.30852265017197
 30
0.0
 10
7.138980378149654
 20
16.18819605505662
 30
0.0
 10
7.82942378996151
 20
8.204927207517512
 30
0.0
 10
8.519867201773366
 20
0.2216583599784016
 30
0.0
 10
8.533527217503405
 20
0.1700940246128098
 30
0.0
 10
8.547187233233444
 20
0.1185296892472181
 30
0.0
 10
8.558995696517655
 20
0.0765360563210157
 30
0.0
 10
8.633751732927493
 20
0.0390495657560394
 30
0.0
 10
8.71216115827329
 20
0.0169357850833227
 30
0.0
 10
8.79277122454863
 20
0.0036740560648727
 30
0.0
 10
8.87439007409813
 20
0.0006376677452709
 30
0.0
 10
8.955760415362533
 20
0.007674747447045
 30
0.0
 10
9.03564616924271
 20
0.0246783624855212
 30
0.0
 10
9.11278257803184
 20
0.05158247676548
 30
0.0
 10
9.186231602052914
 20
0.0868284506889451
 30
0.0
 10
9.253440522764492
 20
0.1365972538208441
 30
0.0
 10
9.257869515455582
 20
0.1799939688993959
 30
0.0
 10
9.262402571885104
 20
0.2328495017205063
 30
0.0
 10
9.266935628314627
 20
0.2857050345416166
 30
0.0
 10
8.576563399823627
 20
8.26926228212851
 30
0.0
 10
7.886191171332626
 20
16.2528195297154
 30
0.0
 10
7.877942109718816
 20
16.34780895998661
 30
0.0
 10
7.846317096314266
 20
16.53586535931133
 30
0.0
 10
7.799287994964232
 20
16.72067938590459
 30
0.0
 10
7.736831428533321
 20
16.9008719019094
 30
0.0
 10
7.658885736094334
 20
17.07493566686311
 30
0.0
 10
7.565429669795748
 20
17.24120088900704
 30
0.0
 10
7.456558406894914
 20
17.3978232144785
 30
0.0
 10
7.332538160484432
 20
17.54276761383464
 30
0.0
 10
7.1938944151523
 20
17.67382070612499
 30
0.0
 10
7.041518911057267
 20
17.78865283711298
 30
0.0
 10
6.876758639645914
 20
17.88491611530552
 30
0.0
 10
6.701449420358756
 20
17.96032857224813
 30
0.0
 10
6.609719501707218
 20
17.9866282100779
 30
0.0
  0
SPLINE
  5
80
330
1F
100
AcDbEntity
  8
Layer 01
370
    -3
100
AcDbSpline
210
0.0
220
0.0
230
1.0
 70
     8
 71
     2
 72
    15
 73
    12
 74
     0
 42
0.000000001
 43
0.0000000001
 40
0.0
 40
0.0
 40
0.0
 40
1.0
 40
2.0
 40
3.0
 40
4.0
 40
5.0
 40
6.0
 40
7.0
 40
8.0
 40
9.0
 40
10.0
 40
10.0
 40
10.0
 10
9.264453883442627
 20
0.2877696333563772
 30
0.0
 10
9.227665867454675
 20
0.2955539836744354
 30
0.0
 10
9.152126016239123
 20
0.2945961975330003
 30
0.0
 10
9.07693504644567
 20
0.2922425988558151
 30
0.0
 10
9.001769250857507
 20
0.2880244594865312
 30
0.0
 10
8.92669197846979
 20
0.2826099818935741
 30
0.0
 10
8.851699237584484
 20
0.2760951532854086
 30
0.0
 10
8.776817615132302
 20
0.268471761438216
 30
0.0
 10
8.702028041949802
 20
0.2596735968912545
 30
0.0
 10
8.627707819736713
 20
0.2488143704964012
 30
0.0
 10
8.552328622218198
 20
0.2374888403550129
 30
0.0
 10
8.519988007249793
 20
0.2202615436160542
 30
0.0
  0
SPLINE
  5
81
330
1F
100
AcDbEntity
  8
Layer 01
370
    -3
100
AcDbSpline
210
0.0
220
0.0
230
1.0
 70
    12
 71
     3
 72
    23
 73
    19
 74
     0
 42
0.000000001
 43
0.0000000001
 40
-0.0940356089726031
 40
-0.0940356089726031
 40
-0.0940356089726031
 40
-0.0940356089726031
 40
0.0
 40
0.0
 40
0.0
 40
1.0
 40
1.0
 40
1.0
 40
1.394662577107218
 40
1.394662577107218
 40
1.394662577107218
 40
1.735645870558158
 40
1.735645870558158
 40
1.735645870558158
 40
2.735645870558158
 40
2.735645870558158
 40
2.735645870558158
 40
2.824415438499726
 40
2.824415438499726
 40
2.824415438499726
 40
2.824415438499726
 10
-6.959519256701185
 20
16.52260020053965
 30
0.0
 41
1.0
 10
-6.963099208928942
 20
16.4914647758697
 30
0.0
 41
1.0
 10
-6.9666791611567
 20
16.46032935119975
 30
0.0
 41
1.0
 10
-6.970259113384458
 20
16.4291939265298
 30
0.0
 41
1.0
 10
-6.972271234573498
 20
16.41169418247681
 30
0.0
 41
1.0
 10
-6.961840175741429
 20
16.40089191716322
 30
0.0
 41
1.0
 10
-6.943881790542946
 20
16.39596787862348
 30
0.0
 41
1.0
 10
-6.925031066038653
 20
16.39079916813334
 30
0.0
 41
0.8047378541243649
 10
-6.821845687662134
 20
16.37713199542221
 30
0.0
 41
0.8047378541243649
 10
-6.694770250627755
 20
16.36297240490498
 30
0.0
 41
1.0
 10
-6.572477904215255
 20
16.34891122659705
 30
0.0
 41
0.8312960654263303
 10
-6.474915959149261
 20
16.33903336407445
 30
0.0
 41
0.808350118981933
 10
-6.449727766675029
 20
16.33828672299687
 30
0.0
 41
0.9311621606668077
 10
-6.428396503582405
 20
16.33765441096106
 30
0.0
 41
0.9311621606668077
 10
-6.413710829018896
 20
16.34519893634778
 30
0.0
 41
0.9311621606668077
 10
-6.411440887318576
 20
16.36494098716818
 30
0.0
 41
0.9311621606668077
 10
-6.408061414202156
 20
16.39433281251844
 30
0.0
 41
0.9311621606668077
 10
-6.404681941085737
 20
16.42372463786871
 30
0.0
 41
0.9311621606668077
 10
-6.401302467969316
 20
16.45311646321898
 30
0.0
 41
0.9311621606668077
  0
SPLINE
  5
82
330
1F
100
AcDbEntity
  8
Layer 01
370
    -3
100
AcDbSpline
210
0.0
220
0.0
230
1.0
 70
    15
 71
     2
 72
    45
 73
    42
 74
     0
 42
0.000000001
 43
0.0000000001
 40
18.10554176929185
 40
18.10554176929185
 40
18.10554176929185
 40
18.20054176929184
 40
18.20054176929184
 40
19.20054176929184
 40
20.20054176929184
 40
21.20054176929184
 40
22.20054176929184
 40
23.20054176929184
 40
24.20054176929185
 40
25.20054176929185
 40
26.20054176929185
 40
27.20054176929185
 40
28.20054176929185
 40
29.20054176929185
 40
30.20054176929185
 40
31.20054176929185
 40
32.20054176929185
 40
33.20054176929185
 40
34.20054176929185
 40
35.20054176929185
 40
35.20054176929185
 40
35.29554176929185
 40
35.29554176929185
 40
36.29554176929185
 40
37.29554176929185
 40
38.29554176929185
 40
39.29554176929185
 40
40.29554176929185
 40
41.29554176929185
 40
42.29554176929185
 40
43.29554176929185
 40
44.29554176929185
 40
45.29554176929185
 40
46.29554176929185
 40
47.29554176929185
 40
48.29554176929185
 40
49.29554176929185
 40
50.29554176929185
 40
51.29554176929185
 40
52.29554176929185
 40
53.29554176929185
 40
53.29554176929185
 40
53.29554176929185
 10
-4.131333475235693
 20
16.68212325251834
 30
0.0
 41
0.9969152063605844
 10
-4.135843592200519
 20
16.63510015614887
 30
0.0
 41
0.9969152063605844
 10
-4.140353709165346
 20
16.5880770597794
 30
0.0
 41
0.9969152063605844
 10
-4.141094532876139
 20
16.56899602430672
 30
0.0
 41
0.9969152063605844
 10
-4.112525733876538
 20
16.54500290037628
 30
0.0
 41
0.9969152063605844
 10
-4.07783708570787
 20
16.53611207299164
 30
0.0
 41
0.9969152063605844
 10
-4.04315806227777
 20
16.52833467571036
 30
0.0
 41
0.9969152063605844
 10
-4.008142526210804
 20
16.52195752892621
 30
0.0
 41
0.9969152063605844
 10
-3.97300774502628
 20
16.51634891198826
 30
0.0
 41
0.9969152063605844
 10
-3.937757711142297
 20
16.51150304070162
 30
0.0
 41
0.9969152063605844
 10
-3.902425236920209
 20
16.50730690186319
 30
0.0
 41
0.9969152063605844
 10
-3.867032456317787
 20
16.50365522227946
 30
0.0
 41
0.9969152063605844
 10
-3.831592029439776
 20
16.50049979189277
 30
0.0
 41
0.9969152063605844
 10
-3.796106983331442
 20
16.49789208301926
 30
0.0
 41
0.9969152063605844
 10
-3.760582786836466
 20
16.49587825149229
 30
0.0
 41
0.9969152063605844
 10
-3.725026499999046
 20
16.49457627431577
 30
0.0
 41
0.9969152063605844
 10
-3.689439754372132
 20
16.49412990041148
 30
0.0
 41
0.9969152063605844
 10
-3.653901457585306
 20
16.49535459169673
 30
0.0
 41
0.9969152063605844
 10
-3.618232970637393
 20
16.49673170742513
 30
0.0
 41
0.9969152063605844
 10
-3.585068461354809
 20
16.51361064108588
 30
0.0
 41
0.9969152063605844
 10
-3.58057666304166
 20
16.53321178572386
 30
0.0
 41
0.9969152063605844
 10
-3.575989858307691
 20
16.58081527108948
 30
0.0
 41
0.9969152063605844
 10
-3.571403053573713
 20
16.6284187564551
 30
0.0
 41
0.9969152063605844
 10
-3.58156119429998
 20
16.64015145901016
 30
0.0
 41
0.9969152063605844
 10
-3.613249078011819
 20
16.64831731941399
 30
0.0
 41
0.9969152063605844
 10
-3.64401499437804
 20
16.65566305031061
 30
0.0
 41
0.9969152063605844
 10
-3.675267772617133
 20
16.66165742191871
 30
0.0
 41
0.9969152063605844
 10
-3.706612221925809
 20
16.66693746971238
 30
0.0
 41
0.9969152063605844
 10
-3.738055036101003
 20
16.67163562406645
 30
0.0
 41
0.9969152063605844
 10
-3.769564074835899
 20
16.67585730843351
 30
0.0
 41
0.9969152063605844
 10
-3.801126795693847
 20
16.67965758054273
 30
0.0
 41
0.9969152063605844
 10
-3.832733912700178
 20
16.68306826605443
 30
0.0
 41
0.9969152063605844
 10
-3.864379278019641
 20
16.68610346170854
 30
0.0
 41
0.9969152063605844
 10
-3.896058460199157
 20
16.68876274258633
 30
0.0
 41
0.9969152063605844
 10
-3.927768116133024
 20
16.69103110131453
 30
0.0
 41
0.9969152063605844
 10
-3.9595051529096
 20
16.69287552578951
 30
0.0
 41
0.9969152063605844
 10
-3.991267757666094
 20
16.69423958001246
 30
0.0
 41
0.9969152063605844
 10
-4.023044388443339
 20
16.69501365183641
 30
0.0
 41
0.9969152063605844
 10
-4.054866792503504
 20
16.69506899803321
 30
0.0
 41
0.9969152063605844
 10
-4.086468075083076
 20
16.69370508025854
 30
0.0
 41
0.9969152063605844
 10
-4.119130408366118
 20
16.69171122910846
 30
0.0
 41
0.9969152063605844
 10
-4.131333475235693
 20
16.68212325251834
 30
0.0
 41
0.9969152063605844
  0
SPLINE
  5
83
330
1F
100
AcDbEntity
  8
Layer 01
370
    -3
100
AcDbSpline
210
0.0
220
0.0
230
1.0
 70
     8
 71
     2
 72
    23
 73
    20
 74
     0
 42
0.000000001
 43
0.0000000001
 40
0.0
 40
0.0
 40
0.0
 40
1.0
 40
2.0
 40
3.0
 40
4.0
 40
5.0
 40
6.0
 40
7.0
 40
8.0
 40
9.0
 40
10.0
 40
11.0
 40
12.0
 40
13.0
 40
14.0
 40
15.0
 40
16.0
 40
17.0
 40
18.0
 40
18.0
 40
18.0
 10
-4.113260433812627
 20
16.55452666101078
 30
0.0
 10
-4.103777430868377
 20
16.56413631308797
 30
0.0
 10
-4.074011791778958
 20
16.56577488211745
 30
0.0
 10
-4.045750745808704
 20
16.5670754087172
 30
0.0
 10
-4.017194190303712
 20
16.56703714319262
 30
0.0
 10
-3.98869493668056
 20
16.5663551183459
 30
0.0
 10
-3.960205422661204
 20
16.56513839412815
 30
0.0
 10
-3.931739364916382
 20
16.56348845529109
 30
0.0
 10
-3.903297870533436
 20
16.56145636455598
 30
0.0
 10
-3.87488381546035
 20
16.55907214421042
 30
0.0
 10
-3.846500203792431
 20
16.55634939529244
 30
0.0
 10
-3.81815106147593
 20
16.55328848871295
 30
0.0
 10
-3.78984192543723
 20
16.54987660969245
 30
0.0
 10
-3.761581341778282
 20
16.54608478540333
 30
0.0
 10
-3.733380074965851
 20
16.54186303805242
 30
0.0
 10
-3.705271179804384
 20
16.53711417029371
 30
0.0
 10
-3.677227148472241
 20
16.53172211671358
 30
0.0
 10
-3.649736049285792
 20
16.52506915725883
 30
0.0
 10
-3.620786833341185
 20
16.51780300022931
 30
0.0
 10
-3.61342859819672
 20
16.50652340946327
 30
0.0
  0
SPLINE
  5
84
330
1F
100
AcDbEntity
  8
Layer 01
370
    -3
100
AcDbSpline
210
0.0
220
0.0
230
1.0
 70
     8
 71
     2
 72
    13
 73
    10
 74
     0
 42
0.000000001
 43
0.0000000001
 40
0.0
 40
0.0
 40
0.0
 40
1.0
 40
2.0
 40
3.0
 40
4.0
 40
5.0
 40
6.0
 40
7.0
 40
8.0
 40
8.0
 40
8.0
 10
-7.827702829226439
 20
16.60197403148413
 30
0.0
 10
-7.886646908273889
 20
16.60465939229466
 30
0.0
 10
-8.004429963946507
 20
16.61205112321554
 30
0.0
 10
-8.121918973527329
 20
16.623229998282
 30
0.0
 10
-8.238758781112892
 20
16.64018013879821
 30
0.0
 10
-8.353761415502845
 20
16.66693332484569
 30
0.0
 10
-8.465955438330866
 20
16.70383378707994
 30
0.0
 10
-8.57354061893085
 20
16.75293370713922
 30
0.0
 10
-8.66791854878997
 20
16.82453566499337
 30
0.0
 10
-8.707622795314819
 20
16.86839072768213
 30
0.0
  0
SPLINE
  5
85
330
1F
100
AcDbEntity
  8
Layer 01
370
    -3
100
AcDbSpline
210
0.0
220
0.0
230
1.0
 70
     8
 71
     2
 72
    13
 73
    10
 74
     0
 42
0.000000001
 43
0.0000000001
 40
0.0
 40
0.0
 40
0.0
 40
1.0
 40
2.0
 40
3.0
 40
4.0
 40
5.0
 40
6.0
 40
7.0
 40
8.0
 40
8.0
 40
8.0
 10
-8.491239863360647
 20
16.71548530638006
 30
0.0
 10
-8.45134507050227
 20
16.69942985504682
 30
0.0
 10
-8.367815331785096
 20
16.67906699223519
 30
0.0
 10
-8.282578589511616
 20
16.66825887137602
 30
0.0
 10
-8.196800222045255
 20
16.66406919873496
 30
0.0
 10
-8.110938607615338
 20
16.66376216496279
 30
0.0
 10
-8.025096679805301
 20
16.6652962783506
 30
0.0
 10
-7.939267061609229
 20
16.66735804020118
 30
0.0
 10
-7.853440624343648
 20
16.66955010253335
 30
0.0
 10
-7.810528438857688
 20
16.67068523953813
 30
0.0
  0
SPLINE
  5
86
330
1F
100
AcDbEntity
  8
Layer 01
370
    -3
100
AcDbSpline
210
0.0
220
0.0
230
1.0
 70
    12
 71
     3
 72
    32
 73
    28
 74
     0
 42
0.000000001
 43
0.0000000001
 40
0.0
 40
0.0
 40
0.0
 40
0.0
 40
1.0
 40
1.0
 40
2.0
 40
2.0
 40
3.0
 40
3.0
 40
4.0
 40
4.0
 40
4.0
 40
4.084148150613579
 40
4.084148150613579
 40
4.084148150613579
 40
4.168355323165442
 40
4.168355323165442
 40
4.168355323165442
 40
4.252621438111643
 40
4.252621438111643
 40
4.252621438111643
 40
5.252621438111643
 40
5.252621438111643
 40
6.252621438111643
 40
6.252621438111643
 40
7.252621438111643
 40
7.252621438111643
 40
8.252621438111643
 40
8.252621438111643
 40
8.252621438111643
 40
8.252621438111643
 10
-3.496199104007871
 20
16.98237652776139
 30
0.0
 41
1.0
 10
-3.461070316096842
 20
16.99260981970841
 30
0.0
 41
1.0
 10
-3.42790662333041
 20
17.00729352033367
 30
0.0
 41
1.0
 10
-3.365509428086744
 20
17.04556173894069
 30
0.0
 41
1.0
 10
-3.337528434541506
 20
17.0686346491404
 30
0.0
 41
1.0
 10
-3.288001655604224
 20
17.12265807133222
 30
0.0
 41
1.0
 10
-3.268061144637466
 20
17.15289226001061
 30
0.0
 41
1.0
 10
-3.237825879707719
 20
17.21980559253235
 30
0.0
 41
1.0
 10
-3.228878494979909
 20
17.25485958481898
 30
0.0
 41
1.0
 10
-3.226101357989164
 20
17.29151090313136
 30
0.0
 41
1.0
 10
-3.224029005281704
 20
17.31948120765693
 30
0.0
 41
1.0
 10
-3.221955043616433
 20
17.34745132958069
 30
0.0
 41
1.0
 10
-3.21987947618241
 20
17.3754213149107
 30
0.0
 41
1.0
 10
-3.217802452831799
 20
17.40341091991901
 30
0.0
 41
1.0
 10
-3.215723821462946
 20
17.4314003880869
 30
0.0
 41
1.0
 10
-3.213643589156947
 20
17.45938971973682
 30
0.0
 41
1.0
 10
-3.211561900641429
 20
17.48739864454996
 30
0.0
 41
1.0
 10
-3.209478608950581
 20
17.51540743260013
 30
0.0
 41
1.0
 10
-3.207393721665225
 20
17.54341608422992
 30
0.0
 41
1.0
 10
-3.207082043936424
 20
17.5475893226599
 30
0.0
 41
1.0
 10
-3.2064763048626
 20
17.55171944525537
 30
0.0
 41
1.0
 10
-3.20467670402491
 20
17.55989345877733
 30
0.0
 41
1.0
 10
-3.20349126283925
 20
17.56389583139896
 30
0.0
 41
1.0
 10
-3.200549098934303
 20
17.57173130836349
 30
0.0
 41
1.0
 10
-3.198811709157331
 20
17.57552695296854
 30
0.0
 41
1.0
 10
-3.194804313954388
 20
17.58287405442423
 30
0.0
 41
1.0
 10
-3.192560160246094
 20
17.58639419883066
 30
0.0
 41
1.0
 10
-3.190075550430976
 20
17.58976093691567
 30
0.0
 41
1.0
  0
SPLINE
  5
87
330
1F
100
AcDbEntity
  8
Layer 01
370
    -3
100
AcDbSpline
210
0.0
220
0.0
230
1.0
 70
     8
 71
     2
 72
    46
 73
    43
 74
     0
 42
0.000000001
 43
0.0000000001
 40
-2.554851761541498
 40
-2.554851761541498
 40
-2.554851761541498
 40
0.0
 40
0.0
 40
1.0
 40
2.0
 40
3.0
 40
4.0
 40
5.0
 40
6.0
 40
7.0
 40
7.0
 40
23.06661371123543
 40
23.06661371123543
 40
23.17218568145417
 40
23.17218568145417
 40
24.17218568145417
 40
25.17218568145417
 40
26.17218568145417
 40
27.17218568145418
 40
28.17218568145418
 40
29.17218568145418
 40
30.17218568145418
 40
31.17218568145418
 40
32.17218568145418
 40
33.17218568145418
 40
33.17218568145418
 40
33.27555286807274
 40
33.27555286807274
 40
49.34112304777218
 40
49.34112304777218
 40
50.34112304777218
 40
51.34112304777218
 40
52.34112304777218
 40
53.34112304777218
 40
54.34112304777218
 40
55.34112304777218
 40
56.34112304777218
 40
57.34112304777218
 40
58.34112304777218
 40
59.34112304777218
 40
60.34112304777218
 40
61.34112304777218
 40
61.34112304777218
 40
61.34112304777218
 10
-4.046562905536945
 20
17.01709729463799
 30
0.0
 10
-5.073991535235464
 20
17.15156378383816
 30
0.0
 10
-6.101420164933984
 20
17.28603027303834
 30
0.0
 10
-6.221928268037772
 20
17.30274271781999
 30
0.0
 10
-6.460806589277979
 20
17.25734971607585
 30
0.0
 10
-6.672308855104319
 20
17.13789524405594
 30
0.0
 10
-6.845177769336715
 20
16.96824479783396
 30
0.0
 10
-6.977765800081272
 20
16.76596015967234
 30
0.0
 10
-7.071716996283953
 20
16.54330149502874
 30
0.0
 10
-7.128613677592682
 20
16.30852265017197
 30
0.0
 10
-7.138980378149625
 20
16.18819605505662
 30
0.0
 10
-7.829423789961496
 20
8.204927207517512
 30
0.0
 10
-8.519867201773366
 20
0.2216583599784016
 30
0.0
 10
-8.533527217503405
 20
0.1700940246128098
 30
0.0
 10
-8.547187233233444
 20
0.1185296892472181
 30
0.0
 10
-8.558995696517627
 20
0.0765360563210157
 30
0.0
 10
-8.633751732927493
 20
0.0390495657560394
 30
0.0
 10
-8.712161158273261
 20
0.0169357850833227
 30
0.0
 10
-8.79277122454863
 20
0.0036740560648727
 30
0.0
 10
-8.87439007409813
 20
0.0006376677452709
 30
0.0
 10
-8.955760415362505
 20
0.007674747447045
 30
0.0
 10
-9.035646169242682
 20
0.0246783624855212
 30
0.0
 10
-9.11278257803184
 20
0.05158247676548
 30
0.0
 10
-9.186231602052885
 20
0.0868284506889451
 30
0.0
 10
-9.253440522764492
 20
0.1365972538208441
 30
0.0
 10
-9.257869515455582
 20
0.1799939688993959
 30
0.0
 10
-9.262402571885104
 20
0.2328495017205063
 30
0.0
 10
-9.266935628314627
 20
0.2857050345416166
 30
0.0
 10
-8.576563399823613
 20
8.26926228212851
 30
0.0
 10
-7.886191171332598
 20
16.2528195297154
 30
0.0
 10
-7.877942109718788
 20
16.34780895998661
 30
0.0
 10
-7.846317096314237
 20
16.53586535931133
 30
0.0
 10
-7.799287994964232
 20
16.72067938590459
 30
0.0
 10
-7.736831428533321
 20
16.9008719019094
 30
0.0
 10
-7.658885736094305
 20
17.07493566686311
 30
0.0
 10
-7.565429669795719
 20
17.24120088900704
 30
0.0
 10
-7.456558406894885
 20
17.3978232144785
 30
0.0
 10
-7.332538160484432
 20
17.54276761383464
 30
0.0
 10
-7.193894415152272
 20
17.67382070612499
 30
0.0
 10
-7.041518911057238
 20
17.78865283711298
 30
0.0
 10
-6.876758639645914
 20
17.88491611530552
 30
0.0
 10
-6.701449420358756
 20
17.96032857224813
 30
0.0
 10
-6.609719501707218
 20
17.9866282100779
 30
0.0
  0
SPLINE
  5
88
330
1F
100
AcDbEntity
  8
Layer 01
370
    -3
100
AcDbSpline
210
0.0
220
0.0
230
1.0
 70
     8
 71
     2
 72
    15
 73
    12
 74
     0
 42
0.000000001
 43
0.0000000001
 40
0.0
 40
0.0
 40
0.0
 40
1.0
 40
2.0
 40
3.0
 40
4.0
 40
5.0
 40
6.0
 40
7.0
 40
8.0
 40
9.0
 40
10.0
 40
10.0
 40
10.0
 10
-9.264453883442627
 20
0.2877696333563772
 30
0.0
 10
-9.227665867454675
 20
0.2955539836744354
 30
0.0
 10
-9.152126016239123
 20
0.2945961975330003
 30
0.0
 10
-9.07693504644567
 20
0.2922425988558151
 30
0.0
 10
-9.001769250857478
 20
0.2880244594865312
 30
0.0
 10
-8.926691978469762
 20
0.2826099818935741
 30
0.0
 10
-8.851699237584455
 20
0.2760951532854086
 30
0.0
 10
-8.776817615132273
 20
0.268471761438216
 30
0.0
 10
-8.702028041949802
 20
0.2596735968912545
 30
0.0
 10
-8.627707819736685
 20
0.2488143704964012
 30
0.0
 10
-8.55232862221817
 20
0.2374888403550129
 30
0.0
 10
-8.519988007249765
 20
0.2202615436160542
 30
0.0
  0
SPLINE
  5
89
330
1F
100
AcDbEntity
  8
Layer 01
370
    -3
100
AcDbSpline
210
0.0
220
0.0
230
1.0
 70
    12
 71
     2
 72
    12
 73
     9
 74
     0
 42
0.000000001
 43
0.0000000001
 40
9.596156260695022
 40
9.596156260695022
 40
9.596156260695022
 40
18.2167171084134
 40
18.2167171084134
 40
19.7875134352083
 40
19.7875134352083
 40
21.35830976200319
 40
21.35830976200319
 40
27.49481017492685
 40
27.49481017492685
 40
27.49481017492685
 10
-10.37754707551077
 20
57.9672632828289
 30
0.0
 41
0.8876484592691588
 10
-10.65597828531438
 20
59.0683289458099
 30
0.0
 41
0.8876484592691588
 10
-10.93440949511801
 20
60.16939460879089
 30
0.0
 41
0.8876484592691588
 10
-11.02534796882458
 20
60.52901388750915
 30
0.0
 41
0.6276622448590131
 10
-10.66179173596266
 20
60.6209479157426
 30
0.0
 41
0.8876484592691588
 10
-10.29823550310069
 20
60.71288194397604
 30
0.0
 41
0.6276622448590131
 10
-10.20729702939413
 20
60.35326266525777
 30
0.0
 41
0.8876484592691588
 10
-10.00909725282361
 20
59.56947492628165
 30
0.0
 41
0.8876484592691588
 10
-9.81089747625309
 20
58.78568718730552
 30
0.0
 41
0.8876484592691588
  0
SPLINE
  5
8A
330
1F
100
AcDbEntity
  8
Layer 01
370
    -3
100
AcDbSpline
210
0.0
220
0.0
230
1.0
 70
    12
 71
     5
 72
    43
 73
    37
 74
     0
 42
0.000000001
 43
0.0000000001
 40
0.0
 40
0.0
 40
0.0
 40
0.0
 40
0.0
 40
0.0
 40
1.0
 40
1.0
 40
1.0
 40
1.0
 40
1.0
 40
1.003259931997497
 40
1.003259931997497
 40
1.003259931997497
 40
1.003259931997497
 40
1.003259931997497
 40
1.023292528876977
 40
1.023292528876977
 40
1.023292528876977
 40
1.023292528876977
 40
1.023292528876977
 40
1.168035628300413
 40
1.168035628300413
 40
1.168035628300413
 40
1.168035628300413
 40
1.168035628300413
 40
1.321287026872451
 40
1.321287026872451
 40
1.321287026872451
 40
1.321287026872451
 40
1.321287026872451
 40
1.476430366959079
 40
1.476430366959079
 40
1.476430366959079
 40
1.476430366959079
 40
1.476430366959079
 40
1.484050793620744
 40
1.492613412007535
 40
1.492613412007535
 40
1.492613412007535
 40
1.492613412007535
 40
1.492613412007535
 40
1.492613412007535
 10
26.26975141479537
 20
18.0095796538323
 30
0.0
 41
1.0
 10
26.25181767294513
 20
18.00937575219509
 30
0.0
 41
1.0
 10
26.23388935769626
 20
18.00944971131043
 30
0.0
 41
1.0
 10
26.21596646904873
 20
18.0098015311783
 30
0.0
 41
1.0
 10
26.19804900700256
 20
18.01043121179874
 30
0.0
 41
1.0
 10
26.18013697155773
 20
18.01133875317172
 30
0.0
 41
1.0
 10
26.17948659641964
 20
18.01138834672495
 30
0.0
 41
1.000142415013597
 10
26.1788363404548
 20
18.01143807037762
 30
0.0
 41
1.000311411011413
 10
26.17818625542991
 20
18.01148792010071
 30
0.0
 41
1.000506987993448
 10
26.17753639304666
 20
18.01153789184801
 30
0.0
 41
1.000729145959702
 10
26.17688680492813
 20
18.01158798155732
 30
0.0
 41
1.000977884910175
 10
26.17289080874254
 20
18.01189611263545
 30
0.0
 41
0.9989710767459838
 10
26.16888137993814
 20
18.01200409849499
 30
0.0
 41
0.9979676726638882
 10
26.16487057180785
 20
18.0119110097071
 30
0.0
 41
0.9979676726638882
 10
26.16087047017079
 20
18.0116171267774
 30
0.0
 41
0.9989710767459838
 10
26.15689307222118
 20
18.01112393733414
 30
0.0
 41
1.000977884910175
 10
26.12767838288765
 20
18.00750137390258
 30
0.0
 41
0.9006199931901712
 10
26.10016366638334
 20
17.99368879141396
 30
0.0
 41
0.8504410473301693
 10
26.0795202240665
 20
17.97032742096201
 30
0.0
 41
0.8504410473301693
 10
26.06919856619299
 20
17.94132206907551
 30
0.0
 41
0.9006199931901714
 10
26.06919867372801
 20
17.91188364115114
 30
0.0
 41
1.000977884910175
 10
26.06919865199486
 20
17.88123336143674
 30
0.0
 41
1.000977884910175
 10
26.06919863026171
 20
17.85058308172234
 30
0.0
 41
1.000977884910175
 10
26.06919860852856
 20
17.81993280200794
 30
0.0
 41
1.000977884910175
 10
26.06919858679541
 20
17.78928252229354
 30
0.0
 41
1.000977884910175
 10
26.06919856506227
 20
17.75863224257914
 30
0.0
 41
1.000977884910175
 10
26.06919810207438
 20
17.72739799927305
 30
0.0
 41
0.9614253096812
 10
26.07610780649442
 20
17.69642684146946
 30
0.0
 41
0.9416490220667125
 10
26.0899277074931
 20
17.66768669149792
 30
0.0
 41
0.9416490220667123
 10
26.10980498894146
 20
17.64295108329663
 30
0.0
 41
0.9614253096812002
 10
26.13420248001702
 20
17.62344876588734
 30
0.0
 41
1.000977884910175
 10
26.15816500417187
 20
17.60429451365097
 30
0.0
 41
1.000977884910175
 10
26.21051629654226
 20
17.5651699124131
 30
0.0
 41
1.000977884910175
 10
26.26570300367658
 20
17.52924057121945
 30
0.0
 41
1.000977884910175
 10
26.32279448082522
 20
17.49615126439506
 30
0.0
 41
1.000977884910175
 10
26.38135269501225
 20
17.4656276399781
 30
0.0
 41
1.000977884910175
 10
26.41269862076439
 20
17.45015708722446
 30
0.0
 41
1.000977884910175
  0
SPLINE
  5
8B
330
1F
100
AcDbEntity
  8
Layer 01
370
    -3
100
AcDbSpline
210
0.0
220
0.0
230
1.0
 70
    12
 71
     2
 72
    12
 73
     9
 74
     0
 42
0.000000001
 43
0.0000000001
 40
9.596156260695022
 40
9.596156260695022
 40
9.596156260695022
 40
18.2167171084134
 40
18.2167171084134
 40
19.7875134352083
 40
19.7875134352083
 40
21.35830976200319
 40
21.35830976200319
 40
27.49481017492685
 40
27.49481017492685
 40
27.49481017492685
 10
10.3775470755108
 20
57.9672632828289
 30
0.0
 41
0.8876484592691588
 10
10.65597828531441
 20
59.0683289458099
 30
0.0
 41
0.8876484592691588
 10
10.93440949511802
 20
60.16939460879089
 30
0.0
 41
0.8876484592691588
 10
11.02534796882458
 20
60.52901388750915
 30
0.0
 41
0.6276622448590131
 10
10.66179173596266
 20
60.6209479157426
 30
0.0
 41
0.8876484592691588
 10
10.29823550310069
 20
60.71288194397604
 30
0.0
 41
0.6276622448590131
 10
10.20729702939414
 20
60.35326266525777
 30
0.0
 41
0.8876484592691588
 10
10.00909725282363
 20
59.56947492628165
 30
0.0
 41
0.8876484592691588
 10
9.810897476253121
 20
58.78568718730552
 30
0.0
 41
0.8876484592691588
  0
SPLINE
  5
8C
330
1F
100
AcDbEntity
  8
Layer 01
370
    -3
100
AcDbSpline
210
0.0
220
0.0
230
1.0
 70
    12
 71
     2
 72
    12
 73
     9
 74
     0
 42
0.000000001
 43
0.0000000001
 40
0.7869661797835044
 40
0.7869661797835044
 40
0.7869661797835044
 40
17.85115635306605
 40
17.85115635306605
 40
19.42195267986094
 40
19.42195267986094
 40
20.99274900665584
 40
20.99274900665584
 40
39.68540951821299
 40
39.68540951821299
 40
39.68540951821299
 10
7.185972124843943
 20
42.95754489977246
 30
0.0
 41
1.0
 10
7.919220986558912
 20
42.34193599052966
 30
0.0
 41
1.0
 10
8.652469848273881
 20
41.72632708128686
 30
0.0
 41
1.0
 10
8.93765736616361
 20
41.48689407840827
 30
0.0
 41
0.7071067811865475
 10
9.17878087327719
 20
41.77409514790099
 30
0.0
 41
1.0
 10
9.419904380390763
 20
42.0612962173937
 30
0.0
 41
0.7071067811865475
 10
9.134716862500596
 20
42.30072922027178
 30
0.0
 41
1.0
 10
8.33149257213914
 20
42.97508693848199
 30
0.0
 41
1.0
 10
7.528268281777684
 20
43.64944465669219
 30
0.0
 41
1.0
  0
SPLINE
  5
8D
330
1F
100
AcDbEntity
  8
Layer 01
370
    -3
100
AcDbSpline
210
0.0
220
0.0
230
1.0
 70
     8
 71
     3
 72
     8
 73
     4
 74
     0
 42
0.000000001
 43
0.0000000001
 40
0.8660546067309377
 40
0.8660546067309377
 40
0.8660546067309377
 40
0.8660546067309377
 40
1.139136786143657
 40
1.139136786143657
 40
1.139136786143657
 40
1.139136786143657
 10
8.934387875708637
 20
54.84988635232612
 30
0.0
 10
8.99763079380196
 20
54.90791023299397
 30
0.0
 10
9.059206823173668
 20
54.96584191201629
 30
0.0
 10
9.118667821977908
 20
55.02328765955365
 30
0.0
  0
SPLINE
  5
8E
330
1F
100
AcDbEntity
  8
Layer 01
370
    -3
100
AcDbSpline
210
0.0
220
0.0
230
1.0
 70
    12
 71
     3
 72
   333
 73
   329
 74
     0
 42
0.000000001
 43
0.0000000001
 40
-32.55515408189513
 40
-32.55515408189513
 40
-32.55515408189513
 40
-32.55515408189513
 40
-32.25766905723495
 40
-32.25766905723495
 40
-32.25766905723495
 40
-32.16330035226183
 40
-32.16330035226183
 40
-32.16330035226183
 40
-31.02360155609639
 40
-29.8839027599306
 40
-29.0
 40
-29.0
 40
-29.0
 40
-28.0
 40
-28.0
 40
-28.0
 40
-27.0
 40
-27.0
 40
-26.0
 40
-26.0
 40
-25.0
 40
-25.0
 40
-24.0
 40
-24.0
 40
-23.0
 40
-23.0
 40
-22.0
 40
-22.0
 40
-21.0
 40
-21.0
 40
-20.0
 40
-20.0
 40
-20.0
 40
-19.0
 40
-19.0
 40
-19.0
 40
-18.0
 40
-18.0
 40
-17.0
 40
-17.0
 40
-16.0
 40
-16.0
 40
-15.0
 40
-15.0
 40
-14.0
 40
-14.0
 40
-13.0
 40
-13.0
 40
-12.0
 40
-12.0
 40
-11.0
 40
-11.0
 40
-10.0
 40
-10.0
 40
-9.0
 40
-9.0
 40
-8.0
 40
-8.0
 40
-7.0
 40
-7.0
 40
-6.0
 40
-6.0
 40
-5.0
 40
-5.0
 40
-5.0
 40
-4.0
 40
-4.0
 40
-4.0
 40
-3.0
 40
-3.0
 40
-3.0
 40
-2.0
 40
-2.0
 40
-2.0
 40
-1.0
 40
-1.0
 40
0.0
 40
0.0
 40
0.0
 40
1.0
 40
1.0
 40
2.0
 40
2.0
 40
3.0
 40
3.0
 40
4.0
 40
4.0
 40
5.0
 40
5.0
 40
6.0
 40
6.0
 40
7.0
 40
7.0
 40
8.0
 40
8.0
 40
9.0
 40
9.0
 40
10.0
 40
10.0
 40
11.0
 40
11.0
 40
12.0
 40
12.0
 40
13.0
 40
13.0
 40
14.0
 40
14.0
 40
15.0
 40
15.0
 40
16.0
 40
16.0
 40
17.0
 40
17.0
 40
18.0
 40
18.0
 40
19.0
 40
19.0
 40
20.0
 40
20.0
 40
21.0
 40
21.0
 40
22.0
 40
22.0
 40
23.0
 40
23.0
 40
24.0
 40
24.0
 40
25.0
 40
25.0
 40
26.0
 40
26.0
 40
27.0
 40
27.0
 40
28.0
 40
28.0
 40
29.0
 40
29.0
 40
30.0
 40
30.0
 40
31.0
 40
31.0
 40
32.0
 40
32.0
 40
33.0
 40
33.0
 40
34.0
 40
34.0
 40
35.0
 40
35.0
 40
36.0
 40
36.0
 40
37.0
 40
37.0
 40
38.0
 40
38.0
 40
39.0
 40
39.0
 40
40.0
 40
40.0
 40
41.0
 40
41.0
 40
42.0
 40
42.0
 40
43.0
 40
43.0
 40
43.0
 40
44.0
 40
44.0
 40
45.0
 40
45.0
 40
46.0
 40
46.0
 40
47.0
 40
47.0
 40
48.0
 40
48.0
 40
49.0
 40
49.0
 40
50.0
 40
50.0
 40
51.0
 40
51.0
 40
52.0
 40
52.0
 40
53.0
 40
53.0
 40
54.0
 40
54.0
 40
55.0
 40
55.0
 40
56.0
 40
56.0
 40
57.0
 40
57.0
 40
58.0
 40
58.0
 40
59.0
 40
59.0
 40
60.0
 40
60.0
 40
61.0
 40
61.0
 40
62.0
 40
62.0
 40
63.0
 40
63.0
 40
64.0
 40
64.0
 40
65.0
 40
65.0
 40
66.0
 40
66.0
 40
67.0
 40
67.0
 40
68.0
 40
68.0
 40
69.0
 40
69.0
 40
70.0
 40
70.0
 40
71.0
 40
71.0
 40
72.0
 40
72.0
 40
73.0
 40
73.0
 40
74.0
 40
74.0
 40
75.0
 40
75.0
 40
76.0
 40
76.0
 40
77.0
 40
77.0
 40
78.0
 40
78.0
 40
79.0
 40
79.0
 40
80.0
 40
80.0
 40
81.0
 40
81.0
 40
82.0
 40
82.0
 40
83.0
 40
83.0
 40
84.0
 40
84.0
 40
85.0
 40
85.0
 40
86.0
 40
86.0
 40
86.0
 40
87.0
 40
87.0
 40
88.0
 40
88.0
 40
88.0
 40
89.0
 40
89.0
 40
89.0
 40
90.0
 40
90.0
 40
90.0
 40
91.0
 40
91.0
 40
91.0
 40
92.0
 40
92.0
 40
93.0
 40
93.0
 40
94.0
 40
94.0
 40
95.0
 40
95.0
 40
96.0
 40
96.0
 40
97.0
 40
97.0
 40
98.0
 40
98.0
 40
99.0
 40
99.0
 40
100.0
 40
100.0
 40
101.0
 40
101.0
 40
102.0
 40
102.0
 40
103.0
 40
103.0
 40
104.0
 40
104.0
 40
105.0
 40
105.0
 40
105.0
 40
106.0
 40
106.0
 40
106.0
 40
107.0
 40
107.0
 40
108.0
 40
108.0
 40
109.0
 40
109.0
 40
110.0
 40
110.0
 40
111.0
 40
111.0
 40
112.0
 40
112.0
 40
113.0
 40
113.0
 40
114.0
 40
114.0
 40
114.0
 40
115.0
 40
115.0
 40
115.0
 40
115.8839027599306
 40
117.0236015560964
 40
118.1633003522618
 40
118.1633003522618
 40
118.1633003522618
 40
118.2576690572349
 40
118.2576690572349
 40
118.2576690572349
 40
118.5551540818951
 40
118.5551540818951
 40
118.5551540818951
 40
118.5551540818951
 10
8.88949727207493
 20
55.67537331688456
 30
0.0
 41
1.0
 10
8.925620954622259
 20
55.58301946058139
 30
0.0
 41
0.999886372602948
 10
8.960033424062985
 20
55.49001442221337
 30
0.0
 41
0.999886372602948
 10
8.992722949799123
 20
55.39638990554176
 30
0.0
 41
1.0
 10
9.000143039050336
 20
55.37513198308304
 30
0.0
 41
0.9999963028946831
 10
9.007492290657629
 20
55.353849466959
 30
0.0
 41
0.9999963028946831
 10
9.014770623108127
 20
55.33254259322076
 30
0.0
 41
1.0
 10
9.098462109615127
 20
55.08714587270476
 30
0.0
 41
1.0
 10
9.262164697301102
 20
54.58728875276375
 30
0.0
 41
1.0
 10
9.494166551970238
 20
53.86752864887797
 30
0.0
 41
1.0
 10
9.650157887614682
 20
53.39655506720833
 30
0.0
 41
1.0
 10
9.720192362221098
 20
53.1888368343541
 30
0.0
 41
1.0
 10
9.738249033463944
 20
53.13528178360403
 30
0.0
 41
1.0
 10
9.765800298331925
 20
53.04037045944077
 30
0.0
 41
1.0
 10
9.784162443837715
 20
52.98693035974708
 30
0.0
 41
1.0
 10
9.79260781155898
 20
52.96235146220857
 30
0.0
 41
1.0
 10
9.801424666653995
 20
52.93790628458422
 30
0.0
 41
1.0
 10
9.819801351591527
 20
52.88928336916382
 30
0.0
 41
1.0
 10
9.829440940419474
 20
52.86515133228882
 30
0.0
 41
1.0
 10
9.84962261079373
 20
52.81724610020925
 30
0.0
 41
1.0
 10
9.860280864458337
 20
52.79354748630485
 30
0.0
 41
1.0
 10
9.882732208742505
 20
52.74665826276682
 30
0.0
 41
1.0
 10
9.89469918894551
 20
52.72359312875945
 30
0.0
 41
1.0
 10
9.920115765473355
 20
52.67822181626804
 30
0.0
 41
1.0
 10
9.933851470562706
 20
52.65617626849377
 30
0.0
 41
1.0
 10
9.96337771439226
 20
52.61336538988806
 30
0.0
 41
1.0
 10
9.97958251294312
 20
52.59303315404147
 30
0.0
 41
1.0
 10
10.014875463317
 20
52.55451508926086
 30
0.0
 41
1.0
 10
10.03473525219792
 20
52.53798452245956
 30
0.0
 41
1.0
 10
10.07888145734771
 20
52.51038032003493
 30
0.0
 41
1.0
 10
10.10142645634804
 20
52.49744328403437
 30
0.0
 41
1.0
 10
10.12444335177381
 20
52.48537131324554
 30
0.0
 41
1.0
 10
10.14746024719956
 20
52.47329934245673
 30
0.0
 41
1.0
 10
10.17041425332102
 20
52.4611126079458
 30
0.0
 41
1.0
 10
10.19330537013821
 20
52.44881110971276
 30
0.0
 41
1.0
 10
10.21619648695537
 20
52.43650961147972
 30
0.0
 41
1.0
 10
10.23911505254181
 20
52.42425899945388
 30
0.0
 41
1.0
 10
10.28500708125325
 20
52.39985954781662
 30
0.0
 41
1.0
 10
10.30796369076708
 20
52.38767990449838
 30
0.0
 41
1.0
 10
10.35389810011097
 20
52.36336078286271
 30
0.0
 41
1.0
 10
10.37687749303562
 20
52.35122427941993
 30
0.0
 41
1.0
 10
10.42286065539035
 20
52.32699738728451
 30
0.0
 41
1.0
 10
10.44586290931732
 20
52.31490423912052
 30
0.0
 41
1.0
 10
10.49188876267048
 20
52.29075853859994
 30
0.0
 41
1.0
 10
10.51491141763882
 20
52.2787042773571
 30
0.0
 41
1.0
 10
10.56097618415907
 20
52.25463293290638
 30
0.0
 41
1.0
 10
10.58401730633176
 20
52.2426140144238
 30
0.0
 41
1.0
 10
10.63011702850232
 20
52.21860968494425
 30
0.0
 41
1.0
 10
10.65317468095299
 20
52.20662250789608
 30
0.0
 41
1.0
 10
10.69930556858511
 20
52.18267812918302
 30
0.0
 41
1.0
 10
10.72237788028651
 20
52.1707191903653
 30
0.0
 41
1.0
 10
10.76853623945998
 20
52.1468278138075
 30
0.0
 41
1.0
 10
10.79162138611302
 20
52.13489366913089
 30
0.0
 41
1.0
 10
10.83780361355171
 20
52.11104846698225
 30
0.0
 41
1.0
 10
10.8608998155705
 20
52.09913572937818
 30
0.0
 41
1.0
 10
10.90710239620693
 20
52.07532998111054
 30
0.0
 41
1.0
 10
10.9302079015404
 20
52.06343530002158
 30
0.0
 41
1.0
 10
10.97642734223785
 20
52.03966232393336
 30
0.0
 41
1.0
 10
10.99954046695563
 20
52.02778246728115
 30
0.0
 41
1.0
 10
11.04577352512931
 20
52.00403601676046
 30
0.0
 41
1.0
 10
11.06889243486297
 20
51.99216735255529
 30
0.0
 41
1.0
 10
11.11513501562395
 20
51.96843914625534
 30
0.0
 41
1.0
 10
11.13825893956015
 20
51.95658060516507
 30
0.0
 41
1.0
 10
11.16138549705207
 20
51.94472762613449
 30
0.0
 41
1.0
 10
11.18451205454398
 20
51.93287464710392
 30
0.0
 41
1.0
 10
11.20763409514233
 20
51.92101039905612
 30
0.0
 41
1.0
 10
11.23075161884711
 20
51.90913488199111
 30
0.0
 41
1.0
 10
11.25386914255187
 20
51.89725936492611
 30
0.0
 41
1.0
 10
11.27701821112379
 20
51.88545970231772
 30
0.0
 41
1.0
 10
11.30019882456287
 20
51.87373589416595
 30
0.0
 41
1.0
 10
11.32337943800195
 20
51.86201208601418
 30
0.0
 41
1.0
 10
11.34637579518636
 20
51.84984538513339
 30
0.0
 41
1.0
 10
11.3691878961161
 20
51.83723579152358
 30
0.0
 41
1.0
 10
11.39199999704588
 20
51.82462619791378
 30
0.0
 41
1.0
 10
11.41697349168365
 20
51.81248671443259
 30
0.0
 41
1.0
 10
11.47124326837516
 20
51.78914796772742
 30
0.0
 41
1.0
 10
11.5014160866376
 20
51.79187383113984
 30
0.0
 41
1.0
 10
11.53462683481672
 20
51.80899493131724
 30
0.0
 41
1.0
 10
11.66937764612804
 20
51.87846286763124
 30
0.0
 41
1.0
 10
11.74210756718334
 20
51.98869006279825
 30
0.0
 41
1.0
 10
11.76352562878192
 20
52.29066297083833
 30
0.0
 41
1.0
 10
11.7647827785831
 20
52.43663488091634
 30
0.0
 41
1.0
 10
11.74839331618922
 20
52.71854961318832
 30
0.0
 41
1.0
 10
11.73458117499042
 20
52.85978795989094
 30
0.0
 41
1.0
 10
11.69572207258908
 20
53.14282661442949
 30
0.0
 41
1.0
 10
11.67614229636063
 20
53.2841516773472
 30
0.0
 41
1.0
 10
11.63668229384817
 20
53.56641327447951
 30
0.0
 41
1.0
 10
11.61598473406029
 20
53.70743284684761
 30
0.0
 41
1.0
 10
11.57265449742123
 20
53.98924953918775
 30
0.0
 41
1.0
 10
11.55007735636076
 20
54.13000631054889
 30
0.0
 41
1.0
 10
11.50309902875798
 20
54.41121670365332
 30
0.0
 41
1.0
 10
11.47858702183033
 20
54.5516444702889
 30
0.0
 41
1.0
 10
11.42751732172249
 20
54.83214514372679
 30
0.0
 41
1.0
 10
11.40085720559576
 20
54.97218204967199
 30
0.0
 41
1.0
 10
11.34528644119673
 20
55.25182900001492
 30
0.0
 41
1.0
 10
11.31616032365184
 20
55.39137086834116
 30
0.0
 41
1.0
 10
11.25522661787136
 20
55.66989139130325
 30
0.0
 41
1.0
 10
11.2235621774575
 20
55.80888773690074
 30
0.0
 41
1.0
 10
11.15783812158258
 20
56.08635259632865
 30
0.0
 41
1.0
 10
11.12174635753699
 20
56.22424799753099
 30
0.0
 41
1.0
 10
11.04310335722958
 20
56.49836474291238
 30
0.0
 41
1.0
 10
10.99911508725734
 20
56.6339211098557
 30
0.0
 41
1.0
 10
10.90180500767578
 20
56.90202983224759
 30
0.0
 41
1.0
 10
10.8489189729738
 20
57.03438702134103
 30
0.0
 41
1.0
 10
10.7346849137474
 20
57.2957070553229
 30
0.0
 41
1.0
 10
10.67356037356381
 20
57.42446378622083
 30
0.0
 41
1.0
 10
10.54329627205585
 20
57.67817067583062
 30
0.0
 41
1.0
 10
10.47447079738959
 20
57.80298503124028
 30
0.0
 41
1.0
 10
10.32943300023253
 20
58.04853556326912
 30
0.0
 41
1.0
 10
10.25347598507182
 20
58.16914400547045
 30
0.0
 41
1.0
 10
10.09468572158602
 20
58.40602724224695
 30
0.0
 41
1.0
 10
10.01209634180899
 20
58.52219614601596
 30
0.0
 41
1.0
 10
9.840529086186672
 20
58.7499885243155
 30
0.0
 41
1.0
 10
9.751811798370492
 20
58.86154994966648
 30
0.0
 41
1.0
 10
9.568509902728087
 20
59.0800032727708
 30
0.0
 41
1.0
 10
9.47415795745889
 20
59.18684340770809
 30
0.0
 41
1.0
 10
9.280052072024512
 20
59.39575062435288
 30
0.0
 41
1.0
 10
9.18047698689216
 20
59.49774091088505
 30
0.0
 41
1.0
 10
8.976282531797125
 20
59.69679484036892
 30
0.0
 41
1.0
 10
8.871849476363948
 20
59.79380569883464
 30
0.0
 41
1.0
 10
8.658311709726277
 20
59.9827952032137
 30
0.0
 41
1.0
 10
8.549439539101831
 20
60.07479892464969
 30
0.0
 41
1.0
 10
8.327488623241715
 20
60.25382430601464
 30
0.0
 41
1.0
 10
8.214626379925841
 20
60.34088958475846
 30
0.0
 41
1.0
 10
7.985128322522461
 20
60.51012531836879
 30
0.0
 41
1.0
 10
7.868649958826822
 20
60.59229092833738
 30
0.0
 41
1.0
 10
7.632234561447646
 20
60.75171763460148
 30
0.0
 41
1.0
 10
7.512421889054498
 20
60.828940599903
 30
0.0
 41
1.0
 10
7.269586596861084
 20
60.97840575484492
 30
0.0
 41
1.0
 10
7.146671054073451
 20
61.05058767240254
 30
0.0
 41
1.0
 10
6.897844175116333
 20
61.18985018769109
 30
0.0
 41
1.0
 10
6.772037742857886
 20
61.25686630473577
 30
0.0
 41
1.0
 10
6.517638892781211
 20
61.38566825762587
 30
0.0
 41
1.0
 10
6.389168961689573
 20
61.44742545423956
 30
0.0
 41
1.0
 10
6.12968808739969
 20
61.56565228780423
 30
0.0
 41
1.0
 10
5.998815047356213
 20
61.62214011239411
 30
0.0
 41
1.0
 10
5.734803761472183
 20
61.72986457718891
 30
0.0
 41
1.0
 10
5.601807929731659
 20
61.78115729491257
 30
0.0
 41
1.0
 10
5.333835888653586
 20
61.87860370101244
 30
0.0
 41
1.0
 10
5.198997615891822
 20
61.92483903779603
 30
0.0
 41
1.0
 10
4.927616565922837
 20
62.01233397883052
 30
0.0
 41
1.0
 10
4.791200772466477
 20
62.05368633483179
 30
0.0
 41
1.0
 10
4.51691864861002
 20
62.13160081780245
 30
0.0
 41
1.0
 10
4.379166896472587
 20
62.16826065389259
 30
0.0
 41
1.0
 10
4.102442011779313
 20
62.23698551528247
 30
0.0
 41
1.0
 10
3.963571821423339
 20
62.26915306702983
 30
0.0
 41
1.0
 10
3.68481594469272
 20
62.32909841262938
 30
0.0
 41
1.0
 10
3.545021800358266
 20
62.35698133528349
 30
0.0
 41
1.0
 10
3.264601099751066
 20
62.40856768030033
 30
0.0
 41
1.0
 10
3.124055095513209
 20
62.43237615027616
 30
0.0
 41
1.0
 10
2.842291779168979
 20
62.47602368516269
 30
0.0
 41
1.0
 10
2.701145074610177
 20
62.49596808178664
 30
0.0
 41
1.0
 10
2.418321572719198
 20
62.53209813339591
 30
0.0
 41
1.0
 10
2.276706410977449
 20
62.54839098286461
 30
0.0
 41
1.0
 10
1.99306926590143
 20
62.57743232913015
 30
0.0
 41
1.0
 10
1.851100655149499
 20
62.59029137389907
 30
0.0
 41
1.0
 10
1.566863357217793
 20
62.61268620670919
 30
0.0
 41
1.0
 10
1.424640257539555
 20
62.6223384452944
 30
0.0
 41
1.0
 10
1.139985156758309
 20
62.63855256682505
 30
0.0
 41
1.0
 10
0.9975907232801831
 20
62.64522426326941
 30
0.0
 41
1.0
 10
0.7126680901489237
 20
62.65569692751618
 30
0.0
 41
1.0
 10
0.5701704033683276
 20
62.65959483493651
 30
0.0
 41
1.0
 10
0.2851022893772021
 20
62.66471380037098
 30
0.0
 41
1.0
 10
0.1425568405862805
 20
62.66598926210136
 30
0.0
 41
1.0
 10
0.0
 20
62.66598070284483
 30
0.0
 41
1.0
 10
-0.1425568405862805
 20
62.66598926210136
 30
0.0
 41
1.0
 10
-0.2851022893772021
 20
62.664713800371
 30
0.0
 41
1.0
 10
-0.5701704033683276
 20
62.65959483493649
 30
0.0
 41
1.0
 10
-0.7126680901489237
 20
62.65569692751618
 30
0.0
 41
1.0
 10
-0.9975907232801831
 20
62.64522426326941
 30
0.0
 41
1.0
 10
-1.139985156758309
 20
62.63855256682505
 30
0.0
 41
1.0
 10
-1.424640257539555
 20
62.6223384452944
 30
0.0
 41
1.0
 10
-1.566863357217793
 20
62.61268620670921
 30
0.0
 41
1.0
 10
-1.851100655149499
 20
62.59029137389906
 30
0.0
 41
1.0
 10
-1.99306926590143
 20
62.57743232913015
 30
0.0
 41
1.0
 10
-2.276706410977449
 20
62.54839098286462
 30
0.0
 41
1.0
 10
-2.418321572719198
 20
62.53209813339591
 30
0.0
 41
1.0
 10
-2.701145074610177
 20
62.49596808178664
 30
0.0
 41
1.0
 10
-2.842291779168979
 20
62.47602368516269
 30
0.0
 41
1.0
 10
-3.124055095513209
 20
62.43237615027618
 30
0.0
 41
1.0
 10
-3.264601099751066
 20
62.40856768030033
 30
0.0
 41
1.0
 10
-3.545021800358266
 20
62.35698133528349
 30
0.0
 41
1.0
 10
-3.68481594469272
 20
62.32909841262938
 30
0.0
 41
1.0
 10
-3.963571821423339
 20
62.26915306702983
 30
0.0
 41
1.0
 10
-4.102442011779313
 20
62.23698551528247
 30
0.0
 41
1.0
 10
-4.379166896472587
 20
62.1682606538926
 30
0.0
 41
1.0
 10
-4.516918648610026
 20
62.13160081780245
 30
0.0
 41
1.0
 10
-4.7912007724665
 20
62.05368633483179
 30
0.0
 41
1.0
 10
-4.927616565922861
 20
62.0123339788305
 30
0.0
 41
1.0
 10
-5.198997615891827
 20
61.92483903779603
 30
0.0
 41
1.0
 10
-5.333835888653586
 20
61.87860370101243
 30
0.0
 41
1.0
 10
-5.601807929731659
 20
61.78115729491258
 30
0.0
 41
1.0
 10
-5.734803761472179
 20
61.72986457718891
 30
0.0
 41
1.0
 10
-5.998815047356189
 20
61.62214011239411
 30
0.0
 41
1.0
 10
-6.129688087399667
 20
61.56565228780423
 30
0.0
 41
1.0
 10
-6.389168961689568
 20
61.44742545423957
 30
0.0
 41
1.0
 10
-6.517638892781211
 20
61.38566825762587
 30
0.0
 41
1.0
 10
-6.772037742857886
 20
61.25686630473577
 30
0.0
 41
1.0
 10
-6.897844175116333
 20
61.1898501876911
 30
0.0
 41
1.0
 10
-7.146671054073451
 20
61.05058767240254
 30
0.0
 41
1.0
 10
-7.269586596861084
 20
60.97840575484491
 30
0.0
 41
1.0
 10
-7.512421889054498
 20
60.828940599903
 30
0.0
 41
1.0
 10
-7.632234561447646
 20
60.7517176346015
 30
0.0
 41
1.0
 10
-7.868649958826822
 20
60.5922909283374
 30
0.0
 41
1.0
 10
-7.985128322522456
 20
60.51012531836878
 30
0.0
 41
1.0
 10
-8.214626379925818
 20
60.34088958475845
 30
0.0
 41
1.0
 10
-8.327488623241692
 20
60.25382430601464
 30
0.0
 41
1.0
 10
-8.549439539101826
 20
60.07479892464969
 30
0.0
 41
1.0
 10
-8.658311709726277
 20
59.9827952032137
 30
0.0
 41
1.0
 10
-8.871849476363948
 20
59.79380569883464
 30
0.0
 41
1.0
 10
-8.976282531797125
 20
59.69679484036891
 30
0.0
 41
1.0
 10
-9.18047698689216
 20
59.49774091088506
 30
0.0
 41
1.0
 10
-9.280052072024512
 20
59.39575062435288
 30
0.0
 41
1.0
 10
-9.47415795745889
 20
59.18684340770809
 30
0.0
 41
1.0
 10
-9.568509902728087
 20
59.0800032727708
 30
0.0
 41
1.0
 10
-9.751811798370492
 20
58.86154994966648
 30
0.0
 41
1.0
 10
-9.840529086186672
 20
58.7499885243155
 30
0.0
 41
1.0
 10
-10.01209634180899
 20
58.52219614601595
 30
0.0
 41
1.0
 10
-10.09468572158602
 20
58.40602724224695
 30
0.0
 41
1.0
 10
-10.25347598507182
 20
58.16914400547045
 30
0.0
 41
1.0
 10
-10.32943300023253
 20
58.04853556326912
 30
0.0
 41
1.0
 10
-10.47447079738959
 20
57.80298503124029
 30
0.0
 41
1.0
 10
-10.54329627205585
 20
57.67817067583062
 30
0.0
 41
1.0
 10
-10.67356037356381
 20
57.42446378622083
 30
0.0
 41
1.0
 10
-10.7346849137474
 20
57.29570705532291
 30
0.0
 41
1.0
 10
-10.8489189729738
 20
57.03438702134103
 30
0.0
 41
1.0
 10
-10.90180500767578
 20
56.90202983224759
 30
0.0
 41
1.0
 10
-10.99911508725734
 20
56.63392110985569
 30
0.0
 41
1.0
 10
-11.04310335722958
 20
56.49836474291238
 30
0.0
 41
1.0
 10
-11.12174635753699
 20
56.22424799753099
 30
0.0
 41
1.0
 10
-11.15783812158258
 20
56.08635259632865
 30
0.0
 41
1.0
 10
-11.2235621774575
 20
55.80888773690074
 30
0.0
 41
1.0
 10
-11.25522661787136
 20
55.66989139130325
 30
0.0
 41
1.0
 10
-11.31616032365184
 20
55.39137086834117
 30
0.0
 41
1.0
 10
-11.34528644119673
 20
55.25182900001492
 30
0.0
 41
1.0
 10
-11.40085720559576
 20
54.97218204967199
 30
0.0
 41
1.0
 10
-11.42751732172249
 20
54.83214514372679
 30
0.0
 41
1.0
 10
-11.47858702183033
 20
54.5516444702889
 30
0.0
 41
1.0
 10
-11.50309902875798
 20
54.41121670365332
 30
0.0
 41
1.0
 10
-11.55007735636076
 20
54.13000631054889
 30
0.0
 41
1.0
 10
-11.57265449742123
 20
53.98924953918775
 30
0.0
 41
1.0
 10
-11.61598473406029
 20
53.70743284684762
 30
0.0
 41
1.0
 10
-11.63668229384817
 20
53.56641327447951
 30
0.0
 41
1.0
 10
-11.67614229636063
 20
53.2841516773472
 30
0.0
 41
1.0
 10
-11.69572207258908
 20
53.14282661442949
 30
0.0
 41
1.0
 10
-11.73458117499042
 20
52.85978795989094
 30
0.0
 41
1.0
 10
-11.74839331618922
 20
52.71854961318832
 30
0.0
 41
1.0
 10
-11.7647827785831
 20
52.43663488091635
 30
0.0
 41
1.0
 10
-11.76352562878192
 20
52.29066297083833
 30
0.0
 41
1.0
 10
-11.74210756718334
 20
51.98869006279826
 30
0.0
 41
1.0
 10
-11.66937764612804
 20
51.87846286763124
 30
0.0
 41
1.0
 10
-11.53462683481672
 20
51.80899493131724
 30
0.0
 41
1.0
 10
-11.5014160866376
 20
51.79187383113984
 30
0.0
 41
1.0
 10
-11.47124326837516
 20
51.78914796772742
 30
0.0
 41
1.0
 10
-11.41697349168365
 20
51.81248671443259
 30
0.0
 41
1.0
 10
-11.39199999704588
 20
51.82462619791378
 30
0.0
 41
1.0
 10
-11.3691878961161
 20
51.83723579152358
 30
0.0
 41
1.0
 10
-11.34637579518636
 20
51.84984538513339
 30
0.0
 41
1.0
 10
-11.32337943800195
 20
51.86201208601418
 30
0.0
 41
1.0
 10
-11.30019882456287
 20
51.87373589416595
 30
0.0
 41
1.0
 10
-11.27701821112379
 20
51.88545970231772
 30
0.0
 41
1.0
 10
-11.25386914255187
 20
51.89725936492611
 30
0.0
 41
1.0
 10
-11.23075161884711
 20
51.90913488199111
 30
0.0
 41
1.0
 10
-11.20763409514233
 20
51.92101039905612
 30
0.0
 41
1.0
 10
-11.18451205454398
 20
51.93287464710392
 30
0.0
 41
1.0
 10
-11.16138549705207
 20
51.94472762613449
 30
0.0
 41
1.0
 10
-11.13825893956015
 20
51.95658060516507
 30
0.0
 41
1.0
 10
-11.11513501562395
 20
51.96843914625534
 30
0.0
 41
1.0
 10
-11.06889243486297
 20
51.9921673525553
 30
0.0
 41
1.0
 10
-11.04577352512931
 20
52.00403601676046
 30
0.0
 41
1.0
 10
-10.99954046695563
 20
52.02778246728113
 30
0.0
 41
1.0
 10
-10.97642734223785
 20
52.03966232393336
 30
0.0
 41
1.0
 10
-10.9302079015404
 20
52.06343530002157
 30
0.0
 41
1.0
 10
-10.90710239620693
 20
52.07532998111054
 30
0.0
 41
1.0
 10
-10.8608998155705
 20
52.09913572937818
 30
0.0
 41
1.0
 10
-10.83780361355171
 20
52.11104846698225
 30
0.0
 41
1.0
 10
-10.791621386113
 20
52.1348936691309
 30
0.0
 41
1.0
 10
-10.76853623945996
 20
52.1468278138075
 30
0.0
 41
1.0
 10
-10.72237788028651
 20
52.17071919036531
 30
0.0
 41
1.0
 10
-10.69930556858511
 20
52.18267812918302
 30
0.0
 41
1.0
 10
-10.65317468095299
 20
52.20662250789608
 30
0.0
 41
1.0
 10
-10.63011702850232
 20
52.21860968494425
 30
0.0
 41
1.0
 10
-10.58401730633176
 20
52.24261401442381
 30
0.0
 41
1.0
 10
-10.56097618415907
 20
52.25463293290637
 30
0.0
 41
1.0
 10
-10.51491141763882
 20
52.2787042773571
 30
0.0
 41
1.0
 10
-10.49188876267048
 20
52.29075853859993
 30
0.0
 41
1.0
 10
-10.44586290931732
 20
52.31490423912052
 30
0.0
 41
1.0
 10
-10.42286065539035
 20
52.32699738728451
 30
0.0
 41
1.0
 10
-10.3768774930356
 20
52.35122427941993
 30
0.0
 41
1.0
 10
-10.35389810011094
 20
52.36336078286271
 30
0.0
 41
1.0
 10
-10.30796369076708
 20
52.38767990449839
 30
0.0
 41
1.0
 10
-10.28500708125325
 20
52.39985954781662
 30
0.0
 41
1.0
 10
-10.23911505254181
 20
52.42425899945388
 30
0.0
 41
1.0
 10
-10.21619648695537
 20
52.43650961147972
 30
0.0
 41
1.0
 10
-10.19330537013821
 20
52.44881110971276
 30
0.0
 41
1.0
 10
-10.17041425332102
 20
52.4611126079458
 30
0.0
 41
1.0
 10
-10.14746024719956
 20
52.47329934245673
 30
0.0
 41
1.0
 10
-10.12444335177381
 20
52.48537131324554
 30
0.0
 41
1.0
 10
-10.10142645634804
 20
52.49744328403437
 30
0.0
 41
1.0
 10
-10.07888145734771
 20
52.51038032003493
 30
0.0
 41
1.0
 10
-10.03473525219792
 20
52.53798452245957
 30
0.0
 41
1.0
 10
-10.014875463317
 20
52.55451508926086
 30
0.0
 41
1.0
 10
-9.97958251294312
 20
52.59303315404147
 30
0.0
 41
1.0
 10
-9.96337771439226
 20
52.61336538988805
 30
0.0
 41
1.0
 10
-9.933851470562706
 20
52.65617626849377
 30
0.0
 41
1.0
 10
-9.920115765473355
 20
52.67822181626804
 30
0.0
 41
1.0
 10
-9.89469918894551
 20
52.72359312875945
 30
0.0
 41
1.0
 10
-9.882732208742505
 20
52.74665826276682
 30
0.0
 41
1.0
 10
-9.860280864458337
 20
52.79354748630485
 30
0.0
 41
1.0
 10
-9.84962261079373
 20
52.81724610020925
 30
0.0
 41
1.0
 10
-9.829440940419474
 20
52.86515133228882
 30
0.0
 41
1.0
 10
-9.819801351591527
 20
52.88928336916382
 30
0.0
 41
1.0
 10
-9.801424666653995
 20
52.93790628458422
 30
0.0
 41
1.0
 10
-9.79260781155898
 20
52.96235146220857
 30
0.0
 41
1.0
 10
-9.784162443837715
 20
52.98693035974708
 30
0.0
 41
1.0
 10
-9.765800298331925
 20
53.04037045944077
 30
0.0
 41
1.0
 10
-9.738249033463944
 20
53.13528178360403
 30
0.0
 41
1.0
 10
-9.720192362221098
 20
53.1888368343541
 30
0.0
 41
1.0
 10
-9.650157887614682
 20
53.39655506720833
 30
0.0
 41
1.0
 10
-9.494166551970238
 20
53.86752864887797
 30
0.0
 41
1.0
 10
-9.262164697301102
 20
54.58728875276375
 30
0.0
 41
1.0
 10
-9.098462109615127
 20
55.08714587270476
 30
0.0
 41
1.0
 10
-9.014770623108127
 20
55.33254259322076
 30
0.0
 41
1.0
 10
-9.007492290657629
 20
55.353849466959
 30
0.0
 41
0.9999963028946831
 10
-9.00014303905034
 20
55.37513198308304
 30
0.0
 41
0.9999963028946831
 10
-8.992722949799123
 20
55.39638990554176
 30
0.0
 41
1.0
 10
-8.960033424062985
 20
55.49001442221337
 30
0.0
 41
0.999886372602948
 10
-8.925620954622259
 20
55.58301946058138
 30
0.0
 41
0.999886372602948
 10
-8.88949727207493
 20
55.67537331688456
 30
0.0
 41
1.0
  0
SPLINE
  5
8F
330
1F
100
AcDbEntity
  8
Layer 01
370
    -3
100
AcDbSpline
210
0.0
220
0.0
230
1.0
 70
     8
 71
     2
 72
    62
 73
    59
 74
     0
 42
0.000000001
 43
0.0000000001
 40
-28.0
 40
-28.0
 40
-28.0
 40
-27.0
 40
-26.0
 40
-25.0
 40
-24.0
 40
-23.0
 40
-22.0
 40
-21.0
 40
-20.0
 40
-19.0
 40
-18.0
 40
-17.0
 40
-16.0
 40
-15.0
 40
-14.0
 40
-13.0
 40
-12.0
 40
-11.0
 40
-10.0
 40
-9.0
 40
-8.0
 40
-7.0
 40
-6.0
 40
-5.0
 40
-4.0
 40
-3.0
 40
-2.0
 40
-1.0
 40
0.0
 40
0.0
 40
1.0
 40
2.0
 40
3.0
 40
4.0
 40
5.0
 40
6.0
 40
7.0
 40
8.0
 40
9.0
 40
10.0
 40
11.0
 40
12.0
 40
13.0
 40
14.0
 40
15.0
 40
16.0
 40
17.0
 40
18.0
 40
19.0
 40
20.0
 40
21.0
 40
22.0
 40
23.0
 40
24.0
 40
25.0
 40
26.0
 40
27.0
 40
28.0
 40
28.0
 40
28.0
 10
-4.974248670017573
 20
58.10738515795676
 30
0.0
 10
-4.975709345932046
 20
58.21309621533726
 30
0.0
 10
-4.975438697348579
 20
58.42456563800148
 30
0.0
 10
-4.960727628272508
 20
58.63580496658373
 30
0.0
 10
-4.913581880915046
 20
58.84214400215645
 30
0.0
 10
-4.827502468374291
 20
59.03801398798237
 30
0.0
 10
-4.669252307740493
 20
59.18114233739748
 30
0.0
 10
-4.48157044186496
 20
59.27989647312815
 30
0.0
 10
-4.285457201651411
 20
59.35911092437279
 30
0.0
 10
-4.08447770180868
 20
59.42503502759876
 30
0.0
 10
-3.880729076700561
 20
59.48169794164357
 30
0.0
 10
-3.674997462552483
 20
59.53059080820264
 30
0.0
 10
-3.468970444213653
 20
59.57817234643372
 30
0.0
 10
-3.261336504871963
 20
59.61827527480999
 30
0.0
 10
-3.053185750792466
 20
59.6554915038614
 30
0.0
 10
-2.844493751346562
 20
59.68956580917428
 30
0.0
 10
-2.635338111418406
 20
59.72066002601948
 30
0.0
 10
-2.425774462103163
 20
59.74887307516479
 30
0.0
 10
-2.215854839314147
 20
59.77430034708257
 30
0.0
 10
-2.005625986470989
 20
59.79702797232686
 30
0.0
 10
-1.795131196422517
 20
59.81714234558769
 30
0.0
 10
-1.584410760193578
 20
59.83473236583728
 30
0.0
 10
-1.373500743883483
 20
59.84988133157411
 30
0.0
 10
-1.162434314391106
 20
59.8626648673192
 30
0.0
 10
-0.9512407055941878
 20
59.87313415924277
 30
0.0
 10
-0.7399487803312184
 20
59.88138445224764
 30
0.0
 10
-0.5285843701890371
 20
59.88749620947964
 30
0.0
 10
-0.3171698343168998
 20
59.89151370338132
 30
0.0
 10
-0.1057262961593324
 20
59.89347529190251
 30
0.0
 10
0.0
 20
59.89345043647876
 30
0.0
 10
0.1057262961593324
 20
59.89347529190251
 30
0.0
 10
0.3171698343168998
 20
59.89151370338132
 30
0.0
 10
0.5285843701890371
 20
59.88749620947964
 30
0.0
 10
0.7399487803312184
 20
59.88138445224764
 30
0.0
 10
0.9512407055941878
 20
59.87313415924277
 30
0.0
 10
1.162434314391106
 20
59.8626648673192
 30
0.0
 10
1.373500743883483
 20
59.84988133157411
 30
0.0
 10
1.584410760193578
 20
59.83473236583728
 30
0.0
 10
1.795131196422517
 20
59.81714234558769
 30
0.0
 10
2.005625986470989
 20
59.79702797232686
 30
0.0
 10
2.215854839314147
 20
59.77430034708257
 30
0.0
 10
2.425774462103163
 20
59.74887307516479
 30
0.0
 10
2.635338111418406
 20
59.72066002601948
 30
0.0
 10
2.844493751346562
 20
59.68956580917428
 30
0.0
 10
3.053185750792466
 20
59.6554915038614
 30
0.0
 10
3.261336504871963
 20
59.61827527480999
 30
0.0
 10
3.468970444213653
 20
59.57817234643372
 30
0.0
 10
3.674997462552483
 20
59.53059080820264
 30
0.0
 10
3.880729076700561
 20
59.48169794164357
 30
0.0
 10
4.08447770180868
 20
59.42503502759876
 30
0.0
 10
4.285457201651411
 20
59.35911092437279
 30
0.0
 10
4.48157044186496
 20
59.27989647312815
 30
0.0
 10
4.669252307740493
 20
59.18114233739748
 30
0.0
 10
4.827502468374291
 20
59.03801398798237
 30
0.0
 10
4.913581880915046
 20
58.84214400215645
 30
0.0
 10
4.960727628272508
 20
58.63580496658373
 30
0.0
 10
4.975438697348579
 20
58.42456563800148
 30
0.0
 10
4.975709345932046
 20
58.21309621533726
 30
0.0
 10
4.974248670017573
 20
58.10738515795676
 30
0.0
  0
SPLINE
  5
90
330
1F
100
AcDbEntity
  8
Layer 01
370
    -3
100
AcDbSpline
210
0.0
220
0.0
230
1.0
 70
     8
 71
     3
 72
   251
 73
   247
 74
     0
 42
0.000000001
 43
0.0000000001
 40
-57.99081012623516
 40
-57.99081012623516
 40
-57.99081012623516
 40
-57.99081012623516
 40
-56.99081012623516
 40
-56.99081012623516
 40
-55.99081012623516
 40
-55.99081012623516
 40
-54.99081012623516
 40
-54.99081012623516
 40
-53.99081012623516
 40
-53.99081012623516
 40
-52.99081012623516
 40
-52.99081012623516
 40
-51.99081012623516
 40
-51.99081012623516
 40
-50.99081012623516
 40
-50.99081012623516
 40
-49.99081012623516
 40
-49.99081012623516
 40
-48.99081012623516
 40
-48.99081012623516
 40
-47.99081012623516
 40
-47.99081012623516
 40
-46.99081012623516
 40
-46.99081012623516
 40
-45.99081012623516
 40
-45.99081012623516
 40
-44.99081012623516
 40
-44.99081012623516
 40
-43.99081012623516
 40
-43.99081012623516
 40
-42.99081012623516
 40
-42.99081012623516
 40
-41.99081012623516
 40
-41.99081012623516
 40
-40.99081012623516
 40
-40.99081012623516
 40
-39.99081012623516
 40
-39.99081012623516
 40
-38.99081012623516
 40
-38.99081012623516
 40
-37.99081012623516
 40
-37.99081012623516
 40
-36.99081012623516
 40
-36.99081012623516
 40
-35.99081012623516
 40
-35.99081012623516
 40
-34.99081012623516
 40
-34.99081012623516
 40
-33.99081012623516
 40
-33.99081012623516
 40
-32.99081012623516
 40
-32.99081012623516
 40
-31.99081012623516
 40
-31.99081012623516
 40
-30.99081012623516
 40
-30.99081012623516
 40
-29.99081012623516
 40
-29.99081012623516
 40
-29.99081012623516
 40
-29.70640867963022
 40
-29.42200723302508
 40
-29.13760578642015
 40
-28.85320433981501
 40
-28.56880289321007
 40
-28.28440144660494
 40
-28.0
 40
-28.0
 40
-28.0
 40
-27.0
 40
-27.0
 40
-26.0
 40
-26.0
 40
-25.0
 40
-25.0
 40
-24.0
 40
-24.0
 40
-23.0
 40
-23.0
 40
-22.0
 40
-22.0
 40
-21.0
 40
-21.0
 40
-20.0
 40
-20.0
 40
-19.0
 40
-19.0
 40
-18.0
 40
-18.0
 40
-17.0
 40
-17.0
 40
-16.0
 40
-16.0
 40
-15.0
 40
-15.0
 40
-14.0
 40
-14.0
 40
-13.0
 40
-13.0
 40
-12.0
 40
-12.0
 40
-11.0
 40
-11.0
 40
-10.0
 40
-10.0
 40
-9.0
 40
-9.0
 40
-8.0
 40
-8.0
 40
-7.0
 40
-7.0
 40
-6.0
 40
-6.0
 40
-5.0
 40
-5.0
 40
-4.0
 40
-4.0
 40
-3.0
 40
-3.0
 40
-2.0
 40
-2.0
 40
-1.0
 40
-1.0
 40
0.0
 40
0.0
 40
0.0
 40
1.0
 40
1.0
 40
2.0
 40
2.0
 40
3.0
 40
3.0
 40
4.0
 40
4.0
 40
5.0
 40
5.0
 40
6.0
 40
6.0
 40
7.0
 40
7.0
 40
8.0
 40
8.0
 40
9.0
 40
9.0
 40
10.0
 40
10.0
 40
11.0
 40
11.0
 40
12.0
 40
12.0
 40
13.0
 40
13.0
 40
14.0
 40
14.0
 40
15.0
 40
15.0
 40
16.0
 40
16.0
 40
17.0
 40
17.0
 40
18.0
 40
18.0
 40
19.0
 40
19.0
 40
20.0
 40
20.0
 40
21.0
 40
21.0
 40
22.0
 40
22.0
 40
23.0
 40
23.0
 40
24.0
 40
24.0
 40
25.0
 40
25.0
 40
26.0
 40
26.0
 40
27.0
 40
27.0
 40
28.0
 40
28.0
 40
28.0
 40
28.28440144660494
 40
28.56880289321007
 40
28.85320433981501
 40
29.13760578642015
 40
29.42200723302508
 40
29.70640867963022
 40
29.99081012623516
 40
29.99081012623516
 40
29.99081012623516
 40
30.99081012623516
 40
30.99081012623516
 40
31.99081012623516
 40
31.99081012623516
 40
32.99081012623516
 40
32.99081012623516
 40
33.99081012623516
 40
33.99081012623516
 40
34.99081012623516
 40
34.99081012623516
 40
35.99081012623516
 40
35.99081012623516
 40
36.99081012623516
 40
36.99081012623516
 40
37.99081012623516
 40
37.99081012623516
 40
38.99081012623516
 40
38.99081012623516
 40
39.99081012623516
 40
39.99081012623516
 40
40.99081012623516
 40
40.99081012623516
 40
41.99081012623516
 40
41.99081012623516
 40
42.99081012623516
 40
42.99081012623516
 40
43.99081012623516
 40
43.99081012623516
 40
44.99081012623516
 40
44.99081012623516
 40
45.99081012623516
 40
45.99081012623516
 40
46.99081012623516
 40
46.99081012623516
 40
47.99081012623516
 40
47.99081012623516
 40
48.99081012623516
 40
48.99081012623516
 40
49.99081012623516
 40
49.99081012623516
 40
50.99081012623516
 40
50.99081012623516
 40
51.99081012623516
 40
51.99081012623516
 40
52.99081012623516
 40
52.99081012623516
 40
53.99081012623516
 40
53.99081012623516
 40
54.99081012623516
 40
54.99081012623516
 40
55.99081012623516
 40
55.99081012623516
 40
56.99081012623516
 40
56.99081012623516
 40
57.99081012623516
 40
57.99081012623516
 40
57.99081012623516
 40
57.99081012623516
 10
9.720192362221098
 20
53.1888368343541
 30
0.0
 10
9.72841288862829
 20
53.16444151601619
 30
0.0
 10
9.736656937613697
 20
53.14005421969389
 30
0.0
 10
9.75319208074095
 20
53.09129567108048
 30
0.0
 10
9.76143512558266
 20
53.06690774229302
 30
0.0
 10
9.77787216182225
 20
53.01811457575661
 30
0.0
 10
9.786354818557115
 20
52.99380961499992
 30
0.0
 10
9.803848409256986
 20
52.94538293850965
 30
0.0
 10
9.813028428681642
 20
52.92133391713761
 30
0.0
 10
9.8322549156804
 20
52.87356450813972
 30
0.0
 10
9.842416222012508
 20
52.84991368112825
 30
0.0
 10
9.863834960342183
 20
52.80307978208025
 30
0.0
 10
9.875275278743993
 20
52.78002345320567
 30
0.0
 10
9.899617814021559
 20
52.73463203675531
 30
0.0
 10
9.912787338695546
 20
52.71251584677554
 30
0.0
 10
9.941122902113937
 20
52.66944250330683
 30
0.0
 10
9.957187427380092
 20
52.64933993061978
 30
0.0
 10
9.99310996502632
 20
52.61200298334033
 30
0.0
 10
10.01364347322854
 20
52.59680920301523
 30
0.0
 10
10.05985496839117
 20
52.57337102899432
 30
0.0
 10
10.08268559659958
 20
52.56133492296841
 30
0.0
 10
10.12779661427059
 20
52.53662867288566
 30
0.0
 10
10.15041533597082
 20
52.52435957700119
 30
0.0
 10
10.19577920510073
 20
52.49998944354603
 30
0.0
 10
10.21846570950932
 20
52.48781864643153
 30
0.0
 10
10.26384785801373
 20
52.46350559142866
 30
0.0
 10
10.28655300140722
 20
52.45137440237073
 30
0.0
 10
10.33199142647674
 20
52.4271627011419
 30
0.0
 10
10.35472254269383
 20
52.41507941577569
 30
0.0
 10
10.40020858249266
 20
52.39095797553972
 30
0.0
 10
10.4229634128659
 20
52.37891955531197
 30
0.0
 10
10.46849669456005
 20
52.35488731463693
 30
0.0
 10
10.49127419627546
 20
52.34289181905799
 30
0.0
 10
10.53685092144295
 20
52.3189420774173
 30
0.0
 10
10.55964896477151
 20
52.30698566638311
 30
0.0
 10
10.60526441291824
 20
52.28310976388702
 30
0.0
 10
10.62808075290386
 20
52.27118830328129
 30
0.0
 10
10.67373066469965
 20
52.24737836335446
 30
0.0
 10
10.69656322640523
 20
52.23548800013229
 30
0.0
 10
10.74224356143176
 20
52.21173648717041
 30
0.0
 10
10.76509037876317
 20
52.1998735386151
 30
0.0
 10
10.81079731306227
 20
52.17617325735576
 30
0.0
 10
10.83365653554584
 20
52.16433423153561
 30
0.0
 10
10.87938649118102
 20
52.14067840951441
 30
0.0
 10
10.90225628644169
 20
52.12885981971687
 30
0.0
 10
10.94800551184919
 20
52.10524128254787
 30
0.0
 10
10.97088373639968
 20
52.09343901605265
 30
0.0
 10
11.01664740919415
 20
52.06984848724071
 30
0.0
 10
11.03953169901895
 20
52.05805798500428
 30
0.0
 10
11.08530518552367
 20
52.03448650487051
 30
0.0
 10
11.10819326033224
 20
52.02270335088625
 30
0.0
 10
11.15397207306179
 20
51.99914221508298
 30
0.0
 10
11.17686172146394
 20
51.98736212026251
 30
0.0
 10
11.222641502343
 20
51.96380287678392
 30
0.0
 10
11.24553057872972
 20
51.95202167160736
 30
0.0
 10
11.29130710339755
 20
51.9284560943797
 30
0.0
 10
11.31419352282304
 20
51.91666972334612
 30
0.0
 10
11.33707809934009
 20
51.90487976989276
 30
0.0
 10
11.36110979645008
 20
51.89285323801376
 30
0.0
 10
11.40520769698009
 20
51.88733489104976
 30
0.0
 10
11.46001931478008
 20
51.93648226389976
 30
0.0
 10
11.50052619200011
 20
52.03785047191076
 30
0.0
 10
11.52540930368008
 20
52.18500489861976
 30
0.0
 10
11.53412617479012
 20
52.37082823650675
 30
0.0
 10
11.52631309059012
 20
52.59323162517676
 30
0.0
 10
11.50990932847009
 20
52.75926508736976
 30
0.0
 10
11.49884535483011
 20
52.84723920452276
 30
0.0
 10
11.47371944127989
 20
53.04681948869688
 30
0.0
 10
11.44701011660987
 20
53.24618793870804
 30
0.0
 10
11.39042464503021
 20
53.6445011704045
 30
0.0
 10
11.36038474909181
 20
53.84339425651672
 30
0.0
 10
11.29681063691784
 20
54.24065336926915
 30
0.0
 10
11.26303360130351
 20
54.43894670945019
 30
0.0
 10
11.19149957102018
 20
54.83486095742186
 30
0.0
 10
11.15326718003997
 20
55.03233521602298
 30
0.0
 10
11.07187164640248
 20
55.42631800245582
 30
0.0
 10
11.02896520378837
 20
55.62285646454173
 30
0.0
 10
10.93873496696946
 20
56.01502752645252
 30
0.0
 10
10.88678043903194
 20
56.20931040982621
 30
0.0
 10
10.76919256410077
 20
56.59427088141013
 30
0.0
 10
10.70094082896641
 20
56.78336835053826
 30
0.0
 10
10.54552176336015
 20
57.15479775546689
 30
0.0
 10
10.45966317806123
 20
57.33664113162691
 30
0.0
 10
10.27164790247183
 20
57.69258523133832
 30
0.0
 10
10.17025359829076
 20
57.8662401664464
 30
0.0
 10
9.952691657155905
 20
58.20491580716733
 30
0.0
 10
9.837295044778065
 20
58.36960919321515
 30
0.0
 10
9.593270536401556
 20
58.68970709668546
 30
0.0
 10
9.465409018940965
 20
58.8449311105961
 30
0.0
 10
9.197987457475103
 20
59.14572926276836
 30
0.0
 10
9.05905214811392
 20
59.29113102574792
 30
0.0
 10
8.770732472135052
 20
59.57193992549387
 30
0.0
 10
8.621897992830133
 20
59.7071934308161
 30
0.0
 10
8.314879751589325
 20
59.96739855235908
 30
0.0
 10
8.157410730935325
 20
60.09250874466665
 30
0.0
 10
7.834552889560129
 20
60.33274439235394
 30
0.0
 10
7.669635539880161
 20
60.44786176387515
 30
0.0
 10
7.332823982535487
 20
60.66809560227275
 30
0.0
 10
7.161286701198762
 20
60.7730968370339
 30
0.0
 10
6.811949133196535
 20
60.97286793768086
 30
0.0
 10
6.634420987132088
 20
61.06738155169634
 30
0.0
 10
6.27364597087653
 20
61.24566490711126
 30
0.0
 10
6.09081804576824
 20
61.32947681178064
 30
0.0
 10
5.720281361590641
 20
61.48644107504322
 30
0.0
 10
5.532979863865137
 20
61.55971923622332
 30
0.0
 10
5.154310557140718
 20
61.6958676176811
 30
0.0
 10
4.963319669925805
 20
61.75891517645106
 30
0.0
 10
4.578025427790569
 20
61.87495703007317
 30
0.0
 10
4.384078652994475
 20
61.92823514416121
 30
0.0
 10
3.993585795945336
 20
62.02530574689127
 30
0.0
 10
3.797349089088726
 20
62.06942286333327
 30
0.0
 10
3.402895118711427
 20
62.14882072637115
 30
0.0
 10
3.20493522949368
 20
62.18443144502779
 30
0.0
 10
2.807549642999992
 20
62.24747645661645
 30
0.0
 10
2.608333960858261
 20
62.27522981216503
 30
0.0
 10
2.208856818785023
 20
62.32319822277077
 30
0.0
 10
2.008766735166669
 20
62.34373958732207
 30
0.0
 10
1.607883542766492
 20
62.3779366349215
 30
0.0
 10
1.40722555536144
 20
62.39190456988022
 30
0.0
 10
1.005476798141411
 20
62.4135792621157
 30
0.0
 10
0.8044902349116493
 20
62.42155306474411
 30
0.0
 10
0.402292739212631
 20
62.43177358302227
 30
0.0
 10
0.201162243525251
 20
62.43431125350545
 30
0.0
 10
0.0
 20
62.43427633533275
 30
0.0
 10
-0.201162243525251
 20
62.43431125350545
 30
0.0
 10
-0.402292739212631
 20
62.43177358302226
 30
0.0
 10
-0.8044902349116493
 20
62.42155306474412
 30
0.0
 10
-1.005476798141411
 20
62.4135792621157
 30
0.0
 10
-1.40722555536144
 20
62.39190456988022
 30
0.0
 10
-1.607883542766492
 20
62.3779366349215
 30
0.0
 10
-2.008766735166669
 20
62.34373958732207
 30
0.0
 10
-2.208856818785023
 20
62.32319822277078
 30
0.0
 10
-2.608333960858261
 20
62.27522981216503
 30
0.0
 10
-2.807549642999992
 20
62.24747645661643
 30
0.0
 10
-3.20493522949368
 20
62.18443144502779
 30
0.0
 10
-3.402895118711427
 20
62.14882072637115
 30
0.0
 10
-3.797349089088726
 20
62.06942286333327
 30
0.0
 10
-3.993585795945336
 20
62.02530574689128
 30
0.0
 10
-4.384078652994475
 20
61.92823514416121
 30
0.0
 10
-4.578025427790569
 20
61.87495703007317
 30
0.0
 10
-4.963319669925805
 20
61.75891517645106
 30
0.0
 10
-5.154310557140718
 20
61.6958676176811
 30
0.0
 10
-5.532979863865137
 20
61.55971923622332
 30
0.0
 10
-5.720281361590641
 20
61.48644107504324
 30
0.0
 10
-6.09081804576824
 20
61.32947681178064
 30
0.0
 10
-6.27364597087653
 20
61.24566490711126
 30
0.0
 10
-6.634420987132088
 20
61.06738155169634
 30
0.0
 10
-6.811949133196535
 20
60.97286793768086
 30
0.0
 10
-7.161286701198762
 20
60.7730968370339
 30
0.0
 10
-7.332823982535487
 20
60.66809560227275
 30
0.0
 10
-7.669635539880161
 20
60.44786176387515
 30
0.0
 10
-7.834552889560129
 20
60.33274439235394
 30
0.0
 10
-8.157410730935325
 20
60.09250874466665
 30
0.0
 10
-8.314879751589325
 20
59.96739855235908
 30
0.0
 10
-8.621897992830133
 20
59.7071934308161
 30
0.0
 10
-8.770732472135052
 20
59.57193992549387
 30
0.0
 10
-9.05905214811392
 20
59.29113102574792
 30
0.0
 10
-9.197987457475103
 20
59.14572926276836
 30
0.0
 10
-9.465409018940965
 20
58.8449311105961
 30
0.0
 10
-9.593270536401556
 20
58.68970709668546
 30
0.0
 10
-9.837295044778065
 20
58.36960919321515
 30
0.0
 10
-9.952691657155905
 20
58.20491580716733
 30
0.0
 10
-10.17025359829076
 20
57.8662401664464
 30
0.0
 10
-10.27164790247183
 20
57.69258523133832
 30
0.0
 10
-10.45966317806123
 20
57.33664113162691
 30
0.0
 10
-10.54552176336015
 20
57.15479775546689
 30
0.0
 10
-10.70094082896641
 20
56.78336835053826
 30
0.0
 10
-10.76919256410077
 20
56.59427088141013
 30
0.0
 10
-10.88678043903194
 20
56.20931040982621
 30
0.0
 10
-10.93873496696946
 20
56.01502752645253
 30
0.0
 10
-11.02896520378837
 20
55.62285646454173
 30
0.0
 10
-11.07187164640248
 20
55.42631800245582
 30
0.0
 10
-11.15326718003997
 20
55.03233521602299
 30
0.0
 10
-11.19149957102018
 20
54.83486095742186
 30
0.0
 10
-11.26303360130351
 20
54.43894670945019
 30
0.0
 10
-11.29681063691784
 20
54.24065336926916
 30
0.0
 10
-11.36038474909181
 20
53.84339425651672
 30
0.0
 10
-11.39042464503022
 20
53.6445011704045
 30
0.0
 10
-11.44701011660989
 20
53.24618793870805
 30
0.0
 10
-11.47371944127991
 20
53.04681948869688
 30
0.0
 10
-11.49884535483011
 20
52.84723920452276
 30
0.0
 10
-11.50990932847009
 20
52.75926508736976
 30
0.0
 10
-11.52631309059012
 20
52.59323162517676
 30
0.0
 10
-11.53412617479012
 20
52.37082823650675
 30
0.0
 10
-11.52540930368008
 20
52.18500489861976
 30
0.0
 10
-11.50052619200011
 20
52.03785047191076
 30
0.0
 10
-11.46001931478008
 20
51.93648226389976
 30
0.0
 10
-11.40520769698009
 20
51.88733489104976
 30
0.0
 10
-11.36110979645008
 20
51.89285323801376
 30
0.0
 10
-11.33707809934009
 20
51.90487976989276
 30
0.0
 10
-11.31419352282304
 20
51.91666972334612
 30
0.0
 10
-11.29130710339755
 20
51.9284560943797
 30
0.0
 10
-11.24553057872972
 20
51.95202167160735
 30
0.0
 10
-11.222641502343
 20
51.96380287678392
 30
0.0
 10
-11.17686172146394
 20
51.98736212026251
 30
0.0
 10
-11.15397207306179
 20
51.99914221508298
 30
0.0
 10
-11.10819326033224
 20
52.02270335088625
 30
0.0
 10
-11.08530518552367
 20
52.03448650487051
 30
0.0
 10
-11.03953169901895
 20
52.05805798500428
 30
0.0
 10
-11.01664740919415
 20
52.06984848724071
 30
0.0
 10
-10.97088373639968
 20
52.09343901605265
 30
0.0
 10
-10.94800551184919
 20
52.10524128254787
 30
0.0
 10
-10.90225628644169
 20
52.12885981971686
 30
0.0
 10
-10.87938649118102
 20
52.14067840951441
 30
0.0
 10
-10.83365653554584
 20
52.16433423153561
 30
0.0
 10
-10.81079731306227
 20
52.17617325735576
 30
0.0
 10
-10.76509037876317
 20
52.1998735386151
 30
0.0
 10
-10.74224356143176
 20
52.21173648717041
 30
0.0
 10
-10.69656322640523
 20
52.23548800013228
 30
0.0
 10
-10.67373066469965
 20
52.24737836335446
 30
0.0
 10
-10.62808075290386
 20
52.27118830328129
 30
0.0
 10
-10.60526441291824
 20
52.28310976388701
 30
0.0
 10
-10.55964896477151
 20
52.30698566638311
 30
0.0
 10
-10.53685092144295
 20
52.3189420774173
 30
0.0
 10
-10.49127419627546
 20
52.34289181905799
 30
0.0
 10
-10.46849669456005
 20
52.35488731463693
 30
0.0
 10
-10.4229634128659
 20
52.37891955531197
 30
0.0
 10
-10.40020858249266
 20
52.39095797553972
 30
0.0
 10
-10.35472254269385
 20
52.41507941577569
 30
0.0
 10
-10.33199142647677
 20
52.4271627011419
 30
0.0
 10
-10.28655300140722
 20
52.45137440237073
 30
0.0
 10
-10.26384785801373
 20
52.46350559142866
 30
0.0
 10
-10.21846570950932
 20
52.48781864643153
 30
0.0
 10
-10.19577920510073
 20
52.49998944354604
 30
0.0
 10
-10.15041533597082
 20
52.52435957700118
 30
0.0
 10
-10.12779661427059
 20
52.53662867288566
 30
0.0
 10
-10.08268559659958
 20
52.56133492296842
 30
0.0
 10
-10.05985496839117
 20
52.57337102899432
 30
0.0
 10
-10.01364347322854
 20
52.59680920301523
 30
0.0
 10
-9.99310996502632
 20
52.61200298334033
 30
0.0
 10
-9.957187427380092
 20
52.64933993061978
 30
0.0
 10
-9.941122902113937
 20
52.66944250330682
 30
0.0
 10
-9.912787338695546
 20
52.71251584677552
 30
0.0
 10
-9.899617814021559
 20
52.7346320367553
 30
0.0
 10
-9.875275278743993
 20
52.78002345320567
 30
0.0
 10
-9.863834960342183
 20
52.80307978208026
 30
0.0
 10
-9.842416222012508
 20
52.84991368112825
 30
0.0
 10
-9.8322549156804
 20
52.87356450813972
 30
0.0
 10
-9.813028428681642
 20
52.92133391713761
 30
0.0
 10
-9.803848409256986
 20
52.94538293850965
 30
0.0
 10
-9.786354818557115
 20
52.99380961499993
 30
0.0
 10
-9.77787216182225
 20
53.01811457575659
 30
0.0
 10
-9.76143512558266
 20
53.06690774229302
 30
0.0
 10
-9.75319208074095
 20
53.09129567108048
 30
0.0
 10
-9.736656937613697
 20
53.14005421969389
 30
0.0
 10
-9.72841288862829
 20
53.16444151601619
 30
0.0
 10
-9.720192362221098
 20
53.1888368343541
 30
0.0
  0
SPLINE
  5
91
330
1F
100
AcDbEntity
  8
Layer 01
370
    -3
100
AcDbSpline
210
0.0
220
0.0
230
1.0
 70
    11
 71
     2
 72
    82
 73
    79
 74
     0
 42
0.000000001
 43
0.0000000001
 40
0.0
 40
0.0
 40
0.0
 40
1.0
 40
2.0
 40
3.0
 40
4.0
 40
5.0
 40
6.0
 40
7.0
 40
8.0
 40
9.0
 40
10.0
 40
11.0
 40
12.0
 40
13.0
 40
14.0
 40
15.0
 40
16.0
 40
17.0
 40
18.0
 40
19.0
 40
20.0
 40
21.0
 40
22.0
 40
23.0
 40
24.0
 40
25.0
 40
26.0
 40
27.0
 40
28.0
 40
29.0
 40
30.0
 40
31.0
 40
32.0
 40
33.0
 40
34.0
 40
35.0
 40
36.0
 40
37.0
 40
38.0
 40
38.0
 40
39.0
 40
40.0
 40
41.0
 40
42.0
 40
43.0
 40
44.0
 40
45.0
 40
46.0
 40
47.0
 40
48.0
 40
49.0
 40
50.0
 40
51.0
 40
52.0
 40
53.0
 40
54.0
 40
55.0
 40
56.0
 40
57.0
 40
58.0
 40
59.0
 40
60.0
 40
61.0
 40
62.0
 40
63.0
 40
64.0
 40
65.0
 40
66.0
 40
67.0
 40
68.0
 40
69.0
 40
70.0
 40
71.0
 40
72.0
 40
73.0
 40
74.0
 40
75.0
 40
76.0
 40
76.0
 40
76.0
 10
0.0
 20
58.64026764596393
 30
0.0
 10
-0.401827319335041
 20
58.64016491867278
 30
0.0
 10
-1.204952452323823
 20
58.6111588353196
 30
0.0
 10
-2.006640192614157
 20
58.5552050448245
 30
0.0
 10
-2.806159675625196
 20
58.47395994759765
 30
0.0
 10
-3.602551625294637
 20
58.36623700348645
 30
0.0
 10
-4.394721120540453
 20
58.23083876728364
 30
0.0
 10
-5.181084743625547
 20
58.06486979658705
 30
0.0
 10
-5.958984674220005
 20
57.86271015187111
 30
0.0
 10
-6.723966737150647
 20
57.61558180896625
 30
0.0
 10
-7.466269413898317
 20
57.30633494882773
 30
0.0
 10
-8.165949018335994
 20
56.90669248520291
 30
0.0
 10
-8.738330969683943
 20
56.32445595363617
 30
0.0
 10
-8.932490075523162
 20
55.53138105249571
 30
0.0
 10
-8.936432637628457
 20
54.72714264362732
 30
0.0
 10
-8.918795202345478
 20
53.9238404454921
 30
0.0
 10
-8.882870755221575
 20
53.12102944469977
 30
0.0
 10
-8.834015230418288
 20
52.31893836537002
 30
0.0
 10
-8.774196960930453
 20
51.51758820410451
 30
0.0
 10
-8.70459885560706
 20
50.71703108774479
 30
0.0
 10
-8.625821445975674
 20
49.91732542989392
 30
0.0
 10
-8.53793058485482
 20
49.11856978328538
 30
0.0
 10
-8.440632793105607
 20
48.32090419992946
 30
0.0
 10
-8.33322774098724
 20
47.52453432130974
 30
0.0
 10
-8.214291798206943
 20
46.7298026380132
 30
0.0
 10
-8.081830026388303
 20
45.93719094546367
 30
0.0
 10
-7.931821036682209
 20
45.1477701144759
 30
0.0
 10
-7.762889804370872
 20
44.36180745948069
 30
0.0
 10
-7.523839205235532
 20
43.59382900802949
 30
0.0
 10
-7.161907888581709
 20
42.872092322787
 30
0.0
 10
-6.620007614680503
 20
42.27229348610072
 30
0.0
 10
-5.915867167789713
 20
41.87437947577549
 30
0.0
 10
-5.164179980542201
 20
41.5889244209319
 30
0.0
 10
-4.388298327764915
 20
41.3778473572258
 30
0.0
 10
-3.600294415667747
 20
41.21938814348098
 30
0.0
 10
-2.805394764224218
 20
41.1007603967805
 30
0.0
 10
-2.006354587492979
 20
41.01467483513677
 30
0.0
 10
-1.204838964704777
 20
40.95632797256204
 30
0.0
 10
-0.4018310111320602
 20
40.92399525251761
 30
0.0
 10
0.0
 20
40.92326760369076
 30
0.0
 10
0.4018310111320602
 20
40.92399525251761
 30
0.0
 10
1.204838964704777
 20
40.95632797256204
 30
0.0
 10
2.006354587492979
 20
41.01467483513677
 30
0.0
 10
2.805394764224218
 20
41.1007603967805
 30
0.0
 10
3.600294415667747
 20
41.21938814348098
 30
0.0
 10
4.388298327764915
 20
41.3778473572258
 30
0.0
 10
5.164179980542201
 20
41.5889244209319
 30
0.0
 10
5.915867167789713
 20
41.87437947577549
 30
0.0
 10
6.620007614680503
 20
42.27229348610072
 30
0.0
 10
7.161907888581709
 20
42.872092322787
 30
0.0
 10
7.523839205235561
 20
43.59382900802949
 30
0.0
 10
7.762889804370872
 20
44.36180745948069
 30
0.0
 10
7.931821036682209
 20
45.1477701144759
 30
0.0
 10
8.081830026388303
 20
45.93719094546367
 30
0.0
 10
8.214291798206943
 20
46.7298026380132
 30
0.0
 10
8.33322774098724
 20
47.52453432130974
 30
0.0
 10
8.440632793105607
 20
48.32090419992946
 30
0.0
 10
8.537930584854848
 20
49.11856978328538
 30
0.0
 10
8.625821445975674
 20
49.91732542989392
 30
0.0
 10
8.70459885560706
 20
50.71703108774479
 30
0.0
 10
8.774196960930453
 20
51.51758820410451
 30
0.0
 10
8.834015230418288
 20
52.31893836537002
 30
0.0
 10
8.882870755221575
 20
53.12102944469977
 30
0.0
 10
8.918795202345478
 20
53.9238404454921
 30
0.0
 10
8.936432637628457
 20
54.72714264362732
 30
0.0
 10
8.932490075523162
 20
55.53138105249571
 30
0.0
 10
8.738330969683943
 20
56.32445595363617
 30
0.0
 10
8.165949018335994
 20
56.90669248520291
 30
0.0
 10
7.466269413898317
 20
57.30633494882773
 30
0.0
 10
6.723966737150647
 20
57.61558180896625
 30
0.0
 10
5.958984674220005
 20
57.86271015187111
 30
0.0
 10
5.181084743625547
 20
58.06486979658705
 30
0.0
 10
4.394721120540453
 20
58.23083876728364
 30
0.0
 10
3.602551625294637
 20
58.36623700348645
 30
0.0
 10
2.806159675625196
 20
58.47395994759765
 30
0.0
 10
2.006640192614157
 20
58.5552050448245
 30
0.0
 10
1.204952452323823
 20
58.6111588353196
 30
0.0
 10
0.401827319335041
 20
58.64016491867278
 30
0.0
 10
0.0
 20
58.64026764596393
 30
0.0
  0
SPLINE
  5
92
330
1F
100
AcDbEntity
  8
Layer 01
370
    -3
100
AcDbSpline
210
0.0
220
0.0
230
1.0
 70
    12
 71
     2
 72
    12
 73
     9
 74
     0
 42
0.000000001
 43
0.0000000001
 40
0.7869661797835044
 40
0.7869661797835044
 40
0.7869661797835044
 40
17.85115635306605
 40
17.85115635306605
 40
19.42195267986094
 40
19.42195267986094
 40
20.99274900665584
 40
20.99274900665584
 40
39.68540951821299
 40
39.68540951821299
 40
39.68540951821299
 10
-7.185972124843943
 20
42.95754489977246
 30
0.0
 41
1.0
 10
-7.919220986558912
 20
42.34193599052966
 30
0.0
 41
1.0
 10
-8.652469848273881
 20
41.72632708128686
 30
0.0
 41
1.0
 10
-8.93765736616361
 20
41.48689407840827
 30
0.0
 41
0.7071067811865475
 10
-9.17878087327719
 20
41.77409514790099
 30
0.0
 41
1.0
 10
-9.419904380390763
 20
42.0612962173937
 30
0.0
 41
0.7071067811865475
 10
-9.134716862500596
 20
42.30072922027178
 30
0.0
 41
1.0
 10
-8.33149257213914
 20
42.97508693848199
 30
0.0
 41
1.0
 10
-7.528268281777684
 20
43.64944465669219
 30
0.0
 41
1.0
  0
SPLINE
  5
93
330
1F
100
AcDbEntity
  8
Layer 01
370
    -3
100
AcDbSpline
210
0.0
220
0.0
230
1.0
 70
     8
 71
     2
 72
    40
 73
    37
 74
     0
 42
0.000000001
 43
0.0000000001
 40
-17.0
 40
-17.0
 40
-17.0
 40
-16.0
 40
-15.0
 40
-14.0
 40
-13.0
 40
-12.0
 40
-11.0
 40
-10.0
 40
-9.0
 40
-8.0
 40
-7.0
 40
-6.0
 40
-5.0
 40
-4.0
 40
-3.0
 40
-2.0
 40
-1.0
 40
0.0
 40
0.0
 40
1.0
 40
2.0
 40
3.0
 40
4.0
 40
5.0
 40
6.0
 40
7.0
 40
8.0
 40
9.0
 40
10.0
 40
11.0
 40
12.0
 40
13.0
 40
14.0
 40
15.0
 40
16.0
 40
17.0
 40
17.0
 40
17.0
 10
4.973761938815016
 20
18.44745848108695
 30
0.0
 10
4.972239117787751
 20
18.6774645711479
 30
0.0
 10
4.963587650147304
 20
19.13741000270693
 30
0.0
 10
4.946368136203546
 20
19.59712158058765
 30
0.0
 10
4.917454953618432
 20
20.05627419377123
 30
0.0
 10
4.871295199695481
 20
20.51401314024973
 30
0.0
 10
4.803631785870721
 20
20.96924217344835
 30
0.0
 10
4.654262268612911
 20
21.40933352828549
 30
0.0
 10
4.329367296649082
 20
21.74502988250169
 30
0.0
 10
3.896367856120605
 20
21.91387964990966
 30
0.0
 10
3.442564296106525
 20
21.99141048592439
 30
0.0
 10
2.986137939461287
 20
22.04886259656406
 30
0.0
 10
2.52811549145423
 20
22.09204158082648
 30
0.0
 10
2.069191323260782
 20
22.12399469778605
 30
0.0
 10
1.609722372832778
 20
22.14671591541775
 30
0.0
 10
1.149948242176379
 20
22.16193471441105
 30
0.0
 10
0.6900137971936431
 20
22.17097097566728
 30
0.0
 10
0.2300102762996232
 20
22.17500802101221
 30
0.0
 10
0.0
 20
22.17493807940433
 30
0.0
 10
-0.2300102762996232
 20
22.17500802101221
 30
0.0
 10
-0.6900137971936431
 20
22.17097097566728
 30
0.0
 10
-1.149948242176379
 20
22.16193471441105
 30
0.0
 10
-1.609722372832778
 20
22.14671591541775
 30
0.0
 10
-2.069191323260782
 20
22.12399469778605
 30
0.0
 10
-2.52811549145423
 20
22.09204158082648
 30
0.0
 10
-2.986137939461287
 20
22.04886259656406
 30
0.0
 10
-3.442564296106525
 20
21.99141048592439
 30
0.0
 10
-3.896367856120605
 20
21.91387964990966
 30
0.0
 10
-4.329367296649082
 20
21.74502988250169
 30
0.0
 10
-4.654262268612911
 20
21.40933352828549
 30
0.0
 10
-4.803631785870721
 20
20.96924217344835
 30
0.0
 10
-4.871295199695481
 20
20.51401314024973
 30
0.0
 10
-4.917454953618432
 20
20.05627419377123
 30
0.0
 10
-4.946368136203546
 20
19.59712158058765
 30
0.0
 10
-4.963587650147304
 20
19.13741000270693
 30
0.0
 10
-4.972239117787751
 20
18.6774645711479
 30
0.0
 10
-4.973761938815016
 20
18.44745848108695
 30
0.0
  0
SPLINE
  5
94
330
1F
100
AcDbEntity
  8
Layer 01
370
    -3
100
AcDbSpline
210
0.0
220
0.0
230
1.0
 70
    12
 71
     3
 72
    11
 73
     7
 74
     0
 42
0.000000001
 43
0.0000000001
 40
0.0
 40
0.0
 40
0.0
 40
0.0
 40
0.0126083274945322
 40
0.0126083274945322
 40
0.0126083274945322
 40
0.0174922507921626
 40
0.0174922507921626
 40
0.0174922507921626
 40
0.0174922507921626
 10
-3.602939525022009
 20
21.96116605196333
 30
0.0
 41
1.0
 10
-3.603596608608654
 20
21.96040299331198
 30
0.0
 41
0.9865258151439803
 10
-3.604531064671555
 20
21.9597504630688
 30
0.0
 41
0.9740456077170946
 10
-3.605750787283103
 20
21.95921478193828
 30
0.0
 41
0.9625593777193426
 10
-3.604403994273753
 20
21.95931631261636
 30
0.0
 41
0.9625593777193426
 10
-3.603075983901135
 20
21.95953302749724
 30
0.0
 41
0.9625593777193426
 10
-3.601747889778096
 20
21.95974946810263
 30
0.0
 41
0.9625593777193426
  0
SPLINE
  5
95
330
1F
100
AcDbEntity
  8
Layer 01
370
    -3
100
AcDbSpline
210
0.0
220
0.0
230
1.0
 70
     8
 71
     2
 72
    74
 73
    71
 74
     0
 42
0.000000001
 43
0.0000000001
 40
0.0
 40
0.0
 40
0.0
 40
1.0
 40
2.0
 40
3.0
 40
4.0
 40
5.0
 40
6.0
 40
7.0
 40
8.0
 40
9.0
 40
10.0
 40
11.0
 40
12.0
 40
13.0
 40
14.0
 40
15.0
 40
16.0
 40
17.0
 40
18.0
 40
19.0
 40
20.0
 40
21.0
 40
22.0
 40
23.0
 40
24.0
 40
25.0
 40
26.0
 40
27.0
 40
28.0
 40
29.0
 40
30.0
 40
31.0
 40
32.0
 40
33.0
 40
34.0
 40
34.0
 40
35.0
 40
36.0
 40
37.0
 40
38.0
 40
39.0
 40
40.0
 40
41.0
 40
42.0
 40
43.0
 40
44.0
 40
45.0
 40
46.0
 40
47.0
 40
48.0
 40
49.0
 40
50.0
 40
51.0
 40
52.0
 40
53.0
 40
54.0
 40
55.0
 40
56.0
 40
57.0
 40
58.0
 40
59.0
 40
60.0
 40
61.0
 40
62.0
 40
63.0
 40
64.0
 40
65.0
 40
66.0
 40
67.0
 40
68.0
 40
68.0
 40
68.0
 10
-9.088688352448571
 20
17.51485858538435
 30
0.0
 10
-9.218828303933748
 20
17.84423485513186
 30
0.0
 10
-9.432670244636
 20
18.51962067220811
 30
0.0
 10
-9.646864168081407
 20
19.19462072229175
 30
0.0
 10
-9.860781973144867
 20
19.86972627215184
 30
0.0
 10
-10.08744411993723
 20
20.54093247646092
 30
0.0
 10
-10.2620054258434
 20
21.22745681242796
 30
0.0
 10
-10.42169898292474
 20
21.91741767169444
 30
0.0
 10
-10.58629965584348
 20
22.60623201634394
 30
0.0
 10
-10.75203921897628
 20
23.29476925986897
 30
0.0
 10
-10.91919694368511
 20
23.98296462958342
 30
0.0
 10
-11.08732149989038
 20
24.6709222907561
 30
0.0
 10
-11.25630652052095
 20
25.35868031768758
 30
0.0
 10
-11.42471113086162
 20
26.04651318565966
 30
0.0
 10
-11.59876664026768
 20
26.7333544447043
 30
0.0
 10
-11.73332290586194
 20
27.42755883404012
 30
0.0
 10
-11.79052835227446
 20
28.14312296705202
 30
0.0
 10
-11.50108668019618
 20
28.80019724097551
 30
0.0
 10
-11.16966858983085
 20
29.42781723713634
 30
0.0
 10
-10.67528174864432
 20
29.93950295725723
 30
0.0
 10
-10.06852951423767
 20
30.31041417351048
 30
0.0
 10
-9.421999310834508
 20
30.60015104332774
 30
0.0
 10
-8.75763789597221
 20
30.84605874747621
 30
0.0
 10
-8.078421252655062
 20
31.04736255084547
 30
0.0
 10
-7.391276005351187
 20
31.21911280245714
 30
0.0
 10
-6.698175303440934
 20
31.36496400723609
 30
0.0
 10
-6.000660393910636
 20
31.48787811946749
 30
0.0
 10
-5.299802652710383
 20
31.58994967230892
 30
0.0
 10
-4.596495907517067
 20
31.67341075620274
 30
0.0
 10
-3.89142256163683
 20
31.74024428558823
 30
0.0
 10
-3.185111617845678
 20
31.79231044039057
 30
0.0
 10
-2.477966939001817
 20
31.83136420000945
 30
0.0
 10
-1.770282272785721
 20
31.85886212619445
 30
0.0
 10
-1.062274210194687
 20
31.87601718239633
 30
0.0
 10
-0.3541059968235913
 20
31.88400111421964
 30
0.0
 10
0.0
 20
31.8839575993729
 30
0.0
 10
0.3541059968235913
 20
31.88400111421964
 30
0.0
 10
1.062274210194687
 20
31.87601718239633
 30
0.0
 10
1.770282272785721
 20
31.85886212619445
 30
0.0
 10
2.477966939001817
 20
31.83136420000945
 30
0.0
 10
3.185111617845678
 20
31.79231044039057
 30
0.0
 10
3.89142256163683
 20
31.74024428558823
 30
0.0
 10
4.596495907517067
 20
31.67341075620274
 30
0.0
 10
5.299802652710383
 20
31.58994967230892
 30
0.0
 10
6.000660393910636
 20
31.48787811946749
 30
0.0
 10
6.698175303440934
 20
31.36496400723609
 30
0.0
 10
7.391276005351187
 20
31.21911280245714
 30
0.0
 10
8.078421252655062
 20
31.04736255084547
 30
0.0
 10
8.75763789597221
 20
30.84605874747621
 30
0.0
 10
9.421999310834508
 20
30.60015104332774
 30
0.0
 10
10.06852951423767
 20
30.31041417351048
 30
0.0
 10
10.67528174864432
 20
29.93950295725723
 30
0.0
 10
11.16966858983085
 20
29.42781723713634
 30
0.0
 10
11.50108668019618
 20
28.80019724097551
 30
0.0
 10
11.79052835227446
 20
28.14312296705202
 30
0.0
 10
11.73332290586194
 20
27.42755883404012
 30
0.0
 10
11.59876664026768
 20
26.7333544447043
 30
0.0
 10
11.42471113086162
 20
26.04651318565966
 30
0.0
 10
11.25630652052095
 20
25.35868031768758
 30
0.0
 10
11.08732149989038
 20
24.6709222907561
 30
0.0
 10
10.91919694368511
 20
23.98296462958342
 30
0.0
 10
10.75203921897628
 20
23.29476925986897
 30
0.0
 10
10.58629965584348
 20
22.60623201634394
 30
0.0
 10
10.42169898292474
 20
21.91741767169444
 30
0.0
 10
10.2620054258434
 20
21.22745681242796
 30
0.0
 10
10.08744411993723
 20
20.54093247646092
 30
0.0
 10
9.860781973144867
 20
19.86972627215184
 30
0.0
 10
9.646864168081436
 20
19.19462072229175
 30
0.0
 10
9.432670244636
 20
18.51962067220811
 30
0.0
 10
9.218828303933748
 20
17.84423485513186
 30
0.0
 10
9.088688352448571
 20
17.51485858538435
 30
0.0
  0
SPLINE
  5
96
330
1F
100
AcDbEntity
  8
Layer 01
370
    -3
100
AcDbSpline
210
0.0
220
0.0
230
1.0
 70
     8
 71
     2
 72
    74
 73
    71
 74
     0
 42
0.000000001
 43
0.0000000001
 40
-34.0
 40
-34.0
 40
-34.0
 40
-33.0
 40
-32.0
 40
-31.0
 40
-30.0
 40
-29.0
 40
-28.0
 40
-27.0
 40
-26.0
 40
-25.0
 40
-24.0
 40
-23.0
 40
-22.0
 40
-21.0
 40
-20.0
 40
-19.0
 40
-18.0
 40
-17.0
 40
-16.0
 40
-15.0
 40
-14.0
 40
-13.0
 40
-12.0
 40
-11.0
 40
-10.0
 40
-9.0
 40
-8.0
 40
-7.0
 40
-6.0
 40
-5.0
 40
-4.0
 40
-3.0
 40
-2.0
 40
-1.0
 40
0.0
 40
0.0
 40
1.0
 40
2.0
 40
3.0
 40
4.0
 40
5.0
 40
6.0
 40
7.0
 40
8.0
 40
9.0
 40
10.0
 40
11.0
 40
12.0
 40
13.0
 40
14.0
 40
15.0
 40
16.0
 40
17.0
 40
18.0
 40
19.0
 40
20.0
 40
21.0
 40
22.0
 40
23.0
 40
24.0
 40
25.0
 40
26.0
 40
27.0
 40
28.0
 40
29.0
 40
30.0
 40
31.0
 40
32.0
 40
33.0
 40
34.0
 40
34.0
 40
34.0
 10
8.887335445168219
 20
17.61898640654901
 30
0.0
 10
9.008605927639252
 20
17.94598285654762
 30
0.0
 10
9.219616541676572
 20
18.61085842548853
 30
0.0
 10
9.429356631168446
 20
19.27601658245661
 30
0.0
 10
9.641001439821594
 20
19.94055832675745
 30
0.0
 10
9.861864931776893
 20
20.60234222240228
 30
0.0
 10
10.03247237337268
 20
21.27877923704135
 30
0.0
 10
10.1900979190554
 20
21.95817926842196
 30
0.0
 10
10.35209154621748
 20
22.63656494761878
 30
0.0
 10
10.5153178035263
 20
23.31465053360567
 30
0.0
 10
10.68003017368551
 20
23.99237790721111
 30
0.0
 10
10.84570711113685
 20
24.66986767642341
 30
0.0
 10
11.0121947993895
 20
25.34717109660615
 30
0.0
 10
11.17814262194582
 20
26.02453293300931
 30
0.0
 10
11.34970908873436
 20
26.70094810974791
 30
0.0
 10
11.48882753782655
 20
27.38280675010799
 30
0.0
 10
11.56902980621396
 20
28.08628651166845
 30
0.0
 10
11.30368941922876
 20
28.74021447250301
 30
0.0
 10
10.98458297252208
 20
29.36235324348975
 30
0.0
 10
10.50896155377643
 20
29.87648303239729
 30
0.0
 10
9.912392202687329
 20
30.24407996434259
 30
0.0
 10
9.27909044563603
 20
30.53676070146509
 30
0.0
 10
8.623435272901872
 20
30.77562178873643
 30
0.0
 10
7.955129560998358
 20
30.97562489147932
 30
0.0
 10
7.278619589042393
 20
31.14566568541208
 30
0.0
 10
6.59625954825546
 20
31.29032954860263
 30
0.0
 10
5.90948163232656
 20
31.41223579243432
 30
0.0
 10
5.219344094024194
 20
31.51332984652676
 30
0.0
 10
4.526746282265719
 20
31.5958180195696
 30
0.0
 10
3.832379534839873
 20
31.66169219206149
 30
0.0
 10
3.136782749548871
 20
31.71288418138743
 30
0.0
 10
2.440363510312892
 20
31.75120363261331
 30
0.0
 10
1.743415158522936
 20
31.77814176682066
 30
0.0
 10
1.046151258246226
 20
31.7949415019467
 30
0.0
 10
0.3487310997205668
 20
31.80270228838915
 30
0.0
 10
0.0
 20
31.80268797684833
 30
0.0
 10
-0.3487310997205668
 20
31.80270228838915
 30
0.0
 10
-1.046151258246226
 20
31.7949415019467
 30
0.0
 10
-1.743415158522936
 20
31.77814176682066
 30
0.0
 10
-2.440363510312892
 20
31.75120363261331
 30
0.0
 10
-3.136782749548871
 20
31.71288418138743
 30
0.0
 10
-3.832379534839873
 20
31.66169219206149
 30
0.0
 10
-4.526746282265719
 20
31.5958180195696
 30
0.0
 10
-5.219344094024194
 20
31.51332984652676
 30
0.0
 10
-5.90948163232656
 20
31.41223579243432
 30
0.0
 10
-6.59625954825546
 20
31.29032954860263
 30
0.0
 10
-7.278619589042393
 20
31.14566568541208
 30
0.0
 10
-7.955129560998358
 20
30.97562489147932
 30
0.0
 10
-8.623435272901872
 20
30.77562178873643
 30
0.0
 10
-9.27909044563603
 20
30.53676070146509
 30
0.0
 10
-9.912392202687329
 20
30.24407996434259
 30
0.0
 10
-10.50896155377643
 20
29.87648303239729
 30
0.0
 10
-10.98458297252208
 20
29.36235324348975
 30
0.0
 10
-11.30368941922876
 20
28.74021447250301
 30
0.0
 10
-11.56902980621396
 20
28.08628651166845
 30
0.0
 10
-11.48882753782655
 20
27.38280675010799
 30
0.0
 10
-11.34970908873436
 20
26.70094810974791
 30
0.0
 10
-11.17814262194582
 20
26.02453293300931
 30
0.0
 10
-11.0121947993895
 20
25.34717109660615
 30
0.0
 10
-10.84570711113685
 20
24.66986767642341
 30
0.0
 10
-10.68003017368551
 20
23.99237790721111
 30
0.0
 10
-10.5153178035263
 20
23.31465053360567
 30
0.0
 10
-10.35209154621748
 20
22.63656494761878
 30
0.0
 10
-10.1900979190554
 20
21.95817926842196
 30
0.0
 10
-10.03247237337268
 20
21.27877923704135
 30
0.0
 10
-9.861864931776893
 20
20.60234222240228
 30
0.0
 10
-9.641001439821594
 20
19.94055832675745
 30
0.0
 10
-9.429356631168417
 20
19.27601658245661
 30
0.0
 10
-9.219616541676572
 20
18.61085842548853
 30
0.0
 10
-9.008605927639252
 20
17.94598285654762
 30
0.0
 10
-8.887335445168219
 20
17.61898640654901
 30
0.0
  0
SPLINE
  5
97
330
1F
100
AcDbEntity
  8
Layer 01
370
    -3
100
AcDbSpline
210
0.0
220
0.0
230
1.0
 70
     8
 71
     2
 72
    21
 73
    18
 74
     0
 42
0.000000001
 43
0.0000000001
 40
2.512240428278854
 40
2.512240428278854
 40
2.512240428278854
 40
3.0
 40
4.0
 40
5.0
 40
6.0
 40
7.0
 40
8.0
 40
9.0
 40
10.0
 40
11.0
 40
12.0
 40
13.0
 40
14.0
 40
15.0
 40
16.0
 40
17.0
 40
18.0
 40
18.0
 40
18.0
 10
29.15890936712333
 20
16.38737534445044
 30
0.0
 10
29.16580277027458
 20
16.38809470676446
 30
0.0
 10
29.18697577533169
 20
16.38981360407171
 30
0.0
 10
29.21543455770774
 20
16.39147803209446
 30
0.0
 10
29.24392761397337
 20
16.39260877146477
 30
0.0
 10
29.27243292653748
 20
16.39330583481966
 30
0.0
 10
29.30094519201509
 20
16.39362002079349
 30
0.0
 10
29.32945907478776
 20
16.3935810133888
 30
0.0
 10
29.35797046221691
 20
16.39320212046142
 30
0.0
 10
29.38647531148973
 20
16.39248338052033
 30
0.0
 10
29.41496915849251
 20
16.39141156678147
 30
0.0
 10
29.44344586917634
 20
16.38995710165128
 30
0.0
 10
29.47189882636042
 20
16.38806929127927
 30
0.0
 10
29.50030308199499
 20
16.38564854882407
 30
0.0
 10
29.52869559739025
 20
16.38258146475333
 30
0.0
 10
29.5566407672182
 20
16.37821226719836
 30
0.0
 10
29.58608955016211
 20
16.37335188399267
 30
0.0
 10
29.59435062924035
 20
16.36271574913296
 30
0.0
  0
SPLINE
  5
98
330
1F
100
AcDbEntity
  8
Layer 01
370
    -3
100
AcDbSpline
210
0.0
220
0.0
230
1.0
 70
    12
 71
     2
 72
    36
 73
    33
 74
     0
 42
0.000000001
 43
0.0000000001
 40
21.01551374237208
 40
21.01551374237208
 40
21.01551374237208
 40
21.20054176929184
 40
22.20054176929184
 40
23.20054176929184
 40
24.20054176929185
 40
25.20054176929185
 40
26.20054176929185
 40
27.20054176929185
 40
28.20054176929185
 40
29.20054176929185
 40
30.20054176929185
 40
31.20054176929185
 40
32.20054176929185
 40
33.20054176929185
 40
34.20054176929185
 40
35.20054176929185
 40
35.20054176929185
 40
35.29554176929185
 40
35.29554176929185
 40
36.29554176929185
 40
37.29554176929185
 40
38.29554176929185
 40
39.29554176929185
 40
40.29554176929185
 40
41.29554176929185
 40
42.29554176929185
 40
43.29554176929185
 40
44.29554176929185
 40
45.29554176929185
 40
46.29554176929185
 40
47.29554176929185
 40
47.63830460068262
 40
47.63830460068262
 40
47.63830460068262
 10
29.14016770785463
 20
16.35248133872535
 30
0.0
 41
1.0
 10
29.14342604642007
 20
16.35200916848436
 30
0.0
 41
1.0
 10
29.16428326605816
 20
16.34910668009101
 30
0.0
 41
1.0
 10
29.19970468987844
 20
16.345631266201
 30
0.0
 41
1.0
 10
29.2351817410653
 20
16.34293158623358
 30
0.0
 41
1.0
 10
29.27071091649481
 20
16.34100154720623
 30
0.0
 41
1.0
 10
29.30626881063642
 20
16.33972581995411
 30
0.0
 41
1.0
 10
29.34184202354226
 20
16.33899766742291
 30
0.0
 41
1.0
 10
29.37742190341592
 20
16.3387680015863
 30
0.0
 41
1.0
 10
29.41300119972999
 20
16.33908787136379
 30
0.0
 41
1.0
 10
29.44857066572803
 20
16.34000282636241
 30
0.0
 41
1.0
 10
29.48411356135631
 20
16.3416298631132
 30
0.0
 41
1.0
 10
29.51961643684712
 20
16.34411210924531
 30
0.0
 41
1.0
 10
29.55493357796843
 20
16.34825577311592
 30
0.0
 41
1.0
 10
29.59036793077289
 20
16.35256205343783
 30
0.0
 41
1.0
 10
29.62203172356394
 20
16.3721116647783
 30
0.0
 41
1.0
 10
29.62489605348383
 20
16.39201585371719
 30
0.0
 41
1.0
 10
29.62555179851528
 20
16.43983531204826
 30
0.0
 41
1.0
 10
29.62620754354673
 20
16.48765477037932
 30
0.0
 41
1.0
 10
29.6151187766728
 20
16.49851218174093
 30
0.0
 41
1.0
 10
29.58286660285989
 20
16.50404395673748
 30
0.0
 41
1.0
 10
29.55160073021102
 20
16.50883421557857
 30
0.0
 41
1.0
 10
29.51996079843022
 20
16.51223764848405
 30
0.0
 41
1.0
 10
29.48828826130128
 20
16.51492163786282
 30
0.0
 41
1.0
 10
29.45656555494747
 20
16.51701761476648
 30
0.0
 41
1.0
 10
29.4248160393999
 20
16.5186332890489
 30
0.0
 41
1.0
 10
29.39304768594587
 20
16.51982456352611
 30
0.0
 41
1.0
 10
29.36126713134664
 20
16.52062391981413
 30
0.0
 41
1.0
 10
29.32947934310994
 20
16.52104591256244
 30
0.0
 41
1.0
 10
29.29768877262362
 20
16.52109048279132
 30
0.0
 41
1.0
 10
29.26589998606295
 20
16.52074294895959
 30
0.0
 41
1.0
 10
29.24456267574647
 20
16.5202244520129
 30
0.0
 41
1.0
 10
29.23911679205574
 20
16.52006385053659
 30
0.0
 41
1.0
  0
SPLINE
  5
99
330
1F
100
AcDbEntity
  8
Layer 01
370
    -3
100
AcDbSpline
210
0.0
220
0.0
230
1.0
 70
    15
 71
     2
 72
    45
 73
    42
 74
     0
 42
0.000000001
 43
0.0000000001
 40
18.10554176929185
 40
18.10554176929185
 40
18.10554176929185
 40
18.20054176929184
 40
18.20054176929184
 40
19.20054176929184
 40
20.20054176929184
 40
21.20054176929184
 40
22.20054176929184
 40
23.20054176929184
 40
24.20054176929185
 40
25.20054176929185
 40
26.20054176929185
 40
27.20054176929185
 40
28.20054176929185
 40
29.20054176929185
 40
30.20054176929185
 40
31.20054176929185
 40
32.20054176929185
 40
33.20054176929185
 40
34.20054176929185
 40
35.20054176929185
 40
35.20054176929185
 40
35.29554176929185
 40
35.29554176929185
 40
36.29554176929185
 40
37.29554176929185
 40
38.29554176929185
 40
39.29554176929185
 40
40.29554176929185
 40
41.29554176929185
 40
42.29554176929185
 40
43.29554176929185
 40
44.29554176929185
 40
45.29554176929185
 40
46.29554176929185
 40
47.29554176929185
 40
48.29554176929185
 40
49.29554176929185
 40
50.29554176929185
 40
51.29554176929185
 40
52.29554176929185
 40
53.29554176929185
 40
53.29554176929185
 40
53.29554176929185
 10
37.07366718151782
 20
16.63438341184875
 30
0.0
 41
0.9969152063605844
 10
37.07704156062452
 20
16.58726519548976
 30
0.0
 41
0.9969152063605844
 10
37.08041593973121
 20
16.54014697913076
 30
0.0
 41
0.9969152063605844
 10
37.08285931250592
 20
16.52120853505624
 30
0.0
 41
0.9969152063605844
 10
37.11502105665989
 20
16.50230169806018
 30
0.0
 41
0.9969152063605844
 10
37.15070532861478
 20
16.49930472318487
 30
0.0
 41
0.9969152063605844
 10
37.18619490564677
 20
16.49740406629156
 30
0.0
 41
0.9969152063605844
 10
37.22178339434596
 20
16.49694012742612
 30
0.0
 41
0.9969152063605844
 10
37.25736163225838
 20
16.49725384686863
 30
0.0
 41
0.9969152063605844
 10
37.29292664470799
 20
16.49833885691814
 30
0.0
 41
0.9969152063605844
 10
37.32846487468282
 20
16.50007826085719
 30
0.0
 41
0.9969152063605844
 10
37.36397200736627
 20
16.50236457036213
 30
0.0
 41
0.9969152063605844
 10
37.39944357812227
 20
16.50514814114894
 30
0.0
 41
0.9969152063605844
 10
37.434868040341
 20
16.50847922496523
 30
0.0
 41
0.9969152063605844
 10
37.47023232395719
 20
16.51240242497898
 30
0.0
 41
0.9969152063605844
 10
37.50550984337681
 20
16.51703290031431
 30
0.0
 41
0.9969152063605844
 10
37.54067507905771
 20
16.52251212594232
 30
0.0
 41
0.9969152063605844
 10
37.57551458140341
 20
16.52963107836226
 30
0.0
 41
0.9969152063605844
 10
37.61045710645766
 20
16.53692198720234
 30
0.0
 41
0.9969152063605844
 10
37.64035201579065
 20
16.55908225510347
 30
0.0
 41
0.9969152063605844
 10
37.64152084962851
 20
16.57915748737273
 30
0.0
 41
0.9969152063605844
 10
37.63812554997652
 20
16.62686076332833
 30
0.0
 41
0.9969152063605844
 10
37.63473025032456
 20
16.67456403928393
 30
0.0
 41
0.9969152063605844
 10
37.62276204368419
 20
16.68444362237598
 30
0.0
 41
0.9969152063605844
 10
37.59015732119204
 20
16.6872248669682
 30
0.0
 41
0.9969152063605844
 10
37.55859813975448
 20
16.68935076424927
 30
0.0
 41
0.9969152063605844
 10
37.52678365952485
 20
16.69006314501586
 30
0.0
 41
0.9969152063605844
 10
37.49499760354507
 20
16.69005590493862
 30
0.0
 41
0.9969152063605844
 10
37.46321134324057
 20
16.68945851608331
 30
0.0
 41
0.9969152063605844
 10
37.43143903538504
 20
16.68838027936225
 30
0.0
 41
0.9969152063605844
 10
37.39968388956686
 20
16.68687757176366
 30
0.0
 41
0.9969152063605844
 10
37.3679497686233
 20
16.68498332018336
 30
0.0
 41
0.9969152063605844
 10
37.33624038993927
 20
16.68271244759038
 30
0.0
 41
0.9969152063605844
 10
37.30456019391295
 20
16.68006527209869
 30
0.0
 41
0.9969152063605844
 10
37.27291497335392
 20
16.67702755148358
 30
0.0
 41
0.9969152063605844
 10
37.24131326921029
 20
16.67356724799707
 30
0.0
 41
0.9969152063605844
 10
37.20976625646648
 20
16.66962901339482
 30
0.0
 41
0.9969152063605844
 10
37.17830354881144
 20
16.66510668238578
 30
0.0
 41
0.9969152063605844
 10
37.1469152559746
 20
16.65986802452719
 30
0.0
 41
0.9969152063605844
 10
37.11598107983556
 20
16.65326665505032
 30
0.0
 41
0.9969152063605844
 10
37.08410541549699
 20
16.64586763613739
 30
0.0
 41
0.9969152063605844
 10
37.07366718151778
 20
16.63438341184875
 30
0.0
 41
0.9969152063605844
  0
SPLINE
  5
9A
330
1F
100
AcDbEntity
  8
Layer 01
370
    -3
100
AcDbSpline
210
0.0
220
0.0
230
1.0
 70
     8
 71
     2
 72
    23
 73
    20
 74
     0
 42
0.000000001
 43
0.0000000001
 40
0.0
 40
0.0
 40
0.0
 40
1.0
 40
2.0
 40
3.0
 40
4.0
 40
5.0
 40
6.0
 40
7.0
 40
8.0
 40
9.0
 40
10.0
 40
11.0
 40
12.0
 40
13.0
 40
14.0
 40
15.0
 40
16.0
 40
17.0
 40
18.0
 40
18.0
 40
18.0
 10
37.11271244109375
 20
16.51157057581248
 30
0.0
 10
37.12046489887962
 20
16.52262372722572
 30
0.0
 10
37.14954331926643
 20
16.52919058695273
 30
0.0
 10
37.17719433584847
 20
16.53517384448929
 30
0.0
 10
37.205359435464
 20
16.53988611466478
 30
0.0
 10
37.23357511225728
 20
16.54395406231266
 30
0.0
 10
37.26187012524696
 20
16.54749313942326
 30
0.0
 10
37.29021406821238
 20
16.55060113538062
 30
0.0
 10
37.31859735588552
 20
16.55332821740295
 30
0.0
 10
37.34701215857547
 20
16.55570351116226
 30
0.0
 10
37.37545325168546
 20
16.55773992852954
 30
0.0
 10
37.40391660365856
 20
16.55943716558602
 30
0.0
 10
37.43239888627102
 20
16.56078166508069
 30
0.0
 10
37.46089649172046
 20
16.56174343627567
 30
0.0
 10
37.48940711863986
 20
16.56227140709182
 30
0.0
 10
37.51791434019449
 20
16.56226423601117
 30
0.0
 10
37.54646458693048
 20
16.56161205008497
 30
0.0
 10
37.57467933930485
 20
16.55962455104355
 30
0.0
 10
37.60443389268815
 20
16.55727493517151
 30
0.0
 10
37.61356583006946
 20
16.54737642457878
 30
0.0
  0
SPLINE
  5
9B
330
1F
100
AcDbEntity
  8
Layer 01
370
    -3
100
AcDbSpline
210
0.0
220
0.0
230
1.0
 70
     8
 71
     3
 72
    61
 73
    57
 74
     0
 42
0.000000001
 43
0.0000000001
 40
-0.663903380650787
 40
-0.663903380650787
 40
-0.663903380650787
 40
-0.663903380650787
 40
-0.5470214196682825
 40
-0.4102660647512119
 40
-0.2735107098341413
 40
-0.1367553549170706
 40
0.0
 40
0.0
 40
0.0
 40
1.0
 40
1.0
 40
2.0
 40
2.0
 40
3.0
 40
3.0
 40
4.0
 40
4.0
 40
5.0
 40
5.0
 40
6.0
 40
6.0
 40
7.0
 40
7.0
 40
7.0
 40
7.334230521077905
 40
7.668461042155911
 40
8.002691563233816
 40
8.002691563233816
 40
8.002691563233816
 40
9.87851467548787
 40
11.75433778774249
 40
13.63016089999654
 40
13.63016089999654
 40
13.63016089999654
 40
13.91531857818411
 40
14.20047625637188
 40
14.48563393455945
 40
14.77079161274722
 40
15.05594929093479
 40
15.34110696912257
 40
15.62626464731014
 40
15.62626464731014
 40
15.62626464731014
 40
16.62626464731014
 40
16.62626464731014
 40
17.62626464731014
 40
17.62626464731014
 40
18.62626464731014
 40
18.62626464731014
 40
19.62626464731014
 40
19.62626464731014
 40
20.62626464731014
 40
20.62626464731014
 40
21.62626464731014
 40
21.62626464731014
 40
22.62626464731014
 40
22.62626464731014
 40
22.62626464731014
 40
22.62626464731014
 10
28.71338196187699
 20
17.07452579464783
 30
0.0
 10
28.70728025696525
 20
17.10137842500455
 30
0.0
 10
28.70205854951774
 20
17.16056536602884
 30
0.0
 10
28.72157041953616
 20
17.25870562606671
 30
0.0
 10
28.77761284674318
 20
17.36911384450551
 30
0.0
 10
28.86527641118516
 20
17.48103789534761
 30
0.0
 10
28.93909366129017
 20
17.55821912659172
 30
0.0
 10
28.98008754448819
 20
17.59757021800142
 30
0.0
 10
29.11006196631267
 20
17.72560877596054
 30
0.0
 10
29.23884098834324
 20
17.85485549112968
 30
0.0
 10
29.49400823281658
 20
18.11576523588803
 30
0.0
 10
29.62170218374142
 20
18.24610600722137
 30
0.0
 10
29.87731074296745
 20
18.50655934779634
 30
0.0
 10
30.00508066625324
 20
18.63682070916295
 30
0.0
 10
30.26055180017039
 20
18.89741281405442
 30
0.0
 10
30.38828091862959
 20
19.02771501597973
 30
0.0
 10
30.64372625854926
 20
19.28833171878953
 30
0.0
 10
30.77144538292403
 20
19.4186435835573
 30
0.0
 10
31.02687654050343
 20
19.6792743398186
 30
0.0
 10
31.15458556509639
 20
19.80959612837976
 30
0.0
 10
31.40999050588881
 20
20.07025252636311
 30
0.0
 10
31.53767459836034
 20
20.20059873096567
 30
0.0
 10
31.66534031290718
 20
20.33096294117912
 30
0.0
 10
31.74209685178715
 20
20.40774388126611
 30
0.0
 10
31.87556888584419
 20
20.57357791724211
 30
0.0
 10
32.02081650359517
 20
20.86973690179011
 30
0.0
 10
32.07046320049517
 20
21.07768378356911
 30
0.0
 10
32.08436194400116
 20
21.18605447011611
 30
0.0
 10
32.15628274095417
 20
21.76219536428911
 30
0.0
 10
32.30236204600817
 20
22.93235337161011
 30
0.0
 10
32.52884905394416
 20
24.74283161450911
 30
0.0
 10
32.68427238470017
 20
25.98518158415111
 30
0.0
 10
32.76331898563916
 20
26.61553546897011
 30
0.0
 10
32.77510167771817
 20
26.71346678255411
 30
0.0
 10
32.78012498479717
 20
26.90629363825511
 30
0.0
 10
32.73019864872816
 20
27.19157304927511
 30
0.0
 10
32.62810078806416
 20
27.45732050746511
 30
0.0
 10
32.48019885822217
 20
27.69451901848511
 30
0.0
 10
32.29356705776019
 20
27.89648526614511
 30
0.0
 10
32.07023283715117
 20
28.06163863861511
 30
0.0
 10
31.90333428783717
 20
28.14155770249511
 30
0.0
 10
31.81487515359217
 20
28.17444207463511
 30
0.0
 10
31.34976499380691
 20
28.34436088059131
 30
0.0
 10
30.88464881336208
 20
28.51426319616332
 30
0.0
 10
29.95440441115329
 20
28.85403484653891
 30
0.0
 10
29.48926533715977
 20
29.02387440562239
 30
0.0
 10
28.5589534433945
 20
29.36346099158071
 30
0.0
 10
28.09372582804836
 20
29.53305778986146
 30
0.0
 10
27.16312726042908
 20
29.87185839702616
 30
0.0
 10
26.69778177600497
 20
30.04113180970452
 30
0.0
 10
25.76699840592781
 20
30.37942485325331
 30
0.0
 10
25.30149301519587
 20
30.54825695149534
 30
0.0
 10
24.37025482234528
 20
30.8852923009147
 30
0.0
 10
23.9048945507476
 20
31.05452957737686
 30
0.0
 10
22.97469165720747
 20
31.39444333380614
 30
0.0
 10
22.51050104418401
 20
31.56682911926401
 30
0.0
 10
22.04722126490717
 20
31.74164381196511
 30
0.0
  0
SPLINE
  5
9C
330
1F
100
AcDbEntity
  8
Layer 01
370
    -3
100
AcDbSpline
210
0.0
220
0.0
230
1.0
 70
    12
 71
     3
 72
   124
 73
   120
 74
     0
 42
0.000000001
 43
0.0000000001
 40
-15.5249693237974
 40
-15.5249693237974
 40
-15.5249693237974
 40
-15.5249693237974
 40
-15.51036611462612
 40
-15.01755352219162
 40
-14.52474092975727
 40
-14.52474092975727
 40
-14.52474092975727
 40
-14.51749984973467
 40
-14.51025876971207
 40
-14.50301768968947
 40
-14.50301768968947
 40
-14.50301768968947
 40
-14.25251474140784
 40
-14.00201179312636
 40
-13.75150884484473
 40
-13.50100589656311
 40
-13.25050294828163
 40
-13.0
 40
-13.0
 40
-13.0
 40
-11.99999187286028
 40
-11.99999187286028
 40
-10.99998374572057
 40
-10.99998374572057
 40
-9.999975618580851
 40
-9.999975618580851
 40
-8.999967491441133
 40
-8.999967491441133
 40
-7.999959364301417
 40
-7.999959364301417
 40
-6.999951237161701
 40
-6.999951237161701
 40
-5.999943110021983
 40
-5.999943110021983
 40
-4.999934982882266
 40
-4.999934982882266
 40
-3.99992685574255
 40
-3.99992685574255
 40
-2.999918728602833
 40
-2.999918728602833
 40
-1.999910601463116
 40
-1.999910601463116
 40
-0.9999024743234
 40
-0.9999024743234
 40
0.0
 40
0.0
 40
0.0
 40
0.0998632291420202
 40
0.0998632291420202
 40
0.0998632291420202
 40
9.9240077293304
 40
9.9240077293304
 40
9.9240077293304
 40
10.9240077293304
 40
10.9240077293304
 40
10.9240077293304
 40
11.9240077293304
 40
11.9240077293304
 40
12.9240077293304
 40
12.9240077293304
 40
13.9240077293304
 40
13.9240077293304
 40
14.9240077293304
 40
14.9240077293304
 40
15.9240077293304
 40
15.9240077293304
 40
16.9240077293304
 40
16.9240077293304
 40
17.9240077293304
 40
17.9240077293304
 40
18.9240077293304
 40
18.9240077293304
 40
18.9240077293304
 40
19.9240077293304
 40
19.9240077293304
 40
19.9240077293304
 40
25.55266171296935
 40
25.55266171296935
 40
25.55266171296935
 40
25.91080178696064
 40
26.26894186095203
 40
26.62708193494331
 40
26.62708193494331
 40
26.62708193494331
 40
27.62708193494331
 40
27.62708193494331
 40
28.62708193494331
 40
28.62708193494331
 40
29.62708193494331
 40
29.62708193494331
 40
30.62708193494331
 40
30.62708193494331
 40
31.62708193494331
 40
31.62708193494331
 40
32.62708193494331
 40
32.62708193494331
 40
33.62708193494331
 40
33.62708193494331
 40
34.62708193494331
 40
34.62708193494331
 40
35.62708193494331
 40
35.62708193494331
 40
36.62708193494331
 40
36.62708193494331
 40
37.62708193494331
 40
37.62708193494331
 40
38.62708193494331
 40
38.62708193494331
 40
39.62708193494331
 40
39.62708193494331
 40
40.62708193494331
 40
40.62708193494331
 40
41.62708193494331
 40
41.62708193494331
 40
42.62708193494331
 40
42.62708193494331
 40
43.62708193494331
 40
43.62708193494331
 40
44.62708193494331
 40
44.62708193494331
 40
44.62708193494331
 40
44.62708193494331
 10
28.33539609860196
 20
16.39380847203019
 30
0.0
 41
1.0
 10
28.33066887963457
 20
16.39440011955188
 30
0.0
 41
1.0
 10
28.16633494550661
 20
16.41503301647528
 30
0.0
 41
1.0
 10
27.83707691918715
 20
16.46084273590321
 30
0.0
 41
1.0
 10
27.50166234429318
 20
16.51575693216381
 30
0.0
 41
1.0
 10
27.33150309088018
 20
16.54575659946631
 30
0.0
 41
1.0
 10
27.32911289594517
 20
16.54617889045341
 30
0.0
 41
1.0
 10
27.32434086070117
 20
16.54703432201201
 30
0.0
 41
1.0
 10
27.31722961329618
 20
16.54835131209752
 30
0.0
 41
1.0
 10
27.31247705242617
 20
16.54925869971731
 30
0.0
 41
1.0
 10
27.31017332253617
 20
16.54970484008121
 30
0.0
 41
1.0
 10
27.23040622082016
 20
16.56517505289281
 30
0.0
 41
1.0
 10
27.08198289325617
 20
16.61000016105271
 30
0.0
 41
1.0
 10
26.89555723587407
 20
16.71294522066077
 30
0.0
 41
1.0
 10
26.72981921203666
 20
16.85538417464937
 30
0.0
 41
1.0
 10
26.58207346502516
 20
17.04838586619951
 30
0.0
 41
1.0
 10
26.45989672926225
 20
17.29546576398671
 30
0.0
 41
1.0
 10
26.39778189471886
 20
17.49265993461841
 30
0.0
 41
1.0
 10
26.37129638480405
 20
17.60040219288241
 30
0.0
 41
1.0
 10
26.34050291220937
 20
17.72704544951664
 30
0.0
 41
1.0
 10
26.30977160826065
 20
17.85268878663047
 30
0.0
 41
1.0
 10
26.24843333765513
 20
18.10197562181733
 30
0.0
 41
1.0
 10
26.21758550537419
 20
18.22657479388785
 30
0.0
 41
1.0
 10
26.15553244685594
 20
18.47568464698306
 30
0.0
 41
1.0
 10
26.12434569488943
 20
18.60019944254826
 30
0.0
 41
1.0
 10
26.06165174554163
 20
18.84914877171388
 30
0.0
 41
1.0
 10
26.03011631342666
 20
18.97357571971504
 30
0.0
 41
1.0
 10
25.96666853431454
 20
19.22233418255405
 30
0.0
 41
1.0
 10
25.93463534037389
 20
19.34663378391706
 30
0.0
 41
1.0
 10
25.86995034372339
 20
19.59507372653006
 30
0.0
 41
1.0
 10
25.83715544315977
 20
19.71917455577466
 30
0.0
 41
1.0
 10
25.77066083755578
 20
19.96713793014008
 30
0.0
 41
1.0
 10
25.73680802084517
 20
20.09095318560467
 30
0.0
 41
1.0
 10
25.66789135960672
 20
20.33825083309758
 30
0.0
 41
1.0
 10
25.63317664619798
 20
20.4618309305747
 30
0.0
 41
1.0
 10
25.56323445380154
 20
20.70885367299024
 30
0.0
 41
1.0
 10
25.52581785429681
 20
20.83164491797491
 30
0.0
 41
1.0
 10
25.44609364867435
 20
21.07578715549805
 30
0.0
 41
1.0
 10
25.40399410925827
 20
21.19695646635635
 30
0.0
 41
1.0
 10
25.31532015721645
 20
21.43749147226641
 30
0.0
 41
1.0
 10
25.26490979539774
 20
21.55606429373244
 30
0.0
 41
1.0
 10
25.15194230016472
 20
21.78982057368652
 30
0.0
 41
1.0
 10
25.07408348668858
 20
21.8896776704104
 30
0.0
 41
1.0
 10
24.87562621227069
 20
22.05534102556063
 30
0.0
 41
1.0
 10
24.76739693351238
 20
22.12375106528307
 30
0.0
 41
1.0
 10
24.6501617710779
 20
22.17774384304843
 30
0.0
 41
1.0
 10
24.61753518313381
 20
22.19195329806431
 30
0.0
 41
0.9791942229859599
 10
24.59548204254372
 20
22.2187733859857
 30
0.0
 41
1.031532485390986
 10
24.58674991986817
 20
22.25140622952211
 30
0.0
 41
1.157014787215078
 10
23.7402403682145
 20
25.41481875700311
 30
0.0
 41
1.157014787215078
 10
22.89373081656083
 20
28.57823128448412
 30
0.0
 41
1.157014787215078
 10
22.04722126490717
 20
31.74164381196511
 30
0.0
 41
1.157014787215078
 10
22.01805905073667
 20
31.8506232244902
 30
0.0
 41
1.157014787215078
 10
22.13749418988678
 20
31.90378379358748
 30
0.0
 41
1.157014787215078
 10
22.20936403775508
 20
31.87639052187904
 30
0.0
 41
1.157014787215078
 10
22.61798905686528
 20
31.72064264558097
 30
0.0
 41
1.157014787215078
 10
23.02709655743354
 20
31.56617477770556
 30
0.0
 41
1.157014787215078
 10
23.84627652148617
 20
31.25979905880003
 30
0.0
 41
1.157014787215078
 10
24.25637705230988
 20
31.10798920591937
 30
0.0
 41
1.157014787215078
 10
25.07759921155207
 20
30.80712551330227
 30
0.0
 41
1.157014787215078
 10
25.48817115505383
 20
30.65658895674558
 30
0.0
 41
1.157014787215078
 10
26.30923676981865
 20
30.35530642313588
 30
0.0
 41
1.157014787215078
 10
26.71961440241506
 20
30.20424363595686
 30
0.0
 41
1.157014787215078
 10
27.54005931803585
 20
29.90127502085048
 30
0.0
 41
1.157014787215078
 10
27.95033060221983
 20
29.74991992158696
 30
0.0
 41
1.157014787215078
 10
28.77097082333497
 20
29.44746813963924
 30
0.0
 41
1.157014787215078
 10
29.18126007036802
 20
29.29617875364979
 30
0.0
 41
1.157014787215078
 10
30.00177683738504
 20
28.99347299163966
 30
0.0
 41
1.157014787215078
 10
30.41241104981599
 20
28.84302133974607
 30
0.0
 41
1.157014787215078
 10
31.23443113252274
 20
28.54392049418181
 30
0.0
 41
1.157014787215078
 10
31.64312697456624
 20
28.38878173215563
 30
0.0
 41
1.157014787215078
 10
32.04950861729986
 20
28.22805463088537
 30
0.0
 41
1.157014787215078
 10
32.54120840679866
 20
28.03358353881114
 30
0.0
 41
1.157014787215078
 10
32.98346864608925
 20
27.36802765125046
 30
0.0
 41
1.157014787215078
 10
32.88953856693417
 20
26.62174598252912
 30
0.0
 41
1.157014787215078
 10
32.65180290157218
 20
24.73291792386211
 30
0.0
 41
1.157014787215078
 10
32.42410962632619
 20
22.92321651557211
 30
0.0
 41
1.157014787215078
 10
32.20633168195116
 20
21.19296998592911
 30
0.0
 41
1.157014787215078
 10
32.19190792160418
 20
21.07856014730411
 30
0.0
 41
1.157014787215078
 10
32.13832099452316
 20
20.85262425316411
 30
0.0
 41
1.157014787215078
 10
31.98526660327616
 20
20.53588675929812
 30
0.0
 41
1.157014787215078
 10
31.84199884257717
 20
20.35406536586411
 30
0.0
 41
1.157014787215078
 10
31.76173434757618
 20
20.27204900693211
 30
0.0
 41
1.157014787215078
 10
31.70759202612787
 20
20.21664888065802
 30
0.0
 41
1.157014787215078
 10
31.65344889959353
 20
20.161249542436
 30
0.0
 41
1.157014787215078
 10
31.54516103635284
 20
20.0504524420961
 30
0.0
 41
1.157014787215078
 10
31.49101670048339
 20
19.99505428058522
 30
0.0
 41
1.157014787215078
 10
31.38272722024632
 20
19.88425873488163
 30
0.0
 41
1.157014787215078
 10
31.32858250813035
 20
19.82886093842626
 30
0.0
 41
1.157014787215078
 10
31.22029313990354
 20
19.71806529830837
 30
0.0
 41
1.157014787215078
 10
31.1661489923286
 20
19.66266696363707
 30
0.0
 41
1.157014787215078
 10
31.05786177025565
 20
19.55186926506975
 30
0.0
 41
1.157014787215078
 10
31.00371866319355
 20
19.49646991387176
 30
0.0
 41
1.157014787215078
 10
30.8954334570181
 20
19.38567020764712
 30
0.0
 41
1.157014787215078
 10
30.84129098889715
 20
19.33027022238233
 30
0.0
 41
1.157014787215078
 10
30.73300632258878
 20
19.21946998754781
 30
0.0
 41
1.157014787215078
 10
30.6788637751512
 20
19.16407008096989
 30
0.0
 41
1.157014787215078
 10
30.57057825170926
 20
19.05327068949271
 30
0.0
 41
1.157014787215078
 10
30.51643492457099
 20
18.99787154938338
 30
0.0
 41
1.157014787215078
 10
30.40814713945987
 20
18.88707438042318
 30
0.0
 41
1.157014787215078
 10
30.35400293991516
 20
18.8316760922345
 30
0.0
 41
1.157014787215078
 10
30.24571392684747
 20
18.72088010843998
 30
0.0
 41
1.157014787215078
 10
30.19156946234849
 20
18.66548207803104
 30
0.0
 41
1.157014787215078
 10
30.08328061742029
 20
18.5546859401898
 30
0.0
 41
1.157014787215078
 10
30.02913673346223
 20
18.49928733409112
 30
0.0
 41
1.157014787215078
 10
29.92085004255824
 20
18.38848904753764
 30
0.0
 41
1.157014787215078
 10
29.86670678274245
 20
18.33308988016218
 30
0.0
 41
1.157014787215078
 10
29.75842043438332
 20
18.22229149721379
 30
0.0
 41
1.157014787215078
 10
29.70427911848631
 20
18.16689015330315
 30
0.0
 41
1.157014787215078
 10
29.5960002032574
 20
18.05608316060895
 30
0.0
 41
1.157014787215078
 10
29.54184637548326
 20
18.00069565988621
 30
0.0
 41
1.157014787215078
 10
29.43350997961559
 20
17.88995264968949
 30
0.0
 41
1.157014787215078
 10
29.37941878716547
 20
17.83449451419875
 30
0.0
 41
1.157014787215078
 10
29.27139041323271
 20
17.72340498243255
 30
0.0
 41
1.157014787215078
 10
29.21698337745321
 20
17.66831046690649
 30
0.0
 41
1.157014787215078
 10
29.10738360826798
 20
17.55902193656843
 30
0.0
 41
1.157014787215078
 10
29.05309750627906
 20
17.50352026179533
 30
0.0
 41
1.157014787215078
 10
28.94555286750865
 20
17.39080209304099
 30
0.0
 41
1.157014787215078
 10
28.90265325825635
 20
17.32696425001272
 30
0.0
 41
1.157014787215078
 10
28.87062635913696
 20
17.25564764833334
 30
0.0
 41
1.157014787215078
  0
SPLINE
  5
9D
330
1F
100
AcDbEntity
  8
Layer 01
370
    -3
100
AcDbSpline
210
0.0
220
0.0
230
1.0
 70
     8
 71
     2
 72
    18
 73
    15
 74
     0
 42
0.000000001
 43
0.0000000001
 40
0.0
 40
0.0
 40
0.0
 40
1.0
 40
2.0
 40
3.0
 40
4.0
 40
5.0
 40
6.0
 40
7.0
 40
8.0
 40
9.0
 40
10.0
 40
11.0
 40
12.0
 40
13.0
 40
13.0
 40
13.0
 10
25.54486488734426
 20
20.75521214608205
 30
0.0
 10
25.54490074161703
 20
20.7550919546791
 30
0.0
 10
25.54497244645754
 20
20.75485157076798
 30
0.0
 10
25.54504414759492
 20
20.75461118575228
 30
0.0
 10
25.54511584503109
 20
20.75437079963262
 30
0.0
 10
25.54518753876795
 20
20.7541304124097
 30
0.0
 10
25.54525922880742
 20
20.75389002408416
 30
0.0
 10
25.5453309151514
 20
20.75364963465653
 30
0.0
 10
25.5454025978018
 20
20.75340924412743
 30
0.0
 10
25.54547427676056
 20
20.75316885249752
 30
0.0
 10
25.54554595202953
 20
20.75292845976742
 30
0.0
 10
25.54561762361067
 20
20.75268806593779
 30
0.0
 10
25.54568929150582
 20
20.75244767100919
 30
0.0
 10
25.5457609557169
 20
20.75220727498255
 30
0.0
 10
25.54579678598157
 20
20.75208707641972
 30
0.0
  0
SPLINE
  5
9E
330
1F
100
AcDbEntity
  8
Layer 01
370
    -3
100
AcDbSpline
210
0.0
220
0.0
230
1.0
 70
     8
 71
     2
 72
    56
 73
    53
 74
     0
 42
0.000000001
 43
0.0000000001
 40
-0.7173984775307034
 40
-0.7173984775307034
 40
-0.7173984775307034
 40
0.0
 40
0.0
 40
1.0
 40
2.0
 40
3.0
 40
4.0
 40
5.0
 40
6.0
 40
7.0
 40
8.0
 40
9.0
 40
10.0
 40
11.0
 40
12.0
 40
13.0
 40
13.0
 40
29.25833668380671
 40
29.25833668380671
 40
29.36390865402546
 40
29.36390865402546
 40
30.36390865402546
 40
31.36390865402546
 40
32.36390865402546
 40
33.36390865402546
 40
34.36390865402546
 40
35.36390865402546
 40
36.36390865402546
 40
37.36390865402546
 40
38.36390865402546
 40
39.36390865402546
 40
40.36390865402546
 40
41.36390865402546
 40
42.36390865402546
 40
42.36390865402546
 40
42.46948062424421
 40
42.46948062424421
 40
58.7251294454252
 40
58.7251294454252
 40
59.7251294454252
 40
60.7251294454252
 40
61.7251294454252
 40
62.7251294454252
 40
63.7251294454252
 40
64.7251294454252
 40
65.7251294454252
 40
66.7251294454252
 40
67.7251294454252
 40
68.7251294454252
 40
69.7251294454252
 40
70.7251294454252
 40
71.64681544186337
 40
71.64681544186337
 40
71.64681544186337
 10
30.43127742608007
 20
16.90553816460659
 30
0.0
 10
30.20459867992562
 20
16.93835432210585
 30
0.0
 10
29.97791993377118
 20
16.97117047960511
 30
0.0
 10
29.91681516449233
 20
16.97983805408655
 30
0.0
 10
29.79338091284291
 20
16.97191424124713
 30
0.0
 10
29.67602550312631
 20
16.93305171781083
 30
0.0
 10
29.56901433889252
 20
16.87165507383707
 30
0.0
 10
29.47197331010335
 20
16.79569322575097
 30
0.0
 10
29.38426430673542
 20
16.70920503137491
 30
0.0
 10
29.30526069521329
 20
16.61473682733052
 30
0.0
 10
29.23402549170982
 20
16.51431012377311
 30
0.0
 10
29.16996846370091
 20
16.40917213479539
 30
0.0
 10
29.11268379681266
 20
16.30020408599973
 30
0.0
 10
29.06192619315095
 20
16.18805132055072
 30
0.0
 10
29.01757468313201
 20
16.07321683979282
 30
0.0
 10
28.97960904251156
 20
15.95611690724615
 30
0.0
 10
28.96385208453
 20
15.89661774925552
 30
0.0
 10
26.88724749047341
 20
8.05472127296957
 30
0.0
 10
24.81064289641682
 20
0.2128247966836199
 30
0.0
 10
24.7885027390038
 20
0.1650241963010828
 30
0.0
 10
24.76636258159078
 20
0.1172235959185457
 30
0.0
 10
24.75262429671389
 20
0.0874182612642695
 30
0.0
 10
24.69572170762794
 20
0.0587018945581403
 30
0.0
 10
24.6331897356464
 20
0.0501833755848794
 30
0.0
 10
24.5706720053995
 20
0.0451427792768009
 30
0.0
 10
24.50786547320038
 20
0.0465051743863589
 30
0.0
 10
24.44548929960132
 20
0.0537621197787463
 30
0.0
 10
24.38408370190268
 20
0.0669319358032133
 30
0.0
 10
24.32420784898474
 20
0.0858785367233224
 30
0.0
 10
24.26641497449114
 20
0.1104434348452579
 30
0.0
 10
24.21116544435341
 20
0.1403433411579847
 30
0.0
 10
24.15933576578348
 20
0.1756641624375834
 30
0.0
 10
24.10921500110322
 20
0.2140141325341144
 30
0.0
 10
24.07398200466614
 20
0.2671288340536489
 30
0.0
 10
24.07679526565499
 20
0.2998272123415049
 30
0.0
 10
24.08138552161967
 20
0.3529688592636534
 30
0.0
 10
24.08597577758434
 20
0.4061105061858019
 30
0.0
 10
26.16256452763119
 20
8.247946224241781
 30
0.0
 10
28.23915327767804
 20
16.08978194229776
 30
0.0
 10
28.26151992134976
 20
16.17401114496326
 30
0.0
 10
28.31480940159474
 20
16.33740763800467
 30
0.0
 10
28.37735159740836
 20
16.49749418334665
 30
0.0
 10
28.44926650614644
 20
16.65359937906936
 30
0.0
 10
28.53070584164828
 20
16.80496023953609
 30
0.0
 10
28.6218771912101
 20
16.95067573709988
 30
0.0
 10
28.72309324235025
 20
17.08961617600952
 30
0.0
 10
28.83465181716659
 20
17.22041660144711
 30
0.0
 10
28.95677242829527
 20
17.34144247314469
 30
0.0
 10
29.08955626161503
 20
17.45070160355576
 30
0.0
 10
29.2328604265345
 20
17.54580133796728
 30
0.0
 10
29.38604311809007
 20
17.62408213849919
 30
0.0
 10
29.54154304788426
 20
17.68025578214814
 30
0.0
 10
29.61889359632215
 20
17.69752611570017
 30
0.0
  0
SPLINE
  5
9F
330
1F
100
AcDbEntity
  8
Layer 01
370
    -3
100
AcDbSpline
210
0.0
220
0.0
230
1.0
 70
    12
 71
     2
 72
    20
 73
    17
 74
     0
 42
0.000000001
 43
0.0000000001
 40
0.0
 40
0.0
 40
0.0
 40
1.0
 40
2.0
 40
3.0
 40
4.0
 40
5.0
 40
6.0
 40
7.0
 40
8.0
 40
9.0
 40
10.0
 40
11.0
 40
12.0
 40
13.0
 40
13.0
 40
13.90934713139221
 40
13.90934713139221
 40
13.90934713139221
 10
31.02400880755812
 20
16.91340490781707
 30
0.0
 41
1.0
 10
31.05347919242021
 20
16.94116694774587
 30
0.0
 41
1.0
 10
31.09907513154917
 20
17.00808169461376
 30
0.0
 41
1.0
 10
31.12909610319298
 20
17.08329348508853
 30
0.0
 41
1.0
 10
31.14192090478019
 20
17.16324982318959
 30
0.0
 41
1.0
 10
31.13727865124173
 20
17.24407520013241
 30
0.0
 41
1.0
 10
31.11643400484238
 20
17.32227142322746
 30
0.0
 41
1.0
 10
31.08030638009762
 20
17.39468836511971
 30
0.0
 41
1.0
 10
31.0306901346554
 20
17.45859439056876
 30
0.0
 41
1.0
 10
30.96994164677301
 20
17.51199653106413
 30
0.0
 41
1.0
 10
30.9010356161242
 20
17.55425635097075
 30
0.0
 41
1.0
 10
30.82644256600148
 20
17.58529209356914
 30
0.0
 41
1.0
 10
30.748638502793
 20
17.60683751533774
 30
0.0
 41
1.0
 10
30.66930200071289
 20
17.62152574991697
 30
0.0
 41
1.0
 10
30.62931915819229
 20
17.62713833965838
 30
0.0
 41
1.0
 10
30.34196879422467
 20
17.66873789412368
 30
0.0
 41
1.0
 10
30.05461843025705
 20
17.71033744858898
 30
0.0
 41
1.0
  0
SPLINE
  5
A0
330
1F
100
AcDbEntity
  8
Layer 01
370
    -3
100
AcDbSpline
210
0.0
220
0.0
230
1.0
 70
    12
 71
     2
 72
    10
 73
     7
 74
     0
 42
0.000000001
 43
0.0000000001
 40
-1.172312665114529
 40
-1.172312665114529
 40
-1.172312665114529
 40
-0.5890486225480862
 40
-0.5890486225480862
 40
-0.2393348717091717
 40
-0.2393348717091717
 40
0.0
 40
0.0
 40
0.0
 10
24.08575399035999
 20
0.4051308879506684
 30
0.0
 41
0.9943039465375694
 10
24.09684746530759
 20
0.4269030584253647
 30
0.0
 41
0.7099830535101778
 10
24.45433864868778
 20
0.3322361833923608
 30
0.0
 41
1.0
 10
24.63855244820237
 20
0.283454715348558
 30
0.0
 41
0.8261114919453466
 10
24.74460625355428
 20
0.2450847618630765
 30
0.0
 41
0.8586955909108764
 10
24.81266510339134
 20
0.2204612710429255
 30
0.0
 41
0.880995289241201
 10
24.81064289641802
 20
0.2128247966828525
 30
0.0
 41
1.0
  0
LINE
  5
A1
330
1F
100
AcDbEntity
  8
Layer 01
370
    -3
100
AcDbLine
 10
40.40635494276506
 20
18.02800491790935
 30
0.0
 11
38.45295037552285
 21
17.67641200189924
 31
0.0
  0
SPLINE
  5
A2
330
1F
100
AcDbEntity
  8
Layer 01
370
    -3
100
AcDbSpline
210
0.0
220
0.0
230
1.0
 70
     8
 71
     3
 72
   116
 73
   112
 74
     0
 42
0.000000001
 43
0.0000000001
 40
-0.4059190034543036
 40
-0.4059190034543036
 40
-0.4059190034543036
 40
-0.4059190034543036
 40
-0.3712877047376512
 40
-0.3248767416454099
 40
-0.2784657785532245
 40
-0.232054815461039
 40
-0.1856438523687977
 40
-0.1392328892766122
 40
-0.0928219261844267
 40
-0.0464109630922022
 40
0.0
 40
0.0
 40
0.0
 40
0.1080678847771992
 40
0.2161357695544339
 40
0.3242036543316331
 40
0.3242036543316331
 40
0.3242036543316331
 40
1.324203654331633
 40
1.324203654331633
 40
2.324203654331633
 40
2.324203654331633
 40
3.324203654331633
 40
3.324203654331633
 40
4.324203654331633
 40
4.324203654331633
 40
5.324203654331633
 40
5.324203654331633
 40
6.324203654331633
 40
6.324203654331633
 40
7.324203654331633
 40
7.324203654331633
 40
8.324203654331633
 40
8.324203654331633
 40
9.324203654331633
 40
9.324203654331633
 40
10.32420365433163
 40
10.32420365433163
 40
11.32420365433163
 40
11.32420365433163
 40
11.32420365433163
 40
12.32420365433163
 40
12.32420365433163
 40
13.32420365433163
 40
13.32420365433163
 40
14.32420365433163
 40
14.32420365433163
 40
15.32420365433163
 40
15.32420365433163
 40
16.32420365433163
 40
16.32420365433163
 40
17.32420365433163
 40
17.32420365433163
 40
18.32420365433163
 40
18.32420365433163
 40
19.32420365433163
 40
19.32420365433163
 40
20.32420365433163
 40
20.32420365433163
 40
21.32420365433163
 40
21.32420365433163
 40
22.32420365433163
 40
22.32420365433163
 40
22.32420365433163
 40
23.32420365433163
 40
23.32420365433163
 40
24.32420365433163
 40
24.32420365433163
 40
25.32420365433163
 40
25.32420365433163
 40
26.32420365433163
 40
26.32420365433163
 40
27.32420365433163
 40
27.32420365433163
 40
28.32420365433163
 40
28.32420365433163
 40
29.32420365433163
 40
29.32420365433163
 40
30.32420365433163
 40
30.32420365433163
 40
31.32420365433163
 40
31.32420365433163
 40
32.32420365433163
 40
32.32420365433163
 40
33.32420365433163
 40
33.32420365433163
 40
33.32420365433163
 40
34.32420365433163
 40
34.32420365433163
 40
34.32420365433163
 40
35.32420365433163
 40
35.32420365433163
 40
36.32420365433163
 40
36.32420365433163
 40
37.32420365433163
 40
37.32420365433163
 40
38.32420365433163
 40
38.32420365433163
 40
39.32420365433163
 40
39.32420365433163
 40
40.32420365433163
 40
40.32420365433163
 40
41.32420365433163
 40
41.32420365433163
 40
42.32420365433163
 40
42.32420365433163
 40
43.32420365433163
 40
43.32420365433163
 40
44.32420365433163
 40
44.32420365433163
 40
45.32420365433163
 40
45.32420365433163
 40
45.32420365433163
 40
45.32420365433163
 10
31.02247011511588
 20
16.91225043676958
 30
0.0
 10
31.03450013665778
 20
16.91929020662403
 30
0.0
 10
31.06056394881446
 20
16.93688942799911
 30
0.0
 10
31.09351836045516
 20
16.96646998993752
 30
0.0
 10
31.12172319894418
 20
17.00002674248091
 30
0.0
 10
31.14335762143918
 20
17.03389448453911
 30
0.0
 10
31.15929902554416
 20
17.06700112566511
 30
0.0
 10
31.17049552160216
 20
17.09858841220821
 30
0.0
 10
31.17787262285216
 20
17.12846710609382
 30
0.0
 10
31.18211703899917
 20
17.15565630499751
 30
0.0
 10
31.18344340667417
 20
17.17294754929231
 30
0.0
 10
31.18378367703116
 20
17.18126137654541
 30
0.0
 10
31.18527102107117
 20
17.21722342004642
 30
0.0
 10
31.18824484911917
 20
17.28913047525111
 30
0.0
 10
31.19270301058518
 20
17.39693995859572
 30
0.0
 10
31.19567339778817
 20
17.46877888354431
 30
0.0
 10
31.19715816121516
 20
17.50468982935331
 30
0.0
 10
31.19734664219716
 20
17.50912366091214
 30
0.0
 10
31.1978424819027
 20
17.51352297557646
 30
0.0
 10
31.19944887876083
 20
17.52225257111605
 30
0.0
 10
31.20055889582114
 20
17.52653802981845
 30
0.0
 10
31.20339256720426
 20
17.53495026908847
 30
0.0
 10
31.2051009840099
 20
17.53903435561282
 30
0.0
 10
31.20910097984932
 20
17.54695846244017
 30
0.0
 10
31.21137222202228
 20
17.55075836043606
 30
0.0
 10
31.21645719487466
 20
17.5580338455923
 30
0.0
 10
31.21924229686771
 20
17.56147506479553
 30
0.0
 10
31.22529773198751
 20
17.56796445645217
 30
0.0
 10
31.22853550738424
 20
17.57098375295326
 30
0.0
 10
31.23543117385137
 20
17.57657154730097
 30
0.0
 10
31.23905243226902
 20
17.57911856526673
 30
0.0
 10
31.2466417994725
 20
17.58371884278203
 30
0.0
 10
31.25057198885287
 20
17.5857574831794
 30
0.0
 10
31.25870337917089
 20
17.58931176725357
 30
0.0
 10
31.26286697305638
 20
17.59081772425782
 30
0.0
 10
31.27138995828032
 20
17.59328726820065
 30
0.0
 10
31.27571230120438
 20
17.59424756726055
 30
0.0
 10
31.28447868767668
 20
17.59561921955729
 30
0.0
 10
31.28888737122956
 20
17.59603155900852
 30
0.0
 10
31.29332154509916
 20
17.59617041176261
 30
0.0
 10
31.5088575506111
 20
17.60094181110628
 30
0.0
 10
31.72436023493093
 20
17.60689266866939
 30
0.0
 10
32.15529896118635
 20
17.62115330023452
 30
0.0
 10
32.37076966343659
 20
17.6282259856513
 30
0.0
 10
32.80171374618214
 20
17.64225609575328
 30
0.0
 10
33.01720067181068
 20
17.64878933124475
 30
0.0
 10
33.44820429157929
 20
17.66089216310868
 30
0.0
 10
33.66372071884522
 20
17.66636763912836
 30
0.0
 10
34.09478280814036
 20
17.67616671134317
 30
0.0
 10
34.31032444481422
 20
17.6805413721248
 30
0.0
 10
34.74142890221456
 20
17.68824094303647
 30
0.0
 10
34.95698759076277
 20
17.69168005276262
 30
0.0
 10
35.38811788755529
 20
17.69773692075553
 30
0.0
 10
35.60368591991692
 20
17.7005340810646
 30
0.0
 10
36.0348277525709
 20
17.70566585430793
 30
0.0
 10
36.25040025499856
 20
17.70811944956454
 30
0.0
 10
36.6815484320552
 20
17.71280205734764
 30
0.0
 10
36.89711559732097
 20
17.71559881825047
 30
0.0
 10
37.32823608132737
 20
17.72210325407868
 30
0.0
 10
37.54382685137944
 20
17.72350420424153
 30
0.0
 10
37.97506944758129
 20
17.72260356906471
 30
0.0
 10
38.1908326344621
 20
17.71553906050659
 30
0.0
 10
38.4067377101228
 20
17.70186036097878
 30
0.0
 10
38.41148000242129
 20
17.70160881567633
 30
0.0
 10
38.41579928971291
 20
17.70089635301432
 30
0.0
 10
38.42359185428247
 20
17.69854959297121
 30
0.0
 10
38.42732642819751
 20
17.69699237175216
 30
0.0
 10
38.43447215928811
 20
17.69311024691911
 30
0.0
 10
38.43784110646189
 20
17.69086602023158
 30
0.0
 10
38.44417116406638
 20
17.68577123831449
 30
0.0
 10
38.44712113145979
 20
17.68299674307229
 30
0.0
 10
38.45259094342894
 20
17.67699354402055
 30
0.0
 10
38.45510749687219
 20
17.6738200318388
 30
0.0
 10
38.45970389867608
 20
17.66712918216356
 30
0.0
 10
38.46181452732296
 20
17.66366998918626
 30
0.0
 10
38.46566064010662
 20
17.65652406695231
 30
0.0
 10
38.46738872127355
 20
17.65285957541876
 30
0.0
 10
38.47045493315761
 20
17.64534753151849
 30
0.0
 10
38.47181085385743
 20
17.64152897265479
 30
0.0
 10
38.47416832477266
 20
17.63376678110025
 30
0.0
 10
38.47517669410765
 20
17.62984203313057
 30
0.0
 10
38.47685270053235
 20
17.62190523280641
 30
0.0
 10
38.47752455149368
 20
17.61790897278606
 30
0.0
 10
38.47853594891429
 20
17.60986073302884
 30
0.0
 10
38.47887635258104
 20
17.60582269521608
 30
0.0
 10
38.47905146120422
 20
17.60177073946917
 30
0.0
 10
38.48203486233959
 20
17.53273582185187
 30
0.0
 10
38.48409106350951
 20
17.4118556468479
 30
0.0
 10
38.48707372138117
 20
17.34282068346541
 30
0.0
 10
38.48750848769567
 20
17.33280762560868
 30
0.0
 10
38.48819786701603
 20
17.32281209533352
 30
0.0
 10
38.49008585166845
 20
17.30285608994635
 30
0.0
 10
38.49128630451927
 20
17.29290901119776
 30
0.0
 10
38.49420013127015
 20
17.27307670159055
 30
0.0
 10
38.4959124580711
 20
17.26320486713939
 30
0.0
 10
38.49984793852401
 20
17.24354983894198
 30
0.0
 10
38.50207089223881
 20
17.23378033885765
 30
0.0
 10
38.50702722664513
 20
17.21435736671777
 30
0.0
 10
38.50976490414656
 20
17.20471951072072
 30
0.0
 10
38.51575927974593
 20
17.18559105887241
 30
0.0
 10
38.51901999606134
 20
17.17611743765018
 30
0.0
 10
38.52606848572358
 20
17.15735140460956
 30
0.0
 10
38.52986284243007
 20
17.14807875079633
 30
0.0
 10
38.53799177959377
 20
17.12975416858404
 30
0.0
 10
38.54233526074341
 20
17.12072587338897
 30
0.0
 10
38.5515802481782
 20
17.10293727482097
 30
0.0
 10
38.55649355239463
 20
17.0942062774686
 30
0.0
 10
38.56690178182553
 20
17.07707088662711
 30
0.0
 10
38.57241219247646
 20
17.06870427049993
 30
0.0
 10
38.58404560564929
 20
17.05237319683272
 30
0.0
 10
38.5901878836961
 20
17.04445997369588
 30
0.0
 10
38.59665573320331
 20
17.03679906425582
 30
0.0
  0
SPLINE
  5
A3
330
1F
100
AcDbEntity
  8
Layer 01
370
    -3
100
AcDbSpline
210
0.0
220
0.0
230
1.0
 70
    24
 71
     2
 72
     6
 73
     3
 74
     0
 42
0.000000001
 43
0.0000000001
 40
0.4288739018910066
 40
0.4288739018910066
 40
0.4288739018910066
 40
0.5768962557733565
 40
0.5768962557733565
 40
0.5768962557733565
 10
39.35836053530878
 20
17.08084060066684
 30
0.0
 10
39.36094347217032
 20
17.00687450877746
 30
0.0
 10
39.36352640903186
 20
16.93290841688809
 30
0.0
  0
SPLINE
  5
A4
330
1F
100
AcDbEntity
  8
Layer 01
370
    -3
100
AcDbSpline
210
0.0
220
0.0
230
1.0
 70
     8
 71
     2
 72
    50
 73
    47
 74
     0
 42
0.000000001
 43
0.0000000001
 40
0.0
 40
0.0
 40
0.0
 40
1.0
 40
2.0
 40
3.0
 40
4.0
 40
5.0
 40
6.0
 40
7.0
 40
7.0
 40
7.077209622780267
 40
7.077209622780267
 40
8.075003024357194
 40
9.075003024357194
 40
10.07500302435719
 40
11.07500302435719
 40
12.07500302435719
 40
13.07500302435719
 40
14.07500302435719
 40
15.07500302435719
 40
15.07500302435719
 40
16.07500302435719
 40
17.07500302435719
 40
18.07500302435719
 40
19.07500302435719
 40
20.07500302435719
 40
21.07500302435719
 40
22.07500302435719
 40
23.07500302435719
 40
23.07500302435719
 40
24.07500302435719
 40
25.07500302435719
 40
26.07500302435719
 40
27.07500302435719
 40
28.07500302435719
 40
28.07500302435719
 40
29.07500302435719
 40
30.07500302435719
 40
31.07500302435719
 40
32.07500302435719
 40
33.07500302435719
 40
34.07500302435719
 40
35.07500302435719
 40
36.07500302435719
 40
37.07500302435719
 40
38.07500302435719
 40
39.07500302435719
 40
39.07500302435719
 40
39.07500302435719
 10
29.11634749823682
 20
16.30625718735092
 30
0.0
 10
29.17744727997268
 20
16.29839882783261
 30
0.0
 10
29.29939320128139
 20
16.2808205033351
 30
0.0
 10
29.42098248468969
 20
16.26089253073303
 30
0.0
 10
29.54199522203368
 20
16.23779478443399
 30
0.0
 10
29.66186971692662
 20
16.20860006893055
 30
0.0
 10
29.77550936775367
 20
16.16061520433588
 30
0.0
 10
29.88360694886632
 20
16.10017857972788
 30
0.0
 10
29.92646523913783
 20
16.05545652212557
 30
0.0
 10
29.92977431156271
 20
16.05200354892813
 30
0.0
 10
29.93308338398759
 20
16.04855057573068
 30
0.0
 10
30.54049696853772
 20
16.02334693437617
 30
0.0
 10
31.757272433244
 20
16.04742122942032
 30
0.0
 10
32.97417141785263
 20
16.10299834687354
 30
0.0
 10
34.19008299581475
 20
16.17693515408448
 30
0.0
 10
35.40519184228563
 20
16.2629170916629
 30
0.0
 10
36.61971378425085
 20
16.35678246313912
 30
0.0
 10
37.83373356652942
 20
16.45692020490396
 30
0.0
 10
39.04735526566429
 20
16.56175991705592
 30
0.0
 10
39.65402125462117
 20
16.61582950031311
 30
0.0
 10
39.67392845303777
 20
16.61762258422394
 30
0.0
 10
39.70993646270173
 20
16.63499390254473
 30
0.0
 10
39.7374578053259
 20
16.66395956996248
 30
0.0
 10
39.75315340320196
 20
16.70082736406285
 30
0.0
 10
39.75380303236597
 20
16.74056334114431
 30
0.0
 10
39.74750837388211
 20
16.77984293447444
 30
0.0
 10
39.72722820046832
 20
16.81436030602601
 30
0.0
 10
39.694293302153
 20
16.84076508144181
 30
0.0
 10
39.67512616718574
 20
16.84644406494701
 30
0.0
 10
39.5706847931564
 20
16.87738874402329
 30
0.0
 10
39.36049791250838
 20
16.93481850010464
 30
0.0
 10
39.14813330523947
 20
16.98361473184204
 30
0.0
 10
38.9318155503874
 20
17.01078907657222
 30
0.0
 10
38.71009076507724
 20
17.03011663841277
 30
0.0
 10
38.60132323943529
 20
17.03627621647404
 30
0.0
 10
38.19357341557847
 20
17.05936736297836
 30
0.0
 10
37.37222385667957
 20
17.05337545521768
 30
0.0
 10
36.55583514715869
 20
17.03984557340796
 30
0.0
 10
35.73942862612569
 20
17.02635393836566
 30
0.0
 10
34.92306060807678
 20
17.01083543666008
 30
0.0
 10
34.10673841975839
 20
16.9930468462585
 30
0.0
 10
33.29048346589283
 20
16.97235908415839
 30
0.0
 10
32.47433768001338
 20
16.94782579427841
 30
0.0
 10
31.65818205249616
 20
16.92331007638656
 30
0.0
 10
30.84177834786141
 20
16.90969466504708
 30
0.0
 10
30.02531127581668
 20
16.89899155479587
 30
0.0
 10
29.61706943981716
 20
16.90035821929407
 30
0.0
  0
SPLINE
  5
A5
330
1F
100
AcDbEntity
  8
Layer 01
370
    -3
100
AcDbSpline
210
0.0
220
0.0
230
1.0
 70
     8
 71
     2
 72
    24
 73
    21
 74
     0
 42
0.000000001
 43
0.0000000001
 40
0.0
 40
0.0
 40
0.0
 40
1.0
 40
2.0
 40
3.0
 40
4.0
 40
5.0
 40
6.0
 40
7.0
 40
7.0
 40
8.0
 40
9.0
 40
10.0
 40
11.0
 40
12.0
 40
13.0
 40
14.0
 40
15.0
 40
16.0
 40
17.0
 40
18.0
 40
18.0
 40
18.0
 10
39.65402125462117
 20
16.61582950031311
 30
0.0
 10
39.50688064862121
 20
16.65835927074888
 30
0.0
 10
39.21035456106904
 20
16.73894252261636
 30
0.0
 10
38.90582860607913
 20
16.77918982467031
 30
0.0
 10
38.59978746557121
 20
16.80225202986454
 30
0.0
 10
38.29317176963832
 20
16.81559640181682
 30
0.0
 10
37.98633798478036
 20
16.8218288008577
 30
0.0
 10
37.67944507079528
 20
16.82188827069269
 30
0.0
 10
37.52601432660117
 20
16.81981476315242
 30
0.0
 10
37.15476385657189
 20
16.81433716011813
 30
0.0
 10
36.41226851787667
 20
16.80301249553474
 30
0.0
 10
35.66978879076865
 20
16.79069944114175
 30
0.0
 10
34.9273352500461
 20
16.77688623410074
 30
0.0
 10
34.18492043401625
 20
16.76111818593946
 30
0.0
 10
33.44256651662121
 20
16.74269022320034
 30
0.0
 10
32.7002912797125
 20
16.72133429693446
 30
0.0
 10
31.95806729572763
 20
16.69831214068602
 30
0.0
 10
31.21568190482694
 20
16.68044473756173
 30
0.0
 10
30.47321232129212
 20
16.67183790322715
 30
0.0
 10
29.73039214859784
 20
16.65555130334786
 30
0.0
 10
29.35991344642184
 20
16.68114267494328
 30
0.0
  0
SPLINE
  5
A6
330
1F
100
AcDbEntity
  8
Layer 01
370
    -3
100
AcDbSpline
210
0.0
220
0.0
230
1.0
 70
    12
 71
     3
 72
    94
 73
    90
 74
     0
 42
0.000000001
 43
0.0000000001
 40
-2.658397154661755
 40
-2.658397154661755
 40
-2.658397154661755
 40
-2.658397154661755
 40
0.0
 40
0.0
 40
0.0
 40
0.1770281234621098
 40
0.1770281234621098
 40
0.1770281234621098
 40
1.17702812346211
 40
1.17702812346211
 40
2.17702812346211
 40
2.17702812346211
 40
3.17702812346211
 40
3.17702812346211
 40
4.17702812346211
 40
4.17702812346211
 40
5.17702812346211
 40
5.17702812346211
 40
6.17702812346211
 40
6.17702812346211
 40
7.17702812346211
 40
7.17702812346211
 40
8.17702812346211
 40
8.17702812346211
 40
9.17702812346211
 40
9.17702812346211
 40
10.17702812346211
 40
10.17702812346211
 40
10.17702812346211
 40
26.24362638452313
 40
26.24362638452313
 40
26.24362638452313
 40
26.34919835470212
 40
26.34919835470212
 40
26.34919835470212
 40
27.34919676922633
 40
27.34919676922633
 40
28.34919690242236
 40
28.34919690242236
 40
29.34919703561838
 40
29.34919703561838
 40
30.3491971688144
 40
30.3491971688144
 40
31.34919730201043
 40
31.34919730201043
 40
32.34919743520645
 40
32.34919743520645
 40
33.34919756840247
 40
33.34919756840247
 40
34.3491977015985
 40
34.3491977015985
 40
35.34919783479452
 40
35.34919783479452
 40
36.34919796799055
 40
36.34919796799055
 40
37.34919810118657
 40
37.34919810118657
 40
38.3491982343826
 40
38.3491982343826
 40
39.34919836757862
 40
39.34919836757862
 40
40.34919850077465
 40
40.34919850077465
 40
41.34919863397067
 40
41.34919863397067
 40
42.34919835470212
 40
42.34919835470212
 40
42.34919835470212
 40
42.45477032492087
 40
42.45477032492087
 40
42.45477032492087
 40
58.5241954249334
 40
58.5241954249334
 40
58.5241954249334
 40
59.5241954249334
 40
59.5241954249334
 40
60.5241954249334
 40
60.5241954249334
 40
61.5241954249334
 40
61.5241954249334
 40
62.5241954249334
 40
62.5241954249334
 40
63.5241954249334
 40
63.5241954249334
 40
64.5241954249334
 40
64.5241954249334
 40
65.5241954249334
 40
65.5241954249334
 40
66.5241954249334
 40
66.5241954249334
 40
66.5241954249334
 40
66.5241954249334
 10
38.94365443626378
 20
17.00619772888624
 30
0.0
 41
1.0
 10
39.46189218796391
 20
17.0994752431092
 30
0.0
 41
1.0
 10
39.98012993966404
 20
17.19275275733215
 30
0.0
 41
1.0
 10
40.49836769136417
 20
17.28603027155511
 30
0.0
 41
1.0
 10
40.52263830818819
 20
17.29039873525501
 30
0.0
 41
0.9865511960284515
 10
40.54717703196606
 20
17.29274479098586
 30
0.0
 41
0.974036248653837
 10
40.57192289267386
 20
17.29298271670013
 30
0.0
 41
0.9624551578761563
 10
40.61749822469699
 20
17.29315349154634
 30
0.0
 41
0.9624551578761563
 10
40.65962039939355
 20
17.28167984372635
 30
0.0
 41
0.9624551578761563
 10
40.73695843413354
 20
17.23544370275397
 30
0.0
 41
0.9624551578761563
 10
40.77143953937583
 20
17.20758857985071
 30
0.0
 41
0.9624551578761563
 10
40.83202592560507
 20
17.14240422921006
 30
0.0
 41
0.9624551578761563
 10
40.86000366039717
 20
17.10798656430041
 30
0.0
 41
0.9624551578761563
 10
40.91132821333628
 20
17.03550025530246
 30
0.0
 41
0.9624551578761563
 10
40.93472868277873
 20
16.99785272771465
 30
0.0
 41
0.9624551578761563
 10
40.97700600760944
 20
16.91974892636136
 30
0.0
 41
0.9624551578761563
 10
40.99622434702119
 20
16.87978383965689
 30
0.0
 41
0.9624551578761563
 10
41.03082037983748
 20
16.79802729419231
 30
0.0
 41
0.9624551578761563
 10
41.04649105436346
 20
16.75653842060811
 30
0.0
 41
0.9624551578761563
 10
41.07457771965103
 20
16.67233947173589
 30
0.0
 41
0.9624551578761563
 10
41.08716369147955
 20
16.62981073031519
 30
0.0
 41
0.9624551578761563
 10
41.10942091350609
 20
16.54389471350462
 30
0.0
 41
0.9624551578761563
 10
41.11919300728364
 20
16.50063134674775
 30
0.0
 41
0.9624551578761563
 10
41.13602416036729
 20
16.41349389653086
 30
0.0
 41
0.9624551578761563
 10
41.14313441343495
 20
16.36971361701077
 30
0.0
 41
0.9624551578761563
 10
41.1547442726219
 20
16.28172994914729
 30
0.0
 41
0.9624551578761563
 10
41.1592575085399
 20
16.23760610412028
 30
0.0
 41
0.9624551578761563
 10
41.16247905078242
 20
16.19335024799801
 30
0.0
 41
0.9624551578761563
 10
41.54893944618707
 20
10.8710926246465
 30
0.0
 41
0.9624551578761563
 10
41.93539984159172
 20
5.548835001294993
 30
0.0
 41
0.9624551578761563
 10
42.32186023699638
 20
0.2265773779434849
 30
0.0
 41
0.9624551578761562
 10
42.33059556357976
 20
0.1909433481996949
 30
0.0
 41
0.9624551578761562
 10
42.33918952736105
 20
0.156956684335114
 30
0.0
 41
0.9624551578761563
 10
42.34778354302811
 20
0.1229700335905217
 30
0.0
 41
0.9624551578761563
 10
42.3520861483837
 20
0.1060894086637881
 30
0.0
 41
0.9624551578761563
 10
42.36018973962752
 20
0.0913284672486773
 30
0.0
 41
0.9624551578761563
 10
42.38399891435176
 20
0.0660459297154931
 30
0.0
 41
0.9624551578761563
 10
42.39793486652087
 20
0.0565450167924604
 30
0.0
 41
0.9624551578761563
 10
42.42986948001302
 20
0.0438239243597221
 30
0.0
 41
0.9624551578761563
 10
42.44593478073247
 20
0.0379766871651702
 30
0.0
 41
0.9624551578761563
 10
42.47826137011808
 20
0.0273088308197011
 30
0.0
 41
0.9624551578761563
 10
42.49462883073999
 20
0.0226306402886812
 30
0.0
 41
0.9624551578761563
 10
42.52777208384203
 20
0.0145857345100705
 30
0.0
 41
0.9624551578761563
 10
42.54447121786503
 20
0.0112096152110891
 30
0.0
 41
0.9624551578761563
 10
42.57812450085506
 20
0.005750043793774
 30
0.0
 41
0.9624551578761563
 10
42.5950323853467
 20
0.003677914695136
 30
0.0
 41
0.9624551578761563
 10
42.62901064032324
 20
0.0008489697178991
 30
0.0
 41
0.9624551578761563
 10
42.64602883887847
 20
0.0000995325899462
 30
0.0
 41
0.9624551578761563
 10
42.68012337812288
 20
-0.0000692709446286
 30
0.0
 41
0.9624551578761563
 10
42.69714843613185
 20
0.0005057608964817
 30
0.0
 41
0.9624551578761563
 10
42.73115412892335
 20
0.0029746917954975
 30
0.0
 41
0.9624551578761563
 10
42.74808367365509
 20
0.0048650741771299
 30
0.0
 41
0.9624551578761563
 10
42.7817961597905
 20
0.0099576728046436
 30
0.0
 41
0.9624551578761563
 10
42.79852757896588
 20
0.0131577499844962
 30
0.0
 41
0.9624551578761563
 10
42.83174076953204
 20
0.020865460076393
 30
0.0
 41
0.9624551578761563
 10
42.84817196575617
 20
0.0253583510949026
 30
0.0
 41
0.9624551578761563
 10
42.88068356008657
 20
0.0356222050770443
 30
0.0
 41
0.9624551578761563
 10
42.89671981771667
 20
0.0413752631419876
 30
0.0
 41
0.9624551578761563
 10
42.92835325390657
 20
0.0541236414196191
 30
0.0
 41
0.9624551578761563
 10
42.94387322234041
 20
0.0611171987532114
 30
0.0
 41
0.9624551578761563
 10
42.97431965988589
 20
0.076343049809949
 30
0.0
 41
0.9624551578761563
 10
42.98937175978699
 20
0.0844497388000431
 30
0.0
 41
0.9624551578761563
 10
43.01913372184595
 20
0.1016506437036819
 30
0.0
 41
0.9624551578761563
 10
43.03155100130524
 20
0.1130650725131483
 30
0.0
 41
0.9624551578761563
 10
43.05145815297796
 20
0.1415218769786631
 30
0.0
 41
0.9624551578761563
 10
43.05734441773151
 20
0.157298640931403
 30
0.0
 41
0.9624551578761563
 10
43.05916337345495
 20
0.1746237695384816
 30
0.0
 41
0.9624551578761563
 10
43.06275878833541
 20
0.2095774453159789
 30
0.0
 41
0.9624551578761563
 10
43.06635420321586
 20
0.2445311210934761
 30
0.0
 41
0.9624551578761563
 10
43.0699496180963
 20
0.2794847968709734
 30
0.0
 41
0.9624551578761563
 10
42.68346986406317
 20
5.602211635346261
 30
0.0
 41
0.9624551578761563
 10
42.29699011003004
 20
10.92493847382155
 30
0.0
 41
0.9624551578761563
 10
41.91051035599691
 20
16.24766531229684
 30
0.0
 41
0.9624551578761563
 10
41.90358712650982
 20
16.34374810664783
 30
0.0
 41
0.9624551578761563
 10
41.89217630337333
 20
16.43929835432451
 30
0.0
 41
0.9624551578761563
 10
41.86037946980156
 20
16.62933375632923
 30
0.0
 41
0.9624551578761563
 10
41.83967454044726
 20
16.72330168887206
 30
0.0
 41
0.9624551578761563
 10
41.78865165660186
 20
16.90913801703864
 30
0.0
 41
0.9624551578761563
 10
41.75789592513186
 20
17.00030048597579
 30
0.0
 41
0.9624551578761563
 10
41.68589588309729
 20
17.17911403355779
 30
0.0
 41
0.9624551578761563
 10
41.64414733830679
 20
17.26578128464416
 30
0.0
 41
0.9624551578761563
 10
41.54915320117934
 20
17.4336367414076
 30
0.0
 41
0.9624551578761563
 10
41.49515782238998
 20
17.51320859001031
 30
0.0
 41
0.9624551578761563
 10
41.37417044435998
 20
17.66364052765772
 30
0.0
 41
0.9624551578761563
 10
41.30669926566515
 20
17.73208471237545
 30
0.0
 41
0.9624551578761563
 10
41.15780192891588
 20
17.85542951359902
 30
0.0
 41
0.9624551578761563
 10
41.07679659573677
 20
17.90696585453514
 30
0.0
 41
0.9624551578761563
 10
40.90167259976964
 20
17.98976641705607
 30
0.0
 41
0.9624551578761563
 10
40.80996995283225
 20
18.01780403798922
 30
0.0
 41
0.9624551578761563
 10
40.71412665694106
 20
18.03247899859505
 30
0.0
 41
0.9624551578761563
  0
SPLINE
  5
A7
330
1F
100
AcDbEntity
  8
Layer 01
370
    -3
100
AcDbSpline
210
0.0
220
0.0
230
1.0
 70
    12
 71
     2
 72
    12
 73
     9
 74
     0
 42
0.000000001
 43
0.0000000001
 40
-0.5970925607520959
 40
-0.5970925607520959
 40
-0.5970925607520959
 40
-0.2985462803760479
 40
-0.2985462803760479
 40
0.0
 40
0.0
 40
0.2962062464811164
 40
0.2962062464811164
 40
0.5924124929622328
 40
0.5924124929622328
 40
0.5924124929622328
 10
42.32200159980738
 20
0.2249300120293398
 30
0.0
 41
1.0
 10
42.31862811570173
 20
0.2382711748812397
 30
0.0
 41
0.9218140701088627
 10
42.42864295844763
 20
0.2559103741308917
 30
0.0
 41
1.0
 10
42.53865780119344
 20
0.2735495733805332
 30
0.0
 41
0.9218140701088627
 10
42.69593816891117
 20
0.2848850279573938
 30
0.0
 41
1.0
 10
42.85184701057391
 20
0.2961216343975016
 30
0.0
 41
0.9230190117422833
 10
42.96159563961405
 20
0.294464802312703
 30
0.0
 41
1.0
 10
43.07134426865426
 20
0.2928079702279182
 30
0.0
 41
0.9230190117422833
 10
43.06994573503755
 20
0.2792387821597728
 30
0.0
 41
1.0
  0
SPLINE
  5
A8
330
1F
100
AcDbEntity
  8
Layer 01
370
    -3
100
AcDbSpline
210
0.0
220
0.0
230
1.0
 70
    12
 71
     2
 72
     6
 73
     3
 74
     0
 42
0.000000001
 43
0.0000000001
 40
-0.8793194439042036
 40
-0.8793194439042036
 40
-0.8793194439042036
 40
-0.8396702089994086
 40
-0.8396702089994086
 40
-0.8396702089994086
 10
41.16653129880284
 20
16.18909644644329
 30
0.0
 41
0.8535839347291179
 10
41.16346808895645
 20
16.19065722981717
 30
0.0
 41
0.8538686542485077
 10
41.16271576123341
 20
16.19240293593099
 30
0.0
 41
0.8568074087668482
  0
SPLINE
  5
A9
330
1F
100
AcDbEntity
  8
Layer 01
370
    -3
100
AcDbSpline
210
0.0
220
0.0
230
1.0
 70
    12
 71
     2
 72
     6
 73
     3
 74
     0
 42
0.000000001
 43
0.0000000001
 40
-1.178097245096172
 40
-1.178097245096172
 40
-1.178097245096172
 40
-1.172312665114529
 40
-1.172312665114529
 40
-1.172312665114529
 10
24.08563246892032
 20
0.4048140672673668
 30
0.0
 41
1.0
 10
24.0856756522363
 20
0.4049771407260869
 30
0.0
 41
0.9971237276763698
 10
24.08575399035999
 20
0.4051308879506684
 30
0.0
 41
0.9943039465375694
  0
SPLINE
  5
AA
330
1F
100
AcDbEntity
  8
Layer 01
370
    -3
100
AcDbSpline
210
0.0
220
0.0
230
1.0
 70
     8
 71
     3
 72
     8
 73
     4
 74
     0
 42
0.000000001
 43
0.0000000001
 40
0.0
 40
0.0
 40
0.0
 40
0.0
 40
0.0059850756922033
 40
0.0059850756922033
 40
0.0059850756922033
 40
0.0059850756922033
 10
26.37204464134837
 20
17.59753977284591
 30
0.0
 10
26.37162361197147
 20
17.59945459852391
 30
0.0
 10
26.37096915585659
 20
17.60134978720231
 30
0.0
 10
26.37054812825977
 20
17.60326461291891
 30
0.0
  0
SPLINE
  5
AB
330
1F
100
AcDbEntity
  8
Layer 01
370
    -3
100
AcDbSpline
210
0.0
220
0.0
230
1.0
 70
     8
 71
     3
 72
     8
 73
     4
 74
     0
 42
0.000000001
 43
0.0000000001
 40
0.6970432060325158
 40
0.6970432060325158
 40
0.6970432060325158
 40
0.6970432060325158
 40
0.7023318536751482
 40
0.7023318536751482
 40
0.7023318536751482
 40
0.7023318536751482
 10
31.99626433204739
 20
16.93360438551399
 30
0.0
 10
31.9945915549072
 20
16.9335558741916
 30
0.0
 10
31.99291878159613
 20
16.93350737740571
 30
0.0
 10
31.99124601212509
 20
16.9334588951954
 30
0.0
  0
SPLINE
  5
AC
330
1F
100
AcDbEntity
  8
Layer 01
370
    -3
100
AcDbSpline
210
0.0
220
0.0
230
1.0
 70
     8
 71
     3
 72
     8
 73
     4
 74
     0
 42
0.000000001
 43
0.0000000001
 40
1.096162985742974
 40
1.096162985742974
 40
1.096162985742974
 40
1.096162985742974
 40
1.09870812258106
 40
1.09870812258106
 40
1.09870812258106
 40
1.09870812258106
 10
32.20893337166601
 20
21.19572176883086
 30
0.0
 10
32.20903822564938
 20
21.19654398176584
 30
0.0
 10
32.20914244873086
 20
21.19736629213893
 30
0.0
 10
32.20924604070026
 20
21.19818869916283
 30
0.0
  0
SPLINE
  5
AD
330
1F
100
AcDbEntity
  8
Layer 01
370
    -3
100
AcDbSpline
210
0.0
220
0.0
230
1.0
 70
     8
 71
     3
 72
     8
 73
     4
 74
     0
 42
0.000000001
 43
0.0000000001
 40
0.8660546067309377
 40
0.8660546067309377
 40
0.8660546067309377
 40
0.8660546067309377
 40
1.139136786143657
 40
1.139136786143657
 40
1.139136786143657
 40
1.139136786143657
 10
-8.934387875708637
 20
54.84988635232612
 30
0.0
 10
-8.99763079380196
 20
54.90791023299397
 30
0.0
 10
-9.059206823173668
 20
54.96584191201629
 30
0.0
 10
-9.118667821977908
 20
55.02328765955365
 30
0.0
  0
SPLINE
  5
AE
330
1F
100
AcDbEntity
  8
Layer 01
370
    -3
100
AcDbSpline
210
0.0
220
0.0
230
1.0
 70
     8
 71
     3
 72
     8
 73
     4
 74
     0
 42
0.000000001
 43
0.0000000001
 40
-0.0059116427543164
 40
-0.0059116427543164
 40
-0.0059116427543164
 40
-0.0059116427543164
 40
0.0
 40
0.0
 40
0.0
 40
0.0
 10
-7.777257040362656
 20
44.45799693692076
 30
0.0
 10
-7.777719581738637
 20
44.45993388850076
 30
0.0
 10
-7.778166723266622
 20
44.46180762836076
 30
0.0
 10
-7.778628646783631
 20
44.46374472857076
 30
0.0
  0
SPLINE
  5
AF
330
1F
100
AcDbEntity
  8
Layer 01
370
    -3
100
AcDbSpline
210
0.0
220
0.0
230
1.0
 70
     8
 71
     3
 72
     8
 73
     4
 74
     0
 42
0.000000001
 43
0.0000000001
 40
0.0
 40
0.0
 40
0.0
 40
0.0
 40
0.0080596098360397
 40
0.0080596098360397
 40
0.0080596098360397
 40
0.0080596098360397
 10
-5.265734101150656
 20
41.63266951628076
 30
0.0
 10
-5.263201566382094
 20
41.63181888006693
 30
0.0
 10
-5.260659056896145
 20
41.6309660122915
 30
0.0
 10
-5.258121453610244
 20
41.63011598187234
 30
0.0
  0
SPLINE
  5
B0
330
1F
100
AcDbEntity
  8
Layer 01
370
    -3
100
AcDbSpline
210
0.0
220
0.0
230
1.0
 70
    12
 71
     2
 72
     6
 73
     3
 74
     0
 42
0.000000001
 43
0.0000000001
 40
0.0319415546539828
 40
0.0319415546539828
 40
0.0319415546539828
 40
0.0396814126024709
 40
0.0396814126024709
 40
0.0396814126024709
 10
-3.601168294064441
 20
59.54641401578537
 30
0.0
 41
0.9621253294046066
 10
-3.600604482414242
 20
59.54670129216988
 30
0.0
 41
0.9602116303317794
 10
-3.600103022856737
 20
59.54726860397412
 30
0.0
 41
0.9595943383873571
  0
SPLINE
  5
B1
330
1F
100
AcDbEntity
  8
Layer 01
370
    -3
100
AcDbSpline
210
0.0
220
0.0
230
1.0
 70
    12
 71
     2
 72
     6
 73
     3
 74
     0
 42
0.000000001
 43
0.0000000001
 40
-0.1674443521781994
 40
-0.1674443521781994
 40
-0.1674443521781994
 40
-0.163575630536325
 40
-0.163575630536325
 40
-0.163575630536325
 10
-8.933862955340516
 20
17.81095662081036
 30
0.0
 41
1.0
 10
-8.933858302520022
 20
17.80906800643237
 30
0.0
 41
0.9962852148646539
 10
-8.933784830691062
 20
17.80718081016958
 30
0.0
 41
0.9929137430620318
  0
SPLINE
  5
B2
330
1F
100
AcDbEntity
  8
Layer 01
370
    -3
100
AcDbSpline
210
0.0
220
0.0
230
1.0
 70
     8
 71
     3
 72
     8
 73
     4
 74
     0
 42
0.000000001
 43
0.0000000001
 40
0.0
 40
0.0
 40
0.0
 40
0.0
 40
0.0016013834982546
 40
0.0016013834982546
 40
0.0016013834982546
 40
0.0016013834982546
 10
-3.049786173164989
 20
16.95340413340963
 30
0.0
 10
-3.050448410256507
 20
16.953445889744
 30
0.0
 10
-3.051110454825221
 20
16.95348763905506
 30
0.0
 10
-3.051772306846146
 20
16.95352938131398
 30
0.0
  0
SPLINE
  5
B3
330
1F
100
AcDbEntity
  8
Layer 01
370
    -3
100
AcDbSpline
210
0.0
220
0.0
230
1.0
 70
     8
 71
     3
 72
   111
 73
   107
 74
     0
 42
0.000000001
 43
0.0000000001
 40
-23.23393211855461
 40
-23.23393211855461
 40
-23.23393211855461
 40
-23.23393211855461
 40
-22.23393211855461
 40
-22.23393211855461
 40
-21.23393211855461
 40
-21.23393211855461
 40
-20.23393211855461
 40
-20.23393211855461
 40
-19.23393211855461
 40
-19.23393211855461
 40
-19.23393211855461
 40
-19.1722841908423
 40
-19.1722841908423
 40
-19.1722841908423
 40
-18.1722841908423
 40
-18.1722841908423
 40
-18.1722841908423
 40
-17.1722841908423
 40
-17.1722841908423
 40
-16.1722841908423
 40
-16.1722841908423
 40
-15.1722841908423
 40
-15.1722841908423
 40
-14.1722841908423
 40
-14.1722841908423
 40
-13.1722841908423
 40
-13.1722841908423
 40
-12.1722841908423
 40
-12.1722841908423
 40
-11.1722841908423
 40
-11.1722841908423
 40
-10.1722841908423
 40
-10.1722841908423
 40
-10.1722841908423
 40
-9.172284190842298
 40
-9.172284190842298
 40
-8.172284190842298
 40
-8.172284190842298
 40
-7.172284190842298
 40
-7.172284190842298
 40
-6.172284190842298
 40
-6.172284190842298
 40
-5.172284190842298
 40
-5.172284190842298
 40
-4.172284190842298
 40
-4.172284190842298
 40
-3.172284190842298
 40
-3.172284190842298
 40
-2.172284190842298
 40
-2.172284190842298
 40
-1.172284190842298
 40
-1.172284190842298
 40
-0.1722841908422978
 40
-0.1722841908422978
 40
-0.1722841908422978
 40
0.8277158091577022
 40
0.8277158091577022
 40
1.827715809157702
 40
1.827715809157702
 40
2.827715809157702
 40
2.827715809157702
 40
3.827715809157702
 40
3.827715809157702
 40
4.827715809157702
 40
4.827715809157702
 40
5.827715809157702
 40
5.827715809157702
 40
6.827715809157702
 40
6.827715809157702
 40
7.827715809157702
 40
7.827715809157702
 40
8.827715809157702
 40
8.827715809157702
 40
9.827715809157702
 40
9.827715809157702
 40
9.827715809157702
 40
10.8277158091577
 40
10.8277158091577
 40
11.8277158091577
 40
11.8277158091577
 40
12.8277158091577
 40
12.8277158091577
 40
13.8277158091577
 40
13.8277158091577
 40
14.8277158091577
 40
14.8277158091577
 40
15.8277158091577
 40
15.8277158091577
 40
16.8277158091577
 40
16.8277158091577
 40
17.8277158091577
 40
17.8277158091577
 40
17.8277158091577
 40
18.8277158091577
 40
18.8277158091577
 40
18.8277158091577
 40
18.88936373687002
 40
18.88936373687002
 40
18.88936373687002
 40
19.88936373687002
 40
19.88936373687002
 40
20.88936373687002
 40
20.88936373687002
 40
21.88936373687002
 40
21.88936373687002
 40
22.88936373687002
 40
22.88936373687002
 40
22.88936373687002
 40
22.88936373687002
 10
8.721947538688767
 20
17.67681146451821
 30
0.0
 10
8.745403334096105
 20
17.67820150425907
 30
0.0
 10
8.76883025103013
 20
17.68021148584689
 30
0.0
 10
8.815626327951543
 20
17.68547133271646
 30
0.0
 10
8.838435793199684
 20
17.69122276509251
 30
0.0
 10
8.882877577270827
 20
17.70896864772713
 30
0.0
 10
8.90071140212008
 20
17.72342243349549
 30
0.0
 10
8.927604917445947
 20
17.76349169393429
 30
0.0
 10
8.934217676992782
 20
17.78565611486011
 30
0.0
 10
8.93399643842352
 20
17.80995032649236
 30
0.0
 10
8.933996356648342
 20
17.83049963512153
 30
0.0
 10
8.933996274873161
 20
17.8510489437507
 30
0.0
 10
8.933996193097983
 20
17.87159825237987
 30
0.0
 10
8.933995994897003
 20
17.90485719213238
 30
0.0
 10
8.923269375095174
 20
17.93945915523704
 30
0.0
 10
8.897590842700538
 20
17.95654184733029
 30
0.0
 10
8.758675877200497
 20
18.04895529005793
 30
0.0
 10
8.607999696982853
 20
18.11619759214691
 30
0.0
 10
8.283124907112358
 20
18.2003399150476
 30
0.0
 10
8.119538547574885
 20
18.23360630039518
 30
0.0
 10
7.790067899295498
 20
18.28252951888481
 30
0.0
 10
7.624344315741259
 20
18.29444881537636
 30
0.0
 10
7.290920629803689
 20
18.29320278285292
 30
0.0
 10
7.124570684799987
 20
18.28621647704407
 30
0.0
 10
6.792594590722747
 20
18.25951728633214
 30
0.0
 10
6.626733832530699
 20
18.24490124948925
 30
0.0
 10
6.295266893839742
 20
18.21313629282963
 30
0.0
 10
6.129767791427095
 20
18.19507028050013
 30
0.0
 10
5.799238320467457
 20
18.15457118784179
 30
0.0
 10
5.634076256977949
 20
18.13354774809076
 30
0.0
 10
5.303957473979551
 20
18.08995308174496
 30
0.0
 10
5.138910827009511
 20
18.06805805803679
 30
0.0
 10
4.973876924568629
 20
18.04606534379334
 30
0.0
 10
4.808843022127728
 20
18.02407262954989
 30
0.0
 10
4.643794131074249
 20
18.00219220120216
 30
0.0
 10
4.31366637174214
 20
17.95865591629816
 30
0.0
 10
4.148533330020787
 20
17.93742324239389
 30
0.0
 10
3.818128922467489
 20
17.89602883168081
 30
0.0
 10
3.652833154022408
 20
17.87610469692568
 30
0.0
 10
3.322054487795379
 20
17.8378025686182
 30
0.0
 10
3.156557381070485
 20
17.81962998626593
 30
0.0
 10
2.825347620397935
 20
17.78524178516432
 30
0.0
 10
2.659630866385404
 20
17.76919932469583
 30
0.0
 10
2.32797361100783
 20
17.73941768392349
 30
0.0
 10
2.16203877566258
 20
17.72581910452328
 30
0.0
 10
1.829956689659156
 20
17.70120642769476
 30
0.0
 10
1.663823066768259
 20
17.69030628192541
 30
0.0
 10
1.331370661208098
 20
17.67131837567651
 30
0.0
 10
1.165071885602724
 20
17.66333010615435
 30
0.0
 10
0.8323291887413878
 20
17.65036493431462
 30
0.0
 10
0.665910798170079
 20
17.64547503713177
 30
0.0
 10
0.3329799327461795
 20
17.63888062024008
 30
0.0
 10
0.1664981442601364
 20
17.63721857758431
 30
0.0
 10
0.0
 20
17.63719170071863
 30
0.0
 10
-0.1664981442601364
 20
17.63721857758431
 30
0.0
 10
-0.3329799327461795
 20
17.63888062024008
 30
0.0
 10
-0.665910798170079
 20
17.64547503713177
 30
0.0
 10
-0.8323291887413878
 20
17.65036493431462
 30
0.0
 10
-1.165071885602724
 20
17.66333010615435
 30
0.0
 10
-1.331370661208098
 20
17.67131837567651
 30
0.0
 10
-1.663823066768259
 20
17.69030628192541
 30
0.0
 10
-1.829956689659156
 20
17.70120642769476
 30
0.0
 10
-2.16203877566258
 20
17.72581910452328
 30
0.0
 10
-2.32797361100783
 20
17.73941768392349
 30
0.0
 10
-2.659630866385404
 20
17.76919932469583
 30
0.0
 10
-2.825347620397935
 20
17.78524178516432
 30
0.0
 10
-3.156557381070485
 20
17.81962998626593
 30
0.0
 10
-3.322054487795379
 20
17.8378025686182
 30
0.0
 10
-3.652833154022408
 20
17.87610469692568
 30
0.0
 10
-3.818128922467489
 20
17.89602883168081
 30
0.0
 10
-4.148533330020787
 20
17.93742324239389
 30
0.0
 10
-4.31366637174214
 20
17.95865591629816
 30
0.0
 10
-4.643794131074249
 20
18.00219220120216
 30
0.0
 10
-4.808843022127728
 20
18.02407262954989
 30
0.0
 10
-4.973876924568629
 20
18.04606534379334
 30
0.0
 10
-5.138910827009529
 20
18.06805805803679
 30
0.0
 10
-5.303957473979575
 20
18.08995308174496
 30
0.0
 10
-5.634076256977953
 20
18.13354774809075
 30
0.0
 10
-5.799238320467457
 20
18.15457118784179
 30
0.0
 10
-6.129767791427095
 20
18.19507028050013
 30
0.0
 10
-6.295266893839742
 20
18.21313629282962
 30
0.0
 10
-6.626733832530699
 20
18.24490124948925
 30
0.0
 10
-6.792594590722747
 20
18.25951728633214
 30
0.0
 10
-7.124570684799987
 20
18.28621647704408
 30
0.0
 10
-7.290920629803689
 20
18.29320278285292
 30
0.0
 10
-7.624344315741259
 20
18.29444881537637
 30
0.0
 10
-7.790067899295498
 20
18.28252951888481
 30
0.0
 10
-8.119538547574885
 20
18.23360630039518
 30
0.0
 10
-8.283124907112358
 20
18.2003399150476
 30
0.0
 10
-8.607999696982853
 20
18.11619759214691
 30
0.0
 10
-8.758675877200497
 20
18.04895529005793
 30
0.0
 10
-8.897590842700538
 20
17.95654184733029
 30
0.0
 10
-8.923269375095174
 20
17.93945915523704
 30
0.0
 10
-8.933995994897003
 20
17.90485719213238
 30
0.0
 10
-8.933996193097983
 20
17.87159825237987
 30
0.0
 10
-8.933996274873161
 20
17.8510489437507
 30
0.0
 10
-8.933996356648342
 20
17.83049963512153
 30
0.0
 10
-8.93399643842352
 20
17.80995032649236
 30
0.0
 10
-8.934217676992782
 20
17.78565611486011
 30
0.0
 10
-8.927604917445947
 20
17.76349169393429
 30
0.0
 10
-8.90071140212008
 20
17.72342243349549
 30
0.0
 10
-8.882877577270827
 20
17.70896864772713
 30
0.0
 10
-8.838435793199684
 20
17.6912227650925
 30
0.0
 10
-8.815626327951543
 20
17.68547133271646
 30
0.0
 10
-8.76883025103013
 20
17.68021148584689
 30
0.0
 10
-8.745403334096105
 20
17.67820150425907
 30
0.0
 10
-8.721947538688767
 20
17.67681146451821
 30
0.0
  0
SPLINE
  5
B4
330
1F
100
AcDbEntity
  8
Layer 01
370
    -3
100
AcDbSpline
210
0.0
220
0.0
230
1.0
 70
     8
 71
     2
 72
    42
 73
    39
 74
     0
 42
0.000000001
 43
0.0000000001
 40
-18.0
 40
-18.0
 40
-18.0
 40
-17.0
 40
-16.0
 40
-15.0
 40
-14.0
 40
-13.0
 40
-12.0
 40
-11.0
 40
-10.0
 40
-9.0
 40
-8.0
 40
-7.0
 40
-6.0
 40
-5.0
 40
-4.0
 40
-3.0
 40
-2.0
 40
-1.0
 40
0.0
 40
0.0
 40
1.0
 40
2.0
 40
3.0
 40
4.0
 40
5.0
 40
6.0
 40
7.0
 40
8.0
 40
9.0
 40
10.0
 40
11.0
 40
12.0
 40
13.0
 40
14.0
 40
15.0
 40
16.0
 40
17.0
 40
18.0
 40
18.0
 40
18.0
 10
8.175006232669006
 20
18.22018506489754
 30
0.0
 10
7.951952849579442
 20
18.26612293182207
 30
0.0
 10
7.501199834795557
 20
18.33183586010379
 30
0.0
 10
7.046858102376234
 20
18.36456014772114
 30
0.0
 10
6.5914313879899
 20
18.37026485134289
 30
0.0
 10
6.136297876751087
 20
18.35473063841959
 30
0.0
 10
5.68160227610241
 20
18.33025216910528
 30
0.0
 10
5.227260110981661
 20
18.29990388216758
 30
0.0
 10
4.773160720538527
 20
18.26616490530477
 30
0.0
 10
4.319290392993707
 20
18.22947825378558
 30
0.0
 10
3.865417511258386
 20
18.19283412068238
 30
0.0
 10
3.411416221781508
 20
18.157806697947
 30
0.0
 10
2.957226590202339
 20
18.12529937613039
 30
0.0
 10
2.502800930647936
 20
18.09626834110987
 30
0.0
 10
2.048144535533652
 20
18.07109441228157
 30
0.0
 10
1.593278803516597
 20
18.05003027882847
 30
0.0
 10
1.138216794735968
 20
18.03371870209701
 30
0.0
 10
0.6829978349493331
 20
18.02259347566763
 30
0.0
 10
0.2276779772401483
 20
18.01690064052134
 30
0.0
 10
0.0
 20
18.01694501959103
 30
0.0
 10
-0.2276779772401483
 20
18.01690064052134
 30
0.0
 10
-0.6829978349493331
 20
18.02259347566763
 30
0.0
 10
-1.138216794735968
 20
18.03371870209701
 30
0.0
 10
-1.593278803516597
 20
18.05003027882847
 30
0.0
 10
-2.048144535533652
 20
18.07109441228157
 30
0.0
 10
-2.502800930647936
 20
18.09626834110987
 30
0.0
 10
-2.957226590202339
 20
18.12529937613039
 30
0.0
 10
-3.411416221781508
 20
18.157806697947
 30
0.0
 10
-3.865417511258386
 20
18.19283412068238
 30
0.0
 10
-4.319290392993707
 20
18.22947825378558
 30
0.0
 10
-4.773160720538527
 20
18.26616490530477
 30
0.0
 10
-5.227260110981661
 20
18.29990388216758
 30
0.0
 10
-5.68160227610241
 20
18.33025216910528
 30
0.0
 10
-6.136297876751087
 20
18.35473063841959
 30
0.0
 10
-6.5914313879899
 20
18.37026485134289
 30
0.0
 10
-7.046858102376234
 20
18.36456014772114
 30
0.0
 10
-7.501199834795557
 20
18.33183586010379
 30
0.0
 10
-7.951952849579442
 20
18.26612293182207
 30
0.0
 10
-8.175006232669006
 20
18.22018506489754
 30
0.0
  0
SPLINE
  5
B5
330
1F
100
AcDbEntity
  8
Layer 01
370
    -3
100
AcDbSpline
210
0.0
220
0.0
230
1.0
 70
     8
 71
     2
 72
    42
 73
    39
 74
     0
 42
0.000000001
 43
0.0000000001
 40
-18.0
 40
-18.0
 40
-18.0
 40
-16.99999998675452
 40
-15.99999997350905
 40
-14.99999996026357
 40
-13.99999994701809
 40
-12.99999993377262
 40
-11.99999992052714
 40
-10.99999990728166
 40
-9.999999894036186
 40
-8.999999880790709
 40
-7.999999867545231
 40
-6.999999854299754
 40
-5.999999841054278
 40
-4.999999827808801
 40
-3.999999814563325
 40
-2.999999801317848
 40
-1.999999788072371
 40
-0.9999997748268945
 40
0.0
 40
0.0
 40
0.9999997748268945
 40
1.999999788072371
 40
2.999999801317848
 40
3.999999814563325
 40
4.999999827808801
 40
5.999999841054278
 40
6.999999854299754
 40
7.999999867545231
 40
8.999999880790709
 40
9.999999894036186
 40
10.99999990728166
 40
11.99999992052714
 40
12.99999993377262
 40
13.99999994701809
 40
14.99999996026357
 40
15.99999997350905
 40
16.99999998675452
 40
18.0
 40
18.0
 40
18.0
 10
8.825351827958514
 20
17.70766107052006
 30
0.0
 10
8.623387091521067
 20
17.84808100216188
 30
0.0
 10
8.137527995279015
 20
17.96927666974986
 30
0.0
 10
7.647013781604414
 20
18.03696296629682
 30
0.0
 10
7.151006752969408
 20
18.02997514854924
 30
0.0
 10
6.657168504538504
 20
17.99106118496136
 30
0.0
 10
6.164040330827106
 20
17.94421198636273
 30
0.0
 10
5.672181743930992
 20
17.88543909777215
 30
0.0
 10
5.180640134720676
 20
17.82425574096645
 30
0.0
 10
4.689029002352356
 20
17.76358563688954
 30
0.0
 10
4.197444519000413
 20
17.70270089022459
 30
0.0
 10
3.705488561802895
 20
17.64487918316149
 30
0.0
 10
3.213065791802592
 20
17.59116434247632
 30
0.0
 10
2.720100299443772
 20
17.54266493708197
 30
0.0
 10
2.226567672931623
 20
17.50030405015327
 30
0.0
 10
1.732493623544713
 20
17.46478706652001
 30
0.0
 10
1.237919044246354
 20
17.43705437603501
 30
0.0
 10
0.7429353464173687
 20
17.41792200381503
 30
0.0
 10
0.2476780414054645
 20
17.40805675908193
 30
0.0
 10
0.0
 20
17.40801210289449
 30
0.0
 10
-0.2476780414054645
 20
17.40805675908193
 30
0.0
 10
-0.7429353464173687
 20
17.41792200381503
 30
0.0
 10
-1.237919044246354
 20
17.43705437603501
 30
0.0
 10
-1.732493623544713
 20
17.46478706652001
 30
0.0
 10
-2.226567672931623
 20
17.50030405015327
 30
0.0
 10
-2.720100299443772
 20
17.54266493708197
 30
0.0
 10
-3.213065791802592
 20
17.59116434247632
 30
0.0
 10
-3.705488561802895
 20
17.64487918316149
 30
0.0
 10
-4.197444519000413
 20
17.70270089022459
 30
0.0
 10
-4.689029002352356
 20
17.76358563688954
 30
0.0
 10
-5.180640134720676
 20
17.82425574096645
 30
0.0
 10
-5.672181743930992
 20
17.88543909777215
 30
0.0
 10
-6.164040330827106
 20
17.94421198636273
 30
0.0
 10
-6.657168504538504
 20
17.99106118496136
 30
0.0
 10
-7.151006752969408
 20
18.02997514854924
 30
0.0
 10
-7.647013781604414
 20
18.03696296629682
 30
0.0
 10
-8.137527995279015
 20
17.96927666974986
 30
0.0
 10
-8.623387091521067
 20
17.84808100216188
 30
0.0
 10
-8.825351827958514
 20
17.70766107052006
 30
0.0
  0
ENDSEC
  0
SECTION
  2
OBJECTS
  0
DICTIONARY
  5
C
330
0
100
AcDbDictionary
281
     1
  3
ACAD_DETAILVIEWSTYLE
350
F1
  3
ACAD_GROUP
350
D
  3
ACAD_LAYOUT
350
1A
  3
ACAD_MATERIAL
350
43
  3
ACAD_MLEADERSTYLE
350
6B
  3
ACAD_MLINESTYLE
350
17
  3
ACAD_PLOTSETTINGS
350
19
  3
ACAD_PLOTSTYLENAME
350
E
  3
ACAD_SCALELIST
350
47
  3
ACAD_SECTIONVIEWSTYLE
350
F2
  3
ACAD_TABLESTYLE
350
69
  3
ACAD_VISUALSTYLE
350
2A
  3
ACDB_RECOMPOSE_DATA
350
EE
  3
AcDbVariableDictionary
350
B6
  0
SUN
  5
6D
330
29
100
AcDbSun
 90
        1
290
     0
 63
     7
421
 16777215
 40
1.0
291
     1
 91
  2455826
 92
 54000000
292
     0
 70
     2
 71
   256
280
     1
  0
DICTIONARY
  5
F1
102
{ACAD_REACTORS
330
C
102
}
330
C
100
AcDbDictionary
281
     1
  0
DICTIONARY
  5
D
102
{ACAD_REACTORS
330
C
102
}
330
C
100
AcDbDictionary
281
     1
  0
DICTIONARY
  5
1A
102
{ACAD_REACTORS
330
C
102
}
330
C
100
AcDbDictionary
281
     1
  3
Layout1
350
1E
  3
Layout2
350
26
  3
Model
350
22
  0
DICTIONARY
  5
43
102
{ACAD_REACTORS
330
C
102
}
330
C
100
AcDbDictionary
281
     1
  3
ByBlock
350
45
  3
ByLayer
350
44
  3
Global
350
46
  0
DICTIONARY
  5
6B
102
{ACAD_REACTORS
330
C
102
}
330
C
100
AcDbDictionary
281
     1
  3
Standard
350
6C
  0
DICTIONARY
  5
17
102
{ACAD_REACTORS
330
C
102
}
330
C
100
AcDbDictionary
281
     1
  3
Standard
350
18
  0
DICTIONARY
  5
19
102
{ACAD_REACTORS
330
C
102
}
330
C
100
AcDbDictionary
281
     1
  0
ACDBDICTIONARYWDFLT
  5
E
102
{ACAD_REACTORS
330
C
102
}
330
C
100
AcDbDictionary
281
     1
  3
Normal
350
F
100
AcDbDictionaryWithDefault
340
F
  0
DICTIONARY
  5
47
102
{ACAD_REACTORS
330
C
102
}
330
C
100
AcDbDictionary
281
     1
  3
A0
350
48
  3
A1
350
49
  3
A2
350
4A
  3
A3
350
4B
  3
A4
350
4C
  3
A5
350
4D
  3
A6
350
4E
  3
A7
350
4F
  3
A8
350
50
  3
A9
350
51
  3
B0
350
52
  3
B1
350
53
  3
B2
350
54
  3
B3
350
55
  3
B4
350
56
  3
B5
350
57
  3
B6
350
58
  3
B7
350
59
  3
B8
350
5A
  3
B9
350
5B
  3
C0
350
5C
  3
C1
350
5D
  3
C2
350
5E
  3
C3
350
5F
  3
C4
350
60
  3
C5
350
61
  3
C6
350
62
  3
C7
350
63
  3
C8
350
64
  3
C9
350
65
  3
D0
350
66
  3
D1
350
67
  3
D2
350
68
  0
DICTIONARY
  5
F2
102
{ACAD_REACTORS
330
C
102
}
330
C
100
AcDbDictionary
281
     1
  0
DICTIONARY
  5
69
102
{ACAD_REACTORS
330
C
102
}
330
C
100
AcDbDictionary
281
     1
  3
Standard
350
6A
  0
DICTIONARY
  5
2A
102
{ACAD_REACTORS
330
C
102
}
330
C
100
AcDbDictionary
281
     1
  3
2dWireframe
350
2F
  3
Basic
350
32
  3
Brighten
350
36
  3
ColorChange
350
3A
  3
Conceptual
350
34
  3
Dim
350
35
  3
EdgeColorOff
350
3D
  3
Facepattern
350
39
  3
Flat
350
2B
  3
FlatWithEdges
350
2C
  3
Gouraud
350
2D
  3
GouraudWithEdges
350
2E
  3
Hidden
350
31
  3
JitterOff
350
3B
  3
Linepattern
350
38
  3
OverhangOff
350
3C
  3
Realistic
350
33
  3
Shaded
350
42
  3
Shaded with edges
350
41
  3
Shades of Gray
350
3E
  3
Sketchy
350
3F
  3
Thicken
350
37
  3
Wireframe
350
30
  3
X-Ray
350
40
  0
XRECORD
  5
EE
102
{ACAD_REACTORS
330
C
102
}
330
C
100
AcDbXrecord
280
     1
 90
        1
330
6A
  0
DICTIONARY
  5
B6
102
{ACAD_REACTORS
330
C
102
}
330
C
100
AcDbDictionary
281
     1
  3
CANNOSCALE
350
B7
  3
CMLEADERSTYLE
350
F0
  3
CTABLESTYLE
350
EF
  3
XCLIPFRAME
350
B8
  0
LAYOUT
  5
1E
102
{ACAD_REACTORS
330
1A
102
}
330
1A
100
AcDbPlotSettings
  1

  2
none_device
  4

  6

 40
0.0
 41
0.0
 42
0.0
 43
0.0
 44
0.0
 45
0.0
 46
0.0
 47
0.0
 48
0.0
 49
0.0
140
0.0
141
0.0
142
1.0
143
1.0
 70
   688
 72
     0
 73
     0
 74
     5
  7

 75
    16
 76
     0
 77
     2
 78
   300
147
1.0
148
0.0
149
0.0
100
AcDbLayout
  1
Layout1
 70
     1
 71
     1
 10
0.0
 20
0.0
 11
12.0
 21
9.0
 12
0.0
 22
0.0
 32
0.0
 14
1.000000000000000E+20
 24
1.000000000000000E+20
 34
1.000000000000000E+20
 15
-1.000000000000000E+20
 25
-1.000000000000000E+20
 35
-1.000000000000000E+20
146
0.0
 13
0.0
 23
0.0
 33
0.0
 16
1.0
 26
0.0
 36
0.0
 17
0.0
 27
1.0
 37
0.0
 76
     0
330
1B
  0
LAYOUT
  5
26
102
{ACAD_REACTORS
330
1A
102
}
330
1A
100
AcDbPlotSettings
  1

  2
none_device
  4

  6

 40
0.0
 41
0.0
 42
0.0
 43
0.0
 44
0.0
 45
0.0
 46
0.0
 47
0.0
 48
0.0
 49
0.0
140
0.0
141
0.0
142
1.0
143
1.0
 70
   688
 72
     0
 73
     0
 74
     5
  7

 75
    16
 76
     0
 77
     2
 78
   300
147
1.0
148
0.0
149
0.0
100
AcDbLayout
  1
Layout2
 70
     1
 71
     2
 10
0.0
 20
0.0
 11
0.0
 21
0.0
 12
0.0
 22
0.0
 32
0.0
 14
0.0
 24
0.0
 34
0.0
 15
0.0
 25
0.0
 35
0.0
146
0.0
 13
0.0
 23
0.0
 33
0.0
 16
1.0
 26
0.0
 36
0.0
 17
0.0
 27
1.0
 37
0.0
 76
     0
330
23
  0
LAYOUT
  5
22
102
{ACAD_REACTORS
330
1A
102
}
330
1A
100
AcDbPlotSettings
  1

  2
none_device
  4
Letter_(8.50_x_11.00_Inches)
  6

 40
6.35
 41
6.35
 42
6.35000508
 43
6.35000508
 44
215.9
 45
279.4
 46
0.0
 47
0.0
 48
0.0
 49
0.0
140
0.0
141
0.0
142
1.0
143
1.0
 70
  1712
 72
     0
 73
     0
 74
     0
  7

 75
     0
 76
     0
 77
     2
 78
   300
147
1.0
148
0.0
149
0.0
100
AcDbLayout
  1
Model
 70
     1
 71
     0
 10
0.0
 20
0.0
 11
12.0
 21
9.0
 12
0.0
 22
0.0
 32
0.0
 14
1.000000000000000E+20
 24
1.000000000000000E+20
 34
1.000000000000000E+20
 15
-1.000000000000000E+20
 25
-1.000000000000000E+20
 35
-1.000000000000000E+20
146
0.0
 13
0.0
 23
0.0
 33
0.0
 16
1.0
 26
0.0
 36
0.0
 17
0.0
 27
1.0
 37
0.0
 76
     0
330
1F
331
29
  0
MATERIAL
  5
45
102
{ACAD_REACTORS
330
43
102
}
330
43
100
AcDbMaterial
  1
ByBlock
 72
     1
 94
      127
  0
MATERIAL
  5
44
102
{ACAD_REACTORS
330
43
102
}
330
43
100
AcDbMaterial
  1
ByLayer
 72
     1
 94
      127
  0
MATERIAL
  5
46
102
{ACAD_REACTORS
330
43
102
}
330
43
100
AcDbMaterial
  1
Global
 72
     1
 94
      127
  0
MLEADERSTYLE
  5
6C
102
{ACAD_REACTORS
330
6B
102
}
102
{ACAD_XDICTIONARY
360
EC
102
}
330
6B
100
AcDbMLeaderStyle
170
     2
171
     1
172
     0
 90
        2
 40
0.0
 41
0.0
173
     1
 91
-1056964608
340
14
 92
       -2
290
     1
 42
0.09
291
     1
 43
0.36
  3
Standard
341
0
 44
0.18
300

342
11
174
     1
178
     6
175
     1
176
     0
 93
-1056964608
 45
0.18
292
     0
297
     0
 46
0.18
343
0
 94
-1056964608
 47
1.0
 49
1.0
140
1.0
293
     1
141
0.0
294
     1
177
     0
142
1.0
295
     0
296
     0
143
0.125
1001
ACAD_MLEADERVER
1070
     2
  0
MLINESTYLE
  5
18
102
{ACAD_REACTORS
330
17
102
}
330
17
100
AcDbMlineStyle
  2
Standard
 70
     0
  3

 62
   256
 51
90.0
 52
90.0
 71
     2
 49
0.5
 62
   256
  6
BYLAYER
 49
-0.5
 62
   256
  6
BYLAYER
  0
ACDBPLACEHOLDER
  5
F
102
{ACAD_REACTORS
330
E
102
}
330
E
  0
SCALE
  5
48
102
{ACAD_REACTORS
330
47
102
}
330
47
100
AcDbScale
 70
     0
300
1:1
140
1.0
141
1.0
290
     1
  0
SCALE
  5
49
102
{ACAD_REACTORS
330
47
102
}
330
47
100
AcDbScale
 70
     0
300
1:2
140
1.0
141
2.0
290
     0
  0
SCALE
  5
4A
102
{ACAD_REACTORS
330
47
102
}
330
47
100
AcDbScale
 70
     0
300
1:4
140
1.0
141
4.0
290
     0
  0
SCALE
  5
4B
102
{ACAD_REACTORS
330
47
102
}
330
47
100
AcDbScale
 70
     0
300
1:5
140
1.0
141
5.0
290
     0
  0
SCALE
  5
4C
102
{ACAD_REACTORS
330
47
102
}
330
47
100
AcDbScale
 70
     0
300
1:8
140
1.0
141
8.0
290
     0
  0
SCALE
  5
4D
102
{ACAD_REACTORS
330
47
102
}
330
47
100
AcDbScale
 70
     0
300
1:10
140
1.0
141
10.0
290
     0
  0
SCALE
  5
4E
102
{ACAD_REACTORS
330
47
102
}
330
47
100
AcDbScale
 70
     0
300
1:16
140
1.0
141
16.0
290
     0
  0
SCALE
  5
4F
102
{ACAD_REACTORS
330
47
102
}
330
47
100
AcDbScale
 70
     0
300
1:20
140
1.0
141
20.0
290
     0
  0
SCALE
  5
50
102
{ACAD_REACTORS
330
47
102
}
330
47
100
AcDbScale
 70
     0
300
1:30
140
1.0
141
30.0
290
     0
  0
SCALE
  5
51
102
{ACAD_REACTORS
330
47
102
}
330
47
100
AcDbScale
 70
     0
300
1:40
140
1.0
141
40.0
290
     0
  0
SCALE
  5
52
102
{ACAD_REACTORS
330
47
102
}
330
47
100
AcDbScale
 70
     0
300
1:50
140
1.0
141
50.0
290
     0
  0
SCALE
  5
53
102
{ACAD_REACTORS
330
47
102
}
330
47
100
AcDbScale
 70
     0
300
1:100
140
1.0
141
100.0
290
     0
  0
SCALE
  5
54
102
{ACAD_REACTORS
330
47
102
}
330
47
100
AcDbScale
 70
     0
300
2:1
140
2.0
141
1.0
290
     0
  0
SCALE
  5
55
102
{ACAD_REACTORS
330
47
102
}
330
47
100
AcDbScale
 70
     0
300
4:1
140
4.0
141
1.0
290
     0
  0
SCALE
  5
56
102
{ACAD_REACTORS
330
47
102
}
330
47
100
AcDbScale
 70
     0
300
8:1
140
8.0
141
1.0
290
     0
  0
SCALE
  5
57
102
{ACAD_REACTORS
330
47
102
}
330
47
100
AcDbScale
 70
     0
300
10:1
140
10.0
141
1.0
290
     0
  0
SCALE
  5
58
102
{ACAD_REACTORS
330
47
102
}
330
47
100
AcDbScale
 70
     0
300
100:1
140
100.0
141
1.0
290
     0
  0
SCALE
  5
59
102
{ACAD_REACTORS
330
47
102
}
330
47
100
AcDbScale
 70
     0
300
1/128" = 1'-0"
140
0.0078125
141
12.0
290
     0
  0
SCALE
  5
5A
102
{ACAD_REACTORS
330
47
102
}
330
47
100
AcDbScale
 70
     0
300
1/64" = 1'-0"
140
0.015625
141
12.0
290
     0
  0
SCALE
  5
5B
102
{ACAD_REACTORS
330
47
102
}
330
47
100
AcDbScale
 70
     0
300
1/32" = 1'-0"
140
0.03125
141
12.0
290
     0
  0
SCALE
  5
5C
102
{ACAD_REACTORS
330
47
102
}
330
47
100
AcDbScale
 70
     0
300
1/16" = 1'-0"
140
0.0625
141
12.0
290
     0
  0
SCALE
  5
5D
102
{ACAD_REACTORS
330
47
102
}
330
47
100
AcDbScale
 70
     0
300
3/32" = 1'-0"
140
0.09375
141
12.0
290
     0
  0
SCALE
  5
5E
102
{ACAD_REACTORS
330
47
102
}
330
47
100
AcDbScale
 70
     0
300
1/8" = 1'-0"
140
0.125
141
12.0
290
     0
  0
SCALE
  5
5F
102
{ACAD_REACTORS
330
47
102
}
330
47
100
AcDbScale
 70
     0
300
3/16" = 1'-0"
140
0.1875
141
12.0
290
     0
  0
SCALE
  5
60
102
{ACAD_REACTORS
330
47
102
}
330
47
100
AcDbScale
 70
     0
300
1/4" = 1'-0"
140
0.25
141
12.0
290
     0
  0
SCALE
  5
61
102
{ACAD_REACTORS
330
47
102
}
330
47
100
AcDbScale
 70
     0
300
3/8" = 1'-0"
140
0.375
141
12.0
290
     0
  0
SCALE
  5
62
102
{ACAD_REACTORS
330
47
102
}
330
47
100
AcDbScale
 70
     0
300
1/2" = 1'-0"
140
0.5
141
12.0
290
     0
  0
SCALE
  5
63
102
{ACAD_REACTORS
330
47
102
}
330
47
100
AcDbScale
 70
     0
300
3/4" = 1'-0"
140
0.75
141
12.0
290
     0
  0
SCALE
  5
64
102
{ACAD_REACTORS
330
47
102
}
330
47
100
AcDbScale
 70
     0
300
1" = 1'-0"
140
1.0
141
12.0
290
     0
  0
SCALE
  5
65
102
{ACAD_REACTORS
330
47
102
}
330
47
100
AcDbScale
 70
     0
300
1-1/2" = 1'-0"
140
1.5
141
12.0
290
     0
  0
SCALE
  5
66
102
{ACAD_REACTORS
330
47
102
}
330
47
100
AcDbScale
 70
     0
300
3" = 1'-0"
140
3.0
141
12.0
290
     0
  0
SCALE
  5
67
102
{ACAD_REACTORS
330
47
102
}
330
47
100
AcDbScale
 70
     0
300
6" = 1'-0"
140
6.0
141
12.0
290
     0
  0
SCALE
  5
68
102
{ACAD_REACTORS
330
47
102
}
330
47
100
AcDbScale
 70
     0
300
1'-0" = 1'-0"
140
12.0
141
12.0
290
     0
  0
TABLESTYLE
  5
6A
102
{ACAD_REACTORS
330
69
102
}
102
{ACAD_XDICTIONARY
360
E9
102
}
330
69
100
AcDbTableStyle
  3
Standard
 70
     0
 71
     0
 40
0.06
 41
0.06
280
     0
281
     0
  7
Standard
140
0.18
170
     2
 62
     0
 63
   257
283
     0
 90
        4
 91
        0
  1

274
    -2
284
     1
 64
     0
275
    -2
285
     1
 65
     0
276
    -2
286
     1
 66
     0
277
    -2
287
     1
 67
     0
278
    -2
288
     1
 68
     0
279
    -2
289
     1
 69
     0
  7
Standard
140
0.25
170
     5
 62
     0
 63
   257
283
     0
 90
        4
 91
        0
  1

274
    -2
284
     1
 64
     0
275
    -2
285
     1
 65
     0
276
    -2
286
     1
 66
     0
277
    -2
287
     1
 67
     0
278
    -2
288
     1
 68
     0
279
    -2
289
     1
 69
     0
  7
Standard
140
0.18
170
     5
 62
     0
 63
   257
283
     0
 90
        4
 91
        0
  1

274
    -2
284
     1
 64
     0
275
    -2
285
     1
 65
     0
276
    -2
286
     1
 66
     0
277
    -2
287
     1
 67
     0
278
    -2
288
     1
 68
     0
279
    -2
289
     1
 69
     0
  0
VISUALSTYLE
  5
2F
102
{ACAD_REACTORS
330
2A
102
}
102
{ACAD_XDICTIONARY
360
C1
102
}
330
2A
100
AcDbVisualStyle
  2
2dWireframe
 70
     4
 71
     0
 72
     2
 73
     0
 90
        0
 40
0.6
 41
30.0
 62
     5
 63
     7
421
 16777215
 74
     1
 91
        4
 64
     7
 65
   257
 75
     1
175
     1
 42
1.0
 92
        0
 66
   257
 43
1.0
 76
     1
 77
     6
 78
     2
 67
     7
 79
     5
170
     0
171
     0
290
     0
174
     0
 93
        1
 44
0.0
173
     0
291
     0
 45
0.0
  0
VISUALSTYLE
  5
32
102
{ACAD_REACTORS
330
2A
102
}
102
{ACAD_XDICTIONARY
360
C7
102
}
330
2A
100
AcDbVisualStyle
  2
Basic
 70
     7
 71
     1
 72
     0
 73
     1
 90
        0
 40
0.6
 41
30.0
 62
     5
 63
     7
421
 16777215
 74
     0
 91
        4
 64
     7
 65
   257
 75
     1
175
     1
 42
1.0
 92
        8
 66
     7
 43
1.0
 76
     1
 77
     6
 78
     2
 67
     7
 79
     5
170
     0
171
     0
290
     0
174
     0
 93
        1
 44
0.0
173
     0
291
     1
 45
0.0
  0
VISUALSTYLE
  5
36
102
{ACAD_REACTORS
330
2A
102
}
102
{ACAD_XDICTIONARY
360
CF
102
}
330
2A
100
AcDbVisualStyle
  2
Brighten
 70
    12
 71
     2
 72
     2
 73
     0
 90
        0
 40
0.6
 41
30.0
 62
     5
 63
     7
421
 16777215
 74
     1
 91
        4
 64
     7
 65
   257
 75
     1
175
     1
 42
1.0
 92
        8
 66
     7
 43
1.0
 76
     1
 77
     6
 78
     2
 67
     7
 79
     5
170
     0
171
     0
290
     0
174
     0
 93
        1
 44
50.0
173
     0
291
     1
 45
0.0
  0
VISUALSTYLE
  5
3A
102
{ACAD_REACTORS
330
2A
102
}
102
{ACAD_XDICTIONARY
360
D7
102
}
330
2A
100
AcDbVisualStyle
  2
ColorChange
 70
    16
 71
     2
 72
     2
 73
     3
 90
        0
 40
0.6
 41
30.0
 62
     5
 63
     8
421
  8421504
 74
     1
 91
        4
 64
     7
 65
   257
 75
     1
175
     1
 42
1.0
 92
        8
 66
     8
424
  8421504
 43
1.0
 76
     1
 77
     6
 78
     2
 67
     7
 79
     5
170
     0
171
     0
290
     0
174
     0
 93
        1
 44
0.0
173
     0
291
     1
 45
0.0
  0
VISUALSTYLE
  5
34
102
{ACAD_REACTORS
330
2A
102
}
102
{ACAD_XDICTIONARY
360
CB
102
}
330
2A
100
AcDbVisualStyle
  2
Conceptual
 70
     9
 71
     3
 72
     2
 73
     0
 90
        0
 40
0.6
 41
30.0
 62
     5
 63
     7
421
 16777215
 74
     2
 91
        2
 64
     7
 65
   257
 75
     1
175
     1
 42
179.0
 92
        8
 66
     7
 43
1.0
 76
     1
 77
     6
 78
     2
 67
     7
 79
     3
170
     0
171
     0
290
     0
174
     0
 93
        1
 44
0.0
173
     0
291
     0
 45
0.0
  0
VISUALSTYLE
  5
35
102
{ACAD_REACTORS
330
2A
102
}
102
{ACAD_XDICTIONARY
360
CD
102
}
330
2A
100
AcDbVisualStyle
  2
Dim
 70
    11
 71
     2
 72
     2
 73
     0
 90
        0
 40
0.6
 41
30.0
 62
     5
 63
     7
421
 16777215
 74
     1
 91
        4
 64
     7
 65
   257
 75
     1
175
     1
 42
1.0
 92
        8
 66
     7
 43
1.0
 76
     1
 77
     6
 78
     2
 67
     7
 79
     5
170
     0
171
     0
290
     0
174
     0
 93
        1
 44
-50.0
173
     0
291
     1
 45
0.0
  0
VISUALSTYLE
  5
3D
102
{ACAD_REACTORS
330
2A
102
}
102
{ACAD_XDICTIONARY
360
DD
102
}
330
2A
100
AcDbVisualStyle
  2
EdgeColorOff
 70
    22
 71
     2
 72
     2
 73
     0
 90
        0
 40
0.6
 41
30.0
 62
     5
 63
     7
421
 16777215
 74
     1
 91
        4
 64
     7
 65
   257
 75
     1
175
     1
 42
1.0
 92
        8
 66
     7
 43
1.0
 76
     1
 77
     6
 78
     2
 67
     7
 79
     5
170
     0
171
     0
290
     0
174
     0
 93
        1
 44
0.0
173
     0
291
     1
 45
0.0
  0
VISUALSTYLE
  5
39
102
{ACAD_REACTORS
330
2A
102
}
102
{ACAD_XDICTIONARY
360
D5
102
}
330
2A
100
AcDbVisualStyle
  2
Facepattern
 70
    15
 71
     2
 72
     2
 73
     0
 90
        0
 40
0.6
 41
30.0
 62
     5
 63
     7
421
 16777215
 74
     1
 91
        4
 64
     7
 65
   257
 75
     1
175
     1
 42
1.0
 92
        8
 66
     7
 43
1.0
 76
     1
 77
     6
 78
     2
 67
     7
 79
     5
170
     0
171
     0
290
     0
174
     0
 93
        1
 44
0.0
173
     0
291
     1
 45
0.0
  0
VISUALSTYLE
  5
2B
102
{ACAD_REACTORS
330
2A
102
}
102
{ACAD_XDICTIONARY
360
B9
102
}
330
2A
100
AcDbVisualStyle
  2
Flat
 70
     0
 71
     2
 72
     1
 73
     1
 90
        2
 40
0.6
 41
30.0
 62
     5
 63
     7
421
 16777215
 74
     0
 91
        0
 64
     7
 65
   257
 75
     1
175
     1
 42
1.0
 92
        8
 66
     7
 43
1.0
 76
     1
 77
     6
 78
     2
 67
     7
 79
     5
170
     0
171
     0
290
     0
174
     0
 93
       13
 44
0.0
173
     0
291
     1
 45
0.0
  0
VISUALSTYLE
  5
2C
102
{ACAD_REACTORS
330
2A
102
}
102
{ACAD_XDICTIONARY
360
BB
102
}
330
2A
100
AcDbVisualStyle
  2
FlatWithEdges
 70
     1
 71
     2
 72
     1
 73
     1
 90
        2
 40
0.6
 41
30.0
 62
     5
 63
     7
421
 16777215
 74
     1
 91
        0
 64
     7
 65
   257
 75
     1
175
     1
 42
1.0
 92
        0
 66
   257
 43
1.0
 76
     1
 77
     6
 78
     2
 67
     7
 79
     5
170
     0
171
     0
290
     0
174
     0
 93
       13
 44
0.0
173
     0
291
     1
 45
0.0
  0
VISUALSTYLE
  5
2D
102
{ACAD_REACTORS
330
2A
102
}
102
{ACAD_XDICTIONARY
360
BD
102
}
330
2A
100
AcDbVisualStyle
  2
Gouraud
 70
     2
 71
     2
 72
     2
 73
     1
 90
        2
 40
0.6
 41
30.0
 62
     5
 63
     7
421
 16777215
 74
     0
 91
        0
 64
     7
 65
   257
 75
     1
175
     1
 42
1.0
 92
        0
 66
     7
 43
1.0
 76
     1
 77
     6
 78
     2
 67
     7
 79
     5
170
     0
171
     0
290
     0
174
     0
 93
       13
 44
0.0
173
     0
291
     1
 45
0.0
  0
VISUALSTYLE
  5
2E
102
{ACAD_REACTORS
330
2A
102
}
102
{ACAD_XDICTIONARY
360
BF
102
}
330
2A
100
AcDbVisualStyle
  2
GouraudWithEdges
 70
     3
 71
     2
 72
     2
 73
     1
 90
        2
 40
0.6
 41
30.0
 62
     5
 63
     7
421
 16777215
 74
     1
 91
        0
 64
     7
 65
   257
 75
     1
175
     1
 42
1.0
 92
        0
 66
   257
 43
1.0
 76
     1
 77
     6
 78
     2
 67
     7
 79
     5
170
     0
171
     0
290
     0
174
     0
 93
       13
 44
0.0
173
     0
291
     1
 45
0.0
  0
VISUALSTYLE
  5
31
102
{ACAD_REACTORS
330
2A
102
}
102
{ACAD_XDICTIONARY
360
C5
102
}
330
2A
100
AcDbVisualStyle
  2
Hidden
 70
     6
 71
     1
 72
     2
 73
     2
 90
        0
 40
0.6
 41
30.0
 62
     5
 63
     7
421
 16777215
 74
     2
 91
        2
 64
     7
 65
   257
 75
     2
175
     1
 42
40.0
 92
        0
 66
   257
 43
1.0
 76
     1
 77
     6
 78
     2
 67
     7
 79
     3
170
     0
171
     0
290
     0
174
     0
 93
        1
 44
0.0
173
     0
291
     0
 45
0.0
  0
VISUALSTYLE
  5
3B
102
{ACAD_REACTORS
330
2A
102
}
102
{ACAD_XDICTIONARY
360
D9
102
}
330
2A
100
AcDbVisualStyle
  2
JitterOff
 70
    20
 71
     2
 72
     2
 73
     0
 90
        0
 40
0.6
 41
30.0
 62
     5
 63
     7
421
 16777215
 74
     1
 91
        4
 64
     7
 65
   257
 75
     1
175
     1
 42
1.0
 92
       10
 66
     7
 43
1.0
 76
     1
 77
     6
 78
     2
 67
     7
 79
     5
170
     0
171
     0
290
     0
174
     0
 93
        1
 44
0.0
173
     0
291
     1
 45
0.0
  0
VISUALSTYLE
  5
38
102
{ACAD_REACTORS
330
2A
102
}
102
{ACAD_XDICTIONARY
360
D3
102
}
330
2A
100
AcDbVisualStyle
  2
Linepattern
 70
    14
 71
     2
 72
     2
 73
     0
 90
        0
 40
0.6
 41
30.0
 62
     5
 63
     7
421
 16777215
 74
     1
 91
        4
 64
     7
 65
   257
 75
     7
175
     7
 42
1.0
 92
        8
 66
     7
 43
1.0
 76
     1
 77
     6
 78
     2
 67
     7
 79
     5
170
     0
171
     0
290
     0
174
     0
 93
        1
 44
0.0
173
     0
291
     1
 45
0.0
  0
VISUALSTYLE
  5
3C
102
{ACAD_REACTORS
330
2A
102
}
102
{ACAD_XDICTIONARY
360
DB
102
}
330
2A
100
AcDbVisualStyle
  2
OverhangOff
 70
    21
 71
     2
 72
     2
 73
     0
 90
        0
 40
0.6
 41
30.0
 62
     5
 63
     7
421
 16777215
 74
     1
 91
        4
 64
     7
 65
   257
 75
     1
175
     1
 42
1.0
 92
        9
 66
     7
 43
1.0
 76
     1
 77
     6
 78
     2
 67
     7
 79
     5
170
     0
171
     0
290
     0
174
     0
 93
        1
 44
0.0
173
     0
291
     1
 45
0.0
  0
VISUALSTYLE
  5
33
102
{ACAD_REACTORS
330
2A
102
}
102
{ACAD_XDICTIONARY
360
C9
102
}
330
2A
100
AcDbVisualStyle
  2
Realistic
 70
     8
 71
     2
 72
     3
 73
     0
 90
        2
 40
0.6
 41
30.0
 62
     5
 63
     7
421
 16777215
 74
     0
 91
        0
 64
     7
 65
   257
 75
     1
175
     1
 42
1.0
 92
        8
 66
   257
 43
1.0
 76
     1
 77
     6
 78
     2
 67
     7
 79
     3
170
     0
171
     0
290
     0
174
     0
 93
       13
 44
0.0
173
     0
291
     0
 45
0.0
  0
VISUALSTYLE
  5
42
102
{ACAD_REACTORS
330
2A
102
}
102
{ACAD_XDICTIONARY
360
E7
102
}
330
2A
100
AcDbVisualStyle
  2
Shaded
 70
    27
 71
     2
 72
     2
 73
     1
 90
        2
 40
0.6
 41
30.0
 62
     5
 63
     7
421
 16777215
 74
     0
 91
        4
 64
     7
 65
   257
 75
     1
175
     1
 42
1.0
 92
        8
 66
   257
 43
1.0
 76
     1
 77
     6
 78
     2
 67
     8
425
  7895160
 79
     3
170
     0
171
     0
290
     0
174
     0
 93
        5
 44
0.0
173
     0
291
     0
 45
0.0
  0
VISUALSTYLE
  5
41
102
{ACAD_REACTORS
330
2A
102
}
102
{ACAD_XDICTIONARY
360
E5
102
}
330
2A
100
AcDbVisualStyle
  2
Shaded with edges
 70
    26
 71
     2
 72
     2
 73
     1
 90
        2
 40
0.6
 41
30.0
 62
     5
 63
     7
421
 16777215
 74
     1
 91
       10
 64
     7
 65
   257
 75
     2
175
     1
 42
1.0
 92
        8
 66
   257
 43
1.0
 76
     1
 77
     6
 78
     2
 67
     7
 79
     3
170
     0
171
     0
290
     0
174
     0
 93
        5
 44
0.0
173
     0
291
     0
 45
0.0
  0
VISUALSTYLE
  5
3E
102
{ACAD_REACTORS
330
2A
102
}
102
{ACAD_XDICTIONARY
360
DF
102
}
330
2A
100
AcDbVisualStyle
  2
Shades of Gray
 70
    23
 71
     2
 72
     2
 73
     3
 90
        0
 40
0.6
 41
30.0
 62
     5
 63
     7
421
 16777215
 74
     2
 91
        2
 64
     7
 65
     7
 75
     1
175
     1
 42
40.0
 92
        8
 66
     7
 43
1.0
 76
     1
 77
     6
 78
     2
 67
     7
 79
     3
170
     0
171
     0
290
     0
174
     0
 93
        1
 44
0.0
173
     0
291
     0
 45
0.0
  0
VISUALSTYLE
  5
3F
102
{ACAD_REACTORS
330
2A
102
}
102
{ACAD_XDICTIONARY
360
E1
102
}
330
2A
100
AcDbVisualStyle
  2
Sketchy
 70
    24
 71
     1
 72
     2
 73
     2
 90
        0
 40
0.6
 41
30.0
 62
     5
 63
     7
421
 16777215
 74
     2
 91
        2
 64
     7
 65
     7
 75
     1
175
     1
 42
40.0
 92
       11
 66
     7
 43
1.0
 76
     1
 77
     6
 78
     2
 67
     7
 79
     6
170
     0
171
     0
290
     0
174
     0
 93
        1
 44
0.0
173
     0
291
     0
 45
0.0
  0
VISUALSTYLE
  5
37
102
{ACAD_REACTORS
330
2A
102
}
102
{ACAD_XDICTIONARY
360
D1
102
}
330
2A
100
AcDbVisualStyle
  2
Thicken
 70
    13
 71
     2
 72
     2
 73
     0
 90
        0
 40
0.6
 41
30.0
 62
     5
 63
     7
421
 16777215
 74
     1
 91
        4
 64
     7
 65
   257
 75
     1
175
     1
 42
1.0
 92
       12
 66
     7
 43
1.0
 76
     1
 77
     6
 78
     2
 67
     7
 79
     5
170
     0
171
     0
290
     0
174
     0
 93
        1
 44
0.0
173
     0
291
     1
 45
0.0
  0
VISUALSTYLE
  5
30
102
{ACAD_REACTORS
330
2A
102
}
102
{ACAD_XDICTIONARY
360
C3
102
}
330
2A
100
AcDbVisualStyle
  2
Wireframe
 70
     5
 71
     0
 72
     2
 73
     0
 90
        0
 40
0.6
 41
30.0
 62
     5
 63
     7
421
 16777215
 74
     1
 91
        4
 64
     7
 65
   257
 75
     1
175
     1
 42
1.0
 92
        0
 66
   257
 43
1.0
 76
     1
 77
     6
 78
     2
 67
     7
 79
     3
170
     0
171
     0
290
     0
174
     0
 93
        1
 44
0.0
173
     0
291
     0
 45
0.0
  0
VISUALSTYLE
  5
40
102
{ACAD_REACTORS
330
2A
102
}
102
{ACAD_XDICTIONARY
360
E3
102
}
330
2A
100
AcDbVisualStyle
  2
X-Ray
 70
    25
 71
     2
 72
     2
 73
     1
 90
        1
 40
0.5
 41
30.0
 62
     5
 63
     7
421
 16777215
 74
     1
 91
        0
 64
     7
 65
   257
 75
     1
175
     1
 42
1.0
 92
        8
 66
     7
 43
1.0
 76
     1
 77
     6
 78
     2
 67
     7
 79
     3
170
     0
171
     0
290
     0
174
     0
 93
       13
 44
0.0
173
     0
291
     0
 45
0.0
  0
DICTIONARYVAR
  5
B7
102
{ACAD_REACTORS
330
B6
102
}
330
B6
100
DictionaryVariables
280
     0
  1
1:1
  0
DICTIONARYVAR
  5
F0
102
{ACAD_REACTORS
330
B6
102
}
330
B6
100
DictionaryVariables
280
     0
  1
Standard
  0
DICTIONARYVAR
  5
EF
102
{ACAD_REACTORS
330
B6
102
}
330
B6
100
DictionaryVariables
280
     0
  1
Standard
  0
DICTIONARYVAR
  5
B8
102
{ACAD_REACTORS
330
B6
102
}
330
B6
100
DictionaryVariables
280
     0
  1
2
  0
DICTIONARY
  5
EC
330
6C
100
AcDbDictionary
280
     1
281
     1
  3
ACAD_XREC_ROUNDTRIP
360
ED
  0
DICTIONARY
  5
E9
330
6A
100
AcDbDictionary
280
     1
281
     1
  3
ACAD_ROUNDTRIP_2008_TABLESTYLE_CELLSTYLEMAP
360
EA
  0
DICTIONARY
  5
C1
330
2F
100
AcDbDictionary
280
     1
281
     1
  3
ACAD_XREC_ROUNDTRIP
360
C2
  0
DICTIONARY
  5
C7
330
32
100
AcDbDictionary
280
     1
281
     1
  3
ACAD_XREC_ROUNDTRIP
360
C8
  0
DICTIONARY
  5
CF
330
36
100
AcDbDictionary
280
     1
281
     1
  3
ACAD_XREC_ROUNDTRIP
360
D0
  0
DICTIONARY
  5
D7
330
3A
100
AcDbDictionary
280
     1
281
     1
  3
ACAD_XREC_ROUNDTRIP
360
D8
  0
DICTIONARY
  5
CB
330
34
100
AcDbDictionary
280
     1
281
     1
  3
ACAD_XREC_ROUNDTRIP
360
CC
  0
DICTIONARY
  5
CD
330
35
100
AcDbDictionary
280
     1
281
     1
  3
ACAD_XREC_ROUNDTRIP
360
CE
  0
DICTIONARY
  5
DD
330
3D
100
AcDbDictionary
280
     1
281
     1
  3
ACAD_XREC_ROUNDTRIP
360
DE
  0
DICTIONARY
  5
D5
330
39
100
AcDbDictionary
280
     1
281
     1
  3
ACAD_XREC_ROUNDTRIP
360
D6
  0
DICTIONARY
  5
B9
330
2B
100
AcDbDictionary
280
     1
281
     1
  3
ACAD_XREC_ROUNDTRIP
360
BA
  0
DICTIONARY
  5
BB
330
2C
100
AcDbDictionary
280
     1
281
     1
  3
ACAD_XREC_ROUNDTRIP
360
BC
  0
DICTIONARY
  5
BD
330
2D
100
AcDbDictionary
280
     1
281
     1
  3
ACAD_XREC_ROUNDTRIP
360
BE
  0
DICTIONARY
  5
BF
330
2E
100
AcDbDictionary
280
     1
281
     1
  3
ACAD_XREC_ROUNDTRIP
360
C0
  0
DICTIONARY
  5
C5
330
31
100
AcDbDictionary
280
     1
281
     1
  3
ACAD_XREC_ROUNDTRIP
360
C6
  0
DICTIONARY
  5
D9
330
3B
100
AcDbDictionary
280
     1
281
     1
  3
ACAD_XREC_ROUNDTRIP
360
DA
  0
DICTIONARY
  5
D3
330
38
100
AcDbDictionary
280
     1
281
     1
  3
ACAD_XREC_ROUNDTRIP
360
D4
  0
DICTIONARY
  5
DB
330
3C
100
AcDbDictionary
280
     1
281
     1
  3
ACAD_XREC_ROUNDTRIP
360
DC
  0
DICTIONARY
  5
C9
330
33
100
AcDbDictionary
280
     1
281
     1
  3
ACAD_XREC_ROUNDTRIP
360
CA
  0
DICTIONARY
  5
E7
330
42
100
AcDbDictionary
280
     1
281
     1
  3
ACAD_XREC_ROUNDTRIP
360
E8
  0
DICTIONARY
  5
E5
330
41
100
AcDbDictionary
280
     1
281
     1
  3
ACAD_XREC_ROUNDTRIP
360
E6
  0
DICTIONARY
  5
DF
330
3E
100
AcDbDictionary
280
     1
281
     1
  3
ACAD_XREC_ROUNDTRIP
360
E0
  0
DICTIONARY
  5
E1
330
3F
100
AcDbDictionary
280
     1
281
     1
  3
ACAD_XREC_ROUNDTRIP
360
E2
  0
DICTIONARY
  5
D1
330
37
100
AcDbDictionary
280
     1
281
     1
  3
ACAD_XREC_ROUNDTRIP
360
D2
  0
DICTIONARY
  5
C3
330
30
100
AcDbDictionary
280
     1
281
     1
  3
ACAD_XREC_ROUNDTRIP
360
C4
  0
DICTIONARY
  5
E3
330
40
100
AcDbDictionary
280
     1
281
     1
  3
ACAD_XREC_ROUNDTRIP
360
E4
  0
XRECORD
  5
ED
102
{ACAD_REACTORS
330
EC
102
}
330
EC
100
AcDbXrecord
280
     1
102
ACAD_ROUNDTRIP_2010_MLEADER_STYLE
  0
CELLSTYLEMAP
  5
EA
102
{ACAD_REACTORS
330
E9
102
}
330
E9
100
AcDbCellStyleMap
 90
        3
300
CELLSTYLE
  1
TABLEFORMAT_BEGIN
 90
        5
170
     1
 91
        0
 92
    32768
 62
   257
 93
        1
300
CONTENTFORMAT
  1
CONTENTFORMAT_BEGIN
 90
        0
 91
        0
 92
        4
 93
        0
300

 40
0.0
140
1.0
 94
        5
 62
     0
340
11
144
0.25
309
CONTENTFORMAT_END
171
     1
301
MARGIN
  1
CELLMARGIN_BEGIN
 40
0.06
 40
0.06
 40
0.06
 40
0.06
 40
0.06
 40
0.06
309
CELLMARGIN_END
 94
        6
 95
        1
302
GRIDFORMAT
  1
GRIDFORMAT_BEGIN
 90
        0
 91
        1
 62
     0
 92
       -2
340
14
 93
        0
 40
0.045
309
GRIDFORMAT_END
 95
        2
302
GRIDFORMAT
  1
GRIDFORMAT_BEGIN
 90
        0
 91
        1
 62
     0
 92
       -2
340
14
 93
        0
 40
0.045
309
GRIDFORMAT_END
 95
        4
302
GRIDFORMAT
  1
GRIDFORMAT_BEGIN
 90
        0
 91
        1
 62
     0
 92
       -2
340
14
 93
        0
 40
0.045
309
GRIDFORMAT_END
 95
        8
302
GRIDFORMAT
  1
GRIDFORMAT_BEGIN
 90
        0
 91
        1
 62
     0
 92
       -2
340
14
 93
        0
 40
0.045
309
GRIDFORMAT_END
 95
       16
302
GRIDFORMAT
  1
GRIDFORMAT_BEGIN
 90
        0
 91
        1
 62
     0
 92
       -2
340
14
 93
        0
 40
0.045
309
GRIDFORMAT_END
 95
       32
302
GRIDFORMAT
  1
GRIDFORMAT_BEGIN
 90
        0
 91
        1
 62
     0
 92
       -2
340
14
 93
        0
 40
0.045
309
GRIDFORMAT_END
309
TABLEFORMAT_END
  1
CELLSTYLE_BEGIN
 90
        1
 91
        1
300
_TITLE
309
CELLSTYLE_END
300
CELLSTYLE
  1
TABLEFORMAT_BEGIN
 90
        5
170
     1
 91
        0
 92
        0
 62
   257
 93
        1
300
CONTENTFORMAT
  1
CONTENTFORMAT_BEGIN
 90
        0
 91
        0
 92
        4
 93
        0
300

 40
0.0
140
1.0
 94
        5
 62
     0
340
11
144
0.18
309
CONTENTFORMAT_END
171
     1
301
MARGIN
  1
CELLMARGIN_BEGIN
 40
0.06
 40
0.06
 40
0.06
 40
0.06
 40
0.06
 40
0.06
309
CELLMARGIN_END
 94
        6
 95
        1
302
GRIDFORMAT
  1
GRIDFORMAT_BEGIN
 90
        0
 91
        1
 62
     0
 92
       -2
340
14
 93
        0
 40
0.045
309
GRIDFORMAT_END
 95
        2
302
GRIDFORMAT
  1
GRIDFORMAT_BEGIN
 90
        0
 91
        1
 62
     0
 92
       -2
340
14
 93
        0
 40
0.045
309
GRIDFORMAT_END
 95
        4
302
GRIDFORMAT
  1
GRIDFORMAT_BEGIN
 90
        0
 91
        1
 62
     0
 92
       -2
340
14
 93
        0
 40
0.045
309
GRIDFORMAT_END
 95
        8
302
GRIDFORMAT
  1
GRIDFORMAT_BEGIN
 90
        0
 91
        1
 62
     0
 92
       -2
340
14
 93
        0
 40
0.045
309
GRIDFORMAT_END
 95
       16
302
GRIDFORMAT
  1
GRIDFORMAT_BEGIN
 90
        0
 91
        1
 62
     0
 92
       -2
340
14
 93
        0
 40
0.045
309
GRIDFORMAT_END
 95
       32
302
GRIDFORMAT
  1
GRIDFORMAT_BEGIN
 90
        0
 91
        1
 62
     0
 92
       -2
340
14
 93
        0
 40
0.045
309
GRIDFORMAT_END
309
TABLEFORMAT_END
  1
CELLSTYLE_BEGIN
 90
        2
 91
        1
300
_HEADER
309
CELLSTYLE_END
300
CELLSTYLE
  1
TABLEFORMAT_BEGIN
 90
        5
170
     1
 91
        0
 92
        0
 62
   257
 93
        1
300
CONTENTFORMAT
  1
CONTENTFORMAT_BEGIN
 90
        0
 91
        0
 92
        4
 93
        0
300

 40
0.0
140
1.0
 94
        2
 62
     0
340
11
144
0.18
309
CONTENTFORMAT_END
171
     1
301
MARGIN
  1
CELLMARGIN_BEGIN
 40
0.06
 40
0.06
 40
0.06
 40
0.06
 40
0.06
 40
0.06
309
CELLMARGIN_END
 94
        6
 95
        1
302
GRIDFORMAT
  1
GRIDFORMAT_BEGIN
 90
        0
 91
        1
 62
     0
 92
       -2
340
14
 93
        0
 40
0.045
309
GRIDFORMAT_END
 95
        2
302
GRIDFORMAT
  1
GRIDFORMAT_BEGIN
 90
        0
 91
        1
 62
     0
 92
       -2
340
14
 93
        0
 40
0.045
309
GRIDFORMAT_END
 95
        4
302
GRIDFORMAT
  1
GRIDFORMAT_BEGIN
 90
        0
 91
        1
 62
     0
 92
       -2
340
14
 93
        0
 40
0.045
309
GRIDFORMAT_END
 95
        8
302
GRIDFORMAT
  1
GRIDFORMAT_BEGIN
 90
        0
 91
        1
 62
     0
 92
       -2
340
14
 93
        0
 40
0.045
309
GRIDFORMAT_END
 95
       16
302
GRIDFORMAT
  1
GRIDFORMAT_BEGIN
 90
        0
 91
        1
 62
     0
 92
       -2
340
14
 93
        0
 40
0.045
309
GRIDFORMAT_END
 95
       32
302
GRIDFORMAT
  1
GRIDFORMAT_BEGIN
 90
        0
 91
        1
 62
     0
 92
       -2
340
14
 93
        0
 40
0.045
309
GRIDFORMAT_END
309
TABLEFORMAT_END
  1
CELLSTYLE_BEGIN
 90
        3
 91
        2
300
_DATA
309
CELLSTYLE_END
  0
XRECORD
  5
C2
102
{ACAD_REACTORS
330
C1
102
}
330
C1
100
AcDbXrecord
280
     1
102
RTVSPropertyOp0
 70
     1
102
RTVSPropertyOp1
 70
     1
102
RTVSPropertyOp2
 70
     1
102
RTVSPropertyOp3
 70
     1
102
RTVSPropertyOp4
 70
     1
102
RTVSPropertyOp5
 70
     1
102
RTVSPropertyOp6
 70
     1
102
RTVSPropertyOp7
 70
     1
102
RTVSPropertyOp8
 70
     1
102
RTVSPropertyOp9
 70
     1
102
RTVSPropertyOp10
 70
     1
102
RTVSPropertyOp11
 70
     1
102
RTVSPropertyOp12
 70
     1
102
RTVSPropertyOp13
 70
     1
102
RTVSPropertyOp14
 70
     1
102
RTVSPropertyOp15
 70
     1
102
RTVSPropertyOp16
 70
     1
102
RTVSPropertyOp17
 70
     1
102
RTVSPropertyOp18
 70
     1
102
RTVSPropertyOp19
 70
     1
102
RTVSPropertyOp20
 70
     1
102
RTVSPropertyOp21
 70
     1
102
RTVSPropertyOp22
 70
     1
102
RTVSPropertyOp23
 70
     1
102
RTVSPropertyOp24
 70
     1
102
RTVSPropertyOp25
 70
     1
102
RTVSPropertyOp26
 70
     1
102
RTVSPropertyOp27
 70
     1
102
RTVSPropertyOp28
 70
     1
102
RTVSPropertyOp29
 70
     1
102
RTVSPropertyOp30
 70
     1
102
RTVSPropertyOp31
 70
     1
102
RTVSPropertyOp32
 70
     1
102
RTVSPropertyOp33
 70
     1
102
RTVSPropertyOp34
 70
     1
102
RTVSPropertyOp35
 70
     1
102
RTVSPropertyOp36
 70
     1
102
RTVSPropertyOp37
 70
     1
102
RTVSPropertyOp38
 70
     1
102
RTVSPropertyOp39
 70
     1
102
RTVSPropertyOp40
 70
     1
102
RTVSPropertyOp41
 70
     1
102
RTVSPropertyOp42
 70
     1
102
RTVSPropertyOp43
 70
     1
102
RTVSPropertyOp44
 70
     1
102
RTVSPropertyOp45
 70
     1
102
RTVSPropertyOp46
 70
     1
102
RTVSPropertyOp47
 70
     1
102
RTVSPropertyOp48
 70
     1
102
RTVSPropertyOp49
 70
     1
102
RTVSPropertyOp50
 70
     1
102
RTVSPropertyOp51
 70
     0
102
RTVSPropertyOp52
 70
     0
102
RTVSPropertyOp53
 70
     1
102
RTVSPropertyOp54
 70
     1
102
RTVSPropertyOp55
 70
     1
102
RTVSPropertyOp56
 70
     1
102
RTVSPropertyOp57
 70
     1
102
RTVSPost2010Prop28
280
     1
102
RTVSPost2010PropOp28
 70
     1
102
RTVSPost2010Prop29
280
     1
102
RTVSPost2010PropOp29
 70
     1
102
RTVSPost2010Prop30
280
     0
102
RTVSPost2010PropOp30
 70
     1
102
RTVSPost2010Prop31
280
     0
102
RTVSPost2010PropOp31
 70
     1
102
RTVSPost2010Prop32
280
     0
102
RTVSPost2010PropOp32
 70
     1
102
RTVSPost2010Prop33
280
     0
102
RTVSPost2010PropOp33
 70
     1
102
RTVSPost2010Prop34
280
     0
102
RTVSPost2010PropOp34
 70
     1
102
RTVSPost2010Prop35
280
     0
102
RTVSPost2010PropOp35
 70
     1
102
RTVSPost2010Prop36
280
     0
102
RTVSPost2010PropOp36
 70
     1
102
RTVSPost2010Prop37
 90
       50
102
RTVSPost2010PropOp37
 70
     1
102
RTVSPost2010Prop38
140
0.0
102
RTVSPost2010PropOp38
 70
     1
102
RTVSPost2010Prop39
140
1.0
102
RTVSPost2010PropOp39
 70
     1
102
RTVSPost2010Prop40
 90
        0
102
RTVSPost2010PropOp40
 70
     1
102
RTVSPost2010Prop41ColorIndex
 90
       18
102
RTVSPost2010Prop41ColorRGB
 90
        0
102
RTVSPost2010PropOp41
 70
     1
102
RTVSPost2010Prop42
 90
       50
102
RTVSPost2010PropOp42
 70
     1
102
RTVSPost2010Prop43
 90
        3
102
RTVSPost2010PropOp43
 70
     1
102
RTVSPost2010Prop44ColorIndex
 90
        5
102
RTVSPost2010Prop44ColorRGB
 90
      255
102
RTVSPost2010PropOp44
 70
     1
102
RTVSPost2010Prop45
280
     0
102
RTVSPost2010PropOp45
 70
     1
102
RTVSPost2010Prop46
 90
       50
102
RTVSPost2010PropOp46
 70
     1
102
RTVSPost2010Prop47
 90
       50
102
RTVSPost2010PropOp47
 70
     1
102
RTVSPost2010Prop48
 90
       50
102
RTVSPost2010PropOp48
 70
     1
102
RTVSPost2010Prop49
280
     0
102
RTVSPost2010PropOp49
 70
     1
102
RTVSPost2010Prop50
 90
       50
102
RTVSPost2010PropOp50
 70
     1
102
RTVSPost2010Prop51ColorIndex
 90
      256
102
RTVSPost2010Prop51ColorRGB
 90
-16777216
102
RTVSPost2010PropOp51
 70
     0
102
RTVSPost2010Prop52
140
1.0
102
RTVSPost2010PropOp52
 70
     0
102
RTVSPost2010Prop53
 90
        2
102
RTVSPost2010PropOp53
 70
     1
102
RTVSPost2010Prop54
  1
strokes_ogs.tif
102
RTVSPost2010PropOp54
 70
     1
102
RTVSPost2010Prop55
280
     0
102
RTVSPost2010PropOp55
 70
     1
102
RTVSPost2010Prop56
140
1.0
102
RTVSPost2010PropOp56
 70
     1
102
RTVSPost2010Prop57
140
1.0
102
RTVSPost2010PropOp57
 70
     1
  0
XRECORD
  5
C8
102
{ACAD_REACTORS
330
C7
102
}
330
C7
100
AcDbXrecord
280
     1
102
RTVSPropertyOp0
 70
     1
102
RTVSPropertyOp1
 70
     1
102
RTVSPropertyOp2
 70
     1
102
RTVSPropertyOp3
 70
     1
102
RTVSPropertyOp4
 70
     1
102
RTVSPropertyOp5
 70
     1
102
RTVSPropertyOp6
 70
     1
102
RTVSPropertyOp7
 70
     1
102
RTVSPropertyOp8
 70
     1
102
RTVSPropertyOp9
 70
     1
102
RTVSPropertyOp10
 70
     1
102
RTVSPropertyOp11
 70
     1
102
RTVSPropertyOp12
 70
     1
102
RTVSPropertyOp13
 70
     1
102
RTVSPropertyOp14
 70
     1
102
RTVSPropertyOp15
 70
     1
102
RTVSPropertyOp16
 70
     1
102
RTVSPropertyOp17
 70
     1
102
RTVSPropertyOp18
 70
     1
102
RTVSPropertyOp19
 70
     1
102
RTVSPropertyOp20
 70
     1
102
RTVSPropertyOp21
 70
     1
102
RTVSPropertyOp22
 70
     1
102
RTVSPropertyOp23
 70
     1
102
RTVSPropertyOp24
 70
     1
102
RTVSPropertyOp25
 70
     1
102
RTVSPropertyOp26
 70
     1
102
RTVSPropertyOp27
 70
     1
102
RTVSPropertyOp28
 70
     1
102
RTVSPropertyOp29
 70
     1
102
RTVSPropertyOp30
 70
     1
102
RTVSPropertyOp31
 70
     1
102
RTVSPropertyOp32
 70
     1
102
RTVSPropertyOp33
 70
     1
102
RTVSPropertyOp34
 70
     1
102
RTVSPropertyOp35
 70
     1
102
RTVSPropertyOp36
 70
     1
102
RTVSPropertyOp37
 70
     1
102
RTVSPropertyOp38
 70
     1
102
RTVSPropertyOp39
 70
     1
102
RTVSPropertyOp40
 70
     1
102
RTVSPropertyOp41
 70
     1
102
RTVSPropertyOp42
 70
     1
102
RTVSPropertyOp43
 70
     1
102
RTVSPropertyOp44
 70
     1
102
RTVSPropertyOp45
 70
     1
102
RTVSPropertyOp46
 70
     1
102
RTVSPropertyOp47
 70
     1
102
RTVSPropertyOp48
 70
     1
102
RTVSPropertyOp49
 70
     1
102
RTVSPropertyOp50
 70
     1
102
RTVSPropertyOp51
 70
     0
102
RTVSPropertyOp52
 70
     0
102
RTVSPropertyOp53
 70
     1
102
RTVSPropertyOp54
 70
     1
102
RTVSPropertyOp55
 70
     1
102
RTVSPropertyOp56
 70
     1
102
RTVSPropertyOp57
 70
     1
102
RTVSPost2010Prop28
280
     0
102
RTVSPost2010PropOp28
 70
     1
102
RTVSPost2010Prop29
280
     1
102
RTVSPost2010PropOp29
 70
     1
102
RTVSPost2010Prop30
280
     1
102
RTVSPost2010PropOp30
 70
     1
102
RTVSPost2010Prop31
280
     0
102
RTVSPost2010PropOp31
 70
     1
102
RTVSPost2010Prop32
280
     0
102
RTVSPost2010PropOp32
 70
     1
102
RTVSPost2010Prop33
280
     0
102
RTVSPost2010PropOp33
 70
     1
102
RTVSPost2010Prop34
280
     0
102
RTVSPost2010PropOp34
 70
     1
102
RTVSPost2010Prop35
280
     0
102
RTVSPost2010PropOp35
 70
     1
102
RTVSPost2010Prop36
280
     0
102
RTVSPost2010PropOp36
 70
     1
102
RTVSPost2010Prop37
 90
       50
102
RTVSPost2010PropOp37
 70
     1
102
RTVSPost2010Prop38
140
0.0
102
RTVSPost2010PropOp38
 70
     1
102
RTVSPost2010Prop39
140
1.0
102
RTVSPost2010PropOp39
 70
     1
102
RTVSPost2010Prop40
 90
        0
102
RTVSPost2010PropOp40
 70
     1
102
RTVSPost2010Prop41ColorIndex
 90
       18
102
RTVSPost2010Prop41ColorRGB
 90
        0
102
RTVSPost2010PropOp41
 70
     1
102
RTVSPost2010Prop42
 90
       50
102
RTVSPost2010PropOp42
 70
     1
102
RTVSPost2010Prop43
 90
        3
102
RTVSPost2010PropOp43
 70
     1
102
RTVSPost2010Prop44ColorIndex
 90
        5
102
RTVSPost2010Prop44ColorRGB
 90
      255
102
RTVSPost2010PropOp44
 70
     1
102
RTVSPost2010Prop45
280
     0
102
RTVSPost2010PropOp45
 70
     1
102
RTVSPost2010Prop46
 90
       50
102
RTVSPost2010PropOp46
 70
     1
102
RTVSPost2010Prop47
 90
       50
102
RTVSPost2010PropOp47
 70
     1
102
RTVSPost2010Prop48
 90
       50
102
RTVSPost2010PropOp48
 70
     1
102
RTVSPost2010Prop49
280
     0
102
RTVSPost2010PropOp49
 70
     1
102
RTVSPost2010Prop50
 90
       50
102
RTVSPost2010PropOp50
 70
     1
102
RTVSPost2010Prop51ColorIndex
 90
      256
102
RTVSPost2010Prop51ColorRGB
 90
-16777216
102
RTVSPost2010PropOp51
 70
     0
102
RTVSPost2010Prop52
140
1.0
102
RTVSPost2010PropOp52
 70
     0
102
RTVSPost2010Prop53
 90
        2
102
RTVSPost2010PropOp53
 70
     1
102
RTVSPost2010Prop54
  1
strokes_ogs.tif
102
RTVSPost2010PropOp54
 70
     1
102
RTVSPost2010Prop55
280
     0
102
RTVSPost2010PropOp55
 70
     1
102
RTVSPost2010Prop56
140
1.0
102
RTVSPost2010PropOp56
 70
     1
102
RTVSPost2010Prop57
140
1.0
102
RTVSPost2010PropOp57
 70
     1
  0
XRECORD
  5
D0
102
{ACAD_REACTORS
330
CF
102
}
330
CF
100
AcDbXrecord
280
     1
102
RTVSPropertyOp0
 70
     1
102
RTVSPropertyOp1
 70
     1
102
RTVSPropertyOp2
 70
     1
102
RTVSPropertyOp3
 70
     1
102
RTVSPropertyOp4
 70
     1
102
RTVSPropertyOp5
 70
     1
102
RTVSPropertyOp6
 70
     1
102
RTVSPropertyOp7
 70
     1
102
RTVSPropertyOp8
 70
     1
102
RTVSPropertyOp9
 70
     1
102
RTVSPropertyOp10
 70
     1
102
RTVSPropertyOp11
 70
     1
102
RTVSPropertyOp12
 70
     1
102
RTVSPropertyOp13
 70
     1
102
RTVSPropertyOp14
 70
     1
102
RTVSPropertyOp15
 70
     1
102
RTVSPropertyOp16
 70
     1
102
RTVSPropertyOp17
 70
     1
102
RTVSPropertyOp18
 70
     1
102
RTVSPropertyOp19
 70
     1
102
RTVSPropertyOp20
 70
     1
102
RTVSPropertyOp21
 70
     1
102
RTVSPropertyOp22
 70
     1
102
RTVSPropertyOp23
 70
     1
102
RTVSPropertyOp24
 70
     1
102
RTVSPropertyOp25
 70
     1
102
RTVSPropertyOp26
 70
     1
102
RTVSPropertyOp27
 70
     1
102
RTVSPropertyOp28
 70
     1
102
RTVSPropertyOp29
 70
     1
102
RTVSPropertyOp30
 70
     1
102
RTVSPropertyOp31
 70
     1
102
RTVSPropertyOp32
 70
     1
102
RTVSPropertyOp33
 70
     1
102
RTVSPropertyOp34
 70
     1
102
RTVSPropertyOp35
 70
     1
102
RTVSPropertyOp36
 70
     1
102
RTVSPropertyOp37
 70
     1
102
RTVSPropertyOp38
 70
     1
102
RTVSPropertyOp39
 70
     1
102
RTVSPropertyOp40
 70
     1
102
RTVSPropertyOp41
 70
     1
102
RTVSPropertyOp42
 70
     1
102
RTVSPropertyOp43
 70
     1
102
RTVSPropertyOp44
 70
     1
102
RTVSPropertyOp45
 70
     1
102
RTVSPropertyOp46
 70
     1
102
RTVSPropertyOp47
 70
     1
102
RTVSPropertyOp48
 70
     1
102
RTVSPropertyOp49
 70
     1
102
RTVSPropertyOp50
 70
     1
102
RTVSPropertyOp51
 70
     0
102
RTVSPropertyOp52
 70
     0
102
RTVSPropertyOp53
 70
     1
102
RTVSPropertyOp54
 70
     1
102
RTVSPropertyOp55
 70
     1
102
RTVSPropertyOp56
 70
     1
102
RTVSPropertyOp57
 70
     1
102
RTVSPost2010Prop28
280
     0
102
RTVSPost2010PropOp28
 70
     1
102
RTVSPost2010Prop29
280
     1
102
RTVSPost2010PropOp29
 70
     1
102
RTVSPost2010Prop30
280
     1
102
RTVSPost2010PropOp30
 70
     1
102
RTVSPost2010Prop31
280
     0
102
RTVSPost2010PropOp31
 70
     1
102
RTVSPost2010Prop32
280
     0
102
RTVSPost2010PropOp32
 70
     1
102
RTVSPost2010Prop33
280
     0
102
RTVSPost2010PropOp33
 70
     1
102
RTVSPost2010Prop34
280
     0
102
RTVSPost2010PropOp34
 70
     1
102
RTVSPost2010Prop35
280
     0
102
RTVSPost2010PropOp35
 70
     1
102
RTVSPost2010Prop36
280
     0
102
RTVSPost2010PropOp36
 70
     1
102
RTVSPost2010Prop37
 90
       50
102
RTVSPost2010PropOp37
 70
     1
102
RTVSPost2010Prop38
140
0.0
102
RTVSPost2010PropOp38
 70
     1
102
RTVSPost2010Prop39
140
1.0
102
RTVSPost2010PropOp39
 70
     1
102
RTVSPost2010Prop40
 90
        0
102
RTVSPost2010PropOp40
 70
     1
102
RTVSPost2010Prop41ColorIndex
 90
       18
102
RTVSPost2010Prop41ColorRGB
 90
        0
102
RTVSPost2010PropOp41
 70
     1
102
RTVSPost2010Prop42
 90
       50
102
RTVSPost2010PropOp42
 70
     1
102
RTVSPost2010Prop43
 90
        3
102
RTVSPost2010PropOp43
 70
     1
102
RTVSPost2010Prop44ColorIndex
 90
        5
102
RTVSPost2010Prop44ColorRGB
 90
      255
102
RTVSPost2010PropOp44
 70
     1
102
RTVSPost2010Prop45
280
     0
102
RTVSPost2010PropOp45
 70
     1
102
RTVSPost2010Prop46
 90
       50
102
RTVSPost2010PropOp46
 70
     1
102
RTVSPost2010Prop47
 90
       50
102
RTVSPost2010PropOp47
 70
     1
102
RTVSPost2010Prop48
 90
       50
102
RTVSPost2010PropOp48
 70
     1
102
RTVSPost2010Prop49
280
     0
102
RTVSPost2010PropOp49
 70
     1
102
RTVSPost2010Prop50
 90
       50
102
RTVSPost2010PropOp50
 70
     1
102
RTVSPost2010Prop51ColorIndex
 90
      256
102
RTVSPost2010Prop51ColorRGB
 90
-16777216
102
RTVSPost2010PropOp51
 70
     0
102
RTVSPost2010Prop52
140
1.0
102
RTVSPost2010PropOp52
 70
     0
102
RTVSPost2010Prop53
 90
        2
102
RTVSPost2010PropOp53
 70
     1
102
RTVSPost2010Prop54
  1
strokes_ogs.tif
102
RTVSPost2010PropOp54
 70
     1
102
RTVSPost2010Prop55
280
     0
102
RTVSPost2010PropOp55
 70
     1
102
RTVSPost2010Prop56
140
1.0
102
RTVSPost2010PropOp56
 70
     1
102
RTVSPost2010Prop57
140
1.0
102
RTVSPost2010PropOp57
 70
     1
  0
XRECORD
  5
D8
102
{ACAD_REACTORS
330
D7
102
}
330
D7
100
AcDbXrecord
280
     1
102
RTVSPropertyOp0
 70
     1
102
RTVSPropertyOp1
 70
     1
102
RTVSPropertyOp2
 70
     1
102
RTVSPropertyOp3
 70
     1
102
RTVSPropertyOp4
 70
     1
102
RTVSPropertyOp5
 70
     1
102
RTVSPropertyOp6
 70
     1
102
RTVSPropertyOp7
 70
     1
102
RTVSPropertyOp8
 70
     1
102
RTVSPropertyOp9
 70
     1
102
RTVSPropertyOp10
 70
     1
102
RTVSPropertyOp11
 70
     1
102
RTVSPropertyOp12
 70
     1
102
RTVSPropertyOp13
 70
     1
102
RTVSPropertyOp14
 70
     1
102
RTVSPropertyOp15
 70
     1
102
RTVSPropertyOp16
 70
     1
102
RTVSPropertyOp17
 70
     1
102
RTVSPropertyOp18
 70
     1
102
RTVSPropertyOp19
 70
     1
102
RTVSPropertyOp20
 70
     1
102
RTVSPropertyOp21
 70
     1
102
RTVSPropertyOp22
 70
     1
102
RTVSPropertyOp23
 70
     1
102
RTVSPropertyOp24
 70
     1
102
RTVSPropertyOp25
 70
     1
102
RTVSPropertyOp26
 70
     1
102
RTVSPropertyOp27
 70
     1
102
RTVSPropertyOp28
 70
     1
102
RTVSPropertyOp29
 70
     1
102
RTVSPropertyOp30
 70
     1
102
RTVSPropertyOp31
 70
     1
102
RTVSPropertyOp32
 70
     1
102
RTVSPropertyOp33
 70
     1
102
RTVSPropertyOp34
 70
     1
102
RTVSPropertyOp35
 70
     1
102
RTVSPropertyOp36
 70
     1
102
RTVSPropertyOp37
 70
     1
102
RTVSPropertyOp38
 70
     1
102
RTVSPropertyOp39
 70
     1
102
RTVSPropertyOp40
 70
     1
102
RTVSPropertyOp41
 70
     1
102
RTVSPropertyOp42
 70
     1
102
RTVSPropertyOp43
 70
     1
102
RTVSPropertyOp44
 70
     1
102
RTVSPropertyOp45
 70
     1
102
RTVSPropertyOp46
 70
     1
102
RTVSPropertyOp47
 70
     1
102
RTVSPropertyOp48
 70
     1
102
RTVSPropertyOp49
 70
     1
102
RTVSPropertyOp50
 70
     1
102
RTVSPropertyOp51
 70
     0
102
RTVSPropertyOp52
 70
     0
102
RTVSPropertyOp53
 70
     1
102
RTVSPropertyOp54
 70
     1
102
RTVSPropertyOp55
 70
     1
102
RTVSPropertyOp56
 70
     1
102
RTVSPropertyOp57
 70
     1
102
RTVSPost2010Prop28
280
     0
102
RTVSPost2010PropOp28
 70
     1
102
RTVSPost2010Prop29
280
     1
102
RTVSPost2010PropOp29
 70
     1
102
RTVSPost2010Prop30
280
     1
102
RTVSPost2010PropOp30
 70
     1
102
RTVSPost2010Prop31
280
     0
102
RTVSPost2010PropOp31
 70
     1
102
RTVSPost2010Prop32
280
     0
102
RTVSPost2010PropOp32
 70
     1
102
RTVSPost2010Prop33
280
     0
102
RTVSPost2010PropOp33
 70
     1
102
RTVSPost2010Prop34
280
     0
102
RTVSPost2010PropOp34
 70
     1
102
RTVSPost2010Prop35
280
     0
102
RTVSPost2010PropOp35
 70
     1
102
RTVSPost2010Prop36
280
     0
102
RTVSPost2010PropOp36
 70
     1
102
RTVSPost2010Prop37
 90
       50
102
RTVSPost2010PropOp37
 70
     1
102
RTVSPost2010Prop38
140
0.0
102
RTVSPost2010PropOp38
 70
     1
102
RTVSPost2010Prop39
140
1.0
102
RTVSPost2010PropOp39
 70
     1
102
RTVSPost2010Prop40
 90
        0
102
RTVSPost2010PropOp40
 70
     1
102
RTVSPost2010Prop41ColorIndex
 90
       18
102
RTVSPost2010Prop41ColorRGB
 90
        0
102
RTVSPost2010PropOp41
 70
     1
102
RTVSPost2010Prop42
 90
       50
102
RTVSPost2010PropOp42
 70
     1
102
RTVSPost2010Prop43
 90
        3
102
RTVSPost2010PropOp43
 70
     1
102
RTVSPost2010Prop44ColorIndex
 90
        5
102
RTVSPost2010Prop44ColorRGB
 90
      255
102
RTVSPost2010PropOp44
 70
     1
102
RTVSPost2010Prop45
280
     0
102
RTVSPost2010PropOp45
 70
     1
102
RTVSPost2010Prop46
 90
       50
102
RTVSPost2010PropOp46
 70
     1
102
RTVSPost2010Prop47
 90
       50
102
RTVSPost2010PropOp47
 70
     1
102
RTVSPost2010Prop48
 90
       50
102
RTVSPost2010PropOp48
 70
     1
102
RTVSPost2010Prop49
280
     0
102
RTVSPost2010PropOp49
 70
     1
102
RTVSPost2010Prop50
 90
       50
102
RTVSPost2010PropOp50
 70
     1
102
RTVSPost2010Prop51ColorIndex
 90
      256
102
RTVSPost2010Prop51ColorRGB
 90
-16777216
102
RTVSPost2010PropOp51
 70
     0
102
RTVSPost2010Prop52
140
1.0
102
RTVSPost2010PropOp52
 70
     0
102
RTVSPost2010Prop53
 90
        2
102
RTVSPost2010PropOp53
 70
     1
102
RTVSPost2010Prop54
  1
strokes_ogs.tif
102
RTVSPost2010PropOp54
 70
     1
102
RTVSPost2010Prop55
280
     0
102
RTVSPost2010PropOp55
 70
     1
102
RTVSPost2010Prop56
140
1.0
102
RTVSPost2010PropOp56
 70
     1
102
RTVSPost2010Prop57
140
1.0
102
RTVSPost2010PropOp57
 70
     1
  0
XRECORD
  5
CC
102
{ACAD_REACTORS
330
CB
102
}
330
CB
100
AcDbXrecord
280
     1
102
RTVSPropertyOp0
 70
     1
102
RTVSPropertyOp1
 70
     1
102
RTVSPropertyOp2
 70
     1
102
RTVSPropertyOp3
 70
     1
102
RTVSPropertyOp4
 70
     1
102
RTVSPropertyOp5
 70
     1
102
RTVSPropertyOp6
 70
     1
102
RTVSPropertyOp7
 70
     1
102
RTVSPropertyOp8
 70
     1
102
RTVSPropertyOp9
 70
     1
102
RTVSPropertyOp10
 70
     1
102
RTVSPropertyOp11
 70
     1
102
RTVSPropertyOp12
 70
     1
102
RTVSPropertyOp13
 70
     1
102
RTVSPropertyOp14
 70
     1
102
RTVSPropertyOp15
 70
     1
102
RTVSPropertyOp16
 70
     1
102
RTVSPropertyOp17
 70
     1
102
RTVSPropertyOp18
 70
     1
102
RTVSPropertyOp19
 70
     1
102
RTVSPropertyOp20
 70
     1
102
RTVSPropertyOp21
 70
     1
102
RTVSPropertyOp22
 70
     1
102
RTVSPropertyOp23
 70
     1
102
RTVSPropertyOp24
 70
     1
102
RTVSPropertyOp25
 70
     1
102
RTVSPropertyOp26
 70
     1
102
RTVSPropertyOp27
 70
     1
102
RTVSPropertyOp28
 70
     1
102
RTVSPropertyOp29
 70
     1
102
RTVSPropertyOp30
 70
     1
102
RTVSPropertyOp31
 70
     1
102
RTVSPropertyOp32
 70
     1
102
RTVSPropertyOp33
 70
     1
102
RTVSPropertyOp34
 70
     1
102
RTVSPropertyOp35
 70
     1
102
RTVSPropertyOp36
 70
     1
102
RTVSPropertyOp37
 70
     1
102
RTVSPropertyOp38
 70
     1
102
RTVSPropertyOp39
 70
     1
102
RTVSPropertyOp40
 70
     1
102
RTVSPropertyOp41
 70
     1
102
RTVSPropertyOp42
 70
     1
102
RTVSPropertyOp43
 70
     1
102
RTVSPropertyOp44
 70
     1
102
RTVSPropertyOp45
 70
     1
102
RTVSPropertyOp46
 70
     1
102
RTVSPropertyOp47
 70
     1
102
RTVSPropertyOp48
 70
     1
102
RTVSPropertyOp49
 70
     1
102
RTVSPropertyOp50
 70
     1
102
RTVSPropertyOp51
 70
     0
102
RTVSPropertyOp52
 70
     0
102
RTVSPropertyOp53
 70
     1
102
RTVSPropertyOp54
 70
     1
102
RTVSPropertyOp55
 70
     1
102
RTVSPropertyOp56
 70
     1
102
RTVSPropertyOp57
 70
     1
102
RTVSPost2010Prop28
280
     0
102
RTVSPost2010PropOp28
 70
     1
102
RTVSPost2010Prop29
280
     1
102
RTVSPost2010PropOp29
 70
     1
102
RTVSPost2010Prop30
280
     1
102
RTVSPost2010PropOp30
 70
     1
102
RTVSPost2010Prop31
280
     0
102
RTVSPost2010PropOp31
 70
     1
102
RTVSPost2010Prop32
280
     0
102
RTVSPost2010PropOp32
 70
     1
102
RTVSPost2010Prop33
280
     0
102
RTVSPost2010PropOp33
 70
     1
102
RTVSPost2010Prop34
280
     0
102
RTVSPost2010PropOp34
 70
     1
102
RTVSPost2010Prop35
280
     0
102
RTVSPost2010PropOp35
 70
     1
102
RTVSPost2010Prop36
280
     0
102
RTVSPost2010PropOp36
 70
     1
102
RTVSPost2010Prop37
 90
       50
102
RTVSPost2010PropOp37
 70
     1
102
RTVSPost2010Prop38
140
0.0
102
RTVSPost2010PropOp38
 70
     1
102
RTVSPost2010Prop39
140
1.0
102
RTVSPost2010PropOp39
 70
     1
102
RTVSPost2010Prop40
 90
        0
102
RTVSPost2010PropOp40
 70
     1
102
RTVSPost2010Prop41ColorIndex
 90
       18
102
RTVSPost2010Prop41ColorRGB
 90
        0
102
RTVSPost2010PropOp41
 70
     1
102
RTVSPost2010Prop42
 90
       50
102
RTVSPost2010PropOp42
 70
     1
102
RTVSPost2010Prop43
 90
        3
102
RTVSPost2010PropOp43
 70
     1
102
RTVSPost2010Prop44ColorIndex
 90
        5
102
RTVSPost2010Prop44ColorRGB
 90
      255
102
RTVSPost2010PropOp44
 70
     1
102
RTVSPost2010Prop45
280
     0
102
RTVSPost2010PropOp45
 70
     1
102
RTVSPost2010Prop46
 90
       50
102
RTVSPost2010PropOp46
 70
     1
102
RTVSPost2010Prop47
 90
       50
102
RTVSPost2010PropOp47
 70
     1
102
RTVSPost2010Prop48
 90
       50
102
RTVSPost2010PropOp48
 70
     1
102
RTVSPost2010Prop49
280
     0
102
RTVSPost2010PropOp49
 70
     1
102
RTVSPost2010Prop50
 90
       50
102
RTVSPost2010PropOp50
 70
     1
102
RTVSPost2010Prop51ColorIndex
 90
      256
102
RTVSPost2010Prop51ColorRGB
 90
-16777216
102
RTVSPost2010PropOp51
 70
     0
102
RTVSPost2010Prop52
140
1.0
102
RTVSPost2010PropOp52
 70
     0
102
RTVSPost2010Prop53
 90
        2
102
RTVSPost2010PropOp53
 70
     1
102
RTVSPost2010Prop54
  1
strokes_ogs.tif
102
RTVSPost2010PropOp54
 70
     1
102
RTVSPost2010Prop55
280
     0
102
RTVSPost2010PropOp55
 70
     1
102
RTVSPost2010Prop56
140
1.0
102
RTVSPost2010PropOp56
 70
     1
102
RTVSPost2010Prop57
140
1.0
102
RTVSPost2010PropOp57
 70
     1
  0
XRECORD
  5
CE
102
{ACAD_REACTORS
330
CD
102
}
330
CD
100
AcDbXrecord
280
     1
102
RTVSPropertyOp0
 70
     1
102
RTVSPropertyOp1
 70
     1
102
RTVSPropertyOp2
 70
     1
102
RTVSPropertyOp3
 70
     1
102
RTVSPropertyOp4
 70
     1
102
RTVSPropertyOp5
 70
     1
102
RTVSPropertyOp6
 70
     1
102
RTVSPropertyOp7
 70
     1
102
RTVSPropertyOp8
 70
     1
102
RTVSPropertyOp9
 70
     1
102
RTVSPropertyOp10
 70
     1
102
RTVSPropertyOp11
 70
     1
102
RTVSPropertyOp12
 70
     1
102
RTVSPropertyOp13
 70
     1
102
RTVSPropertyOp14
 70
     1
102
RTVSPropertyOp15
 70
     1
102
RTVSPropertyOp16
 70
     1
102
RTVSPropertyOp17
 70
     1
102
RTVSPropertyOp18
 70
     1
102
RTVSPropertyOp19
 70
     1
102
RTVSPropertyOp20
 70
     1
102
RTVSPropertyOp21
 70
     1
102
RTVSPropertyOp22
 70
     1
102
RTVSPropertyOp23
 70
     1
102
RTVSPropertyOp24
 70
     1
102
RTVSPropertyOp25
 70
     1
102
RTVSPropertyOp26
 70
     1
102
RTVSPropertyOp27
 70
     1
102
RTVSPropertyOp28
 70
     1
102
RTVSPropertyOp29
 70
     1
102
RTVSPropertyOp30
 70
     1
102
RTVSPropertyOp31
 70
     1
102
RTVSPropertyOp32
 70
     1
102
RTVSPropertyOp33
 70
     1
102
RTVSPropertyOp34
 70
     1
102
RTVSPropertyOp35
 70
     1
102
RTVSPropertyOp36
 70
     1
102
RTVSPropertyOp37
 70
     1
102
RTVSPropertyOp38
 70
     1
102
RTVSPropertyOp39
 70
     1
102
RTVSPropertyOp40
 70
     1
102
RTVSPropertyOp41
 70
     1
102
RTVSPropertyOp42
 70
     1
102
RTVSPropertyOp43
 70
     1
102
RTVSPropertyOp44
 70
     1
102
RTVSPropertyOp45
 70
     1
102
RTVSPropertyOp46
 70
     1
102
RTVSPropertyOp47
 70
     1
102
RTVSPropertyOp48
 70
     1
102
RTVSPropertyOp49
 70
     1
102
RTVSPropertyOp50
 70
     1
102
RTVSPropertyOp51
 70
     0
102
RTVSPropertyOp52
 70
     0
102
RTVSPropertyOp53
 70
     1
102
RTVSPropertyOp54
 70
     1
102
RTVSPropertyOp55
 70
     1
102
RTVSPropertyOp56
 70
     1
102
RTVSPropertyOp57
 70
     1
102
RTVSPost2010Prop28
280
     0
102
RTVSPost2010PropOp28
 70
     1
102
RTVSPost2010Prop29
280
     1
102
RTVSPost2010PropOp29
 70
     1
102
RTVSPost2010Prop30
280
     1
102
RTVSPost2010PropOp30
 70
     1
102
RTVSPost2010Prop31
280
     0
102
RTVSPost2010PropOp31
 70
     1
102
RTVSPost2010Prop32
280
     0
102
RTVSPost2010PropOp32
 70
     1
102
RTVSPost2010Prop33
280
     0
102
RTVSPost2010PropOp33
 70
     1
102
RTVSPost2010Prop34
280
     0
102
RTVSPost2010PropOp34
 70
     1
102
RTVSPost2010Prop35
280
     0
102
RTVSPost2010PropOp35
 70
     1
102
RTVSPost2010Prop36
280
     0
102
RTVSPost2010PropOp36
 70
     1
102
RTVSPost2010Prop37
 90
       50
102
RTVSPost2010PropOp37
 70
     1
102
RTVSPost2010Prop38
140
0.0
102
RTVSPost2010PropOp38
 70
     1
102
RTVSPost2010Prop39
140
1.0
102
RTVSPost2010PropOp39
 70
     1
102
RTVSPost2010Prop40
 90
        0
102
RTVSPost2010PropOp40
 70
     1
102
RTVSPost2010Prop41ColorIndex
 90
       18
102
RTVSPost2010Prop41ColorRGB
 90
        0
102
RTVSPost2010PropOp41
 70
     1
102
RTVSPost2010Prop42
 90
       50
102
RTVSPost2010PropOp42
 70
     1
102
RTVSPost2010Prop43
 90
        3
102
RTVSPost2010PropOp43
 70
     1
102
RTVSPost2010Prop44ColorIndex
 90
        5
102
RTVSPost2010Prop44ColorRGB
 90
      255
102
RTVSPost2010PropOp44
 70
     1
102
RTVSPost2010Prop45
280
     0
102
RTVSPost2010PropOp45
 70
     1
102
RTVSPost2010Prop46
 90
       50
102
RTVSPost2010PropOp46
 70
     1
102
RTVSPost2010Prop47
 90
       50
102
RTVSPost2010PropOp47
 70
     1
102
RTVSPost2010Prop48
 90
       50
102
RTVSPost2010PropOp48
 70
     1
102
RTVSPost2010Prop49
280
     0
102
RTVSPost2010PropOp49
 70
     1
102
RTVSPost2010Prop50
 90
       50
102
RTVSPost2010PropOp50
 70
     1
102
RTVSPost2010Prop51ColorIndex
 90
      256
102
RTVSPost2010Prop51ColorRGB
 90
-16777216
102
RTVSPost2010PropOp51
 70
     0
102
RTVSPost2010Prop52
140
1.0
102
RTVSPost2010PropOp52
 70
     0
102
RTVSPost2010Prop53
 90
        2
102
RTVSPost2010PropOp53
 70
     1
102
RTVSPost2010Prop54
  1
strokes_ogs.tif
102
RTVSPost2010PropOp54
 70
     1
102
RTVSPost2010Prop55
280
     0
102
RTVSPost2010PropOp55
 70
     1
102
RTVSPost2010Prop56
140
1.0
102
RTVSPost2010PropOp56
 70
     1
102
RTVSPost2010Prop57
140
1.0
102
RTVSPost2010PropOp57
 70
     1
  0
XRECORD
  5
DE
102
{ACAD_REACTORS
330
DD
102
}
330
DD
100
AcDbXrecord
280
     1
102
RTVSPropertyOp0
 70
     0
102
RTVSPropertyOp1
 70
     0
102
RTVSPropertyOp2
 70
     0
102
RTVSPropertyOp3
 70
     0
102
RTVSPropertyOp4
 70
     0
102
RTVSPropertyOp5
 70
     0
102
RTVSPropertyOp6
 70
     0
102
RTVSPropertyOp7
 70
     0
102
RTVSPropertyOp8
 70
     0
102
RTVSPropertyOp9
 70
     0
102
RTVSPropertyOp10
 70
     0
102
RTVSPropertyOp11
 70
     0
102
RTVSPropertyOp12
 70
     0
102
RTVSPropertyOp13
 70
     0
102
RTVSPropertyOp14
 70
     2
102
RTVSPropertyOp15
 70
     0
102
RTVSPropertyOp16
 70
     0
102
RTVSPropertyOp17
 70
     0
102
RTVSPropertyOp18
 70
     0
102
RTVSPropertyOp19
 70
     0
102
RTVSPropertyOp20
 70
     0
102
RTVSPropertyOp21
 70
     0
102
RTVSPropertyOp22
 70
     0
102
RTVSPropertyOp23
 70
     0
102
RTVSPropertyOp24
 70
     0
102
RTVSPropertyOp25
 70
     0
102
RTVSPropertyOp26
 70
     0
102
RTVSPropertyOp27
 70
     0
102
RTVSPropertyOp28
 70
     0
102
RTVSPropertyOp29
 70
     0
102
RTVSPropertyOp30
 70
     0
102
RTVSPropertyOp31
 70
     0
102
RTVSPropertyOp32
 70
     0
102
RTVSPropertyOp33
 70
     0
102
RTVSPropertyOp34
 70
     0
102
RTVSPropertyOp35
 70
     0
102
RTVSPropertyOp36
 70
     0
102
RTVSPropertyOp37
 70
     0
102
RTVSPropertyOp38
 70
     0
102
RTVSPropertyOp39
 70
     0
102
RTVSPropertyOp40
 70
     0
102
RTVSPropertyOp41
 70
     0
102
RTVSPropertyOp42
 70
     0
102
RTVSPropertyOp43
 70
     0
102
RTVSPropertyOp44
 70
     0
102
RTVSPropertyOp45
 70
     0
102
RTVSPropertyOp46
 70
     0
102
RTVSPropertyOp47
 70
     0
102
RTVSPropertyOp48
 70
     0
102
RTVSPropertyOp49
 70
     0
102
RTVSPropertyOp50
 70
     0
102
RTVSPropertyOp51
 70
     0
102
RTVSPropertyOp52
 70
     0
102
RTVSPropertyOp53
 70
     0
102
RTVSPropertyOp54
 70
     0
102
RTVSPropertyOp55
 70
     0
102
RTVSPropertyOp56
 70
     0
102
RTVSPropertyOp57
 70
     0
102
RTVSPost2010Prop28
280
     0
102
RTVSPost2010PropOp28
 70
     0
102
RTVSPost2010Prop29
280
     1
102
RTVSPost2010PropOp29
 70
     0
102
RTVSPost2010Prop30
280
     1
102
RTVSPost2010PropOp30
 70
     0
102
RTVSPost2010Prop31
280
     0
102
RTVSPost2010PropOp31
 70
     0
102
RTVSPost2010Prop32
280
     0
102
RTVSPost2010PropOp32
 70
     0
102
RTVSPost2010Prop33
280
     0
102
RTVSPost2010PropOp33
 70
     0
102
RTVSPost2010Prop34
280
     0
102
RTVSPost2010PropOp34
 70
     0
102
RTVSPost2010Prop35
280
     0
102
RTVSPost2010PropOp35
 70
     0
102
RTVSPost2010Prop36
280
     0
102
RTVSPost2010PropOp36
 70
     0
102
RTVSPost2010Prop37
 90
       50
102
RTVSPost2010PropOp37
 70
     0
102
RTVSPost2010Prop38
140
0.0
102
RTVSPost2010PropOp38
 70
     0
102
RTVSPost2010Prop39
140
1.0
102
RTVSPost2010PropOp39
 70
     0
102
RTVSPost2010Prop40
 90
        0
102
RTVSPost2010PropOp40
 70
     0
102
RTVSPost2010Prop41ColorIndex
 90
       18
102
RTVSPost2010Prop41ColorRGB
 90
        0
102
RTVSPost2010PropOp41
 70
     0
102
RTVSPost2010Prop42
 90
       50
102
RTVSPost2010PropOp42
 70
     0
102
RTVSPost2010Prop43
 90
        3
102
RTVSPost2010PropOp43
 70
     0
102
RTVSPost2010Prop44ColorIndex
 90
        5
102
RTVSPost2010Prop44ColorRGB
 90
      255
102
RTVSPost2010PropOp44
 70
     0
102
RTVSPost2010Prop45
280
     0
102
RTVSPost2010PropOp45
 70
     0
102
RTVSPost2010Prop46
 90
       50
102
RTVSPost2010PropOp46
 70
     0
102
RTVSPost2010Prop47
 90
       50
102
RTVSPost2010PropOp47
 70
     0
102
RTVSPost2010Prop48
 90
       50
102
RTVSPost2010PropOp48
 70
     0
102
RTVSPost2010Prop49
280
     0
102
RTVSPost2010PropOp49
 70
     0
102
RTVSPost2010Prop50
 90
       50
102
RTVSPost2010PropOp50
 70
     0
102
RTVSPost2010Prop51ColorIndex
 90
      256
102
RTVSPost2010Prop51ColorRGB
 90
-16777216
102
RTVSPost2010PropOp51
 70
     0
102
RTVSPost2010Prop52
140
1.0
102
RTVSPost2010PropOp52
 70
     0
102
RTVSPost2010Prop53
 90
        2
102
RTVSPost2010PropOp53
 70
     0
102
RTVSPost2010Prop54
  1
strokes_ogs.tif
102
RTVSPost2010PropOp54
 70
     0
102
RTVSPost2010Prop55
280
     0
102
RTVSPost2010PropOp55
 70
     0
102
RTVSPost2010Prop56
140
1.0
102
RTVSPost2010PropOp56
 70
     0
102
RTVSPost2010Prop57
140
1.0
102
RTVSPost2010PropOp57
 70
     0
  0
XRECORD
  5
D6
102
{ACAD_REACTORS
330
D5
102
}
330
D5
100
AcDbXrecord
280
     1
102
RTVSPropertyOp0
 70
     1
102
RTVSPropertyOp1
 70
     1
102
RTVSPropertyOp2
 70
     1
102
RTVSPropertyOp3
 70
     1
102
RTVSPropertyOp4
 70
     1
102
RTVSPropertyOp5
 70
     1
102
RTVSPropertyOp6
 70
     1
102
RTVSPropertyOp7
 70
     1
102
RTVSPropertyOp8
 70
     1
102
RTVSPropertyOp9
 70
     1
102
RTVSPropertyOp10
 70
     1
102
RTVSPropertyOp11
 70
     1
102
RTVSPropertyOp12
 70
     1
102
RTVSPropertyOp13
 70
     1
102
RTVSPropertyOp14
 70
     1
102
RTVSPropertyOp15
 70
     1
102
RTVSPropertyOp16
 70
     1
102
RTVSPropertyOp17
 70
     1
102
RTVSPropertyOp18
 70
     1
102
RTVSPropertyOp19
 70
     1
102
RTVSPropertyOp20
 70
     1
102
RTVSPropertyOp21
 70
     1
102
RTVSPropertyOp22
 70
     1
102
RTVSPropertyOp23
 70
     1
102
RTVSPropertyOp24
 70
     1
102
RTVSPropertyOp25
 70
     1
102
RTVSPropertyOp26
 70
     1
102
RTVSPropertyOp27
 70
     1
102
RTVSPropertyOp28
 70
     1
102
RTVSPropertyOp29
 70
     1
102
RTVSPropertyOp30
 70
     1
102
RTVSPropertyOp31
 70
     1
102
RTVSPropertyOp32
 70
     1
102
RTVSPropertyOp33
 70
     1
102
RTVSPropertyOp34
 70
     1
102
RTVSPropertyOp35
 70
     1
102
RTVSPropertyOp36
 70
     1
102
RTVSPropertyOp37
 70
     1
102
RTVSPropertyOp38
 70
     1
102
RTVSPropertyOp39
 70
     1
102
RTVSPropertyOp40
 70
     1
102
RTVSPropertyOp41
 70
     1
102
RTVSPropertyOp42
 70
     1
102
RTVSPropertyOp43
 70
     1
102
RTVSPropertyOp44
 70
     1
102
RTVSPropertyOp45
 70
     1
102
RTVSPropertyOp46
 70
     1
102
RTVSPropertyOp47
 70
     1
102
RTVSPropertyOp48
 70
     1
102
RTVSPropertyOp49
 70
     1
102
RTVSPropertyOp50
 70
     1
102
RTVSPropertyOp51
 70
     0
102
RTVSPropertyOp52
 70
     0
102
RTVSPropertyOp53
 70
     1
102
RTVSPropertyOp54
 70
     1
102
RTVSPropertyOp55
 70
     1
102
RTVSPropertyOp56
 70
     1
102
RTVSPropertyOp57
 70
     1
102
RTVSPost2010Prop28
280
     0
102
RTVSPost2010PropOp28
 70
     1
102
RTVSPost2010Prop29
280
     1
102
RTVSPost2010PropOp29
 70
     1
102
RTVSPost2010Prop30
280
     1
102
RTVSPost2010PropOp30
 70
     1
102
RTVSPost2010Prop31
280
     0
102
RTVSPost2010PropOp31
 70
     1
102
RTVSPost2010Prop32
280
     0
102
RTVSPost2010PropOp32
 70
     1
102
RTVSPost2010Prop33
280
     0
102
RTVSPost2010PropOp33
 70
     1
102
RTVSPost2010Prop34
280
     0
102
RTVSPost2010PropOp34
 70
     1
102
RTVSPost2010Prop35
280
     0
102
RTVSPost2010PropOp35
 70
     1
102
RTVSPost2010Prop36
280
     0
102
RTVSPost2010PropOp36
 70
     1
102
RTVSPost2010Prop37
 90
       50
102
RTVSPost2010PropOp37
 70
     1
102
RTVSPost2010Prop38
140
0.0
102
RTVSPost2010PropOp38
 70
     1
102
RTVSPost2010Prop39
140
1.0
102
RTVSPost2010PropOp39
 70
     1
102
RTVSPost2010Prop40
 90
        0
102
RTVSPost2010PropOp40
 70
     1
102
RTVSPost2010Prop41ColorIndex
 90
       18
102
RTVSPost2010Prop41ColorRGB
 90
        0
102
RTVSPost2010PropOp41
 70
     1
102
RTVSPost2010Prop42
 90
       50
102
RTVSPost2010PropOp42
 70
     1
102
RTVSPost2010Prop43
 90
        3
102
RTVSPost2010PropOp43
 70
     1
102
RTVSPost2010Prop44ColorIndex
 90
        5
102
RTVSPost2010Prop44ColorRGB
 90
      255
102
RTVSPost2010PropOp44
 70
     1
102
RTVSPost2010Prop45
280
     0
102
RTVSPost2010PropOp45
 70
     1
102
RTVSPost2010Prop46
 90
       50
102
RTVSPost2010PropOp46
 70
     1
102
RTVSPost2010Prop47
 90
       50
102
RTVSPost2010PropOp47
 70
     1
102
RTVSPost2010Prop48
 90
       50
102
RTVSPost2010PropOp48
 70
     1
102
RTVSPost2010Prop49
280
     0
102
RTVSPost2010PropOp49
 70
     1
102
RTVSPost2010Prop50
 90
       50
102
RTVSPost2010PropOp50
 70
     1
102
RTVSPost2010Prop51ColorIndex
 90
      256
102
RTVSPost2010Prop51ColorRGB
 90
-16777216
102
RTVSPost2010PropOp51
 70
     0
102
RTVSPost2010Prop52
140
1.0
102
RTVSPost2010PropOp52
 70
     0
102
RTVSPost2010Prop53
 90
        2
102
RTVSPost2010PropOp53
 70
     1
102
RTVSPost2010Prop54
  1
strokes_ogs.tif
102
RTVSPost2010PropOp54
 70
     1
102
RTVSPost2010Prop55
280
     0
102
RTVSPost2010PropOp55
 70
     1
102
RTVSPost2010Prop56
140
1.0
102
RTVSPost2010PropOp56
 70
     1
102
RTVSPost2010Prop57
140
1.0
102
RTVSPost2010PropOp57
 70
     1
  0
XRECORD
  5
BA
102
{ACAD_REACTORS
330
B9
102
}
330
B9
100
AcDbXrecord
280
     1
102
RTVSPropertyOp0
 70
     1
102
RTVSPropertyOp1
 70
     1
102
RTVSPropertyOp2
 70
     1
102
RTVSPropertyOp3
 70
     1
102
RTVSPropertyOp4
 70
     1
102
RTVSPropertyOp5
 70
     1
102
RTVSPropertyOp6
 70
     1
102
RTVSPropertyOp7
 70
     1
102
RTVSPropertyOp8
 70
     1
102
RTVSPropertyOp9
 70
     1
102
RTVSPropertyOp10
 70
     1
102
RTVSPropertyOp11
 70
     1
102
RTVSPropertyOp12
 70
     1
102
RTVSPropertyOp13
 70
     1
102
RTVSPropertyOp14
 70
     1
102
RTVSPropertyOp15
 70
     1
102
RTVSPropertyOp16
 70
     1
102
RTVSPropertyOp17
 70
     1
102
RTVSPropertyOp18
 70
     1
102
RTVSPropertyOp19
 70
     1
102
RTVSPropertyOp20
 70
     1
102
RTVSPropertyOp21
 70
     1
102
RTVSPropertyOp22
 70
     1
102
RTVSPropertyOp23
 70
     1
102
RTVSPropertyOp24
 70
     1
102
RTVSPropertyOp25
 70
     1
102
RTVSPropertyOp26
 70
     1
102
RTVSPropertyOp27
 70
     1
102
RTVSPropertyOp28
 70
     1
102
RTVSPropertyOp29
 70
     1
102
RTVSPropertyOp30
 70
     1
102
RTVSPropertyOp31
 70
     1
102
RTVSPropertyOp32
 70
     1
102
RTVSPropertyOp33
 70
     1
102
RTVSPropertyOp34
 70
     1
102
RTVSPropertyOp35
 70
     1
102
RTVSPropertyOp36
 70
     1
102
RTVSPropertyOp37
 70
     1
102
RTVSPropertyOp38
 70
     1
102
RTVSPropertyOp39
 70
     1
102
RTVSPropertyOp40
 70
     1
102
RTVSPropertyOp41
 70
     1
102
RTVSPropertyOp42
 70
     1
102
RTVSPropertyOp43
 70
     1
102
RTVSPropertyOp44
 70
     1
102
RTVSPropertyOp45
 70
     1
102
RTVSPropertyOp46
 70
     1
102
RTVSPropertyOp47
 70
     1
102
RTVSPropertyOp48
 70
     1
102
RTVSPropertyOp49
 70
     1
102
RTVSPropertyOp50
 70
     1
102
RTVSPropertyOp51
 70
     0
102
RTVSPropertyOp52
 70
     0
102
RTVSPropertyOp53
 70
     1
102
RTVSPropertyOp54
 70
     1
102
RTVSPropertyOp55
 70
     1
102
RTVSPropertyOp56
 70
     1
102
RTVSPropertyOp57
 70
     1
102
RTVSPost2010Prop28
280
     0
102
RTVSPost2010PropOp28
 70
     1
102
RTVSPost2010Prop29
280
     1
102
RTVSPost2010PropOp29
 70
     1
102
RTVSPost2010Prop30
280
     1
102
RTVSPost2010PropOp30
 70
     1
102
RTVSPost2010Prop31
280
     0
102
RTVSPost2010PropOp31
 70
     1
102
RTVSPost2010Prop32
280
     0
102
RTVSPost2010PropOp32
 70
     1
102
RTVSPost2010Prop33
280
     0
102
RTVSPost2010PropOp33
 70
     1
102
RTVSPost2010Prop34
280
     0
102
RTVSPost2010PropOp34
 70
     1
102
RTVSPost2010Prop35
280
     0
102
RTVSPost2010PropOp35
 70
     1
102
RTVSPost2010Prop36
280
     0
102
RTVSPost2010PropOp36
 70
     1
102
RTVSPost2010Prop37
 90
       50
102
RTVSPost2010PropOp37
 70
     1
102
RTVSPost2010Prop38
140
0.0
102
RTVSPost2010PropOp38
 70
     1
102
RTVSPost2010Prop39
140
1.0
102
RTVSPost2010PropOp39
 70
     1
102
RTVSPost2010Prop40
 90
        0
102
RTVSPost2010PropOp40
 70
     1
102
RTVSPost2010Prop41ColorIndex
 90
       18
102
RTVSPost2010Prop41ColorRGB
 90
        0
102
RTVSPost2010PropOp41
 70
     1
102
RTVSPost2010Prop42
 90
       50
102
RTVSPost2010PropOp42
 70
     1
102
RTVSPost2010Prop43
 90
        3
102
RTVSPost2010PropOp43
 70
     1
102
RTVSPost2010Prop44ColorIndex
 90
        5
102
RTVSPost2010Prop44ColorRGB
 90
      255
102
RTVSPost2010PropOp44
 70
     1
102
RTVSPost2010Prop45
280
     0
102
RTVSPost2010PropOp45
 70
     1
102
RTVSPost2010Prop46
 90
       50
102
RTVSPost2010PropOp46
 70
     1
102
RTVSPost2010Prop47
 90
       50
102
RTVSPost2010PropOp47
 70
     1
102
RTVSPost2010Prop48
 90
       50
102
RTVSPost2010PropOp48
 70
     1
102
RTVSPost2010Prop49
280
     0
102
RTVSPost2010PropOp49
 70
     1
102
RTVSPost2010Prop50
 90
       50
102
RTVSPost2010PropOp50
 70
     1
102
RTVSPost2010Prop51ColorIndex
 90
      256
102
RTVSPost2010Prop51ColorRGB
 90
-16777216
102
RTVSPost2010PropOp51
 70
     0
102
RTVSPost2010Prop52
140
1.0
102
RTVSPost2010PropOp52
 70
     0
102
RTVSPost2010Prop53
 90
        2
102
RTVSPost2010PropOp53
 70
     1
102
RTVSPost2010Prop54
  1
strokes_ogs.tif
102
RTVSPost2010PropOp54
 70
     1
102
RTVSPost2010Prop55
280
     0
102
RTVSPost2010PropOp55
 70
     1
102
RTVSPost2010Prop56
140
1.0
102
RTVSPost2010PropOp56
 70
     1
102
RTVSPost2010Prop57
140
1.0
102
RTVSPost2010PropOp57
 70
     1
  0
XRECORD
  5
BC
102
{ACAD_REACTORS
330
BB
102
}
330
BB
100
AcDbXrecord
280
     1
102
RTVSPropertyOp0
 70
     1
102
RTVSPropertyOp1
 70
     1
102
RTVSPropertyOp2
 70
     1
102
RTVSPropertyOp3
 70
     1
102
RTVSPropertyOp4
 70
     1
102
RTVSPropertyOp5
 70
     1
102
RTVSPropertyOp6
 70
     1
102
RTVSPropertyOp7
 70
     1
102
RTVSPropertyOp8
 70
     1
102
RTVSPropertyOp9
 70
     1
102
RTVSPropertyOp10
 70
     1
102
RTVSPropertyOp11
 70
     1
102
RTVSPropertyOp12
 70
     1
102
RTVSPropertyOp13
 70
     1
102
RTVSPropertyOp14
 70
     1
102
RTVSPropertyOp15
 70
     1
102
RTVSPropertyOp16
 70
     1
102
RTVSPropertyOp17
 70
     1
102
RTVSPropertyOp18
 70
     1
102
RTVSPropertyOp19
 70
     1
102
RTVSPropertyOp20
 70
     1
102
RTVSPropertyOp21
 70
     1
102
RTVSPropertyOp22
 70
     1
102
RTVSPropertyOp23
 70
     1
102
RTVSPropertyOp24
 70
     1
102
RTVSPropertyOp25
 70
     1
102
RTVSPropertyOp26
 70
     1
102
RTVSPropertyOp27
 70
     1
102
RTVSPropertyOp28
 70
     1
102
RTVSPropertyOp29
 70
     1
102
RTVSPropertyOp30
 70
     1
102
RTVSPropertyOp31
 70
     1
102
RTVSPropertyOp32
 70
     1
102
RTVSPropertyOp33
 70
     1
102
RTVSPropertyOp34
 70
     1
102
RTVSPropertyOp35
 70
     1
102
RTVSPropertyOp36
 70
     1
102
RTVSPropertyOp37
 70
     1
102
RTVSPropertyOp38
 70
     1
102
RTVSPropertyOp39
 70
     1
102
RTVSPropertyOp40
 70
     1
102
RTVSPropertyOp41
 70
     1
102
RTVSPropertyOp42
 70
     1
102
RTVSPropertyOp43
 70
     1
102
RTVSPropertyOp44
 70
     1
102
RTVSPropertyOp45
 70
     1
102
RTVSPropertyOp46
 70
     1
102
RTVSPropertyOp47
 70
     1
102
RTVSPropertyOp48
 70
     1
102
RTVSPropertyOp49
 70
     1
102
RTVSPropertyOp50
 70
     1
102
RTVSPropertyOp51
 70
     0
102
RTVSPropertyOp52
 70
     0
102
RTVSPropertyOp53
 70
     1
102
RTVSPropertyOp54
 70
     1
102
RTVSPropertyOp55
 70
     1
102
RTVSPropertyOp56
 70
     1
102
RTVSPropertyOp57
 70
     1
102
RTVSPost2010Prop28
280
     0
102
RTVSPost2010PropOp28
 70
     1
102
RTVSPost2010Prop29
280
     1
102
RTVSPost2010PropOp29
 70
     1
102
RTVSPost2010Prop30
280
     1
102
RTVSPost2010PropOp30
 70
     1
102
RTVSPost2010Prop31
280
     0
102
RTVSPost2010PropOp31
 70
     1
102
RTVSPost2010Prop32
280
     0
102
RTVSPost2010PropOp32
 70
     1
102
RTVSPost2010Prop33
280
     0
102
RTVSPost2010PropOp33
 70
     1
102
RTVSPost2010Prop34
280
     0
102
RTVSPost2010PropOp34
 70
     1
102
RTVSPost2010Prop35
280
     0
102
RTVSPost2010PropOp35
 70
     1
102
RTVSPost2010Prop36
280
     0
102
RTVSPost2010PropOp36
 70
     1
102
RTVSPost2010Prop37
 90
       50
102
RTVSPost2010PropOp37
 70
     1
102
RTVSPost2010Prop38
140
0.0
102
RTVSPost2010PropOp38
 70
     1
102
RTVSPost2010Prop39
140
1.0
102
RTVSPost2010PropOp39
 70
     1
102
RTVSPost2010Prop40
 90
        0
102
RTVSPost2010PropOp40
 70
     1
102
RTVSPost2010Prop41ColorIndex
 90
       18
102
RTVSPost2010Prop41ColorRGB
 90
        0
102
RTVSPost2010PropOp41
 70
     1
102
RTVSPost2010Prop42
 90
       50
102
RTVSPost2010PropOp42
 70
     1
102
RTVSPost2010Prop43
 90
        3
102
RTVSPost2010PropOp43
 70
     1
102
RTVSPost2010Prop44ColorIndex
 90
        5
102
RTVSPost2010Prop44ColorRGB
 90
      255
102
RTVSPost2010PropOp44
 70
     1
102
RTVSPost2010Prop45
280
     0
102
RTVSPost2010PropOp45
 70
     1
102
RTVSPost2010Prop46
 90
       50
102
RTVSPost2010PropOp46
 70
     1
102
RTVSPost2010Prop47
 90
       50
102
RTVSPost2010PropOp47
 70
     1
102
RTVSPost2010Prop48
 90
       50
102
RTVSPost2010PropOp48
 70
     1
102
RTVSPost2010Prop49
280
     0
102
RTVSPost2010PropOp49
 70
     1
102
RTVSPost2010Prop50
 90
       50
102
RTVSPost2010PropOp50
 70
     1
102
RTVSPost2010Prop51ColorIndex
 90
      256
102
RTVSPost2010Prop51ColorRGB
 90
-16777216
102
RTVSPost2010PropOp51
 70
     0
102
RTVSPost2010Prop52
140
1.0
102
RTVSPost2010PropOp52
 70
     0
102
RTVSPost2010Prop53
 90
        2
102
RTVSPost2010PropOp53
 70
     1
102
RTVSPost2010Prop54
  1
strokes_ogs.tif
102
RTVSPost2010PropOp54
 70
     1
102
RTVSPost2010Prop55
280
     0
102
RTVSPost2010PropOp55
 70
     1
102
RTVSPost2010Prop56
140
1.0
102
RTVSPost2010PropOp56
 70
     1
102
RTVSPost2010Prop57
140
1.0
102
RTVSPost2010PropOp57
 70
     1
  0
XRECORD
  5
BE
102
{ACAD_REACTORS
330
BD
102
}
330
BD
100
AcDbXrecord
280
     1
102
RTVSPropertyOp0
 70
     1
102
RTVSPropertyOp1
 70
     1
102
RTVSPropertyOp2
 70
     1
102
RTVSPropertyOp3
 70
     1
102
RTVSPropertyOp4
 70
     1
102
RTVSPropertyOp5
 70
     1
102
RTVSPropertyOp6
 70
     1
102
RTVSPropertyOp7
 70
     1
102
RTVSPropertyOp8
 70
     1
102
RTVSPropertyOp9
 70
     1
102
RTVSPropertyOp10
 70
     1
102
RTVSPropertyOp11
 70
     1
102
RTVSPropertyOp12
 70
     1
102
RTVSPropertyOp13
 70
     1
102
RTVSPropertyOp14
 70
     1
102
RTVSPropertyOp15
 70
     1
102
RTVSPropertyOp16
 70
     1
102
RTVSPropertyOp17
 70
     1
102
RTVSPropertyOp18
 70
     1
102
RTVSPropertyOp19
 70
     1
102
RTVSPropertyOp20
 70
     1
102
RTVSPropertyOp21
 70
     1
102
RTVSPropertyOp22
 70
     1
102
RTVSPropertyOp23
 70
     1
102
RTVSPropertyOp24
 70
     1
102
RTVSPropertyOp25
 70
     1
102
RTVSPropertyOp26
 70
     1
102
RTVSPropertyOp27
 70
     1
102
RTVSPropertyOp28
 70
     1
102
RTVSPropertyOp29
 70
     1
102
RTVSPropertyOp30
 70
     1
102
RTVSPropertyOp31
 70
     1
102
RTVSPropertyOp32
 70
     1
102
RTVSPropertyOp33
 70
     1
102
RTVSPropertyOp34
 70
     1
102
RTVSPropertyOp35
 70
     1
102
RTVSPropertyOp36
 70
     1
102
RTVSPropertyOp37
 70
     1
102
RTVSPropertyOp38
 70
     1
102
RTVSPropertyOp39
 70
     1
102
RTVSPropertyOp40
 70
     1
102
RTVSPropertyOp41
 70
     1
102
RTVSPropertyOp42
 70
     1
102
RTVSPropertyOp43
 70
     1
102
RTVSPropertyOp44
 70
     1
102
RTVSPropertyOp45
 70
     1
102
RTVSPropertyOp46
 70
     1
102
RTVSPropertyOp47
 70
     1
102
RTVSPropertyOp48
 70
     1
102
RTVSPropertyOp49
 70
     1
102
RTVSPropertyOp50
 70
     1
102
RTVSPropertyOp51
 70
     0
102
RTVSPropertyOp52
 70
     0
102
RTVSPropertyOp53
 70
     1
102
RTVSPropertyOp54
 70
     1
102
RTVSPropertyOp55
 70
     1
102
RTVSPropertyOp56
 70
     1
102
RTVSPropertyOp57
 70
     1
102
RTVSPost2010Prop28
280
     0
102
RTVSPost2010PropOp28
 70
     1
102
RTVSPost2010Prop29
280
     1
102
RTVSPost2010PropOp29
 70
     1
102
RTVSPost2010Prop30
280
     1
102
RTVSPost2010PropOp30
 70
     1
102
RTVSPost2010Prop31
280
     0
102
RTVSPost2010PropOp31
 70
     1
102
RTVSPost2010Prop32
280
     0
102
RTVSPost2010PropOp32
 70
     1
102
RTVSPost2010Prop33
280
     0
102
RTVSPost2010PropOp33
 70
     1
102
RTVSPost2010Prop34
280
     0
102
RTVSPost2010PropOp34
 70
     1
102
RTVSPost2010Prop35
280
     0
102
RTVSPost2010PropOp35
 70
     1
102
RTVSPost2010Prop36
280
     0
102
RTVSPost2010PropOp36
 70
     1
102
RTVSPost2010Prop37
 90
       50
102
RTVSPost2010PropOp37
 70
     1
102
RTVSPost2010Prop38
140
0.0
102
RTVSPost2010PropOp38
 70
     1
102
RTVSPost2010Prop39
140
1.0
102
RTVSPost2010PropOp39
 70
     1
102
RTVSPost2010Prop40
 90
        0
102
RTVSPost2010PropOp40
 70
     1
102
RTVSPost2010Prop41ColorIndex
 90
       18
102
RTVSPost2010Prop41ColorRGB
 90
        0
102
RTVSPost2010PropOp41
 70
     1
102
RTVSPost2010Prop42
 90
       50
102
RTVSPost2010PropOp42
 70
     1
102
RTVSPost2010Prop43
 90
        3
102
RTVSPost2010PropOp43
 70
     1
102
RTVSPost2010Prop44ColorIndex
 90
        5
102
RTVSPost2010Prop44ColorRGB
 90
      255
102
RTVSPost2010PropOp44
 70
     1
102
RTVSPost2010Prop45
280
     0
102
RTVSPost2010PropOp45
 70
     1
102
RTVSPost2010Prop46
 90
       50
102
RTVSPost2010PropOp46
 70
     1
102
RTVSPost2010Prop47
 90
       50
102
RTVSPost2010PropOp47
 70
     1
102
RTVSPost2010Prop48
 90
       50
102
RTVSPost2010PropOp48
 70
     1
102
RTVSPost2010Prop49
280
     0
102
RTVSPost2010PropOp49
 70
     1
102
RTVSPost2010Prop50
 90
       50
102
RTVSPost2010PropOp50
 70
     1
102
RTVSPost2010Prop51ColorIndex
 90
      256
102
RTVSPost2010Prop51ColorRGB
 90
-16777216
102
RTVSPost2010PropOp51
 70
     0
102
RTVSPost2010Prop52
140
1.0
102
RTVSPost2010PropOp52
 70
     0
102
RTVSPost2010Prop53
 90
        2
102
RTVSPost2010PropOp53
 70
     1
102
RTVSPost2010Prop54
  1
strokes_ogs.tif
102
RTVSPost2010PropOp54
 70
     1
102
RTVSPost2010Prop55
280
     0
102
RTVSPost2010PropOp55
 70
     1
102
RTVSPost2010Prop56
140
1.0
102
RTVSPost2010PropOp56
 70
     1
102
RTVSPost2010Prop57
140
1.0
102
RTVSPost2010PropOp57
 70
     1
  0
XRECORD
  5
C0
102
{ACAD_REACTORS
330
BF
102
}
330
BF
100
AcDbXrecord
280
     1
102
RTVSPropertyOp0
 70
     1
102
RTVSPropertyOp1
 70
     1
102
RTVSPropertyOp2
 70
     1
102
RTVSPropertyOp3
 70
     1
102
RTVSPropertyOp4
 70
     1
102
RTVSPropertyOp5
 70
     1
102
RTVSPropertyOp6
 70
     1
102
RTVSPropertyOp7
 70
     1
102
RTVSPropertyOp8
 70
     1
102
RTVSPropertyOp9
 70
     1
102
RTVSPropertyOp10
 70
     1
102
RTVSPropertyOp11
 70
     1
102
RTVSPropertyOp12
 70
     1
102
RTVSPropertyOp13
 70
     1
102
RTVSPropertyOp14
 70
     1
102
RTVSPropertyOp15
 70
     1
102
RTVSPropertyOp16
 70
     1
102
RTVSPropertyOp17
 70
     1
102
RTVSPropertyOp18
 70
     1
102
RTVSPropertyOp19
 70
     1
102
RTVSPropertyOp20
 70
     1
102
RTVSPropertyOp21
 70
     1
102
RTVSPropertyOp22
 70
     1
102
RTVSPropertyOp23
 70
     1
102
RTVSPropertyOp24
 70
     1
102
RTVSPropertyOp25
 70
     1
102
RTVSPropertyOp26
 70
     1
102
RTVSPropertyOp27
 70
     1
102
RTVSPropertyOp28
 70
     1
102
RTVSPropertyOp29
 70
     1
102
RTVSPropertyOp30
 70
     1
102
RTVSPropertyOp31
 70
     1
102
RTVSPropertyOp32
 70
     1
102
RTVSPropertyOp33
 70
     1
102
RTVSPropertyOp34
 70
     1
102
RTVSPropertyOp35
 70
     1
102
RTVSPropertyOp36
 70
     1
102
RTVSPropertyOp37
 70
     1
102
RTVSPropertyOp38
 70
     1
102
RTVSPropertyOp39
 70
     1
102
RTVSPropertyOp40
 70
     1
102
RTVSPropertyOp41
 70
     1
102
RTVSPropertyOp42
 70
     1
102
RTVSPropertyOp43
 70
     1
102
RTVSPropertyOp44
 70
     1
102
RTVSPropertyOp45
 70
     1
102
RTVSPropertyOp46
 70
     1
102
RTVSPropertyOp47
 70
     1
102
RTVSPropertyOp48
 70
     1
102
RTVSPropertyOp49
 70
     1
102
RTVSPropertyOp50
 70
     1
102
RTVSPropertyOp51
 70
     0
102
RTVSPropertyOp52
 70
     0
102
RTVSPropertyOp53
 70
     1
102
RTVSPropertyOp54
 70
     1
102
RTVSPropertyOp55
 70
     1
102
RTVSPropertyOp56
 70
     1
102
RTVSPropertyOp57
 70
     1
102
RTVSPost2010Prop28
280
     0
102
RTVSPost2010PropOp28
 70
     1
102
RTVSPost2010Prop29
280
     1
102
RTVSPost2010PropOp29
 70
     1
102
RTVSPost2010Prop30
280
     1
102
RTVSPost2010PropOp30
 70
     1
102
RTVSPost2010Prop31
280
     0
102
RTVSPost2010PropOp31
 70
     1
102
RTVSPost2010Prop32
280
     0
102
RTVSPost2010PropOp32
 70
     1
102
RTVSPost2010Prop33
280
     0
102
RTVSPost2010PropOp33
 70
     1
102
RTVSPost2010Prop34
280
     0
102
RTVSPost2010PropOp34
 70
     1
102
RTVSPost2010Prop35
280
     0
102
RTVSPost2010PropOp35
 70
     1
102
RTVSPost2010Prop36
280
     0
102
RTVSPost2010PropOp36
 70
     1
102
RTVSPost2010Prop37
 90
       50
102
RTVSPost2010PropOp37
 70
     1
102
RTVSPost2010Prop38
140
0.0
102
RTVSPost2010PropOp38
 70
     1
102
RTVSPost2010Prop39
140
1.0
102
RTVSPost2010PropOp39
 70
     1
102
RTVSPost2010Prop40
 90
        0
102
RTVSPost2010PropOp40
 70
     1
102
RTVSPost2010Prop41ColorIndex
 90
       18
102
RTVSPost2010Prop41ColorRGB
 90
        0
102
RTVSPost2010PropOp41
 70
     1
102
RTVSPost2010Prop42
 90
       50
102
RTVSPost2010PropOp42
 70
     1
102
RTVSPost2010Prop43
 90
        3
102
RTVSPost2010PropOp43
 70
     1
102
RTVSPost2010Prop44ColorIndex
 90
        5
102
RTVSPost2010Prop44ColorRGB
 90
      255
102
RTVSPost2010PropOp44
 70
     1
102
RTVSPost2010Prop45
280
     0
102
RTVSPost2010PropOp45
 70
     1
102
RTVSPost2010Prop46
 90
       50
102
RTVSPost2010PropOp46
 70
     1
102
RTVSPost2010Prop47
 90
       50
102
RTVSPost2010PropOp47
 70
     1
102
RTVSPost2010Prop48
 90
       50
102
RTVSPost2010PropOp48
 70
     1
102
RTVSPost2010Prop49
280
     0
102
RTVSPost2010PropOp49
 70
     1
102
RTVSPost2010Prop50
 90
       50
102
RTVSPost2010PropOp50
 70
     1
102
RTVSPost2010Prop51ColorIndex
 90
      256
102
RTVSPost2010Prop51ColorRGB
 90
-16777216
102
RTVSPost2010PropOp51
 70
     0
102
RTVSPost2010Prop52
140
1.0
102
RTVSPost2010PropOp52
 70
     0
102
RTVSPost2010Prop53
 90
        2
102
RTVSPost2010PropOp53
 70
     1
102
RTVSPost2010Prop54
  1
strokes_ogs.tif
102
RTVSPost2010PropOp54
 70
     1
102
RTVSPost2010Prop55
280
     0
102
RTVSPost2010PropOp55
 70
     1
102
RTVSPost2010Prop56
140
1.0
102
RTVSPost2010PropOp56
 70
     1
102
RTVSPost2010Prop57
140
1.0
102
RTVSPost2010PropOp57
 70
     1
  0
XRECORD
  5
C6
102
{ACAD_REACTORS
330
C5
102
}
330
C5
100
AcDbXrecord
280
     1
102
RTVSPropertyOp0
 70
     1
102
RTVSPropertyOp1
 70
     1
102
RTVSPropertyOp2
 70
     1
102
RTVSPropertyOp3
 70
     1
102
RTVSPropertyOp4
 70
     1
102
RTVSPropertyOp5
 70
     1
102
RTVSPropertyOp6
 70
     1
102
RTVSPropertyOp7
 70
     1
102
RTVSPropertyOp8
 70
     1
102
RTVSPropertyOp9
 70
     1
102
RTVSPropertyOp10
 70
     1
102
RTVSPropertyOp11
 70
     1
102
RTVSPropertyOp12
 70
     1
102
RTVSPropertyOp13
 70
     1
102
RTVSPropertyOp14
 70
     1
102
RTVSPropertyOp15
 70
     1
102
RTVSPropertyOp16
 70
     1
102
RTVSPropertyOp17
 70
     1
102
RTVSPropertyOp18
 70
     1
102
RTVSPropertyOp19
 70
     1
102
RTVSPropertyOp20
 70
     1
102
RTVSPropertyOp21
 70
     1
102
RTVSPropertyOp22
 70
     1
102
RTVSPropertyOp23
 70
     1
102
RTVSPropertyOp24
 70
     1
102
RTVSPropertyOp25
 70
     1
102
RTVSPropertyOp26
 70
     1
102
RTVSPropertyOp27
 70
     1
102
RTVSPropertyOp28
 70
     1
102
RTVSPropertyOp29
 70
     1
102
RTVSPropertyOp30
 70
     1
102
RTVSPropertyOp31
 70
     1
102
RTVSPropertyOp32
 70
     1
102
RTVSPropertyOp33
 70
     1
102
RTVSPropertyOp34
 70
     1
102
RTVSPropertyOp35
 70
     1
102
RTVSPropertyOp36
 70
     1
102
RTVSPropertyOp37
 70
     1
102
RTVSPropertyOp38
 70
     1
102
RTVSPropertyOp39
 70
     1
102
RTVSPropertyOp40
 70
     1
102
RTVSPropertyOp41
 70
     1
102
RTVSPropertyOp42
 70
     1
102
RTVSPropertyOp43
 70
     1
102
RTVSPropertyOp44
 70
     1
102
RTVSPropertyOp45
 70
     1
102
RTVSPropertyOp46
 70
     1
102
RTVSPropertyOp47
 70
     1
102
RTVSPropertyOp48
 70
     1
102
RTVSPropertyOp49
 70
     1
102
RTVSPropertyOp50
 70
     1
102
RTVSPropertyOp51
 70
     0
102
RTVSPropertyOp52
 70
     0
102
RTVSPropertyOp53
 70
     1
102
RTVSPropertyOp54
 70
     1
102
RTVSPropertyOp55
 70
     1
102
RTVSPropertyOp56
 70
     1
102
RTVSPropertyOp57
 70
     1
102
RTVSPost2010Prop28
280
     0
102
RTVSPost2010PropOp28
 70
     1
102
RTVSPost2010Prop29
280
     1
102
RTVSPost2010PropOp29
 70
     1
102
RTVSPost2010Prop30
280
     1
102
RTVSPost2010PropOp30
 70
     1
102
RTVSPost2010Prop31
280
     0
102
RTVSPost2010PropOp31
 70
     1
102
RTVSPost2010Prop32
280
     0
102
RTVSPost2010PropOp32
 70
     1
102
RTVSPost2010Prop33
280
     0
102
RTVSPost2010PropOp33
 70
     1
102
RTVSPost2010Prop34
280
     0
102
RTVSPost2010PropOp34
 70
     1
102
RTVSPost2010Prop35
280
     0
102
RTVSPost2010PropOp35
 70
     1
102
RTVSPost2010Prop36
280
     0
102
RTVSPost2010PropOp36
 70
     1
102
RTVSPost2010Prop37
 90
       50
102
RTVSPost2010PropOp37
 70
     1
102
RTVSPost2010Prop38
140
0.0
102
RTVSPost2010PropOp38
 70
     1
102
RTVSPost2010Prop39
140
1.0
102
RTVSPost2010PropOp39
 70
     1
102
RTVSPost2010Prop40
 90
        0
102
RTVSPost2010PropOp40
 70
     1
102
RTVSPost2010Prop41ColorIndex
 90
       18
102
RTVSPost2010Prop41ColorRGB
 90
        0
102
RTVSPost2010PropOp41
 70
     1
102
RTVSPost2010Prop42
 90
       50
102
RTVSPost2010PropOp42
 70
     1
102
RTVSPost2010Prop43
 90
        3
102
RTVSPost2010PropOp43
 70
     1
102
RTVSPost2010Prop44ColorIndex
 90
        5
102
RTVSPost2010Prop44ColorRGB
 90
      255
102
RTVSPost2010PropOp44
 70
     1
102
RTVSPost2010Prop45
280
     0
102
RTVSPost2010PropOp45
 70
     1
102
RTVSPost2010Prop46
 90
       50
102
RTVSPost2010PropOp46
 70
     1
102
RTVSPost2010Prop47
 90
       50
102
RTVSPost2010PropOp47
 70
     1
102
RTVSPost2010Prop48
 90
       50
102
RTVSPost2010PropOp48
 70
     1
102
RTVSPost2010Prop49
280
     0
102
RTVSPost2010PropOp49
 70
     1
102
RTVSPost2010Prop50
 90
       50
102
RTVSPost2010PropOp50
 70
     1
102
RTVSPost2010Prop51ColorIndex
 90
      256
102
RTVSPost2010Prop51ColorRGB
 90
-16777216
102
RTVSPost2010PropOp51
 70
     0
102
RTVSPost2010Prop52
140
1.0
102
RTVSPost2010PropOp52
 70
     0
102
RTVSPost2010Prop53
 90
        2
102
RTVSPost2010PropOp53
 70
     1
102
RTVSPost2010Prop54
  1
strokes_ogs.tif
102
RTVSPost2010PropOp54
 70
     1
102
RTVSPost2010Prop55
280
     0
102
RTVSPost2010PropOp55
 70
     1
102
RTVSPost2010Prop56
140
1.0
102
RTVSPost2010PropOp56
 70
     1
102
RTVSPost2010Prop57
140
1.0
102
RTVSPost2010PropOp57
 70
     1
  0
XRECORD
  5
DA
102
{ACAD_REACTORS
330
D9
102
}
330
D9
100
AcDbXrecord
280
     1
102
RTVSPropertyOp0
 70
     0
102
RTVSPropertyOp1
 70
     0
102
RTVSPropertyOp2
 70
     0
102
RTVSPropertyOp3
 70
     0
102
RTVSPropertyOp4
 70
     0
102
RTVSPropertyOp5
 70
     0
102
RTVSPropertyOp6
 70
     0
102
RTVSPropertyOp7
 70
     0
102
RTVSPropertyOp8
 70
     0
102
RTVSPropertyOp9
 70
     0
102
RTVSPropertyOp10
 70
     0
102
RTVSPropertyOp11
 70
     0
102
RTVSPropertyOp12
 70
     0
102
RTVSPropertyOp13
 70
     0
102
RTVSPropertyOp14
 70
     2
102
RTVSPropertyOp15
 70
     0
102
RTVSPropertyOp16
 70
     0
102
RTVSPropertyOp17
 70
     0
102
RTVSPropertyOp18
 70
     0
102
RTVSPropertyOp19
 70
     0
102
RTVSPropertyOp20
 70
     0
102
RTVSPropertyOp21
 70
     0
102
RTVSPropertyOp22
 70
     0
102
RTVSPropertyOp23
 70
     0
102
RTVSPropertyOp24
 70
     0
102
RTVSPropertyOp25
 70
     0
102
RTVSPropertyOp26
 70
     0
102
RTVSPropertyOp27
 70
     0
102
RTVSPropertyOp28
 70
     0
102
RTVSPropertyOp29
 70
     0
102
RTVSPropertyOp30
 70
     0
102
RTVSPropertyOp31
 70
     0
102
RTVSPropertyOp32
 70
     0
102
RTVSPropertyOp33
 70
     0
102
RTVSPropertyOp34
 70
     0
102
RTVSPropertyOp35
 70
     0
102
RTVSPropertyOp36
 70
     0
102
RTVSPropertyOp37
 70
     0
102
RTVSPropertyOp38
 70
     0
102
RTVSPropertyOp39
 70
     0
102
RTVSPropertyOp40
 70
     0
102
RTVSPropertyOp41
 70
     0
102
RTVSPropertyOp42
 70
     0
102
RTVSPropertyOp43
 70
     0
102
RTVSPropertyOp44
 70
     0
102
RTVSPropertyOp45
 70
     0
102
RTVSPropertyOp46
 70
     0
102
RTVSPropertyOp47
 70
     0
102
RTVSPropertyOp48
 70
     0
102
RTVSPropertyOp49
 70
     0
102
RTVSPropertyOp50
 70
     0
102
RTVSPropertyOp51
 70
     0
102
RTVSPropertyOp52
 70
     0
102
RTVSPropertyOp53
 70
     0
102
RTVSPropertyOp54
 70
     0
102
RTVSPropertyOp55
 70
     0
102
RTVSPropertyOp56
 70
     0
102
RTVSPropertyOp57
 70
     0
102
RTVSPost2010Prop28
280
     0
102
RTVSPost2010PropOp28
 70
     0
102
RTVSPost2010Prop29
280
     1
102
RTVSPost2010PropOp29
 70
     0
102
RTVSPost2010Prop30
280
     1
102
RTVSPost2010PropOp30
 70
     0
102
RTVSPost2010Prop31
280
     0
102
RTVSPost2010PropOp31
 70
     0
102
RTVSPost2010Prop32
280
     0
102
RTVSPost2010PropOp32
 70
     0
102
RTVSPost2010Prop33
280
     0
102
RTVSPost2010PropOp33
 70
     0
102
RTVSPost2010Prop34
280
     0
102
RTVSPost2010PropOp34
 70
     0
102
RTVSPost2010Prop35
280
     0
102
RTVSPost2010PropOp35
 70
     0
102
RTVSPost2010Prop36
280
     0
102
RTVSPost2010PropOp36
 70
     0
102
RTVSPost2010Prop37
 90
       50
102
RTVSPost2010PropOp37
 70
     0
102
RTVSPost2010Prop38
140
0.0
102
RTVSPost2010PropOp38
 70
     0
102
RTVSPost2010Prop39
140
1.0
102
RTVSPost2010PropOp39
 70
     0
102
RTVSPost2010Prop40
 90
        0
102
RTVSPost2010PropOp40
 70
     0
102
RTVSPost2010Prop41ColorIndex
 90
       18
102
RTVSPost2010Prop41ColorRGB
 90
        0
102
RTVSPost2010PropOp41
 70
     0
102
RTVSPost2010Prop42
 90
       50
102
RTVSPost2010PropOp42
 70
     0
102
RTVSPost2010Prop43
 90
        3
102
RTVSPost2010PropOp43
 70
     0
102
RTVSPost2010Prop44ColorIndex
 90
        5
102
RTVSPost2010Prop44ColorRGB
 90
      255
102
RTVSPost2010PropOp44
 70
     0
102
RTVSPost2010Prop45
280
     0
102
RTVSPost2010PropOp45
 70
     0
102
RTVSPost2010Prop46
 90
       50
102
RTVSPost2010PropOp46
 70
     0
102
RTVSPost2010Prop47
 90
       50
102
RTVSPost2010PropOp47
 70
     0
102
RTVSPost2010Prop48
 90
       50
102
RTVSPost2010PropOp48
 70
     0
102
RTVSPost2010Prop49
280
     0
102
RTVSPost2010PropOp49
 70
     0
102
RTVSPost2010Prop50
 90
       50
102
RTVSPost2010PropOp50
 70
     0
102
RTVSPost2010Prop51ColorIndex
 90
      256
102
RTVSPost2010Prop51ColorRGB
 90
-16777216
102
RTVSPost2010PropOp51
 70
     0
102
RTVSPost2010Prop52
140
1.0
102
RTVSPost2010PropOp52
 70
     0
102
RTVSPost2010Prop53
 90
        2
102
RTVSPost2010PropOp53
 70
     0
102
RTVSPost2010Prop54
  1
strokes_ogs.tif
102
RTVSPost2010PropOp54
 70
     0
102
RTVSPost2010Prop55
280
     0
102
RTVSPost2010PropOp55
 70
     0
102
RTVSPost2010Prop56
140
1.0
102
RTVSPost2010PropOp56
 70
     0
102
RTVSPost2010Prop57
140
1.0
102
RTVSPost2010PropOp57
 70
     0
  0
XRECORD
  5
D4
102
{ACAD_REACTORS
330
D3
102
}
330
D3
100
AcDbXrecord
280
     1
102
RTVSPropertyOp0
 70
     1
102
RTVSPropertyOp1
 70
     1
102
RTVSPropertyOp2
 70
     1
102
RTVSPropertyOp3
 70
     1
102
RTVSPropertyOp4
 70
     1
102
RTVSPropertyOp5
 70
     1
102
RTVSPropertyOp6
 70
     1
102
RTVSPropertyOp7
 70
     1
102
RTVSPropertyOp8
 70
     1
102
RTVSPropertyOp9
 70
     1
102
RTVSPropertyOp10
 70
     1
102
RTVSPropertyOp11
 70
     1
102
RTVSPropertyOp12
 70
     1
102
RTVSPropertyOp13
 70
     1
102
RTVSPropertyOp14
 70
     1
102
RTVSPropertyOp15
 70
     1
102
RTVSPropertyOp16
 70
     1
102
RTVSPropertyOp17
 70
     1
102
RTVSPropertyOp18
 70
     1
102
RTVSPropertyOp19
 70
     1
102
RTVSPropertyOp20
 70
     1
102
RTVSPropertyOp21
 70
     1
102
RTVSPropertyOp22
 70
     1
102
RTVSPropertyOp23
 70
     1
102
RTVSPropertyOp24
 70
     1
102
RTVSPropertyOp25
 70
     1
102
RTVSPropertyOp26
 70
     1
102
RTVSPropertyOp27
 70
     1
102
RTVSPropertyOp28
 70
     1
102
RTVSPropertyOp29
 70
     1
102
RTVSPropertyOp30
 70
     1
102
RTVSPropertyOp31
 70
     1
102
RTVSPropertyOp32
 70
     1
102
RTVSPropertyOp33
 70
     1
102
RTVSPropertyOp34
 70
     1
102
RTVSPropertyOp35
 70
     1
102
RTVSPropertyOp36
 70
     1
102
RTVSPropertyOp37
 70
     1
102
RTVSPropertyOp38
 70
     1
102
RTVSPropertyOp39
 70
     1
102
RTVSPropertyOp40
 70
     1
102
RTVSPropertyOp41
 70
     1
102
RTVSPropertyOp42
 70
     1
102
RTVSPropertyOp43
 70
     1
102
RTVSPropertyOp44
 70
     1
102
RTVSPropertyOp45
 70
     1
102
RTVSPropertyOp46
 70
     1
102
RTVSPropertyOp47
 70
     1
102
RTVSPropertyOp48
 70
     1
102
RTVSPropertyOp49
 70
     1
102
RTVSPropertyOp50
 70
     1
102
RTVSPropertyOp51
 70
     0
102
RTVSPropertyOp52
 70
     0
102
RTVSPropertyOp53
 70
     1
102
RTVSPropertyOp54
 70
     1
102
RTVSPropertyOp55
 70
     1
102
RTVSPropertyOp56
 70
     1
102
RTVSPropertyOp57
 70
     1
102
RTVSPost2010Prop28
280
     0
102
RTVSPost2010PropOp28
 70
     1
102
RTVSPost2010Prop29
280
     1
102
RTVSPost2010PropOp29
 70
     1
102
RTVSPost2010Prop30
280
     1
102
RTVSPost2010PropOp30
 70
     1
102
RTVSPost2010Prop31
280
     0
102
RTVSPost2010PropOp31
 70
     1
102
RTVSPost2010Prop32
280
     0
102
RTVSPost2010PropOp32
 70
     1
102
RTVSPost2010Prop33
280
     0
102
RTVSPost2010PropOp33
 70
     1
102
RTVSPost2010Prop34
280
     0
102
RTVSPost2010PropOp34
 70
     1
102
RTVSPost2010Prop35
280
     0
102
RTVSPost2010PropOp35
 70
     1
102
RTVSPost2010Prop36
280
     0
102
RTVSPost2010PropOp36
 70
     1
102
RTVSPost2010Prop37
 90
       50
102
RTVSPost2010PropOp37
 70
     1
102
RTVSPost2010Prop38
140
0.0
102
RTVSPost2010PropOp38
 70
     1
102
RTVSPost2010Prop39
140
1.0
102
RTVSPost2010PropOp39
 70
     1
102
RTVSPost2010Prop40
 90
        0
102
RTVSPost2010PropOp40
 70
     1
102
RTVSPost2010Prop41ColorIndex
 90
       18
102
RTVSPost2010Prop41ColorRGB
 90
        0
102
RTVSPost2010PropOp41
 70
     1
102
RTVSPost2010Prop42
 90
       50
102
RTVSPost2010PropOp42
 70
     1
102
RTVSPost2010Prop43
 90
        3
102
RTVSPost2010PropOp43
 70
     1
102
RTVSPost2010Prop44ColorIndex
 90
        5
102
RTVSPost2010Prop44ColorRGB
 90
      255
102
RTVSPost2010PropOp44
 70
     1
102
RTVSPost2010Prop45
280
     0
102
RTVSPost2010PropOp45
 70
     1
102
RTVSPost2010Prop46
 90
       50
102
RTVSPost2010PropOp46
 70
     1
102
RTVSPost2010Prop47
 90
       50
102
RTVSPost2010PropOp47
 70
     1
102
RTVSPost2010Prop48
 90
       50
102
RTVSPost2010PropOp48
 70
     1
102
RTVSPost2010Prop49
280
     0
102
RTVSPost2010PropOp49
 70
     1
102
RTVSPost2010Prop50
 90
       50
102
RTVSPost2010PropOp50
 70
     1
102
RTVSPost2010Prop51ColorIndex
 90
      256
102
RTVSPost2010Prop51ColorRGB
 90
-16777216
102
RTVSPost2010PropOp51
 70
     0
102
RTVSPost2010Prop52
140
1.0
102
RTVSPost2010PropOp52
 70
     0
102
RTVSPost2010Prop53
 90
        2
102
RTVSPost2010PropOp53
 70
     1
102
RTVSPost2010Prop54
  1
strokes_ogs.tif
102
RTVSPost2010PropOp54
 70
     1
102
RTVSPost2010Prop55
280
     0
102
RTVSPost2010PropOp55
 70
     1
102
RTVSPost2010Prop56
140
1.0
102
RTVSPost2010PropOp56
 70
     1
102
RTVSPost2010Prop57
140
1.0
102
RTVSPost2010PropOp57
 70
     1
  0
XRECORD
  5
DC
102
{ACAD_REACTORS
330
DB
102
}
330
DB
100
AcDbXrecord
280
     1
102
RTVSPropertyOp0
 70
     0
102
RTVSPropertyOp1
 70
     0
102
RTVSPropertyOp2
 70
     0
102
RTVSPropertyOp3
 70
     0
102
RTVSPropertyOp4
 70
     0
102
RTVSPropertyOp5
 70
     0
102
RTVSPropertyOp6
 70
     0
102
RTVSPropertyOp7
 70
     0
102
RTVSPropertyOp8
 70
     0
102
RTVSPropertyOp9
 70
     0
102
RTVSPropertyOp10
 70
     0
102
RTVSPropertyOp11
 70
     0
102
RTVSPropertyOp12
 70
     0
102
RTVSPropertyOp13
 70
     0
102
RTVSPropertyOp14
 70
     2
102
RTVSPropertyOp15
 70
     0
102
RTVSPropertyOp16
 70
     0
102
RTVSPropertyOp17
 70
     0
102
RTVSPropertyOp18
 70
     0
102
RTVSPropertyOp19
 70
     0
102
RTVSPropertyOp20
 70
     0
102
RTVSPropertyOp21
 70
     0
102
RTVSPropertyOp22
 70
     0
102
RTVSPropertyOp23
 70
     0
102
RTVSPropertyOp24
 70
     0
102
RTVSPropertyOp25
 70
     0
102
RTVSPropertyOp26
 70
     0
102
RTVSPropertyOp27
 70
     0
102
RTVSPropertyOp28
 70
     0
102
RTVSPropertyOp29
 70
     0
102
RTVSPropertyOp30
 70
     0
102
RTVSPropertyOp31
 70
     0
102
RTVSPropertyOp32
 70
     0
102
RTVSPropertyOp33
 70
     0
102
RTVSPropertyOp34
 70
     0
102
RTVSPropertyOp35
 70
     0
102
RTVSPropertyOp36
 70
     0
102
RTVSPropertyOp37
 70
     0
102
RTVSPropertyOp38
 70
     0
102
RTVSPropertyOp39
 70
     0
102
RTVSPropertyOp40
 70
     0
102
RTVSPropertyOp41
 70
     0
102
RTVSPropertyOp42
 70
     0
102
RTVSPropertyOp43
 70
     0
102
RTVSPropertyOp44
 70
     0
102
RTVSPropertyOp45
 70
     0
102
RTVSPropertyOp46
 70
     0
102
RTVSPropertyOp47
 70
     0
102
RTVSPropertyOp48
 70
     0
102
RTVSPropertyOp49
 70
     0
102
RTVSPropertyOp50
 70
     0
102
RTVSPropertyOp51
 70
     0
102
RTVSPropertyOp52
 70
     0
102
RTVSPropertyOp53
 70
     0
102
RTVSPropertyOp54
 70
     0
102
RTVSPropertyOp55
 70
     0
102
RTVSPropertyOp56
 70
     0
102
RTVSPropertyOp57
 70
     0
102
RTVSPost2010Prop28
280
     0
102
RTVSPost2010PropOp28
 70
     0
102
RTVSPost2010Prop29
280
     1
102
RTVSPost2010PropOp29
 70
     0
102
RTVSPost2010Prop30
280
     1
102
RTVSPost2010PropOp30
 70
     0
102
RTVSPost2010Prop31
280
     0
102
RTVSPost2010PropOp31
 70
     0
102
RTVSPost2010Prop32
280
     0
102
RTVSPost2010PropOp32
 70
     0
102
RTVSPost2010Prop33
280
     0
102
RTVSPost2010PropOp33
 70
     0
102
RTVSPost2010Prop34
280
     0
102
RTVSPost2010PropOp34
 70
     0
102
RTVSPost2010Prop35
280
     0
102
RTVSPost2010PropOp35
 70
     0
102
RTVSPost2010Prop36
280
     0
102
RTVSPost2010PropOp36
 70
     0
102
RTVSPost2010Prop37
 90
       50
102
RTVSPost2010PropOp37
 70
     0
102
RTVSPost2010Prop38
140
0.0
102
RTVSPost2010PropOp38
 70
     0
102
RTVSPost2010Prop39
140
1.0
102
RTVSPost2010PropOp39
 70
     0
102
RTVSPost2010Prop40
 90
        0
102
RTVSPost2010PropOp40
 70
     0
102
RTVSPost2010Prop41ColorIndex
 90
       18
102
RTVSPost2010Prop41ColorRGB
 90
        0
102
RTVSPost2010PropOp41
 70
     0
102
RTVSPost2010Prop42
 90
       50
102
RTVSPost2010PropOp42
 70
     0
102
RTVSPost2010Prop43
 90
        3
102
RTVSPost2010PropOp43
 70
     0
102
RTVSPost2010Prop44ColorIndex
 90
        5
102
RTVSPost2010Prop44ColorRGB
 90
      255
102
RTVSPost2010PropOp44
 70
     0
102
RTVSPost2010Prop45
280
     0
102
RTVSPost2010PropOp45
 70
     0
102
RTVSPost2010Prop46
 90
       50
102
RTVSPost2010PropOp46
 70
     0
102
RTVSPost2010Prop47
 90
       50
102
RTVSPost2010PropOp47
 70
     0
102
RTVSPost2010Prop48
 90
       50
102
RTVSPost2010PropOp48
 70
     0
102
RTVSPost2010Prop49
280
     0
102
RTVSPost2010PropOp49
 70
     0
102
RTVSPost2010Prop50
 90
       50
102
RTVSPost2010PropOp50
 70
     0
102
RTVSPost2010Prop51ColorIndex
 90
      256
102
RTVSPost2010Prop51ColorRGB
 90
-16777216
102
RTVSPost2010PropOp51
 70
     0
102
RTVSPost2010Prop52
140
1.0
102
RTVSPost2010PropOp52
 70
     0
102
RTVSPost2010Prop53
 90
        2
102
RTVSPost2010PropOp53
 70
     0
102
RTVSPost2010Prop54
  1
strokes_ogs.tif
102
RTVSPost2010PropOp54
 70
     0
102
RTVSPost2010Prop55
280
     0
102
RTVSPost2010PropOp55
 70
     0
102
RTVSPost2010Prop56
140
1.0
102
RTVSPost2010PropOp56
 70
     0
102
RTVSPost2010Prop57
140
1.0
102
RTVSPost2010PropOp57
 70
     0
  0
XRECORD
  5
CA
102
{ACAD_REACTORS
330
C9
102
}
330
C9
100
AcDbXrecord
280
     1
102
RTVSPropertyOp0
 70
     1
102
RTVSPropertyOp1
 70
     1
102
RTVSPropertyOp2
 70
     1
102
RTVSPropertyOp3
 70
     1
102
RTVSPropertyOp4
 70
     1
102
RTVSPropertyOp5
 70
     1
102
RTVSPropertyOp6
 70
     1
102
RTVSPropertyOp7
 70
     1
102
RTVSPropertyOp8
 70
     1
102
RTVSPropertyOp9
 70
     1
102
RTVSPropertyOp10
 70
     1
102
RTVSPropertyOp11
 70
     1
102
RTVSPropertyOp12
 70
     1
102
RTVSPropertyOp13
 70
     1
102
RTVSPropertyOp14
 70
     1
102
RTVSPropertyOp15
 70
     1
102
RTVSPropertyOp16
 70
     1
102
RTVSPropertyOp17
 70
     1
102
RTVSPropertyOp18
 70
     1
102
RTVSPropertyOp19
 70
     1
102
RTVSPropertyOp20
 70
     1
102
RTVSPropertyOp21
 70
     1
102
RTVSPropertyOp22
 70
     1
102
RTVSPropertyOp23
 70
     1
102
RTVSPropertyOp24
 70
     1
102
RTVSPropertyOp25
 70
     1
102
RTVSPropertyOp26
 70
     1
102
RTVSPropertyOp27
 70
     1
102
RTVSPropertyOp28
 70
     1
102
RTVSPropertyOp29
 70
     1
102
RTVSPropertyOp30
 70
     1
102
RTVSPropertyOp31
 70
     1
102
RTVSPropertyOp32
 70
     1
102
RTVSPropertyOp33
 70
     1
102
RTVSPropertyOp34
 70
     1
102
RTVSPropertyOp35
 70
     1
102
RTVSPropertyOp36
 70
     1
102
RTVSPropertyOp37
 70
     1
102
RTVSPropertyOp38
 70
     1
102
RTVSPropertyOp39
 70
     1
102
RTVSPropertyOp40
 70
     1
102
RTVSPropertyOp41
 70
     1
102
RTVSPropertyOp42
 70
     1
102
RTVSPropertyOp43
 70
     1
102
RTVSPropertyOp44
 70
     1
102
RTVSPropertyOp45
 70
     1
102
RTVSPropertyOp46
 70
     1
102
RTVSPropertyOp47
 70
     1
102
RTVSPropertyOp48
 70
     1
102
RTVSPropertyOp49
 70
     1
102
RTVSPropertyOp50
 70
     1
102
RTVSPropertyOp51
 70
     0
102
RTVSPropertyOp52
 70
     0
102
RTVSPropertyOp53
 70
     1
102
RTVSPropertyOp54
 70
     1
102
RTVSPropertyOp55
 70
     1
102
RTVSPropertyOp56
 70
     1
102
RTVSPropertyOp57
 70
     1
102
RTVSPost2010Prop28
280
     0
102
RTVSPost2010PropOp28
 70
     1
102
RTVSPost2010Prop29
280
     1
102
RTVSPost2010PropOp29
 70
     1
102
RTVSPost2010Prop30
280
     1
102
RTVSPost2010PropOp30
 70
     1
102
RTVSPost2010Prop31
280
     0
102
RTVSPost2010PropOp31
 70
     1
102
RTVSPost2010Prop32
280
     0
102
RTVSPost2010PropOp32
 70
     1
102
RTVSPost2010Prop33
280
     0
102
RTVSPost2010PropOp33
 70
     1
102
RTVSPost2010Prop34
280
     0
102
RTVSPost2010PropOp34
 70
     1
102
RTVSPost2010Prop35
280
     0
102
RTVSPost2010PropOp35
 70
     1
102
RTVSPost2010Prop36
280
     0
102
RTVSPost2010PropOp36
 70
     1
102
RTVSPost2010Prop37
 90
       50
102
RTVSPost2010PropOp37
 70
     1
102
RTVSPost2010Prop38
140
0.0
102
RTVSPost2010PropOp38
 70
     1
102
RTVSPost2010Prop39
140
1.0
102
RTVSPost2010PropOp39
 70
     1
102
RTVSPost2010Prop40
 90
        0
102
RTVSPost2010PropOp40
 70
     1
102
RTVSPost2010Prop41ColorIndex
 90
       18
102
RTVSPost2010Prop41ColorRGB
 90
        0
102
RTVSPost2010PropOp41
 70
     1
102
RTVSPost2010Prop42
 90
       50
102
RTVSPost2010PropOp42
 70
     1
102
RTVSPost2010Prop43
 90
        3
102
RTVSPost2010PropOp43
 70
     1
102
RTVSPost2010Prop44ColorIndex
 90
        5
102
RTVSPost2010Prop44ColorRGB
 90
      255
102
RTVSPost2010PropOp44
 70
     1
102
RTVSPost2010Prop45
280
     0
102
RTVSPost2010PropOp45
 70
     1
102
RTVSPost2010Prop46
 90
       50
102
RTVSPost2010PropOp46
 70
     1
102
RTVSPost2010Prop47
 90
       50
102
RTVSPost2010PropOp47
 70
     1
102
RTVSPost2010Prop48
 90
       50
102
RTVSPost2010PropOp48
 70
     1
102
RTVSPost2010Prop49
280
     0
102
RTVSPost2010PropOp49
 70
     1
102
RTVSPost2010Prop50
 90
       50
102
RTVSPost2010PropOp50
 70
     1
102
RTVSPost2010Prop51ColorIndex
 90
      256
102
RTVSPost2010Prop51ColorRGB
 90
-16777216
102
RTVSPost2010PropOp51
 70
     0
102
RTVSPost2010Prop52
140
1.0
102
RTVSPost2010PropOp52
 70
     0
102
RTVSPost2010Prop53
 90
        2
102
RTVSPost2010PropOp53
 70
     1
102
RTVSPost2010Prop54
  1
strokes_ogs.tif
102
RTVSPost2010PropOp54
 70
     1
102
RTVSPost2010Prop55
280
     0
102
RTVSPost2010PropOp55
 70
     1
102
RTVSPost2010Prop56
140
1.0
102
RTVSPost2010PropOp56
 70
     1
102
RTVSPost2010Prop57
140
1.0
102
RTVSPost2010PropOp57
 70
     1
  0
XRECORD
  5
E8
102
{ACAD_REACTORS
330
E7
102
}
330
E7
100
AcDbXrecord
280
     1
102
RTVSPropertyOp0
 70
     1
102
RTVSPropertyOp1
 70
     1
102
RTVSPropertyOp2
 70
     1
102
RTVSPropertyOp3
 70
     1
102
RTVSPropertyOp4
 70
     1
102
RTVSPropertyOp5
 70
     1
102
RTVSPropertyOp6
 70
     1
102
RTVSPropertyOp7
 70
     1
102
RTVSPropertyOp8
 70
     1
102
RTVSPropertyOp9
 70
     1
102
RTVSPropertyOp10
 70
     1
102
RTVSPropertyOp11
 70
     1
102
RTVSPropertyOp12
 70
     1
102
RTVSPropertyOp13
 70
     1
102
RTVSPropertyOp14
 70
     1
102
RTVSPropertyOp15
 70
     1
102
RTVSPropertyOp16
 70
     1
102
RTVSPropertyOp17
 70
     1
102
RTVSPropertyOp18
 70
     1
102
RTVSPropertyOp19
 70
     1
102
RTVSPropertyOp20
 70
     1
102
RTVSPropertyOp21
 70
     1
102
RTVSPropertyOp22
 70
     1
102
RTVSPropertyOp23
 70
     1
102
RTVSPropertyOp24
 70
     1
102
RTVSPropertyOp25
 70
     1
102
RTVSPropertyOp26
 70
     1
102
RTVSPropertyOp27
 70
     1
102
RTVSPropertyOp28
 70
     1
102
RTVSPropertyOp29
 70
     1
102
RTVSPropertyOp30
 70
     1
102
RTVSPropertyOp31
 70
     1
102
RTVSPropertyOp32
 70
     1
102
RTVSPropertyOp33
 70
     1
102
RTVSPropertyOp34
 70
     1
102
RTVSPropertyOp35
 70
     1
102
RTVSPropertyOp36
 70
     1
102
RTVSPropertyOp37
 70
     1
102
RTVSPropertyOp38
 70
     1
102
RTVSPropertyOp39
 70
     1
102
RTVSPropertyOp40
 70
     1
102
RTVSPropertyOp41
 70
     1
102
RTVSPropertyOp42
 70
     1
102
RTVSPropertyOp43
 70
     1
102
RTVSPropertyOp44
 70
     1
102
RTVSPropertyOp45
 70
     1
102
RTVSPropertyOp46
 70
     1
102
RTVSPropertyOp47
 70
     1
102
RTVSPropertyOp48
 70
     1
102
RTVSPropertyOp49
 70
     1
102
RTVSPropertyOp50
 70
     1
102
RTVSPropertyOp51
 70
     0
102
RTVSPropertyOp52
 70
     0
102
RTVSPropertyOp53
 70
     1
102
RTVSPropertyOp54
 70
     1
102
RTVSPropertyOp55
 70
     1
102
RTVSPropertyOp56
 70
     1
102
RTVSPropertyOp57
 70
     1
102
RTVSPost2010Prop28
280
     0
102
RTVSPost2010PropOp28
 70
     1
102
RTVSPost2010Prop29
280
     1
102
RTVSPost2010PropOp29
 70
     1
102
RTVSPost2010Prop30
280
     1
102
RTVSPost2010PropOp30
 70
     1
102
RTVSPost2010Prop31
280
     0
102
RTVSPost2010PropOp31
 70
     1
102
RTVSPost2010Prop32
280
     0
102
RTVSPost2010PropOp32
 70
     1
102
RTVSPost2010Prop33
280
     0
102
RTVSPost2010PropOp33
 70
     1
102
RTVSPost2010Prop34
280
     0
102
RTVSPost2010PropOp34
 70
     1
102
RTVSPost2010Prop35
280
     0
102
RTVSPost2010PropOp35
 70
     1
102
RTVSPost2010Prop36
280
     0
102
RTVSPost2010PropOp36
 70
     1
102
RTVSPost2010Prop37
 90
       50
102
RTVSPost2010PropOp37
 70
     1
102
RTVSPost2010Prop38
140
0.0
102
RTVSPost2010PropOp38
 70
     1
102
RTVSPost2010Prop39
140
1.0
102
RTVSPost2010PropOp39
 70
     1
102
RTVSPost2010Prop40
 90
        0
102
RTVSPost2010PropOp40
 70
     1
102
RTVSPost2010Prop41ColorIndex
 90
       18
102
RTVSPost2010Prop41ColorRGB
 90
        0
102
RTVSPost2010PropOp41
 70
     1
102
RTVSPost2010Prop42
 90
       50
102
RTVSPost2010PropOp42
 70
     1
102
RTVSPost2010Prop43
 90
        3
102
RTVSPost2010PropOp43
 70
     1
102
RTVSPost2010Prop44ColorIndex
 90
        5
102
RTVSPost2010Prop44ColorRGB
 90
      255
102
RTVSPost2010PropOp44
 70
     1
102
RTVSPost2010Prop45
280
     0
102
RTVSPost2010PropOp45
 70
     1
102
RTVSPost2010Prop46
 90
       50
102
RTVSPost2010PropOp46
 70
     1
102
RTVSPost2010Prop47
 90
       50
102
RTVSPost2010PropOp47
 70
     1
102
RTVSPost2010Prop48
 90
       50
102
RTVSPost2010PropOp48
 70
     1
102
RTVSPost2010Prop49
280
     0
102
RTVSPost2010PropOp49
 70
     1
102
RTVSPost2010Prop50
 90
       50
102
RTVSPost2010PropOp50
 70
     1
102
RTVSPost2010Prop51ColorIndex
 90
      256
102
RTVSPost2010Prop51ColorRGB
 90
-16777216
102
RTVSPost2010PropOp51
 70
     0
102
RTVSPost2010Prop52
140
1.0
102
RTVSPost2010PropOp52
 70
     0
102
RTVSPost2010Prop53
 90
        2
102
RTVSPost2010PropOp53
 70
     1
102
RTVSPost2010Prop54
  1
strokes_ogs.tif
102
RTVSPost2010PropOp54
 70
     1
102
RTVSPost2010Prop55
280
     0
102
RTVSPost2010PropOp55
 70
     1
102
RTVSPost2010Prop56
140
1.0
102
RTVSPost2010PropOp56
 70
     1
102
RTVSPost2010Prop57
140
1.0
102
RTVSPost2010PropOp57
 70
     1
  0
XRECORD
  5
E6
102
{ACAD_REACTORS
330
E5
102
}
330
E5
100
AcDbXrecord
280
     1
102
RTVSPropertyOp0
 70
     1
102
RTVSPropertyOp1
 70
     1
102
RTVSPropertyOp2
 70
     1
102
RTVSPropertyOp3
 70
     1
102
RTVSPropertyOp4
 70
     1
102
RTVSPropertyOp5
 70
     1
102
RTVSPropertyOp6
 70
     1
102
RTVSPropertyOp7
 70
     1
102
RTVSPropertyOp8
 70
     1
102
RTVSPropertyOp9
 70
     1
102
RTVSPropertyOp10
 70
     1
102
RTVSPropertyOp11
 70
     1
102
RTVSPropertyOp12
 70
     1
102
RTVSPropertyOp13
 70
     1
102
RTVSPropertyOp14
 70
     1
102
RTVSPropertyOp15
 70
     1
102
RTVSPropertyOp16
 70
     1
102
RTVSPropertyOp17
 70
     1
102
RTVSPropertyOp18
 70
     1
102
RTVSPropertyOp19
 70
     1
102
RTVSPropertyOp20
 70
     1
102
RTVSPropertyOp21
 70
     1
102
RTVSPropertyOp22
 70
     1
102
RTVSPropertyOp23
 70
     1
102
RTVSPropertyOp24
 70
     1
102
RTVSPropertyOp25
 70
     1
102
RTVSPropertyOp26
 70
     1
102
RTVSPropertyOp27
 70
     1
102
RTVSPropertyOp28
 70
     1
102
RTVSPropertyOp29
 70
     1
102
RTVSPropertyOp30
 70
     1
102
RTVSPropertyOp31
 70
     1
102
RTVSPropertyOp32
 70
     1
102
RTVSPropertyOp33
 70
     1
102
RTVSPropertyOp34
 70
     1
102
RTVSPropertyOp35
 70
     1
102
RTVSPropertyOp36
 70
     1
102
RTVSPropertyOp37
 70
     1
102
RTVSPropertyOp38
 70
     1
102
RTVSPropertyOp39
 70
     1
102
RTVSPropertyOp40
 70
     1
102
RTVSPropertyOp41
 70
     1
102
RTVSPropertyOp42
 70
     1
102
RTVSPropertyOp43
 70
     1
102
RTVSPropertyOp44
 70
     1
102
RTVSPropertyOp45
 70
     1
102
RTVSPropertyOp46
 70
     1
102
RTVSPropertyOp47
 70
     1
102
RTVSPropertyOp48
 70
     1
102
RTVSPropertyOp49
 70
     1
102
RTVSPropertyOp50
 70
     1
102
RTVSPropertyOp51
 70
     0
102
RTVSPropertyOp52
 70
     0
102
RTVSPropertyOp53
 70
     1
102
RTVSPropertyOp54
 70
     1
102
RTVSPropertyOp55
 70
     1
102
RTVSPropertyOp56
 70
     1
102
RTVSPropertyOp57
 70
     1
102
RTVSPost2010Prop28
280
     0
102
RTVSPost2010PropOp28
 70
     1
102
RTVSPost2010Prop29
280
     1
102
RTVSPost2010PropOp29
 70
     1
102
RTVSPost2010Prop30
280
     1
102
RTVSPost2010PropOp30
 70
     1
102
RTVSPost2010Prop31
280
     0
102
RTVSPost2010PropOp31
 70
     1
102
RTVSPost2010Prop32
280
     0
102
RTVSPost2010PropOp32
 70
     1
102
RTVSPost2010Prop33
280
     0
102
RTVSPost2010PropOp33
 70
     1
102
RTVSPost2010Prop34
280
     0
102
RTVSPost2010PropOp34
 70
     1
102
RTVSPost2010Prop35
280
     0
102
RTVSPost2010PropOp35
 70
     1
102
RTVSPost2010Prop36
280
     0
102
RTVSPost2010PropOp36
 70
     1
102
RTVSPost2010Prop37
 90
       50
102
RTVSPost2010PropOp37
 70
     1
102
RTVSPost2010Prop38
140
0.0
102
RTVSPost2010PropOp38
 70
     1
102
RTVSPost2010Prop39
140
1.0
102
RTVSPost2010PropOp39
 70
     1
102
RTVSPost2010Prop40
 90
        0
102
RTVSPost2010PropOp40
 70
     1
102
RTVSPost2010Prop41ColorIndex
 90
       18
102
RTVSPost2010Prop41ColorRGB
 90
        0
102
RTVSPost2010PropOp41
 70
     1
102
RTVSPost2010Prop42
 90
       50
102
RTVSPost2010PropOp42
 70
     1
102
RTVSPost2010Prop43
 90
        3
102
RTVSPost2010PropOp43
 70
     1
102
RTVSPost2010Prop44ColorIndex
 90
        5
102
RTVSPost2010Prop44ColorRGB
 90
      255
102
RTVSPost2010PropOp44
 70
     1
102
RTVSPost2010Prop45
280
     0
102
RTVSPost2010PropOp45
 70
     1
102
RTVSPost2010Prop46
 90
       50
102
RTVSPost2010PropOp46
 70
     1
102
RTVSPost2010Prop47
 90
       50
102
RTVSPost2010PropOp47
 70
     1
102
RTVSPost2010Prop48
 90
       50
102
RTVSPost2010PropOp48
 70
     1
102
RTVSPost2010Prop49
280
     0
102
RTVSPost2010PropOp49
 70
     1
102
RTVSPost2010Prop50
 90
       50
102
RTVSPost2010PropOp50
 70
     1
102
RTVSPost2010Prop51ColorIndex
 90
      256
102
RTVSPost2010Prop51ColorRGB
 90
-16777216
102
RTVSPost2010PropOp51
 70
     0
102
RTVSPost2010Prop52
140
1.0
102
RTVSPost2010PropOp52
 70
     0
102
RTVSPost2010Prop53
 90
        2
102
RTVSPost2010PropOp53
 70
     1
102
RTVSPost2010Prop54
  1
strokes_ogs.tif
102
RTVSPost2010PropOp54
 70
     1
102
RTVSPost2010Prop55
280
     0
102
RTVSPost2010PropOp55
 70
     1
102
RTVSPost2010Prop56
140
1.0
102
RTVSPost2010PropOp56
 70
     1
102
RTVSPost2010Prop57
140
1.0
102
RTVSPost2010PropOp57
 70
     1
  0
XRECORD
  5
E0
102
{ACAD_REACTORS
330
DF
102
}
330
DF
100
AcDbXrecord
280
     1
102
RTVSPropertyOp0
 70
     1
102
RTVSPropertyOp1
 70
     1
102
RTVSPropertyOp2
 70
     1
102
RTVSPropertyOp3
 70
     1
102
RTVSPropertyOp4
 70
     1
102
RTVSPropertyOp5
 70
     1
102
RTVSPropertyOp6
 70
     1
102
RTVSPropertyOp7
 70
     1
102
RTVSPropertyOp8
 70
     1
102
RTVSPropertyOp9
 70
     1
102
RTVSPropertyOp10
 70
     1
102
RTVSPropertyOp11
 70
     1
102
RTVSPropertyOp12
 70
     1
102
RTVSPropertyOp13
 70
     1
102
RTVSPropertyOp14
 70
     1
102
RTVSPropertyOp15
 70
     1
102
RTVSPropertyOp16
 70
     1
102
RTVSPropertyOp17
 70
     1
102
RTVSPropertyOp18
 70
     1
102
RTVSPropertyOp19
 70
     1
102
RTVSPropertyOp20
 70
     1
102
RTVSPropertyOp21
 70
     1
102
RTVSPropertyOp22
 70
     1
102
RTVSPropertyOp23
 70
     1
102
RTVSPropertyOp24
 70
     1
102
RTVSPropertyOp25
 70
     1
102
RTVSPropertyOp26
 70
     1
102
RTVSPropertyOp27
 70
     1
102
RTVSPropertyOp28
 70
     1
102
RTVSPropertyOp29
 70
     1
102
RTVSPropertyOp30
 70
     1
102
RTVSPropertyOp31
 70
     1
102
RTVSPropertyOp32
 70
     1
102
RTVSPropertyOp33
 70
     1
102
RTVSPropertyOp34
 70
     1
102
RTVSPropertyOp35
 70
     1
102
RTVSPropertyOp36
 70
     1
102
RTVSPropertyOp37
 70
     1
102
RTVSPropertyOp38
 70
     1
102
RTVSPropertyOp39
 70
     1
102
RTVSPropertyOp40
 70
     1
102
RTVSPropertyOp41
 70
     1
102
RTVSPropertyOp42
 70
     1
102
RTVSPropertyOp43
 70
     1
102
RTVSPropertyOp44
 70
     1
102
RTVSPropertyOp45
 70
     1
102
RTVSPropertyOp46
 70
     1
102
RTVSPropertyOp47
 70
     1
102
RTVSPropertyOp48
 70
     1
102
RTVSPropertyOp49
 70
     1
102
RTVSPropertyOp50
 70
     1
102
RTVSPropertyOp51
 70
     0
102
RTVSPropertyOp52
 70
     0
102
RTVSPropertyOp53
 70
     1
102
RTVSPropertyOp54
 70
     1
102
RTVSPropertyOp55
 70
     1
102
RTVSPropertyOp56
 70
     1
102
RTVSPropertyOp57
 70
     1
102
RTVSPost2010Prop28
280
     0
102
RTVSPost2010PropOp28
 70
     1
102
RTVSPost2010Prop29
280
     1
102
RTVSPost2010PropOp29
 70
     1
102
RTVSPost2010Prop30
280
     1
102
RTVSPost2010PropOp30
 70
     1
102
RTVSPost2010Prop31
280
     0
102
RTVSPost2010PropOp31
 70
     1
102
RTVSPost2010Prop32
280
     0
102
RTVSPost2010PropOp32
 70
     1
102
RTVSPost2010Prop33
280
     0
102
RTVSPost2010PropOp33
 70
     1
102
RTVSPost2010Prop34
280
     0
102
RTVSPost2010PropOp34
 70
     1
102
RTVSPost2010Prop35
280
     0
102
RTVSPost2010PropOp35
 70
     1
102
RTVSPost2010Prop36
280
     0
102
RTVSPost2010PropOp36
 70
     1
102
RTVSPost2010Prop37
 90
       50
102
RTVSPost2010PropOp37
 70
     1
102
RTVSPost2010Prop38
140
0.0
102
RTVSPost2010PropOp38
 70
     1
102
RTVSPost2010Prop39
140
1.0
102
RTVSPost2010PropOp39
 70
     1
102
RTVSPost2010Prop40
 90
        0
102
RTVSPost2010PropOp40
 70
     1
102
RTVSPost2010Prop41ColorIndex
 90
       18
102
RTVSPost2010Prop41ColorRGB
 90
        0
102
RTVSPost2010PropOp41
 70
     1
102
RTVSPost2010Prop42
 90
       50
102
RTVSPost2010PropOp42
 70
     1
102
RTVSPost2010Prop43
 90
        3
102
RTVSPost2010PropOp43
 70
     1
102
RTVSPost2010Prop44ColorIndex
 90
        5
102
RTVSPost2010Prop44ColorRGB
 90
      255
102
RTVSPost2010PropOp44
 70
     1
102
RTVSPost2010Prop45
280
     0
102
RTVSPost2010PropOp45
 70
     1
102
RTVSPost2010Prop46
 90
       50
102
RTVSPost2010PropOp46
 70
     1
102
RTVSPost2010Prop47
 90
       50
102
RTVSPost2010PropOp47
 70
     1
102
RTVSPost2010Prop48
 90
       50
102
RTVSPost2010PropOp48
 70
     1
102
RTVSPost2010Prop49
280
     0
102
RTVSPost2010PropOp49
 70
     1
102
RTVSPost2010Prop50
 90
       50
102
RTVSPost2010PropOp50
 70
     1
102
RTVSPost2010Prop51ColorIndex
 90
      256
102
RTVSPost2010Prop51ColorRGB
 90
-16777216
102
RTVSPost2010PropOp51
 70
     0
102
RTVSPost2010Prop52
140
1.0
102
RTVSPost2010PropOp52
 70
     0
102
RTVSPost2010Prop53
 90
        2
102
RTVSPost2010PropOp53
 70
     1
102
RTVSPost2010Prop54
  1
strokes_ogs.tif
102
RTVSPost2010PropOp54
 70
     1
102
RTVSPost2010Prop55
280
     0
102
RTVSPost2010PropOp55
 70
     1
102
RTVSPost2010Prop56
140
1.0
102
RTVSPost2010PropOp56
 70
     1
102
RTVSPost2010Prop57
140
1.0
102
RTVSPost2010PropOp57
 70
     1
  0
XRECORD
  5
E2
102
{ACAD_REACTORS
330
E1
102
}
330
E1
100
AcDbXrecord
280
     1
102
RTVSPropertyOp0
 70
     1
102
RTVSPropertyOp1
 70
     1
102
RTVSPropertyOp2
 70
     1
102
RTVSPropertyOp3
 70
     1
102
RTVSPropertyOp4
 70
     1
102
RTVSPropertyOp5
 70
     1
102
RTVSPropertyOp6
 70
     1
102
RTVSPropertyOp7
 70
     1
102
RTVSPropertyOp8
 70
     1
102
RTVSPropertyOp9
 70
     1
102
RTVSPropertyOp10
 70
     1
102
RTVSPropertyOp11
 70
     1
102
RTVSPropertyOp12
 70
     1
102
RTVSPropertyOp13
 70
     1
102
RTVSPropertyOp14
 70
     1
102
RTVSPropertyOp15
 70
     1
102
RTVSPropertyOp16
 70
     1
102
RTVSPropertyOp17
 70
     1
102
RTVSPropertyOp18
 70
     1
102
RTVSPropertyOp19
 70
     1
102
RTVSPropertyOp20
 70
     1
102
RTVSPropertyOp21
 70
     1
102
RTVSPropertyOp22
 70
     1
102
RTVSPropertyOp23
 70
     1
102
RTVSPropertyOp24
 70
     1
102
RTVSPropertyOp25
 70
     1
102
RTVSPropertyOp26
 70
     1
102
RTVSPropertyOp27
 70
     1
102
RTVSPropertyOp28
 70
     1
102
RTVSPropertyOp29
 70
     1
102
RTVSPropertyOp30
 70
     1
102
RTVSPropertyOp31
 70
     1
102
RTVSPropertyOp32
 70
     1
102
RTVSPropertyOp33
 70
     1
102
RTVSPropertyOp34
 70
     1
102
RTVSPropertyOp35
 70
     1
102
RTVSPropertyOp36
 70
     1
102
RTVSPropertyOp37
 70
     1
102
RTVSPropertyOp38
 70
     1
102
RTVSPropertyOp39
 70
     1
102
RTVSPropertyOp40
 70
     1
102
RTVSPropertyOp41
 70
     1
102
RTVSPropertyOp42
 70
     1
102
RTVSPropertyOp43
 70
     1
102
RTVSPropertyOp44
 70
     1
102
RTVSPropertyOp45
 70
     1
102
RTVSPropertyOp46
 70
     1
102
RTVSPropertyOp47
 70
     1
102
RTVSPropertyOp48
 70
     1
102
RTVSPropertyOp49
 70
     1
102
RTVSPropertyOp50
 70
     1
102
RTVSPropertyOp51
 70
     0
102
RTVSPropertyOp52
 70
     0
102
RTVSPropertyOp53
 70
     1
102
RTVSPropertyOp54
 70
     1
102
RTVSPropertyOp55
 70
     1
102
RTVSPropertyOp56
 70
     1
102
RTVSPropertyOp57
 70
     1
102
RTVSPost2010Prop28
280
     0
102
RTVSPost2010PropOp28
 70
     1
102
RTVSPost2010Prop29
280
     1
102
RTVSPost2010PropOp29
 70
     1
102
RTVSPost2010Prop30
280
     1
102
RTVSPost2010PropOp30
 70
     1
102
RTVSPost2010Prop31
280
     0
102
RTVSPost2010PropOp31
 70
     1
102
RTVSPost2010Prop32
280
     0
102
RTVSPost2010PropOp32
 70
     1
102
RTVSPost2010Prop33
280
     0
102
RTVSPost2010PropOp33
 70
     1
102
RTVSPost2010Prop34
280
     0
102
RTVSPost2010PropOp34
 70
     1
102
RTVSPost2010Prop35
280
     0
102
RTVSPost2010PropOp35
 70
     1
102
RTVSPost2010Prop36
280
     0
102
RTVSPost2010PropOp36
 70
     1
102
RTVSPost2010Prop37
 90
       50
102
RTVSPost2010PropOp37
 70
     1
102
RTVSPost2010Prop38
140
0.0
102
RTVSPost2010PropOp38
 70
     1
102
RTVSPost2010Prop39
140
1.0
102
RTVSPost2010PropOp39
 70
     1
102
RTVSPost2010Prop40
 90
        0
102
RTVSPost2010PropOp40
 70
     1
102
RTVSPost2010Prop41ColorIndex
 90
       18
102
RTVSPost2010Prop41ColorRGB
 90
        0
102
RTVSPost2010PropOp41
 70
     1
102
RTVSPost2010Prop42
 90
       50
102
RTVSPost2010PropOp42
 70
     1
102
RTVSPost2010Prop43
 90
        3
102
RTVSPost2010PropOp43
 70
     1
102
RTVSPost2010Prop44ColorIndex
 90
        5
102
RTVSPost2010Prop44ColorRGB
 90
      255
102
RTVSPost2010PropOp44
 70
     1
102
RTVSPost2010Prop45
280
     0
102
RTVSPost2010PropOp45
 70
     1
102
RTVSPost2010Prop46
 90
       50
102
RTVSPost2010PropOp46
 70
     1
102
RTVSPost2010Prop47
 90
       50
102
RTVSPost2010PropOp47
 70
     1
102
RTVSPost2010Prop48
 90
       50
102
RTVSPost2010PropOp48
 70
     1
102
RTVSPost2010Prop49
280
     0
102
RTVSPost2010PropOp49
 70
     1
102
RTVSPost2010Prop50
 90
       50
102
RTVSPost2010PropOp50
 70
     1
102
RTVSPost2010Prop51ColorIndex
 90
      256
102
RTVSPost2010Prop51ColorRGB
 90
-16777216
102
RTVSPost2010PropOp51
 70
     0
102
RTVSPost2010Prop52
140
1.0
102
RTVSPost2010PropOp52
 70
     0
102
RTVSPost2010Prop53
 90
        2
102
RTVSPost2010PropOp53
 70
     1
102
RTVSPost2010Prop54
  1
strokes_ogs.tif
102
RTVSPost2010PropOp54
 70
     1
102
RTVSPost2010Prop55
280
     0
102
RTVSPost2010PropOp55
 70
     1
102
RTVSPost2010Prop56
140
1.0
102
RTVSPost2010PropOp56
 70
     1
102
RTVSPost2010Prop57
140
1.0
102
RTVSPost2010PropOp57
 70
     1
  0
XRECORD
  5
D2
102
{ACAD_REACTORS
330
D1
102
}
330
D1
100
AcDbXrecord
280
     1
102
RTVSPropertyOp0
 70
     1
102
RTVSPropertyOp1
 70
     1
102
RTVSPropertyOp2
 70
     1
102
RTVSPropertyOp3
 70
     1
102
RTVSPropertyOp4
 70
     1
102
RTVSPropertyOp5
 70
     1
102
RTVSPropertyOp6
 70
     1
102
RTVSPropertyOp7
 70
     1
102
RTVSPropertyOp8
 70
     1
102
RTVSPropertyOp9
 70
     1
102
RTVSPropertyOp10
 70
     1
102
RTVSPropertyOp11
 70
     1
102
RTVSPropertyOp12
 70
     1
102
RTVSPropertyOp13
 70
     1
102
RTVSPropertyOp14
 70
     1
102
RTVSPropertyOp15
 70
     1
102
RTVSPropertyOp16
 70
     1
102
RTVSPropertyOp17
 70
     1
102
RTVSPropertyOp18
 70
     1
102
RTVSPropertyOp19
 70
     1
102
RTVSPropertyOp20
 70
     1
102
RTVSPropertyOp21
 70
     1
102
RTVSPropertyOp22
 70
     1
102
RTVSPropertyOp23
 70
     1
102
RTVSPropertyOp24
 70
     1
102
RTVSPropertyOp25
 70
     1
102
RTVSPropertyOp26
 70
     1
102
RTVSPropertyOp27
 70
     1
102
RTVSPropertyOp28
 70
     1
102
RTVSPropertyOp29
 70
     1
102
RTVSPropertyOp30
 70
     1
102
RTVSPropertyOp31
 70
     1
102
RTVSPropertyOp32
 70
     1
102
RTVSPropertyOp33
 70
     1
102
RTVSPropertyOp34
 70
     1
102
RTVSPropertyOp35
 70
     1
102
RTVSPropertyOp36
 70
     1
102
RTVSPropertyOp37
 70
     1
102
RTVSPropertyOp38
 70
     1
102
RTVSPropertyOp39
 70
     1
102
RTVSPropertyOp40
 70
     1
102
RTVSPropertyOp41
 70
     1
102
RTVSPropertyOp42
 70
     1
102
RTVSPropertyOp43
 70
     1
102
RTVSPropertyOp44
 70
     1
102
RTVSPropertyOp45
 70
     1
102
RTVSPropertyOp46
 70
     1
102
RTVSPropertyOp47
 70
     1
102
RTVSPropertyOp48
 70
     1
102
RTVSPropertyOp49
 70
     1
102
RTVSPropertyOp50
 70
     1
102
RTVSPropertyOp51
 70
     0
102
RTVSPropertyOp52
 70
     0
102
RTVSPropertyOp53
 70
     1
102
RTVSPropertyOp54
 70
     1
102
RTVSPropertyOp55
 70
     1
102
RTVSPropertyOp56
 70
     1
102
RTVSPropertyOp57
 70
     1
102
RTVSPost2010Prop28
280
     0
102
RTVSPost2010PropOp28
 70
     1
102
RTVSPost2010Prop29
280
     1
102
RTVSPost2010PropOp29
 70
     1
102
RTVSPost2010Prop30
280
     1
102
RTVSPost2010PropOp30
 70
     1
102
RTVSPost2010Prop31
280
     0
102
RTVSPost2010PropOp31
 70
     1
102
RTVSPost2010Prop32
280
     0
102
RTVSPost2010PropOp32
 70
     1
102
RTVSPost2010Prop33
280
     0
102
RTVSPost2010PropOp33
 70
     1
102
RTVSPost2010Prop34
280
     0
102
RTVSPost2010PropOp34
 70
     1
102
RTVSPost2010Prop35
280
     0
102
RTVSPost2010PropOp35
 70
     1
102
RTVSPost2010Prop36
280
     0
102
RTVSPost2010PropOp36
 70
     1
102
RTVSPost2010Prop37
 90
       50
102
RTVSPost2010PropOp37
 70
     1
102
RTVSPost2010Prop38
140
0.0
102
RTVSPost2010PropOp38
 70
     1
102
RTVSPost2010Prop39
140
1.0
102
RTVSPost2010PropOp39
 70
     1
102
RTVSPost2010Prop40
 90
        0
102
RTVSPost2010PropOp40
 70
     1
102
RTVSPost2010Prop41ColorIndex
 90
       18
102
RTVSPost2010Prop41ColorRGB
 90
        0
102
RTVSPost2010PropOp41
 70
     1
102
RTVSPost2010Prop42
 90
       50
102
RTVSPost2010PropOp42
 70
     1
102
RTVSPost2010Prop43
 90
        3
102
RTVSPost2010PropOp43
 70
     1
102
RTVSPost2010Prop44ColorIndex
 90
        5
102
RTVSPost2010Prop44ColorRGB
 90
      255
102
RTVSPost2010PropOp44
 70
     1
102
RTVSPost2010Prop45
280
     0
102
RTVSPost2010PropOp45
 70
     1
102
RTVSPost2010Prop46
 90
       50
102
RTVSPost2010PropOp46
 70
     1
102
RTVSPost2010Prop47
 90
       50
102
RTVSPost2010PropOp47
 70
     1
102
RTVSPost2010Prop48
 90
       50
102
RTVSPost2010PropOp48
 70
     1
102
RTVSPost2010Prop49
280
     0
102
RTVSPost2010PropOp49
 70
     1
102
RTVSPost2010Prop50
 90
       50
102
RTVSPost2010PropOp50
 70
     1
102
RTVSPost2010Prop51ColorIndex
 90
      256
102
RTVSPost2010Prop51ColorRGB
 90
-16777216
102
RTVSPost2010PropOp51
 70
     0
102
RTVSPost2010Prop52
140
1.0
102
RTVSPost2010PropOp52
 70
     0
102
RTVSPost2010Prop53
 90
        2
102
RTVSPost2010PropOp53
 70
     1
102
RTVSPost2010Prop54
  1
strokes_ogs.tif
102
RTVSPost2010PropOp54
 70
     1
102
RTVSPost2010Prop55
280
     0
102
RTVSPost2010PropOp55
 70
     1
102
RTVSPost2010Prop56
140
1.0
102
RTVSPost2010PropOp56
 70
     1
102
RTVSPost2010Prop57
140
1.0
102
RTVSPost2010PropOp57
 70
     1
  0
XRECORD
  5
C4
102
{ACAD_REACTORS
330
C3
102
}
330
C3
100
AcDbXrecord
280
     1
102
RTVSPropertyOp0
 70
     1
102
RTVSPropertyOp1
 70
     1
102
RTVSPropertyOp2
 70
     1
102
RTVSPropertyOp3
 70
     1
102
RTVSPropertyOp4
 70
     1
102
RTVSPropertyOp5
 70
     1
102
RTVSPropertyOp6
 70
     1
102
RTVSPropertyOp7
 70
     1
102
RTVSPropertyOp8
 70
     1
102
RTVSPropertyOp9
 70
     1
102
RTVSPropertyOp10
 70
     1
102
RTVSPropertyOp11
 70
     1
102
RTVSPropertyOp12
 70
     1
102
RTVSPropertyOp13
 70
     1
102
RTVSPropertyOp14
 70
     1
102
RTVSPropertyOp15
 70
     1
102
RTVSPropertyOp16
 70
     1
102
RTVSPropertyOp17
 70
     1
102
RTVSPropertyOp18
 70
     1
102
RTVSPropertyOp19
 70
     1
102
RTVSPropertyOp20
 70
     1
102
RTVSPropertyOp21
 70
     1
102
RTVSPropertyOp22
 70
     1
102
RTVSPropertyOp23
 70
     1
102
RTVSPropertyOp24
 70
     1
102
RTVSPropertyOp25
 70
     1
102
RTVSPropertyOp26
 70
     1
102
RTVSPropertyOp27
 70
     1
102
RTVSPropertyOp28
 70
     1
102
RTVSPropertyOp29
 70
     1
102
RTVSPropertyOp30
 70
     1
102
RTVSPropertyOp31
 70
     1
102
RTVSPropertyOp32
 70
     1
102
RTVSPropertyOp33
 70
     1
102
RTVSPropertyOp34
 70
     1
102
RTVSPropertyOp35
 70
     1
102
RTVSPropertyOp36
 70
     1
102
RTVSPropertyOp37
 70
     1
102
RTVSPropertyOp38
 70
     1
102
RTVSPropertyOp39
 70
     1
102
RTVSPropertyOp40
 70
     1
102
RTVSPropertyOp41
 70
     1
102
RTVSPropertyOp42
 70
     1
102
RTVSPropertyOp43
 70
     1
102
RTVSPropertyOp44
 70
     1
102
RTVSPropertyOp45
 70
     1
102
RTVSPropertyOp46
 70
     1
102
RTVSPropertyOp47
 70
     1
102
RTVSPropertyOp48
 70
     1
102
RTVSPropertyOp49
 70
     1
102
RTVSPropertyOp50
 70
     1
102
RTVSPropertyOp51
 70
     0
102
RTVSPropertyOp52
 70
     0
102
RTVSPropertyOp53
 70
     1
102
RTVSPropertyOp54
 70
     1
102
RTVSPropertyOp55
 70
     1
102
RTVSPropertyOp56
 70
     1
102
RTVSPropertyOp57
 70
     1
102
RTVSPost2010Prop28
280
     0
102
RTVSPost2010PropOp28
 70
     1
102
RTVSPost2010Prop29
280
     1
102
RTVSPost2010PropOp29
 70
     1
102
RTVSPost2010Prop30
280
     1
102
RTVSPost2010PropOp30
 70
     1
102
RTVSPost2010Prop31
280
     0
102
RTVSPost2010PropOp31
 70
     1
102
RTVSPost2010Prop32
280
     0
102
RTVSPost2010PropOp32
 70
     1
102
RTVSPost2010Prop33
280
     0
102
RTVSPost2010PropOp33
 70
     1
102
RTVSPost2010Prop34
280
     0
102
RTVSPost2010PropOp34
 70
     1
102
RTVSPost2010Prop35
280
     0
102
RTVSPost2010PropOp35
 70
     1
102
RTVSPost2010Prop36
280
     0
102
RTVSPost2010PropOp36
 70
     1
102
RTVSPost2010Prop37
 90
       50
102
RTVSPost2010PropOp37
 70
     1
102
RTVSPost2010Prop38
140
0.0
102
RTVSPost2010PropOp38
 70
     1
102
RTVSPost2010Prop39
140
1.0
102
RTVSPost2010PropOp39
 70
     1
102
RTVSPost2010Prop40
 90
        0
102
RTVSPost2010PropOp40
 70
     1
102
RTVSPost2010Prop41ColorIndex
 90
       18
102
RTVSPost2010Prop41ColorRGB
 90
        0
102
RTVSPost2010PropOp41
 70
     1
102
RTVSPost2010Prop42
 90
       50
102
RTVSPost2010PropOp42
 70
     1
102
RTVSPost2010Prop43
 90
        3
102
RTVSPost2010PropOp43
 70
     1
102
RTVSPost2010Prop44ColorIndex
 90
        5
102
RTVSPost2010Prop44ColorRGB
 90
      255
102
RTVSPost2010PropOp44
 70
     1
102
RTVSPost2010Prop45
280
     0
102
RTVSPost2010PropOp45
 70
     1
102
RTVSPost2010Prop46
 90
       50
102
RTVSPost2010PropOp46
 70
     1
102
RTVSPost2010Prop47
 90
       50
102
RTVSPost2010PropOp47
 70
     1
102
RTVSPost2010Prop48
 90
       50
102
RTVSPost2010PropOp48
 70
     1
102
RTVSPost2010Prop49
280
     0
102
RTVSPost2010PropOp49
 70
     1
102
RTVSPost2010Prop50
 90
       50
102
RTVSPost2010PropOp50
 70
     1
102
RTVSPost2010Prop51ColorIndex
 90
      256
102
RTVSPost2010Prop51ColorRGB
 90
-16777216
102
RTVSPost2010PropOp51
 70
     0
102
RTVSPost2010Prop52
140
1.0
102
RTVSPost2010PropOp52
 70
     0
102
RTVSPost2010Prop53
 90
        2
102
RTVSPost2010PropOp53
 70
     1
102
RTVSPost2010Prop54
  1
strokes_ogs.tif
102
RTVSPost2010PropOp54
 70
     1
102
RTVSPost2010Prop55
280
     0
102
RTVSPost2010PropOp55
 70
     1
102
RTVSPost2010Prop56
140
1.0
102
RTVSPost2010PropOp56
 70
     1
102
RTVSPost2010Prop57
140
1.0
102
RTVSPost2010PropOp57
 70
     1
  0
XRECORD
  5
E4
102
{ACAD_REACTORS
330
E3
102
}
330
E3
100
AcDbXrecord
280
     1
102
RTVSPropertyOp0
 70
     1
102
RTVSPropertyOp1
 70
     1
102
RTVSPropertyOp2
 70
     1
102
RTVSPropertyOp3
 70
     1
102
RTVSPropertyOp4
 70
     1
102
RTVSPropertyOp5
 70
     1
102
RTVSPropertyOp6
 70
     1
102
RTVSPropertyOp7
 70
     1
102
RTVSPropertyOp8
 70
     1
102
RTVSPropertyOp9
 70
     1
102
RTVSPropertyOp10
 70
     1
102
RTVSPropertyOp11
 70
     1
102
RTVSPropertyOp12
 70
     1
102
RTVSPropertyOp13
 70
     1
102
RTVSPropertyOp14
 70
     1
102
RTVSPropertyOp15
 70
     1
102
RTVSPropertyOp16
 70
     1
102
RTVSPropertyOp17
 70
     1
102
RTVSPropertyOp18
 70
     1
102
RTVSPropertyOp19
 70
     1
102
RTVSPropertyOp20
 70
     1
102
RTVSPropertyOp21
 70
     1
102
RTVSPropertyOp22
 70
     1
102
RTVSPropertyOp23
 70
     1
102
RTVSPropertyOp24
 70
     1
102
RTVSPropertyOp25
 70
     1
102
RTVSPropertyOp26
 70
     1
102
RTVSPropertyOp27
 70
     1
102
RTVSPropertyOp28
 70
     1
102
RTVSPropertyOp29
 70
     1
102
RTVSPropertyOp30
 70
     1
102
RTVSPropertyOp31
 70
     1
102
RTVSPropertyOp32
 70
     1
102
RTVSPropertyOp33
 70
     1
102
RTVSPropertyOp34
 70
     1
102
RTVSPropertyOp35
 70
     1
102
RTVSPropertyOp36
 70
     1
102
RTVSPropertyOp37
 70
     1
102
RTVSPropertyOp38
 70
     1
102
RTVSPropertyOp39
 70
     1
102
RTVSPropertyOp40
 70
     1
102
RTVSPropertyOp41
 70
     1
102
RTVSPropertyOp42
 70
     1
102
RTVSPropertyOp43
 70
     1
102
RTVSPropertyOp44
 70
     1
102
RTVSPropertyOp45
 70
     1
102
RTVSPropertyOp46
 70
     1
102
RTVSPropertyOp47
 70
     1
102
RTVSPropertyOp48
 70
     1
102
RTVSPropertyOp49
 70
     1
102
RTVSPropertyOp50
 70
     1
102
RTVSPropertyOp51
 70
     0
102
RTVSPropertyOp52
 70
     0
102
RTVSPropertyOp53
 70
     1
102
RTVSPropertyOp54
 70
     1
102
RTVSPropertyOp55
 70
     1
102
RTVSPropertyOp56
 70
     1
102
RTVSPropertyOp57
 70
     1
102
RTVSPost2010Prop28
280
     0
102
RTVSPost2010PropOp28
 70
     1
102
RTVSPost2010Prop29
280
     1
102
RTVSPost2010PropOp29
 70
     1
102
RTVSPost2010Prop30
280
     1
102
RTVSPost2010PropOp30
 70
     1
102
RTVSPost2010Prop31
280
     0
102
RTVSPost2010PropOp31
 70
     1
102
RTVSPost2010Prop32
280
     0
102
RTVSPost2010PropOp32
 70
     1
102
RTVSPost2010Prop33
280
     0
102
RTVSPost2010PropOp33
 70
     1
102
RTVSPost2010Prop34
280
     0
102
RTVSPost2010PropOp34
 70
     1
102
RTVSPost2010Prop35
280
     0
102
RTVSPost2010PropOp35
 70
     1
102
RTVSPost2010Prop36
280
     0
102
RTVSPost2010PropOp36
 70
     1
102
RTVSPost2010Prop37
 90
       50
102
RTVSPost2010PropOp37
 70
     1
102
RTVSPost2010Prop38
140
0.0
102
RTVSPost2010PropOp38
 70
     1
102
RTVSPost2010Prop39
140
1.0
102
RTVSPost2010PropOp39
 70
     1
102
RTVSPost2010Prop40
 90
        0
102
RTVSPost2010PropOp40
 70
     1
102
RTVSPost2010Prop41ColorIndex
 90
       18
102
RTVSPost2010Prop41ColorRGB
 90
        0
102
RTVSPost2010PropOp41
 70
     1
102
RTVSPost2010Prop42
 90
       50
102
RTVSPost2010PropOp42
 70
     1
102
RTVSPost2010Prop43
 90
        3
102
RTVSPost2010PropOp43
 70
     1
102
RTVSPost2010Prop44ColorIndex
 90
        5
102
RTVSPost2010Prop44ColorRGB
 90
      255
102
RTVSPost2010PropOp44
 70
     1
102
RTVSPost2010Prop45
280
     0
102
RTVSPost2010PropOp45
 70
     1
102
RTVSPost2010Prop46
 90
       50
102
RTVSPost2010PropOp46
 70
     1
102
RTVSPost2010Prop47
 90
       50
102
RTVSPost2010PropOp47
 70
     1
102
RTVSPost2010Prop48
 90
       50
102
RTVSPost2010PropOp48
 70
     1
102
RTVSPost2010Prop49
280
     0
102
RTVSPost2010PropOp49
 70
     1
102
RTVSPost2010Prop50
 90
       50
102
RTVSPost2010PropOp50
 70
     1
102
RTVSPost2010Prop51ColorIndex
 90
      256
102
RTVSPost2010Prop51ColorRGB
 90
-16777216
102
RTVSPost2010PropOp51
 70
     0
102
RTVSPost2010Prop52
140
1.0
102
RTVSPost2010PropOp52
 70
     0
102
RTVSPost2010Prop53
 90
        2
102
RTVSPost2010PropOp53
 70
     1
102
RTVSPost2010Prop54
  1
strokes_ogs.tif
102
RTVSPost2010PropOp54
 70
     1
102
RTVSPost2010Prop55
280
     0
102
RTVSPost2010PropOp55
 70
     1
102
RTVSPost2010Prop56
140
1.0
102
RTVSPost2010PropOp56
 70
     1
102
RTVSPost2010Prop57
140
1.0
102
RTVSPost2010PropOp57
 70
     1
  0
ENDSEC
  0
EOF
