  0
SECTION
  2
HEADER
  9
$ACADVER
  1
AC1021
  9
$ACADMAINTVER
 70
    25
  9
$DWGCODEPAGE
  3
ANSI_1252
  9
$INSBASE
 10
0.0
 20
0.0
 30
0.0
  9
$EXTMIN
 10
1.000000000000000E+20
 20
1.000000000000000E+20
 30
1.000000000000000E+20
  9
$EXTMAX
 10
-1.000000000000000E+20
 20
-1.000000000000000E+20
 30
-1.000000000000000E+20
  9
$LIMMIN
 10
0.0
 20
0.0
  9
$LIMMAX
 10
12.0
 20
9.0
  9
$ORTHOMODE
 70
     0
  9
$REGENMODE
 70
     1
  9
$FILLMODE
 70
     1
  9
$QTEXTMODE
 70
     0
  9
$MIRRTEXT
 70
     1
  9
$LTSCALE
 40
1.0
  9
$ATTMODE
 70
     1
  9
$TEXTSIZE
 40
0.2
  9
$TRACEWID
 40
0.05
  9
$TEXTSTYLE
  7
Standard
  9
$CLAYER
  8
0
  9
$CELTYPE
  6
ByLayer
  9
$CECOLOR
 62
   256
  9
$CELTSCALE
 40
1.0
  9
$DISPSILH
 70
     0
  9
$DIMSCALE
 40
1.0
  9
$DIMASZ
 40
0.18
  9
$DIMEXO
 40
0.0625
  9
$DIMDLI
 40
0.38
  9
$DIMRND
 40
0.0
  9
$DIMDLE
 40
0.0
  9
$DIMEXE
 40
0.18
  9
$DIMTP
 40
0.0
  9
$DIMTM
 40
0.0
  9
$DIMTXT
 40
0.18
  9
$DIMCEN
 40
0.09
  9
$DIMTSZ
 40
0.0
  9
$DIMTOL
 70
     0
  9
$DIMLIM
 70
     0
  9
$DIMTIH
 70
     1
  9
$DIMTOH
 70
     1
  9
$DIMSE1
 70
     0
  9
$DIMSE2
 70
     0
  9
$DIMTAD
 70
     0
  9
$DIMZIN
 70
     0
  9
$DIMBLK
  1

  9
$DIMASO
 70
     1
  9
$DIMSHO
 70
     1
  9
$DIMPOST
  1

  9
$DIMAPOST
  1

  9
$DIMALT
 70
     0
  9
$DIMALTD
 70
     2
  9
$DIMALTF
 40
25.4
  9
$DIMLFAC
 40
1.0
  9
$DIMTOFL
 70
     0
  9
$DIMTVP
 40
0.0
  9
$DIMTIX
 70
     0
  9
$DIMSOXD
 70
     0
  9
$DIMSAH
 70
     0
  9
$DIMBLK1
  1

  9
$DIMBLK2
  1

  9
$DIMSTYLE
  2
STANDARD_ACAD
  9
$DIMCLRD
 70
     0
  9
$DIMCLRE
 70
     0
  9
$DIMCLRT
 70
     0
  9
$DIMTFAC
 40
1.0
  9
$DIMGAP
 40
0.09
  9
$DIMJUST
 70
     0
  9
$DIMSD1
 70
     0
  9
$DIMSD2
 70
     0
  9
$DIMTOLJ
 70
     1
  9
$DIMTZIN
 70
     0
  9
$DIMALTZ
 70
     0
  9
$DIMALTTZ
 70
     0
  9
$DIMUPT
 70
     0
  9
$DIMDEC
 70
     4
  9
$DIMTDEC
 70
     4
  9
$DIMALTU
 70
     2
  9
$DIMALTTD
 70
     2
  9
$DIMTXSTY
  7
Standard
  9
$DIMAUNIT
 70
     0
  9
$DIMADEC
 70
     0
  9
$DIMALTRND
 40
0.0
  9
$DIMAZIN
 70
     0
  9
$DIMDSEP
 70
    46
  9
$DIMATFIT
 70
     3
  9
$DIMFRAC
 70
     0
  9
$DIMLDRBLK
  1

  9
$DIMLUNIT
 70
     2
  9
$DIMLWD
 70
    -2
  9
$DIMLWE
 70
    -2
  9
$DIMTMOVE
 70
     2
  9
$DIMFXL
 40
1.0
  9
$DIMFXLON
 70
     0
  9
$DIMJOGANG
 40
0.7853981633974483
  9
$DIMTFILL
 70
     0
  9
$DIMTFILLCLR
 70
     0
  9
$DIMARCSYM
 70
     0
  9
$DIMLTYPE
  6

  9
$DIMLTEX1
  6

  9
$DIMLTEX2
  6

  9
$LUNITS
 70
     2
  9
$LUPREC
 70
     3
  9
$SKETCHINC
 40
0.1
  9
$FILLETRAD
 40
0.5
  9
$AUNITS
 70
     0
  9
$AUPREC
 70
     0
  9
$MENU
  1
.
  9
$ELEVATION
 40
0.0
  9
$PELEVATION
 40
0.0
  9
$THICKNESS
 40
0.0
  9
$LIMCHECK
 70
     0
  9
$CHAMFERA
 40
0.0
  9
$CHAMFERB
 40
0.0
  9
$CHAMFERC
 40
0.0
  9
$CHAMFERD
 40
0.0
  9
$SKPOLY
 70
     0
  9
$TDCREATE
 40
2459976.643610891
  9
$TDUCREATE
 40
2459976.851944224
  9
$TDUPDATE
 40
2459976.643633553
  9
$TDUUPDATE
 40
2459976.851966887
  9
$TDINDWG
 40
0.0000000116
  9
$TDUSRTIMER
 40
0.0000000116
  9
$USRTIMER
 70
     1
  9
$ANGBASE
 50
0.0
  9
$ANGDIR
 70
     0
  9
$PDMODE
 70
     0
  9
$PDSIZE
 40
0.0
  9
$PLINEWID
 40
0.0
  9
$SPLFRAME
 70
     0
  9
$SPLINETYPE
 70
     6
  9
$SPLINESEGS
 70
     8
  9
$HANDSEED
  5
F3
  9
$SURFTAB1
 70
     6
  9
$SURFTAB2
 70
     6
  9
$SURFTYPE
 70
     6
  9
$SURFU
 70
     6
  9
$SURFV
 70
     6
  9
$UCSBASE
  2

  9
$UCSNAME
  2

  9
$UCSORG
 10
0.0
 20
0.0
 30
0.0
  9
$UCSXDIR
 10
1.0
 20
0.0
 30
0.0
  9
$UCSYDIR
 10
0.0
 20
1.0
 30
0.0
  9
$UCSORTHOREF
  2

  9
$UCSORTHOVIEW
 70
     0
  9
$UCSORGTOP
 10
0.0
 20
0.0
 30
0.0
  9
$UCSORGBOTTOM
 10
0.0
 20
0.0
 30
0.0
  9
$UCSORGLEFT
 10
0.0
 20
0.0
 30
0.0
  9
$UCSORGRIGHT
 10
0.0
 20
0.0
 30
0.0
  9
$UCSORGFRONT
 10
0.0
 20
0.0
 30
0.0
  9
$UCSORGBACK
 10
0.0
 20
0.0
 30
0.0
  9
$PUCSBASE
  2

  9
$PUCSNAME
  2

  9
$PUCSORG
 10
0.0
 20
0.0
 30
0.0
  9
$PUCSXDIR
 10
1.0
 20
0.0
 30
0.0
  9
$PUCSYDIR
 10
0.0
 20
1.0
 30
0.0
  9
$PUCSORTHOREF
  2

  9
$PUCSORTHOVIEW
 70
     0
  9
$PUCSORGTOP
 10
0.0
 20
0.0
 30
0.0
  9
$PUCSORGBOTTOM
 10
0.0
 20
0.0
 30
0.0
  9
$PUCSORGLEFT
 10
0.0
 20
0.0
 30
0.0
  9
$PUCSORGRIGHT
 10
0.0
 20
0.0
 30
0.0
  9
$PUCSORGFRONT
 10
0.0
 20
0.0
 30
0.0
  9
$PUCSORGBACK
 10
0.0
 20
0.0
 30
0.0
  9
$USERI1
 70
     0
  9
$USERI2
 70
     0
  9
$USERI3
 70
     0
  9
$USERI4
 70
     0
  9
$USERI5
 70
     0
  9
$USERR1
 40
0.0
  9
$USERR2
 40
0.0
  9
$USERR3
 40
0.0
  9
$USERR4
 40
0.0
  9
$USERR5
 40
0.0
  9
$WORLDVIEW
 70
     1
  9
$SHADEDGE
 70
     3
  9
$SHADEDIF
 70
    70
  9
$TILEMODE
 70
     1
  9
$MAXACTVP
 70
    64
  9
$PINSBASE
 10
0.0
 20
0.0
 30
0.0
  9
$PLIMCHECK
 70
     0
  9
$PEXTMIN
 10
1.000000000000000E+20
 20
1.000000000000000E+20
 30
1.000000000000000E+20
  9
$PEXTMAX
 10
-1.000000000000000E+20
 20
-1.000000000000000E+20
 30
-1.000000000000000E+20
  9
$PLIMMIN
 10
0.0
 20
0.0
  9
$PLIMMAX
 10
12.0
 20
9.0
  9
$UNITMODE
 70
     0
  9
$VISRETAIN
 70
     1
  9
$PLINEGEN
 70
     0
  9
$PSLTSCALE
 70
     1
  9
$TREEDEPTH
 70
  3020
  9
$CMLSTYLE
  2
Standard
  9
$CMLJUST
 70
     0
  9
$CMLSCALE
 40
1.0
  9
$PROXYGRAPHICS
 70
     1
  9
$MEASUREMENT
 70
     0
  9
$CELWEIGHT
370
    -1
  9
$ENDCAPS
280
     0
  9
$JOINSTYLE
280
     0
  9
$LWDISPLAY
290
     0
  9
$INSUNITS
 70
     1
  9
$HYPERLINKBASE
  1

  9
$STYLESHEET
  1

  9
$XEDIT
290
     1
  9
$CEPSNTYPE
380
     0
  9
$PSTYLEMODE
290
     1
  9
$FINGERPRINTGUID
  2
{35d9c966-c7ea-46e7-be77-d07cd956c697}
  9
$VERSIONGUID
  2
{FAEB1C32-E019-11D5-929B-00C0DF256EC4}
  9
$EXTNAMES
290
     1
  9
$PSVPSCALE
 40
0.0
  9
$OLESTARTUP
290
     0
  9
$SORTENTS
280
   127
  9
$INDEXCTL
280
     0
  9
$HIDETEXT
280
     1
  9
$XCLIPFRAME
290
     0
  9
$HALOGAP
280
     0
  9
$OBSCOLOR
 70
   257
  9
$OBSLTYPE
280
     0
  9
$INTERSECTIONDISPLAY
280
     0
  9
$INTERSECTIONCOLOR
 70
   257
  9
$DIMASSOC
280
     2
  9
$PROJECTNAME
  1

  9
$CAMERADISPLAY
290
     0
  9
$LENSLENGTH
 40
50.0
  9
$CAMERAHEIGHT
 40
0.0
  9
$STEPSPERSEC
 40
2.0
  9
$STEPSIZE
 40
6.0
  9
$3DDWFPREC
 40
2.0
  9
$PSOLWIDTH
 40
0.25
  9
$PSOLHEIGHT
 40
4.0
  9
$LOFTANG1
 40
1.570796326794897
  9
$LOFTANG2
 40
1.570796326794897
  9
$LOFTMAG1
 40
0.0
  9
$LOFTMAG2
 40
0.0
  9
$LOFTPARAM
 70
     7
  9
$LOFTNORMALS
280
     1
  9
$LATITUDE
 40
37.795
  9
$LONGITUDE
 40
-122.394
  9
$NORTHDIRECTION
 40
0.0
  9
$TIMEZONE
 70
 -8000
  9
$LIGHTGLYPHDISPLAY
280
     1
  9
$TILEMODELIGHTSYNCH
280
     1
  9
$CMATERIAL
347
44
  9
$SOLIDHIST
280
     0
  9
$SHOWHIST
280
     1
  9
$DWFFRAME
280
     2
  9
$DGNFRAME
280
     2
  9
$REALWORLDSCALE
290
     1
  9
$INTERFERECOLOR
 62
   256
  9
$CSHADOW
280
     0
  9
$SHADOWPLANELOCATION
 40
0.0
  0
ENDSEC
  0
SECTION
  2
CLASSES
  0
CLASS
  1
ACDBDICTIONARYWDFLT
  2
AcDbDictionaryWithDefault
  3
ObjectDBX Classes
 90
        0
 91
        3
280
     0
281
     0
  0
CLASS
  1
VISUALSTYLE
  2
AcDbVisualStyle
  3
ObjectDBX Classes
 90
     4095
 91
        3
280
     0
281
     0
  0
CLASS
  1
MATERIAL
  2
AcDbMaterial
  3
ObjectDBX Classes
 90
     1153
 91
        3
280
     0
281
     0
  0
CLASS
  1
SCALE
  2
AcDbScale
  3
ObjectDBX Classes
 90
     1153
 91
        3
280
     0
281
     0
  0
CLASS
  1
TABLESTYLE
  2
AcDbTableStyle
  3
ObjectDBX Classes
 90
     4095
 91
        3
280
     0
281
     0
  0
CLASS
  1
MLEADERSTYLE
  2
AcDbMLeaderStyle
  3
ACDB_MLEADERSTYLE_CLASS
 90
     4095
 91
        3
280
     0
281
     0
  0
CLASS
  1
SUN
  2
AcDbSun
  3
SCENEOE
 90
     1153
 91
        3
280
     0
281
     0
  0
CLASS
  1
DICTIONARYVAR
  2
AcDbDictionaryVar
  3
ObjectDBX Classes
 90
        0
 91
        3
280
     0
281
     0
  0
CLASS
  1
CELLSTYLEMAP
  2
AcDbCellStyleMap
  3
ObjectDBX Classes
 90
     1152
 91
        3
280
     0
281
     0
  0
ENDSEC
  0
SECTION
  2
TABLES
  0
TABLE
  2
VPORT
  5
8
330
0
100
AcDbSymbolTable
 70
     1
  0
VPORT
  5
29
330
8
100
AcDbSymbolTableRecord
100
AcDbViewportTableRecord
  2
*Active
 70
     0
 10
0.0
 20
0.0
 11
1.0
 21
1.0
 12
10.42990654205607
 22
4.5
 13
0.0
 23
0.0
 14
0.5
 24
0.5
 15
0.5
 25
0.5
 16
0.0
 26
0.0
 36
1.0
 17
0.0
 27
0.0
 37
0.0
 40
9.0
 41
1.972972972850329
 42
50.0
 43
0.0
 44
0.0
 50
0.0
 51
0.0
 71
     0
 72
   100
 73
     1
 74
     3
 75
     0
 76
     0
 77
     0
 78
     0
281
     0
 65
     1
110
0.0
120
0.0
130
0.0
111
1.0
121
0.0
131
0.0
112
0.0
122
1.0
132
0.0
 79
     0
146
0.0
348
2F
 60
     3
 61
     5
292
     1
282
     1
141
0.0
142
0.0
 63
   250
361
6D
  0
ENDTAB
  0
TABLE
  2
LTYPE
  5
5
330
0
100
AcDbSymbolTable
 70
     1
  0
LTYPE
  5
14
330
5
100
AcDbSymbolTableRecord
100
AcDbLinetypeTableRecord
  2
ByBlock
 70
     0
  3

 72
    65
 73
     0
 40
0.0
  0
LTYPE
  5
15
330
5
100
AcDbSymbolTableRecord
100
AcDbLinetypeTableRecord
  2
ByLayer
 70
     0
  3

 72
    65
 73
     0
 40
0.0
  0
LTYPE
  5
16
330
5
100
AcDbSymbolTableRecord
100
AcDbLinetypeTableRecord
  2
Continuous
 70
     0
  3
Solid line
 72
    65
 73
     0
 40
0.0
  0
ENDTAB
  0
TABLE
  2
LAYER
  5
2
330
0
100
AcDbSymbolTable
 70
     1
  0
LAYER
  5
10
330
2
100
AcDbSymbolTableRecord
100
AcDbLayerTableRecord
  2
0
 70
     0
 62
    18
420
        0
  6
Continuous
370
    -3
390
F
347
46
  0
ENDTAB
  0
TABLE
  2
STYLE
  5
3
330
0
100
AcDbSymbolTable
 70
     1
  0
STYLE
  5
11
330
3
100
AcDbSymbolTableRecord
100
AcDbTextStyleTableRecord
  2
Standard
 70
     0
 40
0.0
 41
1.0
 50
0.0
 71
     0
 42
0.2
  3
txt
  4

  0
ENDTAB
  0
TABLE
  2
VIEW
  5
6
330
0
100
AcDbSymbolTable
 70
     0
  0
ENDTAB
  0
TABLE
  2
UCS
  5
7
330
0
100
AcDbSymbolTable
 70
     0
  0
ENDTAB
  0
TABLE
  2
APPID
  5
9
330
0
100
AcDbSymbolTable
 70
     2
  0
APPID
  5
12
330
9
100
AcDbSymbolTableRecord
100
AcDbRegAppTableRecord
  2
ACAD
 70
     0
  0
APPID
  5
EB
330
9
100
AcDbSymbolTableRecord
100
AcDbRegAppTableRecord
  2
ACAD_MLEADERVER
 70
     0
  0
ENDTAB
  0
TABLE
  2
DIMSTYLE
  5
A
330
0
100
AcDbSymbolTable
 70
     1
100
AcDbDimStyleTable
  0
DIMSTYLE
105
27
330
A
100
AcDbSymbolTableRecord
100
AcDbDimStyleTableRecord
  2
STANDARD_ACAD
 70
     0
178
     0
340
11
  0
ENDTAB
  0
TABLE
  2
BLOCK_RECORD
  5
1
330
0
100
AcDbSymbolTable
 70
     1
  0
BLOCK_RECORD
  5
1F
330
1
100
AcDbSymbolTableRecord
100
AcDbBlockTableRecord
  2
*Model_Space
340
22
 70
     0
280
     1
281
     0
  0
BLOCK_RECORD
  5
1B
330
1
100
AcDbSymbolTableRecord
100
AcDbBlockTableRecord
  2
*Paper_Space
340
1E
 70
     0
280
     1
281
     0
  0
BLOCK_RECORD
  5
23
330
1
100
AcDbSymbolTableRecord
100
AcDbBlockTableRecord
  2
*Paper_Space0
340
26
 70
     0
280
     1
281
     0
  0
ENDTAB
  0
ENDSEC
  0
SECTION
  2
BLOCKS
  0
BLOCK
  5
20
330
1F
100
AcDbEntity
  8
0
100
AcDbBlockBegin
  2
*Model_Space
 70
     0
 10
0.0
 20
0.0
 30
0.0
  3
*Model_Space
  1

  0
ENDBLK
  5
21
330
1F
100
AcDbEntity
  8
0
100
AcDbBlockEnd
  0
BLOCK
  5
1C
330
1B
100
AcDbEntity
 67
     1
  8
0
100
AcDbBlockBegin
  2
*Paper_Space
 70
     0
 10
0.0
 20
0.0
 30
0.0
  3
*Paper_Space
  1

  0
ENDBLK
  5
1D
330
1B
100
AcDbEntity
 67
     1
  8
0
100
AcDbBlockEnd
  0
BLOCK
  5
24
330
23
100
AcDbEntity
  8
0
100
AcDbBlockBegin
  2
*Paper_Space0
 70
     0
 10
0.0
 20
0.0
 30
0.0
  3
*Paper_Space0
  1

  0
ENDBLK
  5
25
330
23
100
AcDbEntity
  8
0
100
AcDbBlockEnd
  0
ENDSEC
  0
SECTION
  2
ENTITIES
  0
SPLINE
  5
6E
330
1F
100
AcDbEntity
  8
0
370
    -3
100
AcDbSpline
210
0.0
220
0.0
230
1.0
 70
    24
 71
     3
 72
     8
 73
     4
 74
     0
 42
0.000000001
 43
0.0000000001
 40
-0.0089217034037309
 40
-0.0089217034037309
 40
-0.0089217034037309
 40
-0.0089217034037309
 40
0.0
 40
0.0
 40
0.0
 40
0.0
 10
31.53418096093361
 20
12.29913851361439
 30
0.0
 10
31.53382174432734
 20
12.2962776949247
 30
0.0
 10
31.53346252776001
 20
12.29341687622859
 30
0.0
 10
31.53310331123159
 20
12.29055605752607
 30
0.0
  0
SPLINE
  5
6F
330
1F
100
AcDbEntity
  8
0
370
    -3
100
AcDbSpline
210
0.0
220
0.0
230
1.0
 70
     8
 71
     3
 72
     8
 73
     4
 74
     0
 42
0.000000001
 43
0.0000000001
 40
-0.0923931008146963
 40
-0.0923931008146963
 40
-0.0923931008146963
 40
-0.0923931008146963
 40
-0.0805144052146383
 40
-0.0805144052146383
 40
-0.0805144052146383
 40
-0.0805144052146383
 10
29.01784352854692
 20
12.58613785361986
 30
0.0
 10
29.01795460823236
 20
12.58716356796502
 30
0.0
 10
29.01793472665317
 20
12.58838026420233
 30
0.0
 10
29.01778320116564
 20
12.58978476580104
 30
0.0
  0
SPLINE
  5
70
330
1F
100
AcDbEntity
  8
0
370
    -3
100
AcDbSpline
210
0.0
220
0.0
230
1.0
 70
     8
 71
     5
 72
    12
 73
     6
 74
     0
 42
0.000000001
 43
0.0000000001
 40
-0.601451602673212
 40
-0.601451602673212
 40
-0.601451602673212
 40
-0.601451602673212
 40
-0.601451602673212
 40
-0.601451602673212
 40
0.0
 40
0.0
 40
0.0
 40
0.0
 40
0.0
 40
0.0
 10
24.79058730387212
 20
29.73052702896447
 30
0.0
 10
24.78995931035583
 20
29.73083922911388
 30
0.0
 10
24.78948926498288
 20
29.73107261967211
 30
0.0
 10
24.78917704821075
 20
29.73122745778227
 30
0.0
 10
24.78902161468527
 20
29.73130445672943
 30
0.0
 10
24.78902161468521
 20
29.73130445673121
 30
0.0
  0
POLYLINE
  5
71
330
1F
100
AcDbEntity
  8
0
100
AcDb2dPolyline
 66
     1
 10
0.0
 20
0.0
 30
0.0
  0
VERTEX
  5
72
330
71
100
AcDbEntity
  8
0
100
AcDbVertex
100
AcDb2dVertex
 10
-0.0000000000400782
 20
24.22475466274333
 30
0.0
  0
VERTEX
  5
73
330
71
100
AcDbEntity
  8
0
100
AcDbVertex
100
AcDb2dVertex
 10
0.0000000000794493
 20
19.48610028701388
 30
0.0
  0
SEQEND
  5
74
330
71
100
AcDbEntity
  8
0
  0
SPLINE
  5
75
330
1F
100
AcDbEntity
  8
0
370
    -3
100
AcDbSpline
210
0.0
220
0.0
230
1.0
 70
     8
 71
     3
 72
    10
 73
     6
 74
     0
 42
0.000000001
 43
0.0000000001
 40
0.0
 40
0.0
 40
0.0
 40
0.0
 40
1.0
 40
2.0
 40
3.0
 40
3.0
 40
3.0
 40
3.0
 10
4.50000000226947
 20
21.88911079471368
 30
0.0
 10
3.999394330236279
 20
21.89072453081111
 30
0.0
 10
2.997984098414065
 20
21.88702942338181
 30
0.0
 10
1.496822129667187
 20
21.85195869711718
 30
0.0
 10
0.495662516935078
 20
21.80460169515319
 30
0.0
 10
-0.0000000000044516
 20
21.73194622481358
 30
0.0
  0
SPLINE
  5
76
330
1F
100
AcDbEntity
  8
0
370
    -3
100
AcDbSpline
210
0.0
220
0.0
230
1.0
 70
    12
 71
     3
 72
    26
 73
    22
 74
     0
 42
0.000000001
 43
0.0000000001
 40
8.404948755232327
 40
8.404948755232327
 40
8.404948755232327
 40
8.404948755232327
 40
14.59762225717554
 40
14.59762225717554
 40
14.59762225717554
 40
15.59762225717554
 40
15.59762225717554
 40
15.59762225717554
 40
16.67473266539477
 40
16.67473266539477
 40
16.67473266539477
 40
17.67473266539477
 40
17.67473266539477
 40
17.67473266539477
 40
23.51091638766965
 40
23.51091638766965
 40
23.51091638766965
 40
24.51091638766965
 40
24.51091638766965
 40
24.51091638766965
 40
34.72170971926921
 40
34.72170971926921
 40
34.72170971926921
 40
34.72170971926921
 10
9.181579239743343
 20
6.26842326453185
 30
0.0
 41
0.8536521542937077
 10
9.627368036222258
 20
4.297160504567596
 30
0.0
 41
0.8536521542937076
 10
10.07315683270117
 20
2.325897744603343
 30
0.0
 41
0.8536521542937076
 10
10.51894562918008
 20
0.3546349846390884
 30
0.0
 41
0.8536521542937077
 10
10.53125502686527
 20
0.3002032504948771
 30
0.0
 41
0.8536521542937077
 10
10.49363166900123
 20
0.2521936913035461
 30
0.0
 41
0.8536521542937077
 10
10.43782544216839
 20
0.2521936913035461
 30
0.0
 41
0.8536521542937077
 10
10.07878863942864
 20
0.2521936913035461
 30
0.0
 41
0.8536521542937077
 10
9.719751836688902
 20
0.2521936913035461
 30
0.0
 41
0.8536521542937077
 10
9.360715033949155
 20
0.2521936913035461
 30
0.0
 41
0.8536521542937077
 10
9.309958530669714
 20
0.2521936913035461
 30
0.0
 41
0.8536521542937077
 10
9.2755902283113
 20
0.2852028718667342
 30
0.0
 41
0.8536521542937077
 10
9.259624567721227
 20
0.3359806150434127
 30
0.0
 41
0.8536521542937077
 10
8.698826646976435
 20
2.119561860112551
 30
0.0
 41
0.8536521542937078
 10
8.138028726231646
 20
3.903143105181687
 30
0.0
 41
0.8536521542937078
 10
7.57723080548686
 20
5.686724350250824
 30
0.0
 41
0.8536521542937077
 10
7.514667383948178
 20
5.88570323579225
 30
0.0
 41
0.8536521542937077
 10
7.406856618808875
 20
6.036478161115966
 30
0.0
 41
0.8536521542937077
 10
7.220121206068029
 20
6.038922452147592
 30
0.0
 41
0.8536521542937077
 10
4.813414137378687
 20
6.070425274335432
 30
0.0
 41
0.8536521542937077
 10
2.406707068689345
 20
6.101928096523274
 30
0.0
 41
0.8536521542937077
 10
0.0000000000000025
 20
6.148240105577337
 30
0.0
 41
0.8536521542937077
  0
SPLINE
  5
77
330
1F
100
AcDbEntity
  8
0
370
    -3
100
AcDbSpline
210
0.0
220
0.0
230
1.0
 70
    12
 71
     2
 72
    10
 73
     7
 74
     0
 42
0.000000001
 43
0.0000000001
 40
-5.609203971698638
 40
-5.609203971698638
 40
-5.609203971698638
 40
-0.0000000000000009
 40
-0.0000000000000009
 40
0.8056232170238729
 40
0.8056232170238729
 40
6.776836499515882
 40
6.776836499515882
 40
6.776836499515882
 10
3.890211143689484
 20
6.199161396135366
 30
0.0
 41
1.0
 10
5.873364226412676
 20
6.173202724326575
 30
0.0
 41
1.0
 10
7.856517309135867
 20
6.147244052517783
 30
0.0
 41
1.0
 10
8.17759642940241
 20
6.143041256688497
 30
0.0
 41
0.838950128494703
 10
8.308492242949562
 20
5.726735650935193
 30
0.0
 41
1.0
 10
9.16915149158779
 20
2.98946467111937
 30
0.0
 41
1.0
 10
10.02981074022602
 20
0.2521936913035464
 30
0.0
 41
1.0
  0
SPLINE
  5
78
330
1F
100
AcDbEntity
  8
0
370
    -3
100
AcDbSpline
210
0.0
220
0.0
230
1.0
 70
    12
 71
     3
 72
    11
 73
     7
 74
     0
 42
0.000000001
 43
0.0000000001
 40
0.4505244153681121
 40
0.4505244153681121
 40
0.4505244153681121
 40
0.4505244153681121
 40
0.7736022938330078
 40
0.7736022938330078
 40
0.7736022938330078
 40
3.973422881500241
 40
3.973422881500241
 40
3.973422881500241
 40
3.973422881500241
 10
7.085056957287879
 20
8.01209960523946
 30
0.0
 41
1.0
 10
7.118109055696063
 20
8.100888013616869
 30
0.0
 41
1.0
 10
7.128607703601471
 20
8.208427367255403
 30
0.0
 41
1.0
 10
7.111061712850709
 20
8.311231015647486
 30
0.0
 41
1.0
 10
6.931507278649237
 20
9.349646470951244
 30
0.0
 41
0.9999999999999999
 10
6.751952844447762
 20
10.388061926255
 30
0.0
 41
0.9999999999999999
 10
6.572398410246286
 20
11.42647738155875
 30
0.0
 41
1.0
  0
SPLINE
  5
79
330
1F
100
AcDbEntity
  8
0
370
    -3
100
AcDbSpline
210
0.0
220
0.0
230
1.0
 70
    12
 71
     2
 72
     8
 73
     5
 74
     0
 42
0.000000001
 43
0.0000000001
 40
1.088561778643552
 40
1.088561778643552
 40
1.088561778643552
 40
4.423606038729075
 40
4.423606038729075
 40
4.744796277491338
 40
4.744796277491338
 40
4.744796277491338
 10
7.284572922286319
 20
11.5834698026455
 30
0.0
 41
0.9999999999999898
 10
7.565231996624843
 20
9.96033889947655
 30
0.0
 41
0.9999999999999898
 10
7.845891070963366
 20
8.337207996307605
 30
0.0
 41
0.9999999999999898
 10
7.874017004112794
 20
8.174547760280484
 30
0.0
 41
0.9285192330009069
 10
7.827484238273782
 20
8.021564116482283
 30
0.0
 41
0.9584511653589414
  0
SPLINE
  5
7A
330
1F
100
AcDbEntity
  8
0
370
    -3
100
AcDbSpline
210
0.0
220
0.0
230
1.0
 70
     8
 71
     3
 72
    17
 73
    13
 74
     0
 42
0.000000001
 43
0.0000000001
 40
0.0
 40
0.0
 40
0.0
 40
0.0
 40
1.0
 40
2.0
 40
3.0
 40
4.0
 40
5.0
 40
6.0
 40
6.0
 40
6.0
 40
7.0
 40
8.0
 40
8.0
 40
8.0
 40
8.0
 10
9.445132866260208
 20
29.20745263689938
 30
0.0
 10
9.618245389426686
 20
29.08800159301693
 30
0.0
 10
9.931637536587314
 20
28.79940377803368
 30
0.0
 10
10.24810801203258
 20
28.24341271608942
 30
0.0
 10
10.35641326290276
 20
27.61546465385515
 30
0.0
 10
10.43162655548111
 20
26.98977906744197
 30
0.0
 10
10.47754565331963
 20
26.35939470814601
 30
0.0
 10
10.50093396828981
 20
25.93916712637449
 30
0.0
 10
10.51099999995983
 20
25.72887777711693
 30
0.0
 10
10.58650617110764
 20
24.16956281786569
 30
0.0
 10
10.73796350624838
 20
21.05095463021016
 30
0.0
 10
10.88958706014278
 20
17.93235442951011
 30
0.0
 10
10.9653195738966
 20
16.37305049633014
 30
0.0
  0
SPLINE
  5
7B
330
1F
100
AcDbEntity
  8
0
370
    -3
100
AcDbSpline
210
0.0
220
0.0
230
1.0
 70
     8
 71
     3
 72
    38
 73
    34
 74
     0
 42
0.000000001
 43
0.0000000001
 40
1.711448242005422
 40
1.711448242005422
 40
1.711448242005422
 40
1.711448242005422
 40
1.966520268048665
 40
1.991220334395795
 40
2.654960447394521
 40
2.949780412240653
 40
3.933040556431244
 40
3.982440689125504
 40
4.916300700623233
 40
5.309920935084055
 40
5.899560844815221
 40
6.626465704135599
 40
7.866081133199197
 40
7.943010473187142
 40
9.259555243595699
 40
9.832601421581776
 40
10.57610001400426
 40
10.81586156577376
 40
11.79912170996575
 40
11.86511462629968
 40
13.15412923708197
 40
13.76564199834931
 40
13.97542521760331
 40
13.97542521760331
 40
13.97542521760331
 40
14.97542521760331
 40
14.97542521760331
 40
14.97542521760331
 40
15.97542521760331
 40
16.97542521760331
 40
17.97542521760331
 40
18.97542521760331
 40
19.97542521760331
 40
19.97542521760331
 40
19.97542521760331
 40
19.97542521760331
 10
10.27584822295837
 20
12.34961175117808
 30
0.0
 10
10.28252086097451
 20
12.35853669725001
 30
0.0
 10
10.28983157277091
 20
12.36853113551005
 30
0.0
 10
10.31449011442757
 20
12.40224437809093
 30
0.0
 10
10.34020519468099
 20
12.43721097194167
 30
0.0
 10
10.39105779232415
 20
12.50629291305649
 30
0.0
 10
10.42589646374017
 20
12.55363281082571
 30
0.0
 10
10.47764374184027
 20
12.6242527187458
 30
0.0
 10
10.51396844624982
 20
12.67403716338603
 30
0.0
 10
10.5648894408262
 20
12.74410577515695
 30
0.0
 10
10.61058747836657
 20
12.80713773786331
 30
0.0
 10
10.67938656197956
 20
12.90242416210486
 30
0.0
 10
10.73489811171857
 20
12.97990651641296
 30
0.0
 10
10.80642845178471
 20
13.08031911443996
 30
0.0
 10
10.85982986937917
 20
13.15573753173595
 30
0.0
 10
10.93061301872599
 20
13.25664836118345
 30
0.0
 10
10.97211722685713
 20
13.31623228129246
 30
0.0
 10
11.02420251810279
 20
13.39142699806033
 30
0.0
 10
11.05807746550015
 20
13.44068541985365
 30
0.0
 10
11.1192818611345
 20
13.53029162381961
 30
0.0
 10
11.1705023728417
 20
13.60594690667102
 30
0.0
 10
11.22529831650233
 20
13.68806131655116
 30
0.0
 10
11.2466118566768
 20
13.72022000419864
 30
0.0
 10
11.25205554380162
 20
13.72844842110994
 30
0.0
 10
11.30199101683368
 20
13.80392849212608
 30
0.0
 10
11.15571339221409
 20
13.82585504050293
 30
0.0
 10
11.06526695538376
 20
13.82265587620056
 30
0.0
 10
10.32691666723491
 20
13.79653982379133
 30
0.0
 10
8.856527838195014
 20
13.64963762042913
 30
0.0
 10
6.644648920523908
 20
13.51625087786628
 30
0.0
 10
4.43096661343138
 20
13.42011204110265
 30
0.0
 10
2.215766232746326
 20
13.36771374984068
 30
0.0
 10
0.7386308256486767
 20
13.35658445119256
 30
0.0
 10
0.000059649267028
 20
13.35658445119256
 30
0.0
  0
SPLINE
  5
7C
330
1F
100
AcDbEntity
  8
0
370
    -3
100
AcDbSpline
210
0.0
220
0.0
230
1.0
 70
     8
 71
     3
 72
    12
 73
     8
 74
     0
 42
0.000000001
 43
0.0000000001
 40
0.0
 40
0.0
 40
0.0
 40
0.0
 40
1.0
 40
2.0
 40
3.0
 40
4.0
 40
5.0
 40
5.0
 40
5.0
 40
5.0
 10
8.97773720525624
 20
11.97386892758839
 30
0.0
 10
8.38499259988664
 20
11.83370831735856
 30
0.0
 10
7.198133489558965
 20
11.5593658101743
 30
0.0
 10
5.411489283752482
 20
11.17522573846453
 30
0.0
 10
3.619606154412794
 20
10.82000382092101
 30
0.0
 10
1.827784642097035
 20
10.45239222168729
 30
0.0
 10
0.6087780528192018
 20
10.36641347474721
 30
0.0
 10
0.0000000438971099
 20
10.36641347474721
 30
0.0
  0
SPLINE
  5
7D
330
1F
100
AcDbEntity
  8
0
370
    -3
100
AcDbSpline
210
0.0
220
0.0
230
1.0
 70
    28
 71
     2
 72
     6
 73
     3
 74
     0
 42
0.000000001
 43
0.0000000001
 40
2.658785690270951
 40
2.658785690270951
 40
2.658785690270951
 40
6.5560450360093
 40
6.5560450360093
 40
6.5560450360093
 10
7.940641000565908
 20
11.75580957308794
 30
0.0
 41
0.8536521542937077
 10
8.361466001130946
 20
9.894935861976103
 30
0.0
 41
0.8536521542937077
 10
8.782291001695983
 20
8.034062150864267
 30
0.0
 41
0.8536521542937077
  0
SPLINE
  5
7E
330
1F
100
AcDbEntity
  8
0
370
    -3
100
AcDbSpline
210
0.0
220
0.0
230
1.0
 70
     8
 71
     3
 72
    10
 73
     6
 74
     0
 42
0.000000001
 43
0.0000000001
 40
0.0
 40
0.0
 40
0.0
 40
0.0
 40
1.0
 40
2.0
 40
3.0
 40
3.0
 40
3.0
 40
3.0
 10
-4.50000000226947
 20
21.88911079471368
 30
0.0
 10
-3.999394330236279
 20
21.89072453081111
 30
0.0
 10
-2.997984098414065
 20
21.88702942338181
 30
0.0
 10
-1.496822129667187
 20
21.85195869711718
 30
0.0
 10
-0.495662516935078
 20
21.80460169515319
 30
0.0
 10
0.0000000000044516
 20
21.73194622481358
 30
0.0
  0
SPLINE
  5
7F
330
1F
100
AcDbEntity
  8
0
370
    -3
100
AcDbSpline
210
0.0
220
0.0
230
1.0
 70
    12
 71
     3
 72
    26
 73
    22
 74
     0
 42
0.000000001
 43
0.0000000001
 40
8.404948755232327
 40
8.404948755232327
 40
8.404948755232327
 40
8.404948755232327
 40
14.59762225717554
 40
14.59762225717554
 40
14.59762225717554
 40
15.59762225717554
 40
15.59762225717554
 40
15.59762225717554
 40
16.67473266539477
 40
16.67473266539477
 40
16.67473266539477
 40
17.67473266539477
 40
17.67473266539477
 40
17.67473266539477
 40
23.51091638766965
 40
23.51091638766965
 40
23.51091638766965
 40
24.51091638766965
 40
24.51091638766965
 40
24.51091638766965
 40
34.72170971926921
 40
34.72170971926921
 40
34.72170971926921
 40
34.72170971926921
 10
-9.181579239743343
 20
6.26842326453185
 30
0.0
 41
0.8536521542937077
 10
-9.627368036222258
 20
4.297160504567596
 30
0.0
 41
0.8536521542937076
 10
-10.07315683270117
 20
2.325897744603343
 30
0.0
 41
0.8536521542937076
 10
-10.51894562918008
 20
0.3546349846390884
 30
0.0
 41
0.8536521542937077
 10
-10.53125502686527
 20
0.3002032504948771
 30
0.0
 41
0.8536521542937077
 10
-10.49363166900123
 20
0.2521936913035461
 30
0.0
 41
0.8536521542937077
 10
-10.43782544216839
 20
0.2521936913035461
 30
0.0
 41
0.8536521542937077
 10
-10.07878863942864
 20
0.2521936913035461
 30
0.0
 41
0.8536521542937077
 10
-9.719751836688902
 20
0.2521936913035461
 30
0.0
 41
0.8536521542937077
 10
-9.360715033949155
 20
0.2521936913035461
 30
0.0
 41
0.8536521542937077
 10
-9.309958530669714
 20
0.2521936913035461
 30
0.0
 41
0.8536521542937077
 10
-9.2755902283113
 20
0.2852028718667342
 30
0.0
 41
0.8536521542937077
 10
-9.259624567721227
 20
0.3359806150434127
 30
0.0
 41
0.8536521542937077
 10
-8.698826646976435
 20
2.119561860112551
 30
0.0
 41
0.8536521542937078
 10
-8.138028726231646
 20
3.903143105181687
 30
0.0
 41
0.8536521542937078
 10
-7.57723080548686
 20
5.686724350250824
 30
0.0
 41
0.8536521542937077
 10
-7.514667383948178
 20
5.88570323579225
 30
0.0
 41
0.8536521542937077
 10
-7.406856618808875
 20
6.036478161115966
 30
0.0
 41
0.8536521542937077
 10
-7.220121206068029
 20
6.038922452147592
 30
0.0
 41
0.8536521542937077
 10
-4.813414137378687
 20
6.070425274335432
 30
0.0
 41
0.8536521542937077
 10
-2.406707068689345
 20
6.101928096523274
 30
0.0
 41
0.8536521542937077
 10
-0.0000000000000025
 20
6.148240105577337
 30
0.0
 41
0.8536521542937077
  0
SPLINE
  5
80
330
1F
100
AcDbEntity
  8
0
370
    -3
100
AcDbSpline
210
0.0
220
0.0
230
1.0
 70
    12
 71
     2
 72
    10
 73
     7
 74
     0
 42
0.000000001
 43
0.0000000001
 40
-5.609203971698638
 40
-5.609203971698638
 40
-5.609203971698638
 40
-0.0000000000000009
 40
-0.0000000000000009
 40
0.8056232170238729
 40
0.8056232170238729
 40
6.776836499515882
 40
6.776836499515882
 40
6.776836499515882
 10
-3.890211143689484
 20
6.199161396135366
 30
0.0
 41
1.0
 10
-5.873364226412676
 20
6.173202724326575
 30
0.0
 41
1.0
 10
-7.856517309135867
 20
6.147244052517783
 30
0.0
 41
1.0
 10
-8.17759642940241
 20
6.143041256688497
 30
0.0
 41
0.838950128494703
 10
-8.308492242949562
 20
5.726735650935193
 30
0.0
 41
1.0
 10
-9.16915149158779
 20
2.98946467111937
 30
0.0
 41
1.0
 10
-10.02981074022602
 20
0.2521936913035464
 30
0.0
 41
1.0
  0
SPLINE
  5
81
330
1F
100
AcDbEntity
  8
0
370
    -3
100
AcDbSpline
210
0.0
220
0.0
230
1.0
 70
    12
 71
     3
 72
    11
 73
     7
 74
     0
 42
0.000000001
 43
0.0000000001
 40
0.4505244153681121
 40
0.4505244153681121
 40
0.4505244153681121
 40
0.4505244153681121
 40
0.7736022938330078
 40
0.7736022938330078
 40
0.7736022938330078
 40
3.973422881500241
 40
3.973422881500241
 40
3.973422881500241
 40
3.973422881500241
 10
-7.085056957287879
 20
8.01209960523946
 30
0.0
 41
1.0
 10
-7.118109055696063
 20
8.100888013616869
 30
0.0
 41
1.0
 10
-7.128607703601471
 20
8.208427367255403
 30
0.0
 41
1.0
 10
-7.111061712850709
 20
8.311231015647486
 30
0.0
 41
1.0
 10
-6.931507278649237
 20
9.349646470951244
 30
0.0
 41
0.9999999999999999
 10
-6.751952844447762
 20
10.388061926255
 30
0.0
 41
0.9999999999999999
 10
-6.572398410246286
 20
11.42647738155875
 30
0.0
 41
1.0
  0
SPLINE
  5
82
330
1F
100
AcDbEntity
  8
0
370
    -3
100
AcDbSpline
210
0.0
220
0.0
230
1.0
 70
    12
 71
     2
 72
     8
 73
     5
 74
     0
 42
0.000000001
 43
0.0000000001
 40
1.088561778643552
 40
1.088561778643552
 40
1.088561778643552
 40
4.423606038729075
 40
4.423606038729075
 40
4.744796277491338
 40
4.744796277491338
 40
4.744796277491338
 10
-7.284572922286319
 20
11.5834698026455
 30
0.0
 41
0.9999999999999898
 10
-7.565231996624843
 20
9.96033889947655
 30
0.0
 41
0.9999999999999898
 10
-7.845891070963366
 20
8.337207996307605
 30
0.0
 41
0.9999999999999898
 10
-7.874017004112794
 20
8.174547760280484
 30
0.0
 41
0.9285192330009069
 10
-7.827484238273782
 20
8.021564116482283
 30
0.0
 41
0.9584511653589414
  0
SPLINE
  5
83
330
1F
100
AcDbEntity
  8
0
370
    -3
100
AcDbSpline
210
0.0
220
0.0
230
1.0
 70
     8
 71
     3
 72
    17
 73
    13
 74
     0
 42
0.000000001
 43
0.0000000001
 40
0.0
 40
0.0
 40
0.0
 40
0.0
 40
1.0
 40
2.0
 40
3.0
 40
4.0
 40
5.0
 40
6.0
 40
6.0
 40
6.0
 40
7.0
 40
8.0
 40
8.0
 40
8.0
 40
8.0
 10
-9.445132866260208
 20
29.20745263689938
 30
0.0
 10
-9.618245389426686
 20
29.08800159301693
 30
0.0
 10
-9.931637536587314
 20
28.79940377803368
 30
0.0
 10
-10.24810801203258
 20
28.24341271608942
 30
0.0
 10
-10.35641326290276
 20
27.61546465385515
 30
0.0
 10
-10.43162655548111
 20
26.98977906744197
 30
0.0
 10
-10.47754565331963
 20
26.35939470814601
 30
0.0
 10
-10.50093396828981
 20
25.93916712637449
 30
0.0
 10
-10.51099999995983
 20
25.72887777711693
 30
0.0
 10
-10.58650617110764
 20
24.16956281786569
 30
0.0
 10
-10.73796350624838
 20
21.05095463021016
 30
0.0
 10
-10.88958706014278
 20
17.93235442951011
 30
0.0
 10
-10.9653195738966
 20
16.37305049633014
 30
0.0
  0
SPLINE
  5
84
330
1F
100
AcDbEntity
  8
0
370
    -3
100
AcDbSpline
210
0.0
220
0.0
230
1.0
 70
     8
 71
     3
 72
    38
 73
    34
 74
     0
 42
0.000000001
 43
0.0000000001
 40
1.711448242005422
 40
1.711448242005422
 40
1.711448242005422
 40
1.711448242005422
 40
1.966520268048665
 40
1.991220334395795
 40
2.654960447394521
 40
2.949780412240653
 40
3.933040556431244
 40
3.982440689125504
 40
4.916300700623233
 40
5.309920935084055
 40
5.899560844815221
 40
6.626465704135599
 40
7.866081133199197
 40
7.943010473187142
 40
9.259555243595699
 40
9.832601421581776
 40
10.57610001400426
 40
10.81586156577376
 40
11.79912170996575
 40
11.86511462629968
 40
13.15412923708197
 40
13.76564199834931
 40
13.97542521760331
 40
13.97542521760331
 40
13.97542521760331
 40
14.97542521760331
 40
14.97542521760331
 40
14.97542521760331
 40
15.97542521760331
 40
16.97542521760331
 40
17.97542521760331
 40
18.97542521760331
 40
19.97542521760331
 40
19.97542521760331
 40
19.97542521760331
 40
19.97542521760331
 10
-10.27584822295837
 20
12.34961175117808
 30
0.0
 10
-10.28252086097451
 20
12.35853669725001
 30
0.0
 10
-10.28983157277091
 20
12.36853113551005
 30
0.0
 10
-10.31449011442757
 20
12.40224437809093
 30
0.0
 10
-10.34020519468099
 20
12.43721097194167
 30
0.0
 10
-10.39105779232415
 20
12.50629291305649
 30
0.0
 10
-10.42589646374017
 20
12.55363281082571
 30
0.0
 10
-10.47764374184027
 20
12.6242527187458
 30
0.0
 10
-10.51396844624982
 20
12.67403716338603
 30
0.0
 10
-10.5648894408262
 20
12.74410577515695
 30
0.0
 10
-10.61058747836657
 20
12.80713773786331
 30
0.0
 10
-10.67938656197956
 20
12.90242416210486
 30
0.0
 10
-10.73489811171857
 20
12.97990651641296
 30
0.0
 10
-10.80642845178471
 20
13.08031911443996
 30
0.0
 10
-10.85982986937917
 20
13.15573753173595
 30
0.0
 10
-10.93061301872599
 20
13.25664836118345
 30
0.0
 10
-10.97211722685713
 20
13.31623228129246
 30
0.0
 10
-11.02420251810279
 20
13.39142699806033
 30
0.0
 10
-11.05807746550015
 20
13.44068541985365
 30
0.0
 10
-11.1192818611345
 20
13.53029162381961
 30
0.0
 10
-11.1705023728417
 20
13.60594690667102
 30
0.0
 10
-11.22529831650233
 20
13.68806131655116
 30
0.0
 10
-11.2466118566768
 20
13.72022000419864
 30
0.0
 10
-11.25205554380162
 20
13.72844842110994
 30
0.0
 10
-11.30199101683368
 20
13.80392849212608
 30
0.0
 10
-11.15571339221409
 20
13.82585504050293
 30
0.0
 10
-11.06526695538376
 20
13.82265587620056
 30
0.0
 10
-10.32691666723491
 20
13.79653982379133
 30
0.0
 10
-8.856527838195014
 20
13.64963762042913
 30
0.0
 10
-6.644648920523908
 20
13.51625087786628
 30
0.0
 10
-4.43096661343138
 20
13.42011204110265
 30
0.0
 10
-2.215766232746326
 20
13.36771374984068
 30
0.0
 10
-0.7386308256486767
 20
13.35658445119256
 30
0.0
 10
-0.000059649267028
 20
13.35658445119256
 30
0.0
  0
SPLINE
  5
85
330
1F
100
AcDbEntity
  8
0
370
    -3
100
AcDbSpline
210
0.0
220
0.0
230
1.0
 70
     8
 71
     3
 72
    12
 73
     8
 74
     0
 42
0.000000001
 43
0.0000000001
 40
0.0
 40
0.0
 40
0.0
 40
0.0
 40
1.0
 40
2.0
 40
3.0
 40
4.0
 40
5.0
 40
5.0
 40
5.0
 40
5.0
 10
-8.97773720525624
 20
11.97386892758839
 30
0.0
 10
-8.38499259988664
 20
11.83370831735856
 30
0.0
 10
-7.198133489558965
 20
11.5593658101743
 30
0.0
 10
-5.411489283752482
 20
11.17522573846453
 30
0.0
 10
-3.619606154412794
 20
10.82000382092101
 30
0.0
 10
-1.827784642097035
 20
10.45239222168729
 30
0.0
 10
-0.6087780528192018
 20
10.36641347474721
 30
0.0
 10
-0.0000000438971099
 20
10.36641347474721
 30
0.0
  0
SPLINE
  5
86
330
1F
100
AcDbEntity
  8
0
370
    -3
100
AcDbSpline
210
0.0
220
0.0
230
1.0
 70
    28
 71
     2
 72
     6
 73
     3
 74
     0
 42
0.000000001
 43
0.0000000001
 40
2.658785690270951
 40
2.658785690270951
 40
2.658785690270951
 40
6.5560450360093
 40
6.5560450360093
 40
6.5560450360093
 10
-7.940641000565908
 20
11.75580957308794
 30
0.0
 41
0.8536521542937077
 10
-8.361466001130946
 20
9.894935861976103
 30
0.0
 41
0.8536521542937077
 10
-8.782291001695983
 20
8.034062150864267
 30
0.0
 41
0.8536521542937077
  0
SPLINE
  5
87
330
1F
100
AcDbEntity
  8
0
370
    -3
100
AcDbSpline
210
0.0
220
0.0
230
1.0
 70
     8
 71
     3
 72
    39
 73
    35
 74
     0
 42
0.000000001
 43
0.0000000001
 40
-11.0
 40
-11.0
 40
-11.0
 40
-11.0
 40
-10.0
 40
-9.0
 40
-8.0
 40
-8.0
 40
-8.0
 40
-7.0
 40
-6.0
 40
-5.0
 40
-4.0
 40
-3.0
 40
-3.0
 40
-3.0
 40
-2.0
 40
-1.0
 40
0.0
 40
0.0
 40
0.0
 40
1.0
 40
2.0
 40
3.0
 40
3.0
 40
3.0
 40
4.0
 40
5.0
 40
6.0
 40
7.0
 40
8.0
 40
8.0
 40
8.0
 40
9.0
 40
10.0
 40
11.0
 40
11.0
 40
11.0
 40
11.0
 10
-11.06506638826753
 20
16.35108929592798
 30
0.0
 10
-11.01295221843266
 20
17.46085386260128
 30
0.0
 10
-10.90921525554573
 20
19.68040739330365
 30
0.0
 10
-10.75266688383132
 20
23.00968837019669
 30
0.0
 10
-10.65169379386092
 20
25.22937880449739
 30
0.0
 10
-10.59606582044414
 20
26.33896306952785
 30
0.0
 10
-10.57941345294614
 20
26.67111978523005
 30
0.0
 10
-10.51969415976002
 20
27.33075216302606
 30
0.0
 10
-10.31961366516542
 20
28.31943182471885
 30
0.0
 10
-9.692037108928503
 20
29.13845361455015
 30
0.0
 10
-8.760861491593548
 20
29.55239095350963
 30
0.0
 10
-8.08975720419091
 20
29.58985165097652
 30
0.0
 10
-7.759190031876026
 20
29.60628879507665
 30
0.0
 10
-6.897906175015668
 20
29.64911533095795
 30
0.0
 10
-5.173404184767367
 20
29.67964407969684
 30
0.0
 10
-2.58693995326739
 20
29.72372309731428
 30
0.0
 10
-0.8622916251342689
 20
29.73106618310527
 30
0.0
 10
0.0
 20
29.73130445673121
 30
0.0
 10
0.8622916251342689
 20
29.73106618310527
 30
0.0
 10
2.58693995326739
 20
29.72372309731428
 30
0.0
 10
5.173404184767367
 20
29.67964407969684
 30
0.0
 10
6.897906175015668
 20
29.64911533095795
 30
0.0
 10
7.759190031876026
 20
29.60628879507665
 30
0.0
 10
8.08975720419091
 20
29.58985165097652
 30
0.0
 10
8.760861491593548
 20
29.55239095350963
 30
0.0
 10
9.692037108928503
 20
29.13845361455015
 30
0.0
 10
10.31961366516542
 20
28.31943182471885
 30
0.0
 10
10.51969415976002
 20
27.33075216302606
 30
0.0
 10
10.57941345294614
 20
26.67111978523005
 30
0.0
 10
10.59606582044414
 20
26.33896306952785
 30
0.0
 10
10.65169379386092
 20
25.22937880449739
 30
0.0
 10
10.75266688383132
 20
23.00968837019669
 30
0.0
 10
10.90921525554573
 20
19.68040739330365
 30
0.0
 10
11.01295221843266
 20
17.46085386260128
 30
0.0
 10
11.06506638826753
 20
16.35108929592798
 30
0.0
  0
SPLINE
  5
88
330
1F
100
AcDbEntity
  8
0
370
    -3
100
AcDbSpline
210
0.0
220
0.0
230
1.0
 70
     8
 71
     3
 72
    12
 73
     8
 74
     0
 42
0.000000001
 43
0.0000000001
 40
0.0
 40
0.0
 40
0.0
 40
0.0
 40
1.0
 40
2.0
 40
3.0
 40
4.0
 40
5.0
 40
5.0
 40
5.0
 40
5.0
 10
11.11262433403574
 20
58.55808227276766
 30
0.0
 10
10.37559254315949
 20
58.47199269470917
 30
0.0
 10
8.891512282418741
 20
58.47286305906317
 30
0.0
 10
6.669597984801451
 20
58.52489156508298
 30
0.0
 10
4.446118958803869
 20
58.54655670877389
 30
0.0
 10
2.223281913174664
 20
58.59373341292446
 30
0.0
 10
0.74099051685123
 20
58.60059606457532
 30
0.0
 10
-0.0001176338096709
 20
58.60118592675368
 30
0.0
  0
POLYLINE
  5
89
330
1F
100
AcDbEntity
  8
0
100
AcDb2dPolyline
 66
     1
 10
0.0
 20
0.0
 30
0.0
  0
VERTEX
  5
8A
330
89
100
AcDbEntity
  8
0
100
AcDbVertex
100
AcDb2dVertex
 10
-0.0001176337370339
 20
59.74929422167884
 30
0.0
  0
VERTEX
  5
8B
330
89
100
AcDbEntity
  8
0
100
AcDbVertex
100
AcDb2dVertex
 10
-0.0001176338164832
 20
62.05161347468231
 30
0.0
  0
SEQEND
  5
8C
330
89
100
AcDbEntity
  8
0
  0
POLYLINE
  5
8D
330
1F
100
AcDbEntity
  8
0
100
AcDb2dPolyline
 66
     1
 10
0.0
 20
0.0
 30
0.0
  0
VERTEX
  5
8E
330
8D
100
AcDbEntity
  8
0
100
AcDbVertex
100
AcDb2dVertex
 10
-0.000117633809575
 20
52.98812370087816
 30
0.0
  0
VERTEX
  5
8F
330
8D
100
AcDbEntity
  8
0
100
AcDbVertex
100
AcDb2dVertex
 10
-0.0001176338094488
 20
47.02702075870955
 30
0.0
  0
SEQEND
  5
90
330
8D
100
AcDbEntity
  8
0
  0
SPLINE
  5
91
330
1F
100
AcDbEntity
  8
0
370
    -3
100
AcDbSpline
210
0.0
220
0.0
230
1.0
 70
     8
 71
     3
 72
    12
 73
     8
 74
     0
 42
0.000000001
 43
0.0000000001
 40
0.0
 40
0.0
 40
0.0
 40
0.0
 40
1.0
 40
2.0
 40
3.0
 40
4.0
 40
5.0
 40
5.0
 40
5.0
 40
5.0
 10
-11.11262433403574
 20
58.55808227276766
 30
0.0
 10
-10.37559254315949
 20
58.47199269470917
 30
0.0
 10
-8.891512282418741
 20
58.47286305906317
 30
0.0
 10
-6.669597984801451
 20
58.52489156508298
 30
0.0
 10
-4.446118958803869
 20
58.54655670877389
 30
0.0
 10
-2.223281913174664
 20
58.59373341292446
 30
0.0
 10
-0.74099051685123
 20
58.60059606457532
 30
0.0
 10
0.0001176338096709
 20
58.60118592675368
 30
0.0
  0
SPLINE
  5
92
330
1F
100
AcDbEntity
  8
0
370
    -3
100
AcDbSpline
210
0.0
220
0.0
230
1.0
 70
    11
 71
     3
 72
    81
 73
    77
 74
     0
 42
0.000000001
 43
0.0000000001
 40
0.0
 40
0.0
 40
0.0
 40
0.0
 40
0.9999733530085336
 40
1.999986676504267
 40
3.0
 40
3.0
 40
3.0
 40
4.0
 40
5.0
 40
6.0
 40
7.0
 40
8.0
 40
9.0
 40
10.0
 40
10.0
 40
10.0
 40
11.0
 40
12.0
 40
13.0
 40
14.0
 40
15.0
 40
16.0
 40
17.0
 40
18.0
 40
19.0
 40
19.0
 40
19.0
 40
20.0
 40
21.0
 40
22.0
 40
23.0
 40
24.0
 40
24.0
 40
24.0
 40
25.00001287936232
 40
26.00002575872463
 40
27.00003863808695
 40
28.0
 40
28.0
 40
28.0
 40
28.99996136191304
 40
29.99997424127536
 40
30.99998712063768
 40
32.0
 40
32.0
 40
32.0
 40
33.0
 40
34.0
 40
35.0
 40
36.0
 40
37.0
 40
37.0
 40
37.0
 40
38.0
 40
39.0
 40
40.0
 40
41.0
 40
42.0
 40
43.0
 40
44.0
 40
45.0
 40
46.0
 40
46.0
 40
46.0
 40
47.0
 40
48.0
 40
49.0
 40
50.0
 40
51.0
 40
52.0
 40
53.0
 40
53.0
 40
53.0
 40
54.00001332349574
 40
55.00002664699146
 40
56.0
 40
56.0
 40
56.0
 40
56.0
 10
0.0
 20
66.09997375055887
 30
0.0
 10
0.9809819124918332
 20
66.09943645015584
 30
0.0
 10
2.943385026831922
 20
66.07520389259906
 30
0.0
 10
5.883106650856588
 20
65.93689890054638
 30
0.0
 10
7.841291635802889
 20
65.79242130320348
 30
0.0
 10
8.811813004982842
 20
65.6468433761198
 30
0.0
 10
8.943805833276116
 20
65.62704448972426
 30
0.0
 10
9.205558147123078
 20
65.57303247429223
 30
0.0
 10
9.59055234875533
 20
65.46077788555723
 30
0.0
 10
9.962952283660746
 20
65.31410765904397
 30
0.0
 10
10.30189024559062
 20
65.08365730008899
 30
0.0
 10
10.47821020793624
 20
64.71361728844751
 30
0.0
 10
10.5682013570617
 20
64.32363664380212
 30
0.0
 10
10.60407328965366
 20
64.05868804033146
 30
0.0
 10
10.62164341590203
 20
63.9264177602184
 30
0.0
 10
10.71746235345204
 20
63.20507987506511
 30
0.0
 10
10.91185952091129
 20
61.76283081738052
 30
0.0
 10
11.20071614028692
 20
59.59887415203017
 30
0.0
 10
11.39155783494565
 20
57.42378498326924
 30
0.0
 10
11.57331490075719
 20
55.24848051497229
 30
0.0
 10
11.75737559299951
 20
53.07322217037447
 30
0.0
 10
11.94050353459598
 20
50.8979248598291
 30
0.0
 10
12.12385180270888
 20
48.72263552632781
 30
0.0
 10
12.3066691150908
 20
46.54730423640375
 30
0.0
 10
12.43024216417526
 20
45.09722597785061
 30
0.0
 10
12.49059936321854
 20
44.37206663383144
 30
0.0
 10
12.5294024516189
 20
43.90586835796142
 30
0.0
 10
12.63508322335118
 20
42.97444468040853
 30
0.0
 10
12.484196613743
 20
41.56073065652848
 30
0.0
 10
11.77061531756397
 20
40.30145150189469
 30
0.0
 10
10.52407361644749
 20
39.57392859151258
 30
0.0
 10
9.59248395318756
 20
39.41730575114695
 30
0.0
 10
9.126254161021127
 20
39.38401716318806
 30
0.0
 10
8.36705146188816
 20
39.32981044741538
 30
0.0
 10
6.847553476888645
 20
39.23675970304529
 30
0.0
 10
4.566126775857541
 20
39.13938338910729
 30
0.0
 10
2.283335808917394
 20
39.08405539686871
 30
0.0
 10
0.7610965870305135
 20
39.07268835768197
 30
0.0
 10
0.0
 20
39.07271412272389
 30
0.0
 10
-0.7610965870305351
 20
39.07268835768197
 30
0.0
 10
-2.283335808917405
 20
39.08405539686872
 30
0.0
 10
-4.566126775857541
 20
39.13938338910729
 30
0.0
 10
-6.847553476888645
 20
39.23675970304529
 30
0.0
 10
-8.36705146188816
 20
39.32981044741538
 30
0.0
 10
-9.126254161021127
 20
39.38401716318806
 30
0.0
 10
-9.59248395318756
 20
39.41730575114695
 30
0.0
 10
-10.52407361644749
 20
39.57392859151258
 30
0.0
 10
-11.77061531756397
 20
40.30145150189469
 30
0.0
 10
-12.484196613743
 20
41.56073065652848
 30
0.0
 10
-12.63508322335118
 20
42.97444468040853
 30
0.0
 10
-12.5294024516189
 20
43.90586835796142
 30
0.0
 10
-12.49059936321854
 20
44.37206663383144
 30
0.0
 10
-12.43024216417526
 20
45.09722597785061
 30
0.0
 10
-12.3066691150908
 20
46.54730423640375
 30
0.0
 10
-12.12385180270888
 20
48.72263552632781
 30
0.0
 10
-11.94050353459598
 20
50.8979248598291
 30
0.0
 10
-11.75737559299951
 20
53.07322217037447
 30
0.0
 10
-11.57331490075719
 20
55.24848051497229
 30
0.0
 10
-11.39155783494565
 20
57.42378498326924
 30
0.0
 10
-11.20071614028692
 20
59.59887415203017
 30
0.0
 10
-10.91185952091129
 20
61.76283081738052
 30
0.0
 10
-10.71746235345204
 20
63.20507987506511
 30
0.0
 10
-10.62164341590203
 20
63.9264177602184
 30
0.0
 10
-10.60407328965366
 20
64.05868804033146
 30
0.0
 10
-10.5682013570617
 20
64.32363664380212
 30
0.0
 10
-10.47821020793624
 20
64.71361728844751
 30
0.0
 10
-10.30189024559062
 20
65.08365730008899
 30
0.0
 10
-9.962952283660746
 20
65.31410765904397
 30
0.0
 10
-9.59055234875533
 20
65.46077788555723
 30
0.0
 10
-9.205558147123078
 20
65.57303247429223
 30
0.0
 10
-8.943805833276116
 20
65.62704448972426
 30
0.0
 10
-8.811813004982842
 20
65.6468433761198
 30
0.0
 10
-7.841291635802889
 20
65.79242130320348
 30
0.0
 10
-5.883106650856588
 20
65.93689890054638
 30
0.0
 10
-2.943385026831921
 20
66.07520389259906
 30
0.0
 10
-0.9809819124918323
 20
66.09943645015584
 30
0.0
 10
0.0
 20
66.09997375055887
 30
0.0
  0
SPLINE
  5
93
330
1F
100
AcDbEntity
  8
0
370
    -3
100
AcDbSpline
210
0.0
220
0.0
230
1.0
 70
    11
 71
     3
 72
    71
 73
    67
 74
     0
 42
0.000000001
 43
0.0000000001
 40
-20.0
 40
-20.0
 40
-20.0
 40
-20.0
 40
-19.0
 40
-18.0
 40
-17.0
 40
-16.0
 40
-15.0
 40
-15.0
 40
-15.0
 40
-14.0
 40
-13.0
 40
-12.0
 40
-11.0
 40
-10.0
 40
-10.0
 40
-10.0
 40
-9.0
 40
-8.0
 40
-7.0
 40
-6.0
 40
-5.0
 40
-5.0
 40
-5.0
 40
-3.999987078311398
 40
-2.999974156622797
 40
-1.999961234934196
 40
-0.9999483132455941
 40
0.0
 40
0.0
 40
0.0
 40
0.9999483132455935
 40
1.999961234934196
 40
2.999974156622796
 40
3.999987078311398
 40
5.0
 40
5.0
 40
5.0
 40
6.0
 40
7.0
 40
8.0
 40
9.0
 40
10.0
 40
10.0
 40
10.0
 40
11.0
 40
12.0
 40
13.0
 40
14.0
 40
15.0
 40
15.0
 40
15.0
 40
16.0
 40
17.0
 40
18.0
 40
19.0
 40
20.0
 40
20.0
 40
20.0
 40
21.00001369768666
 40
22.00002739537332
 40
23.0
 40
23.0
 40
23.0
 40
23.99997260462668
 40
24.99998630231334
 40
26.0
 40
26.0
 40
26.0
 40
26.0
 10
-8.580734687350933
 20
64.43593487808313
 30
0.0
 10
-8.757902808090654
 20
64.42217181390383
 30
0.0
 10
-9.1163206167024
 20
64.38184460411593
 30
0.0
 10
-9.621082126717514
 20
64.22288336196704
 30
0.0
 10
-10.14799320159218
 20
64.03848080056864
 30
0.0
 10
-10.42846033947437
 20
63.55931321057678
 30
0.0
 10
-10.48695670116252
 20
63.20532685143522
 30
0.0
 10
-10.51088236614335
 20
63.02887437204807
 30
0.0
 10
-10.68574983910097
 20
61.73922164171584
 30
0.0
 10
-11.10659438471608
 20
59.16790465685668
 30
0.0
 10
-11.39395632802275
 20
55.27120330284274
 30
0.0
 10
-11.74801259098494
 20
51.38271155127903
 30
0.0
 10
-12.06983922742725
 20
47.49080882041247
 30
0.0
 10
-12.31511121577245
 20
44.89890102015662
 30
0.0
 10
-12.40167438201307
 20
43.60000447346774
 30
0.0
 10
-12.42820348681183
 20
43.20193027971575
 30
0.0
 10
-12.42010730007683
 20
42.40240488899298
 30
0.0
 10
-12.14510780312861
 20
41.22055448880757
 30
0.0
 10
-11.39487996888325
 20
40.24326844814338
 30
0.0
 10
-10.28521478774222
 20
39.73137835602808
 30
0.0
 10
-9.493529137696825
 20
39.61004230768977
 30
0.0
 10
-9.095823409942618
 20
39.58038275726125
 30
0.0
 10
-8.490589530107204
 20
39.535246457914
 30
0.0
 10
-7.279166362603103
 20
39.45823422927881
 30
0.0
 10
-5.46070285590727
 20
39.36637022237442
 30
0.0
 10
-3.641012854632673
 20
39.30283834719994
 30
0.0
 10
-1.820667352455656
 20
39.26465947273637
 30
0.0
 10
-0.6068749124444796
 20
39.25635818341311
 30
0.0
 10
0.0
 20
39.25636252275677
 30
0.0
 10
0.6068749124444804
 20
39.25635818341311
 30
0.0
 10
1.820667352455656
 20
39.26465947273637
 30
0.0
 10
3.641012854632673
 20
39.30283834719994
 30
0.0
 10
5.46070285590727
 20
39.36637022237442
 30
0.0
 10
7.279166362603103
 20
39.45823422927881
 30
0.0
 10
8.490589530107204
 20
39.535246457914
 30
0.0
 10
9.095823409942618
 20
39.58038275726125
 30
0.0
 10
9.493529137696825
 20
39.61004230768977
 30
0.0
 10
10.28521478774222
 20
39.73137835602808
 30
0.0
 10
11.39487996888325
 20
40.24326844814338
 30
0.0
 10
12.14510780312861
 20
41.22055448880757
 30
0.0
 10
12.42010730007683
 20
42.40240488899298
 30
0.0
 10
12.42820348681183
 20
43.20193027971575
 30
0.0
 10
12.40167438201307
 20
43.60000447346774
 30
0.0
 10
12.31511121577245
 20
44.89890102015662
 30
0.0
 10
12.06983922742725
 20
47.49080882041247
 30
0.0
 10
11.74801259098494
 20
51.38271155127903
 30
0.0
 10
11.39395632802275
 20
55.27120330284274
 30
0.0
 10
11.10659438471608
 20
59.16790465685668
 30
0.0
 10
10.68574983910097
 20
61.73922164171584
 30
0.0
 10
10.51088236614335
 20
63.02887437204807
 30
0.0
 10
10.48695670116252
 20
63.20532685143522
 30
0.0
 10
10.42846033947437
 20
63.55931321057678
 30
0.0
 10
10.14799320159218
 20
64.03848080056864
 30
0.0
 10
9.621082126717514
 20
64.22288336196704
 30
0.0
 10
9.1163206167024
 20
64.38184460411593
 30
0.0
 10
8.757902808090654
 20
64.42217181390383
 30
0.0
 10
8.580734687350933
 20
64.43593487808313
 30
0.0
 10
7.629402091474281
 20
64.50983785520023
 30
0.0
 10
5.72385560793847
 20
64.61902800592534
 30
0.0
 10
2.862523394746901
 20
64.70963190010963
 30
0.0
 10
0.9541804486972245
 20
64.73235278602743
 30
0.0
 10
0.0
 20
64.7321828399528
 30
0.0
 10
-0.9541804486972447
 20
64.73235278602745
 30
0.0
 10
-2.862523394746911
 20
64.70963190010963
 30
0.0
 10
-5.72385560793847
 20
64.61902800592534
 30
0.0
 10
-7.629402091474281
 20
64.50983785520023
 30
0.0
 10
-8.580734687350933
 20
64.43593487808313
 30
0.0
  0
SPLINE
  5
94
330
1F
100
AcDbEntity
  8
0
370
    -3
100
AcDbSpline
210
0.0
220
0.0
230
1.0
 70
     8
 71
     3
 72
    19
 73
    15
 74
     0
 42
0.000000001
 43
0.0000000001
 40
-5.0
 40
-5.0
 40
-5.0
 40
-5.0
 40
-3.999988307038384
 40
-2.999976614076769
 40
-1.999964921115153
 40
-0.9999532281535374
 40
0.0
 40
0.0
 40
0.0
 40
0.9999532281535374
 40
1.999964921115153
 40
2.999976614076769
 40
3.999988307038384
 40
5.0
 40
5.0
 40
5.0
 40
5.0
 10
-10.00236668149752
 20
65.27619348372917
 30
0.0
 10
-9.39127136084002
 20
65.57193750429337
 30
0.0
 10
-8.038778619199743
 20
65.68143056219088
 30
0.0
 10
-6.035643085148684
 20
65.78974436983813
 30
0.0
 10
-4.023335458983023
 20
65.86828953841186
 30
0.0
 10
-2.012164000006274
 20
65.91431715395655
 30
0.0
 10
-0.6706502166367607
 20
65.92447110102354
 30
0.0
 10
0.0
 20
65.92446392814776
 30
0.0
 10
0.6706502166367607
 20
65.92447110102354
 30
0.0
 10
2.012164000006274
 20
65.91431715395655
 30
0.0
 10
4.023335458983023
 20
65.86828953841186
 30
0.0
 10
6.035643085148684
 20
65.78974436983813
 30
0.0
 10
8.038778619199743
 20
65.68143056219088
 30
0.0
 10
9.39127136084002
 20
65.57193750429337
 30
0.0
 10
10.00236668149752
 20
65.27619348372917
 30
0.0
  0
SPLINE
  5
95
330
1F
100
AcDbEntity
  8
0
370
    -3
100
AcDbSpline
210
0.0
220
0.0
230
1.0
 70
     8
 71
     3
 72
    19
 73
    15
 74
     0
 42
0.000000001
 43
0.0000000001
 40
0.0
 40
0.0
 40
0.0
 40
0.0
 40
1.000023281526541
 40
2.000046563053081
 40
3.000069844579621
 40
4.000093126106162
 40
5.0
 40
5.0
 40
5.0
 40
5.999906873893838
 40
6.999930155420379
 40
7.999953436946919
 40
8.999976718473459
 40
10.0
 40
10.0
 40
10.0
 40
10.0
 10
-4.49988236845299
 20
60.44915361751008
 30
0.0
 10
-4.196719136339417
 20
60.44590995386831
 30
0.0
 10
-3.5902802583916
 20
60.44871129931042
 30
0.0
 10
-2.681192677601653
 20
60.47838652807191
 30
0.0
 10
-1.773232559622423
 20
60.53925040427474
 30
0.0
 10
-0.870712805693776
 20
60.64798098026087
 30
0.0
 10
-0.2750275947333138
 20
60.77950402774761
 30
0.0
 10
0.0
 20
60.90988712419173
 30
0.0
 10
0.2750275947333138
 20
60.77950402774761
 30
0.0
 10
0.870712805693776
 20
60.64798098026087
 30
0.0
 10
1.773232559622423
 20
60.53925040427474
 30
0.0
 10
2.681192677601653
 20
60.47838652807191
 30
0.0
 10
3.5902802583916
 20
60.44871129931042
 30
0.0
 10
4.196719136339417
 20
60.44590995386831
 30
0.0
 10
4.49988236845299
 20
60.44915361751008
 30
0.0
  0
SPLINE
  5
96
330
1F
100
AcDbEntity
  8
0
370
    -3
100
AcDbSpline
210
0.0
220
0.0
230
1.0
 70
     8
 71
     2
 72
     8
 73
     5
 74
     0
 42
0.000000001
 43
0.0000000001
 40
-1.0
 40
-1.0
 40
-1.0
 40
0.0
 40
0.0
 40
1.0
 40
1.0
 40
1.0
 10
-3.999875118433215
 20
50.00752781470698
 30
0.0
 10
-1.999342342017824
 20
50.03269134537034
 30
0.0
 10
0.0
 20
49.9725496971506
 30
0.0
 10
1.999342342017824
 20
50.03269134537034
 30
0.0
 10
3.999875118433215
 20
50.00752781470698
 30
0.0
  0
SPLINE
  5
97
330
1F
100
AcDbEntity
  8
0
370
    -3
100
AcDbSpline
210
0.0
220
0.0
230
1.0
 70
     8
 71
     3
 72
    15
 73
    11
 74
     0
 42
0.000000001
 43
0.0000000001
 40
0.0
 40
0.0
 40
0.0
 40
0.0
 40
1.0
 40
2.0
 40
3.0
 40
3.0
 40
3.0
 40
4.0
 40
5.0
 40
6.0
 40
6.0
 40
6.0
 40
6.0
 10
44.33495069702636
 20
12.45920275815165
 30
0.0
 10
42.92729864327242
 20
12.11958554883679
 30
0.0
 10
40.09461259416588
 20
11.50832680917097
 30
0.0
 10
35.80779014605906
 20
10.8077624793048
 30
0.0
 10
32.93492133366865
 20
10.4123635975285
 30
0.0
 10
31.48677799569072
 20
10.36756230819121
 30
0.0
 10
31.15948419569194
 20
10.35743680207071
 30
0.0
 10
30.50380280758311
 20
10.43094333127334
 30
0.0
 10
29.55948712780493
 20
10.73833256961534
 30
0.0
 10
29.02632594753753
 20
11.13458055226449
 30
0.0
 10
28.79424631878419
 20
11.36540734432565
 30
0.0
  0
SPLINE
  5
98
330
1F
100
AcDbEntity
  8
0
370
    -3
100
AcDbSpline
210
0.0
220
0.0
230
1.0
 70
     8
 71
     3
 72
     8
 73
     4
 74
     0
 42
0.000000001
 43
0.0000000001
 40
0.7638152257983631
 40
0.7638152257983631
 40
0.7638152257983631
 40
0.7638152257983631
 40
0.7792182423915911
 40
0.7792182423915911
 40
0.7792182423915911
 40
0.7792182423915911
 10
28.24487615414306
 20
13.78495088891205
 30
0.0
 10
28.24411675236964
 20
13.78645784878012
 30
0.0
 10
28.2438193085207
 20
13.78794432348053
 30
0.0
 10
28.24391035366064
 20
13.78957530854761
 30
0.0
  0
LINE
  5
99
330
1F
100
AcDbEntity
  8
0
100
AcDbLine
 10
35.45310874126596
 20
7.911683786277798
 30
0.0
 11
35.47629041502266
 21
6.140835512144231
 31
0.0
  0
SPLINE
  5
9A
330
1F
100
AcDbEntity
  8
0
100
AcDbSpline
210
0.0
220
0.0
230
1.0
 70
    15
 71
     3
 72
    23
 73
    19
 74
     0
 42
0.000000001
 43
0.0000000001
 40
4.256258097466129
 40
4.256258097466129
 40
4.256258097466129
 40
4.256258097466129
 40
4.429132749367409
 40
4.429132749367409
 40
4.429132749367409
 40
5.429132749367409
 40
5.429132749367409
 40
5.429132749367409
 40
6.00232161120809
 40
6.00232161120809
 40
6.00232161120809
 40
7.00232161120809
 40
7.00232161120809
 40
7.00232161120809
 40
7.17519626310937
 40
7.17519626310937
 40
7.17519626310937
 40
7.926237778430623
 40
7.926237778430623
 40
7.926237778430623
 40
7.926237778430623
 10
10.35184322720543
 20
0.2521936913035471
 30
0.0
 41
1.0
 10
10.34882737379962
 20
0.1946527103350603
 30
0.0
 41
1.0
 10
10.34581152039381
 20
0.1371117293665736
 30
0.0
 41
1.0
 10
10.342795666988
 20
0.079570748398087
 30
0.0
 41
1.0
 10
10.34012034156769
 20
0.0285268717965744
 30
0.0
 41
1.0
 10
10.31320572293093
 20
0.0
 30
0.0
 41
1.0
 10
10.26290530420731
 20
0.0
 30
0.0
 41
1.0
 10
10.07184235026042
 20
0.0
 30
0.0
 41
1.0
 10
9.880779396313521
 20
0.0
 30
0.0
 41
1.0
 10
9.689716442366628
 20
0.0
 30
0.0
 41
1.0
 10
9.639425850610074
 20
0.0
 30
0.0
 41
1.0
 10
9.612524332210429
 20
0.0285319338077127
 30
0.0
 41
1.0
 10
9.609849272101613
 20
0.079570748398087
 30
0.0
 41
1.0
 10
9.606833418695802
 20
0.1371117293665736
 30
0.0
 41
1.0
 10
9.60381756528999
 20
0.1946527103350603
 30
0.0
 41
1.0
 10
9.60080171188418
 20
0.2521936913035466
 30
0.0
 41
1.0
 10
9.851148883657931
 20
0.2521936913035461
 30
0.0
 41
1.0
 10
10.10149605543168
 20
0.2521936913035461
 30
0.0
 41
1.0
 10
10.35184322720543
 20
0.2521936913035461
 30
0.0
 41
1.0
  0
SPLINE
  5
9B
330
1F
100
AcDbEntity
  8
0
100
AcDbSpline
210
0.0
220
0.0
230
1.0
 70
    15
 71
     3
 72
    23
 73
    19
 74
     0
 42
0.000000001
 43
0.0000000001
 40
4.256258097466129
 40
4.256258097466129
 40
4.256258097466129
 40
4.256258097466129
 40
4.429132749367409
 40
4.429132749367409
 40
4.429132749367409
 40
5.429132749367409
 40
5.429132749367409
 40
5.429132749367409
 40
6.00232161120809
 40
6.00232161120809
 40
6.00232161120809
 40
7.00232161120809
 40
7.00232161120809
 40
7.00232161120809
 40
7.17519626310937
 40
7.17519626310937
 40
7.17519626310937
 40
7.926237778430623
 40
7.926237778430623
 40
7.926237778430623
 40
7.926237778430623
 10
11.90751305397405
 20
0.2521936913035471
 30
0.0
 41
1.0
 10
11.90449720056823
 20
0.1946527103350603
 30
0.0
 41
1.0
 10
11.90148134716242
 20
0.1371117293665736
 30
0.0
 41
1.0
 10
11.89846549375661
 20
0.079570748398087
 30
0.0
 41
1.0
 10
11.8957901683363
 20
0.0285268717965744
 30
0.0
 41
1.0
 10
11.86887554969955
 20
0.0
 30
0.0
 41
1.0
 10
11.81857513097592
 20
0.0
 30
0.0
 41
1.0
 10
11.62751217702903
 20
0.0
 30
0.0
 41
1.0
 10
11.43644922308213
 20
0.0
 30
0.0
 41
1.0
 10
11.24538626913524
 20
0.0
 30
0.0
 41
1.0
 10
11.19509567737869
 20
0.0
 30
0.0
 41
1.0
 10
11.16819415897904
 20
0.0285319338077127
 30
0.0
 41
1.0
 10
11.16551909887023
 20
0.079570748398087
 30
0.0
 41
1.0
 10
11.16250324546441
 20
0.1371117293665736
 30
0.0
 41
1.0
 10
11.1594873920586
 20
0.1946527103350603
 30
0.0
 41
1.0
 10
11.15647153865279
 20
0.2521936913035466
 30
0.0
 41
1.0
 10
11.40681871042654
 20
0.2521936913035461
 30
0.0
 41
1.0
 10
11.65716588220029
 20
0.2521936913035461
 30
0.0
 41
1.0
 10
11.90751305397405
 20
0.2521936913035461
 30
0.0
 41
1.0
  0
SPLINE
  5
9C
330
1F
100
AcDbEntity
  8
0
370
    -3
100
AcDbSpline
210
0.0
220
0.0
230
1.0
 70
    15
 71
     3
 72
    43
 73
    39
 74
     0
 42
0.000000001
 43
0.0000000001
 40
-2294.588356269898
 40
-2294.588356269898
 40
-2294.588356269898
 40
-2294.588356269898
 40
-2292.817490862014
 40
-2292.817490862014
 40
-2292.817490862014
 40
-2279.768606212684
 40
-2279.768606212684
 40
-2279.768606212684
 40
-2278.768606212684
 40
-2278.768606212684
 40
-2278.768606212684
 40
-2272.962223997322
 40
-2272.962223997322
 40
-2272.962223997322
 40
-2271.962223997323
 40
-2271.962223997323
 40
-2271.962223997323
 40
-2270.892421325195
 40
-2270.892421325195
 40
-2270.892421325195
 40
-2269.892421325195
 40
-2269.892421325195
 40
-2269.892421325195
 40
-2256.371272483747
 40
-2256.371272483747
 40
-2256.371272483747
 40
-2255.539021203849
 40
-2254.539021203849
 40
-2253.585656919643
 40
-2253.585656919643
 40
-2253.585656919643
 40
-2248.688612686646
 40
-2248.688612686646
 40
-2248.688612686646
 40
-2247.688612686646
 40
-2247.688612686646
 40
-2247.688612686646
 40
-2234.981919235619
 40
-2234.981919235619
 40
-2234.981919235619
 40
-2234.981919235619
 10
0.0000000000000001
 20
7.919105513462272
 30
0.0
 41
1.0
 10
0.0000000000000005
 20
7.328817044167295
 30
0.0
 41
1.0
 10
0.0000000000000009
 20
6.738528574872316
 30
0.0
 41
1.0
 10
0.0000000000000013
 20
6.148240105577337
 30
0.0
 41
1.0
 10
3.075651607487167
 20
6.188499141237705
 30
0.0
 41
1.0
 10
6.151303214974333
 20
6.228758176898073
 30
0.0
 41
1.0
 10
9.226954822461497
 20
6.269017212558442
 30
0.0
 41
1.0
 10
9.443151061661162
 20
6.271847133893611
 30
0.0
 41
1.0
 10
9.548598382362925
 20
6.100477034612275
 30
0.0
 41
1.0
 10
9.60148181091357
 20
5.863672939474189
 30
0.0
 41
1.0
 10
10.01251976531229
 20
4.023106366420361
 30
0.0
 41
1.0
 10
10.423557719711
 20
2.182539793366532
 30
0.0
 41
1.0
 10
10.83459567410972
 20
0.3419732203127031
 30
0.0
 41
1.0
 10
10.84636566969893
 20
0.2892689378622365
 30
0.0
 41
1.0
 10
10.87931826240477
 20
0.2508628902817106
 30
0.0
 41
1.0
 10
10.93164993169639
 20
0.252193691303546
 30
0.0
 41
1.0
 10
11.28825082240561
 20
0.252193691303546
 30
0.0
 41
1.0
 10
11.64485171311484
 20
0.252193691303546
 30
0.0
 41
1.0
 10
12.00145260382406
 20
0.252193691303546
 30
0.0
 41
1.0
 10
12.05622837297258
 20
0.252193691303546
 30
0.0
 41
1.0
 10
12.09447261429222
 20
0.3024789573485731
 30
0.0
 41
1.0
 10
12.08629635137566
 20
0.3566410622793368
 30
0.0
 41
1.0
 10
11.42222006790712
 20
4.755688611790474
 30
0.0
 41
1.0
 10
10.75814378443857
 20
9.154736161301612
 30
0.0
 41
1.0
 10
10.09406750097003
 20
13.55378371081275
 30
0.0
 41
1.0
 10
9.970753465556735
 20
13.55954362308951
 30
0.0
 41
1.0
 10
9.69876200937044
 20
13.53523643920814
 30
0.0
 41
1.0
 10
9.28803050107347
 20
13.47907269035526
 30
0.0
 41
1.0
 10
9.010660526570865
 20
13.39023406293642
 30
0.0
 41
1.0
 10
8.874598223723819
 20
13.35112427739929
 30
0.0
 41
1.0
 10
8.995790548328884
 20
11.72952439228283
 30
0.0
 41
1.0
 10
9.116982872933951
 20
10.10792450716637
 30
0.0
 41
1.0
 10
9.238175197539022
 20
8.486324622049906
 30
0.0
 41
1.0
 10
9.252252645192417
 20
8.297962961591038
 30
0.0
 41
1.0
 10
9.173859901942192
 20
8.039187629406804
 30
0.0
 41
1.0
 10
8.984989105679041
 20
8.036715387068481
 30
0.0
 41
1.0
 10
5.98999273711936
 20
7.99751209586641
 30
0.0
 41
1.0
 10
2.99499636855968
 20
7.958308804664341
 30
0.0
 41
1.0
 10
0.0000000000000001
 20
7.919105513462272
 30
0.0
 41
1.0
  0
SPLINE
  5
9D
330
1F
100
AcDbEntity
  8
0
100
AcDbSpline
210
0.0
220
0.0
230
1.0
 70
    15
 71
     3
 72
    23
 73
    19
 74
     0
 42
0.000000001
 43
0.0000000001
 40
4.256258097466129
 40
4.256258097466129
 40
4.256258097466129
 40
4.256258097466129
 40
4.429132749367409
 40
4.429132749367409
 40
4.429132749367409
 40
5.429132749367409
 40
5.429132749367409
 40
5.429132749367409
 40
6.00232161120809
 40
6.00232161120809
 40
6.00232161120809
 40
7.00232161120809
 40
7.00232161120809
 40
7.00232161120809
 40
7.17519626310937
 40
7.17519626310937
 40
7.17519626310937
 40
7.926237778430623
 40
7.926237778430623
 40
7.926237778430623
 40
7.926237778430623
 10
-10.35184322720543
 20
0.2521936913035471
 30
0.0
 41
1.0
 10
-10.34882737379962
 20
0.1946527103350603
 30
0.0
 41
1.0
 10
-10.34581152039381
 20
0.1371117293665736
 30
0.0
 41
1.0
 10
-10.342795666988
 20
0.079570748398087
 30
0.0
 41
1.0
 10
-10.34012034156769
 20
0.0285268717965744
 30
0.0
 41
1.0
 10
-10.31320572293093
 20
0.0
 30
0.0
 41
1.0
 10
-10.26290530420731
 20
0.0
 30
0.0
 41
1.0
 10
-10.07184235026042
 20
0.0
 30
0.0
 41
1.0
 10
-9.880779396313521
 20
0.0
 30
0.0
 41
1.0
 10
-9.689716442366628
 20
0.0
 30
0.0
 41
1.0
 10
-9.639425850610074
 20
0.0
 30
0.0
 41
1.0
 10
-9.612524332210429
 20
0.0285319338077127
 30
0.0
 41
1.0
 10
-9.609849272101613
 20
0.079570748398087
 30
0.0
 41
1.0
 10
-9.606833418695802
 20
0.1371117293665736
 30
0.0
 41
1.0
 10
-9.60381756528999
 20
0.1946527103350603
 30
0.0
 41
1.0
 10
-9.60080171188418
 20
0.2521936913035466
 30
0.0
 41
1.0
 10
-9.851148883657931
 20
0.2521936913035461
 30
0.0
 41
1.0
 10
-10.10149605543168
 20
0.2521936913035461
 30
0.0
 41
1.0
 10
-10.35184322720543
 20
0.2521936913035461
 30
0.0
 41
1.0
  0
SPLINE
  5
9E
330
1F
100
AcDbEntity
  8
0
100
AcDbSpline
210
0.0
220
0.0
230
1.0
 70
    15
 71
     3
 72
    23
 73
    19
 74
     0
 42
0.000000001
 43
0.0000000001
 40
4.256258097466129
 40
4.256258097466129
 40
4.256258097466129
 40
4.256258097466129
 40
4.429132749367409
 40
4.429132749367409
 40
4.429132749367409
 40
5.429132749367409
 40
5.429132749367409
 40
5.429132749367409
 40
6.00232161120809
 40
6.00232161120809
 40
6.00232161120809
 40
7.00232161120809
 40
7.00232161120809
 40
7.00232161120809
 40
7.17519626310937
 40
7.17519626310937
 40
7.17519626310937
 40
7.926237778430623
 40
7.926237778430623
 40
7.926237778430623
 40
7.926237778430623
 10
-11.90751305397405
 20
0.2521936913035471
 30
0.0
 41
1.0
 10
-11.90449720056823
 20
0.1946527103350603
 30
0.0
 41
1.0
 10
-11.90148134716242
 20
0.1371117293665736
 30
0.0
 41
1.0
 10
-11.89846549375661
 20
0.079570748398087
 30
0.0
 41
1.0
 10
-11.8957901683363
 20
0.0285268717965744
 30
0.0
 41
1.0
 10
-11.86887554969955
 20
0.0
 30
0.0
 41
1.0
 10
-11.81857513097592
 20
0.0
 30
0.0
 41
1.0
 10
-11.62751217702903
 20
0.0
 30
0.0
 41
1.0
 10
-11.43644922308213
 20
0.0
 30
0.0
 41
1.0
 10
-11.24538626913524
 20
0.0
 30
0.0
 41
1.0
 10
-11.19509567737869
 20
0.0
 30
0.0
 41
1.0
 10
-11.16819415897904
 20
0.0285319338077127
 30
0.0
 41
1.0
 10
-11.16551909887023
 20
0.079570748398087
 30
0.0
 41
1.0
 10
-11.16250324546441
 20
0.1371117293665736
 30
0.0
 41
1.0
 10
-11.1594873920586
 20
0.1946527103350603
 30
0.0
 41
1.0
 10
-11.15647153865279
 20
0.2521936913035466
 30
0.0
 41
1.0
 10
-11.40681871042654
 20
0.2521936913035461
 30
0.0
 41
1.0
 10
-11.65716588220029
 20
0.2521936913035461
 30
0.0
 41
1.0
 10
-11.90751305397405
 20
0.2521936913035461
 30
0.0
 41
1.0
  0
SPLINE
  5
9F
330
1F
100
AcDbEntity
  8
0
370
    -3
100
AcDbSpline
210
0.0
220
0.0
230
1.0
 70
    15
 71
     3
 72
    43
 73
    39
 74
     0
 42
0.000000001
 43
0.0000000001
 40
-2294.588356269898
 40
-2294.588356269898
 40
-2294.588356269898
 40
-2294.588356269898
 40
-2292.817490862014
 40
-2292.817490862014
 40
-2292.817490862014
 40
-2279.768606212684
 40
-2279.768606212684
 40
-2279.768606212684
 40
-2278.768606212684
 40
-2278.768606212684
 40
-2278.768606212684
 40
-2272.962223997322
 40
-2272.962223997322
 40
-2272.962223997322
 40
-2271.962223997323
 40
-2271.962223997323
 40
-2271.962223997323
 40
-2270.892421325195
 40
-2270.892421325195
 40
-2270.892421325195
 40
-2269.892421325195
 40
-2269.892421325195
 40
-2269.892421325195
 40
-2256.371272483747
 40
-2256.371272483747
 40
-2256.371272483747
 40
-2255.539021203849
 40
-2254.539021203849
 40
-2253.585656919643
 40
-2253.585656919643
 40
-2253.585656919643
 40
-2248.688612686646
 40
-2248.688612686646
 40
-2248.688612686646
 40
-2247.688612686646
 40
-2247.688612686646
 40
-2247.688612686646
 40
-2234.981919235619
 40
-2234.981919235619
 40
-2234.981919235619
 40
-2234.981919235619
 10
-0.0000000000000001
 20
7.919105513462272
 30
0.0
 41
1.0
 10
-0.0000000000000005
 20
7.328817044167295
 30
0.0
 41
1.0
 10
-0.0000000000000009
 20
6.738528574872316
 30
0.0
 41
1.0
 10
-0.0000000000000013
 20
6.148240105577337
 30
0.0
 41
1.0
 10
-3.075651607487167
 20
6.188499141237705
 30
0.0
 41
1.0
 10
-6.151303214974333
 20
6.228758176898073
 30
0.0
 41
1.0
 10
-9.226954822461497
 20
6.269017212558442
 30
0.0
 41
1.0
 10
-9.443151061661162
 20
6.271847133893611
 30
0.0
 41
1.0
 10
-9.548598382362925
 20
6.100477034612275
 30
0.0
 41
1.0
 10
-9.60148181091357
 20
5.863672939474189
 30
0.0
 41
1.0
 10
-10.01251976531229
 20
4.023106366420361
 30
0.0
 41
1.0
 10
-10.423557719711
 20
2.182539793366532
 30
0.0
 41
1.0
 10
-10.83459567410972
 20
0.3419732203127031
 30
0.0
 41
1.0
 10
-10.84636566969893
 20
0.2892689378622365
 30
0.0
 41
1.0
 10
-10.87931826240477
 20
0.2521936913035461
 30
0.0
 41
1.0
 10
-10.93164993169639
 20
0.2521936913035461
 30
0.0
 41
1.0
 10
-11.28825082240561
 20
0.2521936913035461
 30
0.0
 41
1.0
 10
-11.64485171311484
 20
0.2521936913035461
 30
0.0
 41
1.0
 10
-12.00145260382406
 20
0.2521936913035461
 30
0.0
 41
1.0
 10
-12.05622837297258
 20
0.2521936913035461
 30
0.0
 41
1.0
 10
-12.09447261429222
 20
0.3024789573485731
 30
0.0
 41
1.0
 10
-12.08629635137566
 20
0.3566410622793368
 30
0.0
 41
1.0
 10
-11.42222006790712
 20
4.755688611790474
 30
0.0
 41
1.0
 10
-10.75814378443857
 20
9.154736161301612
 30
0.0
 41
1.0
 10
-10.09406750097003
 20
13.55378371081275
 30
0.0
 41
1.0
 10
-9.970753465556735
 20
13.55954362308951
 30
0.0
 41
1.0
 10
-9.69876200937044
 20
13.53523643920814
 30
0.0
 41
1.0
 10
-9.28803050107347
 20
13.47907269035526
 30
0.0
 41
1.0
 10
-9.010660526570865
 20
13.39023406293642
 30
0.0
 41
1.0
 10
-8.874598223723819
 20
13.35112427739929
 30
0.0
 41
1.0
 10
-8.995790548328884
 20
11.72952439228283
 30
0.0
 41
1.0
 10
-9.116982872933951
 20
10.10792450716637
 30
0.0
 41
1.0
 10
-9.238175197539022
 20
8.486324622049906
 30
0.0
 41
1.0
 10
-9.252252645192417
 20
8.297962961591038
 30
0.0
 41
1.0
 10
-9.173859901942192
 20
8.039187629406804
 30
0.0
 41
1.0
 10
-8.984989105679041
 20
8.036715387068481
 30
0.0
 41
1.0
 10
-5.98999273711936
 20
7.99751209586641
 30
0.0
 41
1.0
 10
-2.99499636855968
 20
7.958308804664341
 30
0.0
 41
1.0
 10
-0.0000000000000001
 20
7.919105513462272
 30
0.0
 41
1.0
  0
SPLINE
  5
A0
330
1F
100
AcDbEntity
  8
0
100
AcDbSpline
210
0.0
220
0.0
230
1.0
 70
    15
 71
     3
 72
    23
 73
    19
 74
     0
 42
0.000000001
 43
0.0000000001
 40
4.256258097466129
 40
4.256258097466129
 40
4.256258097466129
 40
4.256258097466129
 40
4.429132749367409
 40
4.429132749367409
 40
4.429132749367409
 40
5.429132749367409
 40
5.429132749367409
 40
5.429132749367409
 40
6.00232161120809
 40
6.00232161120809
 40
6.00232161120809
 40
7.00232161120809
 40
7.00232161120809
 40
7.00232161120809
 40
7.17519626310937
 40
7.17519626310937
 40
7.17519626310937
 40
7.926237778430623
 40
7.926237778430623
 40
7.926237778430623
 40
7.926237778430623
 10
25.95497259949456
 20
0.2521936913035471
 30
0.0
 41
1.0
 10
25.95195674608874
 20
0.1946527103350603
 30
0.0
 41
1.0
 10
25.94894089268293
 20
0.1371117293665736
 30
0.0
 41
1.0
 10
25.94592503927712
 20
0.079570748398087
 30
0.0
 41
1.0
 10
25.94324971385681
 20
0.0285268717965744
 30
0.0
 41
1.0
 10
25.91633509522006
 20
0.0
 30
0.0
 41
1.0
 10
25.86603467649643
 20
0.0
 30
0.0
 41
1.0
 10
25.67497172254954
 20
0.0
 30
0.0
 41
1.0
 10
25.48390876860265
 20
0.0
 30
0.0
 41
1.0
 10
25.29284581465575
 20
0.0
 30
0.0
 41
1.0
 10
25.2425552228992
 20
0.0
 30
0.0
 41
1.0
 10
25.21565370449955
 20
0.0285319338077127
 30
0.0
 41
1.0
 10
25.21297864439074
 20
0.079570748398087
 30
0.0
 41
1.0
 10
25.20996279098492
 20
0.1371117293665736
 30
0.0
 41
1.0
 10
25.20694693757911
 20
0.1946527103350603
 30
0.0
 41
1.0
 10
25.2039310841733
 20
0.2521936913035466
 30
0.0
 41
1.0
 10
25.45427825594705
 20
0.2521936913035461
 30
0.0
 41
1.0
 10
25.7046254277208
 20
0.2521936913035461
 30
0.0
 41
1.0
 10
25.95497259949456
 20
0.2521936913035461
 30
0.0
 41
1.0
  0
SPLINE
  5
A1
330
1F
100
AcDbEntity
  8
0
100
AcDbSpline
210
0.0
220
0.0
230
1.0
 70
    15
 71
     3
 72
    23
 73
    19
 74
     0
 42
0.000000001
 43
0.0000000001
 40
4.256258097466129
 40
4.256258097466129
 40
4.256258097466129
 40
4.256258097466129
 40
4.429132749367409
 40
4.429132749367409
 40
4.429132749367409
 40
5.429132749367409
 40
5.429132749367409
 40
5.429132749367409
 40
6.00232161120809
 40
6.00232161120809
 40
6.00232161120809
 40
7.00232161120809
 40
7.00232161120809
 40
7.00232161120809
 40
7.17519626310937
 40
7.17519626310937
 40
7.17519626310937
 40
7.926237778430623
 40
7.926237778430623
 40
7.926237778430623
 40
7.926237778430623
 10
47.46581738175458
 20
0.2521936913035471
 30
0.0
 41
1.0
 10
47.46280152834876
 20
0.1946527103350603
 30
0.0
 41
1.0
 10
47.45978567494296
 20
0.1371117293665736
 30
0.0
 41
1.0
 10
47.45676982153714
 20
0.079570748398087
 30
0.0
 41
1.0
 10
47.45409449611683
 20
0.0285268717965744
 30
0.0
 41
1.0
 10
47.42717987748008
 20
0.0
 30
0.0
 41
1.0
 10
47.37687945875646
 20
0.0
 30
0.0
 41
1.0
 10
47.18581650480957
 20
0.0
 30
0.0
 41
1.0
 10
46.99475355086267
 20
0.0
 30
0.0
 41
1.0
 10
46.80369059691577
 20
0.0
 30
0.0
 41
1.0
 10
46.75340000515922
 20
0.0
 30
0.0
 41
1.0
 10
46.72649848675957
 20
0.0285319338077127
 30
0.0
 41
1.0
 10
46.72382342665076
 20
0.079570748398087
 30
0.0
 41
1.0
 10
46.72080757324495
 20
0.1371117293665736
 30
0.0
 41
1.0
 10
46.71779171983913
 20
0.1946527103350603
 30
0.0
 41
1.0
 10
46.71477586643333
 20
0.2521936913035466
 30
0.0
 41
1.0
 10
46.96512303820708
 20
0.2521936913035461
 30
0.0
 41
1.0
 10
47.21547020998082
 20
0.2521936913035461
 30
0.0
 41
1.0
 10
47.46581738175458
 20
0.2521936913035461
 30
0.0
 41
1.0
  0
SPLINE
  5
A2
330
1F
100
AcDbEntity
  8
0
100
AcDbSpline
210
0.0
220
0.0
230
1.0
 70
    11
 71
     3
 72
    69
 73
    65
 74
     0
 42
0.000000001
 43
0.0000000001
 40
0.0
 40
0.0
 40
0.0
 40
0.0
 40
0.9871858310229875
 40
0.9871858310229875
 40
0.9871858310229875
 40
1.987185831022988
 40
1.987185831022988
 40
1.987185831022988
 40
7.82520917001445
 40
7.82520917001445
 40
7.82520917001445
 40
8.82520917001445
 40
8.82520917001445
 40
8.82520917001445
 40
19.13600250160424
 40
19.13600250160424
 40
19.13600250160424
 40
20.13600250160424
 40
20.13600250160424
 40
20.13600250160424
 40
25.9423847263656
 40
25.9423847263656
 40
25.9423847263656
 40
26.9423847263656
 40
26.9423847263656
 40
26.9423847263656
 40
27.92075479310252
 40
27.92075479310252
 40
27.92075479310252
 40
28.92075479310252
 40
28.92075479310252
 40
28.92075479310252
 40
42.43476723536776
 40
42.43476723536776
 40
42.43476723536776
 40
43.28234110870413
 40
44.28234110870413
 40
45.16253332652774
 40
45.16253332652774
 40
45.16253332652774
 40
50.07061180676058
 40
50.07061180676058
 40
50.07061180676058
 40
51.07061180676058
 40
51.07061180676058
 40
51.07061180676058
 40
60.68074784794058
 40
60.68074784794058
 40
60.68074784794058
 40
61.68074784794058
 40
61.68074784794058
 40
61.68074784794058
 40
66.06448429148757
 40
66.06448429148757
 40
66.06448429148757
 40
66.94941002527365
 40
67.94941002527365
 40
68.94372110050516
 40
68.94372110050516
 40
68.94372110050516
 40
83.449348163078
 40
83.449348163078
 40
83.449348163078
 40
84.449348163078
 40
84.449348163078
 40
84.449348163078
 40
84.449348163078
 10
25.11462108791351
 20
0.2521936913035461
 30
0.0
 10
25.4734530303411
 20
0.2521936913035461
 30
0.0
 10
25.83228497276869
 20
0.2521936913035461
 30
0.0
 10
26.19111691519629
 20
0.2521936913035461
 30
0.0
 10
26.24176290156394
 20
0.2521936913035461
 30
0.0
 10
26.27658842697107
 20
0.2943292006190092
 30
0.0
 10
26.29171555433691
 20
0.3445256294848211
 30
0.0
 10
26.8293825906399
 20
2.128669075133981
 30
0.0
 10
27.36704962694289
 20
3.91281252078314
 30
0.0
 10
27.90471666324587
 20
5.6969559664323
 30
0.0
 10
27.96448666229832
 20
5.895291078789436
 30
0.0
 10
28.07080676019629
 20
6.043892420742518
 30
0.0
 10
28.2567877742604
 20
6.046327045580782
 30
0.0
 10
33.73867676346502
 20
6.11808890342894
 30
0.0
 10
39.22056575266964
 20
6.189850761277097
 30
0.0
 10
44.70245474187426
 20
6.261612619125255
 30
0.0
 10
44.91895574671992
 20
6.264446772528273
 30
0.0
 10
45.02633292911325
 20
6.091864154658946
 30
0.0
 10
45.08232206060406
 20
5.855054829729031
 30
0.0
 10
45.51748956962692
 20
4.01448825369532
 30
0.0
 10
45.95265707864979
 20
2.173921677661609
 30
0.0
 10
46.38782458767265
 20
0.3333551016278977
 30
0.0
 10
46.40038277847539
 20
0.2802394949529467
 30
0.0
 10
46.43440038728352
 20
0.2521936913035471
 30
0.0
 10
46.48744731501766
 20
0.2521936913035471
 30
0.0
 10
46.84356608740767
 20
0.2521936913035471
 30
0.0
 10
47.19968485979769
 20
0.2521936913035471
 30
0.0
 10
47.55580363218769
 20
0.2521936913035471
 30
0.0
 10
47.60623005227184
 20
0.2521066525345624
 30
0.0
 10
47.6487266466473
 20
0.305386247166989
 30
0.0
 10
47.63926030765277
 20
0.3630857469130758
 30
0.0
 10
46.91792135974426
 20
4.759811499681452
 30
0.0
 10
46.19658241183576
 20
9.15653725244983
 30
0.0
 10
45.47524346392724
 20
13.55326300521821
 30
0.0
 10
45.34698832773881
 20
13.56031381267705
 30
0.0
 10
45.06678901706028
 20
13.53887577010902
 30
0.0
 10
44.65616893663851
 20
13.48095730651209
 30
0.0
 10
44.38441191264693
 20
13.39134493795904
 30
0.0
 10
44.25641168726015
 20
13.35338446491282
 30
0.0
 10
44.3991632321821
 20
11.72813071571061
 30
0.0
 10
44.54191477710405
 20
10.10287696650841
 30
0.0
 10
44.68466632202599
 20
8.477623217306206
 30
0.0
 10
44.70715180770441
 20
8.22162164533394
 30
0.0
 10
44.58757291475464
 20
8.031260472494514
 30
0.0
 10
44.43863681607378
 20
8.029310792162963
 30
0.0
 10
39.15495585605183
 20
7.960143619548778
 30
0.0
 10
33.87127489602987
 20
7.890976446934594
 30
0.0
 10
28.58759393600792
 20
7.821809274320408
 30
0.0
 10
28.43212300824288
 20
7.819774048390119
 30
0.0
 10
28.29019642471635
 20
8.032780165195042
 30
0.0
 10
28.33618434927197
 20
8.32049913735734
 30
0.0
 10
28.56352674455085
 20
9.742844697210556
 30
0.0
 10
28.79086913982973
 20
11.16519025706377
 30
0.0
 10
29.01821153510861
 20
12.58753581691698
 30
0.0
 10
28.89899796830689
 20
12.74377104013052
 30
0.0
 10
28.67096648346379
 20
13.09490095966924
 30
0.0
 10
28.32655503856206
 20
13.63340886730759
 30
0.0
 10
28.11441845692208
 20
14.02315305631024
 30
0.0
 10
27.98396141724138
 20
14.20122503794554
 30
0.0
 10
27.00010866938707
 20
9.583768227182503
 30
0.0
 10
26.01625592153276
 20
4.966311416419466
 30
0.0
 10
25.03240317367846
 20
0.3488546056564293
 30
0.0
 10
25.02088870520237
 20
0.2948144446636647
 30
0.0
 10
25.05937257093389
 20
0.2521936913035461
 30
0.0
 10
25.11462108791351
 20
0.2521936913035461
 30
0.0
  0
SPLINE
  5
A3
330
1F
100
AcDbEntity
  8
0
370
    -3
100
AcDbSpline
210
0.0
220
0.0
230
1.0
 70
    12
 71
     5
 72
   153
 73
   147
 74
     0
 42
0.000000001
 43
0.0000000001
 40
0.0
 40
0.0
 40
0.0
 40
0.0
 40
0.0
 40
0.0
 40
1.0
 40
1.0
 40
1.0
 40
1.0
 40
2.0
 40
2.0
 40
2.0
 40
2.0
 40
3.0
 40
3.0
 40
3.0
 40
3.0
 40
4.0
 40
4.0
 40
4.0
 40
4.0
 40
4.0
 40
4.370476104531271
 40
4.370476104531271
 40
4.370476104531271
 40
4.370476104531271
 40
4.370476104531271
 40
5.370476104531271
 40
5.370476104531271
 40
5.370476104531271
 40
5.370476104531271
 40
6.370476104531271
 40
6.370476104531271
 40
6.370476104531271
 40
6.370476104531271
 40
7.370476104531271
 40
7.370476104531271
 40
7.370476104531271
 40
7.370476104531271
 40
8.37047610453127
 40
8.37047610453127
 40
8.37047610453127
 40
8.37047610453127
 40
9.37047610453127
 40
9.37047610453127
 40
9.37047610453127
 40
9.37047610453127
 40
10.37047610453127
 40
10.37047610453127
 40
10.37047610453127
 40
10.37047610453127
 40
10.37047610453127
 40
11.37047610453514
 40
11.37047610453514
 40
11.37047610453514
 40
11.37047610453514
 40
11.37047610453514
 40
12.37049397177423
 40
12.37049397177423
 40
12.37049397177423
 40
13.37051183901332
 40
13.37051183901332
 40
13.37051183901332
 40
13.37051183901332
 40
13.37051183901332
 40
14.37052970625242
 40
14.37052970625242
 40
14.37052970625242
 40
14.37052970625242
 40
14.37052970625242
 40
15.37054757349151
 40
15.37054757349151
 40
15.37054757349151
 40
15.37054757349151
 40
16.3705654407306
 40
16.3705654407306
 40
16.3705654407306
 40
16.3705654407306
 40
17.37058330796969
 40
17.37058330796969
 40
17.37058330796969
 40
17.37058330796969
 40
18.37060117520878
 40
18.37060117520878
 40
18.37060117520878
 40
18.37060117520878
 40
19.37061904244788
 40
19.37061904244788
 40
19.37061904244788
 40
19.37061904244788
 40
20.37047610453514
 40
20.37047610453514
 40
20.37047610453514
 40
20.37047610453514
 40
20.37047610453514
 40
21.37047610453514
 40
21.37047610453514
 40
21.37047610453514
 40
22.37047610453514
 40
22.37047610453514
 40
22.37047610453514
 40
23.37047610453514
 40
23.37047610453514
 40
23.37047610453514
 40
24.37047610453514
 40
24.37047610453514
 40
24.37047610453514
 40
24.37047610453514
 40
24.37047610453514
 40
36.18164705857638
 40
36.18164705857638
 40
36.18164705857638
 40
36.18164705857638
 40
36.18164705857638
 40
37.18164705857638
 40
37.18164705857638
 40
37.18164705857638
 40
38.18164705857638
 40
38.18164705857638
 40
38.18164705857638
 40
39.18164705857638
 40
39.18164705857638
 40
39.18164705857638
 40
39.18164705857638
 40
39.18164705857638
 40
40.47410587489937
 40
40.47410587489937
 40
40.47410587489937
 40
40.47410587489937
 40
40.47410587489937
 40
41.47410587489937
 40
41.47410587489937
 40
41.47410587489937
 40
42.47410587489937
 40
42.47410587489937
 40
42.47410587489937
 40
43.47410587489937
 40
43.47410587489937
 40
43.47410587489937
 40
43.47410587489937
 40
43.47410587489937
 40
43.85268045849427
 40
43.85268045849427
 40
43.85268045849427
 40
43.85268045849427
 40
43.85268045849427
 40
45.89740005005612
 40
45.89740005005612
 40
45.89740005005612
 40
45.89740005005612
 40
45.89740005005612
 40
45.89740005005612
 10
27.72330993598563
 20
12.97792514882616
 30
0.0
 41
1.0
 10
27.48515772209787
 20
13.56242797634389
 30
0.0
 41
1.0
 10
27.25771437111964
 20
14.15089480962508
 30
0.0
 41
1.0
 10
27.04097988305094
 20
14.74332564866972
 30
0.0
 41
1.0
 10
26.83495425789177
 20
15.33972049347781
 30
0.0
 41
1.0
 10
26.44432073339251
 20
16.5404381946209
 30
0.0
 41
1.0
 10
26.25233762809859
 20
17.14177764122512
 30
0.0
 41
1.0
 10
26.06368817976038
 20
17.74409768386201
 30
0.0
 41
1.0
 10
25.87837238837788
 20
18.34739832253157
 30
0.0
 41
1.0
 10
25.51440811952432
 20
19.55596079193605
 30
0.0
 41
1.0
 10
25.33475772493011
 20
20.16093292712436
 30
0.0
 41
1.0
 10
25.15743907016849
 20
20.76659596279872
 30
0.0
 41
1.0
 10
24.98245215523945
 20
21.37294989895917
 30
0.0
 41
1.0
 10
24.63714180504651
 20
22.58703957225217
 30
0.0
 41
1.0
 10
24.46688649458418
 20
23.19474536758838
 30
0.0
 41
1.0
 10
24.29903104875597
 20
23.8031121216143
 30
0.0
 41
1.0
 10
24.13357546756189
 20
24.41213983432993
 30
0.0
 41
1.0
 10
23.97051975100194
 20
25.02182850573527
 30
0.0
 41
1.0
 10
23.92185254787436
 20
25.07784653076427
 30
0.0
 41
0.9910505544593506
 10
23.87920916036714
 20
25.13888496387654
 30
0.0
 41
0.986575831689026
 10
23.84325179477505
 20
25.20418157740313
 30
0.0
 41
0.9865758316890261
 10
23.81446750771248
 20
25.27285190311368
 30
0.0
 41
0.9910505544593506
 10
23.79314641168017
 20
25.34392880971766
 30
0.0
 41
1.0
 10
23.75448544251661
 20
25.47281065004584
 30
0.0
 41
1.0
 10
23.7189025417669
 20
25.602454447057
 30
0.0
 41
1.0
 10
23.68639770943105
 20
25.73286020075113
 30
0.0
 41
1.0
 10
23.65697094550905
 20
25.86402791112824
 30
0.0
 41
1.0
 10
23.60427355449277
 20
26.12788724524843
 30
0.0
 41
1.0
 10
23.58001560393192
 20
26.26015452469035
 30
0.0
 41
1.0
 10
23.55784839831835
 20
26.3927594165141
 30
0.0
 41
1.0
 10
23.53777193765207
 20
26.52570192071967
 30
0.0
 41
1.0
 10
23.50180050621407
 20
26.79226215389447
 30
0.0
 41
1.0
 10
23.48577785691985
 20
26.92575566903897
 30
0.0
 41
1.0
 10
23.47171827405038
 20
27.05946258274059
 30
0.0
 41
1.0
 10
23.4596217576057
 20
27.1933828949993
 30
0.0
 41
1.0
 10
23.43935485756589
 20
27.46165031663095
 30
0.0
 41
1.0
 10
23.43148615739374
 20
27.59586075806577
 30
0.0
 41
1.0
 10
23.42588220706935
 20
27.73014793011957
 30
0.0
 41
1.0
 10
23.42254300659271
 20
27.86451183279237
 30
0.0
 41
1.0
 10
23.42039410533496
 20
28.13339309937595
 30
0.0
 41
1.0
 10
23.42246944170295
 20
28.26786516423592
 30
0.0
 41
1.0
 10
23.42769456506781
 20
28.40236866066407
 30
0.0
 41
1.0
 10
23.43606947542954
 20
28.5369035886604
 30
0.0
 41
1.0
 10
23.45911887014673
 20
28.80603630778945
 30
0.0
 41
1.0
 10
23.47979585419625
 20
28.93855176583263
 30
0.0
 41
1.0
 10
23.50962512493667
 20
29.06901632235449
 30
0.0
 41
1.0
 10
23.548606682368
 20
29.19742997735501
 30
0.0
 41
1.0
 10
23.59674052649025
 20
29.32379273083421
 30
0.0
 41
1.0
 10
23.80110117584677
 20
29.47849994946495
 30
0.0
 41
1.0
 10
24.03010991504223
 20
29.60064825011571
 30
0.0
 41
1.0
 10
24.27685713241623
 20
29.68498438981939
 30
0.0
 41
1.0
 10
24.53272086471014
 20
29.72856145347495
 30
0.0
 41
1.0
 10
24.78902161468521
 20
29.73130445673121
 30
0.0
 41
1.0
 10
25.22349292358998
 20
29.51136131091982
 30
0.0
 41
1.0
 10
25.5589323019078
 20
29.25543919275104
 30
0.0
 41
1.0
 10
25.8242260969897
 20
28.97311065242872
 30
0.0
 41
1.0
 10
26.2722952153837
 20
28.37478582788475
 30
0.0
 41
1.0
 10
26.67087277964229
 20
27.74741571635757
 30
0.0
 41
1.0
 10
26.85508122726254
 20
27.42571220385048
 30
0.0
 41
1.0
 10
27.02150189439861
 20
27.09523309960217
 30
0.0
 41
1.0
 10
27.16742733507534
 20
26.75522126861494
 30
0.0
 41
1.0
 10
27.9321272299569
 20
24.97344140755273
 30
0.0
 41
1.0
 10
28.6322794141338
 20
23.16575703562473
 30
0.0
 41
1.0
 10
29.28797310472902
 20
21.34075694301718
 30
0.0
 41
1.0
 10
29.91929751886559
 20
19.50702991991635
 30
0.0
 41
1.0
 10
30.5463418736665
 20
17.67316475650853
 30
0.0
 41
1.0
 10
30.58085192721577
 20
17.5722360351082
 30
0.0
 41
1.0
 10
30.61405195900455
 20
17.47090328221578
 30
0.0
 41
1.0
 10
30.64594196903286
 20
17.36916649783128
 30
0.0
 41
1.0
 10
30.67652195730068
 20
17.26702568195469
 30
0.0
 41
1.0
 10
30.73506189031535
 20
17.06193598721735
 30
0.0
 41
1.0
 10
30.76250687301301
 20
16.95893200202522
 30
0.0
 41
1.0
 10
30.78812687190098
 20
16.85546887900963
 30
0.0
 41
1.0
 10
30.81192188697927
 20
16.75154661817058
 30
0.0
 41
1.0
 10
30.8558619495165
 20
16.54278382084556
 30
0.0
 41
1.0
 10
30.87600475935779
 20
16.43808463362821
 30
0.0
 41
1.0
 10
30.89432034777177
 20
16.33306765785602
 30
0.0
 41
1.0
 10
30.91080871475845
 20
16.22773289352899
 30
0.0
 41
1.0
 10
30.94013100587716
 20
16.01642778776522
 30
0.0
 41
1.0
 10
30.95319311327933
 20
15.91061046128702
 30
0.0
 41
1.0
 10
30.96465618252433
 20
15.8046283612125
 30
0.0
 41
1.0
 10
30.97452021361214
 20
15.69848148754165
 30
0.0
 41
1.0
 10
30.99105019947338
 20
15.4858581930073
 30
0.0
 41
1.0
 10
30.99626456075149
 20
15.37932953313937
 30
0.0
 41
1.0
 10
30.99842829037707
 20
15.27258386067068
 30
0.0
 41
1.0
 10
30.99754138835012
 20
15.16562117560124
 30
0.0
 41
1.0
 10
30.98966695415556
 20
14.95127901500047
 30
0.0
 41
1.0
 10
30.99263674217457
 20
14.84503766271275
 30
0.0
 41
1.0
 10
31.00252052327635
 20
14.73971909333792
 30
0.0
 41
1.0
 10
31.01932560200962
 20
14.63532497914602
 30
0.0
 41
1.0
 10
31.04305928292307
 20
14.5318569924071
 30
0.0
 41
1.0
 10
31.16709704844052
 20
14.54864274268287
 30
0.0
 41
1.0
 10
31.2873559595675
 20
14.57936935344997
 30
0.0
 41
1.0
 10
31.40482729919929
 20
14.61996579192725
 30
0.0
 41
1.0
 10
31.63617740126302
 20
14.71275625873995
 30
0.0
 41
1.0
 10
31.86430748050817
 20
14.81245777414442
 30
0.0
 41
1.0
 10
31.97852560861957
 20
14.86155762946296
 30
0.0
 41
1.0
 10
32.20918423020701
 20
14.95329820626941
 30
0.0
 41
1.0
 10
32.44811995929761
 20
15.02220585728808
 30
0.0
 41
1.0
 10
32.56905416440722
 20
15.05213373577362
 30
0.0
 41
1.0
 10
32.81264938313206
 20
15.10530216754337
 30
0.0
 41
1.0
 10
33.05728647362221
 20
15.14982508660306
 30
0.0
 41
1.0
 10
33.17995515899971
 20
15.16964850813511
 30
0.0
 41
1.0
 10
33.30306365670072
 20
15.18675723184905
 30
0.0
 41
1.0
 10
33.42670163891638
 20
15.20087459792462
 30
0.0
 41
1.0
 10
35.90367567699295
 20
15.4837031319118
 30
0.0
 41
1.0
 10
38.38064971506954
 20
15.76653166589898
 30
0.0
 41
1.0
 10
40.85762375314611
 20
16.04936019988615
 30
0.0
 41
1.0
 10
43.33459779122269
 20
16.33218873387333
 30
0.0
 41
1.0
 10
45.81157182929927
 20
16.61501726786051
 30
0.0
 41
1.0
 10
46.11723644725755
 20
16.64991899652619
 30
0.0
 41
1.0
 10
46.42402927046199
 20
16.67542754163607
 30
0.0
 41
1.0
 10
46.73153032843667
 20
16.69065693193312
 30
0.0
 41
1.0
 10
47.3471089729746
 20
16.69878546038749
 30
0.0
 41
1.0
 10
47.96216079278594
 20
16.65870959953435
 30
0.0
 41
1.0
 10
48.26824870419607
 20
16.62383327027806
 30
0.0
 41
1.0
 10
48.87493594539743
 20
16.51882921110039
 30
0.0
 41
1.0
 10
49.46542085410537
 20
16.33217314458123
 30
0.0
 41
1.0
 10
49.75041244668139
 20
16.21288756758262
 30
0.0
 41
1.0
 10
50.01895289882488
 20
16.06209990494132
 30
0.0
 41
1.0
 10
50.26484193188124
 20
15.87426561475366
 30
0.0
 41
1.0
 10
50.37185352291479
 20
15.64135765462884
 30
0.0
 41
1.0
 10
50.4417580133611
 20
15.3914005139224
 30
0.0
 41
1.0
 10
50.47091531907823
 20
15.13227385518231
 30
0.0
 41
1.0
 10
50.45830661107428
 20
14.87303221026754
 30
0.0
 41
1.0
 10
50.40572985985435
 20
14.622167139493
 30
0.0
 41
1.0
 10
50.28665136317115
 20
14.47954492781438
 30
0.0
 41
1.0
 10
50.15015887627762
 20
14.35526574282528
 30
0.0
 41
1.0
 10
50.0007447915453
 20
14.24591789031345
 30
0.0
 41
1.0
 10
49.68505821114601
 20
14.05026146181981
 30
0.0
 41
1.0
 10
49.3536243783635
 20
13.88703680953717
 30
0.0
 41
1.0
 10
49.18480012612679
 20
13.81211279465389
 30
0.0
 41
1.0
 10
48.84259590446334
 20
13.672802121814
 30
0.0
 41
1.0
 10
48.49459815742135
 20
13.54888763164859
 30
0.0
 41
1.0
 10
48.31947922349111
 20
13.49006898534569
 30
0.0
 41
1.0
 10
48.14356855008704
 20
13.43367849093379
 30
0.0
 41
1.0
 10
47.96719445814453
 20
13.37900570152405
 30
0.0
 41
1.0
 10
47.8948079416709
 20
13.35656718616343
 30
0.0
 41
0.9944886584472125
 10
47.82065807049757
 20
13.34016304957992
 30
0.0
 41
0.9917329876708185
 10
47.74534825323513
 20
13.32998033756652
 30
0.0
 41
0.9917329876708185
 10
47.66950452737786
 20
13.3261036972482
 30
0.0
 41
0.9944886584472122
 10
47.59375830777142
 20
13.32851304448583
 30
0.0
 41
1.0
 10
47.19833846389167
 20
13.21224713876096
 30
0.0
 41
1.0
 10
46.80112789103433
 20
13.09905881452665
 30
0.0
 41
1.0
 10
46.40245670732904
 20
12.98891923889906
 30
0.0
 41
1.0
 10
46.00278894446591
 20
12.88175926791795
 30
0.0
 41
1.0
 10
45.6025162822888
 20
12.7775060885286
 30
0.0
 41
1.0
  0
SPLINE
  5
A4
330
1F
100
AcDbEntity
  8
0
370
    -3
100
AcDbSpline
210
0.0
220
0.0
230
1.0
 70
     8
 71
     3
 72
    40
 73
    36
 74
     0
 42
0.000000001
 43
0.0000000001
 40
0.0
 40
0.0
 40
0.0
 40
0.0
 40
1.0
 40
1.0
 40
1.0
 40
2.0
 40
2.0
 40
2.0
 40
3.0
 40
3.0
 40
3.0
 40
4.0
 40
4.0
 40
5.0
 40
5.0
 40
5.0
 40
6.0
 40
6.0
 40
7.0
 40
7.0
 40
8.0
 40
8.0
 40
8.0
 40
9.0
 40
10.0
 40
11.0
 40
12.0
 40
13.0
 40
14.0
 40
14.0
 40
14.0
 40
15.0
 40
15.0
 40
15.0
 40
16.0
 40
16.0
 40
16.0
 40
16.0
 10
23.97051975100194
 20
25.02182850573527
 30
0.0
 10
24.1496239679184
 20
25.01722940872616
 30
0.0
 10
24.32374196417372
 20
25.01369536568443
 30
0.0
 10
24.49787881067468
 20
25.01108558986236
 30
0.0
 10
24.68638358646253
 20
25.00826048296464
 30
0.0
 10
24.81879487037432
 20
24.86083757858386
 30
0.0
 10
25.22932244425257
 20
23.66837394825017
 30
0.0
 10
25.56505728684594
 20
22.69316152720309
 30
0.0
 10
25.89645271142066
 20
21.71643105049949
 30
0.0
 10
26.22350871797673
 20
20.73818251813939
 30
0.0
 10
26.55056472453281
 20
19.75993398577928
 30
0.0
 10
26.88135259970566
 20
18.78295665250794
 30
0.0
 10
27.5503920872849
 20
16.83154438414279
 30
0.0
 10
27.88918334977941
 20
15.85732213231201
 30
0.0
 10
28.23224613097881
 20
14.88458376283302
 30
0.0
 10
28.39492605438614
 20
14.41214314328525
 30
0.0
 10
28.63660667046631
 20
13.98365163667864
 30
0.0
 10
29.27796928797231
 20
13.21456684934775
 30
0.0
 10
29.66301346160974
 20
12.91110178720606
 30
0.0
 10
30.56182753865349
 20
12.46632632597021
 30
0.0
 10
31.0353884756868
 20
12.33360699294953
 30
0.0
 10
31.53310331123159
 20
12.29055605752607
 30
0.0
 10
32.361897286047
 20
12.21886770640415
 30
0.0
 10
34.00840430413884
 20
12.4538954207779
 30
0.0
 10
36.4781634686718
 20
12.70143540702163
 30
0.0
 10
38.94745304002116
 20
12.9813296690495
 30
0.0
 10
41.41585554976004
 20
13.26186649671594
 30
0.0
 10
43.884538196601
 20
13.54074310955806
 30
0.0
 10
45.52674497989746
 20
13.76042490334082
 30
0.0
 10
46.35291634800756
 20
13.8202084323125
 30
0.0
 10
46.87862222027476
 20
13.85824963472933
 30
0.0
 10
47.11956740648785
 20
13.89302916711324
 30
0.0
 10
47.23614222780058
 20
13.74180198726891
 30
0.0
 10
47.3475634541953
 20
13.59726033022216
 30
0.0
 10
47.46676881418559
 20
13.45949734929447
 30
0.0
 10
47.59375830777142
 20
13.32851304448583
 30
0.0
  0
SPLINE
  5
A5
330
1F
100
AcDbEntity
  8
0
370
    -3
100
AcDbSpline
210
0.0
220
0.0
230
1.0
 70
     8
 71
     3
 72
    40
 73
    36
 74
     0
 42
0.000000001
 43
0.0000000001
 40
0.0
 40
0.0
 40
0.0
 40
0.0
 40
1.0
 40
2.0
 40
3.0
 40
4.0
 40
5.0
 40
5.0
 40
5.0
 40
6.0
 40
6.0
 40
7.0
 40
7.0
 40
7.0
 40
8.0
 40
9.0
 40
10.0
 40
11.0
 40
12.0
 40
13.0
 40
13.0
 40
13.0
 40
14.0
 40
14.0
 40
15.0
 40
15.0
 40
15.0
 40
16.0
 40
17.0
 40
18.0
 40
19.0
 40
20.0
 40
20.0
 40
20.0
 40
20.33554346988053
 40
20.33554346988053
 40
20.33554346988053
 40
20.33554346988053
 10
24.78902161468521
 20
29.73130445673121
 30
0.0
 10
25.17271079448083
 20
29.39041662010361
 30
0.0
 10
25.3910240180057
 20
28.87485582997676
 30
0.0
 10
25.67590529734889
 20
28.09291522992826
 30
0.0
 10
25.96736138985545
 20
27.31139992709551
 30
0.0
 10
26.22894801944601
 20
26.5198371071098
 30
0.0
 10
26.4026375884654
 20
25.99189618835099
 30
0.0
 10
26.49233008258994
 20
25.72887777711693
 30
0.0
 10
27.06687497765226
 20
24.04529796069893
 30
0.0
 10
27.64096719197124
 20
22.36155445020961
 30
0.0
 10
28.78824625912253
 20
18.99374004108837
 30
0.0
 10
29.36414966338456
 20
17.31065148096374
 30
0.0
 10
29.94231693833295
 20
15.62838156527511
 30
0.0
 10
30.01947323314081
 20
15.40388301756184
 30
0.0
 10
30.24680357004711
 20
14.98137112852056
 30
0.0
 10
30.74263046295423
 20
14.45531339004291
 30
0.0
 10
31.39919976846679
 20
14.14716935940393
 30
0.0
 10
32.11680276582323
 20
14.08031378426497
 30
0.0
 10
32.82386710862461
 20
14.18121516461971
 30
0.0
 10
33.29618684760987
 20
14.22841375338409
 30
0.0
 10
33.53230229053994
 20
14.2547766777772
 30
0.0
 10
35.59702640216222
 20
14.48530867929251
 30
0.0
 10
37.66173501509246
 20
14.71600821863554
 30
0.0
 10
41.79112124356885
 20
15.17774237297704
 30
0.0
 10
43.85604519418205
 20
15.40639513220829
 30
0.0
 10
45.92119998117028
 20
15.63283357350004
 30
0.0
 10
46.18902619129936
 20
15.65842611030232
 30
0.0
 10
46.72374694122456
 20
15.71850943795652
 30
0.0
 10
47.52507559750221
 20
15.81495231247926
 30
0.0
 10
48.32917085214711
 20
15.88723281388136
 30
0.0
 10
49.13471234765422
 20
15.93307194988899
 30
0.0
 10
49.67240941033934
 20
15.96775865056728
 30
0.0
 10
49.94082169737676
 20
15.9614453590245
 30
0.0
 10
50.04882844221159
 20
15.93238544426756
 30
0.0
 10
50.15683518704642
 20
15.90332552951061
 30
0.0
 10
50.26484193188124
 20
15.87426561475366
 30
0.0
  0
SPLINE
  5
A6
330
1F
100
AcDbEntity
  8
0
370
    -3
100
AcDbSpline
210
0.0
220
0.0
230
1.0
 70
     8
 71
     3
 72
    48
 73
    44
 74
     0
 42
0.000000001
 43
0.0000000001
 40
-0.3249977639645602
 40
-0.3249977639645602
 40
-0.3249977639645602
 40
-0.3249977639645602
 40
0.0
 40
0.0
 40
0.0
 40
1.0
 40
2.0
 40
3.0
 40
4.0
 40
5.0
 40
5.0
 40
5.0
 40
6.0
 40
6.0
 40
7.0
 40
7.0
 40
7.0
 40
8.0
 40
9.0
 40
10.0
 40
11.0
 40
12.0
 40
13.0
 40
13.0
 40
13.0
 40
14.0
 40
14.0
 40
15.0
 40
15.0
 40
15.0
 40
16.0
 40
17.0
 40
18.0
 40
19.0
 40
20.0
 40
21.0
 40
22.0
 40
23.0
 40
24.0
 40
25.0
 40
25.0
 40
25.0
 40
25.14575172599047
 40
25.14575172599047
 40
25.14575172599047
 40
25.14575172599047
 10
50.40572985985435
 20
14.622167139493
 30
0.0
 10
50.30099074795746
 20
14.64983784709635
 30
0.0
 10
50.19625163606057
 20
14.6775085546997
 30
0.0
 10
50.09151252416369
 20
14.70517926230304
 30
0.0
 10
49.76644083714475
 20
14.73101590111705
 30
0.0
 10
49.114025656558
 20
14.68236573377724
 30
0.0
 10
48.13914907566823
 20
14.60493088975513
 30
0.0
 10
47.16509374024165
 20
14.5077029413882
 30
0.0
 10
46.19212328371998
 20
14.40291829325821
 30
0.0
 10
45.54379459759677
 20
14.32962904841116
 30
0.0
 10
45.21956510793169
 20
14.29368428743841
 30
0.0
 10
43.09150944429438
 20
14.05653061946821
 30
0.0
 10
40.96345292466182
 20
13.81938430950478
 30
0.0
 10
36.70733817340618
 20
13.34510640559144
 30
0.0
 10
34.5792849751578
 20
13.10793065216613
 30
0.0
 10
32.45123595428885
 20
12.87071809727219
 30
0.0
 10
32.18884614804837
 20
12.84146963743595
 30
0.0
 10
31.65756154660146
 20
12.83605837467743
 30
0.0
 10
30.87841632906365
 20
13.00595792518358
 30
0.0
 10
30.15945122275216
 20
13.35173479488679
 30
0.0
 10
29.54174489841916
 20
13.85651676564809
 30
0.0
 10
29.05669972952437
 20
14.48930145016395
 30
0.0
 10
28.83333302905756
 20
14.97128243965627
 30
0.0
 10
28.74808368587942
 20
15.22120283292565
 30
0.0
 10
28.17382128902544
 20
16.90473350555103
 30
0.0
 10
27.5995294514573
 20
18.58825413697686
 30
0.0
 10
26.45088689489272
 20
21.95527531742939
 30
0.0
 10
25.87671270799225
 20
23.6388360740335
 30
0.0
 10
25.30268561247358
 20
25.32244699701547
 30
0.0
 10
25.25670075922221
 20
25.45729040444896
 30
0.0
 10
25.16476093049307
 20
25.72698693799892
 30
0.0
 10
25.02659352658204
 20
26.13144504688685
 30
0.0
 10
24.88780957841296
 20
26.53568883834589
 30
0.0
 10
24.74801850949402
 20
26.93959793219394
 30
0.0
 10
24.60678424392864
 20
27.34295969542116
 30
0.0
 10
24.46332773655525
 20
27.74570793903272
 30
0.0
 10
24.31621165284665
 20
28.14650492058809
 30
0.0
 10
24.16365572313442
 20
28.54763284753678
 30
0.0
 10
23.99606386422679
 20
28.9340888769069
 30
0.0
 10
23.86001466239246
 20
29.18024631657321
 30
0.0
 10
23.72508951037884
 20
29.25472679158794
 30
0.0
 10
23.68230651574931
 20
29.2777487713367
 30
0.0
 10
23.63952352111978
 20
29.30077075108545
 30
0.0
 10
23.59674052649025
 20
29.32379273083421
 30
0.0
  0
POLYLINE
  5
A7
330
1F
100
AcDbEntity
  8
0
100
AcDb2dPolyline
 66
     1
 10
0.0
 20
0.0
 30
0.0
  0
VERTEX
  5
A8
330
A7
100
AcDbEntity
  8
0
100
AcDbVertex
100
AcDb2dVertex
 10
31.04303287873319
 20
14.53177027270609
 30
0.0
  0
VERTEX
  5
A9
330
A7
100
AcDbEntity
  8
0
100
AcDbVertex
100
AcDb2dVertex
 10
30.96312218187036
 20
14.36799297141396
 30
0.0
  0
SEQEND
  5
AA
330
A7
100
AcDbEntity
  8
0
  0
SPLINE
  5
AB
330
1F
100
AcDbEntity
  8
0
370
    -3
100
AcDbSpline
210
0.0
220
0.0
230
1.0
 70
     8
 71
     3
 72
    37
 73
    33
 74
     0
 42
0.000000001
 43
0.0000000001
 40
-12.0
 40
-12.0
 40
-12.0
 40
-12.0
 40
-11.0
 40
-10.0
 40
-9.0
 40
-8.0
 40
-8.0
 40
-8.0
 40
-7.0
 40
-6.0
 40
-5.0
 40
-4.0
 40
-3.0
 40
-2.0
 40
-1.0
 40
0.0
 40
0.0
 40
0.0
 40
1.0
 40
2.0
 40
3.0
 40
4.0
 40
5.0
 40
6.0
 40
7.0
 40
8.0
 40
8.0
 40
8.0
 40
9.0
 40
10.0
 40
11.0
 40
12.0
 40
12.0
 40
12.0
 40
12.0
 10
-12.51421031748775
 20
14.43462071294454
 30
0.0
 10
-12.5252801317111
 20
14.47156959547127
 30
0.0
 10
-12.47571867616045
 20
14.53153824320477
 30
0.0
 10
-12.37896845724494
 20
14.57171157307779
 30
0.0
 10
-12.2777884845682
 20
14.6009201008319
 30
0.0
 10
-12.20931062027297
 20
14.615832488522
 30
0.0
 10
-12.1746992034914
 20
14.6211855600438
 30
0.0
 10
-11.67259053463118
 20
14.69884269939427
 30
0.0
 10
-10.6561555198228
 20
14.72559269425841
 30
0.0
 10
-9.134340641075147
 20
14.70755300414637
 30
0.0
 10
-7.612049221088761
 20
14.67560414466606
 30
0.0
 10
-6.089746948859881
 20
14.65557740329411
 30
0.0
 10
-4.567353037273859
 20
14.63970811661328
 30
0.0
 10
-3.044922419385903
 20
14.62932436572337
 30
0.0
 10
-1.522465911735139
 20
14.62337645284389
 30
0.0
 10
-0.5074886363521844
 20
14.62216758308344
 30
0.0
 10
0.0
 20
14.622167139493
 30
0.0
 10
0.5074886363521844
 20
14.62216758308344
 30
0.0
 10
1.522465911735139
 20
14.62337645284389
 30
0.0
 10
3.044922419385903
 20
14.62932436572337
 30
0.0
 10
4.567353037273859
 20
14.63970811661328
 30
0.0
 10
6.089746948859881
 20
14.65557740329411
 30
0.0
 10
7.612049221088761
 20
14.67560414466606
 30
0.0
 10
9.134340641075147
 20
14.70755300414637
 30
0.0
 10
10.6561555198228
 20
14.72559269425841
 30
0.0
 10
11.67259053463118
 20
14.69884269939427
 30
0.0
 10
12.1746992034914
 20
14.6211855600438
 30
0.0
 10
12.20931062027297
 20
14.615832488522
 30
0.0
 10
12.2777884845682
 20
14.6009201008319
 30
0.0
 10
12.37896845724494
 20
14.57171157307779
 30
0.0
 10
12.47571867616045
 20
14.53153824320477
 30
0.0
 10
12.5252801317111
 20
14.47156959547127
 30
0.0
 10
12.51421031748775
 20
14.43462071294454
 30
0.0
  0
SPLINE
  5
AC
330
1F
100
AcDbEntity
  8
0
370
    -3
100
AcDbSpline
210
0.0
220
0.0
230
1.0
 70
     8
 71
     3
 72
    29
 73
    25
 74
     0
 42
0.000000001
 43
0.0000000001
 40
-8.0
 40
-8.0
 40
-8.0
 40
-8.0
 40
-7.0
 40
-6.0
 40
-5.0
 40
-4.0
 40
-4.0
 40
-4.0
 40
-3.0
 40
-2.0
 40
-1.0
 40
0.0
 40
0.0
 40
0.0
 40
1.0
 40
2.0
 40
3.0
 40
4.0
 40
4.0
 40
4.0
 40
5.0
 40
6.0
 40
7.0
 40
8.0
 40
8.0
 40
8.0
 40
8.0
 10
-12.37393223337376
 20
15.76731608142264
 30
0.0
 10
-12.34269933993815
 20
15.79631007787471
 30
0.0
 10
-12.26561010704605
 20
15.83376342031739
 30
0.0
 10
-12.14264543533998
 20
15.86561023529964
 30
0.0
 10
-12.01739527049212
 20
15.88650860205261
 30
0.0
 10
-11.93348209552609
 20
15.89762438431637
 30
0.0
 10
-11.89130556382922
 20
15.90084987910884
 30
0.0
 10
-10.9025910690088
 20
15.97646286400755
 30
0.0
 10
-8.919147469607069
 20
15.96725292749846
 30
0.0
 10
-5.946907930402377
 20
15.89801564732022
 30
0.0
 10
-2.973360275806612
 20
15.87890221396804
 30
0.0
 10
-0.9911459150761022
 20
15.87403348734134
 30
0.0
 10
0.0
 20
15.87426561475366
 30
0.0
 10
0.9911459150761022
 20
15.87403348734134
 30
0.0
 10
2.973360275806612
 20
15.87890221396804
 30
0.0
 10
5.946907930402377
 20
15.89801564732022
 30
0.0
 10
8.919147469607069
 20
15.96725292749846
 30
0.0
 10
10.9025910690088
 20
15.97646286400755
 30
0.0
 10
11.89130556382922
 20
15.90084987910884
 30
0.0
 10
11.93348209552609
 20
15.89762438431637
 30
0.0
 10
12.01739527049212
 20
15.88650860205261
 30
0.0
 10
12.14264543533998
 20
15.86561023529964
 30
0.0
 10
12.26561010704605
 20
15.83376342031739
 30
0.0
 10
12.34269933993815
 20
15.79631007787471
 30
0.0
 10
12.37393223337376
 20
15.76731608142264
 30
0.0
  0
SPLINE
  5
AD
330
1F
100
AcDbEntity
  8
0
370
    -3
100
AcDbSpline
210
0.0
220
0.0
230
1.0
 70
    12
 71
     3
 72
   119
 73
   115
 74
     0
 42
0.000000001
 43
0.0000000001
 40
-0.2810285771869001
 40
-0.2810285771869001
 40
-0.2810285771869001
 40
-0.2810285771869001
 40
0.0
 40
0.0
 40
0.0
 40
1.0
 40
2.0
 40
3.0
 40
4.0
 40
5.0
 40
5.0
 40
5.0
 40
6.0
 40
6.0
 40
6.0
 40
7.0
 40
8.0
 40
9.0
 40
10.0
 40
11.0
 40
11.0
 40
11.0
 40
12.0
 40
12.0
 40
13.0
 40
13.0
 40
14.0
 40
14.0
 40
15.0
 40
15.0
 40
16.0
 40
16.0
 40
17.0
 40
17.0
 40
18.0
 40
18.0
 40
19.0
 40
19.0
 40
20.0
 40
20.0
 40
21.0
 40
21.0
 40
22.0
 40
22.0
 40
23.0
 40
23.0
 40
24.0
 40
24.0
 40
25.0
 40
25.0
 40
26.0
 40
26.0
 40
27.0
 40
27.0
 40
28.0
 40
28.0
 40
29.0
 40
29.0
 40
29.0
 40
30.0
 40
30.0
 40
31.0
 40
31.0
 40
32.0
 40
32.0
 40
33.0
 40
33.0
 40
34.0
 40
34.0
 40
35.0
 40
35.0
 40
36.0
 40
36.0
 40
37.0
 40
37.0
 40
38.0
 40
38.0
 40
39.0
 40
39.0
 40
40.0
 40
40.0
 40
41.0
 40
41.0
 40
42.0
 40
42.0
 40
43.0
 40
43.0
 40
44.0
 40
44.0
 40
45.0
 40
45.0
 40
46.0
 40
46.0
 40
47.0
 40
47.0
 40
47.0
 40
48.0
 40
49.0
 40
50.0
 40
51.0
 40
52.0
 40
52.0
 40
52.0
 40
53.0
 40
53.0
 40
53.0
 40
54.0
 40
55.0
 40
56.0
 40
57.0
 40
58.0
 40
58.0
 40
58.0
 40
58.2810285771869
 40
58.2810285771869
 40
58.2810285771869
 40
58.2810285771869
 10
10.28149654901517
 20
12.31219548512922
 30
0.0
 41
0.9753699400905008
 10
10.41645441400095
 20
12.2796390416
 30
0.0
 41
0.9419108072470619
 10
10.51249700806321
 20
12.27828418127217
 30
0.0
 41
0.950120827216895
 10
10.60264511270672
 20
12.31020476503879
 30
0.0
 41
1.0
 10
10.77990690574719
 20
12.37297147472997
 30
0.0
 41
1.0
 10
11.12518104701476
 20
12.55220879476753
 30
0.0
 41
1.0
 10
11.47067125258124
 20
13.00870959744875
 30
0.0
 41
1.0
 10
11.81006586745439
 20
13.46156830542428
 30
0.0
 41
1.0
 10
12.14642045933462
 20
13.92054868076745
 30
0.0
 41
1.0
 10
12.37175000564576
 20
14.2258345360036
 30
0.0
 41
1.0
 10
12.48088707426047
 20
14.37700491338076
 30
0.0
 41
1.0
 10
12.49195425621155
 20
14.39233453596715
 30
0.0
 41
1.0
 10
12.50933161745825
 20
14.41707057304244
 30
0.0
 41
1.0
 10
12.51421031476224
 20
14.43462071289425
 30
0.0
 41
1.0
 10
12.53876988013702
 20
14.5229688476871
 30
0.0
 41
1.0
 10
12.57501094342678
 20
14.7033421346245
 30
0.0
 41
1.0
 10
12.5883301565127
 20
14.97875514362933
 30
0.0
 41
1.0
 10
12.56166257626917
 20
15.25379927411501
 30
0.0
 41
1.0
 10
12.49121034059481
 20
15.51931995599243
 30
0.0
 41
1.0
 10
12.42876586852649
 20
15.69426016552319
 30
0.0
 41
1.0
 10
12.37393223337376
 20
15.76731608142265
 30
0.0
 41
1.0
 10
12.19214927600338
 20
15.92613170472676
 30
0.0
 41
1.0
 10
11.99269062526664
 20
16.04831085793449
 30
0.0
 41
1.0
 10
11.55842193706044
 20
16.21939622415718
 30
0.0
 41
1.0
 10
11.33685588562241
 20
16.28833170803276
 30
0.0
 41
1.0
 10
10.88486036807645
 20
16.39298827731233
 30
0.0
 41
1.0
 10
10.65698124571684
 20
16.43515924048632
 30
0.0
 41
1.0
 10
10.19746027382435
 20
16.49918652390272
 30
0.0
 41
1.0
 10
9.966975598843254
 20
16.52417892799176
 30
0.0
 41
1.0
 10
9.50455787081133
 20
16.56012126093153
 30
0.0
 41
1.0
 10
9.273093248324223
 20
16.57331274029799
 30
0.0
 41
1.0
 10
8.809652486407709
 20
16.59013632482406
 30
0.0
 41
1.0
 10
8.57790896166731
 20
16.597557914294
 30
0.0
 41
1.0
 10
8.114375624622229
 20
16.61042068764768
 30
0.0
 41
1.0
 10
7.882597748571434
 20
16.61646076287012
 30
0.0
 41
1.0
 10
7.419019581413333
 20
16.62775829040618
 30
0.0
 41
1.0
 10
7.187219742937677
 20
16.63291784091417
 30
0.0
 41
1.0
 10
6.723598556193155
 20
16.64225851541008
 30
0.0
 41
1.0
 10
6.491780389551574
 20
16.64651458896691
 30
0.0
 41
1.0
 10
6.028128909729769
 20
16.65419820869829
 30
0.0
 41
1.0
 10
5.796297680326816
 20
16.65767254189598
 30
0.0
 41
1.0
 10
5.332624242536812
 20
16.66388625495535
 30
0.0
 41
1.0
 10
5.10078360226571
 20
16.66666398582805
 30
0.0
 41
1.0
 10
4.637094478971302
 20
16.67156119625945
 30
0.0
 41
1.0
 10
4.405247288775942
 20
16.67372607193587
 30
0.0
 41
1.0
 10
3.941547651288905
 20
16.67748836421015
 30
0.0
 41
1.0
 10
3.70969614543459
 20
16.67912962959864
 30
0.0
 41
1.0
 10
3.245989759504367
 20
16.68193239887834
 30
0.0
 41
1.0
 10
3.014135553908263
 20
16.68313653909582
 30
0.0
 41
1.0
 10
2.550425117454069
 20
16.68515033068605
 30
0.0
 41
1.0
 10
2.318569329264723
 20
16.68599865801515
 30
0.0
 41
1.0
 10
1.85485661296153
 20
16.68737817574139
 30
0.0
 41
1.0
 10
1.622999957694637
 20
16.68794513855932
 30
0.0
 41
1.0
 10
1.159286052930258
 20
16.68883347210484
 30
0.0
 41
1.0
 10
0.9274289713790648
 20
16.68918910410602
 30
0.0
 41
1.0
 10
0.4637145499386704
 20
16.68972329856521
 30
0.0
 41
1.0
 10
0.2318572963879824
 20
16.69009403611943
 30
0.0
 41
1.0
 10
0.0
 20
16.69009403611984
 30
0.0
 41
1.0
 10
-0.2318572963879824
 20
16.69009403611943
 30
0.0
 41
1.0
 10
-0.4637145499386704
 20
16.68972329856521
 30
0.0
 41
1.0
 10
-0.9274289713790648
 20
16.68918910410602
 30
0.0
 41
1.0
 10
-1.159286052930258
 20
16.68883347210484
 30
0.0
 41
1.0
 10
-1.622999957694637
 20
16.68794513855932
 30
0.0
 41
1.0
 10
-1.85485661296153
 20
16.68737817574139
 30
0.0
 41
1.0
 10
-2.318569329264723
 20
16.68599865801515
 30
0.0
 41
1.0
 10
-2.550425117454069
 20
16.68515033068605
 30
0.0
 41
1.0
 10
-3.014135553908263
 20
16.68313653909582
 30
0.0
 41
1.0
 10
-3.245989759504367
 20
16.68193239887834
 30
0.0
 41
1.0
 10
-3.70969614543459
 20
16.67912962959864
 30
0.0
 41
1.0
 10
-3.941547651288905
 20
16.67748836421015
 30
0.0
 41
1.0
 10
-4.405247288775942
 20
16.67372607193587
 30
0.0
 41
1.0
 10
-4.637094478971302
 20
16.67156119625945
 30
0.0
 41
1.0
 10
-5.10078360226571
 20
16.66666398582805
 30
0.0
 41
1.0
 10
-5.332624242536812
 20
16.66388625495535
 30
0.0
 41
1.0
 10
-5.796297680326816
 20
16.65767254189598
 30
0.0
 41
1.0
 10
-6.028128909729769
 20
16.65419820869829
 30
0.0
 41
1.0
 10
-6.491780389551574
 20
16.64651458896691
 30
0.0
 41
1.0
 10
-6.723598556193155
 20
16.64225851541008
 30
0.0
 41
1.0
 10
-7.187219742937677
 20
16.63291784091417
 30
0.0
 41
1.0
 10
-7.419019581413333
 20
16.62775829040618
 30
0.0
 41
1.0
 10
-7.882597748571434
 20
16.61646076287012
 30
0.0
 41
1.0
 10
-8.114375624622229
 20
16.61042068764768
 30
0.0
 41
1.0
 10
-8.57790896166731
 20
16.597557914294
 30
0.0
 41
1.0
 10
-8.809652486407709
 20
16.59013632482406
 30
0.0
 41
1.0
 10
-9.273093248324223
 20
16.57331274029799
 30
0.0
 41
1.0
 10
-9.50455787081133
 20
16.56012126093153
 30
0.0
 41
1.0
 10
-9.966975598843254
 20
16.52417892799176
 30
0.0
 41
1.0
 10
-10.19746027382435
 20
16.49918652390272
 30
0.0
 41
1.0
 10
-10.65698124571684
 20
16.43515924048632
 30
0.0
 41
1.0
 10
-10.88486036807645
 20
16.39298827731233
 30
0.0
 41
1.0
 10
-11.33685588562241
 20
16.28833170803276
 30
0.0
 41
1.0
 10
-11.55842193706044
 20
16.21939622415718
 30
0.0
 41
1.0
 10
-11.99269062526664
 20
16.04831085793449
 30
0.0
 41
1.0
 10
-12.19214927600338
 20
15.92613170472676
 30
0.0
 41
1.0
 10
-12.37393223337376
 20
15.76731608142265
 30
0.0
 41
1.0
 10
-12.42876586852649
 20
15.69426016552319
 30
0.0
 41
1.0
 10
-12.49121034059481
 20
15.51931995599243
 30
0.0
 41
1.0
 10
-12.56166257626917
 20
15.25379927411501
 30
0.0
 41
1.0
 10
-12.5883301565127
 20
14.97875514362933
 30
0.0
 41
1.0
 10
-12.57501094342678
 20
14.7033421346245
 30
0.0
 41
1.0
 10
-12.53876988013702
 20
14.5229688476871
 30
0.0
 41
1.0
 10
-12.51421031476224
 20
14.43462071289425
 30
0.0
 41
1.0
 10
-12.50933161745825
 20
14.41707057304244
 30
0.0
 41
1.0
 10
-12.49195425621155
 20
14.39233453596715
 30
0.0
 41
1.0
 10
-12.48088707426047
 20
14.37700491338076
 30
0.0
 41
1.0
 10
-12.37175000564576
 20
14.2258345360036
 30
0.0
 41
1.0
 10
-12.14642045933462
 20
13.92054868076745
 30
0.0
 41
1.0
 10
-11.81006586745439
 20
13.46156830542428
 30
0.0
 41
1.0
 10
-11.47067125258124
 20
13.00870959744875
 30
0.0
 41
1.0
 10
-11.12518104701476
 20
12.55220879476753
 30
0.0
 41
1.0
 10
-10.77990690574719
 20
12.37297147472997
 30
0.0
 41
1.0
 10
-10.60264511270672
 20
12.31020476503879
 30
0.0
 41
1.0
 10
-10.51249700806321
 20
12.27828418127217
 30
0.0
 41
0.950120827216895
 10
-10.41645441400095
 20
12.2796390416
 30
0.0
 41
0.9419108072470619
 10
-10.28149654901517
 20
12.31219548512922
 30
0.0
 41
0.9753699400905008
  0
SPLINE
  5
AE
330
1F
100
AcDbEntity
  8
0
370
    -3
100
AcDbSpline
210
0.0
220
0.0
230
1.0
 70
    28
 71
     2
 72
     6
 73
     3
 74
     0
 42
0.000000001
 43
0.0000000001
 40
7.002902816990607
 40
7.002902816990607
 40
7.002902816990607
 40
7.176747532370385
 40
7.176747532370385
 40
7.176747532370385
 10
-11.8992297529404
 20
0.08371967225861
 30
0.0
 41
1.0
 10
-11.903778917649
 20
0.170515469234549
 30
0.0
 41
1.0
 10
-11.9083280823576
 20
0.2573112662104879
 30
0.0
 41
1.0
  0
SPLINE
  5
AF
330
1F
100
AcDbEntity
  8
0
370
    -3
100
AcDbSpline
210
0.0
220
0.0
230
1.0
 70
    12
 71
     2
 72
     6
 73
     3
 74
     0
 42
0.000000001
 43
0.0000000001
 40
0.0633616266324005
 40
0.0633616266324005
 40
0.0633616266324005
 40
0.0771849838614956
 40
0.0771849838614956
 40
0.0771849838614956
 10
-9.226954822461497
 20
6.269017212558442
 30
0.0
 41
1.0
 10
-9.230881701147318
 20
6.269068613812302
 30
0.0
 41
0.9969784602317813
 10
-9.234807907069154
 20
6.26901722136466
 30
0.0
 41
0.9940512020018935
  0
SPLINE
  5
B0
330
1F
100
AcDbEntity
  8
0
370
    -3
100
AcDbSpline
210
0.0
220
0.0
230
1.0
 70
    12
 71
     2
 72
     6
 73
     3
 74
     0
 42
0.000000001
 43
0.0000000001
 40
-0.8868917707115462
 40
-0.8868917707115462
 40
-0.8868917707115462
 40
-0.883653234335108
 40
-0.883653234335108
 40
-0.883653234335108
 10
-9.519498781305664
 20
13.71783259852129
 30
0.0
 41
0.9625780430157724
 10
-9.519433244994628
 20
13.71783571339529
 30
0.0
 41
0.9621106309292868
 10
-9.51936738181016
 20
13.71784264901484
 30
0.0
 41
0.9616471313867203
  0
SPLINE
  5
B1
330
1F
100
AcDbEntity
  8
0
370
    -3
100
AcDbSpline
210
0.0
220
0.0
230
1.0
 70
    12
 71
     2
 72
     6
 73
     3
 74
     0
 42
0.000000001
 43
0.0000000001
 40
-0.133580966322919
 40
-0.133580966322919
 40
-0.133580966322919
 40
0.0
 40
0.0
 40
0.0
 10
-8.974126241324495
 20
13.67328784832674
 30
0.0
 41
0.9564836676380224
 10
-8.976547571362312
 20
13.67266355062933
 30
0.0
 41
0.9748872481613808
 10
-8.978462598719332
 20
13.67838306767223
 30
0.0
 41
1.0
  0
SPLINE
  5
B2
330
1F
100
AcDbEntity
  8
0
370
    -3
100
AcDbSpline
210
0.0
220
0.0
230
1.0
 70
    12
 71
     2
 72
     6
 73
     3
 74
     0
 42
0.000000001
 43
0.0000000001
 40
0.0633616266324005
 40
0.0633616266324005
 40
0.0633616266324005
 40
0.0771849838614956
 40
0.0771849838614956
 40
0.0771849838614956
 10
9.226954822461497
 20
6.269017212558442
 30
0.0
 41
1.0
 10
9.230881701147318
 20
6.269068613812302
 30
0.0
 41
0.9969784602317813
 10
9.234807907069154
 20
6.26901722136466
 30
0.0
 41
0.9940512020018935
  0
SPLINE
  5
B3
330
1F
100
AcDbEntity
  8
0
370
    -3
100
AcDbSpline
210
0.0
220
0.0
230
1.0
 70
    12
 71
     2
 72
     6
 73
     3
 74
     0
 42
0.000000001
 43
0.0000000001
 40
-0.8868917707115462
 40
-0.8868917707115462
 40
-0.8868917707115462
 40
-0.883653234335108
 40
-0.883653234335108
 40
-0.883653234335108
 10
9.519498781305664
 20
13.71783259852129
 30
0.0
 41
0.9625780430157724
 10
9.519433244994628
 20
13.71783571339529
 30
0.0
 41
0.9621106309292868
 10
9.51936738181016
 20
13.71784264901484
 30
0.0
 41
0.9616471313867203
  0
SPLINE
  5
B4
330
1F
100
AcDbEntity
  8
0
370
    -3
100
AcDbSpline
210
0.0
220
0.0
230
1.0
 70
    12
 71
     2
 72
     6
 73
     3
 74
     0
 42
0.000000001
 43
0.0000000001
 40
-0.133580966322919
 40
-0.133580966322919
 40
-0.133580966322919
 40
0.0
 40
0.0
 40
0.0
 10
8.974126241324495
 20
13.67328784832674
 30
0.0
 41
0.9564836676380224
 10
8.976547571362312
 20
13.67266355062933
 30
0.0
 41
0.9748872481613808
 10
8.978462598719332
 20
13.67838306767223
 30
0.0
 41
1.0
  0
SPLINE
  5
B5
330
1F
100
AcDbEntity
  8
0
370
    -3
100
AcDbSpline
210
0.0
220
0.0
230
1.0
 70
    28
 71
     2
 72
     6
 73
     3
 74
     0
 42
0.000000001
 43
0.0000000001
 40
7.002902816990607
 40
7.002902816990607
 40
7.002902816990607
 40
7.176747532370385
 40
7.176747532370385
 40
7.176747532370385
 10
11.8992297529404
 20
0.08371967225861
 30
0.0
 41
1.0
 10
11.903778917649
 20
0.170515469234549
 30
0.0
 41
1.0
 10
11.9083280823576
 20
0.2573112662104879
 30
0.0
 41
1.0
  0
ENDSEC
  0
SECTION
  2
OBJECTS
  0
DICTIONARY
  5
C
330
0
100
AcDbDictionary
281
     1
  3
ACAD_DETAILVIEWSTYLE
350
F1
  3
ACAD_GROUP
350
D
  3
ACAD_LAYOUT
350
1A
  3
ACAD_MATERIAL
350
43
  3
ACAD_MLEADERSTYLE
350
6B
  3
ACAD_MLINESTYLE
350
17
  3
ACAD_PLOTSETTINGS
350
19
  3
ACAD_PLOTSTYLENAME
350
E
  3
ACAD_SCALELIST
350
47
  3
ACAD_SECTIONVIEWSTYLE
350
F2
  3
ACAD_TABLESTYLE
350
69
  3
ACAD_VISUALSTYLE
350
2A
  3
ACDB_RECOMPOSE_DATA
350
EE
  3
AcDbVariableDictionary
350
B6
  0
SUN
  5
6D
330
29
100
AcDbSun
 90
        1
290
     0
 63
     7
421
 16777215
 40
1.0
291
     1
 91
  2455826
 92
 54000000
292
     0
 70
     2
 71
   256
280
     1
  0
DICTIONARY
  5
F1
102
{ACAD_REACTORS
330
C
102
}
330
C
100
AcDbDictionary
281
     1
  0
DICTIONARY
  5
D
102
{ACAD_REACTORS
330
C
102
}
330
C
100
AcDbDictionary
281
     1
  0
DICTIONARY
  5
1A
102
{ACAD_REACTORS
330
C
102
}
330
C
100
AcDbDictionary
281
     1
  3
Layout1
350
1E
  3
Layout2
350
26
  3
Model
350
22
  0
DICTIONARY
  5
43
102
{ACAD_REACTORS
330
C
102
}
330
C
100
AcDbDictionary
281
     1
  3
ByBlock
350
45
  3
ByLayer
350
44
  3
Global
350
46
  0
DICTIONARY
  5
6B
102
{ACAD_REACTORS
330
C
102
}
330
C
100
AcDbDictionary
281
     1
  3
Standard
350
6C
  0
DICTIONARY
  5
17
102
{ACAD_REACTORS
330
C
102
}
330
C
100
AcDbDictionary
281
     1
  3
Standard
350
18
  0
DICTIONARY
  5
19
102
{ACAD_REACTORS
330
C
102
}
330
C
100
AcDbDictionary
281
     1
  0
ACDBDICTIONARYWDFLT
  5
E
102
{ACAD_REACTORS
330
C
102
}
330
C
100
AcDbDictionary
281
     1
  3
Normal
350
F
100
AcDbDictionaryWithDefault
340
F
  0
DICTIONARY
  5
47
102
{ACAD_REACTORS
330
C
102
}
330
C
100
AcDbDictionary
281
     1
  3
A0
350
48
  3
A1
350
49
  3
A2
350
4A
  3
A3
350
4B
  3
A4
350
4C
  3
A5
350
4D
  3
A6
350
4E
  3
A7
350
4F
  3
A8
350
50
  3
A9
350
51
  3
B0
350
52
  3
B1
350
53
  3
B2
350
54
  3
B3
350
55
  3
B4
350
56
  3
B5
350
57
  3
B6
350
58
  3
B7
350
59
  3
B8
350
5A
  3
B9
350
5B
  3
C0
350
5C
  3
C1
350
5D
  3
C2
350
5E
  3
C3
350
5F
  3
C4
350
60
  3
C5
350
61
  3
C6
350
62
  3
C7
350
63
  3
C8
350
64
  3
C9
350
65
  3
D0
350
66
  3
D1
350
67
  3
D2
350
68
  0
DICTIONARY
  5
F2
102
{ACAD_REACTORS
330
C
102
}
330
C
100
AcDbDictionary
281
     1
  0
DICTIONARY
  5
69
102
{ACAD_REACTORS
330
C
102
}
330
C
100
AcDbDictionary
281
     1
  3
Standard
350
6A
  0
DICTIONARY
  5
2A
102
{ACAD_REACTORS
330
C
102
}
330
C
100
AcDbDictionary
281
     1
  3
2dWireframe
350
2F
  3
Basic
350
32
  3
Brighten
350
36
  3
ColorChange
350
3A
  3
Conceptual
350
34
  3
Dim
350
35
  3
EdgeColorOff
350
3D
  3
Facepattern
350
39
  3
Flat
350
2B
  3
FlatWithEdges
350
2C
  3
Gouraud
350
2D
  3
GouraudWithEdges
350
2E
  3
Hidden
350
31
  3
JitterOff
350
3B
  3
Linepattern
350
38
  3
OverhangOff
350
3C
  3
Realistic
350
33
  3
Shaded
350
42
  3
Shaded with edges
350
41
  3
Shades of Gray
350
3E
  3
Sketchy
350
3F
  3
Thicken
350
37
  3
Wireframe
350
30
  3
X-Ray
350
40
  0
XRECORD
  5
EE
102
{ACAD_REACTORS
330
C
102
}
330
C
100
AcDbXrecord
280
     1
 90
        1
330
6A
  0
DICTIONARY
  5
B6
102
{ACAD_REACTORS
330
C
102
}
330
C
100
AcDbDictionary
281
     1
  3
CANNOSCALE
350
B7
  3
CMLEADERSTYLE
350
F0
  3
CTABLESTYLE
350
EF
  3
XCLIPFRAME
350
B8
  0
LAYOUT
  5
1E
102
{ACAD_REACTORS
330
1A
102
}
330
1A
100
AcDbPlotSettings
  1

  2
none_device
  4

  6

 40
0.0
 41
0.0
 42
0.0
 43
0.0
 44
0.0
 45
0.0
 46
0.0
 47
0.0
 48
0.0
 49
0.0
140
0.0
141
0.0
142
1.0
143
1.0
 70
   688
 72
     0
 73
     0
 74
     5
  7

 75
    16
 76
     0
 77
     2
 78
   300
147
1.0
148
0.0
149
0.0
100
AcDbLayout
  1
Layout1
 70
     1
 71
     1
 10
0.0
 20
0.0
 11
12.0
 21
9.0
 12
0.0
 22
0.0
 32
0.0
 14
1.000000000000000E+20
 24
1.000000000000000E+20
 34
1.000000000000000E+20
 15
-1.000000000000000E+20
 25
-1.000000000000000E+20
 35
-1.000000000000000E+20
146
0.0
 13
0.0
 23
0.0
 33
0.0
 16
1.0
 26
0.0
 36
0.0
 17
0.0
 27
1.0
 37
0.0
 76
     0
330
1B
  0
LAYOUT
  5
26
102
{ACAD_REACTORS
330
1A
102
}
330
1A
100
AcDbPlotSettings
  1

  2
none_device
  4

  6

 40
0.0
 41
0.0
 42
0.0
 43
0.0
 44
0.0
 45
0.0
 46
0.0
 47
0.0
 48
0.0
 49
0.0
140
0.0
141
0.0
142
1.0
143
1.0
 70
   688
 72
     0
 73
     0
 74
     5
  7

 75
    16
 76
     0
 77
     2
 78
   300
147
1.0
148
0.0
149
0.0
100
AcDbLayout
  1
Layout2
 70
     1
 71
     2
 10
0.0
 20
0.0
 11
0.0
 21
0.0
 12
0.0
 22
0.0
 32
0.0
 14
0.0
 24
0.0
 34
0.0
 15
0.0
 25
0.0
 35
0.0
146
0.0
 13
0.0
 23
0.0
 33
0.0
 16
1.0
 26
0.0
 36
0.0
 17
0.0
 27
1.0
 37
0.0
 76
     0
330
23
  0
LAYOUT
  5
22
102
{ACAD_REACTORS
330
1A
102
}
330
1A
100
AcDbPlotSettings
  1

  2
none_device
  4
Letter_(8.50_x_11.00_Inches)
  6

 40
6.35
 41
6.35
 42
6.35000508
 43
6.35000508
 44
215.9
 45
279.4
 46
0.0
 47
0.0
 48
0.0
 49
0.0
140
0.0
141
0.0
142
1.0
143
1.0
 70
  1712
 72
     0
 73
     0
 74
     0
  7

 75
     0
 76
     0
 77
     2
 78
   300
147
1.0
148
0.0
149
0.0
100
AcDbLayout
  1
Model
 70
     1
 71
     0
 10
0.0
 20
0.0
 11
12.0
 21
9.0
 12
0.0
 22
0.0
 32
0.0
 14
1.000000000000000E+20
 24
1.000000000000000E+20
 34
1.000000000000000E+20
 15
-1.000000000000000E+20
 25
-1.000000000000000E+20
 35
-1.000000000000000E+20
146
0.0
 13
0.0
 23
0.0
 33
0.0
 16
1.0
 26
0.0
 36
0.0
 17
0.0
 27
1.0
 37
0.0
 76
     0
330
1F
331
29
  0
MATERIAL
  5
45
102
{ACAD_REACTORS
330
43
102
}
330
43
100
AcDbMaterial
  1
ByBlock
 72
     1
 94
      127
  0
MATERIAL
  5
44
102
{ACAD_REACTORS
330
43
102
}
330
43
100
AcDbMaterial
  1
ByLayer
 72
     1
 94
      127
  0
MATERIAL
  5
46
102
{ACAD_REACTORS
330
43
102
}
330
43
100
AcDbMaterial
  1
Global
 72
     1
 94
      127
  0
MLEADERSTYLE
  5
6C
102
{ACAD_REACTORS
330
6B
102
}
102
{ACAD_XDICTIONARY
360
EC
102
}
330
6B
100
AcDbMLeaderStyle
170
     2
171
     1
172
     0
 90
        2
 40
0.0
 41
0.0
173
     1
 91
-1056964608
340
14
 92
       -2
290
     1
 42
0.09
291
     1
 43
0.36
  3
Standard
341
0
 44
0.18
300

342
11
174
     1
178
     6
175
     1
176
     0
 93
-1056964608
 45
0.18
292
     0
297
     0
 46
0.18
343
0
 94
-1056964608
 47
1.0
 49
1.0
140
1.0
293
     1
141
0.0
294
     1
177
     0
142
1.0
295
     0
296
     0
143
0.125
1001
ACAD_MLEADERVER
1070
     2
  0
MLINESTYLE
  5
18
102
{ACAD_REACTORS
330
17
102
}
330
17
100
AcDbMlineStyle
  2
Standard
 70
     0
  3

 62
   256
 51
90.0
 52
90.0
 71
     2
 49
0.5
 62
   256
  6
BYLAYER
 49
-0.5
 62
   256
  6
BYLAYER
  0
ACDBPLACEHOLDER
  5
F
102
{ACAD_REACTORS
330
E
102
}
330
E
  0
SCALE
  5
48
102
{ACAD_REACTORS
330
47
102
}
330
47
100
AcDbScale
 70
     0
300
1:1
140
1.0
141
1.0
290
     1
  0
SCALE
  5
49
102
{ACAD_REACTORS
330
47
102
}
330
47
100
AcDbScale
 70
     0
300
1:2
140
1.0
141
2.0
290
     0
  0
SCALE
  5
4A
102
{ACAD_REACTORS
330
47
102
}
330
47
100
AcDbScale
 70
     0
300
1:4
140
1.0
141
4.0
290
     0
  0
SCALE
  5
4B
102
{ACAD_REACTORS
330
47
102
}
330
47
100
AcDbScale
 70
     0
300
1:5
140
1.0
141
5.0
290
     0
  0
SCALE
  5
4C
102
{ACAD_REACTORS
330
47
102
}
330
47
100
AcDbScale
 70
     0
300
1:8
140
1.0
141
8.0
290
     0
  0
SCALE
  5
4D
102
{ACAD_REACTORS
330
47
102
}
330
47
100
AcDbScale
 70
     0
300
1:10
140
1.0
141
10.0
290
     0
  0
SCALE
  5
4E
102
{ACAD_REACTORS
330
47
102
}
330
47
100
AcDbScale
 70
     0
300
1:16
140
1.0
141
16.0
290
     0
  0
SCALE
  5
4F
102
{ACAD_REACTORS
330
47
102
}
330
47
100
AcDbScale
 70
     0
300
1:20
140
1.0
141
20.0
290
     0
  0
SCALE
  5
50
102
{ACAD_REACTORS
330
47
102
}
330
47
100
AcDbScale
 70
     0
300
1:30
140
1.0
141
30.0
290
     0
  0
SCALE
  5
51
102
{ACAD_REACTORS
330
47
102
}
330
47
100
AcDbScale
 70
     0
300
1:40
140
1.0
141
40.0
290
     0
  0
SCALE
  5
52
102
{ACAD_REACTORS
330
47
102
}
330
47
100
AcDbScale
 70
     0
300
1:50
140
1.0
141
50.0
290
     0
  0
SCALE
  5
53
102
{ACAD_REACTORS
330
47
102
}
330
47
100
AcDbScale
 70
     0
300
1:100
140
1.0
141
100.0
290
     0
  0
SCALE
  5
54
102
{ACAD_REACTORS
330
47
102
}
330
47
100
AcDbScale
 70
     0
300
2:1
140
2.0
141
1.0
290
     0
  0
SCALE
  5
55
102
{ACAD_REACTORS
330
47
102
}
330
47
100
AcDbScale
 70
     0
300
4:1
140
4.0
141
1.0
290
     0
  0
SCALE
  5
56
102
{ACAD_REACTORS
330
47
102
}
330
47
100
AcDbScale
 70
     0
300
8:1
140
8.0
141
1.0
290
     0
  0
SCALE
  5
57
102
{ACAD_REACTORS
330
47
102
}
330
47
100
AcDbScale
 70
     0
300
10:1
140
10.0
141
1.0
290
     0
  0
SCALE
  5
58
102
{ACAD_REACTORS
330
47
102
}
330
47
100
AcDbScale
 70
     0
300
100:1
140
100.0
141
1.0
290
     0
  0
SCALE
  5
59
102
{ACAD_REACTORS
330
47
102
}
330
47
100
AcDbScale
 70
     0
300
1/128" = 1'-0"
140
0.0078125
141
12.0
290
     0
  0
SCALE
  5
5A
102
{ACAD_REACTORS
330
47
102
}
330
47
100
AcDbScale
 70
     0
300
1/64" = 1'-0"
140
0.015625
141
12.0
290
     0
  0
SCALE
  5
5B
102
{ACAD_REACTORS
330
47
102
}
330
47
100
AcDbScale
 70
     0
300
1/32" = 1'-0"
140
0.03125
141
12.0
290
     0
  0
SCALE
  5
5C
102
{ACAD_REACTORS
330
47
102
}
330
47
100
AcDbScale
 70
     0
300
1/16" = 1'-0"
140
0.0625
141
12.0
290
     0
  0
SCALE
  5
5D
102
{ACAD_REACTORS
330
47
102
}
330
47
100
AcDbScale
 70
     0
300
3/32" = 1'-0"
140
0.09375
141
12.0
290
     0
  0
SCALE
  5
5E
102
{ACAD_REACTORS
330
47
102
}
330
47
100
AcDbScale
 70
     0
300
1/8" = 1'-0"
140
0.125
141
12.0
290
     0
  0
SCALE
  5
5F
102
{ACAD_REACTORS
330
47
102
}
330
47
100
AcDbScale
 70
     0
300
3/16" = 1'-0"
140
0.1875
141
12.0
290
     0
  0
SCALE
  5
60
102
{ACAD_REACTORS
330
47
102
}
330
47
100
AcDbScale
 70
     0
300
1/4" = 1'-0"
140
0.25
141
12.0
290
     0
  0
SCALE
  5
61
102
{ACAD_REACTORS
330
47
102
}
330
47
100
AcDbScale
 70
     0
300
3/8" = 1'-0"
140
0.375
141
12.0
290
     0
  0
SCALE
  5
62
102
{ACAD_REACTORS
330
47
102
}
330
47
100
AcDbScale
 70
     0
300
1/2" = 1'-0"
140
0.5
141
12.0
290
     0
  0
SCALE
  5
63
102
{ACAD_REACTORS
330
47
102
}
330
47
100
AcDbScale
 70
     0
300
3/4" = 1'-0"
140
0.75
141
12.0
290
     0
  0
SCALE
  5
64
102
{ACAD_REACTORS
330
47
102
}
330
47
100
AcDbScale
 70
     0
300
1" = 1'-0"
140
1.0
141
12.0
290
     0
  0
SCALE
  5
65
102
{ACAD_REACTORS
330
47
102
}
330
47
100
AcDbScale
 70
     0
300
1-1/2" = 1'-0"
140
1.5
141
12.0
290
     0
  0
SCALE
  5
66
102
{ACAD_REACTORS
330
47
102
}
330
47
100
AcDbScale
 70
     0
300
3" = 1'-0"
140
3.0
141
12.0
290
     0
  0
SCALE
  5
67
102
{ACAD_REACTORS
330
47
102
}
330
47
100
AcDbScale
 70
     0
300
6" = 1'-0"
140
6.0
141
12.0
290
     0
  0
SCALE
  5
68
102
{ACAD_REACTORS
330
47
102
}
330
47
100
AcDbScale
 70
     0
300
1'-0" = 1'-0"
140
12.0
141
12.0
290
     0
  0
TABLESTYLE
  5
6A
102
{ACAD_REACTORS
330
69
102
}
102
{ACAD_XDICTIONARY
360
E9
102
}
330
69
100
AcDbTableStyle
  3
Standard
 70
     0
 71
     0
 40
0.06
 41
0.06
280
     0
281
     0
  7
Standard
140
0.18
170
     2
 62
     0
 63
   257
283
     0
 90
        4
 91
        0
  1

274
    -2
284
     1
 64
     0
275
    -2
285
     1
 65
     0
276
    -2
286
     1
 66
     0
277
    -2
287
     1
 67
     0
278
    -2
288
     1
 68
     0
279
    -2
289
     1
 69
     0
  7
Standard
140
0.25
170
     5
 62
     0
 63
   257
283
     0
 90
        4
 91
        0
  1

274
    -2
284
     1
 64
     0
275
    -2
285
     1
 65
     0
276
    -2
286
     1
 66
     0
277
    -2
287
     1
 67
     0
278
    -2
288
     1
 68
     0
279
    -2
289
     1
 69
     0
  7
Standard
140
0.18
170
     5
 62
     0
 63
   257
283
     0
 90
        4
 91
        0
  1

274
    -2
284
     1
 64
     0
275
    -2
285
     1
 65
     0
276
    -2
286
     1
 66
     0
277
    -2
287
     1
 67
     0
278
    -2
288
     1
 68
     0
279
    -2
289
     1
 69
     0
  0
VISUALSTYLE
  5
2F
102
{ACAD_REACTORS
330
2A
102
}
102
{ACAD_XDICTIONARY
360
C1
102
}
330
2A
100
AcDbVisualStyle
  2
2dWireframe
 70
     4
 71
     0
 72
     2
 73
     0
 90
        0
 40
0.6
 41
30.0
 62
     5
 63
     7
421
 16777215
 74
     1
 91
        4
 64
     7
 65
   257
 75
     1
175
     1
 42
1.0
 92
        0
 66
   257
 43
1.0
 76
     1
 77
     6
 78
     2
 67
     7
 79
     5
170
     0
171
     0
290
     0
174
     0
 93
        1
 44
0.0
173
     0
291
     0
 45
0.0
  0
VISUALSTYLE
  5
32
102
{ACAD_REACTORS
330
2A
102
}
102
{ACAD_XDICTIONARY
360
C7
102
}
330
2A
100
AcDbVisualStyle
  2
Basic
 70
     7
 71
     1
 72
     0
 73
     1
 90
        0
 40
0.6
 41
30.0
 62
     5
 63
     7
421
 16777215
 74
     0
 91
        4
 64
     7
 65
   257
 75
     1
175
     1
 42
1.0
 92
        8
 66
     7
 43
1.0
 76
     1
 77
     6
 78
     2
 67
     7
 79
     5
170
     0
171
     0
290
     0
174
     0
 93
        1
 44
0.0
173
     0
291
     1
 45
0.0
  0
VISUALSTYLE
  5
36
102
{ACAD_REACTORS
330
2A
102
}
102
{ACAD_XDICTIONARY
360
CF
102
}
330
2A
100
AcDbVisualStyle
  2
Brighten
 70
    12
 71
     2
 72
     2
 73
     0
 90
        0
 40
0.6
 41
30.0
 62
     5
 63
     7
421
 16777215
 74
     1
 91
        4
 64
     7
 65
   257
 75
     1
175
     1
 42
1.0
 92
        8
 66
     7
 43
1.0
 76
     1
 77
     6
 78
     2
 67
     7
 79
     5
170
     0
171
     0
290
     0
174
     0
 93
        1
 44
50.0
173
     0
291
     1
 45
0.0
  0
VISUALSTYLE
  5
3A
102
{ACAD_REACTORS
330
2A
102
}
102
{ACAD_XDICTIONARY
360
D7
102
}
330
2A
100
AcDbVisualStyle
  2
ColorChange
 70
    16
 71
     2
 72
     2
 73
     3
 90
        0
 40
0.6
 41
30.0
 62
     5
 63
     8
421
  8421504
 74
     1
 91
        4
 64
     7
 65
   257
 75
     1
175
     1
 42
1.0
 92
        8
 66
     8
424
  8421504
 43
1.0
 76
     1
 77
     6
 78
     2
 67
     7
 79
     5
170
     0
171
     0
290
     0
174
     0
 93
        1
 44
0.0
173
     0
291
     1
 45
0.0
  0
VISUALSTYLE
  5
34
102
{ACAD_REACTORS
330
2A
102
}
102
{ACAD_XDICTIONARY
360
CB
102
}
330
2A
100
AcDbVisualStyle
  2
Conceptual
 70
     9
 71
     3
 72
     2
 73
     0
 90
        0
 40
0.6
 41
30.0
 62
     5
 63
     7
421
 16777215
 74
     2
 91
        2
 64
     7
 65
   257
 75
     1
175
     1
 42
179.0
 92
        8
 66
     7
 43
1.0
 76
     1
 77
     6
 78
     2
 67
     7
 79
     3
170
     0
171
     0
290
     0
174
     0
 93
        1
 44
0.0
173
     0
291
     0
 45
0.0
  0
VISUALSTYLE
  5
35
102
{ACAD_REACTORS
330
2A
102
}
102
{ACAD_XDICTIONARY
360
CD
102
}
330
2A
100
AcDbVisualStyle
  2
Dim
 70
    11
 71
     2
 72
     2
 73
     0
 90
        0
 40
0.6
 41
30.0
 62
     5
 63
     7
421
 16777215
 74
     1
 91
        4
 64
     7
 65
   257
 75
     1
175
     1
 42
1.0
 92
        8
 66
     7
 43
1.0
 76
     1
 77
     6
 78
     2
 67
     7
 79
     5
170
     0
171
     0
290
     0
174
     0
 93
        1
 44
-50.0
173
     0
291
     1
 45
0.0
  0
VISUALSTYLE
  5
3D
102
{ACAD_REACTORS
330
2A
102
}
102
{ACAD_XDICTIONARY
360
DD
102
}
330
2A
100
AcDbVisualStyle
  2
EdgeColorOff
 70
    22
 71
     2
 72
     2
 73
     0
 90
        0
 40
0.6
 41
30.0
 62
     5
 63
     7
421
 16777215
 74
     1
 91
        4
 64
     7
 65
   257
 75
     1
175
     1
 42
1.0
 92
        8
 66
     7
 43
1.0
 76
     1
 77
     6
 78
     2
 67
     7
 79
     5
170
     0
171
     0
290
     0
174
     0
 93
        1
 44
0.0
173
     0
291
     1
 45
0.0
  0
VISUALSTYLE
  5
39
102
{ACAD_REACTORS
330
2A
102
}
102
{ACAD_XDICTIONARY
360
D5
102
}
330
2A
100
AcDbVisualStyle
  2
Facepattern
 70
    15
 71
     2
 72
     2
 73
     0
 90
        0
 40
0.6
 41
30.0
 62
     5
 63
     7
421
 16777215
 74
     1
 91
        4
 64
     7
 65
   257
 75
     1
175
     1
 42
1.0
 92
        8
 66
     7
 43
1.0
 76
     1
 77
     6
 78
     2
 67
     7
 79
     5
170
     0
171
     0
290
     0
174
     0
 93
        1
 44
0.0
173
     0
291
     1
 45
0.0
  0
VISUALSTYLE
  5
2B
102
{ACAD_REACTORS
330
2A
102
}
102
{ACAD_XDICTIONARY
360
B9
102
}
330
2A
100
AcDbVisualStyle
  2
Flat
 70
     0
 71
     2
 72
     1
 73
     1
 90
        2
 40
0.6
 41
30.0
 62
     5
 63
     7
421
 16777215
 74
     0
 91
        0
 64
     7
 65
   257
 75
     1
175
     1
 42
1.0
 92
        8
 66
     7
 43
1.0
 76
     1
 77
     6
 78
     2
 67
     7
 79
     5
170
     0
171
     0
290
     0
174
     0
 93
       13
 44
0.0
173
     0
291
     1
 45
0.0
  0
VISUALSTYLE
  5
2C
102
{ACAD_REACTORS
330
2A
102
}
102
{ACAD_XDICTIONARY
360
BB
102
}
330
2A
100
AcDbVisualStyle
  2
FlatWithEdges
 70
     1
 71
     2
 72
     1
 73
     1
 90
        2
 40
0.6
 41
30.0
 62
     5
 63
     7
421
 16777215
 74
     1
 91
        0
 64
     7
 65
   257
 75
     1
175
     1
 42
1.0
 92
        0
 66
   257
 43
1.0
 76
     1
 77
     6
 78
     2
 67
     7
 79
     5
170
     0
171
     0
290
     0
174
     0
 93
       13
 44
0.0
173
     0
291
     1
 45
0.0
  0
VISUALSTYLE
  5
2D
102
{ACAD_REACTORS
330
2A
102
}
102
{ACAD_XDICTIONARY
360
BD
102
}
330
2A
100
AcDbVisualStyle
  2
Gouraud
 70
     2
 71
     2
 72
     2
 73
     1
 90
        2
 40
0.6
 41
30.0
 62
     5
 63
     7
421
 16777215
 74
     0
 91
        0
 64
     7
 65
   257
 75
     1
175
     1
 42
1.0
 92
        0
 66
     7
 43
1.0
 76
     1
 77
     6
 78
     2
 67
     7
 79
     5
170
     0
171
     0
290
     0
174
     0
 93
       13
 44
0.0
173
     0
291
     1
 45
0.0
  0
VISUALSTYLE
  5
2E
102
{ACAD_REACTORS
330
2A
102
}
102
{ACAD_XDICTIONARY
360
BF
102
}
330
2A
100
AcDbVisualStyle
  2
GouraudWithEdges
 70
     3
 71
     2
 72
     2
 73
     1
 90
        2
 40
0.6
 41
30.0
 62
     5
 63
     7
421
 16777215
 74
     1
 91
        0
 64
     7
 65
   257
 75
     1
175
     1
 42
1.0
 92
        0
 66
   257
 43
1.0
 76
     1
 77
     6
 78
     2
 67
     7
 79
     5
170
     0
171
     0
290
     0
174
     0
 93
       13
 44
0.0
173
     0
291
     1
 45
0.0
  0
VISUALSTYLE
  5
31
102
{ACAD_REACTORS
330
2A
102
}
102
{ACAD_XDICTIONARY
360
C5
102
}
330
2A
100
AcDbVisualStyle
  2
Hidden
 70
     6
 71
     1
 72
     2
 73
     2
 90
        0
 40
0.6
 41
30.0
 62
     5
 63
     7
421
 16777215
 74
     2
 91
        2
 64
     7
 65
   257
 75
     2
175
     1
 42
40.0
 92
        0
 66
   257
 43
1.0
 76
     1
 77
     6
 78
     2
 67
     7
 79
     3
170
     0
171
     0
290
     0
174
     0
 93
        1
 44
0.0
173
     0
291
     0
 45
0.0
  0
VISUALSTYLE
  5
3B
102
{ACAD_REACTORS
330
2A
102
}
102
{ACAD_XDICTIONARY
360
D9
102
}
330
2A
100
AcDbVisualStyle
  2
JitterOff
 70
    20
 71
     2
 72
     2
 73
     0
 90
        0
 40
0.6
 41
30.0
 62
     5
 63
     7
421
 16777215
 74
     1
 91
        4
 64
     7
 65
   257
 75
     1
175
     1
 42
1.0
 92
       10
 66
     7
 43
1.0
 76
     1
 77
     6
 78
     2
 67
     7
 79
     5
170
     0
171
     0
290
     0
174
     0
 93
        1
 44
0.0
173
     0
291
     1
 45
0.0
  0
VISUALSTYLE
  5
38
102
{ACAD_REACTORS
330
2A
102
}
102
{ACAD_XDICTIONARY
360
D3
102
}
330
2A
100
AcDbVisualStyle
  2
Linepattern
 70
    14
 71
     2
 72
     2
 73
     0
 90
        0
 40
0.6
 41
30.0
 62
     5
 63
     7
421
 16777215
 74
     1
 91
        4
 64
     7
 65
   257
 75
     7
175
     7
 42
1.0
 92
        8
 66
     7
 43
1.0
 76
     1
 77
     6
 78
     2
 67
     7
 79
     5
170
     0
171
     0
290
     0
174
     0
 93
        1
 44
0.0
173
     0
291
     1
 45
0.0
  0
VISUALSTYLE
  5
3C
102
{ACAD_REACTORS
330
2A
102
}
102
{ACAD_XDICTIONARY
360
DB
102
}
330
2A
100
AcDbVisualStyle
  2
OverhangOff
 70
    21
 71
     2
 72
     2
 73
     0
 90
        0
 40
0.6
 41
30.0
 62
     5
 63
     7
421
 16777215
 74
     1
 91
        4
 64
     7
 65
   257
 75
     1
175
     1
 42
1.0
 92
        9
 66
     7
 43
1.0
 76
     1
 77
     6
 78
     2
 67
     7
 79
     5
170
     0
171
     0
290
     0
174
     0
 93
        1
 44
0.0
173
     0
291
     1
 45
0.0
  0
VISUALSTYLE
  5
33
102
{ACAD_REACTORS
330
2A
102
}
102
{ACAD_XDICTIONARY
360
C9
102
}
330
2A
100
AcDbVisualStyle
  2
Realistic
 70
     8
 71
     2
 72
     3
 73
     0
 90
        2
 40
0.6
 41
30.0
 62
     5
 63
     7
421
 16777215
 74
     0
 91
        0
 64
     7
 65
   257
 75
     1
175
     1
 42
1.0
 92
        8
 66
   257
 43
1.0
 76
     1
 77
     6
 78
     2
 67
     7
 79
     3
170
     0
171
     0
290
     0
174
     0
 93
       13
 44
0.0
173
     0
291
     0
 45
0.0
  0
VISUALSTYLE
  5
42
102
{ACAD_REACTORS
330
2A
102
}
102
{ACAD_XDICTIONARY
360
E7
102
}
330
2A
100
AcDbVisualStyle
  2
Shaded
 70
    27
 71
     2
 72
     2
 73
     1
 90
        2
 40
0.6
 41
30.0
 62
     5
 63
     7
421
 16777215
 74
     0
 91
        4
 64
     7
 65
   257
 75
     1
175
     1
 42
1.0
 92
        8
 66
   257
 43
1.0
 76
     1
 77
     6
 78
     2
 67
     8
425
  7895160
 79
     3
170
     0
171
     0
290
     0
174
     0
 93
        5
 44
0.0
173
     0
291
     0
 45
0.0
  0
VISUALSTYLE
  5
41
102
{ACAD_REACTORS
330
2A
102
}
102
{ACAD_XDICTIONARY
360
E5
102
}
330
2A
100
AcDbVisualStyle
  2
Shaded with edges
 70
    26
 71
     2
 72
     2
 73
     1
 90
        2
 40
0.6
 41
30.0
 62
     5
 63
     7
421
 16777215
 74
     1
 91
       10
 64
     7
 65
   257
 75
     2
175
     1
 42
1.0
 92
        8
 66
   257
 43
1.0
 76
     1
 77
     6
 78
     2
 67
     7
 79
     3
170
     0
171
     0
290
     0
174
     0
 93
        5
 44
0.0
173
     0
291
     0
 45
0.0
  0
VISUALSTYLE
  5
3E
102
{ACAD_REACTORS
330
2A
102
}
102
{ACAD_XDICTIONARY
360
DF
102
}
330
2A
100
AcDbVisualStyle
  2
Shades of Gray
 70
    23
 71
     2
 72
     2
 73
     3
 90
        0
 40
0.6
 41
30.0
 62
     5
 63
     7
421
 16777215
 74
     2
 91
        2
 64
     7
 65
     7
 75
     1
175
     1
 42
40.0
 92
        8
 66
     7
 43
1.0
 76
     1
 77
     6
 78
     2
 67
     7
 79
     3
170
     0
171
     0
290
     0
174
     0
 93
        1
 44
0.0
173
     0
291
     0
 45
0.0
  0
VISUALSTYLE
  5
3F
102
{ACAD_REACTORS
330
2A
102
}
102
{ACAD_XDICTIONARY
360
E1
102
}
330
2A
100
AcDbVisualStyle
  2
Sketchy
 70
    24
 71
     1
 72
     2
 73
     2
 90
        0
 40
0.6
 41
30.0
 62
     5
 63
     7
421
 16777215
 74
     2
 91
        2
 64
     7
 65
     7
 75
     1
175
     1
 42
40.0
 92
       11
 66
     7
 43
1.0
 76
     1
 77
     6
 78
     2
 67
     7
 79
     6
170
     0
171
     0
290
     0
174
     0
 93
        1
 44
0.0
173
     0
291
     0
 45
0.0
  0
VISUALSTYLE
  5
37
102
{ACAD_REACTORS
330
2A
102
}
102
{ACAD_XDICTIONARY
360
D1
102
}
330
2A
100
AcDbVisualStyle
  2
Thicken
 70
    13
 71
     2
 72
     2
 73
     0
 90
        0
 40
0.6
 41
30.0
 62
     5
 63
     7
421
 16777215
 74
     1
 91
        4
 64
     7
 65
   257
 75
     1
175
     1
 42
1.0
 92
       12
 66
     7
 43
1.0
 76
     1
 77
     6
 78
     2
 67
     7
 79
     5
170
     0
171
     0
290
     0
174
     0
 93
        1
 44
0.0
173
     0
291
     1
 45
0.0
  0
VISUALSTYLE
  5
30
102
{ACAD_REACTORS
330
2A
102
}
102
{ACAD_XDICTIONARY
360
C3
102
}
330
2A
100
AcDbVisualStyle
  2
Wireframe
 70
     5
 71
     0
 72
     2
 73
     0
 90
        0
 40
0.6
 41
30.0
 62
     5
 63
     7
421
 16777215
 74
     1
 91
        4
 64
     7
 65
   257
 75
     1
175
     1
 42
1.0
 92
        0
 66
   257
 43
1.0
 76
     1
 77
     6
 78
     2
 67
     7
 79
     3
170
     0
171
     0
290
     0
174
     0
 93
        1
 44
0.0
173
     0
291
     0
 45
0.0
  0
VISUALSTYLE
  5
40
102
{ACAD_REACTORS
330
2A
102
}
102
{ACAD_XDICTIONARY
360
E3
102
}
330
2A
100
AcDbVisualStyle
  2
X-Ray
 70
    25
 71
     2
 72
     2
 73
     1
 90
        1
 40
0.5
 41
30.0
 62
     5
 63
     7
421
 16777215
 74
     1
 91
        0
 64
     7
 65
   257
 75
     1
175
     1
 42
1.0
 92
        8
 66
     7
 43
1.0
 76
     1
 77
     6
 78
     2
 67
     7
 79
     3
170
     0
171
     0
290
     0
174
     0
 93
       13
 44
0.0
173
     0
291
     0
 45
0.0
  0
DICTIONARYVAR
  5
B7
102
{ACAD_REACTORS
330
B6
102
}
330
B6
100
DictionaryVariables
280
     0
  1
1:1
  0
DICTIONARYVAR
  5
F0
102
{ACAD_REACTORS
330
B6
102
}
330
B6
100
DictionaryVariables
280
     0
  1
Standard
  0
DICTIONARYVAR
  5
EF
102
{ACAD_REACTORS
330
B6
102
}
330
B6
100
DictionaryVariables
280
     0
  1
Standard
  0
DICTIONARYVAR
  5
B8
102
{ACAD_REACTORS
330
B6
102
}
330
B6
100
DictionaryVariables
280
     0
  1
2
  0
DICTIONARY
  5
EC
330
6C
100
AcDbDictionary
280
     1
281
     1
  3
ACAD_XREC_ROUNDTRIP
360
ED
  0
DICTIONARY
  5
E9
330
6A
100
AcDbDictionary
280
     1
281
     1
  3
ACAD_ROUNDTRIP_2008_TABLESTYLE_CELLSTYLEMAP
360
EA
  0
DICTIONARY
  5
C1
330
2F
100
AcDbDictionary
280
     1
281
     1
  3
ACAD_XREC_ROUNDTRIP
360
C2
  0
DICTIONARY
  5
C7
330
32
100
AcDbDictionary
280
     1
281
     1
  3
ACAD_XREC_ROUNDTRIP
360
C8
  0
DICTIONARY
  5
CF
330
36
100
AcDbDictionary
280
     1
281
     1
  3
ACAD_XREC_ROUNDTRIP
360
D0
  0
DICTIONARY
  5
D7
330
3A
100
AcDbDictionary
280
     1
281
     1
  3
ACAD_XREC_ROUNDTRIP
360
D8
  0
DICTIONARY
  5
CB
330
34
100
AcDbDictionary
280
     1
281
     1
  3
ACAD_XREC_ROUNDTRIP
360
CC
  0
DICTIONARY
  5
CD
330
35
100
AcDbDictionary
280
     1
281
     1
  3
ACAD_XREC_ROUNDTRIP
360
CE
  0
DICTIONARY
  5
DD
330
3D
100
AcDbDictionary
280
     1
281
     1
  3
ACAD_XREC_ROUNDTRIP
360
DE
  0
DICTIONARY
  5
D5
330
39
100
AcDbDictionary
280
     1
281
     1
  3
ACAD_XREC_ROUNDTRIP
360
D6
  0
DICTIONARY
  5
B9
330
2B
100
AcDbDictionary
280
     1
281
     1
  3
ACAD_XREC_ROUNDTRIP
360
BA
  0
DICTIONARY
  5
BB
330
2C
100
AcDbDictionary
280
     1
281
     1
  3
ACAD_XREC_ROUNDTRIP
360
BC
  0
DICTIONARY
  5
BD
330
2D
100
AcDbDictionary
280
     1
281
     1
  3
ACAD_XREC_ROUNDTRIP
360
BE
  0
DICTIONARY
  5
BF
330
2E
100
AcDbDictionary
280
     1
281
     1
  3
ACAD_XREC_ROUNDTRIP
360
C0
  0
DICTIONARY
  5
C5
330
31
100
AcDbDictionary
280
     1
281
     1
  3
ACAD_XREC_ROUNDTRIP
360
C6
  0
DICTIONARY
  5
D9
330
3B
100
AcDbDictionary
280
     1
281
     1
  3
ACAD_XREC_ROUNDTRIP
360
DA
  0
DICTIONARY
  5
D3
330
38
100
AcDbDictionary
280
     1
281
     1
  3
ACAD_XREC_ROUNDTRIP
360
D4
  0
DICTIONARY
  5
DB
330
3C
100
AcDbDictionary
280
     1
281
     1
  3
ACAD_XREC_ROUNDTRIP
360
DC
  0
DICTIONARY
  5
C9
330
33
100
AcDbDictionary
280
     1
281
     1
  3
ACAD_XREC_ROUNDTRIP
360
CA
  0
DICTIONARY
  5
E7
330
42
100
AcDbDictionary
280
     1
281
     1
  3
ACAD_XREC_ROUNDTRIP
360
E8
  0
DICTIONARY
  5
E5
330
41
100
AcDbDictionary
280
     1
281
     1
  3
ACAD_XREC_ROUNDTRIP
360
E6
  0
DICTIONARY
  5
DF
330
3E
100
AcDbDictionary
280
     1
281
     1
  3
ACAD_XREC_ROUNDTRIP
360
E0
  0
DICTIONARY
  5
E1
330
3F
100
AcDbDictionary
280
     1
281
     1
  3
ACAD_XREC_ROUNDTRIP
360
E2
  0
DICTIONARY
  5
D1
330
37
100
AcDbDictionary
280
     1
281
     1
  3
ACAD_XREC_ROUNDTRIP
360
D2
  0
DICTIONARY
  5
C3
330
30
100
AcDbDictionary
280
     1
281
     1
  3
ACAD_XREC_ROUNDTRIP
360
C4
  0
DICTIONARY
  5
E3
330
40
100
AcDbDictionary
280
     1
281
     1
  3
ACAD_XREC_ROUNDTRIP
360
E4
  0
XRECORD
  5
ED
102
{ACAD_REACTORS
330
EC
102
}
330
EC
100
AcDbXrecord
280
     1
102
ACAD_ROUNDTRIP_2010_MLEADER_STYLE
  0
CELLSTYLEMAP
  5
EA
102
{ACAD_REACTORS
330
E9
102
}
330
E9
100
AcDbCellStyleMap
 90
        3
300
CELLSTYLE
  1
TABLEFORMAT_BEGIN
 90
        5
170
     1
 91
        0
 92
    32768
 62
   257
 93
        1
300
CONTENTFORMAT
  1
CONTENTFORMAT_BEGIN
 90
        0
 91
        0
 92
        4
 93
        0
300

 40
0.0
140
1.0
 94
        5
 62
     0
340
11
144
0.25
309
CONTENTFORMAT_END
171
     1
301
MARGIN
  1
CELLMARGIN_BEGIN
 40
0.06
 40
0.06
 40
0.06
 40
0.06
 40
0.06
 40
0.06
309
CELLMARGIN_END
 94
        6
 95
        1
302
GRIDFORMAT
  1
GRIDFORMAT_BEGIN
 90
        0
 91
        1
 62
     0
 92
       -2
340
14
 93
        0
 40
0.045
309
GRIDFORMAT_END
 95
        2
302
GRIDFORMAT
  1
GRIDFORMAT_BEGIN
 90
        0
 91
        1
 62
     0
 92
       -2
340
14
 93
        0
 40
0.045
309
GRIDFORMAT_END
 95
        4
302
GRIDFORMAT
  1
GRIDFORMAT_BEGIN
 90
        0
 91
        1
 62
     0
 92
       -2
340
14
 93
        0
 40
0.045
309
GRIDFORMAT_END
 95
        8
302
GRIDFORMAT
  1
GRIDFORMAT_BEGIN
 90
        0
 91
        1
 62
     0
 92
       -2
340
14
 93
        0
 40
0.045
309
GRIDFORMAT_END
 95
       16
302
GRIDFORMAT
  1
GRIDFORMAT_BEGIN
 90
        0
 91
        1
 62
     0
 92
       -2
340
14
 93
        0
 40
0.045
309
GRIDFORMAT_END
 95
       32
302
GRIDFORMAT
  1
GRIDFORMAT_BEGIN
 90
        0
 91
        1
 62
     0
 92
       -2
340
14
 93
        0
 40
0.045
309
GRIDFORMAT_END
309
TABLEFORMAT_END
  1
CELLSTYLE_BEGIN
 90
        1
 91
        1
300
_TITLE
309
CELLSTYLE_END
300
CELLSTYLE
  1
TABLEFORMAT_BEGIN
 90
        5
170
     1
 91
        0
 92
        0
 62
   257
 93
        1
300
CONTENTFORMAT
  1
CONTENTFORMAT_BEGIN
 90
        0
 91
        0
 92
        4
 93
        0
300

 40
0.0
140
1.0
 94
        5
 62
     0
340
11
144
0.18
309
CONTENTFORMAT_END
171
     1
301
MARGIN
  1
CELLMARGIN_BEGIN
 40
0.06
 40
0.06
 40
0.06
 40
0.06
 40
0.06
 40
0.06
309
CELLMARGIN_END
 94
        6
 95
        1
302
GRIDFORMAT
  1
GRIDFORMAT_BEGIN
 90
        0
 91
        1
 62
     0
 92
       -2
340
14
 93
        0
 40
0.045
309
GRIDFORMAT_END
 95
        2
302
GRIDFORMAT
  1
GRIDFORMAT_BEGIN
 90
        0
 91
        1
 62
     0
 92
       -2
340
14
 93
        0
 40
0.045
309
GRIDFORMAT_END
 95
        4
302
GRIDFORMAT
  1
GRIDFORMAT_BEGIN
 90
        0
 91
        1
 62
     0
 92
       -2
340
14
 93
        0
 40
0.045
309
GRIDFORMAT_END
 95
        8
302
GRIDFORMAT
  1
GRIDFORMAT_BEGIN
 90
        0
 91
        1
 62
     0
 92
       -2
340
14
 93
        0
 40
0.045
309
GRIDFORMAT_END
 95
       16
302
GRIDFORMAT
  1
GRIDFORMAT_BEGIN
 90
        0
 91
        1
 62
     0
 92
       -2
340
14
 93
        0
 40
0.045
309
GRIDFORMAT_END
 95
       32
302
GRIDFORMAT
  1
GRIDFORMAT_BEGIN
 90
        0
 91
        1
 62
     0
 92
       -2
340
14
 93
        0
 40
0.045
309
GRIDFORMAT_END
309
TABLEFORMAT_END
  1
CELLSTYLE_BEGIN
 90
        2
 91
        1
300
_HEADER
309
CELLSTYLE_END
300
CELLSTYLE
  1
TABLEFORMAT_BEGIN
 90
        5
170
     1
 91
        0
 92
        0
 62
   257
 93
        1
300
CONTENTFORMAT
  1
CONTENTFORMAT_BEGIN
 90
        0
 91
        0
 92
        4
 93
        0
300

 40
0.0
140
1.0
 94
        2
 62
     0
340
11
144
0.18
309
CONTENTFORMAT_END
171
     1
301
MARGIN
  1
CELLMARGIN_BEGIN
 40
0.06
 40
0.06
 40
0.06
 40
0.06
 40
0.06
 40
0.06
309
CELLMARGIN_END
 94
        6
 95
        1
302
GRIDFORMAT
  1
GRIDFORMAT_BEGIN
 90
        0
 91
        1
 62
     0
 92
       -2
340
14
 93
        0
 40
0.045
309
GRIDFORMAT_END
 95
        2
302
GRIDFORMAT
  1
GRIDFORMAT_BEGIN
 90
        0
 91
        1
 62
     0
 92
       -2
340
14
 93
        0
 40
0.045
309
GRIDFORMAT_END
 95
        4
302
GRIDFORMAT
  1
GRIDFORMAT_BEGIN
 90
        0
 91
        1
 62
     0
 92
       -2
340
14
 93
        0
 40
0.045
309
GRIDFORMAT_END
 95
        8
302
GRIDFORMAT
  1
GRIDFORMAT_BEGIN
 90
        0
 91
        1
 62
     0
 92
       -2
340
14
 93
        0
 40
0.045
309
GRIDFORMAT_END
 95
       16
302
GRIDFORMAT
  1
GRIDFORMAT_BEGIN
 90
        0
 91
        1
 62
     0
 92
       -2
340
14
 93
        0
 40
0.045
309
GRIDFORMAT_END
 95
       32
302
GRIDFORMAT
  1
GRIDFORMAT_BEGIN
 90
        0
 91
        1
 62
     0
 92
       -2
340
14
 93
        0
 40
0.045
309
GRIDFORMAT_END
309
TABLEFORMAT_END
  1
CELLSTYLE_BEGIN
 90
        3
 91
        2
300
_DATA
309
CELLSTYLE_END
  0
XRECORD
  5
C2
102
{ACAD_REACTORS
330
C1
102
}
330
C1
100
AcDbXrecord
280
     1
102
RTVSPropertyOp0
 70
     1
102
RTVSPropertyOp1
 70
     1
102
RTVSPropertyOp2
 70
     1
102
RTVSPropertyOp3
 70
     1
102
RTVSPropertyOp4
 70
     1
102
RTVSPropertyOp5
 70
     1
102
RTVSPropertyOp6
 70
     1
102
RTVSPropertyOp7
 70
     1
102
RTVSPropertyOp8
 70
     1
102
RTVSPropertyOp9
 70
     1
102
RTVSPropertyOp10
 70
     1
102
RTVSPropertyOp11
 70
     1
102
RTVSPropertyOp12
 70
     1
102
RTVSPropertyOp13
 70
     1
102
RTVSPropertyOp14
 70
     1
102
RTVSPropertyOp15
 70
     1
102
RTVSPropertyOp16
 70
     1
102
RTVSPropertyOp17
 70
     1
102
RTVSPropertyOp18
 70
     1
102
RTVSPropertyOp19
 70
     1
102
RTVSPropertyOp20
 70
     1
102
RTVSPropertyOp21
 70
     1
102
RTVSPropertyOp22
 70
     1
102
RTVSPropertyOp23
 70
     1
102
RTVSPropertyOp24
 70
     1
102
RTVSPropertyOp25
 70
     1
102
RTVSPropertyOp26
 70
     1
102
RTVSPropertyOp27
 70
     1
102
RTVSPropertyOp28
 70
     1
102
RTVSPropertyOp29
 70
     1
102
RTVSPropertyOp30
 70
     1
102
RTVSPropertyOp31
 70
     1
102
RTVSPropertyOp32
 70
     1
102
RTVSPropertyOp33
 70
     1
102
RTVSPropertyOp34
 70
     1
102
RTVSPropertyOp35
 70
     1
102
RTVSPropertyOp36
 70
     1
102
RTVSPropertyOp37
 70
     1
102
RTVSPropertyOp38
 70
     1
102
RTVSPropertyOp39
 70
     1
102
RTVSPropertyOp40
 70
     1
102
RTVSPropertyOp41
 70
     1
102
RTVSPropertyOp42
 70
     1
102
RTVSPropertyOp43
 70
     1
102
RTVSPropertyOp44
 70
     1
102
RTVSPropertyOp45
 70
     1
102
RTVSPropertyOp46
 70
     1
102
RTVSPropertyOp47
 70
     1
102
RTVSPropertyOp48
 70
     1
102
RTVSPropertyOp49
 70
     1
102
RTVSPropertyOp50
 70
     1
102
RTVSPropertyOp51
 70
     0
102
RTVSPropertyOp52
 70
     0
102
RTVSPropertyOp53
 70
     1
102
RTVSPropertyOp54
 70
     1
102
RTVSPropertyOp55
 70
     1
102
RTVSPropertyOp56
 70
     1
102
RTVSPropertyOp57
 70
     1
102
RTVSPost2010Prop28
280
     1
102
RTVSPost2010PropOp28
 70
     1
102
RTVSPost2010Prop29
280
     1
102
RTVSPost2010PropOp29
 70
     1
102
RTVSPost2010Prop30
280
     0
102
RTVSPost2010PropOp30
 70
     1
102
RTVSPost2010Prop31
280
     0
102
RTVSPost2010PropOp31
 70
     1
102
RTVSPost2010Prop32
280
     0
102
RTVSPost2010PropOp32
 70
     1
102
RTVSPost2010Prop33
280
     0
102
RTVSPost2010PropOp33
 70
     1
102
RTVSPost2010Prop34
280
     0
102
RTVSPost2010PropOp34
 70
     1
102
RTVSPost2010Prop35
280
     0
102
RTVSPost2010PropOp35
 70
     1
102
RTVSPost2010Prop36
280
     0
102
RTVSPost2010PropOp36
 70
     1
102
RTVSPost2010Prop37
 90
       50
102
RTVSPost2010PropOp37
 70
     1
102
RTVSPost2010Prop38
140
0.0
102
RTVSPost2010PropOp38
 70
     1
102
RTVSPost2010Prop39
140
1.0
102
RTVSPost2010PropOp39
 70
     1
102
RTVSPost2010Prop40
 90
        0
102
RTVSPost2010PropOp40
 70
     1
102
RTVSPost2010Prop41ColorIndex
 90
       18
102
RTVSPost2010Prop41ColorRGB
 90
        0
102
RTVSPost2010PropOp41
 70
     1
102
RTVSPost2010Prop42
 90
       50
102
RTVSPost2010PropOp42
 70
     1
102
RTVSPost2010Prop43
 90
        3
102
RTVSPost2010PropOp43
 70
     1
102
RTVSPost2010Prop44ColorIndex
 90
        5
102
RTVSPost2010Prop44ColorRGB
 90
      255
102
RTVSPost2010PropOp44
 70
     1
102
RTVSPost2010Prop45
280
     0
102
RTVSPost2010PropOp45
 70
     1
102
RTVSPost2010Prop46
 90
       50
102
RTVSPost2010PropOp46
 70
     1
102
RTVSPost2010Prop47
 90
       50
102
RTVSPost2010PropOp47
 70
     1
102
RTVSPost2010Prop48
 90
       50
102
RTVSPost2010PropOp48
 70
     1
102
RTVSPost2010Prop49
280
     0
102
RTVSPost2010PropOp49
 70
     1
102
RTVSPost2010Prop50
 90
       50
102
RTVSPost2010PropOp50
 70
     1
102
RTVSPost2010Prop51ColorIndex
 90
      256
102
RTVSPost2010Prop51ColorRGB
 90
-16777216
102
RTVSPost2010PropOp51
 70
     0
102
RTVSPost2010Prop52
140
1.0
102
RTVSPost2010PropOp52
 70
     0
102
RTVSPost2010Prop53
 90
        2
102
RTVSPost2010PropOp53
 70
     1
102
RTVSPost2010Prop54
  1
strokes_ogs.tif
102
RTVSPost2010PropOp54
 70
     1
102
RTVSPost2010Prop55
280
     0
102
RTVSPost2010PropOp55
 70
     1
102
RTVSPost2010Prop56
140
1.0
102
RTVSPost2010PropOp56
 70
     1
102
RTVSPost2010Prop57
140
1.0
102
RTVSPost2010PropOp57
 70
     1
  0
XRECORD
  5
C8
102
{ACAD_REACTORS
330
C7
102
}
330
C7
100
AcDbXrecord
280
     1
102
RTVSPropertyOp0
 70
     1
102
RTVSPropertyOp1
 70
     1
102
RTVSPropertyOp2
 70
     1
102
RTVSPropertyOp3
 70
     1
102
RTVSPropertyOp4
 70
     1
102
RTVSPropertyOp5
 70
     1
102
RTVSPropertyOp6
 70
     1
102
RTVSPropertyOp7
 70
     1
102
RTVSPropertyOp8
 70
     1
102
RTVSPropertyOp9
 70
     1
102
RTVSPropertyOp10
 70
     1
102
RTVSPropertyOp11
 70
     1
102
RTVSPropertyOp12
 70
     1
102
RTVSPropertyOp13
 70
     1
102
RTVSPropertyOp14
 70
     1
102
RTVSPropertyOp15
 70
     1
102
RTVSPropertyOp16
 70
     1
102
RTVSPropertyOp17
 70
     1
102
RTVSPropertyOp18
 70
     1
102
RTVSPropertyOp19
 70
     1
102
RTVSPropertyOp20
 70
     1
102
RTVSPropertyOp21
 70
     1
102
RTVSPropertyOp22
 70
     1
102
RTVSPropertyOp23
 70
     1
102
RTVSPropertyOp24
 70
     1
102
RTVSPropertyOp25
 70
     1
102
RTVSPropertyOp26
 70
     1
102
RTVSPropertyOp27
 70
     1
102
RTVSPropertyOp28
 70
     1
102
RTVSPropertyOp29
 70
     1
102
RTVSPropertyOp30
 70
     1
102
RTVSPropertyOp31
 70
     1
102
RTVSPropertyOp32
 70
     1
102
RTVSPropertyOp33
 70
     1
102
RTVSPropertyOp34
 70
     1
102
RTVSPropertyOp35
 70
     1
102
RTVSPropertyOp36
 70
     1
102
RTVSPropertyOp37
 70
     1
102
RTVSPropertyOp38
 70
     1
102
RTVSPropertyOp39
 70
     1
102
RTVSPropertyOp40
 70
     1
102
RTVSPropertyOp41
 70
     1
102
RTVSPropertyOp42
 70
     1
102
RTVSPropertyOp43
 70
     1
102
RTVSPropertyOp44
 70
     1
102
RTVSPropertyOp45
 70
     1
102
RTVSPropertyOp46
 70
     1
102
RTVSPropertyOp47
 70
     1
102
RTVSPropertyOp48
 70
     1
102
RTVSPropertyOp49
 70
     1
102
RTVSPropertyOp50
 70
     1
102
RTVSPropertyOp51
 70
     0
102
RTVSPropertyOp52
 70
     0
102
RTVSPropertyOp53
 70
     1
102
RTVSPropertyOp54
 70
     1
102
RTVSPropertyOp55
 70
     1
102
RTVSPropertyOp56
 70
     1
102
RTVSPropertyOp57
 70
     1
102
RTVSPost2010Prop28
280
     0
102
RTVSPost2010PropOp28
 70
     1
102
RTVSPost2010Prop29
280
     1
102
RTVSPost2010PropOp29
 70
     1
102
RTVSPost2010Prop30
280
     1
102
RTVSPost2010PropOp30
 70
     1
102
RTVSPost2010Prop31
280
     0
102
RTVSPost2010PropOp31
 70
     1
102
RTVSPost2010Prop32
280
     0
102
RTVSPost2010PropOp32
 70
     1
102
RTVSPost2010Prop33
280
     0
102
RTVSPost2010PropOp33
 70
     1
102
RTVSPost2010Prop34
280
     0
102
RTVSPost2010PropOp34
 70
     1
102
RTVSPost2010Prop35
280
     0
102
RTVSPost2010PropOp35
 70
     1
102
RTVSPost2010Prop36
280
     0
102
RTVSPost2010PropOp36
 70
     1
102
RTVSPost2010Prop37
 90
       50
102
RTVSPost2010PropOp37
 70
     1
102
RTVSPost2010Prop38
140
0.0
102
RTVSPost2010PropOp38
 70
     1
102
RTVSPost2010Prop39
140
1.0
102
RTVSPost2010PropOp39
 70
     1
102
RTVSPost2010Prop40
 90
        0
102
RTVSPost2010PropOp40
 70
     1
102
RTVSPost2010Prop41ColorIndex
 90
       18
102
RTVSPost2010Prop41ColorRGB
 90
        0
102
RTVSPost2010PropOp41
 70
     1
102
RTVSPost2010Prop42
 90
       50
102
RTVSPost2010PropOp42
 70
     1
102
RTVSPost2010Prop43
 90
        3
102
RTVSPost2010PropOp43
 70
     1
102
RTVSPost2010Prop44ColorIndex
 90
        5
102
RTVSPost2010Prop44ColorRGB
 90
      255
102
RTVSPost2010PropOp44
 70
     1
102
RTVSPost2010Prop45
280
     0
102
RTVSPost2010PropOp45
 70
     1
102
RTVSPost2010Prop46
 90
       50
102
RTVSPost2010PropOp46
 70
     1
102
RTVSPost2010Prop47
 90
       50
102
RTVSPost2010PropOp47
 70
     1
102
RTVSPost2010Prop48
 90
       50
102
RTVSPost2010PropOp48
 70
     1
102
RTVSPost2010Prop49
280
     0
102
RTVSPost2010PropOp49
 70
     1
102
RTVSPost2010Prop50
 90
       50
102
RTVSPost2010PropOp50
 70
     1
102
RTVSPost2010Prop51ColorIndex
 90
      256
102
RTVSPost2010Prop51ColorRGB
 90
-16777216
102
RTVSPost2010PropOp51
 70
     0
102
RTVSPost2010Prop52
140
1.0
102
RTVSPost2010PropOp52
 70
     0
102
RTVSPost2010Prop53
 90
        2
102
RTVSPost2010PropOp53
 70
     1
102
RTVSPost2010Prop54
  1
strokes_ogs.tif
102
RTVSPost2010PropOp54
 70
     1
102
RTVSPost2010Prop55
280
     0
102
RTVSPost2010PropOp55
 70
     1
102
RTVSPost2010Prop56
140
1.0
102
RTVSPost2010PropOp56
 70
     1
102
RTVSPost2010Prop57
140
1.0
102
RTVSPost2010PropOp57
 70
     1
  0
XRECORD
  5
D0
102
{ACAD_REACTORS
330
CF
102
}
330
CF
100
AcDbXrecord
280
     1
102
RTVSPropertyOp0
 70
     1
102
RTVSPropertyOp1
 70
     1
102
RTVSPropertyOp2
 70
     1
102
RTVSPropertyOp3
 70
     1
102
RTVSPropertyOp4
 70
     1
102
RTVSPropertyOp5
 70
     1
102
RTVSPropertyOp6
 70
     1
102
RTVSPropertyOp7
 70
     1
102
RTVSPropertyOp8
 70
     1
102
RTVSPropertyOp9
 70
     1
102
RTVSPropertyOp10
 70
     1
102
RTVSPropertyOp11
 70
     1
102
RTVSPropertyOp12
 70
     1
102
RTVSPropertyOp13
 70
     1
102
RTVSPropertyOp14
 70
     1
102
RTVSPropertyOp15
 70
     1
102
RTVSPropertyOp16
 70
     1
102
RTVSPropertyOp17
 70
     1
102
RTVSPropertyOp18
 70
     1
102
RTVSPropertyOp19
 70
     1
102
RTVSPropertyOp20
 70
     1
102
RTVSPropertyOp21
 70
     1
102
RTVSPropertyOp22
 70
     1
102
RTVSPropertyOp23
 70
     1
102
RTVSPropertyOp24
 70
     1
102
RTVSPropertyOp25
 70
     1
102
RTVSPropertyOp26
 70
     1
102
RTVSPropertyOp27
 70
     1
102
RTVSPropertyOp28
 70
     1
102
RTVSPropertyOp29
 70
     1
102
RTVSPropertyOp30
 70
     1
102
RTVSPropertyOp31
 70
     1
102
RTVSPropertyOp32
 70
     1
102
RTVSPropertyOp33
 70
     1
102
RTVSPropertyOp34
 70
     1
102
RTVSPropertyOp35
 70
     1
102
RTVSPropertyOp36
 70
     1
102
RTVSPropertyOp37
 70
     1
102
RTVSPropertyOp38
 70
     1
102
RTVSPropertyOp39
 70
     1
102
RTVSPropertyOp40
 70
     1
102
RTVSPropertyOp41
 70
     1
102
RTVSPropertyOp42
 70
     1
102
RTVSPropertyOp43
 70
     1
102
RTVSPropertyOp44
 70
     1
102
RTVSPropertyOp45
 70
     1
102
RTVSPropertyOp46
 70
     1
102
RTVSPropertyOp47
 70
     1
102
RTVSPropertyOp48
 70
     1
102
RTVSPropertyOp49
 70
     1
102
RTVSPropertyOp50
 70
     1
102
RTVSPropertyOp51
 70
     0
102
RTVSPropertyOp52
 70
     0
102
RTVSPropertyOp53
 70
     1
102
RTVSPropertyOp54
 70
     1
102
RTVSPropertyOp55
 70
     1
102
RTVSPropertyOp56
 70
     1
102
RTVSPropertyOp57
 70
     1
102
RTVSPost2010Prop28
280
     0
102
RTVSPost2010PropOp28
 70
     1
102
RTVSPost2010Prop29
280
     1
102
RTVSPost2010PropOp29
 70
     1
102
RTVSPost2010Prop30
280
     1
102
RTVSPost2010PropOp30
 70
     1
102
RTVSPost2010Prop31
280
     0
102
RTVSPost2010PropOp31
 70
     1
102
RTVSPost2010Prop32
280
     0
102
RTVSPost2010PropOp32
 70
     1
102
RTVSPost2010Prop33
280
     0
102
RTVSPost2010PropOp33
 70
     1
102
RTVSPost2010Prop34
280
     0
102
RTVSPost2010PropOp34
 70
     1
102
RTVSPost2010Prop35
280
     0
102
RTVSPost2010PropOp35
 70
     1
102
RTVSPost2010Prop36
280
     0
102
RTVSPost2010PropOp36
 70
     1
102
RTVSPost2010Prop37
 90
       50
102
RTVSPost2010PropOp37
 70
     1
102
RTVSPost2010Prop38
140
0.0
102
RTVSPost2010PropOp38
 70
     1
102
RTVSPost2010Prop39
140
1.0
102
RTVSPost2010PropOp39
 70
     1
102
RTVSPost2010Prop40
 90
        0
102
RTVSPost2010PropOp40
 70
     1
102
RTVSPost2010Prop41ColorIndex
 90
       18
102
RTVSPost2010Prop41ColorRGB
 90
        0
102
RTVSPost2010PropOp41
 70
     1
102
RTVSPost2010Prop42
 90
       50
102
RTVSPost2010PropOp42
 70
     1
102
RTVSPost2010Prop43
 90
        3
102
RTVSPost2010PropOp43
 70
     1
102
RTVSPost2010Prop44ColorIndex
 90
        5
102
RTVSPost2010Prop44ColorRGB
 90
      255
102
RTVSPost2010PropOp44
 70
     1
102
RTVSPost2010Prop45
280
     0
102
RTVSPost2010PropOp45
 70
     1
102
RTVSPost2010Prop46
 90
       50
102
RTVSPost2010PropOp46
 70
     1
102
RTVSPost2010Prop47
 90
       50
102
RTVSPost2010PropOp47
 70
     1
102
RTVSPost2010Prop48
 90
       50
102
RTVSPost2010PropOp48
 70
     1
102
RTVSPost2010Prop49
280
     0
102
RTVSPost2010PropOp49
 70
     1
102
RTVSPost2010Prop50
 90
       50
102
RTVSPost2010PropOp50
 70
     1
102
RTVSPost2010Prop51ColorIndex
 90
      256
102
RTVSPost2010Prop51ColorRGB
 90
-16777216
102
RTVSPost2010PropOp51
 70
     0
102
RTVSPost2010Prop52
140
1.0
102
RTVSPost2010PropOp52
 70
     0
102
RTVSPost2010Prop53
 90
        2
102
RTVSPost2010PropOp53
 70
     1
102
RTVSPost2010Prop54
  1
strokes_ogs.tif
102
RTVSPost2010PropOp54
 70
     1
102
RTVSPost2010Prop55
280
     0
102
RTVSPost2010PropOp55
 70
     1
102
RTVSPost2010Prop56
140
1.0
102
RTVSPost2010PropOp56
 70
     1
102
RTVSPost2010Prop57
140
1.0
102
RTVSPost2010PropOp57
 70
     1
  0
XRECORD
  5
D8
102
{ACAD_REACTORS
330
D7
102
}
330
D7
100
AcDbXrecord
280
     1
102
RTVSPropertyOp0
 70
     1
102
RTVSPropertyOp1
 70
     1
102
RTVSPropertyOp2
 70
     1
102
RTVSPropertyOp3
 70
     1
102
RTVSPropertyOp4
 70
     1
102
RTVSPropertyOp5
 70
     1
102
RTVSPropertyOp6
 70
     1
102
RTVSPropertyOp7
 70
     1
102
RTVSPropertyOp8
 70
     1
102
RTVSPropertyOp9
 70
     1
102
RTVSPropertyOp10
 70
     1
102
RTVSPropertyOp11
 70
     1
102
RTVSPropertyOp12
 70
     1
102
RTVSPropertyOp13
 70
     1
102
RTVSPropertyOp14
 70
     1
102
RTVSPropertyOp15
 70
     1
102
RTVSPropertyOp16
 70
     1
102
RTVSPropertyOp17
 70
     1
102
RTVSPropertyOp18
 70
     1
102
RTVSPropertyOp19
 70
     1
102
RTVSPropertyOp20
 70
     1
102
RTVSPropertyOp21
 70
     1
102
RTVSPropertyOp22
 70
     1
102
RTVSPropertyOp23
 70
     1
102
RTVSPropertyOp24
 70
     1
102
RTVSPropertyOp25
 70
     1
102
RTVSPropertyOp26
 70
     1
102
RTVSPropertyOp27
 70
     1
102
RTVSPropertyOp28
 70
     1
102
RTVSPropertyOp29
 70
     1
102
RTVSPropertyOp30
 70
     1
102
RTVSPropertyOp31
 70
     1
102
RTVSPropertyOp32
 70
     1
102
RTVSPropertyOp33
 70
     1
102
RTVSPropertyOp34
 70
     1
102
RTVSPropertyOp35
 70
     1
102
RTVSPropertyOp36
 70
     1
102
RTVSPropertyOp37
 70
     1
102
RTVSPropertyOp38
 70
     1
102
RTVSPropertyOp39
 70
     1
102
RTVSPropertyOp40
 70
     1
102
RTVSPropertyOp41
 70
     1
102
RTVSPropertyOp42
 70
     1
102
RTVSPropertyOp43
 70
     1
102
RTVSPropertyOp44
 70
     1
102
RTVSPropertyOp45
 70
     1
102
RTVSPropertyOp46
 70
     1
102
RTVSPropertyOp47
 70
     1
102
RTVSPropertyOp48
 70
     1
102
RTVSPropertyOp49
 70
     1
102
RTVSPropertyOp50
 70
     1
102
RTVSPropertyOp51
 70
     0
102
RTVSPropertyOp52
 70
     0
102
RTVSPropertyOp53
 70
     1
102
RTVSPropertyOp54
 70
     1
102
RTVSPropertyOp55
 70
     1
102
RTVSPropertyOp56
 70
     1
102
RTVSPropertyOp57
 70
     1
102
RTVSPost2010Prop28
280
     0
102
RTVSPost2010PropOp28
 70
     1
102
RTVSPost2010Prop29
280
     1
102
RTVSPost2010PropOp29
 70
     1
102
RTVSPost2010Prop30
280
     1
102
RTVSPost2010PropOp30
 70
     1
102
RTVSPost2010Prop31
280
     0
102
RTVSPost2010PropOp31
 70
     1
102
RTVSPost2010Prop32
280
     0
102
RTVSPost2010PropOp32
 70
     1
102
RTVSPost2010Prop33
280
     0
102
RTVSPost2010PropOp33
 70
     1
102
RTVSPost2010Prop34
280
     0
102
RTVSPost2010PropOp34
 70
     1
102
RTVSPost2010Prop35
280
     0
102
RTVSPost2010PropOp35
 70
     1
102
RTVSPost2010Prop36
280
     0
102
RTVSPost2010PropOp36
 70
     1
102
RTVSPost2010Prop37
 90
       50
102
RTVSPost2010PropOp37
 70
     1
102
RTVSPost2010Prop38
140
0.0
102
RTVSPost2010PropOp38
 70
     1
102
RTVSPost2010Prop39
140
1.0
102
RTVSPost2010PropOp39
 70
     1
102
RTVSPost2010Prop40
 90
        0
102
RTVSPost2010PropOp40
 70
     1
102
RTVSPost2010Prop41ColorIndex
 90
       18
102
RTVSPost2010Prop41ColorRGB
 90
        0
102
RTVSPost2010PropOp41
 70
     1
102
RTVSPost2010Prop42
 90
       50
102
RTVSPost2010PropOp42
 70
     1
102
RTVSPost2010Prop43
 90
        3
102
RTVSPost2010PropOp43
 70
     1
102
RTVSPost2010Prop44ColorIndex
 90
        5
102
RTVSPost2010Prop44ColorRGB
 90
      255
102
RTVSPost2010PropOp44
 70
     1
102
RTVSPost2010Prop45
280
     0
102
RTVSPost2010PropOp45
 70
     1
102
RTVSPost2010Prop46
 90
       50
102
RTVSPost2010PropOp46
 70
     1
102
RTVSPost2010Prop47
 90
       50
102
RTVSPost2010PropOp47
 70
     1
102
RTVSPost2010Prop48
 90
       50
102
RTVSPost2010PropOp48
 70
     1
102
RTVSPost2010Prop49
280
     0
102
RTVSPost2010PropOp49
 70
     1
102
RTVSPost2010Prop50
 90
       50
102
RTVSPost2010PropOp50
 70
     1
102
RTVSPost2010Prop51ColorIndex
 90
      256
102
RTVSPost2010Prop51ColorRGB
 90
-16777216
102
RTVSPost2010PropOp51
 70
     0
102
RTVSPost2010Prop52
140
1.0
102
RTVSPost2010PropOp52
 70
     0
102
RTVSPost2010Prop53
 90
        2
102
RTVSPost2010PropOp53
 70
     1
102
RTVSPost2010Prop54
  1
strokes_ogs.tif
102
RTVSPost2010PropOp54
 70
     1
102
RTVSPost2010Prop55
280
     0
102
RTVSPost2010PropOp55
 70
     1
102
RTVSPost2010Prop56
140
1.0
102
RTVSPost2010PropOp56
 70
     1
102
RTVSPost2010Prop57
140
1.0
102
RTVSPost2010PropOp57
 70
     1
  0
XRECORD
  5
CC
102
{ACAD_REACTORS
330
CB
102
}
330
CB
100
AcDbXrecord
280
     1
102
RTVSPropertyOp0
 70
     1
102
RTVSPropertyOp1
 70
     1
102
RTVSPropertyOp2
 70
     1
102
RTVSPropertyOp3
 70
     1
102
RTVSPropertyOp4
 70
     1
102
RTVSPropertyOp5
 70
     1
102
RTVSPropertyOp6
 70
     1
102
RTVSPropertyOp7
 70
     1
102
RTVSPropertyOp8
 70
     1
102
RTVSPropertyOp9
 70
     1
102
RTVSPropertyOp10
 70
     1
102
RTVSPropertyOp11
 70
     1
102
RTVSPropertyOp12
 70
     1
102
RTVSPropertyOp13
 70
     1
102
RTVSPropertyOp14
 70
     1
102
RTVSPropertyOp15
 70
     1
102
RTVSPropertyOp16
 70
     1
102
RTVSPropertyOp17
 70
     1
102
RTVSPropertyOp18
 70
     1
102
RTVSPropertyOp19
 70
     1
102
RTVSPropertyOp20
 70
     1
102
RTVSPropertyOp21
 70
     1
102
RTVSPropertyOp22
 70
     1
102
RTVSPropertyOp23
 70
     1
102
RTVSPropertyOp24
 70
     1
102
RTVSPropertyOp25
 70
     1
102
RTVSPropertyOp26
 70
     1
102
RTVSPropertyOp27
 70
     1
102
RTVSPropertyOp28
 70
     1
102
RTVSPropertyOp29
 70
     1
102
RTVSPropertyOp30
 70
     1
102
RTVSPropertyOp31
 70
     1
102
RTVSPropertyOp32
 70
     1
102
RTVSPropertyOp33
 70
     1
102
RTVSPropertyOp34
 70
     1
102
RTVSPropertyOp35
 70
     1
102
RTVSPropertyOp36
 70
     1
102
RTVSPropertyOp37
 70
     1
102
RTVSPropertyOp38
 70
     1
102
RTVSPropertyOp39
 70
     1
102
RTVSPropertyOp40
 70
     1
102
RTVSPropertyOp41
 70
     1
102
RTVSPropertyOp42
 70
     1
102
RTVSPropertyOp43
 70
     1
102
RTVSPropertyOp44
 70
     1
102
RTVSPropertyOp45
 70
     1
102
RTVSPropertyOp46
 70
     1
102
RTVSPropertyOp47
 70
     1
102
RTVSPropertyOp48
 70
     1
102
RTVSPropertyOp49
 70
     1
102
RTVSPropertyOp50
 70
     1
102
RTVSPropertyOp51
 70
     0
102
RTVSPropertyOp52
 70
     0
102
RTVSPropertyOp53
 70
     1
102
RTVSPropertyOp54
 70
     1
102
RTVSPropertyOp55
 70
     1
102
RTVSPropertyOp56
 70
     1
102
RTVSPropertyOp57
 70
     1
102
RTVSPost2010Prop28
280
     0
102
RTVSPost2010PropOp28
 70
     1
102
RTVSPost2010Prop29
280
     1
102
RTVSPost2010PropOp29
 70
     1
102
RTVSPost2010Prop30
280
     1
102
RTVSPost2010PropOp30
 70
     1
102
RTVSPost2010Prop31
280
     0
102
RTVSPost2010PropOp31
 70
     1
102
RTVSPost2010Prop32
280
     0
102
RTVSPost2010PropOp32
 70
     1
102
RTVSPost2010Prop33
280
     0
102
RTVSPost2010PropOp33
 70
     1
102
RTVSPost2010Prop34
280
     0
102
RTVSPost2010PropOp34
 70
     1
102
RTVSPost2010Prop35
280
     0
102
RTVSPost2010PropOp35
 70
     1
102
RTVSPost2010Prop36
280
     0
102
RTVSPost2010PropOp36
 70
     1
102
RTVSPost2010Prop37
 90
       50
102
RTVSPost2010PropOp37
 70
     1
102
RTVSPost2010Prop38
140
0.0
102
RTVSPost2010PropOp38
 70
     1
102
RTVSPost2010Prop39
140
1.0
102
RTVSPost2010PropOp39
 70
     1
102
RTVSPost2010Prop40
 90
        0
102
RTVSPost2010PropOp40
 70
     1
102
RTVSPost2010Prop41ColorIndex
 90
       18
102
RTVSPost2010Prop41ColorRGB
 90
        0
102
RTVSPost2010PropOp41
 70
     1
102
RTVSPost2010Prop42
 90
       50
102
RTVSPost2010PropOp42
 70
     1
102
RTVSPost2010Prop43
 90
        3
102
RTVSPost2010PropOp43
 70
     1
102
RTVSPost2010Prop44ColorIndex
 90
        5
102
RTVSPost2010Prop44ColorRGB
 90
      255
102
RTVSPost2010PropOp44
 70
     1
102
RTVSPost2010Prop45
280
     0
102
RTVSPost2010PropOp45
 70
     1
102
RTVSPost2010Prop46
 90
       50
102
RTVSPost2010PropOp46
 70
     1
102
RTVSPost2010Prop47
 90
       50
102
RTVSPost2010PropOp47
 70
     1
102
RTVSPost2010Prop48
 90
       50
102
RTVSPost2010PropOp48
 70
     1
102
RTVSPost2010Prop49
280
     0
102
RTVSPost2010PropOp49
 70
     1
102
RTVSPost2010Prop50
 90
       50
102
RTVSPost2010PropOp50
 70
     1
102
RTVSPost2010Prop51ColorIndex
 90
      256
102
RTVSPost2010Prop51ColorRGB
 90
-16777216
102
RTVSPost2010PropOp51
 70
     0
102
RTVSPost2010Prop52
140
1.0
102
RTVSPost2010PropOp52
 70
     0
102
RTVSPost2010Prop53
 90
        2
102
RTVSPost2010PropOp53
 70
     1
102
RTVSPost2010Prop54
  1
strokes_ogs.tif
102
RTVSPost2010PropOp54
 70
     1
102
RTVSPost2010Prop55
280
     0
102
RTVSPost2010PropOp55
 70
     1
102
RTVSPost2010Prop56
140
1.0
102
RTVSPost2010PropOp56
 70
     1
102
RTVSPost2010Prop57
140
1.0
102
RTVSPost2010PropOp57
 70
     1
  0
XRECORD
  5
CE
102
{ACAD_REACTORS
330
CD
102
}
330
CD
100
AcDbXrecord
280
     1
102
RTVSPropertyOp0
 70
     1
102
RTVSPropertyOp1
 70
     1
102
RTVSPropertyOp2
 70
     1
102
RTVSPropertyOp3
 70
     1
102
RTVSPropertyOp4
 70
     1
102
RTVSPropertyOp5
 70
     1
102
RTVSPropertyOp6
 70
     1
102
RTVSPropertyOp7
 70
     1
102
RTVSPropertyOp8
 70
     1
102
RTVSPropertyOp9
 70
     1
102
RTVSPropertyOp10
 70
     1
102
RTVSPropertyOp11
 70
     1
102
RTVSPropertyOp12
 70
     1
102
RTVSPropertyOp13
 70
     1
102
RTVSPropertyOp14
 70
     1
102
RTVSPropertyOp15
 70
     1
102
RTVSPropertyOp16
 70
     1
102
RTVSPropertyOp17
 70
     1
102
RTVSPropertyOp18
 70
     1
102
RTVSPropertyOp19
 70
     1
102
RTVSPropertyOp20
 70
     1
102
RTVSPropertyOp21
 70
     1
102
RTVSPropertyOp22
 70
     1
102
RTVSPropertyOp23
 70
     1
102
RTVSPropertyOp24
 70
     1
102
RTVSPropertyOp25
 70
     1
102
RTVSPropertyOp26
 70
     1
102
RTVSPropertyOp27
 70
     1
102
RTVSPropertyOp28
 70
     1
102
RTVSPropertyOp29
 70
     1
102
RTVSPropertyOp30
 70
     1
102
RTVSPropertyOp31
 70
     1
102
RTVSPropertyOp32
 70
     1
102
RTVSPropertyOp33
 70
     1
102
RTVSPropertyOp34
 70
     1
102
RTVSPropertyOp35
 70
     1
102
RTVSPropertyOp36
 70
     1
102
RTVSPropertyOp37
 70
     1
102
RTVSPropertyOp38
 70
     1
102
RTVSPropertyOp39
 70
     1
102
RTVSPropertyOp40
 70
     1
102
RTVSPropertyOp41
 70
     1
102
RTVSPropertyOp42
 70
     1
102
RTVSPropertyOp43
 70
     1
102
RTVSPropertyOp44
 70
     1
102
RTVSPropertyOp45
 70
     1
102
RTVSPropertyOp46
 70
     1
102
RTVSPropertyOp47
 70
     1
102
RTVSPropertyOp48
 70
     1
102
RTVSPropertyOp49
 70
     1
102
RTVSPropertyOp50
 70
     1
102
RTVSPropertyOp51
 70
     0
102
RTVSPropertyOp52
 70
     0
102
RTVSPropertyOp53
 70
     1
102
RTVSPropertyOp54
 70
     1
102
RTVSPropertyOp55
 70
     1
102
RTVSPropertyOp56
 70
     1
102
RTVSPropertyOp57
 70
     1
102
RTVSPost2010Prop28
280
     0
102
RTVSPost2010PropOp28
 70
     1
102
RTVSPost2010Prop29
280
     1
102
RTVSPost2010PropOp29
 70
     1
102
RTVSPost2010Prop30
280
     1
102
RTVSPost2010PropOp30
 70
     1
102
RTVSPost2010Prop31
280
     0
102
RTVSPost2010PropOp31
 70
     1
102
RTVSPost2010Prop32
280
     0
102
RTVSPost2010PropOp32
 70
     1
102
RTVSPost2010Prop33
280
     0
102
RTVSPost2010PropOp33
 70
     1
102
RTVSPost2010Prop34
280
     0
102
RTVSPost2010PropOp34
 70
     1
102
RTVSPost2010Prop35
280
     0
102
RTVSPost2010PropOp35
 70
     1
102
RTVSPost2010Prop36
280
     0
102
RTVSPost2010PropOp36
 70
     1
102
RTVSPost2010Prop37
 90
       50
102
RTVSPost2010PropOp37
 70
     1
102
RTVSPost2010Prop38
140
0.0
102
RTVSPost2010PropOp38
 70
     1
102
RTVSPost2010Prop39
140
1.0
102
RTVSPost2010PropOp39
 70
     1
102
RTVSPost2010Prop40
 90
        0
102
RTVSPost2010PropOp40
 70
     1
102
RTVSPost2010Prop41ColorIndex
 90
       18
102
RTVSPost2010Prop41ColorRGB
 90
        0
102
RTVSPost2010PropOp41
 70
     1
102
RTVSPost2010Prop42
 90
       50
102
RTVSPost2010PropOp42
 70
     1
102
RTVSPost2010Prop43
 90
        3
102
RTVSPost2010PropOp43
 70
     1
102
RTVSPost2010Prop44ColorIndex
 90
        5
102
RTVSPost2010Prop44ColorRGB
 90
      255
102
RTVSPost2010PropOp44
 70
     1
102
RTVSPost2010Prop45
280
     0
102
RTVSPost2010PropOp45
 70
     1
102
RTVSPost2010Prop46
 90
       50
102
RTVSPost2010PropOp46
 70
     1
102
RTVSPost2010Prop47
 90
       50
102
RTVSPost2010PropOp47
 70
     1
102
RTVSPost2010Prop48
 90
       50
102
RTVSPost2010PropOp48
 70
     1
102
RTVSPost2010Prop49
280
     0
102
RTVSPost2010PropOp49
 70
     1
102
RTVSPost2010Prop50
 90
       50
102
RTVSPost2010PropOp50
 70
     1
102
RTVSPost2010Prop51ColorIndex
 90
      256
102
RTVSPost2010Prop51ColorRGB
 90
-16777216
102
RTVSPost2010PropOp51
 70
     0
102
RTVSPost2010Prop52
140
1.0
102
RTVSPost2010PropOp52
 70
     0
102
RTVSPost2010Prop53
 90
        2
102
RTVSPost2010PropOp53
 70
     1
102
RTVSPost2010Prop54
  1
strokes_ogs.tif
102
RTVSPost2010PropOp54
 70
     1
102
RTVSPost2010Prop55
280
     0
102
RTVSPost2010PropOp55
 70
     1
102
RTVSPost2010Prop56
140
1.0
102
RTVSPost2010PropOp56
 70
     1
102
RTVSPost2010Prop57
140
1.0
102
RTVSPost2010PropOp57
 70
     1
  0
XRECORD
  5
DE
102
{ACAD_REACTORS
330
DD
102
}
330
DD
100
AcDbXrecord
280
     1
102
RTVSPropertyOp0
 70
     0
102
RTVSPropertyOp1
 70
     0
102
RTVSPropertyOp2
 70
     0
102
RTVSPropertyOp3
 70
     0
102
RTVSPropertyOp4
 70
     0
102
RTVSPropertyOp5
 70
     0
102
RTVSPropertyOp6
 70
     0
102
RTVSPropertyOp7
 70
     0
102
RTVSPropertyOp8
 70
     0
102
RTVSPropertyOp9
 70
     0
102
RTVSPropertyOp10
 70
     0
102
RTVSPropertyOp11
 70
     0
102
RTVSPropertyOp12
 70
     0
102
RTVSPropertyOp13
 70
     0
102
RTVSPropertyOp14
 70
     2
102
RTVSPropertyOp15
 70
     0
102
RTVSPropertyOp16
 70
     0
102
RTVSPropertyOp17
 70
     0
102
RTVSPropertyOp18
 70
     0
102
RTVSPropertyOp19
 70
     0
102
RTVSPropertyOp20
 70
     0
102
RTVSPropertyOp21
 70
     0
102
RTVSPropertyOp22
 70
     0
102
RTVSPropertyOp23
 70
     0
102
RTVSPropertyOp24
 70
     0
102
RTVSPropertyOp25
 70
     0
102
RTVSPropertyOp26
 70
     0
102
RTVSPropertyOp27
 70
     0
102
RTVSPropertyOp28
 70
     0
102
RTVSPropertyOp29
 70
     0
102
RTVSPropertyOp30
 70
     0
102
RTVSPropertyOp31
 70
     0
102
RTVSPropertyOp32
 70
     0
102
RTVSPropertyOp33
 70
     0
102
RTVSPropertyOp34
 70
     0
102
RTVSPropertyOp35
 70
     0
102
RTVSPropertyOp36
 70
     0
102
RTVSPropertyOp37
 70
     0
102
RTVSPropertyOp38
 70
     0
102
RTVSPropertyOp39
 70
     0
102
RTVSPropertyOp40
 70
     0
102
RTVSPropertyOp41
 70
     0
102
RTVSPropertyOp42
 70
     0
102
RTVSPropertyOp43
 70
     0
102
RTVSPropertyOp44
 70
     0
102
RTVSPropertyOp45
 70
     0
102
RTVSPropertyOp46
 70
     0
102
RTVSPropertyOp47
 70
     0
102
RTVSPropertyOp48
 70
     0
102
RTVSPropertyOp49
 70
     0
102
RTVSPropertyOp50
 70
     0
102
RTVSPropertyOp51
 70
     0
102
RTVSPropertyOp52
 70
     0
102
RTVSPropertyOp53
 70
     0
102
RTVSPropertyOp54
 70
     0
102
RTVSPropertyOp55
 70
     0
102
RTVSPropertyOp56
 70
     0
102
RTVSPropertyOp57
 70
     0
102
RTVSPost2010Prop28
280
     0
102
RTVSPost2010PropOp28
 70
     0
102
RTVSPost2010Prop29
280
     1
102
RTVSPost2010PropOp29
 70
     0
102
RTVSPost2010Prop30
280
     1
102
RTVSPost2010PropOp30
 70
     0
102
RTVSPost2010Prop31
280
     0
102
RTVSPost2010PropOp31
 70
     0
102
RTVSPost2010Prop32
280
     0
102
RTVSPost2010PropOp32
 70
     0
102
RTVSPost2010Prop33
280
     0
102
RTVSPost2010PropOp33
 70
     0
102
RTVSPost2010Prop34
280
     0
102
RTVSPost2010PropOp34
 70
     0
102
RTVSPost2010Prop35
280
     0
102
RTVSPost2010PropOp35
 70
     0
102
RTVSPost2010Prop36
280
     0
102
RTVSPost2010PropOp36
 70
     0
102
RTVSPost2010Prop37
 90
       50
102
RTVSPost2010PropOp37
 70
     0
102
RTVSPost2010Prop38
140
0.0
102
RTVSPost2010PropOp38
 70
     0
102
RTVSPost2010Prop39
140
1.0
102
RTVSPost2010PropOp39
 70
     0
102
RTVSPost2010Prop40
 90
        0
102
RTVSPost2010PropOp40
 70
     0
102
RTVSPost2010Prop41ColorIndex
 90
       18
102
RTVSPost2010Prop41ColorRGB
 90
        0
102
RTVSPost2010PropOp41
 70
     0
102
RTVSPost2010Prop42
 90
       50
102
RTVSPost2010PropOp42
 70
     0
102
RTVSPost2010Prop43
 90
        3
102
RTVSPost2010PropOp43
 70
     0
102
RTVSPost2010Prop44ColorIndex
 90
        5
102
RTVSPost2010Prop44ColorRGB
 90
      255
102
RTVSPost2010PropOp44
 70
     0
102
RTVSPost2010Prop45
280
     0
102
RTVSPost2010PropOp45
 70
     0
102
RTVSPost2010Prop46
 90
       50
102
RTVSPost2010PropOp46
 70
     0
102
RTVSPost2010Prop47
 90
       50
102
RTVSPost2010PropOp47
 70
     0
102
RTVSPost2010Prop48
 90
       50
102
RTVSPost2010PropOp48
 70
     0
102
RTVSPost2010Prop49
280
     0
102
RTVSPost2010PropOp49
 70
     0
102
RTVSPost2010Prop50
 90
       50
102
RTVSPost2010PropOp50
 70
     0
102
RTVSPost2010Prop51ColorIndex
 90
      256
102
RTVSPost2010Prop51ColorRGB
 90
-16777216
102
RTVSPost2010PropOp51
 70
     0
102
RTVSPost2010Prop52
140
1.0
102
RTVSPost2010PropOp52
 70
     0
102
RTVSPost2010Prop53
 90
        2
102
RTVSPost2010PropOp53
 70
     0
102
RTVSPost2010Prop54
  1
strokes_ogs.tif
102
RTVSPost2010PropOp54
 70
     0
102
RTVSPost2010Prop55
280
     0
102
RTVSPost2010PropOp55
 70
     0
102
RTVSPost2010Prop56
140
1.0
102
RTVSPost2010PropOp56
 70
     0
102
RTVSPost2010Prop57
140
1.0
102
RTVSPost2010PropOp57
 70
     0
  0
XRECORD
  5
D6
102
{ACAD_REACTORS
330
D5
102
}
330
D5
100
AcDbXrecord
280
     1
102
RTVSPropertyOp0
 70
     1
102
RTVSPropertyOp1
 70
     1
102
RTVSPropertyOp2
 70
     1
102
RTVSPropertyOp3
 70
     1
102
RTVSPropertyOp4
 70
     1
102
RTVSPropertyOp5
 70
     1
102
RTVSPropertyOp6
 70
     1
102
RTVSPropertyOp7
 70
     1
102
RTVSPropertyOp8
 70
     1
102
RTVSPropertyOp9
 70
     1
102
RTVSPropertyOp10
 70
     1
102
RTVSPropertyOp11
 70
     1
102
RTVSPropertyOp12
 70
     1
102
RTVSPropertyOp13
 70
     1
102
RTVSPropertyOp14
 70
     1
102
RTVSPropertyOp15
 70
     1
102
RTVSPropertyOp16
 70
     1
102
RTVSPropertyOp17
 70
     1
102
RTVSPropertyOp18
 70
     1
102
RTVSPropertyOp19
 70
     1
102
RTVSPropertyOp20
 70
     1
102
RTVSPropertyOp21
 70
     1
102
RTVSPropertyOp22
 70
     1
102
RTVSPropertyOp23
 70
     1
102
RTVSPropertyOp24
 70
     1
102
RTVSPropertyOp25
 70
     1
102
RTVSPropertyOp26
 70
     1
102
RTVSPropertyOp27
 70
     1
102
RTVSPropertyOp28
 70
     1
102
RTVSPropertyOp29
 70
     1
102
RTVSPropertyOp30
 70
     1
102
RTVSPropertyOp31
 70
     1
102
RTVSPropertyOp32
 70
     1
102
RTVSPropertyOp33
 70
     1
102
RTVSPropertyOp34
 70
     1
102
RTVSPropertyOp35
 70
     1
102
RTVSPropertyOp36
 70
     1
102
RTVSPropertyOp37
 70
     1
102
RTVSPropertyOp38
 70
     1
102
RTVSPropertyOp39
 70
     1
102
RTVSPropertyOp40
 70
     1
102
RTVSPropertyOp41
 70
     1
102
RTVSPropertyOp42
 70
     1
102
RTVSPropertyOp43
 70
     1
102
RTVSPropertyOp44
 70
     1
102
RTVSPropertyOp45
 70
     1
102
RTVSPropertyOp46
 70
     1
102
RTVSPropertyOp47
 70
     1
102
RTVSPropertyOp48
 70
     1
102
RTVSPropertyOp49
 70
     1
102
RTVSPropertyOp50
 70
     1
102
RTVSPropertyOp51
 70
     0
102
RTVSPropertyOp52
 70
     0
102
RTVSPropertyOp53
 70
     1
102
RTVSPropertyOp54
 70
     1
102
RTVSPropertyOp55
 70
     1
102
RTVSPropertyOp56
 70
     1
102
RTVSPropertyOp57
 70
     1
102
RTVSPost2010Prop28
280
     0
102
RTVSPost2010PropOp28
 70
     1
102
RTVSPost2010Prop29
280
     1
102
RTVSPost2010PropOp29
 70
     1
102
RTVSPost2010Prop30
280
     1
102
RTVSPost2010PropOp30
 70
     1
102
RTVSPost2010Prop31
280
     0
102
RTVSPost2010PropOp31
 70
     1
102
RTVSPost2010Prop32
280
     0
102
RTVSPost2010PropOp32
 70
     1
102
RTVSPost2010Prop33
280
     0
102
RTVSPost2010PropOp33
 70
     1
102
RTVSPost2010Prop34
280
     0
102
RTVSPost2010PropOp34
 70
     1
102
RTVSPost2010Prop35
280
     0
102
RTVSPost2010PropOp35
 70
     1
102
RTVSPost2010Prop36
280
     0
102
RTVSPost2010PropOp36
 70
     1
102
RTVSPost2010Prop37
 90
       50
102
RTVSPost2010PropOp37
 70
     1
102
RTVSPost2010Prop38
140
0.0
102
RTVSPost2010PropOp38
 70
     1
102
RTVSPost2010Prop39
140
1.0
102
RTVSPost2010PropOp39
 70
     1
102
RTVSPost2010Prop40
 90
        0
102
RTVSPost2010PropOp40
 70
     1
102
RTVSPost2010Prop41ColorIndex
 90
       18
102
RTVSPost2010Prop41ColorRGB
 90
        0
102
RTVSPost2010PropOp41
 70
     1
102
RTVSPost2010Prop42
 90
       50
102
RTVSPost2010PropOp42
 70
     1
102
RTVSPost2010Prop43
 90
        3
102
RTVSPost2010PropOp43
 70
     1
102
RTVSPost2010Prop44ColorIndex
 90
        5
102
RTVSPost2010Prop44ColorRGB
 90
      255
102
RTVSPost2010PropOp44
 70
     1
102
RTVSPost2010Prop45
280
     0
102
RTVSPost2010PropOp45
 70
     1
102
RTVSPost2010Prop46
 90
       50
102
RTVSPost2010PropOp46
 70
     1
102
RTVSPost2010Prop47
 90
       50
102
RTVSPost2010PropOp47
 70
     1
102
RTVSPost2010Prop48
 90
       50
102
RTVSPost2010PropOp48
 70
     1
102
RTVSPost2010Prop49
280
     0
102
RTVSPost2010PropOp49
 70
     1
102
RTVSPost2010Prop50
 90
       50
102
RTVSPost2010PropOp50
 70
     1
102
RTVSPost2010Prop51ColorIndex
 90
      256
102
RTVSPost2010Prop51ColorRGB
 90
-16777216
102
RTVSPost2010PropOp51
 70
     0
102
RTVSPost2010Prop52
140
1.0
102
RTVSPost2010PropOp52
 70
     0
102
RTVSPost2010Prop53
 90
        2
102
RTVSPost2010PropOp53
 70
     1
102
RTVSPost2010Prop54
  1
strokes_ogs.tif
102
RTVSPost2010PropOp54
 70
     1
102
RTVSPost2010Prop55
280
     0
102
RTVSPost2010PropOp55
 70
     1
102
RTVSPost2010Prop56
140
1.0
102
RTVSPost2010PropOp56
 70
     1
102
RTVSPost2010Prop57
140
1.0
102
RTVSPost2010PropOp57
 70
     1
  0
XRECORD
  5
BA
102
{ACAD_REACTORS
330
B9
102
}
330
B9
100
AcDbXrecord
280
     1
102
RTVSPropertyOp0
 70
     1
102
RTVSPropertyOp1
 70
     1
102
RTVSPropertyOp2
 70
     1
102
RTVSPropertyOp3
 70
     1
102
RTVSPropertyOp4
 70
     1
102
RTVSPropertyOp5
 70
     1
102
RTVSPropertyOp6
 70
     1
102
RTVSPropertyOp7
 70
     1
102
RTVSPropertyOp8
 70
     1
102
RTVSPropertyOp9
 70
     1
102
RTVSPropertyOp10
 70
     1
102
RTVSPropertyOp11
 70
     1
102
RTVSPropertyOp12
 70
     1
102
RTVSPropertyOp13
 70
     1
102
RTVSPropertyOp14
 70
     1
102
RTVSPropertyOp15
 70
     1
102
RTVSPropertyOp16
 70
     1
102
RTVSPropertyOp17
 70
     1
102
RTVSPropertyOp18
 70
     1
102
RTVSPropertyOp19
 70
     1
102
RTVSPropertyOp20
 70
     1
102
RTVSPropertyOp21
 70
     1
102
RTVSPropertyOp22
 70
     1
102
RTVSPropertyOp23
 70
     1
102
RTVSPropertyOp24
 70
     1
102
RTVSPropertyOp25
 70
     1
102
RTVSPropertyOp26
 70
     1
102
RTVSPropertyOp27
 70
     1
102
RTVSPropertyOp28
 70
     1
102
RTVSPropertyOp29
 70
     1
102
RTVSPropertyOp30
 70
     1
102
RTVSPropertyOp31
 70
     1
102
RTVSPropertyOp32
 70
     1
102
RTVSPropertyOp33
 70
     1
102
RTVSPropertyOp34
 70
     1
102
RTVSPropertyOp35
 70
     1
102
RTVSPropertyOp36
 70
     1
102
RTVSPropertyOp37
 70
     1
102
RTVSPropertyOp38
 70
     1
102
RTVSPropertyOp39
 70
     1
102
RTVSPropertyOp40
 70
     1
102
RTVSPropertyOp41
 70
     1
102
RTVSPropertyOp42
 70
     1
102
RTVSPropertyOp43
 70
     1
102
RTVSPropertyOp44
 70
     1
102
RTVSPropertyOp45
 70
     1
102
RTVSPropertyOp46
 70
     1
102
RTVSPropertyOp47
 70
     1
102
RTVSPropertyOp48
 70
     1
102
RTVSPropertyOp49
 70
     1
102
RTVSPropertyOp50
 70
     1
102
RTVSPropertyOp51
 70
     0
102
RTVSPropertyOp52
 70
     0
102
RTVSPropertyOp53
 70
     1
102
RTVSPropertyOp54
 70
     1
102
RTVSPropertyOp55
 70
     1
102
RTVSPropertyOp56
 70
     1
102
RTVSPropertyOp57
 70
     1
102
RTVSPost2010Prop28
280
     0
102
RTVSPost2010PropOp28
 70
     1
102
RTVSPost2010Prop29
280
     1
102
RTVSPost2010PropOp29
 70
     1
102
RTVSPost2010Prop30
280
     1
102
RTVSPost2010PropOp30
 70
     1
102
RTVSPost2010Prop31
280
     0
102
RTVSPost2010PropOp31
 70
     1
102
RTVSPost2010Prop32
280
     0
102
RTVSPost2010PropOp32
 70
     1
102
RTVSPost2010Prop33
280
     0
102
RTVSPost2010PropOp33
 70
     1
102
RTVSPost2010Prop34
280
     0
102
RTVSPost2010PropOp34
 70
     1
102
RTVSPost2010Prop35
280
     0
102
RTVSPost2010PropOp35
 70
     1
102
RTVSPost2010Prop36
280
     0
102
RTVSPost2010PropOp36
 70
     1
102
RTVSPost2010Prop37
 90
       50
102
RTVSPost2010PropOp37
 70
     1
102
RTVSPost2010Prop38
140
0.0
102
RTVSPost2010PropOp38
 70
     1
102
RTVSPost2010Prop39
140
1.0
102
RTVSPost2010PropOp39
 70
     1
102
RTVSPost2010Prop40
 90
        0
102
RTVSPost2010PropOp40
 70
     1
102
RTVSPost2010Prop41ColorIndex
 90
       18
102
RTVSPost2010Prop41ColorRGB
 90
        0
102
RTVSPost2010PropOp41
 70
     1
102
RTVSPost2010Prop42
 90
       50
102
RTVSPost2010PropOp42
 70
     1
102
RTVSPost2010Prop43
 90
        3
102
RTVSPost2010PropOp43
 70
     1
102
RTVSPost2010Prop44ColorIndex
 90
        5
102
RTVSPost2010Prop44ColorRGB
 90
      255
102
RTVSPost2010PropOp44
 70
     1
102
RTVSPost2010Prop45
280
     0
102
RTVSPost2010PropOp45
 70
     1
102
RTVSPost2010Prop46
 90
       50
102
RTVSPost2010PropOp46
 70
     1
102
RTVSPost2010Prop47
 90
       50
102
RTVSPost2010PropOp47
 70
     1
102
RTVSPost2010Prop48
 90
       50
102
RTVSPost2010PropOp48
 70
     1
102
RTVSPost2010Prop49
280
     0
102
RTVSPost2010PropOp49
 70
     1
102
RTVSPost2010Prop50
 90
       50
102
RTVSPost2010PropOp50
 70
     1
102
RTVSPost2010Prop51ColorIndex
 90
      256
102
RTVSPost2010Prop51ColorRGB
 90
-16777216
102
RTVSPost2010PropOp51
 70
     0
102
RTVSPost2010Prop52
140
1.0
102
RTVSPost2010PropOp52
 70
     0
102
RTVSPost2010Prop53
 90
        2
102
RTVSPost2010PropOp53
 70
     1
102
RTVSPost2010Prop54
  1
strokes_ogs.tif
102
RTVSPost2010PropOp54
 70
     1
102
RTVSPost2010Prop55
280
     0
102
RTVSPost2010PropOp55
 70
     1
102
RTVSPost2010Prop56
140
1.0
102
RTVSPost2010PropOp56
 70
     1
102
RTVSPost2010Prop57
140
1.0
102
RTVSPost2010PropOp57
 70
     1
  0
XRECORD
  5
BC
102
{ACAD_REACTORS
330
BB
102
}
330
BB
100
AcDbXrecord
280
     1
102
RTVSPropertyOp0
 70
     1
102
RTVSPropertyOp1
 70
     1
102
RTVSPropertyOp2
 70
     1
102
RTVSPropertyOp3
 70
     1
102
RTVSPropertyOp4
 70
     1
102
RTVSPropertyOp5
 70
     1
102
RTVSPropertyOp6
 70
     1
102
RTVSPropertyOp7
 70
     1
102
RTVSPropertyOp8
 70
     1
102
RTVSPropertyOp9
 70
     1
102
RTVSPropertyOp10
 70
     1
102
RTVSPropertyOp11
 70
     1
102
RTVSPropertyOp12
 70
     1
102
RTVSPropertyOp13
 70
     1
102
RTVSPropertyOp14
 70
     1
102
RTVSPropertyOp15
 70
     1
102
RTVSPropertyOp16
 70
     1
102
RTVSPropertyOp17
 70
     1
102
RTVSPropertyOp18
 70
     1
102
RTVSPropertyOp19
 70
     1
102
RTVSPropertyOp20
 70
     1
102
RTVSPropertyOp21
 70
     1
102
RTVSPropertyOp22
 70
     1
102
RTVSPropertyOp23
 70
     1
102
RTVSPropertyOp24
 70
     1
102
RTVSPropertyOp25
 70
     1
102
RTVSPropertyOp26
 70
     1
102
RTVSPropertyOp27
 70
     1
102
RTVSPropertyOp28
 70
     1
102
RTVSPropertyOp29
 70
     1
102
RTVSPropertyOp30
 70
     1
102
RTVSPropertyOp31
 70
     1
102
RTVSPropertyOp32
 70
     1
102
RTVSPropertyOp33
 70
     1
102
RTVSPropertyOp34
 70
     1
102
RTVSPropertyOp35
 70
     1
102
RTVSPropertyOp36
 70
     1
102
RTVSPropertyOp37
 70
     1
102
RTVSPropertyOp38
 70
     1
102
RTVSPropertyOp39
 70
     1
102
RTVSPropertyOp40
 70
     1
102
RTVSPropertyOp41
 70
     1
102
RTVSPropertyOp42
 70
     1
102
RTVSPropertyOp43
 70
     1
102
RTVSPropertyOp44
 70
     1
102
RTVSPropertyOp45
 70
     1
102
RTVSPropertyOp46
 70
     1
102
RTVSPropertyOp47
 70
     1
102
RTVSPropertyOp48
 70
     1
102
RTVSPropertyOp49
 70
     1
102
RTVSPropertyOp50
 70
     1
102
RTVSPropertyOp51
 70
     0
102
RTVSPropertyOp52
 70
     0
102
RTVSPropertyOp53
 70
     1
102
RTVSPropertyOp54
 70
     1
102
RTVSPropertyOp55
 70
     1
102
RTVSPropertyOp56
 70
     1
102
RTVSPropertyOp57
 70
     1
102
RTVSPost2010Prop28
280
     0
102
RTVSPost2010PropOp28
 70
     1
102
RTVSPost2010Prop29
280
     1
102
RTVSPost2010PropOp29
 70
     1
102
RTVSPost2010Prop30
280
     1
102
RTVSPost2010PropOp30
 70
     1
102
RTVSPost2010Prop31
280
     0
102
RTVSPost2010PropOp31
 70
     1
102
RTVSPost2010Prop32
280
     0
102
RTVSPost2010PropOp32
 70
     1
102
RTVSPost2010Prop33
280
     0
102
RTVSPost2010PropOp33
 70
     1
102
RTVSPost2010Prop34
280
     0
102
RTVSPost2010PropOp34
 70
     1
102
RTVSPost2010Prop35
280
     0
102
RTVSPost2010PropOp35
 70
     1
102
RTVSPost2010Prop36
280
     0
102
RTVSPost2010PropOp36
 70
     1
102
RTVSPost2010Prop37
 90
       50
102
RTVSPost2010PropOp37
 70
     1
102
RTVSPost2010Prop38
140
0.0
102
RTVSPost2010PropOp38
 70
     1
102
RTVSPost2010Prop39
140
1.0
102
RTVSPost2010PropOp39
 70
     1
102
RTVSPost2010Prop40
 90
        0
102
RTVSPost2010PropOp40
 70
     1
102
RTVSPost2010Prop41ColorIndex
 90
       18
102
RTVSPost2010Prop41ColorRGB
 90
        0
102
RTVSPost2010PropOp41
 70
     1
102
RTVSPost2010Prop42
 90
       50
102
RTVSPost2010PropOp42
 70
     1
102
RTVSPost2010Prop43
 90
        3
102
RTVSPost2010PropOp43
 70
     1
102
RTVSPost2010Prop44ColorIndex
 90
        5
102
RTVSPost2010Prop44ColorRGB
 90
      255
102
RTVSPost2010PropOp44
 70
     1
102
RTVSPost2010Prop45
280
     0
102
RTVSPost2010PropOp45
 70
     1
102
RTVSPost2010Prop46
 90
       50
102
RTVSPost2010PropOp46
 70
     1
102
RTVSPost2010Prop47
 90
       50
102
RTVSPost2010PropOp47
 70
     1
102
RTVSPost2010Prop48
 90
       50
102
RTVSPost2010PropOp48
 70
     1
102
RTVSPost2010Prop49
280
     0
102
RTVSPost2010PropOp49
 70
     1
102
RTVSPost2010Prop50
 90
       50
102
RTVSPost2010PropOp50
 70
     1
102
RTVSPost2010Prop51ColorIndex
 90
      256
102
RTVSPost2010Prop51ColorRGB
 90
-16777216
102
RTVSPost2010PropOp51
 70
     0
102
RTVSPost2010Prop52
140
1.0
102
RTVSPost2010PropOp52
 70
     0
102
RTVSPost2010Prop53
 90
        2
102
RTVSPost2010PropOp53
 70
     1
102
RTVSPost2010Prop54
  1
strokes_ogs.tif
102
RTVSPost2010PropOp54
 70
     1
102
RTVSPost2010Prop55
280
     0
102
RTVSPost2010PropOp55
 70
     1
102
RTVSPost2010Prop56
140
1.0
102
RTVSPost2010PropOp56
 70
     1
102
RTVSPost2010Prop57
140
1.0
102
RTVSPost2010PropOp57
 70
     1
  0
XRECORD
  5
BE
102
{ACAD_REACTORS
330
BD
102
}
330
BD
100
AcDbXrecord
280
     1
102
RTVSPropertyOp0
 70
     1
102
RTVSPropertyOp1
 70
     1
102
RTVSPropertyOp2
 70
     1
102
RTVSPropertyOp3
 70
     1
102
RTVSPropertyOp4
 70
     1
102
RTVSPropertyOp5
 70
     1
102
RTVSPropertyOp6
 70
     1
102
RTVSPropertyOp7
 70
     1
102
RTVSPropertyOp8
 70
     1
102
RTVSPropertyOp9
 70
     1
102
RTVSPropertyOp10
 70
     1
102
RTVSPropertyOp11
 70
     1
102
RTVSPropertyOp12
 70
     1
102
RTVSPropertyOp13
 70
     1
102
RTVSPropertyOp14
 70
     1
102
RTVSPropertyOp15
 70
     1
102
RTVSPropertyOp16
 70
     1
102
RTVSPropertyOp17
 70
     1
102
RTVSPropertyOp18
 70
     1
102
RTVSPropertyOp19
 70
     1
102
RTVSPropertyOp20
 70
     1
102
RTVSPropertyOp21
 70
     1
102
RTVSPropertyOp22
 70
     1
102
RTVSPropertyOp23
 70
     1
102
RTVSPropertyOp24
 70
     1
102
RTVSPropertyOp25
 70
     1
102
RTVSPropertyOp26
 70
     1
102
RTVSPropertyOp27
 70
     1
102
RTVSPropertyOp28
 70
     1
102
RTVSPropertyOp29
 70
     1
102
RTVSPropertyOp30
 70
     1
102
RTVSPropertyOp31
 70
     1
102
RTVSPropertyOp32
 70
     1
102
RTVSPropertyOp33
 70
     1
102
RTVSPropertyOp34
 70
     1
102
RTVSPropertyOp35
 70
     1
102
RTVSPropertyOp36
 70
     1
102
RTVSPropertyOp37
 70
     1
102
RTVSPropertyOp38
 70
     1
102
RTVSPropertyOp39
 70
     1
102
RTVSPropertyOp40
 70
     1
102
RTVSPropertyOp41
 70
     1
102
RTVSPropertyOp42
 70
     1
102
RTVSPropertyOp43
 70
     1
102
RTVSPropertyOp44
 70
     1
102
RTVSPropertyOp45
 70
     1
102
RTVSPropertyOp46
 70
     1
102
RTVSPropertyOp47
 70
     1
102
RTVSPropertyOp48
 70
     1
102
RTVSPropertyOp49
 70
     1
102
RTVSPropertyOp50
 70
     1
102
RTVSPropertyOp51
 70
     0
102
RTVSPropertyOp52
 70
     0
102
RTVSPropertyOp53
 70
     1
102
RTVSPropertyOp54
 70
     1
102
RTVSPropertyOp55
 70
     1
102
RTVSPropertyOp56
 70
     1
102
RTVSPropertyOp57
 70
     1
102
RTVSPost2010Prop28
280
     0
102
RTVSPost2010PropOp28
 70
     1
102
RTVSPost2010Prop29
280
     1
102
RTVSPost2010PropOp29
 70
     1
102
RTVSPost2010Prop30
280
     1
102
RTVSPost2010PropOp30
 70
     1
102
RTVSPost2010Prop31
280
     0
102
RTVSPost2010PropOp31
 70
     1
102
RTVSPost2010Prop32
280
     0
102
RTVSPost2010PropOp32
 70
     1
102
RTVSPost2010Prop33
280
     0
102
RTVSPost2010PropOp33
 70
     1
102
RTVSPost2010Prop34
280
     0
102
RTVSPost2010PropOp34
 70
     1
102
RTVSPost2010Prop35
280
     0
102
RTVSPost2010PropOp35
 70
     1
102
RTVSPost2010Prop36
280
     0
102
RTVSPost2010PropOp36
 70
     1
102
RTVSPost2010Prop37
 90
       50
102
RTVSPost2010PropOp37
 70
     1
102
RTVSPost2010Prop38
140
0.0
102
RTVSPost2010PropOp38
 70
     1
102
RTVSPost2010Prop39
140
1.0
102
RTVSPost2010PropOp39
 70
     1
102
RTVSPost2010Prop40
 90
        0
102
RTVSPost2010PropOp40
 70
     1
102
RTVSPost2010Prop41ColorIndex
 90
       18
102
RTVSPost2010Prop41ColorRGB
 90
        0
102
RTVSPost2010PropOp41
 70
     1
102
RTVSPost2010Prop42
 90
       50
102
RTVSPost2010PropOp42
 70
     1
102
RTVSPost2010Prop43
 90
        3
102
RTVSPost2010PropOp43
 70
     1
102
RTVSPost2010Prop44ColorIndex
 90
        5
102
RTVSPost2010Prop44ColorRGB
 90
      255
102
RTVSPost2010PropOp44
 70
     1
102
RTVSPost2010Prop45
280
     0
102
RTVSPost2010PropOp45
 70
     1
102
RTVSPost2010Prop46
 90
       50
102
RTVSPost2010PropOp46
 70
     1
102
RTVSPost2010Prop47
 90
       50
102
RTVSPost2010PropOp47
 70
     1
102
RTVSPost2010Prop48
 90
       50
102
RTVSPost2010PropOp48
 70
     1
102
RTVSPost2010Prop49
280
     0
102
RTVSPost2010PropOp49
 70
     1
102
RTVSPost2010Prop50
 90
       50
102
RTVSPost2010PropOp50
 70
     1
102
RTVSPost2010Prop51ColorIndex
 90
      256
102
RTVSPost2010Prop51ColorRGB
 90
-16777216
102
RTVSPost2010PropOp51
 70
     0
102
RTVSPost2010Prop52
140
1.0
102
RTVSPost2010PropOp52
 70
     0
102
RTVSPost2010Prop53
 90
        2
102
RTVSPost2010PropOp53
 70
     1
102
RTVSPost2010Prop54
  1
strokes_ogs.tif
102
RTVSPost2010PropOp54
 70
     1
102
RTVSPost2010Prop55
280
     0
102
RTVSPost2010PropOp55
 70
     1
102
RTVSPost2010Prop56
140
1.0
102
RTVSPost2010PropOp56
 70
     1
102
RTVSPost2010Prop57
140
1.0
102
RTVSPost2010PropOp57
 70
     1
  0
XRECORD
  5
C0
102
{ACAD_REACTORS
330
BF
102
}
330
BF
100
AcDbXrecord
280
     1
102
RTVSPropertyOp0
 70
     1
102
RTVSPropertyOp1
 70
     1
102
RTVSPropertyOp2
 70
     1
102
RTVSPropertyOp3
 70
     1
102
RTVSPropertyOp4
 70
     1
102
RTVSPropertyOp5
 70
     1
102
RTVSPropertyOp6
 70
     1
102
RTVSPropertyOp7
 70
     1
102
RTVSPropertyOp8
 70
     1
102
RTVSPropertyOp9
 70
     1
102
RTVSPropertyOp10
 70
     1
102
RTVSPropertyOp11
 70
     1
102
RTVSPropertyOp12
 70
     1
102
RTVSPropertyOp13
 70
     1
102
RTVSPropertyOp14
 70
     1
102
RTVSPropertyOp15
 70
     1
102
RTVSPropertyOp16
 70
     1
102
RTVSPropertyOp17
 70
     1
102
RTVSPropertyOp18
 70
     1
102
RTVSPropertyOp19
 70
     1
102
RTVSPropertyOp20
 70
     1
102
RTVSPropertyOp21
 70
     1
102
RTVSPropertyOp22
 70
     1
102
RTVSPropertyOp23
 70
     1
102
RTVSPropertyOp24
 70
     1
102
RTVSPropertyOp25
 70
     1
102
RTVSPropertyOp26
 70
     1
102
RTVSPropertyOp27
 70
     1
102
RTVSPropertyOp28
 70
     1
102
RTVSPropertyOp29
 70
     1
102
RTVSPropertyOp30
 70
     1
102
RTVSPropertyOp31
 70
     1
102
RTVSPropertyOp32
 70
     1
102
RTVSPropertyOp33
 70
     1
102
RTVSPropertyOp34
 70
     1
102
RTVSPropertyOp35
 70
     1
102
RTVSPropertyOp36
 70
     1
102
RTVSPropertyOp37
 70
     1
102
RTVSPropertyOp38
 70
     1
102
RTVSPropertyOp39
 70
     1
102
RTVSPropertyOp40
 70
     1
102
RTVSPropertyOp41
 70
     1
102
RTVSPropertyOp42
 70
     1
102
RTVSPropertyOp43
 70
     1
102
RTVSPropertyOp44
 70
     1
102
RTVSPropertyOp45
 70
     1
102
RTVSPropertyOp46
 70
     1
102
RTVSPropertyOp47
 70
     1
102
RTVSPropertyOp48
 70
     1
102
RTVSPropertyOp49
 70
     1
102
RTVSPropertyOp50
 70
     1
102
RTVSPropertyOp51
 70
     0
102
RTVSPropertyOp52
 70
     0
102
RTVSPropertyOp53
 70
     1
102
RTVSPropertyOp54
 70
     1
102
RTVSPropertyOp55
 70
     1
102
RTVSPropertyOp56
 70
     1
102
RTVSPropertyOp57
 70
     1
102
RTVSPost2010Prop28
280
     0
102
RTVSPost2010PropOp28
 70
     1
102
RTVSPost2010Prop29
280
     1
102
RTVSPost2010PropOp29
 70
     1
102
RTVSPost2010Prop30
280
     1
102
RTVSPost2010PropOp30
 70
     1
102
RTVSPost2010Prop31
280
     0
102
RTVSPost2010PropOp31
 70
     1
102
RTVSPost2010Prop32
280
     0
102
RTVSPost2010PropOp32
 70
     1
102
RTVSPost2010Prop33
280
     0
102
RTVSPost2010PropOp33
 70
     1
102
RTVSPost2010Prop34
280
     0
102
RTVSPost2010PropOp34
 70
     1
102
RTVSPost2010Prop35
280
     0
102
RTVSPost2010PropOp35
 70
     1
102
RTVSPost2010Prop36
280
     0
102
RTVSPost2010PropOp36
 70
     1
102
RTVSPost2010Prop37
 90
       50
102
RTVSPost2010PropOp37
 70
     1
102
RTVSPost2010Prop38
140
0.0
102
RTVSPost2010PropOp38
 70
     1
102
RTVSPost2010Prop39
140
1.0
102
RTVSPost2010PropOp39
 70
     1
102
RTVSPost2010Prop40
 90
        0
102
RTVSPost2010PropOp40
 70
     1
102
RTVSPost2010Prop41ColorIndex
 90
       18
102
RTVSPost2010Prop41ColorRGB
 90
        0
102
RTVSPost2010PropOp41
 70
     1
102
RTVSPost2010Prop42
 90
       50
102
RTVSPost2010PropOp42
 70
     1
102
RTVSPost2010Prop43
 90
        3
102
RTVSPost2010PropOp43
 70
     1
102
RTVSPost2010Prop44ColorIndex
 90
        5
102
RTVSPost2010Prop44ColorRGB
 90
      255
102
RTVSPost2010PropOp44
 70
     1
102
RTVSPost2010Prop45
280
     0
102
RTVSPost2010PropOp45
 70
     1
102
RTVSPost2010Prop46
 90
       50
102
RTVSPost2010PropOp46
 70
     1
102
RTVSPost2010Prop47
 90
       50
102
RTVSPost2010PropOp47
 70
     1
102
RTVSPost2010Prop48
 90
       50
102
RTVSPost2010PropOp48
 70
     1
102
RTVSPost2010Prop49
280
     0
102
RTVSPost2010PropOp49
 70
     1
102
RTVSPost2010Prop50
 90
       50
102
RTVSPost2010PropOp50
 70
     1
102
RTVSPost2010Prop51ColorIndex
 90
      256
102
RTVSPost2010Prop51ColorRGB
 90
-16777216
102
RTVSPost2010PropOp51
 70
     0
102
RTVSPost2010Prop52
140
1.0
102
RTVSPost2010PropOp52
 70
     0
102
RTVSPost2010Prop53
 90
        2
102
RTVSPost2010PropOp53
 70
     1
102
RTVSPost2010Prop54
  1
strokes_ogs.tif
102
RTVSPost2010PropOp54
 70
     1
102
RTVSPost2010Prop55
280
     0
102
RTVSPost2010PropOp55
 70
     1
102
RTVSPost2010Prop56
140
1.0
102
RTVSPost2010PropOp56
 70
     1
102
RTVSPost2010Prop57
140
1.0
102
RTVSPost2010PropOp57
 70
     1
  0
XRECORD
  5
C6
102
{ACAD_REACTORS
330
C5
102
}
330
C5
100
AcDbXrecord
280
     1
102
RTVSPropertyOp0
 70
     1
102
RTVSPropertyOp1
 70
     1
102
RTVSPropertyOp2
 70
     1
102
RTVSPropertyOp3
 70
     1
102
RTVSPropertyOp4
 70
     1
102
RTVSPropertyOp5
 70
     1
102
RTVSPropertyOp6
 70
     1
102
RTVSPropertyOp7
 70
     1
102
RTVSPropertyOp8
 70
     1
102
RTVSPropertyOp9
 70
     1
102
RTVSPropertyOp10
 70
     1
102
RTVSPropertyOp11
 70
     1
102
RTVSPropertyOp12
 70
     1
102
RTVSPropertyOp13
 70
     1
102
RTVSPropertyOp14
 70
     1
102
RTVSPropertyOp15
 70
     1
102
RTVSPropertyOp16
 70
     1
102
RTVSPropertyOp17
 70
     1
102
RTVSPropertyOp18
 70
     1
102
RTVSPropertyOp19
 70
     1
102
RTVSPropertyOp20
 70
     1
102
RTVSPropertyOp21
 70
     1
102
RTVSPropertyOp22
 70
     1
102
RTVSPropertyOp23
 70
     1
102
RTVSPropertyOp24
 70
     1
102
RTVSPropertyOp25
 70
     1
102
RTVSPropertyOp26
 70
     1
102
RTVSPropertyOp27
 70
     1
102
RTVSPropertyOp28
 70
     1
102
RTVSPropertyOp29
 70
     1
102
RTVSPropertyOp30
 70
     1
102
RTVSPropertyOp31
 70
     1
102
RTVSPropertyOp32
 70
     1
102
RTVSPropertyOp33
 70
     1
102
RTVSPropertyOp34
 70
     1
102
RTVSPropertyOp35
 70
     1
102
RTVSPropertyOp36
 70
     1
102
RTVSPropertyOp37
 70
     1
102
RTVSPropertyOp38
 70
     1
102
RTVSPropertyOp39
 70
     1
102
RTVSPropertyOp40
 70
     1
102
RTVSPropertyOp41
 70
     1
102
RTVSPropertyOp42
 70
     1
102
RTVSPropertyOp43
 70
     1
102
RTVSPropertyOp44
 70
     1
102
RTVSPropertyOp45
 70
     1
102
RTVSPropertyOp46
 70
     1
102
RTVSPropertyOp47
 70
     1
102
RTVSPropertyOp48
 70
     1
102
RTVSPropertyOp49
 70
     1
102
RTVSPropertyOp50
 70
     1
102
RTVSPropertyOp51
 70
     0
102
RTVSPropertyOp52
 70
     0
102
RTVSPropertyOp53
 70
     1
102
RTVSPropertyOp54
 70
     1
102
RTVSPropertyOp55
 70
     1
102
RTVSPropertyOp56
 70
     1
102
RTVSPropertyOp57
 70
     1
102
RTVSPost2010Prop28
280
     0
102
RTVSPost2010PropOp28
 70
     1
102
RTVSPost2010Prop29
280
     1
102
RTVSPost2010PropOp29
 70
     1
102
RTVSPost2010Prop30
280
     1
102
RTVSPost2010PropOp30
 70
     1
102
RTVSPost2010Prop31
280
     0
102
RTVSPost2010PropOp31
 70
     1
102
RTVSPost2010Prop32
280
     0
102
RTVSPost2010PropOp32
 70
     1
102
RTVSPost2010Prop33
280
     0
102
RTVSPost2010PropOp33
 70
     1
102
RTVSPost2010Prop34
280
     0
102
RTVSPost2010PropOp34
 70
     1
102
RTVSPost2010Prop35
280
     0
102
RTVSPost2010PropOp35
 70
     1
102
RTVSPost2010Prop36
280
     0
102
RTVSPost2010PropOp36
 70
     1
102
RTVSPost2010Prop37
 90
       50
102
RTVSPost2010PropOp37
 70
     1
102
RTVSPost2010Prop38
140
0.0
102
RTVSPost2010PropOp38
 70
     1
102
RTVSPost2010Prop39
140
1.0
102
RTVSPost2010PropOp39
 70
     1
102
RTVSPost2010Prop40
 90
        0
102
RTVSPost2010PropOp40
 70
     1
102
RTVSPost2010Prop41ColorIndex
 90
       18
102
RTVSPost2010Prop41ColorRGB
 90
        0
102
RTVSPost2010PropOp41
 70
     1
102
RTVSPost2010Prop42
 90
       50
102
RTVSPost2010PropOp42
 70
     1
102
RTVSPost2010Prop43
 90
        3
102
RTVSPost2010PropOp43
 70
     1
102
RTVSPost2010Prop44ColorIndex
 90
        5
102
RTVSPost2010Prop44ColorRGB
 90
      255
102
RTVSPost2010PropOp44
 70
     1
102
RTVSPost2010Prop45
280
     0
102
RTVSPost2010PropOp45
 70
     1
102
RTVSPost2010Prop46
 90
       50
102
RTVSPost2010PropOp46
 70
     1
102
RTVSPost2010Prop47
 90
       50
102
RTVSPost2010PropOp47
 70
     1
102
RTVSPost2010Prop48
 90
       50
102
RTVSPost2010PropOp48
 70
     1
102
RTVSPost2010Prop49
280
     0
102
RTVSPost2010PropOp49
 70
     1
102
RTVSPost2010Prop50
 90
       50
102
RTVSPost2010PropOp50
 70
     1
102
RTVSPost2010Prop51ColorIndex
 90
      256
102
RTVSPost2010Prop51ColorRGB
 90
-16777216
102
RTVSPost2010PropOp51
 70
     0
102
RTVSPost2010Prop52
140
1.0
102
RTVSPost2010PropOp52
 70
     0
102
RTVSPost2010Prop53
 90
        2
102
RTVSPost2010PropOp53
 70
     1
102
RTVSPost2010Prop54
  1
strokes_ogs.tif
102
RTVSPost2010PropOp54
 70
     1
102
RTVSPost2010Prop55
280
     0
102
RTVSPost2010PropOp55
 70
     1
102
RTVSPost2010Prop56
140
1.0
102
RTVSPost2010PropOp56
 70
     1
102
RTVSPost2010Prop57
140
1.0
102
RTVSPost2010PropOp57
 70
     1
  0
XRECORD
  5
DA
102
{ACAD_REACTORS
330
D9
102
}
330
D9
100
AcDbXrecord
280
     1
102
RTVSPropertyOp0
 70
     0
102
RTVSPropertyOp1
 70
     0
102
RTVSPropertyOp2
 70
     0
102
RTVSPropertyOp3
 70
     0
102
RTVSPropertyOp4
 70
     0
102
RTVSPropertyOp5
 70
     0
102
RTVSPropertyOp6
 70
     0
102
RTVSPropertyOp7
 70
     0
102
RTVSPropertyOp8
 70
     0
102
RTVSPropertyOp9
 70
     0
102
RTVSPropertyOp10
 70
     0
102
RTVSPropertyOp11
 70
     0
102
RTVSPropertyOp12
 70
     0
102
RTVSPropertyOp13
 70
     0
102
RTVSPropertyOp14
 70
     2
102
RTVSPropertyOp15
 70
     0
102
RTVSPropertyOp16
 70
     0
102
RTVSPropertyOp17
 70
     0
102
RTVSPropertyOp18
 70
     0
102
RTVSPropertyOp19
 70
     0
102
RTVSPropertyOp20
 70
     0
102
RTVSPropertyOp21
 70
     0
102
RTVSPropertyOp22
 70
     0
102
RTVSPropertyOp23
 70
     0
102
RTVSPropertyOp24
 70
     0
102
RTVSPropertyOp25
 70
     0
102
RTVSPropertyOp26
 70
     0
102
RTVSPropertyOp27
 70
     0
102
RTVSPropertyOp28
 70
     0
102
RTVSPropertyOp29
 70
     0
102
RTVSPropertyOp30
 70
     0
102
RTVSPropertyOp31
 70
     0
102
RTVSPropertyOp32
 70
     0
102
RTVSPropertyOp33
 70
     0
102
RTVSPropertyOp34
 70
     0
102
RTVSPropertyOp35
 70
     0
102
RTVSPropertyOp36
 70
     0
102
RTVSPropertyOp37
 70
     0
102
RTVSPropertyOp38
 70
     0
102
RTVSPropertyOp39
 70
     0
102
RTVSPropertyOp40
 70
     0
102
RTVSPropertyOp41
 70
     0
102
RTVSPropertyOp42
 70
     0
102
RTVSPropertyOp43
 70
     0
102
RTVSPropertyOp44
 70
     0
102
RTVSPropertyOp45
 70
     0
102
RTVSPropertyOp46
 70
     0
102
RTVSPropertyOp47
 70
     0
102
RTVSPropertyOp48
 70
     0
102
RTVSPropertyOp49
 70
     0
102
RTVSPropertyOp50
 70
     0
102
RTVSPropertyOp51
 70
     0
102
RTVSPropertyOp52
 70
     0
102
RTVSPropertyOp53
 70
     0
102
RTVSPropertyOp54
 70
     0
102
RTVSPropertyOp55
 70
     0
102
RTVSPropertyOp56
 70
     0
102
RTVSPropertyOp57
 70
     0
102
RTVSPost2010Prop28
280
     0
102
RTVSPost2010PropOp28
 70
     0
102
RTVSPost2010Prop29
280
     1
102
RTVSPost2010PropOp29
 70
     0
102
RTVSPost2010Prop30
280
     1
102
RTVSPost2010PropOp30
 70
     0
102
RTVSPost2010Prop31
280
     0
102
RTVSPost2010PropOp31
 70
     0
102
RTVSPost2010Prop32
280
     0
102
RTVSPost2010PropOp32
 70
     0
102
RTVSPost2010Prop33
280
     0
102
RTVSPost2010PropOp33
 70
     0
102
RTVSPost2010Prop34
280
     0
102
RTVSPost2010PropOp34
 70
     0
102
RTVSPost2010Prop35
280
     0
102
RTVSPost2010PropOp35
 70
     0
102
RTVSPost2010Prop36
280
     0
102
RTVSPost2010PropOp36
 70
     0
102
RTVSPost2010Prop37
 90
       50
102
RTVSPost2010PropOp37
 70
     0
102
RTVSPost2010Prop38
140
0.0
102
RTVSPost2010PropOp38
 70
     0
102
RTVSPost2010Prop39
140
1.0
102
RTVSPost2010PropOp39
 70
     0
102
RTVSPost2010Prop40
 90
        0
102
RTVSPost2010PropOp40
 70
     0
102
RTVSPost2010Prop41ColorIndex
 90
       18
102
RTVSPost2010Prop41ColorRGB
 90
        0
102
RTVSPost2010PropOp41
 70
     0
102
RTVSPost2010Prop42
 90
       50
102
RTVSPost2010PropOp42
 70
     0
102
RTVSPost2010Prop43
 90
        3
102
RTVSPost2010PropOp43
 70
     0
102
RTVSPost2010Prop44ColorIndex
 90
        5
102
RTVSPost2010Prop44ColorRGB
 90
      255
102
RTVSPost2010PropOp44
 70
     0
102
RTVSPost2010Prop45
280
     0
102
RTVSPost2010PropOp45
 70
     0
102
RTVSPost2010Prop46
 90
       50
102
RTVSPost2010PropOp46
 70
     0
102
RTVSPost2010Prop47
 90
       50
102
RTVSPost2010PropOp47
 70
     0
102
RTVSPost2010Prop48
 90
       50
102
RTVSPost2010PropOp48
 70
     0
102
RTVSPost2010Prop49
280
     0
102
RTVSPost2010PropOp49
 70
     0
102
RTVSPost2010Prop50
 90
       50
102
RTVSPost2010PropOp50
 70
     0
102
RTVSPost2010Prop51ColorIndex
 90
      256
102
RTVSPost2010Prop51ColorRGB
 90
-16777216
102
RTVSPost2010PropOp51
 70
     0
102
RTVSPost2010Prop52
140
1.0
102
RTVSPost2010PropOp52
 70
     0
102
RTVSPost2010Prop53
 90
        2
102
RTVSPost2010PropOp53
 70
     0
102
RTVSPost2010Prop54
  1
strokes_ogs.tif
102
RTVSPost2010PropOp54
 70
     0
102
RTVSPost2010Prop55
280
     0
102
RTVSPost2010PropOp55
 70
     0
102
RTVSPost2010Prop56
140
1.0
102
RTVSPost2010PropOp56
 70
     0
102
RTVSPost2010Prop57
140
1.0
102
RTVSPost2010PropOp57
 70
     0
  0
XRECORD
  5
D4
102
{ACAD_REACTORS
330
D3
102
}
330
D3
100
AcDbXrecord
280
     1
102
RTVSPropertyOp0
 70
     1
102
RTVSPropertyOp1
 70
     1
102
RTVSPropertyOp2
 70
     1
102
RTVSPropertyOp3
 70
     1
102
RTVSPropertyOp4
 70
     1
102
RTVSPropertyOp5
 70
     1
102
RTVSPropertyOp6
 70
     1
102
RTVSPropertyOp7
 70
     1
102
RTVSPropertyOp8
 70
     1
102
RTVSPropertyOp9
 70
     1
102
RTVSPropertyOp10
 70
     1
102
RTVSPropertyOp11
 70
     1
102
RTVSPropertyOp12
 70
     1
102
RTVSPropertyOp13
 70
     1
102
RTVSPropertyOp14
 70
     1
102
RTVSPropertyOp15
 70
     1
102
RTVSPropertyOp16
 70
     1
102
RTVSPropertyOp17
 70
     1
102
RTVSPropertyOp18
 70
     1
102
RTVSPropertyOp19
 70
     1
102
RTVSPropertyOp20
 70
     1
102
RTVSPropertyOp21
 70
     1
102
RTVSPropertyOp22
 70
     1
102
RTVSPropertyOp23
 70
     1
102
RTVSPropertyOp24
 70
     1
102
RTVSPropertyOp25
 70
     1
102
RTVSPropertyOp26
 70
     1
102
RTVSPropertyOp27
 70
     1
102
RTVSPropertyOp28
 70
     1
102
RTVSPropertyOp29
 70
     1
102
RTVSPropertyOp30
 70
     1
102
RTVSPropertyOp31
 70
     1
102
RTVSPropertyOp32
 70
     1
102
RTVSPropertyOp33
 70
     1
102
RTVSPropertyOp34
 70
     1
102
RTVSPropertyOp35
 70
     1
102
RTVSPropertyOp36
 70
     1
102
RTVSPropertyOp37
 70
     1
102
RTVSPropertyOp38
 70
     1
102
RTVSPropertyOp39
 70
     1
102
RTVSPropertyOp40
 70
     1
102
RTVSPropertyOp41
 70
     1
102
RTVSPropertyOp42
 70
     1
102
RTVSPropertyOp43
 70
     1
102
RTVSPropertyOp44
 70
     1
102
RTVSPropertyOp45
 70
     1
102
RTVSPropertyOp46
 70
     1
102
RTVSPropertyOp47
 70
     1
102
RTVSPropertyOp48
 70
     1
102
RTVSPropertyOp49
 70
     1
102
RTVSPropertyOp50
 70
     1
102
RTVSPropertyOp51
 70
     0
102
RTVSPropertyOp52
 70
     0
102
RTVSPropertyOp53
 70
     1
102
RTVSPropertyOp54
 70
     1
102
RTVSPropertyOp55
 70
     1
102
RTVSPropertyOp56
 70
     1
102
RTVSPropertyOp57
 70
     1
102
RTVSPost2010Prop28
280
     0
102
RTVSPost2010PropOp28
 70
     1
102
RTVSPost2010Prop29
280
     1
102
RTVSPost2010PropOp29
 70
     1
102
RTVSPost2010Prop30
280
     1
102
RTVSPost2010PropOp30
 70
     1
102
RTVSPost2010Prop31
280
     0
102
RTVSPost2010PropOp31
 70
     1
102
RTVSPost2010Prop32
280
     0
102
RTVSPost2010PropOp32
 70
     1
102
RTVSPost2010Prop33
280
     0
102
RTVSPost2010PropOp33
 70
     1
102
RTVSPost2010Prop34
280
     0
102
RTVSPost2010PropOp34
 70
     1
102
RTVSPost2010Prop35
280
     0
102
RTVSPost2010PropOp35
 70
     1
102
RTVSPost2010Prop36
280
     0
102
RTVSPost2010PropOp36
 70
     1
102
RTVSPost2010Prop37
 90
       50
102
RTVSPost2010PropOp37
 70
     1
102
RTVSPost2010Prop38
140
0.0
102
RTVSPost2010PropOp38
 70
     1
102
RTVSPost2010Prop39
140
1.0
102
RTVSPost2010PropOp39
 70
     1
102
RTVSPost2010Prop40
 90
        0
102
RTVSPost2010PropOp40
 70
     1
102
RTVSPost2010Prop41ColorIndex
 90
       18
102
RTVSPost2010Prop41ColorRGB
 90
        0
102
RTVSPost2010PropOp41
 70
     1
102
RTVSPost2010Prop42
 90
       50
102
RTVSPost2010PropOp42
 70
     1
102
RTVSPost2010Prop43
 90
        3
102
RTVSPost2010PropOp43
 70
     1
102
RTVSPost2010Prop44ColorIndex
 90
        5
102
RTVSPost2010Prop44ColorRGB
 90
      255
102
RTVSPost2010PropOp44
 70
     1
102
RTVSPost2010Prop45
280
     0
102
RTVSPost2010PropOp45
 70
     1
102
RTVSPost2010Prop46
 90
       50
102
RTVSPost2010PropOp46
 70
     1
102
RTVSPost2010Prop47
 90
       50
102
RTVSPost2010PropOp47
 70
     1
102
RTVSPost2010Prop48
 90
       50
102
RTVSPost2010PropOp48
 70
     1
102
RTVSPost2010Prop49
280
     0
102
RTVSPost2010PropOp49
 70
     1
102
RTVSPost2010Prop50
 90
       50
102
RTVSPost2010PropOp50
 70
     1
102
RTVSPost2010Prop51ColorIndex
 90
      256
102
RTVSPost2010Prop51ColorRGB
 90
-16777216
102
RTVSPost2010PropOp51
 70
     0
102
RTVSPost2010Prop52
140
1.0
102
RTVSPost2010PropOp52
 70
     0
102
RTVSPost2010Prop53
 90
        2
102
RTVSPost2010PropOp53
 70
     1
102
RTVSPost2010Prop54
  1
strokes_ogs.tif
102
RTVSPost2010PropOp54
 70
     1
102
RTVSPost2010Prop55
280
     0
102
RTVSPost2010PropOp55
 70
     1
102
RTVSPost2010Prop56
140
1.0
102
RTVSPost2010PropOp56
 70
     1
102
RTVSPost2010Prop57
140
1.0
102
RTVSPost2010PropOp57
 70
     1
  0
XRECORD
  5
DC
102
{ACAD_REACTORS
330
DB
102
}
330
DB
100
AcDbXrecord
280
     1
102
RTVSPropertyOp0
 70
     0
102
RTVSPropertyOp1
 70
     0
102
RTVSPropertyOp2
 70
     0
102
RTVSPropertyOp3
 70
     0
102
RTVSPropertyOp4
 70
     0
102
RTVSPropertyOp5
 70
     0
102
RTVSPropertyOp6
 70
     0
102
RTVSPropertyOp7
 70
     0
102
RTVSPropertyOp8
 70
     0
102
RTVSPropertyOp9
 70
     0
102
RTVSPropertyOp10
 70
     0
102
RTVSPropertyOp11
 70
     0
102
RTVSPropertyOp12
 70
     0
102
RTVSPropertyOp13
 70
     0
102
RTVSPropertyOp14
 70
     2
102
RTVSPropertyOp15
 70
     0
102
RTVSPropertyOp16
 70
     0
102
RTVSPropertyOp17
 70
     0
102
RTVSPropertyOp18
 70
     0
102
RTVSPropertyOp19
 70
     0
102
RTVSPropertyOp20
 70
     0
102
RTVSPropertyOp21
 70
     0
102
RTVSPropertyOp22
 70
     0
102
RTVSPropertyOp23
 70
     0
102
RTVSPropertyOp24
 70
     0
102
RTVSPropertyOp25
 70
     0
102
RTVSPropertyOp26
 70
     0
102
RTVSPropertyOp27
 70
     0
102
RTVSPropertyOp28
 70
     0
102
RTVSPropertyOp29
 70
     0
102
RTVSPropertyOp30
 70
     0
102
RTVSPropertyOp31
 70
     0
102
RTVSPropertyOp32
 70
     0
102
RTVSPropertyOp33
 70
     0
102
RTVSPropertyOp34
 70
     0
102
RTVSPropertyOp35
 70
     0
102
RTVSPropertyOp36
 70
     0
102
RTVSPropertyOp37
 70
     0
102
RTVSPropertyOp38
 70
     0
102
RTVSPropertyOp39
 70
     0
102
RTVSPropertyOp40
 70
     0
102
RTVSPropertyOp41
 70
     0
102
RTVSPropertyOp42
 70
     0
102
RTVSPropertyOp43
 70
     0
102
RTVSPropertyOp44
 70
     0
102
RTVSPropertyOp45
 70
     0
102
RTVSPropertyOp46
 70
     0
102
RTVSPropertyOp47
 70
     0
102
RTVSPropertyOp48
 70
     0
102
RTVSPropertyOp49
 70
     0
102
RTVSPropertyOp50
 70
     0
102
RTVSPropertyOp51
 70
     0
102
RTVSPropertyOp52
 70
     0
102
RTVSPropertyOp53
 70
     0
102
RTVSPropertyOp54
 70
     0
102
RTVSPropertyOp55
 70
     0
102
RTVSPropertyOp56
 70
     0
102
RTVSPropertyOp57
 70
     0
102
RTVSPost2010Prop28
280
     0
102
RTVSPost2010PropOp28
 70
     0
102
RTVSPost2010Prop29
280
     1
102
RTVSPost2010PropOp29
 70
     0
102
RTVSPost2010Prop30
280
     1
102
RTVSPost2010PropOp30
 70
     0
102
RTVSPost2010Prop31
280
     0
102
RTVSPost2010PropOp31
 70
     0
102
RTVSPost2010Prop32
280
     0
102
RTVSPost2010PropOp32
 70
     0
102
RTVSPost2010Prop33
280
     0
102
RTVSPost2010PropOp33
 70
     0
102
RTVSPost2010Prop34
280
     0
102
RTVSPost2010PropOp34
 70
     0
102
RTVSPost2010Prop35
280
     0
102
RTVSPost2010PropOp35
 70
     0
102
RTVSPost2010Prop36
280
     0
102
RTVSPost2010PropOp36
 70
     0
102
RTVSPost2010Prop37
 90
       50
102
RTVSPost2010PropOp37
 70
     0
102
RTVSPost2010Prop38
140
0.0
102
RTVSPost2010PropOp38
 70
     0
102
RTVSPost2010Prop39
140
1.0
102
RTVSPost2010PropOp39
 70
     0
102
RTVSPost2010Prop40
 90
        0
102
RTVSPost2010PropOp40
 70
     0
102
RTVSPost2010Prop41ColorIndex
 90
       18
102
RTVSPost2010Prop41ColorRGB
 90
        0
102
RTVSPost2010PropOp41
 70
     0
102
RTVSPost2010Prop42
 90
       50
102
RTVSPost2010PropOp42
 70
     0
102
RTVSPost2010Prop43
 90
        3
102
RTVSPost2010PropOp43
 70
     0
102
RTVSPost2010Prop44ColorIndex
 90
        5
102
RTVSPost2010Prop44ColorRGB
 90
      255
102
RTVSPost2010PropOp44
 70
     0
102
RTVSPost2010Prop45
280
     0
102
RTVSPost2010PropOp45
 70
     0
102
RTVSPost2010Prop46
 90
       50
102
RTVSPost2010PropOp46
 70
     0
102
RTVSPost2010Prop47
 90
       50
102
RTVSPost2010PropOp47
 70
     0
102
RTVSPost2010Prop48
 90
       50
102
RTVSPost2010PropOp48
 70
     0
102
RTVSPost2010Prop49
280
     0
102
RTVSPost2010PropOp49
 70
     0
102
RTVSPost2010Prop50
 90
       50
102
RTVSPost2010PropOp50
 70
     0
102
RTVSPost2010Prop51ColorIndex
 90
      256
102
RTVSPost2010Prop51ColorRGB
 90
-16777216
102
RTVSPost2010PropOp51
 70
     0
102
RTVSPost2010Prop52
140
1.0
102
RTVSPost2010PropOp52
 70
     0
102
RTVSPost2010Prop53
 90
        2
102
RTVSPost2010PropOp53
 70
     0
102
RTVSPost2010Prop54
  1
strokes_ogs.tif
102
RTVSPost2010PropOp54
 70
     0
102
RTVSPost2010Prop55
280
     0
102
RTVSPost2010PropOp55
 70
     0
102
RTVSPost2010Prop56
140
1.0
102
RTVSPost2010PropOp56
 70
     0
102
RTVSPost2010Prop57
140
1.0
102
RTVSPost2010PropOp57
 70
     0
  0
XRECORD
  5
CA
102
{ACAD_REACTORS
330
C9
102
}
330
C9
100
AcDbXrecord
280
     1
102
RTVSPropertyOp0
 70
     1
102
RTVSPropertyOp1
 70
     1
102
RTVSPropertyOp2
 70
     1
102
RTVSPropertyOp3
 70
     1
102
RTVSPropertyOp4
 70
     1
102
RTVSPropertyOp5
 70
     1
102
RTVSPropertyOp6
 70
     1
102
RTVSPropertyOp7
 70
     1
102
RTVSPropertyOp8
 70
     1
102
RTVSPropertyOp9
 70
     1
102
RTVSPropertyOp10
 70
     1
102
RTVSPropertyOp11
 70
     1
102
RTVSPropertyOp12
 70
     1
102
RTVSPropertyOp13
 70
     1
102
RTVSPropertyOp14
 70
     1
102
RTVSPropertyOp15
 70
     1
102
RTVSPropertyOp16
 70
     1
102
RTVSPropertyOp17
 70
     1
102
RTVSPropertyOp18
 70
     1
102
RTVSPropertyOp19
 70
     1
102
RTVSPropertyOp20
 70
     1
102
RTVSPropertyOp21
 70
     1
102
RTVSPropertyOp22
 70
     1
102
RTVSPropertyOp23
 70
     1
102
RTVSPropertyOp24
 70
     1
102
RTVSPropertyOp25
 70
     1
102
RTVSPropertyOp26
 70
     1
102
RTVSPropertyOp27
 70
     1
102
RTVSPropertyOp28
 70
     1
102
RTVSPropertyOp29
 70
     1
102
RTVSPropertyOp30
 70
     1
102
RTVSPropertyOp31
 70
     1
102
RTVSPropertyOp32
 70
     1
102
RTVSPropertyOp33
 70
     1
102
RTVSPropertyOp34
 70
     1
102
RTVSPropertyOp35
 70
     1
102
RTVSPropertyOp36
 70
     1
102
RTVSPropertyOp37
 70
     1
102
RTVSPropertyOp38
 70
     1
102
RTVSPropertyOp39
 70
     1
102
RTVSPropertyOp40
 70
     1
102
RTVSPropertyOp41
 70
     1
102
RTVSPropertyOp42
 70
     1
102
RTVSPropertyOp43
 70
     1
102
RTVSPropertyOp44
 70
     1
102
RTVSPropertyOp45
 70
     1
102
RTVSPropertyOp46
 70
     1
102
RTVSPropertyOp47
 70
     1
102
RTVSPropertyOp48
 70
     1
102
RTVSPropertyOp49
 70
     1
102
RTVSPropertyOp50
 70
     1
102
RTVSPropertyOp51
 70
     0
102
RTVSPropertyOp52
 70
     0
102
RTVSPropertyOp53
 70
     1
102
RTVSPropertyOp54
 70
     1
102
RTVSPropertyOp55
 70
     1
102
RTVSPropertyOp56
 70
     1
102
RTVSPropertyOp57
 70
     1
102
RTVSPost2010Prop28
280
     0
102
RTVSPost2010PropOp28
 70
     1
102
RTVSPost2010Prop29
280
     1
102
RTVSPost2010PropOp29
 70
     1
102
RTVSPost2010Prop30
280
     1
102
RTVSPost2010PropOp30
 70
     1
102
RTVSPost2010Prop31
280
     0
102
RTVSPost2010PropOp31
 70
     1
102
RTVSPost2010Prop32
280
     0
102
RTVSPost2010PropOp32
 70
     1
102
RTVSPost2010Prop33
280
     0
102
RTVSPost2010PropOp33
 70
     1
102
RTVSPost2010Prop34
280
     0
102
RTVSPost2010PropOp34
 70
     1
102
RTVSPost2010Prop35
280
     0
102
RTVSPost2010PropOp35
 70
     1
102
RTVSPost2010Prop36
280
     0
102
RTVSPost2010PropOp36
 70
     1
102
RTVSPost2010Prop37
 90
       50
102
RTVSPost2010PropOp37
 70
     1
102
RTVSPost2010Prop38
140
0.0
102
RTVSPost2010PropOp38
 70
     1
102
RTVSPost2010Prop39
140
1.0
102
RTVSPost2010PropOp39
 70
     1
102
RTVSPost2010Prop40
 90
        0
102
RTVSPost2010PropOp40
 70
     1
102
RTVSPost2010Prop41ColorIndex
 90
       18
102
RTVSPost2010Prop41ColorRGB
 90
        0
102
RTVSPost2010PropOp41
 70
     1
102
RTVSPost2010Prop42
 90
       50
102
RTVSPost2010PropOp42
 70
     1
102
RTVSPost2010Prop43
 90
        3
102
RTVSPost2010PropOp43
 70
     1
102
RTVSPost2010Prop44ColorIndex
 90
        5
102
RTVSPost2010Prop44ColorRGB
 90
      255
102
RTVSPost2010PropOp44
 70
     1
102
RTVSPost2010Prop45
280
     0
102
RTVSPost2010PropOp45
 70
     1
102
RTVSPost2010Prop46
 90
       50
102
RTVSPost2010PropOp46
 70
     1
102
RTVSPost2010Prop47
 90
       50
102
RTVSPost2010PropOp47
 70
     1
102
RTVSPost2010Prop48
 90
       50
102
RTVSPost2010PropOp48
 70
     1
102
RTVSPost2010Prop49
280
     0
102
RTVSPost2010PropOp49
 70
     1
102
RTVSPost2010Prop50
 90
       50
102
RTVSPost2010PropOp50
 70
     1
102
RTVSPost2010Prop51ColorIndex
 90
      256
102
RTVSPost2010Prop51ColorRGB
 90
-16777216
102
RTVSPost2010PropOp51
 70
     0
102
RTVSPost2010Prop52
140
1.0
102
RTVSPost2010PropOp52
 70
     0
102
RTVSPost2010Prop53
 90
        2
102
RTVSPost2010PropOp53
 70
     1
102
RTVSPost2010Prop54
  1
strokes_ogs.tif
102
RTVSPost2010PropOp54
 70
     1
102
RTVSPost2010Prop55
280
     0
102
RTVSPost2010PropOp55
 70
     1
102
RTVSPost2010Prop56
140
1.0
102
RTVSPost2010PropOp56
 70
     1
102
RTVSPost2010Prop57
140
1.0
102
RTVSPost2010PropOp57
 70
     1
  0
XRECORD
  5
E8
102
{ACAD_REACTORS
330
E7
102
}
330
E7
100
AcDbXrecord
280
     1
102
RTVSPropertyOp0
 70
     1
102
RTVSPropertyOp1
 70
     1
102
RTVSPropertyOp2
 70
     1
102
RTVSPropertyOp3
 70
     1
102
RTVSPropertyOp4
 70
     1
102
RTVSPropertyOp5
 70
     1
102
RTVSPropertyOp6
 70
     1
102
RTVSPropertyOp7
 70
     1
102
RTVSPropertyOp8
 70
     1
102
RTVSPropertyOp9
 70
     1
102
RTVSPropertyOp10
 70
     1
102
RTVSPropertyOp11
 70
     1
102
RTVSPropertyOp12
 70
     1
102
RTVSPropertyOp13
 70
     1
102
RTVSPropertyOp14
 70
     1
102
RTVSPropertyOp15
 70
     1
102
RTVSPropertyOp16
 70
     1
102
RTVSPropertyOp17
 70
     1
102
RTVSPropertyOp18
 70
     1
102
RTVSPropertyOp19
 70
     1
102
RTVSPropertyOp20
 70
     1
102
RTVSPropertyOp21
 70
     1
102
RTVSPropertyOp22
 70
     1
102
RTVSPropertyOp23
 70
     1
102
RTVSPropertyOp24
 70
     1
102
RTVSPropertyOp25
 70
     1
102
RTVSPropertyOp26
 70
     1
102
RTVSPropertyOp27
 70
     1
102
RTVSPropertyOp28
 70
     1
102
RTVSPropertyOp29
 70
     1
102
RTVSPropertyOp30
 70
     1
102
RTVSPropertyOp31
 70
     1
102
RTVSPropertyOp32
 70
     1
102
RTVSPropertyOp33
 70
     1
102
RTVSPropertyOp34
 70
     1
102
RTVSPropertyOp35
 70
     1
102
RTVSPropertyOp36
 70
     1
102
RTVSPropertyOp37
 70
     1
102
RTVSPropertyOp38
 70
     1
102
RTVSPropertyOp39
 70
     1
102
RTVSPropertyOp40
 70
     1
102
RTVSPropertyOp41
 70
     1
102
RTVSPropertyOp42
 70
     1
102
RTVSPropertyOp43
 70
     1
102
RTVSPropertyOp44
 70
     1
102
RTVSPropertyOp45
 70
     1
102
RTVSPropertyOp46
 70
     1
102
RTVSPropertyOp47
 70
     1
102
RTVSPropertyOp48
 70
     1
102
RTVSPropertyOp49
 70
     1
102
RTVSPropertyOp50
 70
     1
102
RTVSPropertyOp51
 70
     0
102
RTVSPropertyOp52
 70
     0
102
RTVSPropertyOp53
 70
     1
102
RTVSPropertyOp54
 70
     1
102
RTVSPropertyOp55
 70
     1
102
RTVSPropertyOp56
 70
     1
102
RTVSPropertyOp57
 70
     1
102
RTVSPost2010Prop28
280
     0
102
RTVSPost2010PropOp28
 70
     1
102
RTVSPost2010Prop29
280
     1
102
RTVSPost2010PropOp29
 70
     1
102
RTVSPost2010Prop30
280
     1
102
RTVSPost2010PropOp30
 70
     1
102
RTVSPost2010Prop31
280
     0
102
RTVSPost2010PropOp31
 70
     1
102
RTVSPost2010Prop32
280
     0
102
RTVSPost2010PropOp32
 70
     1
102
RTVSPost2010Prop33
280
     0
102
RTVSPost2010PropOp33
 70
     1
102
RTVSPost2010Prop34
280
     0
102
RTVSPost2010PropOp34
 70
     1
102
RTVSPost2010Prop35
280
     0
102
RTVSPost2010PropOp35
 70
     1
102
RTVSPost2010Prop36
280
     0
102
RTVSPost2010PropOp36
 70
     1
102
RTVSPost2010Prop37
 90
       50
102
RTVSPost2010PropOp37
 70
     1
102
RTVSPost2010Prop38
140
0.0
102
RTVSPost2010PropOp38
 70
     1
102
RTVSPost2010Prop39
140
1.0
102
RTVSPost2010PropOp39
 70
     1
102
RTVSPost2010Prop40
 90
        0
102
RTVSPost2010PropOp40
 70
     1
102
RTVSPost2010Prop41ColorIndex
 90
       18
102
RTVSPost2010Prop41ColorRGB
 90
        0
102
RTVSPost2010PropOp41
 70
     1
102
RTVSPost2010Prop42
 90
       50
102
RTVSPost2010PropOp42
 70
     1
102
RTVSPost2010Prop43
 90
        3
102
RTVSPost2010PropOp43
 70
     1
102
RTVSPost2010Prop44ColorIndex
 90
        5
102
RTVSPost2010Prop44ColorRGB
 90
      255
102
RTVSPost2010PropOp44
 70
     1
102
RTVSPost2010Prop45
280
     0
102
RTVSPost2010PropOp45
 70
     1
102
RTVSPost2010Prop46
 90
       50
102
RTVSPost2010PropOp46
 70
     1
102
RTVSPost2010Prop47
 90
       50
102
RTVSPost2010PropOp47
 70
     1
102
RTVSPost2010Prop48
 90
       50
102
RTVSPost2010PropOp48
 70
     1
102
RTVSPost2010Prop49
280
     0
102
RTVSPost2010PropOp49
 70
     1
102
RTVSPost2010Prop50
 90
       50
102
RTVSPost2010PropOp50
 70
     1
102
RTVSPost2010Prop51ColorIndex
 90
      256
102
RTVSPost2010Prop51ColorRGB
 90
-16777216
102
RTVSPost2010PropOp51
 70
     0
102
RTVSPost2010Prop52
140
1.0
102
RTVSPost2010PropOp52
 70
     0
102
RTVSPost2010Prop53
 90
        2
102
RTVSPost2010PropOp53
 70
     1
102
RTVSPost2010Prop54
  1
strokes_ogs.tif
102
RTVSPost2010PropOp54
 70
     1
102
RTVSPost2010Prop55
280
     0
102
RTVSPost2010PropOp55
 70
     1
102
RTVSPost2010Prop56
140
1.0
102
RTVSPost2010PropOp56
 70
     1
102
RTVSPost2010Prop57
140
1.0
102
RTVSPost2010PropOp57
 70
     1
  0
XRECORD
  5
E6
102
{ACAD_REACTORS
330
E5
102
}
330
E5
100
AcDbXrecord
280
     1
102
RTVSPropertyOp0
 70
     1
102
RTVSPropertyOp1
 70
     1
102
RTVSPropertyOp2
 70
     1
102
RTVSPropertyOp3
 70
     1
102
RTVSPropertyOp4
 70
     1
102
RTVSPropertyOp5
 70
     1
102
RTVSPropertyOp6
 70
     1
102
RTVSPropertyOp7
 70
     1
102
RTVSPropertyOp8
 70
     1
102
RTVSPropertyOp9
 70
     1
102
RTVSPropertyOp10
 70
     1
102
RTVSPropertyOp11
 70
     1
102
RTVSPropertyOp12
 70
     1
102
RTVSPropertyOp13
 70
     1
102
RTVSPropertyOp14
 70
     1
102
RTVSPropertyOp15
 70
     1
102
RTVSPropertyOp16
 70
     1
102
RTVSPropertyOp17
 70
     1
102
RTVSPropertyOp18
 70
     1
102
RTVSPropertyOp19
 70
     1
102
RTVSPropertyOp20
 70
     1
102
RTVSPropertyOp21
 70
     1
102
RTVSPropertyOp22
 70
     1
102
RTVSPropertyOp23
 70
     1
102
RTVSPropertyOp24
 70
     1
102
RTVSPropertyOp25
 70
     1
102
RTVSPropertyOp26
 70
     1
102
RTVSPropertyOp27
 70
     1
102
RTVSPropertyOp28
 70
     1
102
RTVSPropertyOp29
 70
     1
102
RTVSPropertyOp30
 70
     1
102
RTVSPropertyOp31
 70
     1
102
RTVSPropertyOp32
 70
     1
102
RTVSPropertyOp33
 70
     1
102
RTVSPropertyOp34
 70
     1
102
RTVSPropertyOp35
 70
     1
102
RTVSPropertyOp36
 70
     1
102
RTVSPropertyOp37
 70
     1
102
RTVSPropertyOp38
 70
     1
102
RTVSPropertyOp39
 70
     1
102
RTVSPropertyOp40
 70
     1
102
RTVSPropertyOp41
 70
     1
102
RTVSPropertyOp42
 70
     1
102
RTVSPropertyOp43
 70
     1
102
RTVSPropertyOp44
 70
     1
102
RTVSPropertyOp45
 70
     1
102
RTVSPropertyOp46
 70
     1
102
RTVSPropertyOp47
 70
     1
102
RTVSPropertyOp48
 70
     1
102
RTVSPropertyOp49
 70
     1
102
RTVSPropertyOp50
 70
     1
102
RTVSPropertyOp51
 70
     0
102
RTVSPropertyOp52
 70
     0
102
RTVSPropertyOp53
 70
     1
102
RTVSPropertyOp54
 70
     1
102
RTVSPropertyOp55
 70
     1
102
RTVSPropertyOp56
 70
     1
102
RTVSPropertyOp57
 70
     1
102
RTVSPost2010Prop28
280
     0
102
RTVSPost2010PropOp28
 70
     1
102
RTVSPost2010Prop29
280
     1
102
RTVSPost2010PropOp29
 70
     1
102
RTVSPost2010Prop30
280
     1
102
RTVSPost2010PropOp30
 70
     1
102
RTVSPost2010Prop31
280
     0
102
RTVSPost2010PropOp31
 70
     1
102
RTVSPost2010Prop32
280
     0
102
RTVSPost2010PropOp32
 70
     1
102
RTVSPost2010Prop33
280
     0
102
RTVSPost2010PropOp33
 70
     1
102
RTVSPost2010Prop34
280
     0
102
RTVSPost2010PropOp34
 70
     1
102
RTVSPost2010Prop35
280
     0
102
RTVSPost2010PropOp35
 70
     1
102
RTVSPost2010Prop36
280
     0
102
RTVSPost2010PropOp36
 70
     1
102
RTVSPost2010Prop37
 90
       50
102
RTVSPost2010PropOp37
 70
     1
102
RTVSPost2010Prop38
140
0.0
102
RTVSPost2010PropOp38
 70
     1
102
RTVSPost2010Prop39
140
1.0
102
RTVSPost2010PropOp39
 70
     1
102
RTVSPost2010Prop40
 90
        0
102
RTVSPost2010PropOp40
 70
     1
102
RTVSPost2010Prop41ColorIndex
 90
       18
102
RTVSPost2010Prop41ColorRGB
 90
        0
102
RTVSPost2010PropOp41
 70
     1
102
RTVSPost2010Prop42
 90
       50
102
RTVSPost2010PropOp42
 70
     1
102
RTVSPost2010Prop43
 90
        3
102
RTVSPost2010PropOp43
 70
     1
102
RTVSPost2010Prop44ColorIndex
 90
        5
102
RTVSPost2010Prop44ColorRGB
 90
      255
102
RTVSPost2010PropOp44
 70
     1
102
RTVSPost2010Prop45
280
     0
102
RTVSPost2010PropOp45
 70
     1
102
RTVSPost2010Prop46
 90
       50
102
RTVSPost2010PropOp46
 70
     1
102
RTVSPost2010Prop47
 90
       50
102
RTVSPost2010PropOp47
 70
     1
102
RTVSPost2010Prop48
 90
       50
102
RTVSPost2010PropOp48
 70
     1
102
RTVSPost2010Prop49
280
     0
102
RTVSPost2010PropOp49
 70
     1
102
RTVSPost2010Prop50
 90
       50
102
RTVSPost2010PropOp50
 70
     1
102
RTVSPost2010Prop51ColorIndex
 90
      256
102
RTVSPost2010Prop51ColorRGB
 90
-16777216
102
RTVSPost2010PropOp51
 70
     0
102
RTVSPost2010Prop52
140
1.0
102
RTVSPost2010PropOp52
 70
     0
102
RTVSPost2010Prop53
 90
        2
102
RTVSPost2010PropOp53
 70
     1
102
RTVSPost2010Prop54
  1
strokes_ogs.tif
102
RTVSPost2010PropOp54
 70
     1
102
RTVSPost2010Prop55
280
     0
102
RTVSPost2010PropOp55
 70
     1
102
RTVSPost2010Prop56
140
1.0
102
RTVSPost2010PropOp56
 70
     1
102
RTVSPost2010Prop57
140
1.0
102
RTVSPost2010PropOp57
 70
     1
  0
XRECORD
  5
E0
102
{ACAD_REACTORS
330
DF
102
}
330
DF
100
AcDbXrecord
280
     1
102
RTVSPropertyOp0
 70
     1
102
RTVSPropertyOp1
 70
     1
102
RTVSPropertyOp2
 70
     1
102
RTVSPropertyOp3
 70
     1
102
RTVSPropertyOp4
 70
     1
102
RTVSPropertyOp5
 70
     1
102
RTVSPropertyOp6
 70
     1
102
RTVSPropertyOp7
 70
     1
102
RTVSPropertyOp8
 70
     1
102
RTVSPropertyOp9
 70
     1
102
RTVSPropertyOp10
 70
     1
102
RTVSPropertyOp11
 70
     1
102
RTVSPropertyOp12
 70
     1
102
RTVSPropertyOp13
 70
     1
102
RTVSPropertyOp14
 70
     1
102
RTVSPropertyOp15
 70
     1
102
RTVSPropertyOp16
 70
     1
102
RTVSPropertyOp17
 70
     1
102
RTVSPropertyOp18
 70
     1
102
RTVSPropertyOp19
 70
     1
102
RTVSPropertyOp20
 70
     1
102
RTVSPropertyOp21
 70
     1
102
RTVSPropertyOp22
 70
     1
102
RTVSPropertyOp23
 70
     1
102
RTVSPropertyOp24
 70
     1
102
RTVSPropertyOp25
 70
     1
102
RTVSPropertyOp26
 70
     1
102
RTVSPropertyOp27
 70
     1
102
RTVSPropertyOp28
 70
     1
102
RTVSPropertyOp29
 70
     1
102
RTVSPropertyOp30
 70
     1
102
RTVSPropertyOp31
 70
     1
102
RTVSPropertyOp32
 70
     1
102
RTVSPropertyOp33
 70
     1
102
RTVSPropertyOp34
 70
     1
102
RTVSPropertyOp35
 70
     1
102
RTVSPropertyOp36
 70
     1
102
RTVSPropertyOp37
 70
     1
102
RTVSPropertyOp38
 70
     1
102
RTVSPropertyOp39
 70
     1
102
RTVSPropertyOp40
 70
     1
102
RTVSPropertyOp41
 70
     1
102
RTVSPropertyOp42
 70
     1
102
RTVSPropertyOp43
 70
     1
102
RTVSPropertyOp44
 70
     1
102
RTVSPropertyOp45
 70
     1
102
RTVSPropertyOp46
 70
     1
102
RTVSPropertyOp47
 70
     1
102
RTVSPropertyOp48
 70
     1
102
RTVSPropertyOp49
 70
     1
102
RTVSPropertyOp50
 70
     1
102
RTVSPropertyOp51
 70
     0
102
RTVSPropertyOp52
 70
     0
102
RTVSPropertyOp53
 70
     1
102
RTVSPropertyOp54
 70
     1
102
RTVSPropertyOp55
 70
     1
102
RTVSPropertyOp56
 70
     1
102
RTVSPropertyOp57
 70
     1
102
RTVSPost2010Prop28
280
     0
102
RTVSPost2010PropOp28
 70
     1
102
RTVSPost2010Prop29
280
     1
102
RTVSPost2010PropOp29
 70
     1
102
RTVSPost2010Prop30
280
     1
102
RTVSPost2010PropOp30
 70
     1
102
RTVSPost2010Prop31
280
     0
102
RTVSPost2010PropOp31
 70
     1
102
RTVSPost2010Prop32
280
     0
102
RTVSPost2010PropOp32
 70
     1
102
RTVSPost2010Prop33
280
     0
102
RTVSPost2010PropOp33
 70
     1
102
RTVSPost2010Prop34
280
     0
102
RTVSPost2010PropOp34
 70
     1
102
RTVSPost2010Prop35
280
     0
102
RTVSPost2010PropOp35
 70
     1
102
RTVSPost2010Prop36
280
     0
102
RTVSPost2010PropOp36
 70
     1
102
RTVSPost2010Prop37
 90
       50
102
RTVSPost2010PropOp37
 70
     1
102
RTVSPost2010Prop38
140
0.0
102
RTVSPost2010PropOp38
 70
     1
102
RTVSPost2010Prop39
140
1.0
102
RTVSPost2010PropOp39
 70
     1
102
RTVSPost2010Prop40
 90
        0
102
RTVSPost2010PropOp40
 70
     1
102
RTVSPost2010Prop41ColorIndex
 90
       18
102
RTVSPost2010Prop41ColorRGB
 90
        0
102
RTVSPost2010PropOp41
 70
     1
102
RTVSPost2010Prop42
 90
       50
102
RTVSPost2010PropOp42
 70
     1
102
RTVSPost2010Prop43
 90
        3
102
RTVSPost2010PropOp43
 70
     1
102
RTVSPost2010Prop44ColorIndex
 90
        5
102
RTVSPost2010Prop44ColorRGB
 90
      255
102
RTVSPost2010PropOp44
 70
     1
102
RTVSPost2010Prop45
280
     0
102
RTVSPost2010PropOp45
 70
     1
102
RTVSPost2010Prop46
 90
       50
102
RTVSPost2010PropOp46
 70
     1
102
RTVSPost2010Prop47
 90
       50
102
RTVSPost2010PropOp47
 70
     1
102
RTVSPost2010Prop48
 90
       50
102
RTVSPost2010PropOp48
 70
     1
102
RTVSPost2010Prop49
280
     0
102
RTVSPost2010PropOp49
 70
     1
102
RTVSPost2010Prop50
 90
       50
102
RTVSPost2010PropOp50
 70
     1
102
RTVSPost2010Prop51ColorIndex
 90
      256
102
RTVSPost2010Prop51ColorRGB
 90
-16777216
102
RTVSPost2010PropOp51
 70
     0
102
RTVSPost2010Prop52
140
1.0
102
RTVSPost2010PropOp52
 70
     0
102
RTVSPost2010Prop53
 90
        2
102
RTVSPost2010PropOp53
 70
     1
102
RTVSPost2010Prop54
  1
strokes_ogs.tif
102
RTVSPost2010PropOp54
 70
     1
102
RTVSPost2010Prop55
280
     0
102
RTVSPost2010PropOp55
 70
     1
102
RTVSPost2010Prop56
140
1.0
102
RTVSPost2010PropOp56
 70
     1
102
RTVSPost2010Prop57
140
1.0
102
RTVSPost2010PropOp57
 70
     1
  0
XRECORD
  5
E2
102
{ACAD_REACTORS
330
E1
102
}
330
E1
100
AcDbXrecord
280
     1
102
RTVSPropertyOp0
 70
     1
102
RTVSPropertyOp1
 70
     1
102
RTVSPropertyOp2
 70
     1
102
RTVSPropertyOp3
 70
     1
102
RTVSPropertyOp4
 70
     1
102
RTVSPropertyOp5
 70
     1
102
RTVSPropertyOp6
 70
     1
102
RTVSPropertyOp7
 70
     1
102
RTVSPropertyOp8
 70
     1
102
RTVSPropertyOp9
 70
     1
102
RTVSPropertyOp10
 70
     1
102
RTVSPropertyOp11
 70
     1
102
RTVSPropertyOp12
 70
     1
102
RTVSPropertyOp13
 70
     1
102
RTVSPropertyOp14
 70
     1
102
RTVSPropertyOp15
 70
     1
102
RTVSPropertyOp16
 70
     1
102
RTVSPropertyOp17
 70
     1
102
RTVSPropertyOp18
 70
     1
102
RTVSPropertyOp19
 70
     1
102
RTVSPropertyOp20
 70
     1
102
RTVSPropertyOp21
 70
     1
102
RTVSPropertyOp22
 70
     1
102
RTVSPropertyOp23
 70
     1
102
RTVSPropertyOp24
 70
     1
102
RTVSPropertyOp25
 70
     1
102
RTVSPropertyOp26
 70
     1
102
RTVSPropertyOp27
 70
     1
102
RTVSPropertyOp28
 70
     1
102
RTVSPropertyOp29
 70
     1
102
RTVSPropertyOp30
 70
     1
102
RTVSPropertyOp31
 70
     1
102
RTVSPropertyOp32
 70
     1
102
RTVSPropertyOp33
 70
     1
102
RTVSPropertyOp34
 70
     1
102
RTVSPropertyOp35
 70
     1
102
RTVSPropertyOp36
 70
     1
102
RTVSPropertyOp37
 70
     1
102
RTVSPropertyOp38
 70
     1
102
RTVSPropertyOp39
 70
     1
102
RTVSPropertyOp40
 70
     1
102
RTVSPropertyOp41
 70
     1
102
RTVSPropertyOp42
 70
     1
102
RTVSPropertyOp43
 70
     1
102
RTVSPropertyOp44
 70
     1
102
RTVSPropertyOp45
 70
     1
102
RTVSPropertyOp46
 70
     1
102
RTVSPropertyOp47
 70
     1
102
RTVSPropertyOp48
 70
     1
102
RTVSPropertyOp49
 70
     1
102
RTVSPropertyOp50
 70
     1
102
RTVSPropertyOp51
 70
     0
102
RTVSPropertyOp52
 70
     0
102
RTVSPropertyOp53
 70
     1
102
RTVSPropertyOp54
 70
     1
102
RTVSPropertyOp55
 70
     1
102
RTVSPropertyOp56
 70
     1
102
RTVSPropertyOp57
 70
     1
102
RTVSPost2010Prop28
280
     0
102
RTVSPost2010PropOp28
 70
     1
102
RTVSPost2010Prop29
280
     1
102
RTVSPost2010PropOp29
 70
     1
102
RTVSPost2010Prop30
280
     1
102
RTVSPost2010PropOp30
 70
     1
102
RTVSPost2010Prop31
280
     0
102
RTVSPost2010PropOp31
 70
     1
102
RTVSPost2010Prop32
280
     0
102
RTVSPost2010PropOp32
 70
     1
102
RTVSPost2010Prop33
280
     0
102
RTVSPost2010PropOp33
 70
     1
102
RTVSPost2010Prop34
280
     0
102
RTVSPost2010PropOp34
 70
     1
102
RTVSPost2010Prop35
280
     0
102
RTVSPost2010PropOp35
 70
     1
102
RTVSPost2010Prop36
280
     0
102
RTVSPost2010PropOp36
 70
     1
102
RTVSPost2010Prop37
 90
       50
102
RTVSPost2010PropOp37
 70
     1
102
RTVSPost2010Prop38
140
0.0
102
RTVSPost2010PropOp38
 70
     1
102
RTVSPost2010Prop39
140
1.0
102
RTVSPost2010PropOp39
 70
     1
102
RTVSPost2010Prop40
 90
        0
102
RTVSPost2010PropOp40
 70
     1
102
RTVSPost2010Prop41ColorIndex
 90
       18
102
RTVSPost2010Prop41ColorRGB
 90
        0
102
RTVSPost2010PropOp41
 70
     1
102
RTVSPost2010Prop42
 90
       50
102
RTVSPost2010PropOp42
 70
     1
102
RTVSPost2010Prop43
 90
        3
102
RTVSPost2010PropOp43
 70
     1
102
RTVSPost2010Prop44ColorIndex
 90
        5
102
RTVSPost2010Prop44ColorRGB
 90
      255
102
RTVSPost2010PropOp44
 70
     1
102
RTVSPost2010Prop45
280
     0
102
RTVSPost2010PropOp45
 70
     1
102
RTVSPost2010Prop46
 90
       50
102
RTVSPost2010PropOp46
 70
     1
102
RTVSPost2010Prop47
 90
       50
102
RTVSPost2010PropOp47
 70
     1
102
RTVSPost2010Prop48
 90
       50
102
RTVSPost2010PropOp48
 70
     1
102
RTVSPost2010Prop49
280
     0
102
RTVSPost2010PropOp49
 70
     1
102
RTVSPost2010Prop50
 90
       50
102
RTVSPost2010PropOp50
 70
     1
102
RTVSPost2010Prop51ColorIndex
 90
      256
102
RTVSPost2010Prop51ColorRGB
 90
-16777216
102
RTVSPost2010PropOp51
 70
     0
102
RTVSPost2010Prop52
140
1.0
102
RTVSPost2010PropOp52
 70
     0
102
RTVSPost2010Prop53
 90
        2
102
RTVSPost2010PropOp53
 70
     1
102
RTVSPost2010Prop54
  1
strokes_ogs.tif
102
RTVSPost2010PropOp54
 70
     1
102
RTVSPost2010Prop55
280
     0
102
RTVSPost2010PropOp55
 70
     1
102
RTVSPost2010Prop56
140
1.0
102
RTVSPost2010PropOp56
 70
     1
102
RTVSPost2010Prop57
140
1.0
102
RTVSPost2010PropOp57
 70
     1
  0
XRECORD
  5
D2
102
{ACAD_REACTORS
330
D1
102
}
330
D1
100
AcDbXrecord
280
     1
102
RTVSPropertyOp0
 70
     1
102
RTVSPropertyOp1
 70
     1
102
RTVSPropertyOp2
 70
     1
102
RTVSPropertyOp3
 70
     1
102
RTVSPropertyOp4
 70
     1
102
RTVSPropertyOp5
 70
     1
102
RTVSPropertyOp6
 70
     1
102
RTVSPropertyOp7
 70
     1
102
RTVSPropertyOp8
 70
     1
102
RTVSPropertyOp9
 70
     1
102
RTVSPropertyOp10
 70
     1
102
RTVSPropertyOp11
 70
     1
102
RTVSPropertyOp12
 70
     1
102
RTVSPropertyOp13
 70
     1
102
RTVSPropertyOp14
 70
     1
102
RTVSPropertyOp15
 70
     1
102
RTVSPropertyOp16
 70
     1
102
RTVSPropertyOp17
 70
     1
102
RTVSPropertyOp18
 70
     1
102
RTVSPropertyOp19
 70
     1
102
RTVSPropertyOp20
 70
     1
102
RTVSPropertyOp21
 70
     1
102
RTVSPropertyOp22
 70
     1
102
RTVSPropertyOp23
 70
     1
102
RTVSPropertyOp24
 70
     1
102
RTVSPropertyOp25
 70
     1
102
RTVSPropertyOp26
 70
     1
102
RTVSPropertyOp27
 70
     1
102
RTVSPropertyOp28
 70
     1
102
RTVSPropertyOp29
 70
     1
102
RTVSPropertyOp30
 70
     1
102
RTVSPropertyOp31
 70
     1
102
RTVSPropertyOp32
 70
     1
102
RTVSPropertyOp33
 70
     1
102
RTVSPropertyOp34
 70
     1
102
RTVSPropertyOp35
 70
     1
102
RTVSPropertyOp36
 70
     1
102
RTVSPropertyOp37
 70
     1
102
RTVSPropertyOp38
 70
     1
102
RTVSPropertyOp39
 70
     1
102
RTVSPropertyOp40
 70
     1
102
RTVSPropertyOp41
 70
     1
102
RTVSPropertyOp42
 70
     1
102
RTVSPropertyOp43
 70
     1
102
RTVSPropertyOp44
 70
     1
102
RTVSPropertyOp45
 70
     1
102
RTVSPropertyOp46
 70
     1
102
RTVSPropertyOp47
 70
     1
102
RTVSPropertyOp48
 70
     1
102
RTVSPropertyOp49
 70
     1
102
RTVSPropertyOp50
 70
     1
102
RTVSPropertyOp51
 70
     0
102
RTVSPropertyOp52
 70
     0
102
RTVSPropertyOp53
 70
     1
102
RTVSPropertyOp54
 70
     1
102
RTVSPropertyOp55
 70
     1
102
RTVSPropertyOp56
 70
     1
102
RTVSPropertyOp57
 70
     1
102
RTVSPost2010Prop28
280
     0
102
RTVSPost2010PropOp28
 70
     1
102
RTVSPost2010Prop29
280
     1
102
RTVSPost2010PropOp29
 70
     1
102
RTVSPost2010Prop30
280
     1
102
RTVSPost2010PropOp30
 70
     1
102
RTVSPost2010Prop31
280
     0
102
RTVSPost2010PropOp31
 70
     1
102
RTVSPost2010Prop32
280
     0
102
RTVSPost2010PropOp32
 70
     1
102
RTVSPost2010Prop33
280
     0
102
RTVSPost2010PropOp33
 70
     1
102
RTVSPost2010Prop34
280
     0
102
RTVSPost2010PropOp34
 70
     1
102
RTVSPost2010Prop35
280
     0
102
RTVSPost2010PropOp35
 70
     1
102
RTVSPost2010Prop36
280
     0
102
RTVSPost2010PropOp36
 70
     1
102
RTVSPost2010Prop37
 90
       50
102
RTVSPost2010PropOp37
 70
     1
102
RTVSPost2010Prop38
140
0.0
102
RTVSPost2010PropOp38
 70
     1
102
RTVSPost2010Prop39
140
1.0
102
RTVSPost2010PropOp39
 70
     1
102
RTVSPost2010Prop40
 90
        0
102
RTVSPost2010PropOp40
 70
     1
102
RTVSPost2010Prop41ColorIndex
 90
       18
102
RTVSPost2010Prop41ColorRGB
 90
        0
102
RTVSPost2010PropOp41
 70
     1
102
RTVSPost2010Prop42
 90
       50
102
RTVSPost2010PropOp42
 70
     1
102
RTVSPost2010Prop43
 90
        3
102
RTVSPost2010PropOp43
 70
     1
102
RTVSPost2010Prop44ColorIndex
 90
        5
102
RTVSPost2010Prop44ColorRGB
 90
      255
102
RTVSPost2010PropOp44
 70
     1
102
RTVSPost2010Prop45
280
     0
102
RTVSPost2010PropOp45
 70
     1
102
RTVSPost2010Prop46
 90
       50
102
RTVSPost2010PropOp46
 70
     1
102
RTVSPost2010Prop47
 90
       50
102
RTVSPost2010PropOp47
 70
     1
102
RTVSPost2010Prop48
 90
       50
102
RTVSPost2010PropOp48
 70
     1
102
RTVSPost2010Prop49
280
     0
102
RTVSPost2010PropOp49
 70
     1
102
RTVSPost2010Prop50
 90
       50
102
RTVSPost2010PropOp50
 70
     1
102
RTVSPost2010Prop51ColorIndex
 90
      256
102
RTVSPost2010Prop51ColorRGB
 90
-16777216
102
RTVSPost2010PropOp51
 70
     0
102
RTVSPost2010Prop52
140
1.0
102
RTVSPost2010PropOp52
 70
     0
102
RTVSPost2010Prop53
 90
        2
102
RTVSPost2010PropOp53
 70
     1
102
RTVSPost2010Prop54
  1
strokes_ogs.tif
102
RTVSPost2010PropOp54
 70
     1
102
RTVSPost2010Prop55
280
     0
102
RTVSPost2010PropOp55
 70
     1
102
RTVSPost2010Prop56
140
1.0
102
RTVSPost2010PropOp56
 70
     1
102
RTVSPost2010Prop57
140
1.0
102
RTVSPost2010PropOp57
 70
     1
  0
XRECORD
  5
C4
102
{ACAD_REACTORS
330
C3
102
}
330
C3
100
AcDbXrecord
280
     1
102
RTVSPropertyOp0
 70
     1
102
RTVSPropertyOp1
 70
     1
102
RTVSPropertyOp2
 70
     1
102
RTVSPropertyOp3
 70
     1
102
RTVSPropertyOp4
 70
     1
102
RTVSPropertyOp5
 70
     1
102
RTVSPropertyOp6
 70
     1
102
RTVSPropertyOp7
 70
     1
102
RTVSPropertyOp8
 70
     1
102
RTVSPropertyOp9
 70
     1
102
RTVSPropertyOp10
 70
     1
102
RTVSPropertyOp11
 70
     1
102
RTVSPropertyOp12
 70
     1
102
RTVSPropertyOp13
 70
     1
102
RTVSPropertyOp14
 70
     1
102
RTVSPropertyOp15
 70
     1
102
RTVSPropertyOp16
 70
     1
102
RTVSPropertyOp17
 70
     1
102
RTVSPropertyOp18
 70
     1
102
RTVSPropertyOp19
 70
     1
102
RTVSPropertyOp20
 70
     1
102
RTVSPropertyOp21
 70
     1
102
RTVSPropertyOp22
 70
     1
102
RTVSPropertyOp23
 70
     1
102
RTVSPropertyOp24
 70
     1
102
RTVSPropertyOp25
 70
     1
102
RTVSPropertyOp26
 70
     1
102
RTVSPropertyOp27
 70
     1
102
RTVSPropertyOp28
 70
     1
102
RTVSPropertyOp29
 70
     1
102
RTVSPropertyOp30
 70
     1
102
RTVSPropertyOp31
 70
     1
102
RTVSPropertyOp32
 70
     1
102
RTVSPropertyOp33
 70
     1
102
RTVSPropertyOp34
 70
     1
102
RTVSPropertyOp35
 70
     1
102
RTVSPropertyOp36
 70
     1
102
RTVSPropertyOp37
 70
     1
102
RTVSPropertyOp38
 70
     1
102
RTVSPropertyOp39
 70
     1
102
RTVSPropertyOp40
 70
     1
102
RTVSPropertyOp41
 70
     1
102
RTVSPropertyOp42
 70
     1
102
RTVSPropertyOp43
 70
     1
102
RTVSPropertyOp44
 70
     1
102
RTVSPropertyOp45
 70
     1
102
RTVSPropertyOp46
 70
     1
102
RTVSPropertyOp47
 70
     1
102
RTVSPropertyOp48
 70
     1
102
RTVSPropertyOp49
 70
     1
102
RTVSPropertyOp50
 70
     1
102
RTVSPropertyOp51
 70
     0
102
RTVSPropertyOp52
 70
     0
102
RTVSPropertyOp53
 70
     1
102
RTVSPropertyOp54
 70
     1
102
RTVSPropertyOp55
 70
     1
102
RTVSPropertyOp56
 70
     1
102
RTVSPropertyOp57
 70
     1
102
RTVSPost2010Prop28
280
     0
102
RTVSPost2010PropOp28
 70
     1
102
RTVSPost2010Prop29
280
     1
102
RTVSPost2010PropOp29
 70
     1
102
RTVSPost2010Prop30
280
     1
102
RTVSPost2010PropOp30
 70
     1
102
RTVSPost2010Prop31
280
     0
102
RTVSPost2010PropOp31
 70
     1
102
RTVSPost2010Prop32
280
     0
102
RTVSPost2010PropOp32
 70
     1
102
RTVSPost2010Prop33
280
     0
102
RTVSPost2010PropOp33
 70
     1
102
RTVSPost2010Prop34
280
     0
102
RTVSPost2010PropOp34
 70
     1
102
RTVSPost2010Prop35
280
     0
102
RTVSPost2010PropOp35
 70
     1
102
RTVSPost2010Prop36
280
     0
102
RTVSPost2010PropOp36
 70
     1
102
RTVSPost2010Prop37
 90
       50
102
RTVSPost2010PropOp37
 70
     1
102
RTVSPost2010Prop38
140
0.0
102
RTVSPost2010PropOp38
 70
     1
102
RTVSPost2010Prop39
140
1.0
102
RTVSPost2010PropOp39
 70
     1
102
RTVSPost2010Prop40
 90
        0
102
RTVSPost2010PropOp40
 70
     1
102
RTVSPost2010Prop41ColorIndex
 90
       18
102
RTVSPost2010Prop41ColorRGB
 90
        0
102
RTVSPost2010PropOp41
 70
     1
102
RTVSPost2010Prop42
 90
       50
102
RTVSPost2010PropOp42
 70
     1
102
RTVSPost2010Prop43
 90
        3
102
RTVSPost2010PropOp43
 70
     1
102
RTVSPost2010Prop44ColorIndex
 90
        5
102
RTVSPost2010Prop44ColorRGB
 90
      255
102
RTVSPost2010PropOp44
 70
     1
102
RTVSPost2010Prop45
280
     0
102
RTVSPost2010PropOp45
 70
     1
102
RTVSPost2010Prop46
 90
       50
102
RTVSPost2010PropOp46
 70
     1
102
RTVSPost2010Prop47
 90
       50
102
RTVSPost2010PropOp47
 70
     1
102
RTVSPost2010Prop48
 90
       50
102
RTVSPost2010PropOp48
 70
     1
102
RTVSPost2010Prop49
280
     0
102
RTVSPost2010PropOp49
 70
     1
102
RTVSPost2010Prop50
 90
       50
102
RTVSPost2010PropOp50
 70
     1
102
RTVSPost2010Prop51ColorIndex
 90
      256
102
RTVSPost2010Prop51ColorRGB
 90
-16777216
102
RTVSPost2010PropOp51
 70
     0
102
RTVSPost2010Prop52
140
1.0
102
RTVSPost2010PropOp52
 70
     0
102
RTVSPost2010Prop53
 90
        2
102
RTVSPost2010PropOp53
 70
     1
102
RTVSPost2010Prop54
  1
strokes_ogs.tif
102
RTVSPost2010PropOp54
 70
     1
102
RTVSPost2010Prop55
280
     0
102
RTVSPost2010PropOp55
 70
     1
102
RTVSPost2010Prop56
140
1.0
102
RTVSPost2010PropOp56
 70
     1
102
RTVSPost2010Prop57
140
1.0
102
RTVSPost2010PropOp57
 70
     1
  0
XRECORD
  5
E4
102
{ACAD_REACTORS
330
E3
102
}
330
E3
100
AcDbXrecord
280
     1
102
RTVSPropertyOp0
 70
     1
102
RTVSPropertyOp1
 70
     1
102
RTVSPropertyOp2
 70
     1
102
RTVSPropertyOp3
 70
     1
102
RTVSPropertyOp4
 70
     1
102
RTVSPropertyOp5
 70
     1
102
RTVSPropertyOp6
 70
     1
102
RTVSPropertyOp7
 70
     1
102
RTVSPropertyOp8
 70
     1
102
RTVSPropertyOp9
 70
     1
102
RTVSPropertyOp10
 70
     1
102
RTVSPropertyOp11
 70
     1
102
RTVSPropertyOp12
 70
     1
102
RTVSPropertyOp13
 70
     1
102
RTVSPropertyOp14
 70
     1
102
RTVSPropertyOp15
 70
     1
102
RTVSPropertyOp16
 70
     1
102
RTVSPropertyOp17
 70
     1
102
RTVSPropertyOp18
 70
     1
102
RTVSPropertyOp19
 70
     1
102
RTVSPropertyOp20
 70
     1
102
RTVSPropertyOp21
 70
     1
102
RTVSPropertyOp22
 70
     1
102
RTVSPropertyOp23
 70
     1
102
RTVSPropertyOp24
 70
     1
102
RTVSPropertyOp25
 70
     1
102
RTVSPropertyOp26
 70
     1
102
RTVSPropertyOp27
 70
     1
102
RTVSPropertyOp28
 70
     1
102
RTVSPropertyOp29
 70
     1
102
RTVSPropertyOp30
 70
     1
102
RTVSPropertyOp31
 70
     1
102
RTVSPropertyOp32
 70
     1
102
RTVSPropertyOp33
 70
     1
102
RTVSPropertyOp34
 70
     1
102
RTVSPropertyOp35
 70
     1
102
RTVSPropertyOp36
 70
     1
102
RTVSPropertyOp37
 70
     1
102
RTVSPropertyOp38
 70
     1
102
RTVSPropertyOp39
 70
     1
102
RTVSPropertyOp40
 70
     1
102
RTVSPropertyOp41
 70
     1
102
RTVSPropertyOp42
 70
     1
102
RTVSPropertyOp43
 70
     1
102
RTVSPropertyOp44
 70
     1
102
RTVSPropertyOp45
 70
     1
102
RTVSPropertyOp46
 70
     1
102
RTVSPropertyOp47
 70
     1
102
RTVSPropertyOp48
 70
     1
102
RTVSPropertyOp49
 70
     1
102
RTVSPropertyOp50
 70
     1
102
RTVSPropertyOp51
 70
     0
102
RTVSPropertyOp52
 70
     0
102
RTVSPropertyOp53
 70
     1
102
RTVSPropertyOp54
 70
     1
102
RTVSPropertyOp55
 70
     1
102
RTVSPropertyOp56
 70
     1
102
RTVSPropertyOp57
 70
     1
102
RTVSPost2010Prop28
280
     0
102
RTVSPost2010PropOp28
 70
     1
102
RTVSPost2010Prop29
280
     1
102
RTVSPost2010PropOp29
 70
     1
102
RTVSPost2010Prop30
280
     1
102
RTVSPost2010PropOp30
 70
     1
102
RTVSPost2010Prop31
280
     0
102
RTVSPost2010PropOp31
 70
     1
102
RTVSPost2010Prop32
280
     0
102
RTVSPost2010PropOp32
 70
     1
102
RTVSPost2010Prop33
280
     0
102
RTVSPost2010PropOp33
 70
     1
102
RTVSPost2010Prop34
280
     0
102
RTVSPost2010PropOp34
 70
     1
102
RTVSPost2010Prop35
280
     0
102
RTVSPost2010PropOp35
 70
     1
102
RTVSPost2010Prop36
280
     0
102
RTVSPost2010PropOp36
 70
     1
102
RTVSPost2010Prop37
 90
       50
102
RTVSPost2010PropOp37
 70
     1
102
RTVSPost2010Prop38
140
0.0
102
RTVSPost2010PropOp38
 70
     1
102
RTVSPost2010Prop39
140
1.0
102
RTVSPost2010PropOp39
 70
     1
102
RTVSPost2010Prop40
 90
        0
102
RTVSPost2010PropOp40
 70
     1
102
RTVSPost2010Prop41ColorIndex
 90
       18
102
RTVSPost2010Prop41ColorRGB
 90
        0
102
RTVSPost2010PropOp41
 70
     1
102
RTVSPost2010Prop42
 90
       50
102
RTVSPost2010PropOp42
 70
     1
102
RTVSPost2010Prop43
 90
        3
102
RTVSPost2010PropOp43
 70
     1
102
RTVSPost2010Prop44ColorIndex
 90
        5
102
RTVSPost2010Prop44ColorRGB
 90
      255
102
RTVSPost2010PropOp44
 70
     1
102
RTVSPost2010Prop45
280
     0
102
RTVSPost2010PropOp45
 70
     1
102
RTVSPost2010Prop46
 90
       50
102
RTVSPost2010PropOp46
 70
     1
102
RTVSPost2010Prop47
 90
       50
102
RTVSPost2010PropOp47
 70
     1
102
RTVSPost2010Prop48
 90
       50
102
RTVSPost2010PropOp48
 70
     1
102
RTVSPost2010Prop49
280
     0
102
RTVSPost2010PropOp49
 70
     1
102
RTVSPost2010Prop50
 90
       50
102
RTVSPost2010PropOp50
 70
     1
102
RTVSPost2010Prop51ColorIndex
 90
      256
102
RTVSPost2010Prop51ColorRGB
 90
-16777216
102
RTVSPost2010PropOp51
 70
     0
102
RTVSPost2010Prop52
140
1.0
102
RTVSPost2010PropOp52
 70
     0
102
RTVSPost2010Prop53
 90
        2
102
RTVSPost2010PropOp53
 70
     1
102
RTVSPost2010Prop54
  1
strokes_ogs.tif
102
RTVSPost2010PropOp54
 70
     1
102
RTVSPost2010Prop55
280
     0
102
RTVSPost2010PropOp55
 70
     1
102
RTVSPost2010Prop56
140
1.0
102
RTVSPost2010PropOp56
 70
     1
102
RTVSPost2010Prop57
140
1.0
102
RTVSPost2010PropOp57
 70
     1
  0
ENDSEC
  0
EOF
