  0
SECTION
  2
HEADER
  9
$ACADVER
  1
AC1021
  9
$ACADMAINTVER
 70
    25
  9
$DWGCODEPAGE
  3
ANSI_1252
  9
$INSBASE
 10
0.0
 20
0.0
 30
0.0
  9
$EXTMIN
 10
1.000000000000000E+20
 20
1.000000000000000E+20
 30
1.000000000000000E+20
  9
$EXTMAX
 10
-1.000000000000000E+20
 20
-1.000000000000000E+20
 30
-1.000000000000000E+20
  9
$LIMMIN
 10
0.0
 20
0.0
  9
$LIMMAX
 10
12.0
 20
9.0
  9
$ORTHOMODE
 70
     0
  9
$REGENMODE
 70
     1
  9
$FILLMODE
 70
     1
  9
$QTEXTMODE
 70
     0
  9
$MIRRTEXT
 70
     1
  9
$LTSCALE
 40
1.0
  9
$ATTMODE
 70
     1
  9
$TEXTSIZE
 40
0.2
  9
$TRACEWID
 40
0.05
  9
$TEXTSTYLE
  7
Standard
  9
$CLAYER
  8
0
  9
$CELTYPE
  6
ByLayer
  9
$CECOLOR
 62
   256
  9
$CELTSCALE
 40
1.0
  9
$DISPSILH
 70
     0
  9
$DIMSCALE
 40
1.0
  9
$DIMASZ
 40
0.18
  9
$DIMEXO
 40
0.0625
  9
$DIMDLI
 40
0.38
  9
$DIMRND
 40
0.0
  9
$DIMDLE
 40
0.0
  9
$DIMEXE
 40
0.18
  9
$DIMTP
 40
0.0
  9
$DIMTM
 40
0.0
  9
$DIMTXT
 40
0.18
  9
$DIMCEN
 40
0.09
  9
$DIMTSZ
 40
0.0
  9
$DIMTOL
 70
     0
  9
$DIMLIM
 70
     0
  9
$DIMTIH
 70
     1
  9
$DIMTOH
 70
     1
  9
$DIMSE1
 70
     0
  9
$DIMSE2
 70
     0
  9
$DIMTAD
 70
     0
  9
$DIMZIN
 70
     0
  9
$DIMBLK
  1

  9
$DIMASO
 70
     1
  9
$DIMSHO
 70
     1
  9
$DIMPOST
  1

  9
$DIMAPOST
  1

  9
$DIMALT
 70
     0
  9
$DIMALTD
 70
     2
  9
$DIMALTF
 40
25.4
  9
$DIMLFAC
 40
1.0
  9
$DIMTOFL
 70
     0
  9
$DIMTVP
 40
0.0
  9
$DIMTIX
 70
     0
  9
$DIMSOXD
 70
     0
  9
$DIMSAH
 70
     0
  9
$DIMBLK1
  1

  9
$DIMBLK2
  1

  9
$DIMSTYLE
  2
STANDARD_ACAD
  9
$DIMCLRD
 70
     0
  9
$DIMCLRE
 70
     0
  9
$DIMCLRT
 70
     0
  9
$DIMTFAC
 40
1.0
  9
$DIMGAP
 40
0.09
  9
$DIMJUST
 70
     0
  9
$DIMSD1
 70
     0
  9
$DIMSD2
 70
     0
  9
$DIMTOLJ
 70
     1
  9
$DIMTZIN
 70
     0
  9
$DIMALTZ
 70
     0
  9
$DIMALTTZ
 70
     0
  9
$DIMUPT
 70
     0
  9
$DIMDEC
 70
     4
  9
$DIMTDEC
 70
     4
  9
$DIMALTU
 70
     2
  9
$DIMALTTD
 70
     2
  9
$DIMTXSTY
  7
Standard
  9
$DIMAUNIT
 70
     0
  9
$DIMADEC
 70
     0
  9
$DIMALTRND
 40
0.0
  9
$DIMAZIN
 70
     0
  9
$DIMDSEP
 70
    46
  9
$DIMATFIT
 70
     3
  9
$DIMFRAC
 70
     0
  9
$DIMLDRBLK
  1

  9
$DIMLUNIT
 70
     2
  9
$DIMLWD
 70
    -2
  9
$DIMLWE
 70
    -2
  9
$DIMTMOVE
 70
     2
  9
$DIMFXL
 40
1.0
  9
$DIMFXLON
 70
     0
  9
$DIMJOGANG
 40
0.7853981633974483
  9
$DIMTFILL
 70
     0
  9
$DIMTFILLCLR
 70
     0
  9
$DIMARCSYM
 70
     0
  9
$DIMLTYPE
  6

  9
$DIMLTEX1
  6

  9
$DIMLTEX2
  6

  9
$LUNITS
 70
     2
  9
$LUPREC
 70
     3
  9
$SKETCHINC
 40
0.1
  9
$FILLETRAD
 40
0.5
  9
$AUNITS
 70
     0
  9
$AUPREC
 70
     0
  9
$MENU
  1
.
  9
$ELEVATION
 40
0.0
  9
$PELEVATION
 40
0.0
  9
$THICKNESS
 40
0.0
  9
$LIMCHECK
 70
     0
  9
$CHAMFERA
 40
0.0
  9
$CHAMFERB
 40
0.0
  9
$CHAMFERC
 40
0.0
  9
$CHAMFERD
 40
0.0
  9
$SKPOLY
 70
     0
  9
$TDCREATE
 40
2459972.487420822
  9
$TDUCREATE
 40
2459972.695754155
  9
$TDUPDATE
 40
2459972.4874314
  9
$TDUUPDATE
 40
2459972.695764734
  9
$TDINDWG
 40
0.0000000116
  9
$TDUSRTIMER
 40
0.0000000116
  9
$USRTIMER
 70
     1
  9
$ANGBASE
 50
0.0
  9
$ANGDIR
 70
     0
  9
$PDMODE
 70
     0
  9
$PDSIZE
 40
0.0
  9
$PLINEWID
 40
0.0
  9
$SPLFRAME
 70
     0
  9
$SPLINETYPE
 70
     6
  9
$SPLINESEGS
 70
     8
  9
$HANDSEED
  5
107
  9
$SURFTAB1
 70
     6
  9
$SURFTAB2
 70
     6
  9
$SURFTYPE
 70
     6
  9
$SURFU
 70
     6
  9
$SURFV
 70
     6
  9
$UCSBASE
  2

  9
$UCSNAME
  2

  9
$UCSORG
 10
0.0
 20
0.0
 30
0.0
  9
$UCSXDIR
 10
1.0
 20
0.0
 30
0.0
  9
$UCSYDIR
 10
0.0
 20
1.0
 30
0.0
  9
$UCSORTHOREF
  2

  9
$UCSORTHOVIEW
 70
     0
  9
$UCSORGTOP
 10
0.0
 20
0.0
 30
0.0
  9
$UCSORGBOTTOM
 10
0.0
 20
0.0
 30
0.0
  9
$UCSORGLEFT
 10
0.0
 20
0.0
 30
0.0
  9
$UCSORGRIGHT
 10
0.0
 20
0.0
 30
0.0
  9
$UCSORGFRONT
 10
0.0
 20
0.0
 30
0.0
  9
$UCSORGBACK
 10
0.0
 20
0.0
 30
0.0
  9
$PUCSBASE
  2

  9
$PUCSNAME
  2

  9
$PUCSORG
 10
0.0
 20
0.0
 30
0.0
  9
$PUCSXDIR
 10
1.0
 20
0.0
 30
0.0
  9
$PUCSYDIR
 10
0.0
 20
1.0
 30
0.0
  9
$PUCSORTHOREF
  2

  9
$PUCSORTHOVIEW
 70
     0
  9
$PUCSORGTOP
 10
0.0
 20
0.0
 30
0.0
  9
$PUCSORGBOTTOM
 10
0.0
 20
0.0
 30
0.0
  9
$PUCSORGLEFT
 10
0.0
 20
0.0
 30
0.0
  9
$PUCSORGRIGHT
 10
0.0
 20
0.0
 30
0.0
  9
$PUCSORGFRONT
 10
0.0
 20
0.0
 30
0.0
  9
$PUCSORGBACK
 10
0.0
 20
0.0
 30
0.0
  9
$USERI1
 70
     0
  9
$USERI2
 70
     0
  9
$USERI3
 70
     0
  9
$USERI4
 70
     0
  9
$USERI5
 70
     0
  9
$USERR1
 40
0.0
  9
$USERR2
 40
0.0
  9
$USERR3
 40
0.0
  9
$USERR4
 40
0.0
  9
$USERR5
 40
0.0
  9
$WORLDVIEW
 70
     1
  9
$SHADEDGE
 70
     3
  9
$SHADEDIF
 70
    70
  9
$TILEMODE
 70
     1
  9
$MAXACTVP
 70
    64
  9
$PINSBASE
 10
0.0
 20
0.0
 30
0.0
  9
$PLIMCHECK
 70
     0
  9
$PEXTMIN
 10
1.000000000000000E+20
 20
1.000000000000000E+20
 30
1.000000000000000E+20
  9
$PEXTMAX
 10
-1.000000000000000E+20
 20
-1.000000000000000E+20
 30
-1.000000000000000E+20
  9
$PLIMMIN
 10
0.0
 20
0.0
  9
$PLIMMAX
 10
12.0
 20
9.0
  9
$UNITMODE
 70
     0
  9
$VISRETAIN
 70
     1
  9
$PLINEGEN
 70
     0
  9
$PSLTSCALE
 70
     1
  9
$TREEDEPTH
 70
  3020
  9
$CMLSTYLE
  2
Standard
  9
$CMLJUST
 70
     0
  9
$CMLSCALE
 40
1.0
  9
$PROXYGRAPHICS
 70
     1
  9
$MEASUREMENT
 70
     0
  9
$CELWEIGHT
370
    -1
  9
$ENDCAPS
280
     0
  9
$JOINSTYLE
280
     0
  9
$LWDISPLAY
290
     0
  9
$INSUNITS
 70
     1
  9
$HYPERLINKBASE
  1

  9
$STYLESHEET
  1

  9
$XEDIT
290
     1
  9
$CEPSNTYPE
380
     0
  9
$PSTYLEMODE
290
     1
  9
$FINGERPRINTGUID
  2
{724500da-5027-49f2-a708-f8bd0a4da5d9}
  9
$VERSIONGUID
  2
{FAEB1C32-E019-11D5-929B-00C0DF256EC4}
  9
$EXTNAMES
290
     1
  9
$PSVPSCALE
 40
0.0
  9
$OLESTARTUP
290
     0
  9
$SORTENTS
280
   127
  9
$INDEXCTL
280
     0
  9
$HIDETEXT
280
     1
  9
$XCLIPFRAME
290
     0
  9
$HALOGAP
280
     0
  9
$OBSCOLOR
 70
   257
  9
$OBSLTYPE
280
     0
  9
$INTERSECTIONDISPLAY
280
     0
  9
$INTERSECTIONCOLOR
 70
   257
  9
$DIMASSOC
280
     2
  9
$PROJECTNAME
  1

  9
$CAMERADISPLAY
290
     0
  9
$LENSLENGTH
 40
50.0
  9
$CAMERAHEIGHT
 40
0.0
  9
$STEPSPERSEC
 40
2.0
  9
$STEPSIZE
 40
6.0
  9
$3DDWFPREC
 40
2.0
  9
$PSOLWIDTH
 40
0.25
  9
$PSOLHEIGHT
 40
4.0
  9
$LOFTANG1
 40
1.570796326794897
  9
$LOFTANG2
 40
1.570796326794897
  9
$LOFTMAG1
 40
0.0
  9
$LOFTMAG2
 40
0.0
  9
$LOFTPARAM
 70
     7
  9
$LOFTNORMALS
280
     1
  9
$LATITUDE
 40
37.795
  9
$LONGITUDE
 40
-122.394
  9
$NORTHDIRECTION
 40
0.0
  9
$TIMEZONE
 70
 -8000
  9
$LIGHTGLYPHDISPLAY
280
     1
  9
$TILEMODELIGHTSYNCH
280
     1
  9
$CMATERIAL
347
44
  9
$SOLIDHIST
280
     0
  9
$SHOWHIST
280
     1
  9
$DWFFRAME
280
     2
  9
$DGNFRAME
280
     2
  9
$REALWORLDSCALE
290
     1
  9
$INTERFERECOLOR
 62
   256
  9
$CSHADOW
280
     0
  9
$SHADOWPLANELOCATION
 40
0.0
  0
ENDSEC
  0
SECTION
  2
CLASSES
  0
CLASS
  1
ACDBDICTIONARYWDFLT
  2
AcDbDictionaryWithDefault
  3
ObjectDBX Classes
 90
        0
 91
        3
280
     0
281
     0
  0
CLASS
  1
VISUALSTYLE
  2
AcDbVisualStyle
  3
ObjectDBX Classes
 90
     4095
 91
        3
280
     0
281
     0
  0
CLASS
  1
MATERIAL
  2
AcDbMaterial
  3
ObjectDBX Classes
 90
     1153
 91
        3
280
     0
281
     0
  0
CLASS
  1
SCALE
  2
AcDbScale
  3
ObjectDBX Classes
 90
     1153
 91
        3
280
     0
281
     0
  0
CLASS
  1
TABLESTYLE
  2
AcDbTableStyle
  3
ObjectDBX Classes
 90
     4095
 91
        3
280
     0
281
     0
  0
CLASS
  1
MLEADERSTYLE
  2
AcDbMLeaderStyle
  3
ACDB_MLEADERSTYLE_CLASS
 90
     4095
 91
        3
280
     0
281
     0
  0
CLASS
  1
SUN
  2
AcDbSun
  3
SCENEOE
 90
     1153
 91
        3
280
     0
281
     0
  0
CLASS
  1
DICTIONARYVAR
  2
AcDbDictionaryVar
  3
ObjectDBX Classes
 90
        0
 91
        3
280
     0
281
     0
  0
CLASS
  1
CELLSTYLEMAP
  2
AcDbCellStyleMap
  3
ObjectDBX Classes
 90
     1152
 91
        3
280
     0
281
     0
  0
ENDSEC
  0
SECTION
  2
TABLES
  0
TABLE
  2
VPORT
  5
8
330
0
100
AcDbSymbolTable
 70
     1
  0
VPORT
  5
29
330
8
100
AcDbSymbolTableRecord
100
AcDbViewportTableRecord
  2
*Active
 70
     0
 10
0.0
 20
0.0
 11
1.0
 21
1.0
 12
10.42990654205607
 22
4.5
 13
0.0
 23
0.0
 14
0.5
 24
0.5
 15
0.5
 25
0.5
 16
0.0
 26
0.0
 36
1.0
 17
0.0
 27
0.0
 37
0.0
 40
9.0
 41
1.972972972850329
 42
50.0
 43
0.0
 44
0.0
 50
0.0
 51
0.0
 71
     0
 72
   100
 73
     1
 74
     3
 75
     0
 76
     0
 77
     0
 78
     0
281
     0
 65
     1
110
0.0
120
0.0
130
0.0
111
1.0
121
0.0
131
0.0
112
0.0
122
1.0
132
0.0
 79
     0
146
0.0
348
2F
 60
     3
 61
     5
292
     1
282
     1
141
0.0
142
0.0
 63
   250
361
6D
  0
ENDTAB
  0
TABLE
  2
LTYPE
  5
5
330
0
100
AcDbSymbolTable
 70
     1
  0
LTYPE
  5
14
330
5
100
AcDbSymbolTableRecord
100
AcDbLinetypeTableRecord
  2
ByBlock
 70
     0
  3

 72
    65
 73
     0
 40
0.0
  0
LTYPE
  5
15
330
5
100
AcDbSymbolTableRecord
100
AcDbLinetypeTableRecord
  2
ByLayer
 70
     0
  3

 72
    65
 73
     0
 40
0.0
  0
LTYPE
  5
16
330
5
100
AcDbSymbolTableRecord
100
AcDbLinetypeTableRecord
  2
Continuous
 70
     0
  3
Solid line
 72
    65
 73
     0
 40
0.0
  0
ENDTAB
  0
TABLE
  2
LAYER
  5
2
330
0
100
AcDbSymbolTable
 70
     1
  0
LAYER
  5
10
330
2
100
AcDbSymbolTableRecord
100
AcDbLayerTableRecord
  2
0
 70
     0
 62
    18
420
        0
  6
Continuous
370
    -3
390
F
347
46
  0
ENDTAB
  0
TABLE
  2
STYLE
  5
3
330
0
100
AcDbSymbolTable
 70
     1
  0
STYLE
  5
11
330
3
100
AcDbSymbolTableRecord
100
AcDbTextStyleTableRecord
  2
Standard
 70
     0
 40
0.0
 41
1.0
 50
0.0
 71
     0
 42
0.2
  3
txt
  4

  0
ENDTAB
  0
TABLE
  2
VIEW
  5
6
330
0
100
AcDbSymbolTable
 70
     0
  0
ENDTAB
  0
TABLE
  2
UCS
  5
7
330
0
100
AcDbSymbolTable
 70
     0
  0
ENDTAB
  0
TABLE
  2
APPID
  5
9
330
0
100
AcDbSymbolTable
 70
     2
  0
APPID
  5
12
330
9
100
AcDbSymbolTableRecord
100
AcDbRegAppTableRecord
  2
ACAD
 70
     0
  0
APPID
  5
FF
330
9
100
AcDbSymbolTableRecord
100
AcDbRegAppTableRecord
  2
ACAD_MLEADERVER
 70
     0
  0
ENDTAB
  0
TABLE
  2
DIMSTYLE
  5
A
330
0
100
AcDbSymbolTable
 70
     1
100
AcDbDimStyleTable
  0
DIMSTYLE
105
27
330
A
100
AcDbSymbolTableRecord
100
AcDbDimStyleTableRecord
  2
STANDARD_ACAD
 70
     0
178
     0
340
11
  0
ENDTAB
  0
TABLE
  2
BLOCK_RECORD
  5
1
330
0
100
AcDbSymbolTable
 70
     1
  0
BLOCK_RECORD
  5
1F
330
1
100
AcDbSymbolTableRecord
100
AcDbBlockTableRecord
  2
*Model_Space
340
22
 70
     0
280
     1
281
     0
  0
BLOCK_RECORD
  5
1B
330
1
100
AcDbSymbolTableRecord
100
AcDbBlockTableRecord
  2
*Paper_Space
340
1E
 70
     0
280
     1
281
     0
  0
BLOCK_RECORD
  5
23
330
1
100
AcDbSymbolTableRecord
100
AcDbBlockTableRecord
  2
*Paper_Space0
340
26
 70
     0
280
     1
281
     0
  0
ENDTAB
  0
ENDSEC
  0
SECTION
  2
BLOCKS
  0
BLOCK
  5
20
330
1F
100
AcDbEntity
  8
0
100
AcDbBlockBegin
  2
*Model_Space
 70
     0
 10
0.0
 20
0.0
 30
0.0
  3
*Model_Space
  1

  0
ENDBLK
  5
21
330
1F
100
AcDbEntity
  8
0
100
AcDbBlockEnd
  0
BLOCK
  5
1C
330
1B
100
AcDbEntity
 67
     1
  8
0
100
AcDbBlockBegin
  2
*Paper_Space
 70
     0
 10
0.0
 20
0.0
 30
0.0
  3
*Paper_Space
  1

  0
ENDBLK
  5
1D
330
1B
100
AcDbEntity
 67
     1
  8
0
100
AcDbBlockEnd
  0
BLOCK
  5
24
330
23
100
AcDbEntity
  8
0
100
AcDbBlockBegin
  2
*Paper_Space0
 70
     0
 10
0.0
 20
0.0
 30
0.0
  3
*Paper_Space0
  1

  0
ENDBLK
  5
25
330
23
100
AcDbEntity
  8
0
100
AcDbBlockEnd
  0
ENDSEC
  0
SECTION
  2
ENTITIES
  0
SPLINE
  5
6E
330
1F
100
AcDbEntity
  8
0
370
    -3
100
AcDbSpline
210
0.0
220
0.0
230
1.0
 70
    28
 71
     2
 72
     6
 73
     3
 74
     0
 42
0.000000001
 43
0.0000000001
 40
12.24251740923229
 40
12.24251740923229
 40
12.24251740923229
 40
12.2615842417205
 40
12.2615842417205
 40
12.2615842417205
 10
-6.542115563167161
 20
5.973530106381647
 30
0.0
 41
0.8535854487995107
 10
-6.540388094306508
 20
5.982785950012852
 30
0.0
 41
0.8535854487995107
 10
-6.538660625445856
 20
5.992041793644057
 30
0.0
 41
0.8535854487995107
  0
SPLINE
  5
6F
330
1F
100
AcDbEntity
  8
0
370
    -3
100
AcDbSpline
210
0.0
220
0.0
230
1.0
 70
    24
 71
     2
 72
     6
 73
     3
 74
     0
 42
0.000000001
 43
0.0000000001
 40
-0.9701991824947411
 40
-0.9701991824947411
 40
-0.9701991824947411
 40
-0.9527666339416654
 40
-0.9527666339416654
 40
-0.9527666339416654
 10
-6.663324905174152
 20
5.992039366695586
 30
0.0
 10
-6.664904908179487
 20
5.983577047204559
 30
0.0
 10
-6.666484911184822
 20
5.975114727713532
 30
0.0
  0
LINE
  5
70
330
1F
100
AcDbEntity
  8
0
370
    -3
100
AcDbLine
 10
-6.820720935190215
 20
5.973200300025215
 30
0.0
 11
6.820339953640469
 21
5.972934737572412
 31
0.0
  0
SPLINE
  5
71
330
1F
100
AcDbEntity
  8
0
370
    -3
100
AcDbSpline
210
0.0
220
0.0
230
1.0
 70
    28
 71
     2
 72
     6
 73
     3
 74
     0
 42
0.000000001
 43
0.0000000001
 40
0.0
 40
0.0
 40
0.0
 40
1.440755831194357
 40
1.440755831194357
 40
1.440755831194357
 10
-6.791019230425899
 20
5.952496784133628
 30
0.0
 41
0.860204406966218
 10
-6.81949998054404
 20
5.972349235949244
 30
0.0
 41
0.860204406966218
 10
-6.847980730662184
 20
5.99220168776486
 30
0.0
 41
0.860204406966218
  0
LINE
  5
72
330
1F
100
AcDbEntity
  8
0
370
    -3
100
AcDbLine
 10
7.116257376490664
 20
5.992030549063358
 30
0.0
 11
-7.116235011765198
 21
5.992307625430001
 31
0.0
  0
LINE
  5
73
330
1F
100
AcDbEntity
  8
0
370
    -3
100
AcDbLine
 10
-7.085966248763908
 20
6.367307036232605
 30
0.0
 11
7.085988518361463
 21
6.367031138404737
 31
0.0
  0
SPLINE
  5
74
330
1F
100
AcDbEntity
  8
0
370
    -3
100
AcDbSpline
210
0.0
220
0.0
230
1.0
 70
    12
 71
     3
 72
    22
 73
    18
 74
     0
 42
0.000000001
 43
0.0000000001
 40
9.970084793942778
 40
9.970084793942778
 40
9.970084793942778
 40
9.970084793942778
 40
13.29942128423876
 40
13.29942128423876
 40
13.29942128423876
 40
13.38362051222643
 40
13.38362051222643
 40
13.4188867425188
 40
13.4188867425188
 40
13.42459507105755
 40
13.42459507105755
 40
13.48694186691424
 40
13.48694186691424
 40
13.71964634875662
 40
13.71964634875662
 40
13.71964634875662
 40
14.11606709350968
 40
14.11606709350968
 40
14.11606709350968
 40
14.11606709350968
 10
-7.137085839066028
 20
5.736609917977555
 30
0.0
 41
0.8602044069662151
 10
-7.093209794475957
 20
5.706026205909894
 30
0.0
 41
0.8602044069662153
 10
-7.049333749885887
 20
5.675442493842234
 30
0.0
 41
0.8602044069662153
 10
-7.005457705295819
 20
5.644858781774578
 30
0.0
 41
0.8602044069662151
 10
-6.985975241258857
 20
5.631278567877863
 30
0.0
 41
0.8602044069662151
 10
-6.942132713985235
 20
5.615535459942978
 30
0.0
 41
0.8602044069662151
 10
-6.920340152105199
 20
5.611549754061608
 30
0.0
 41
0.8602044069662151
 10
-6.914717648730784
 20
5.610767764930113
 30
0.0
 41
0.8602044069662151
 10
-6.909044065399181
 20
5.610063386610994
 30
0.0
 41
0.8602044069662151
 10
-6.908260414969062
 20
5.609968635778356
 30
0.0
 41
0.8602044069662151
 10
-6.898974634221053
 20
5.608872962401181
 30
0.0
 41
0.8602044069662151
 10
-6.892741949457027
 20
5.608320235267005
 30
0.0
 41
0.8602044069662151
 10
-6.850334702276589
 20
5.605053531581985
 30
0.0
 41
0.8602044069662151
 10
-6.808969135334744
 20
5.603409589940464
 30
0.0
 41
0.8602044069662151
 10
-6.750096647766676
 20
5.601849966427486
 30
0.0
 41
0.8602044069662151
 10
-6.654460621902357
 20
5.599316419760999
 30
0.0
 41
0.8602044069662151
 10
-6.529401128729338
 20
5.597940401461694
 30
0.0
 41
0.8602044069662151
 10
-6.398647761129522
 20
5.597942946951761
 30
0.0
 41
0.8602044069662151
  0
SPLINE
  5
75
330
1F
100
AcDbEntity
  8
0
370
    -3
100
AcDbSpline
210
0.0
220
0.0
230
1.0
 70
    12
 71
     3
 72
    22
 73
    18
 74
     0
 42
0.000000001
 43
0.0000000001
 40
9.970084793942778
 40
9.970084793942778
 40
9.970084793942778
 40
9.970084793942778
 40
13.29942128423876
 40
13.29942128423876
 40
13.29942128423876
 40
13.38362051222643
 40
13.38362051222643
 40
13.4188867425188
 40
13.4188867425188
 40
13.42459507105755
 40
13.42459507105755
 40
13.48694186691424
 40
13.48694186691424
 40
13.71964634875662
 40
13.71964634875662
 40
13.71964634875662
 40
14.11606709350968
 40
14.11606709350968
 40
14.11606709350968
 40
14.11606709350968
 10
7.137085839066028
 20
5.736609917977555
 30
0.0
 41
0.8602044069662151
 10
7.093209794475957
 20
5.706026205909894
 30
0.0
 41
0.8602044069662153
 10
7.049333749885887
 20
5.675442493842234
 30
0.0
 41
0.8602044069662153
 10
7.005457705295819
 20
5.644858781774578
 30
0.0
 41
0.8602044069662151
 10
6.985975241258857
 20
5.631278567877863
 30
0.0
 41
0.8602044069662151
 10
6.942132713985235
 20
5.615535459942978
 30
0.0
 41
0.8602044069662151
 10
6.920340152105199
 20
5.611549754061608
 30
0.0
 41
0.8602044069662151
 10
6.914717648730784
 20
5.610767764930113
 30
0.0
 41
0.8602044069662151
 10
6.909044065399181
 20
5.610063386610994
 30
0.0
 41
0.8602044069662151
 10
6.908260414969062
 20
5.609968635778356
 30
0.0
 41
0.8602044069662151
 10
6.898974634221053
 20
5.608872962401181
 30
0.0
 41
0.8602044069662151
 10
6.892741949457027
 20
5.608320235267005
 30
0.0
 41
0.8602044069662151
 10
6.850334702276589
 20
5.605053531581985
 30
0.0
 41
0.8602044069662151
 10
6.808969135334744
 20
5.603409589940464
 30
0.0
 41
0.8602044069662151
 10
6.750096647766676
 20
5.601849966427486
 30
0.0
 41
0.8602044069662151
 10
6.654460621902357
 20
5.599316419760999
 30
0.0
 41
0.8602044069662151
 10
6.529401128729338
 20
5.597940401461694
 30
0.0
 41
0.8602044069662151
 10
6.398647761129522
 20
5.597942946951761
 30
0.0
 41
0.8602044069662151
  0
SPLINE
  5
76
330
1F
100
AcDbEntity
  8
0
370
    -3
100
AcDbSpline
210
0.0
220
0.0
230
1.0
 70
     8
 71
     2
 72
     6
 73
     3
 74
     0
 42
0.000000001
 43
0.0000000001
 40
0.0
 40
0.0
 40
0.0
 40
1.0
 40
1.0
 40
1.0
 10
23.08124978600204
 20
32.14000128935839
 30
0.0
 10
22.92646734471903
 20
32.16867143216169
 30
0.0
 10
22.77499012843518
 20
32.21138952158882
 30
0.0
  0
SPLINE
  5
77
330
1F
100
AcDbEntity
  8
0
370
    -3
100
AcDbSpline
210
0.0
220
0.0
230
1.0
 70
     8
 71
     2
 72
    10
 73
     7
 74
     0
 42
0.000000001
 43
0.0000000001
 40
0.0
 40
0.0
 40
0.0
 40
1.0
 40
2.0
 40
3.0
 40
4.0
 40
5.0
 40
5.0
 40
5.0
 10
37.55753231719239
 20
21.46823542328189
 30
0.0
 10
36.55062824875994
 20
21.32121563891494
 30
0.0
 10
34.52870017277227
 20
21.0897989147014
 30
0.0
 10
32.50114026247659
 20
20.91394318261554
 30
0.0
 10
30.46963439805432
 20
20.79678913027396
 30
0.0
 10
28.43454104605324
 20
20.72686816753937
 30
0.0
 10
27.41872224307369
 20
20.78885975797706
 30
0.0
  0
LINE
  5
78
330
1F
100
AcDbEntity
  8
0
370
    -3
100
AcDbLine
 10
31.50528305933411
 20
16.40067447423557
 30
0.0
 11
31.46542835707104
 21
17.97517014037881
 31
0.0
  0
SPLINE
  5
79
330
1F
100
AcDbEntity
  8
0
370
    -3
100
AcDbSpline
210
0.0
220
0.0
230
1.0
 70
     8
 71
     3
 72
    29
 73
    25
 74
     0
 42
0.000000001
 43
0.0000000001
 40
-8.0
 40
-8.0
 40
-8.0
 40
-8.0
 40
-7.0
 40
-6.0
 40
-5.0
 40
-5.0
 40
-5.0
 40
-4.0
 40
-3.0
 40
-2.0
 40
-1.0
 40
0.0
 40
0.0
 40
0.0
 40
1.0
 40
2.0
 40
3.0
 40
4.0
 40
5.0
 40
5.0
 40
5.0
 40
6.0
 40
7.0
 40
8.0
 40
8.0
 40
8.0
 40
8.0
 10
-7.863472421856146
 20
65.23931073640631
 30
0.0
 10
-7.749296881465811
 20
65.32681021593086
 30
0.0
 10
-7.478596631766154
 20
65.42708065385904
 30
0.0
 10
-7.060510866987846
 20
65.51939862984753
 30
0.0
 10
-6.776830220964214
 20
65.55584514527673
 30
0.0
 10
-6.634944366323715
 20
65.57148224408155
 30
0.0
 10
-6.194729575113342
 20
65.61999787802503
 30
0.0
 10
-5.309866181934504
 20
65.65808848669005
 30
0.0
 10
-3.983281771789947
 20
65.71759500132339
 30
0.0
 10
-2.655768064222374
 20
65.75728837938098
 30
0.0
 10
-1.328038064337004
 20
65.78600063407424
 30
0.0
 10
-0.4426793040273846
 20
65.79331011706246
 30
0.0
 10
0.0
 20
65.7933252033797
 30
0.0
 10
0.4426793040273846
 20
65.79331011706246
 30
0.0
 10
1.328038064337004
 20
65.78600063407424
 30
0.0
 10
2.655768064222374
 20
65.75728837938098
 30
0.0
 10
3.983281771789947
 20
65.71759500132339
 30
0.0
 10
5.309866181934504
 20
65.65808848669005
 30
0.0
 10
6.194729575113342
 20
65.61999787802503
 30
0.0
 10
6.634944366323715
 20
65.57148224408155
 30
0.0
 10
6.776830220964214
 20
65.55584514527673
 30
0.0
 10
7.060510866987846
 20
65.51939862984753
 30
0.0
 10
7.478596631766154
 20
65.42708065385904
 30
0.0
 10
7.749296881465811
 20
65.32681021593086
 30
0.0
 10
7.863472421856146
 20
65.23931073640631
 30
0.0
  0
SPLINE
  5
7A
330
1F
100
AcDbEntity
  8
0
370
    -3
100
AcDbSpline
210
0.0
220
0.0
230
1.0
 70
     8
 71
     3
 72
    15
 73
    11
 74
     0
 42
0.000000001
 43
0.0000000001
 40
0.0
 40
0.0
 40
0.0
 40
0.0
 40
1.0
 40
2.0
 40
3.0
 40
3.0
 40
3.0
 40
4.0
 40
5.0
 40
6.0
 40
6.0
 40
6.0
 40
6.0
 10
2.500137248733111
 20
62.14833635895299
 30
0.0
 10
2.21956085599327
 20
62.15051199227942
 30
0.0
 10
1.659482248524073
 20
62.16817082057378
 30
0.0
 10
0.8178992159795553
 20
62.23261970545722
 30
0.0
 10
0.2749828566445974
 20
62.38087142123928
 30
0.0
 10
0.0
 20
62.4354028225447
 30
0.0
 10
-0.2749828566445974
 20
62.38087142123928
 30
0.0
 10
-0.8178992159795553
 20
62.23261970545722
 30
0.0
 10
-1.659482248524073
 20
62.16817082057378
 30
0.0
 10
-2.21956085599327
 20
62.15051199227942
 30
0.0
 10
-2.500137248733111
 20
62.14833635895299
 30
0.0
  0
POLYLINE
  5
7B
330
1F
100
AcDbEntity
  8
0
100
AcDb2dPolyline
 66
     1
 10
0.0
 20
0.0
 30
0.0
  0
VERTEX
  5
7C
330
7B
100
AcDbEntity
  8
0
100
AcDbVertex
100
AcDb2dVertex
 10
3.500000046192229
 20
54.47532152552699
 30
0.0
  0
VERTEX
  5
7D
330
7B
100
AcDbEntity
  8
0
100
AcDbVertex
100
AcDb2dVertex
 10
0.0
 20
54.47532152552699
 30
0.0
  0
VERTEX
  5
7E
330
7B
100
AcDbEntity
  8
0
100
AcDbVertex
100
AcDb2dVertex
 10
-3.500000046192229
 20
54.47532152552699
 30
0.0
  0
SEQEND
  5
7F
330
7B
100
AcDbEntity
  8
0
  0
SPLINE
  5
80
330
1F
100
AcDbEntity
  8
0
370
    -3
100
AcDbSpline
210
0.0
220
0.0
230
1.0
 70
     8
 71
     3
 72
    15
 73
    11
 74
     0
 42
0.000000001
 43
0.0000000001
 40
-3.0
 40
-3.0
 40
-3.0
 40
-3.0
 40
-2.0
 40
-1.0
 40
0.0
 40
0.0
 40
0.0
 40
1.0
 40
2.0
 40
3.0
 40
3.0
 40
3.0
 40
3.0
 10
-8.619986709579637
 20
59.03932081181634
 30
0.0
 10
-7.662281284338535
 20
59.05432125212576
 30
0.0
 10
-5.746708526162503
 20
59.07153014657641
 30
0.0
 10
-2.873517243656704
 20
59.11350668359677
 30
0.0
 10
-0.9578130297210532
 20
59.11181866491813
 30
0.0
 10
0.0
 20
59.11232152441802
 30
0.0
 10
0.9578130297210532
 20
59.11181866491813
 30
0.0
 10
2.873517243656704
 20
59.11350668359677
 30
0.0
 10
5.746708526162503
 20
59.07153014657641
 30
0.0
 10
7.662281284338535
 20
59.05432125212576
 30
0.0
 10
8.619986709579637
 20
59.03932081181634
 30
0.0
  0
SPLINE
  5
81
330
1F
100
AcDbEntity
  8
0
370
    -3
100
AcDbSpline
210
0.0
220
0.0
230
1.0
 70
    11
 71
     3
 72
    85
 73
    81
 74
     0
 42
0.000000001
 43
0.0000000001
 40
0.0
 40
0.0
 40
0.0
 40
0.0
 40
1.0
 40
2.0
 40
3.0
 40
4.0
 40
5.0
 40
6.0
 40
7.0
 40
8.0
 40
9.0
 40
10.0
 40
11.0
 40
11.0
 40
11.0
 40
12.0
 40
12.0
 40
12.0
 40
13.0
 40
14.0
 40
15.0
 40
16.0
 40
17.0
 40
18.0
 40
19.0
 40
20.0
 40
21.0
 40
22.0
 40
22.0
 40
22.0
 40
23.0
 40
24.0
 40
25.0
 40
26.0
 40
27.0
 40
27.0
 40
27.0
 40
28.0
 40
29.0
 40
30.0
 40
30.0
 40
30.0
 40
31.0
 40
32.0
 40
33.0
 40
33.0
 40
33.0
 40
34.0
 40
35.0
 40
36.0
 40
37.0
 40
38.0
 40
38.0
 40
38.0
 40
39.0
 40
40.0
 40
41.0
 40
42.0
 40
43.0
 40
44.0
 40
45.0
 40
46.0
 40
47.0
 40
48.0
 40
48.0
 40
48.0
 40
49.0
 40
49.0
 40
49.0
 40
50.0
 40
51.0
 40
52.0
 40
53.0
 40
54.0
 40
55.0
 40
56.0
 40
57.0
 40
58.0
 40
59.0
 40
60.0
 40
60.0
 40
60.0
 40
60.0
 10
0.0
 20
66.09689577341715
 30
0.0
 10
0.2417865116429881
 20
66.096877336166
 30
0.0
 10
0.7253590791868967
 20
66.09435062529846
 30
0.0
 10
1.45064105781209
 20
66.08312387832919
 30
0.0
 10
2.175768283759485
 20
66.06436950423475
 30
0.0
 10
2.90064921456861
 20
66.03774262734942
 30
0.0
 10
3.625199496836919
 20
66.00323541834356
 30
0.0
 10
4.349269545131464
 20
65.9597685670133
 30
0.0
 10
5.072725802147687
 20
65.90702255740038
 30
0.0
 10
5.79551015120843
 20
65.84599985178387
 30
0.0
 10
6.515725710971365
 20
65.75612289201013
 30
0.0
 10
7.224495951226073
 20
65.59663535006617
 30
0.0
 10
7.670988240101551
 20
65.39692274713263
 30
0.0
 10
7.859149794966269
 20
65.24280644865381
 30
0.0
 10
7.899876325342881
 20
65.20944882617859
 30
0.0
 10
7.944390688871948
 20
65.15537671801806
 30
0.0
 10
7.953258688575884
 20
65.10648070371431
 30
0.0
 10
8.047252874796976
 20
64.58821940157469
 30
0.0
 10
8.23898539933838
 20
63.55276797898136
 30
0.0
 10
8.516927831998629
 20
61.99629453617649
 30
0.0
 10
8.65422496425166
 20
60.42114595501907
 30
0.0
 10
8.71822337506173
 20
58.84234824507601
 30
0.0
 10
8.794122280027167
 20
57.26414787407969
 30
0.0
 10
8.868955839132099
 20
55.68588742459633
 30
0.0
 10
8.946786837660305
 20
54.10777339380081
 30
0.0
 10
9.027402951713038
 20
52.52979967664388
 30
0.0
 10
9.107480523875388
 20
50.95179843009444
 30
0.0
 10
9.164667553645995
 20
49.89999266158904
 30
0.0
 10
9.190438010644755
 20
49.37395078397201
 30
0.0
 10
9.204856190929556
 20
49.07963832264457
 30
0.0
 10
9.215595732006136
 20
48.48919960439862
 30
0.0
 10
9.099966918640849
 20
47.60847513752643
 30
0.0
 10
8.699204015899781
 20
46.79120934736401
 30
0.0
 10
7.927325641522014
 20
46.30421245273216
 30
0.0
 10
7.341380414258516
 20
46.19428498436045
 30
0.0
 10
7.047964613480898
 20
46.17193583734245
 30
0.0
 10
6.266462424627029
 20
46.11240970661843
 30
0.0
 10
4.701257743778644
 20
46.02409058593229
 30
0.0
 10
2.351300793043329
 20
45.9410306776831
 30
0.0
 10
0.7837731969334032
 20
45.92067822773433
 30
0.0
 10
0.0
 20
45.9204351827548
 30
0.0
 10
-0.7837731969334032
 20
45.92067822773433
 30
0.0
 10
-2.351300793043329
 20
45.9410306776831
 30
0.0
 10
-4.701257743778644
 20
46.02409058593229
 30
0.0
 10
-6.266462424627029
 20
46.11240970661843
 30
0.0
 10
-7.047964613480898
 20
46.17193583734245
 30
0.0
 10
-7.341380414258516
 20
46.19428498436045
 30
0.0
 10
-7.927325641522014
 20
46.30421245273216
 30
0.0
 10
-8.699204015899781
 20
46.79120934736401
 30
0.0
 10
-9.099966918640849
 20
47.60847513752643
 30
0.0
 10
-9.215595732006136
 20
48.48919960439862
 30
0.0
 10
-9.204856190929556
 20
49.07963832264457
 30
0.0
 10
-9.190438010644755
 20
49.37395078397201
 30
0.0
 10
-9.164667553645995
 20
49.89999266158904
 30
0.0
 10
-9.107480523875388
 20
50.95179843009444
 30
0.0
 10
-9.027402951713038
 20
52.52979967664388
 30
0.0
 10
-8.946786837660305
 20
54.10777339380081
 30
0.0
 10
-8.868955839132099
 20
55.68588742459633
 30
0.0
 10
-8.794122280027167
 20
57.26414787407969
 30
0.0
 10
-8.71822337506173
 20
58.84234824507601
 30
0.0
 10
-8.65422496425166
 20
60.42114595501907
 30
0.0
 10
-8.516927831998629
 20
61.99629453617649
 30
0.0
 10
-8.23898539933838
 20
63.55276797898136
 30
0.0
 10
-8.047252874796976
 20
64.58821940157469
 30
0.0
 10
-7.953258688575884
 20
65.10648070371431
 30
0.0
 10
-7.944390688871948
 20
65.15537671801806
 30
0.0
 10
-7.899876325342881
 20
65.20944882617859
 30
0.0
 10
-7.859149794966269
 20
65.24280644865381
 30
0.0
 10
-7.670988240101551
 20
65.39692274713263
 30
0.0
 10
-7.224495951226073
 20
65.59663535006617
 30
0.0
 10
-6.515725710971365
 20
65.75612289201013
 30
0.0
 10
-5.79551015120843
 20
65.84599985178387
 30
0.0
 10
-5.072725802147687
 20
65.90702255740038
 30
0.0
 10
-4.349269545131464
 20
65.9597685670133
 30
0.0
 10
-3.625199496836919
 20
66.00323541834356
 30
0.0
 10
-2.90064921456861
 20
66.03774262734942
 30
0.0
 10
-2.175768283759485
 20
66.06436950423475
 30
0.0
 10
-1.45064105781209
 20
66.08312387832919
 30
0.0
 10
-0.7253590791868967
 20
66.09435062529846
 30
0.0
 10
-0.2417865116429881
 20
66.096877336166
 30
0.0
 10
0.0
 20
66.09689577341715
 30
0.0
  0
SPLINE
  5
82
330
1F
100
AcDbEntity
  8
0
370
    -3
100
AcDbSpline
210
0.0
220
0.0
230
1.0
 70
    11
 71
     3
 72
   103
 73
    99
 74
     0
 42
0.000000001
 43
0.0000000001
 40
0.0
 40
0.0
 40
0.0
 40
0.0
 40
1.0
 40
2.0
 40
3.0
 40
4.0
 40
5.0
 40
5.0
 40
5.0
 40
6.0
 40
7.0
 40
8.0
 40
9.0
 40
10.0
 40
11.0
 40
12.0
 40
13.0
 40
14.0
 40
15.0
 40
16.0
 40
16.0
 40
16.0
 40
17.0
 40
18.0
 40
19.0
 40
20.0
 40
21.0
 40
22.0
 40
23.0
 40
24.0
 40
25.0
 40
26.0
 40
27.0
 40
28.0
 40
29.0
 40
29.0
 40
29.0
 40
30.0
 40
31.0
 40
32.0
 40
33.0
 40
34.0
 40
34.0
 40
34.0
 40
35.0
 40
36.0
 40
37.0
 40
38.0
 40
39.0
 40
39.0
 40
39.0
 40
40.0
 40
41.0
 40
42.0
 40
43.0
 40
44.0
 40
44.0
 40
44.0
 40
45.0
 40
46.0
 40
47.0
 40
48.0
 40
49.0
 40
49.0
 40
49.0
 40
50.0
 40
51.0
 40
52.0
 40
53.0
 40
54.0
 40
55.0
 40
56.0
 40
57.0
 40
58.0
 40
59.0
 40
60.0
 40
61.0
 40
62.0
 40
62.0
 40
62.0
 40
63.0
 40
64.0
 40
65.0
 40
66.0
 40
67.0
 40
68.0
 40
69.0
 40
70.0
 40
71.0
 40
72.0
 40
73.0
 40
73.0
 40
73.0
 40
74.0
 40
75.0
 40
76.0
 40
77.0
 40
78.0
 40
78.0
 40
78.0
 40
78.0
 10
0.0
 20
64.70719317912177
 30
0.0
 10
0.4382270553485975
 20
64.70717987867633
 30
0.0
 10
1.314673008388236
 20
64.70044078552861
 30
0.0
 10
2.629130065650664
 20
64.6759546087116
 30
0.0
 10
3.943343160003768
 20
64.63905154986868
 30
0.0
 10
5.25684385601041
 20
64.58553707725522
 30
0.0
 10
6.132920551524141
 20
64.55271452238361
 30
0.0
 10
6.569347735165957
 20
64.51188199667965
 30
0.0
 10
6.62253099552185
 20
64.50690612229121
 30
0.0
 10
6.728708783259899
 20
64.49501785622337
 30
0.0
 10
6.887625071114582
 20
64.47433680354854
 30
0.0
 10
7.045989080408378
 20
64.44972698778466
 30
0.0
 10
7.20350164150133
 20
64.4201628325349
 30
0.0
 10
7.359789171497413
 20
64.38445270349368
 30
0.0
 10
7.513957397310124
 20
64.34089280129223
 30
0.0
 10
7.664923517580737
 20
64.28533261848871
 30
0.0
 10
7.806335493834906
 20
64.21247525224665
 30
0.0
 10
7.935491487815928
 20
64.10488067410627
 30
0.0
 10
7.957535446234765
 20
63.93960623813155
 30
0.0
 10
7.980398651987709
 20
63.83702367929058
 30
0.0
 10
7.991000046896874
 20
63.78437002821754
 30
0.0
 10
8.064683008360953
 20
63.4184109279104
 30
0.0
 10
8.20825182657406
 20
62.68615734923745
 30
0.0
 10
8.452320362030152
 20
61.59196193088766
 30
0.0
 10
8.531923026876344
 20
60.47278122930688
 30
0.0
 10
8.605021510660244
 20
59.35601071676614
 30
0.0
 10
8.663138844661376
 20
58.23758774237305
 30
0.0
 10
8.721879822888924
 20
57.11942575380098
 30
0.0
 10
8.780085823332008
 20
56.00117450192168
 30
0.0
 10
8.839105480059294
 20
54.88298233653788
 30
0.0
 10
8.897977922285413
 20
53.76477794341122
 30
0.0
 10
8.956399803022657
 20
52.6465515048834
 30
0.0
 10
9.01510336034576
 20
51.52833776286852
 30
0.0
 10
9.074648523090154
 20
50.41017542889882
 30
0.0
 10
9.117345357199108
 20
49.66487748222154
 30
0.0
 10
9.13221468233378
 20
49.29191435764866
 30
0.0
 10
9.143544739569272
 20
49.00772570013618
 30
0.0
 10
9.151196355778506
 20
48.43785279684541
 30
0.0
 10
9.033767043634876
 20
47.58841366497789
 30
0.0
 10
8.633718955469018
 20
46.80457418931817
 30
0.0
 10
7.876581495240822
 20
46.35507433415984
 30
0.0
 10
7.313470046860512
 20
46.24563095759078
 30
0.0
 10
7.0301022308364
 20
46.22306289663921
 30
0.0
 10
6.562563477613924
 20
46.18582704103643
 30
0.0
 10
5.625998024428981
 20
46.13093300801514
 30
0.0
 10
4.22045120706295
 20
46.06382550177015
 30
0.0
 10
2.814039743080845
 20
46.01703360274873
 30
0.0
 10
1.407146598362912
 20
45.98896614568707
 30
0.0
 10
0.4690483544951689
 20
45.98275847506863
 30
0.0
 10
0.0
 20
45.98274548650809
 30
0.0
 10
-0.4690483544951689
 20
45.98275847506863
 30
0.0
 10
-1.407146598362912
 20
45.98896614568707
 30
0.0
 10
-2.814039743080845
 20
46.01703360274873
 30
0.0
 10
-4.22045120706295
 20
46.06382550177015
 30
0.0
 10
-5.625998024428981
 20
46.13093300801514
 30
0.0
 10
-6.562563477613924
 20
46.18582704103643
 30
0.0
 10
-7.0301022308364
 20
46.22306289663921
 30
0.0
 10
-7.313470046860512
 20
46.24563095759078
 30
0.0
 10
-7.876581495240822
 20
46.35507433415984
 30
0.0
 10
-8.633718955469018
 20
46.80457418931817
 30
0.0
 10
-9.033767043634876
 20
47.58841366497789
 30
0.0
 10
-9.151196355778506
 20
48.43785279684541
 30
0.0
 10
-9.143544739569272
 20
49.00772570013618
 30
0.0
 10
-9.13221468233378
 20
49.29191435764866
 30
0.0
 10
-9.117345357199108
 20
49.66487748222154
 30
0.0
 10
-9.074648523090154
 20
50.41017542889882
 30
0.0
 10
-9.01510336034576
 20
51.52833776286852
 30
0.0
 10
-8.956399803022657
 20
52.6465515048834
 30
0.0
 10
-8.897977922285413
 20
53.76477794341122
 30
0.0
 10
-8.839105480059294
 20
54.88298233653788
 30
0.0
 10
-8.780085823332008
 20
56.00117450192168
 30
0.0
 10
-8.721879822888924
 20
57.11942575380098
 30
0.0
 10
-8.663138844661376
 20
58.23758774237305
 30
0.0
 10
-8.605021510660244
 20
59.35601071676614
 30
0.0
 10
-8.531923026876344
 20
60.47278122930688
 30
0.0
 10
-8.452320362030152
 20
61.59196193088766
 30
0.0
 10
-8.20825182657406
 20
62.68615734923745
 30
0.0
 10
-8.064683008360953
 20
63.4184109279104
 30
0.0
 10
-7.991000046896874
 20
63.78437002821754
 30
0.0
 10
-7.980398651987709
 20
63.83702367929058
 30
0.0
 10
-7.957535446234765
 20
63.93960623813155
 30
0.0
 10
-7.935491487815928
 20
64.10488067410627
 30
0.0
 10
-7.806335493834906
 20
64.21247525224665
 30
0.0
 10
-7.664923517580737
 20
64.28533261848871
 30
0.0
 10
-7.513957397310124
 20
64.34089280129223
 30
0.0
 10
-7.359789171497413
 20
64.38445270349368
 30
0.0
 10
-7.20350164150133
 20
64.4201628325349
 30
0.0
 10
-7.045989080408378
 20
64.44972698778466
 30
0.0
 10
-6.887625071114582
 20
64.47433680354854
 30
0.0
 10
-6.728708783259899
 20
64.49501785622337
 30
0.0
 10
-6.62253099552185
 20
64.50690612229121
 30
0.0
 10
-6.569347735165957
 20
64.51188199667965
 30
0.0
 10
-6.132920551524141
 20
64.55271452238361
 30
0.0
 10
-5.25684385601041
 20
64.58553707725522
 30
0.0
 10
-3.943343160003768
 20
64.63905154986868
 30
0.0
 10
-2.629130065650664
 20
64.6759546087116
 30
0.0
 10
-1.314673008388236
 20
64.70044078552861
 30
0.0
 10
-0.4382270553485975
 20
64.70717987867633
 30
0.0
 10
0.0
 20
64.70719317912177
 30
0.0
  0
SPLINE
  5
83
330
1F
100
AcDbEntity
  8
0
370
    -3
100
AcDbSpline
210
0.0
220
0.0
230
1.0
 70
    12
 71
     3
 72
    16
 73
    12
 74
     0
 42
0.000000001
 43
0.0000000001
 40
21.09982715097699
 40
21.09982715097699
 40
21.09982715097699
 40
21.09982715097699
 40
28.8662680986499
 40
28.8662680986499
 40
28.8662680986499
 40
29.8662680986499
 40
30.8662680986499
 40
31.8662680986499
 40
31.8662680986499
 40
31.8662680986499
 40
34.143646211954
 40
34.143646211954
 40
34.143646211954
 40
34.143646211954
 10
-7.865147243868199
 20
65.23850277528115
 30
0.0
 41
0.9686430816496343
 10
-8.297779942588264
 20
65.60734392176279
 30
0.0
 41
0.9686430816496343
 10
-8.730412641308329
 20
65.97618506824443
 30
0.0
 41
0.9686430816496343
 10
-9.163045340028393
 20
66.34502621472606
 30
0.0
 41
0.9686430816496343
 10
-9.293072518713773
 20
66.455880927747
 30
0.0
 41
0.9686430816496343
 10
-9.680471328323767
 20
66.53520256884752
 30
0.0
 41
0.9686430816496343
 10
-10.07206139886102
 20
66.10293865049265
 30
0.0
 41
0.9686430816496343
 10
-9.967118014974966
 20
65.72361393596728
 30
0.0
 41
0.9686430816496343
 10
-9.839566862580048
 20
65.6098858092667
 30
0.0
 41
0.9686430816496343
 10
-9.272960182540038
 20
65.10468366026946
 30
0.0
 41
0.9686430816496343
 10
-8.706353502500026
 20
64.59948151127223
 30
0.0
 41
0.9686430816496343
 10
-8.139746822460014
 20
64.09427936227499
 30
0.0
 41
0.9686430816496343
  0
SPLINE
  5
84
330
1F
100
AcDbEntity
  8
0
370
    -3
100
AcDbSpline
210
0.0
220
0.0
230
1.0
 70
     8
 71
     3
 72
    10
 73
     6
 74
     0
 42
0.000000001
 43
0.0000000001
 40
0.0
 40
0.0
 40
0.0
 40
0.0
 40
1.0
 40
2.0
 40
3.0
 40
3.0
 40
3.0
 40
3.0
 10
-9.148354728350956
 20
48.04934830900642
 30
0.0
 10
-9.231169427287352
 20
47.94889666477155
 30
0.0
 10
-9.374117337723558
 20
47.70509972030284
 30
0.0
 10
-9.24199626559438
 20
47.29287856695331
 30
0.0
 10
-8.988991197327806
 20
47.163090765345
 30
0.0
 10
-8.856934464347924
 20
47.15393524398116
 30
0.0
  0
POLYLINE
  5
85
330
1F
100
AcDbEntity
  8
0
100
AcDb2dPolyline
 66
     1
 10
0.0
 20
0.0
 30
0.0
  0
VERTEX
  5
86
330
85
100
AcDbEntity
  8
0
100
AcDbVertex
100
AcDb2dVertex
 10
0.0000000467284309
 20
62.60235421527341
 30
0.0
  0
VERTEX
  5
87
330
85
100
AcDbEntity
  8
0
100
AcDbVertex
100
AcDb2dVertex
 10
0.0000000467064503
 20
61.5427181040244
 30
0.0
  0
SEQEND
  5
88
330
85
100
AcDbEntity
  8
0
  0
POLYLINE
  5
89
330
1F
100
AcDbEntity
  8
0
100
AcDb2dPolyline
 66
     1
 10
0.0
 20
0.0
 30
0.0
  0
VERTEX
  5
8A
330
89
100
AcDbEntity
  8
0
100
AcDbVertex
100
AcDb2dVertex
 10
0.0000000467063774
 20
56.24340859836903
 30
0.0
  0
VERTEX
  5
8B
330
89
100
AcDbEntity
  8
0
100
AcDbVertex
100
AcDb2dVertex
 10
0.0000000467051979
 20
52.94543360392504
 30
0.0
  0
SEQEND
  5
8C
330
89
100
AcDbEntity
  8
0
  0
SPLINE
  5
8D
330
1F
100
AcDbEntity
  8
0
370
    -3
100
AcDbSpline
210
0.0
220
0.0
230
1.0
 70
    12
 71
     3
 72
    16
 73
    12
 74
     0
 42
0.000000001
 43
0.0000000001
 40
21.09982715097699
 40
21.09982715097699
 40
21.09982715097699
 40
21.09982715097699
 40
28.8662680986499
 40
28.8662680986499
 40
28.8662680986499
 40
29.8662680986499
 40
30.8662680986499
 40
31.8662680986499
 40
31.8662680986499
 40
31.8662680986499
 40
34.143646211954
 40
34.143646211954
 40
34.143646211954
 40
34.143646211954
 10
7.865147243868199
 20
65.23850277528115
 30
0.0
 41
0.9686430816496343
 10
8.297779942588264
 20
65.60734392176279
 30
0.0
 41
0.9686430816496343
 10
8.730412641308329
 20
65.97618506824443
 30
0.0
 41
0.9686430816496343
 10
9.163045340028393
 20
66.34502621472606
 30
0.0
 41
0.9686430816496343
 10
9.293072518713773
 20
66.455880927747
 30
0.0
 41
0.9686430816496343
 10
9.680471328323767
 20
66.53520256884752
 30
0.0
 41
0.9686430816496343
 10
10.07206139886102
 20
66.10293865049265
 30
0.0
 41
0.9686430816496343
 10
9.967118014974966
 20
65.72361393596728
 30
0.0
 41
0.9686430816496343
 10
9.839566862580048
 20
65.6098858092667
 30
0.0
 41
0.9686430816496343
 10
9.272960182540038
 20
65.10468366026946
 30
0.0
 41
0.9686430816496343
 10
8.706353502500026
 20
64.59948151127223
 30
0.0
 41
0.9686430816496343
 10
8.139746822460014
 20
64.09427936227499
 30
0.0
 41
0.9686430816496343
  0
SPLINE
  5
8E
330
1F
100
AcDbEntity
  8
0
370
    -3
100
AcDbSpline
210
0.0
220
0.0
230
1.0
 70
     8
 71
     3
 72
    10
 73
     6
 74
     0
 42
0.000000001
 43
0.0000000001
 40
0.0
 40
0.0
 40
0.0
 40
0.0
 40
1.0
 40
2.0
 40
3.0
 40
3.0
 40
3.0
 40
3.0
 10
9.148354728350956
 20
48.04934830900642
 30
0.0
 10
9.231169427287352
 20
47.94889666477155
 30
0.0
 10
9.374117337723558
 20
47.70509972030284
 30
0.0
 10
9.24199626559438
 20
47.29287856695331
 30
0.0
 10
8.988991197327806
 20
47.163090765345
 30
0.0
 10
8.856934464347924
 20
47.15393524398116
 30
0.0
  0
POLYLINE
  5
8F
330
1F
100
AcDbEntity
  8
0
100
AcDb2dPolyline
 66
     1
 10
0.0
 20
0.0
 30
0.0
  0
VERTEX
  5
90
330
8F
100
AcDbEntity
  8
0
100
AcDbVertex
100
AcDb2dVertex
 10
0.0
 20
17.98867035181421
 30
0.0
  0
VERTEX
  5
91
330
8F
100
AcDbEntity
  8
0
100
AcDbVertex
100
AcDb2dVertex
 10
0.0
 20
16.41409464549276
 30
0.0
  0
SEQEND
  5
92
330
8F
100
AcDbEntity
  8
0
  0
SPLINE
  5
93
330
1F
100
AcDbEntity
  8
0
370
    -3
100
AcDbSpline
210
0.0
220
0.0
230
1.0
 70
    12
 71
     3
 72
    23
 73
    19
 74
     0
 42
0.000000001
 43
0.0000000001
 40
-10.62799966147673
 40
-10.62799966147673
 40
-10.62799966147673
 40
-10.62799966147673
 40
-0.9999999999999304
 40
-0.9999999999999304
 40
-0.9999999999999304
 40
0.0000000000000696
 40
0.0000000000000696
 40
0.0000000000000696
 40
6.008471928741708
 40
6.008471928741708
 40
6.008471928741708
 40
12.01694385748335
 40
12.01694385748335
 40
12.01694385748335
 40
13.01694385748335
 40
13.01694385748335
 40
13.01694385748335
 40
22.64494351896015
 40
22.64494351896015
 40
22.64494351896015
 40
22.64494351896015
 10
-6.468672064445393
 20
6.367043156243601
 30
0.0
 41
0.8535854487995107
 10
-5.887136226724314
 20
9.48293421656178
 30
0.0
 41
0.8535854487995107
 10
-5.305600389003238
 20
12.59882527687996
 30
0.0
 41
0.8535854487995107
 10
-4.724064551282161
 20
15.71471633719814
 30
0.0
 41
0.8535854487995107
 10
-4.664397557163129
 20
16.03441435323118
 30
0.0
 41
0.8535854487995107
 10
-4.536337979208438
 20
16.2724649979496
 30
0.0
 41
0.8535854487995107
 10
-4.248631245382454
 20
16.27974529395961
 30
0.0
 41
0.8535854487995107
 10
-2.832420830254969
 20
16.31558189360211
 30
0.0
 41
0.8535854487995107
 10
-1.416210415127485
 20
16.35141849324461
 30
0.0
 41
0.8535854487995107
 10
0.0
 20
16.38725509288712
 30
0.0
 41
0.8535854487995107
 10
1.416210415127484
 20
16.35141849324461
 30
0.0
 41
0.8535854487995107
 10
2.832420830254969
 20
16.31558189360211
 30
0.0
 41
0.8535854487995107
 10
4.248631245382454
 20
16.27974529395961
 30
0.0
 41
0.8535854487995107
 10
4.536337979208438
 20
16.2724649979496
 30
0.0
 41
0.8535854487995107
 10
4.664397557163129
 20
16.03441435323118
 30
0.0
 41
0.8535854487995107
 10
4.724064551282161
 20
15.71471633719814
 30
0.0
 41
0.8535854487995107
 10
5.305600389003239
 20
12.59882527687996
 30
0.0
 41
0.8535854487995107
 10
5.887136226724317
 20
9.48293421656178
 30
0.0
 41
0.8535854487995107
 10
6.468672064445393
 20
6.367043156243601
 30
0.0
 41
0.8535854487995107
  0
SPLINE
  5
94
330
1F
100
AcDbEntity
  8
0
370
    -3
100
AcDbSpline
210
0.0
220
0.0
230
1.0
 70
    12
 71
     3
 72
    23
 73
    19
 74
     0
 42
0.000000001
 43
0.0000000001
 40
-18.67971430498496
 40
-18.67971430498496
 40
-18.67971430498496
 40
-18.67971430498496
 40
-15.35921190299661
 40
-15.35921190299661
 40
-15.35921190299661
 40
-14.35921190299661
 40
-14.35921190299661
 40
-14.35921190299661
 40
-6.218746001708138
 40
-6.218746001708138
 40
-6.218746001708138
 40
1.921719899580338
 40
1.921719899580338
 40
1.921719899580338
 40
2.921719899580338
 40
2.921719899580338
 40
2.921719899580338
 40
6.242222301568686
 40
6.242222301568686
 40
6.242222301568686
 40
6.242222301568686
 10
-6.186505495687764
 20
22.04920227113251
 30
0.0
 41
0.8535534036062348
 10
-6.171894586249023
 20
20.94254566412645
 30
0.0
 41
0.8535534036062348
 10
-6.157283676810281
 20
19.83588905712038
 30
0.0
 41
0.8535534036062348
 10
-6.142672767371539
 20
18.72923245011432
 30
0.0
 41
0.8535534036062348
 10
-6.138193245156375
 20
18.38994536627977
 30
0.0
 41
0.8535534036062348
 10
-5.979670627090299
 20
18.13998336290927
 30
0.0
 41
0.8535534036062348
 10
-5.756178640819199
 20
18.13432799365781
 30
0.0
 41
0.8535534036062348
 10
-3.837452427212799
 20
18.08577544637661
 30
0.0
 41
0.8535534036062348
 10
-1.918726213606399
 20
18.03722289909541
 30
0.0
 41
0.8535534036062348
 10
0.0
 20
17.98867035181421
 30
0.0
 41
0.8535534036062348
 10
1.918726213606399
 20
18.03722289909541
 30
0.0
 41
0.8535534036062348
 10
3.837452427212799
 20
18.08577544637661
 30
0.0
 41
0.8535534036062348
 10
5.756178640819199
 20
18.13432799365781
 30
0.0
 41
0.8535534036062348
 10
5.979670627090299
 20
18.13998336290927
 30
0.0
 41
0.8535534036062348
 10
6.138193245156375
 20
18.38994536627977
 30
0.0
 41
0.8535534036062348
 10
6.142672767371539
 20
18.72923245011432
 30
0.0
 41
0.8535534036062348
 10
6.15728367681028
 20
19.83588905712038
 30
0.0
 41
0.8535534036062348
 10
6.171894586249023
 20
20.94254566412644
 30
0.0
 41
0.8535534036062348
 10
6.186505495687764
 20
22.0492022711325
 30
0.0
 41
0.8535534036062348
  0
SPLINE
  5
95
330
1F
100
AcDbEntity
  8
0
370
    -3
100
AcDbSpline
210
0.0
220
0.0
230
1.0
 70
     8
 71
     3
 72
    17
 73
    13
 74
     0
 42
0.000000001
 43
0.0000000001
 40
0.0
 40
0.0
 40
0.0
 40
0.0
 40
1.0
 40
2.0
 40
3.0
 40
4.0
 40
4.0
 40
4.0
 40
5.0
 40
6.0
 40
7.0
 40
8.0
 40
8.0
 40
8.0
 40
8.0
 10
6.182582426159881
 20
21.72902418240052
 30
0.0
 10
5.679731671632187
 20
21.60255925467742
 30
0.0
 10
4.669509647095039
 20
21.3674110212076
 30
0.0
 10
3.14086686516008
 20
21.07743975948064
 30
0.0
 10
1.601673625620929
 20
20.85085048413634
 30
0.0
 10
0.5677943768176463
 20
20.75085228511018
 30
0.0
 10
0.0
 20
20.75085228511018
 30
0.0
 10
-0.5677943768176463
 20
20.75085228511018
 30
0.0
 10
-1.601673625620929
 20
20.85085048413634
 30
0.0
 10
-3.14086686516008
 20
21.07743975948064
 30
0.0
 10
-4.669509647095039
 20
21.3674110212076
 30
0.0
 10
-5.679731671632187
 20
21.60255925467742
 30
0.0
 10
-6.182582426159881
 20
21.72902418240052
 30
0.0
  0
SPLINE
  5
96
330
1F
100
AcDbEntity
  8
0
370
    -3
100
AcDbSpline
210
0.0
220
0.0
230
1.0
 70
     8
 71
     3
 72
    17
 73
    13
 74
     0
 42
0.000000001
 43
0.0000000001
 40
-4.0
 40
-4.0
 40
-4.0
 40
-4.0
 40
-2.999990278076738
 40
-1.999980556153475
 40
-0.9999708342302129
 40
0.0
 40
0.0
 40
0.0
 40
0.9999708342302128
 40
1.999980556153475
 40
2.999990278076738
 40
4.0
 40
4.0
 40
4.0
 40
4.0
 10
-8.006291578883525
 20
22.1954489429971
 30
0.0
 10
-7.339968617094843
 20
22.14574986758957
 30
0.0
 10
-6.009157025174657
 20
22.02287649318018
 30
0.0
 10
-4.007926895136613
 20
21.90386851169541
 30
0.0
 10
-2.004488728294705
 20
21.83520655948332
 30
0.0
 10
-0.6681406277091739
 20
21.82185719133609
 30
0.0
 10
0.0
 20
21.82178357722522
 30
0.0
 10
0.6681406277091743
 20
21.8218571913361
 30
0.0
 10
2.004488728294705
 20
21.83520655948332
 30
0.0
 10
4.007926895136613
 20
21.90386851169541
 30
0.0
 10
6.009157025174657
 20
22.02287649318018
 30
0.0
 10
7.339968617094843
 20
22.14574986758957
 30
0.0
 10
8.006291578883525
 20
22.1954489429971
 30
0.0
  0
SPLINE
  5
97
330
1F
100
AcDbEntity
  8
0
370
    -3
100
AcDbSpline
210
0.0
220
0.0
230
1.0
 70
     8
 71
     3
 72
    19
 73
    15
 74
     0
 42
0.000000001
 43
0.0000000001
 40
0.0
 40
0.0
 40
0.0
 40
0.0
 40
1.0
 40
2.0
 40
3.0
 40
4.0
 40
5.0
 40
5.0
 40
5.0
 40
6.0
 40
7.0
 40
8.0
 40
9.0
 40
10.0
 40
10.0
 40
10.0
 40
10.0
 10
9.132127881158729
 20
22.72776300704226
 30
0.0
 10
8.524662564569176
 20
22.73169298158541
 30
0.0
 10
7.306811359320524
 20
22.673642987463
 30
0.0
 10
5.480768619446057
 20
22.62388604477241
 30
0.0
 10
3.65400579743795
 20
22.58340062612419
 30
0.0
 10
1.827103866361776
 20
22.5572579568342
 30
0.0
 10
0.6090326045641433
 20
22.55076521203044
 30
0.0
 10
0.0
 20
22.55077611667902
 30
0.0
 10
-0.6090326045641433
 20
22.55076521203044
 30
0.0
 10
-1.827103866361776
 20
22.5572579568342
 30
0.0
 10
-3.65400579743795
 20
22.58340062612419
 30
0.0
 10
-5.480768619446057
 20
22.62388604477241
 30
0.0
 10
-7.306811359320524
 20
22.673642987463
 30
0.0
 10
-8.524662564569176
 20
22.73169298158541
 30
0.0
 10
-9.132127881158729
 20
22.72776300704226
 30
0.0
  0
SPLINE
  5
98
330
1F
100
AcDbEntity
  8
0
370
    -3
100
AcDbSpline
210
0.0
220
0.0
230
1.0
 70
     8
 71
     3
 72
    19
 73
    15
 74
     0
 42
0.000000001
 43
0.0000000001
 40
0.0
 40
0.0
 40
0.0
 40
0.0
 40
1.0
 40
2.0
 40
3.0
 40
4.0
 40
5.0
 40
5.0
 40
5.0
 40
6.0
 40
7.0
 40
8.0
 40
9.0
 40
10.0
 40
10.0
 40
10.0
 40
10.0
 10
9.140878219276013
 20
23.82923866016895
 30
0.0
 10
8.532283342667348
 20
23.83485265036582
 30
0.0
 10
7.313376488707466
 20
23.78287872457324
 30
0.0
 10
5.485669222800372
 20
23.73001317181111
 30
0.0
 10
3.657336300086607
 20
23.68621745426279
 30
0.0
 10
1.828767237590336
 20
23.65935818634992
 30
0.0
 10
0.6095884856924398
 20
23.65267399347645
 30
0.0
 10
0.0
 20
23.65265614521453
 30
0.0
 10
-0.6095884856924398
 20
23.65267399347645
 30
0.0
 10
-1.828767237590336
 20
23.65935818634992
 30
0.0
 10
-3.657336300086607
 20
23.68621745426279
 30
0.0
 10
-5.485669222800372
 20
23.73001317181111
 30
0.0
 10
-7.313376488707466
 20
23.78287872457324
 30
0.0
 10
-8.532283342667348
 20
23.83485265036582
 30
0.0
 10
-9.140878219276013
 20
23.82923866016895
 30
0.0
  0
SPLINE
  5
99
330
1F
100
AcDbEntity
  8
0
370
    -3
100
AcDbSpline
210
0.0
220
0.0
230
1.0
 70
    12
 71
     3
 72
    77
 73
    73
 74
     0
 42
0.000000001
 43
0.0000000001
 40
-23.16171615183329
 40
-23.16171615183329
 40
-23.16171615183329
 40
-23.16171615183329
 40
-23.0
 40
-23.0
 40
-23.0
 40
-22.0
 40
-21.0
 40
-20.0
 40
-19.0
 40
-18.0
 40
-18.0
 40
-18.0
 40
-17.0
 40
-16.0
 40
-15.0
 40
-15.0
 40
-15.0
 40
-14.0
 40
-13.0
 40
-12.0
 40
-12.0
 40
-12.0
 40
-11.0
 40
-10.0
 40
-9.0
 40
-8.0
 40
-7.0
 40
-6.0
 40
-5.0
 40
-5.0
 40
-5.0
 40
-4.0
 40
-3.0
 40
-2.0
 40
-1.0
 40
0.0
 40
0.0
 40
0.0
 40
1.0
 40
2.0
 40
3.0
 40
4.0
 40
5.0
 40
5.0
 40
5.0
 40
6.0
 40
7.0
 40
8.0
 40
9.0
 40
10.0
 40
11.0
 40
12.0
 40
12.0
 40
12.0
 40
13.0
 40
14.0
 40
15.0
 40
15.0
 40
15.0
 40
16.0
 40
17.0
 40
18.0
 40
18.0
 40
18.0
 40
19.0
 40
20.0
 40
21.0
 40
22.0
 40
23.0
 40
23.0
 40
23.0
 40
23.16171615183329
 40
23.16171615183329
 40
23.16171615183329
 40
23.16171615183329
 10
-7.617187235645086
 20
22.11211480085485
 30
0.0
 41
1.0
 10
-7.638229473237436
 20
22.05860597996594
 30
0.0
 41
0.8810929905863786
 10
-7.686019035980882
 20
22.02663525322093
 30
0.0
 41
0.8810929905863786
 10
-7.743508381914401
 20
22.02760725113789
 30
0.0
 41
1.0
 10
-7.795671334043422
 20
22.02848919334804
 30
0.0
 41
1.0
 10
-7.896664387900712
 20
22.05451159120463
 30
0.0
 41
1.0
 10
-8.044388853200108
 20
22.10307950613425
 30
0.0
 41
1.0
 10
-8.191317504476155
 20
22.15457301377985
 30
0.0
 41
1.0
 10
-8.338849563867948
 20
22.20414005278138
 30
0.0
 41
1.0
 10
-8.436952871380358
 20
22.23771444250644
 30
0.0
 41
1.0
 10
-8.486436093624329
 20
22.25330617089203
 30
0.0
 41
1.0
 10
-8.573294555460777
 20
22.28067450875545
 30
0.0
 41
1.0
 10
-8.742696680953305
 20
22.34992772771464
 30
0.0
 41
1.0
 10
-8.969435066687723
 20
22.50618777669438
 30
0.0
 41
1.0
 10
-9.086567923831115
 20
22.64837627005964
 30
0.0
 41
1.0
 10
-9.132127881158729
 20
22.72776300704226
 30
0.0
 41
1.0
 10
-9.16400258930971
 20
22.84712059608172
 30
0.0
 41
1.0
 10
-9.205007775594755
 20
23.09167393617221
 30
0.0
 41
1.0
 10
-9.205296910957344
 20
23.46336024349352
 30
0.0
 41
1.0
 10
-9.168447795987454
 20
23.70830824127914
 30
0.0
 41
1.0
 10
-9.140878219276013
 20
23.82923866016895
 30
0.0
 41
1.0
 10
-9.001550702389494
 20
23.96988728022587
 30
0.0
 41
1.0
 10
-8.636883589145846
 20
24.12990653784036
 30
0.0
 41
1.0
 10
-8.06703808151785
 20
24.26972537140723
 30
0.0
 41
1.0
 10
-7.485275119187667
 20
24.35549511112989
 30
0.0
 41
1.0
 10
-6.900153756003215
 20
24.40601450585
 30
0.0
 41
1.0
 10
-6.313585133284692
 20
24.43586169164733
 30
0.0
 41
1.0
 10
-5.726587764251439
 20
24.45343101517432
 30
0.0
 41
1.0
 10
-5.335182936649389
 20
24.46217381752239
 30
0.0
 41
1.0
 10
-5.139473441097723
 20
24.46618107019174
 30
0.0
 41
1.0
 10
-4.796905676384293
 20
24.47319532152232
 30
0.0
 41
1.0
 10
-4.111622091027471
 20
24.48431434208068
 30
0.0
 41
1.0
 10
-3.083742715930637
 20
24.49371044023157
 30
0.0
 41
1.0
 10
-2.055833893077828
 20
24.49830055522013
 30
0.0
 41
1.0
 10
-1.027917712592062
 20
24.50036360775885
 30
0.0
 41
1.0
 10
-0.3426392896104652
 20
24.50060280563238
 30
0.0
 41
1.0
 10
0.0
 20
24.50064121321292
 30
0.0
 41
1.0
 10
0.3426392896104652
 20
24.50060280563238
 30
0.0
 41
1.0
 10
1.027917712592062
 20
24.50036360775885
 30
0.0
 41
1.0
 10
2.055833893077828
 20
24.49830055522013
 30
0.0
 41
1.0
 10
3.083742715930637
 20
24.49371044023157
 30
0.0
 41
1.0
 10
4.111622091027471
 20
24.48431434208068
 30
0.0
 41
1.0
 10
4.796905676384293
 20
24.47319532152232
 30
0.0
 41
1.0
 10
5.139473441097723
 20
24.46618107019174
 30
0.0
 41
1.0
 10
5.335182936649389
 20
24.46217381752239
 30
0.0
 41
1.0
 10
5.726587764251439
 20
24.45343101517432
 30
0.0
 41
1.0
 10
6.313585133284692
 20
24.43586169164733
 30
0.0
 41
1.0
 10
6.900153756003215
 20
24.40601450585
 30
0.0
 41
1.0
 10
7.485275119187667
 20
24.35549511112989
 30
0.0
 41
1.0
 10
8.06703808151785
 20
24.26972537140723
 30
0.0
 41
1.0
 10
8.636883589145846
 20
24.12990653784036
 30
0.0
 41
1.0
 10
9.001550702389494
 20
23.96988728022587
 30
0.0
 41
1.0
 10
9.140878219276013
 20
23.82923866016895
 30
0.0
 41
1.0
 10
9.168447795987454
 20
23.70830824127914
 30
0.0
 41
1.0
 10
9.205296910957344
 20
23.46336024349352
 30
0.0
 41
1.0
 10
9.205007775594755
 20
23.09167393617221
 30
0.0
 41
1.0
 10
9.16400258930971
 20
22.84712059608172
 30
0.0
 41
1.0
 10
9.132127881158729
 20
22.72776300704226
 30
0.0
 41
1.0
 10
9.086567923831115
 20
22.64837627005964
 30
0.0
 41
1.0
 10
8.969435066687723
 20
22.50618777669438
 30
0.0
 41
1.0
 10
8.742696680953305
 20
22.34992772771464
 30
0.0
 41
1.0
 10
8.573294555460777
 20
22.28067450875545
 30
0.0
 41
1.0
 10
8.486436093624329
 20
22.25330617089203
 30
0.0
 41
1.0
 10
8.436952871380358
 20
22.23771444250644
 30
0.0
 41
1.0
 10
8.338849563867948
 20
22.20414005278138
 30
0.0
 41
1.0
 10
8.191317504476155
 20
22.15457301377985
 30
0.0
 41
1.0
 10
8.044388853200108
 20
22.10307950613425
 30
0.0
 41
1.0
 10
7.896664387900712
 20
22.05451159120463
 30
0.0
 41
1.0
 10
7.795671334043422
 20
22.02848919334804
 30
0.0
 41
1.0
 10
7.743508381914401
 20
22.02760725113789
 30
0.0
 41
1.0
 10
7.686019035980882
 20
22.02663525322092
 30
0.0
 41
0.8810929905863786
 10
7.638229473237436
 20
22.05860597996594
 30
0.0
 41
0.8810929905863786
 10
7.617187235645086
 20
22.11211480085485
 30
0.0
 41
1.0
  0
SPLINE
  5
9A
330
1F
100
AcDbEntity
  8
0
370
    -3
100
AcDbSpline
210
0.0
220
0.0
230
1.0
 70
     8
 71
     3
 72
    11
 73
     7
 74
     0
 42
0.000000001
 43
0.0000000001
 40
-1.0
 40
-1.0
 40
-1.0
 40
-1.0
 40
0.0
 40
0.0
 40
0.0
 40
1.0
 40
1.0
 40
1.0
 40
1.0
 10
-2.500137202010034
 20
29.65097954876148
 30
0.0
 10
-1.666430818155287
 20
29.64367372167757
 30
0.0
 10
-0.8304250933667199
 20
29.65226463086753
 30
0.0
 10
0.0
 20
29.56867486649923
 30
0.0
 10
0.8304250933667199
 20
29.65226463086753
 30
0.0
 10
1.666430818155287
 20
29.64367372167757
 30
0.0
 10
2.500137202010034
 20
29.65097954876148
 30
0.0
  0
SPLINE
  5
9B
330
1F
100
AcDbEntity
  8
0
370
    -3
100
AcDbSpline
210
0.0
220
0.0
230
1.0
 70
    12
 71
     3
 72
    37
 73
    33
 74
     0
 42
0.000000001
 43
0.0000000001
 40
-7.373750427422864
 40
-7.373750427422864
 40
-7.373750427422864
 40
-7.373750427422864
 40
-6.373750427422864
 40
-5.373750427422864
 40
-4.373750427422864
 40
-4.373750427422864
 40
-4.373750427422864
 40
-4.0
 40
-4.0
 40
-4.0
 40
-3.0
 40
-3.0
 40
-3.0
 40
-2.0
 40
-1.0
 40
0.0
 40
0.0
 40
0.0
 40
1.0
 40
2.0
 40
3.0
 40
3.0
 40
3.0
 40
4.0
 40
4.0
 40
4.0
 40
4.373750427422864
 40
4.373750427422864
 40
4.373750427422864
 40
5.373750427422864
 40
6.373750427422864
 40
7.373750427422864
 40
7.373750427422864
 40
7.373750427422864
 40
7.373750427422864
 10
-8.452755832731883
 20
24.16837682640621
 30
0.0
 41
1.0
 10
-8.371693466829889
 20
25.11273552246143
 30
0.0
 41
1.0
 10
-8.309797290404745
 20
27.00787192931935
 30
0.0
 41
1.0
 10
-8.181355921274271
 20
29.84819273137526
 30
0.0
 41
1.0
 10
-8.095713811159408
 20
31.74190998771269
 30
0.0
 41
1.0
 10
-8.0518179361693
 20
32.68868543374724
 30
0.0
 41
1.0
 10
-8.035411833635944
 20
33.04254317202403
 30
0.0
 41
0.9999999398181488
 10
-8.018855376125808
 20
33.39639390729727
 30
0.0
 41
0.9999999398181488
 10
-8.002148566628081
 20
33.75023757568079
 30
0.0
 41
1.0
 10
-7.947383856520197
 20
34.91013264272811
 30
0.0
 41
1.0
 10
-7.325539936380809
 20
35.57858545992185
 30
0.0
 41
1.0
 10
-6.178706093786027
 20
35.62838431198804
 30
0.0
 41
1.0
 10
-5.492701139255881
 20
35.65817263700818
 30
0.0
 41
1.0
 10
-4.119709080216545
 20
35.69561479863302
 30
0.0
 41
1.0
 10
-2.060116830950647
 20
35.74223991049166
 30
0.0
 41
1.0
 10
-0.6867138676184086
 20
35.7563371646139
 30
0.0
 41
1.0
 10
0.0
 20
35.75650541006225
 30
0.0
 41
1.0
 10
0.6867138676184086
 20
35.7563371646139
 30
0.0
 41
1.0
 10
2.060116830950647
 20
35.74223991049166
 30
0.0
 41
1.0
 10
4.119709080216545
 20
35.69561479863302
 30
0.0
 41
1.0
 10
5.492701139255881
 20
35.65817263700818
 30
0.0
 41
1.0
 10
6.178706093786027
 20
35.62838431198804
 30
0.0
 41
1.0
 10
7.325539936380809
 20
35.57858545992185
 30
0.0
 41
1.0
 10
7.947383856520197
 20
34.91013264272811
 30
0.0
 41
1.0
 10
8.002148566628081
 20
33.75023757568079
 30
0.0
 41
1.0
 10
8.018855376125806
 20
33.39639390729727
 30
0.0
 41
0.9999999398181488
 10
8.035411833635944
 20
33.04254317202403
 30
0.0
 41
0.9999999398181488
 10
8.0518179361693
 20
32.68868543374724
 30
0.0
 41
1.0
 10
8.095713811159408
 20
31.74190998771269
 30
0.0
 41
1.0
 10
8.181355921274271
 20
29.84819273137526
 30
0.0
 41
1.0
 10
8.309797290404745
 20
27.00787192931935
 30
0.0
 41
1.0
 10
8.371693466829889
 20
25.11273552246143
 30
0.0
 41
1.0
 10
8.452755832731883
 20
24.16837682640621
 30
0.0
 41
1.0
  0
SPLINE
  5
9C
330
1F
100
AcDbEntity
  8
0
370
    -3
100
AcDbSpline
210
0.0
220
0.0
230
1.0
 70
    12
 71
     2
 72
    10
 73
     7
 74
     0
 42
0.000000001
 43
0.0000000001
 40
4.248766736126397
 40
4.248766736126397
 40
4.248766736126397
 40
6.765377920520597
 40
6.765377920520597
 40
7.913069793927575
 40
7.913069793927575
 40
16.30362364831284
 40
16.30362364831284
 40
16.30362364831284
 10
-3.087836844825521
 20
16.46539148532409
 30
0.0
 41
1.0
 10
-3.97759326187307
 20
16.4428765792365
 30
0.0
 41
1.0
 10
-4.86734967892062
 20
16.42036167314891
 30
0.0
 41
1.0
 10
-5.343413302281072
 20
16.4083150865032
 30
0.0
 41
0.7925457558248631
 10
-5.4654082001193
 20
15.75466179993447
 30
0.0
 41
1.0
 10
-6.225598468536186
 20
11.68153352845064
 30
0.0
 41
1.0
 10
-6.98578873695307
 20
7.608405256966803
 30
0.0
 41
1.0
  0
SPLINE
  5
9D
330
1F
100
AcDbEntity
  8
0
370
    -3
100
AcDbSpline
210
0.0
220
0.0
230
1.0
 70
    12
 71
     3
 72
    11
 73
     7
 74
     0
 42
0.000000001
 43
0.0000000001
 40
0.5759340830695828
 40
0.5759340830695828
 40
0.5759340830695828
 40
0.5759340830695828
 40
1.079045096615833
 40
1.079045096615833
 40
1.079045096615833
 40
3.787140823995593
 40
3.787140823995593
 40
3.787140823995593
 40
3.787140823995593
 10
-4.170260407205015
 20
18.09454739076168
 30
0.0
 41
1.0
 10
-4.23301574248473
 20
18.22212280483797
 30
0.0
 41
1.0
 10
-4.260362273194884
 20
18.38743655029135
 30
0.0
 41
1.0
 10
-4.240964476492655
 20
18.55042265570117
 30
0.0
 41
1.0
 10
-4.133771984883687
 20
19.44288664369201
 30
0.0
 41
1.0
 10
-4.026579493274719
 20
20.33535063168284
 30
0.0
 41
1.0
 10
-3.91938700166575
 20
21.22781461967367
 30
0.0
 41
1.0
  0
SPLINE
  5
9E
330
1F
100
AcDbEntity
  8
0
370
    -3
100
AcDbSpline
210
0.0
220
0.0
230
1.0
 70
    12
 71
     2
 72
     8
 73
     5
 74
     0
 42
0.000000001
 43
0.0000000001
 40
0.2235433712045844
 40
0.2235433712045844
 40
0.2235433712045844
 40
3.048477902209381
 40
3.048477902209381
 40
3.531887522957095
 40
3.531887522957095
 40
3.531887522957095
 10
-4.648341599967187
 20
21.37387167614552
 30
0.0
 41
0.9999999996107469
 10
-4.816038690186851
 20
19.97765917879438
 30
0.0
 41
0.9999999996107469
 10
-4.983735780406514
 20
18.58144668144323
 30
0.0
 41
0.9999999996107469
 10
-5.013691889175458
 20
18.33203810024791
 30
0.0
 41
0.9280491959783834
 10
-4.927174168191255
 20
18.11363809276461
 30
0.0
 41
0.9673375375331764
  0
SPLINE
  5
9F
330
1F
100
AcDbEntity
  8
0
370
    -3
100
AcDbSpline
210
0.0
220
0.0
230
1.0
 70
     8
 71
     3
 72
     8
 73
     4
 74
     0
 42
0.000000001
 43
0.0000000001
 40
0.0
 40
0.0
 40
0.0
 40
0.0
 40
1.0
 40
1.0
 40
1.0
 40
1.0
 10
-7.829284311189001
 20
22.18209994468234
 30
0.0
 10
-7.719217048926533
 20
22.13376244625928
 30
0.0
 10
-7.600823632192547
 20
22.11044534539803
 30
0.0
 10
-7.48635198373748
 20
22.075460674034
 30
0.0
  0
SPLINE
  5
A0
330
1F
100
AcDbEntity
  8
0
370
    -3
100
AcDbSpline
210
0.0
220
0.0
230
1.0
 70
    28
 71
     2
 72
     6
 73
     3
 74
     0
 42
0.000000001
 43
0.0000000001
 40
0.858983217368334
 40
0.858983217368334
 40
0.858983217368334
 40
4.293510425559992
 40
4.293510425559992
 40
4.293510425559992
 10
-5.299783342340505
 20
21.51719705715472
 30
0.0
 41
0.8535748739980054
 10
-5.586765909693836
 20
19.84185431255285
 30
0.0
 41
0.8535748739980054
 10
-5.873748477047166
 20
18.16651156795097
 30
0.0
 41
0.8535748739980054
  0
SPLINE
  5
A1
330
1F
100
AcDbEntity
  8
0
370
    -3
100
AcDbSpline
210
0.0
220
0.0
230
1.0
 70
    28
 71
     2
 72
     6
 73
     3
 74
     0
 42
0.000000001
 43
0.0000000001
 40
6.644846542832986
 40
6.644846542832986
 40
6.644846542832986
 40
11.8569999121912
 40
11.8569999121912
 40
11.8569999121912
 10
-7.556421648865261
 20
0.5388396542191977
 30
0.0
 41
0.8535854487995107
 10
-7.08419677102669
 20
3.069038448300706
 30
0.0
 41
0.8535854487995107
 10
-6.611971893188116
 20
5.599237242382215
 30
0.0
 41
0.8535854487995107
  0
SPLINE
  5
A2
330
1F
100
AcDbEntity
  8
0
370
    -3
100
AcDbSpline
210
0.0
220
0.0
230
1.0
 70
    28
 71
     2
 72
     6
 73
     3
 74
     0
 42
0.000000001
 43
0.0000000001
 40
19.97917183331582
 40
19.97917183331582
 40
19.97917183331582
 40
22.94907842016394
 40
22.94907842016394
 40
22.94907842016394
 10
-6.500723546458429
 20
13.61787319024803
 30
0.0
 41
1.000000000000001
 10
-6.252563795369423
 20
15.06657665096134
 30
0.0
 41
1.000000000000001
 10
-6.004404044280418
 20
16.51528011167466
 30
0.0
 41
1.000000000000001
  0
SPLINE
  5
A3
330
1F
100
AcDbEntity
  8
0
370
    -3
100
AcDbSpline
210
0.0
220
0.0
230
1.0
 70
    12
 71
     2
 72
     6
 73
     3
 74
     0
 42
0.000000001
 43
0.0000000001
 40
0.0715694717906845
 40
0.0715694717906845
 40
0.0715694717906845
 40
0.1056030977245731
 40
0.1056030977245731
 40
0.1056030977245731
 10
-5.825058980424862
 20
16.56149527490574
 30
0.0
 41
1.0
 10
-5.834548195736228
 20
16.5617353954454
 30
0.0
 41
0.9932222370025563
 10
-5.844031336843988
 20
16.56149542860959
 30
0.0
 41
0.9868062475735371
  0
SPLINE
  5
A4
330
1F
100
AcDbEntity
  8
0
370
    -3
100
AcDbSpline
210
0.0
220
0.0
230
1.0
 70
     8
 71
     3
 72
    15
 73
    11
 74
     0
 42
0.000000001
 43
0.0000000001
 40
-0.5679356782268045
 40
-0.5679356782268045
 40
-0.5679356782268045
 40
-0.5679356782268045
 40
-0.0000000000000431
 40
-0.0000000000000431
 40
-0.0000000000000431
 40
0.9999999999999568
 40
1.999999999999957
 40
2.999999999999956
 40
3.999999999999956
 40
4.999999999999956
 40
4.999999999999956
 40
4.999999999999956
 40
4.999999999999956
 10
6.73624339368372
 20
5.601496092735252
 30
0.0
 10
6.770560046646739
 20
5.417699935224673
 30
0.0
 10
6.804876699609754
 20
5.233903777714093
 30
0.0
 10
6.839193352572773
 20
5.050107620203514
 30
0.0
 10
6.84640252000177
 20
5.011384278770327
 30
0.0
 10
6.874009695951562
 20
4.936330037179699
 30
0.0
 10
6.948378957847792
 20
4.843138886123699
 30
0.0
 10
7.065979807389437
 20
4.791985838938944
 30
0.0
 10
7.177077195099599
 20
4.860877880797329
 30
0.0
 10
7.195144520374769
 20
4.942555770120412
 30
0.0
 10
7.197843426742247
 20
4.981298544554791
 30
0.0
  0
SPLINE
  5
A5
330
1F
100
AcDbEntity
  8
0
370
    -3
100
AcDbSpline
210
0.0
220
0.0
230
1.0
 70
     8
 71
     3
 72
    18
 73
    14
 74
     0
 42
0.000000001
 43
0.0000000001
 40
-0.1534350406768314
 40
-0.1534350406768314
 40
-0.1534350406768314
 40
-0.1534350406768314
 40
0.0
 40
0.0
 40
0.0
 40
1.0
 40
2.0
 40
3.0
 40
4.0
 40
5.0
 40
5.0
 40
5.0
 40
5.144180069994871
 40
5.144180069994871
 40
5.144180069994871
 40
5.144180069994871
 10
6.948406448945923
 20
6.367018368501068
 30
0.0
 10
6.939135369059355
 20
6.416673236094401
 30
0.0
 10
6.929864289172788
 20
6.466328103687734
 30
0.0
 10
6.920593209286222
 20
6.515982971281067
 30
0.0
 10
6.912437870315754
 20
6.559981746782736
 30
0.0
 10
6.879229021771772
 20
6.643642144930457
 30
0.0
 10
6.787698704585503
 20
6.746893407583658
 30
0.0
 10
6.638569165300145
 20
6.767079264230416
 30
0.0
 10
6.556455077370282
 20
6.641273363097829
 30
0.0
 10
6.559521077405881
 20
6.551050457057903
 30
0.0
 10
6.567163294329907
 20
6.507070205869992
 30
0.0
 10
6.575875156633832
 20
6.460410445142505
 30
0.0
 10
6.584587018937756
 20
6.413750684415018
 30
0.0
 10
6.593298881241681
 20
6.367090923687533
 30
0.0
  0
SPLINE
  5
A6
330
1F
100
AcDbEntity
  8
0
370
    -3
100
AcDbSpline
210
0.0
220
0.0
230
1.0
 70
    12
 71
     2
 72
    10
 73
     7
 74
     0
 42
0.000000001
 43
0.0000000001
 40
4.248766736126397
 40
4.248766736126397
 40
4.248766736126397
 40
6.765377920520597
 40
6.765377920520597
 40
7.913069793927575
 40
7.913069793927575
 40
16.30362364831284
 40
16.30362364831284
 40
16.30362364831284
 10
3.087836844825521
 20
16.46539148532409
 30
0.0
 41
1.0
 10
3.97759326187307
 20
16.4428765792365
 30
0.0
 41
1.0
 10
4.86734967892062
 20
16.42036167314891
 30
0.0
 41
1.0
 10
5.343413302281072
 20
16.4083150865032
 30
0.0
 41
0.7925457558248631
 10
5.4654082001193
 20
15.75466179993447
 30
0.0
 41
1.0
 10
6.225598468536186
 20
11.68153352845064
 30
0.0
 41
1.0
 10
6.98578873695307
 20
7.608405256966803
 30
0.0
 41
1.0
  0
SPLINE
  5
A7
330
1F
100
AcDbEntity
  8
0
370
    -3
100
AcDbSpline
210
0.0
220
0.0
230
1.0
 70
    12
 71
     3
 72
    11
 73
     7
 74
     0
 42
0.000000001
 43
0.0000000001
 40
0.5759340830695828
 40
0.5759340830695828
 40
0.5759340830695828
 40
0.5759340830695828
 40
1.079045096615833
 40
1.079045096615833
 40
1.079045096615833
 40
3.787140823995593
 40
3.787140823995593
 40
3.787140823995593
 40
3.787140823995593
 10
4.170260407205015
 20
18.09454739076168
 30
0.0
 41
1.0
 10
4.23301574248473
 20
18.22212280483797
 30
0.0
 41
1.0
 10
4.260362273194884
 20
18.38743655029135
 30
0.0
 41
1.0
 10
4.240964476492655
 20
18.55042265570117
 30
0.0
 41
1.0
 10
4.133771984883687
 20
19.44288664369201
 30
0.0
 41
1.0
 10
4.026579493274719
 20
20.33535063168284
 30
0.0
 41
1.0
 10
3.91938700166575
 20
21.22781461967367
 30
0.0
 41
1.0
  0
SPLINE
  5
A8
330
1F
100
AcDbEntity
  8
0
370
    -3
100
AcDbSpline
210
0.0
220
0.0
230
1.0
 70
    12
 71
     2
 72
     8
 73
     5
 74
     0
 42
0.000000001
 43
0.0000000001
 40
0.2235433712045844
 40
0.2235433712045844
 40
0.2235433712045844
 40
3.048477902209381
 40
3.048477902209381
 40
3.531887522957095
 40
3.531887522957095
 40
3.531887522957095
 10
4.648341599967187
 20
21.37387167614552
 30
0.0
 41
0.9999999996107469
 10
4.816038690186851
 20
19.97765917879438
 30
0.0
 41
0.9999999996107469
 10
4.983735780406514
 20
18.58144668144323
 30
0.0
 41
0.9999999996107469
 10
5.013691889175458
 20
18.33203810024791
 30
0.0
 41
0.9280491959783834
 10
4.927174168191255
 20
18.11363809276461
 30
0.0
 41
0.9673375375331764
  0
POLYLINE
  5
A9
330
1F
100
AcDbEntity
  8
0
100
AcDb2dPolyline
 66
     1
 10
0.0
 20
0.0
 30
0.0
  0
VERTEX
  5
AA
330
A9
100
AcDbEntity
  8
0
100
AcDbVertex
100
AcDb2dVertex
 10
0.0000000000053539
 20
31.34205889084808
 30
0.0
  0
VERTEX
  5
AB
330
A9
100
AcDbEntity
  8
0
100
AcDbVertex
100
AcDb2dVertex
 10
-0.0000000000162466
 20
27.92888353987884
 30
0.0
  0
SEQEND
  5
AC
330
A9
100
AcDbEntity
  8
0
  0
SPLINE
  5
AD
330
1F
100
AcDbEntity
  8
0
370
    -3
100
AcDbSpline
210
0.0
220
0.0
230
1.0
 70
     8
 71
     3
 72
     8
 73
     4
 74
     0
 42
0.000000001
 43
0.0000000001
 40
0.0
 40
0.0
 40
0.0
 40
0.0
 40
1.0
 40
1.0
 40
1.0
 40
1.0
 10
7.829284311189001
 20
22.18209994468234
 30
0.0
 10
7.719217048926533
 20
22.13376244625928
 30
0.0
 10
7.600823632192547
 20
22.11044534539803
 30
0.0
 10
7.48635198373748
 20
22.075460674034
 30
0.0
  0
SPLINE
  5
AE
330
1F
100
AcDbEntity
  8
0
370
    -3
100
AcDbSpline
210
0.0
220
0.0
230
1.0
 70
     8
 71
     3
 72
     8
 73
     4
 74
     0
 42
0.000000001
 43
0.0000000001
 40
0.008383713109811
 40
0.008383713109811
 40
0.008383713109811
 40
0.008383713109811
 40
0.0737762233533894
 40
0.0737762233533894
 40
0.0737762233533894
 40
0.0737762233533894
 10
23.08389163193796
 20
32.1395017192464
 30
0.0
 10
23.08254041608693
 20
32.13975622650982
 30
0.0
 10
23.0822406825429
 20
32.13983813400561
 30
0.0
 10
23.08224360520021
 20
32.13984802778443
 30
0.0
  0
SPLINE
  5
AF
330
1F
100
AcDbEntity
  8
0
370
    -3
100
AcDbSpline
210
0.0
220
0.0
230
1.0
 70
     8
 71
     3
 72
     8
 73
     4
 74
     0
 42
0.000000001
 43
0.0000000001
 40
-1.648757448475123
 40
-1.648757448475123
 40
-1.648757448475123
 40
-1.648757448475123
 40
-1.635569528945595
 40
-1.635569528945595
 40
-1.635569528945595
 40
-1.635569528945595
 10
38.83875970529071
 20
22.20569718981577
 30
0.0
 10
38.84119662897773
 20
22.20633511609905
 30
0.0
 10
38.84356885413367
 20
22.206969463665
 30
0.0
 10
38.84587572262058
 20
22.20760000168995
 30
0.0
  0
SPLINE
  5
B0
330
1F
100
AcDbEntity
  8
0
370
    -3
100
AcDbSpline
210
0.0
220
0.0
230
1.0
 70
     8
 71
     3
 72
     8
 73
     4
 74
     0
 42
0.000000001
 43
0.0000000001
 40
1.301475556434759
 40
1.301475556434759
 40
1.301475556434759
 40
1.301475556434759
 40
1.324486180041336
 40
1.324486180041336
 40
1.324486180041336
 40
1.324486180041336
 10
38.95237740763292
 20
22.21113943621596
 30
0.0
 10
38.95306157808923
 20
22.21095868715123
 30
0.0
 10
38.95342265012987
 20
22.21085882325946
 30
0.0
 10
38.95342319735007
 20
22.21086052124453
 30
0.0
  0
SPLINE
  5
B1
330
1F
100
AcDbEntity
  8
0
370
    -3
100
AcDbSpline
210
0.0
220
0.0
230
1.0
 70
    12
 71
     2
 72
     6
 73
     3
 74
     0
 42
0.000000001
 43
0.0000000001
 40
-0.0237737756344066
 40
-0.0237737756344066
 40
-0.0237737756344066
 40
-0.0135601638895925
 40
-0.0135601638895925
 40
-0.0135601638895925
 10
38.68711751412022
 20
22.20440335186759
 30
0.0
 41
0.9308145873009587
 10
38.68688867098051
 20
22.20395422191748
 30
0.0
 41
0.9431909566435818
 10
38.68664884159958
 20
22.20394857450399
 30
0.0
 41
0.9577027239443547
  0
SPLINE
  5
B2
330
1F
100
AcDbEntity
  8
0
370
    -3
100
AcDbSpline
210
0.0
220
0.0
230
1.0
 70
    12
 71
     2
 72
     6
 73
     3
 74
     0
 42
0.000000001
 43
0.0000000001
 40
-0.0148743258475178
 40
-0.0148743258475178
 40
-0.0148743258475178
 40
0.0
 40
0.0
 40
0.0
 10
38.42002761886849
 20
22.1977446964963
 30
0.0
 41
0.9543265327257009
 10
38.41969761507261
 20
22.19773715413244
 30
0.0
 41
0.9749425628397597
 10
38.41935143090949
 20
22.19858963613067
 30
0.0
 41
1.0
  0
SPLINE
  5
B3
330
1F
100
AcDbEntity
  8
0
370
    -3
100
AcDbSpline
210
0.0
220
0.0
230
1.0
 70
     8
 71
     3
 72
     8
 73
     4
 74
     0
 42
0.000000001
 43
0.0000000001
 40
0.0
 40
0.0
 40
0.0
 40
0.0
 40
0.0015421722990985
 40
0.0015421722990985
 40
0.0015421722990985
 40
0.0015421722990985
 10
23.08125179571482
 20
32.14001192872616
 30
0.0
 10
23.08162089017623
 20
32.13993703815073
 30
0.0
 10
23.08195016956986
 20
32.13987118316611
 30
0.0
 10
23.08224056952157
 20
32.13981380406716
 30
0.0
  0
SPLINE
  5
B4
330
1F
100
AcDbEntity
  8
0
370
    -3
100
AcDbSpline
210
0.0
220
0.0
230
1.0
 70
     8
 71
     3
 72
     8
 73
     4
 74
     0
 42
0.000000001
 43
0.0000000001
 40
2.176925821837618
 40
2.176925821837618
 40
2.176925821837618
 40
2.176925821837618
 40
2.499853960905439
 40
2.499853960905439
 40
2.499853960905439
 40
2.499853960905439
 10
25.9610930647229
 20
31.34668374841437
 30
0.0
 10
25.96111236069028
 20
31.34668769013009
 30
0.0
 10
25.96073314076109
 20
31.34659883336976
 30
0.0
 10
25.95984826154337
 20
31.34639242022982
 30
0.0
  0
SPLINE
  5
B5
330
1F
100
AcDbEntity
  8
0
370
    -3
100
AcDbSpline
210
0.0
220
0.0
230
1.0
 70
    28
 71
     2
 72
     6
 73
     3
 74
     0
 42
0.000000001
 43
0.0000000001
 40
0.0
 40
0.0
 40
0.0
 40
1.440755831194357
 40
1.440755831194357
 40
1.440755831194357
 10
6.791019230425899
 20
5.952496784133628
 30
0.0
 41
0.860204406966218
 10
6.81949998054404
 20
5.972349235949244
 30
0.0
 41
0.860204406966218
 10
6.847980730662184
 20
5.99220168776486
 30
0.0
 41
0.860204406966218
  0
SPLINE
  5
B6
330
1F
100
AcDbEntity
  8
0
370
    -3
100
AcDbSpline
210
0.0
220
0.0
230
1.0
 70
    28
 71
     2
 72
     6
 73
     3
 74
     0
 42
0.000000001
 43
0.0000000001
 40
0.858983217368334
 40
0.858983217368334
 40
0.858983217368334
 40
4.293510425559992
 40
4.293510425559992
 40
4.293510425559992
 10
5.299783342340505
 20
21.51719705715472
 30
0.0
 41
0.8535748739980054
 10
5.586765909693836
 20
19.84185431255285
 30
0.0
 41
0.8535748739980054
 10
5.873748477047166
 20
18.16651156795097
 30
0.0
 41
0.8535748739980054
  0
SPLINE
  5
B7
330
1F
100
AcDbEntity
  8
0
370
    -3
100
AcDbSpline
210
0.0
220
0.0
230
1.0
 70
    24
 71
     2
 72
     6
 73
     3
 74
     0
 42
0.000000001
 43
0.0000000001
 40
-1.490421653205644
 40
-1.490421653205644
 40
-1.490421653205644
 40
-0.8478519167854501
 40
-0.8478519167854501
 40
-0.8478519167854501
 10
7.190762620730696
 20
5.068985801891893
 30
0.0
 10
7.132523166436911
 20
5.380909809348218
 30
0.0
 10
7.074283712143126
 20
5.692833816804542
 30
0.0
  0
SPLINE
  5
B8
330
1F
100
AcDbEntity
  8
0
370
    -3
100
AcDbSpline
210
0.0
220
0.0
230
1.0
 70
    28
 71
     2
 72
     6
 73
     3
 74
     0
 42
0.000000001
 43
0.0000000001
 40
6.644846542832986
 40
6.644846542832986
 40
6.644846542832986
 40
11.8569999121912
 40
11.8569999121912
 40
11.8569999121912
 10
7.556421648865261
 20
0.5388396542191977
 30
0.0
 41
0.8535854487995107
 10
7.08419677102669
 20
3.069038448300706
 30
0.0
 41
0.8535854487995107
 10
6.611971893188116
 20
5.599237242382215
 30
0.0
 41
0.8535854487995107
  0
SPLINE
  5
B9
330
1F
100
AcDbEntity
  8
0
370
    -3
100
AcDbSpline
210
0.0
220
0.0
230
1.0
 70
    28
 71
     2
 72
     6
 73
     3
 74
     0
 42
0.000000001
 43
0.0000000001
 40
19.97917183331582
 40
19.97917183331582
 40
19.97917183331582
 40
22.94907842016394
 40
22.94907842016394
 40
22.94907842016394
 10
6.500723546458429
 20
13.61787319024803
 30
0.0
 41
1.000000000000001
 10
6.252563795369423
 20
15.06657665096134
 30
0.0
 41
1.000000000000001
 10
6.004404044280418
 20
16.51528011167466
 30
0.0
 41
1.000000000000001
  0
SPLINE
  5
BA
330
1F
100
AcDbEntity
  8
0
370
    -3
100
AcDbSpline
210
0.0
220
0.0
230
1.0
 70
    12
 71
     2
 72
     6
 73
     3
 74
     0
 42
0.000000001
 43
0.0000000001
 40
0.0715694717906845
 40
0.0715694717906845
 40
0.0715694717906845
 40
0.1056030977245731
 40
0.1056030977245731
 40
0.1056030977245731
 10
5.825058980424862
 20
16.56149527490574
 30
0.0
 41
1.0
 10
5.834548195736228
 20
16.5617353954454
 30
0.0
 41
0.9932222370025563
 10
5.844031336843988
 20
16.56149542860959
 30
0.0
 41
0.9868062475735371
  0
SPLINE
  5
BB
330
1F
100
AcDbEntity
  8
0
370
    -3
100
AcDbSpline
210
0.0
220
0.0
230
1.0
 70
    28
 71
     2
 72
     6
 73
     3
 74
     0
 42
0.000000001
 43
0.0000000001
 40
12.24251740923229
 40
12.24251740923229
 40
12.24251740923229
 40
12.2615842417205
 40
12.2615842417205
 40
12.2615842417205
 10
6.542115563167161
 20
5.973530106381647
 30
0.0
 41
0.8535854487995107
 10
6.540388094306508
 20
5.982785950012852
 30
0.0
 41
0.8535854487995107
 10
6.538660625445856
 20
5.992041793644057
 30
0.0
 41
0.8535854487995107
  0
SPLINE
  5
BC
330
1F
100
AcDbEntity
  8
0
370
    -3
100
AcDbSpline
210
0.0
220
0.0
230
1.0
 70
    24
 71
     2
 72
     6
 73
     3
 74
     0
 42
0.000000001
 43
0.0000000001
 40
-0.9701991824947411
 40
-0.9701991824947411
 40
-0.9701991824947411
 40
-0.9527666339416654
 40
-0.9527666339416654
 40
-0.9527666339416654
 10
6.663324905174152
 20
5.992039366695586
 30
0.0
 10
6.664904908179487
 20
5.983577047204559
 30
0.0
 10
6.666484911184822
 20
5.975114727713532
 30
0.0
  0
SPLINE
  5
BD
330
1F
100
AcDbEntity
  8
0
370
    -3
100
AcDbSpline
210
0.0
220
0.0
230
1.0
 70
    28
 71
     2
 72
     6
 73
     3
 74
     0
 42
0.000000001
 43
0.0000000001
 40
0.0
 40
0.0
 40
0.0
 40
12.7968266857
 40
12.7968266857
 40
12.7968266857
 10
6.398647761129529
 20
5.597942946951762
 30
0.0
 41
0.9888587737173795
 10
0.0002344258538941
 20
5.598067510455526
 30
0.0
 41
0.9888587737173795
 10
-6.39817890942174
 20
5.598192073959292
 30
0.0
 41
0.9888587737173795
  0
SPLINE
  5
BE
330
1F
100
AcDbEntity
  8
0
370
    -3
100
AcDbSpline
210
0.0
220
0.0
230
1.0
 70
     8
 71
     3
 72
    44
 73
    40
 74
     0
 42
0.000000001
 43
0.0000000001
 40
0.0
 40
0.0
 40
0.0
 40
0.0
 40
1.0
 40
1.0
 40
1.0
 40
2.0
 40
2.0
 40
2.0
 40
3.0
 40
4.0
 40
5.0
 40
6.0
 40
6.0
 40
6.0
 40
7.0
 40
7.0
 40
7.0
 40
8.0
 40
8.0
 40
8.0
 40
9.0
 40
10.0
 40
10.0
 40
10.0
 40
11.0
 40
11.0
 40
11.0
 40
12.0
 40
12.0
 40
12.0
 40
13.0
 40
14.0
 40
15.0
 40
15.0
 40
15.0
 40
16.0
 40
16.0
 40
16.0
 40
17.0
 40
17.0
 40
17.0
 40
17.0
 10
22.75027938037261
 20
35.56767298999495
 30
0.0
 10
22.79369533341185
 20
35.51533040704626
 30
0.0
 10
22.83945812677072
 20
35.46514056312979
 30
0.0
 10
22.88756776044924
 20
35.41710345824551
 30
0.0
 10
22.92756130388434
 20
35.37717020800455
 30
0.0
 10
22.97624082502909
 20
35.30155736020946
 30
0.0
 10
22.99590002272118
 20
35.24859005250809
 30
0.0
 10
23.07652927551559
 20
35.03135257876254
 30
0.0
 10
23.20469157564378
 20
34.58589934006278
 30
0.0
 10
23.37360593902485
 20
33.9119566330278
 30
0.0
 10
23.52981242387018
 20
33.23489320578716
 30
0.0
 10
23.63545332108629
 20
32.78389820865986
 30
0.0
 10
23.68796914649448
 20
32.55832366837913
 30
0.0
 10
23.99139329297667
 20
31.25705371474483
 30
0.0
 10
24.29480349337263
 20
29.95578050779325
 30
0.0
 10
24.59819974768236
 20
28.65450404752438
 30
0.0
 10
24.90159600199209
 20
27.35322758725552
 30
0.0
 10
25.20499667906361
 20
26.05195215852743
 30
0.0
 10
25.50840177889691
 20
24.75067776134011
 30
0.0
 10
25.65525488109137
 20
24.12083936330997
 30
0.0
 10
26.3795337445402
 20
22.93300130105379
 30
0.0
 10
27.72097547122993
 20
22.58629910954954
 30
0.0
 10
28.36528550571628
 20
22.59399385302819
 30
0.0
 10
30.03333281318625
 20
22.61391469152866
 30
0.0
 10
31.70138011348206
 20
22.6338361318831
 30
0.0
 10
33.36942740660373
 20
22.65375817409151
 30
0.0
 10
35.0374746997254
 20
22.6736802162999
 30
0.0
 10
36.70552199414126
 20
22.69360214764079
 30
0.0
 10
38.37356928985131
 20
22.71352396811415
 30
0.0
 10
38.79280914539665
 20
22.71853103305706
 30
0.0
 10
39.63133435033475
 20
22.73003485206709
 30
0.0
 10
40.88900500471333
 20
22.73709927415226
 30
0.0
 10
41.72792106462715
 20
22.73108493865367
 30
0.0
 10
42.14616856629846
 20
22.69999144534343
 30
0.0
 10
42.19073813752502
 20
22.69667803962257
 30
0.0
 10
42.26288254170382
 20
22.68902672075895
 30
0.0
 10
42.30282831474334
 20
22.67197015818314
 30
0.0
 10
42.39195135532164
 20
22.63391525016907
 30
0.0
 10
42.47929731090203
 20
22.59149570794299
 30
0.0
 10
42.56730439540566
 20
22.55077572172567
 30
0.0
  0
SPLINE
  5
BF
330
1F
100
AcDbEntity
  8
0
370
    -3
100
AcDbSpline
210
0.0
220
0.0
230
1.0
 70
     8
 71
     3
 72
    38
 73
    34
 74
     0
 42
0.000000001
 43
0.0000000001
 40
-4.0
 40
-4.0
 40
-4.0
 40
-4.0
 40
-3.0
 40
-2.0
 40
-1.0
 40
0.0
 40
0.0
 40
0.0
 40
1.0
 40
1.0
 40
1.0
 40
2.0
 40
2.0
 40
2.0
 40
3.0
 40
4.0
 40
4.0
 40
4.0
 40
5.0
 40
5.0
 40
5.0
 40
6.0
 40
6.0
 40
6.0
 40
7.0
 40
8.0
 40
9.0
 40
9.0
 40
9.0
 40
10.0
 40
10.0
 40
10.0
 40
11.0
 40
11.0
 40
11.0
 40
11.0
 10
23.83641140463057
 20
35.75403224181994
 30
0.0
 10
24.06958717415136
 20
35.56140144607298
 30
0.0
 10
24.2333934587834
 20
34.94412460333201
 30
0.0
 10
24.42286745716842
 20
34.23639258500436
 30
0.0
 10
24.59122427601176
 20
33.52191210280789
 30
0.0
 10
24.70370011971524
 20
33.04599919350046
 30
0.0
 10
24.7592345555348
 20
32.80780696942996
 30
0.0
 10
25.06254784999243
 20
31.5068687834052
 30
0.0
 10
25.36591284329295
 20
30.20594253117277
 30
0.0
 10
25.66932953543637
 20
28.90502821273267
 30
0.0
 10
25.97274622757979
 20
27.60411389429258
 30
0.0
 10
26.27591021916129
 20
26.30314128599954
 30
0.0
 10
26.57882151018086
 20
25.00211038785356
 30
0.0
 10
26.67022203568939
 20
24.6095370130113
 30
0.0
 10
27.12267021113692
 20
23.87914546106349
 30
0.0
 10
27.95291571686273
 20
23.68935197360063
 30
0.0
 10
28.35569547417004
 20
23.69386046282442
 30
0.0
 10
30.02319136504242
 20
23.71252547048267
 30
0.0
 10
31.69067247506654
 20
23.73248291586079
 30
0.0
 10
33.3581388042424
 20
23.75373279895879
 30
0.0
 10
35.02560513341826
 20
23.7749826820568
 30
0.0
 10
36.69308754437525
 20
23.79484047356762
 30
0.0
 10
38.36058603711335
 20
23.81330617349128
 30
0.0
 10
38.78110791238554
 20
23.81796298775163
 30
0.0
 10
39.62218817419194
 20
23.82927984100724
 30
0.0
 10
40.88368609943129
 20
23.8374950630075
 30
0.0
 10
41.72515751004802
 20
23.83404451497543
 30
0.0
 10
42.14479620740563
 20
23.80448191707445
 30
0.0
 10
42.19531784227662
 20
23.80092278206999
 30
0.0
 10
42.2760891428829
 20
23.79728060330189
 30
0.0
 10
42.32054168711313
 20
23.77783620301698
 30
0.0
 10
42.40326853832033
 20
23.74164988259283
 30
0.0
 10
42.48290540673285
 20
23.69828273431864
 30
0.0
 10
42.56085909724424
 20
23.65265575026118
 30
0.0
  0
SPLINE
  5
C0
330
1F
100
AcDbEntity
  8
0
370
    -3
100
AcDbSpline
210
0.0
220
0.0
230
1.0
 70
    24
 71
     2
 72
     6
 73
     3
 74
     0
 42
0.000000001
 43
0.0000000001
 40
0.0
 40
0.0
 40
0.0
 40
1.0
 40
1.0
 40
1.0
 10
27.32945728080191
 20
24.10564333897135
 30
0.0
 10
27.29070042655957
 20
24.04239821433542
 30
0.0
 10
27.25194357231724
 20
23.97915308969948
 30
0.0
  0
SPLINE
  5
C1
330
1F
100
AcDbEntity
  8
0
370
    -3
100
AcDbSpline
210
0.0
220
0.0
230
1.0
 70
    12
 71
     3
 72
    28
 73
    24
 74
     0
 42
0.000000001
 43
0.0000000001
 40
7.195216400800946
 40
7.195216400800946
 40
7.195216400800946
 40
7.195216400800946
 40
7.97092114923877
 40
7.97092114923877
 40
7.97092114923877
 40
8.97092114923877
 40
9.97092114923877
 40
9.97092114923877
 40
9.97092114923877
 40
10.98565609730218
 40
10.98565609730218
 40
10.98565609730218
 40
11.98565609730218
 40
11.98565609730218
 40
11.98565609730218
 40
12.98565609730218
 40
13.98565609730218
 40
13.98565609730218
 40
13.98565609730218
 40
14.98565609730218
 40
15.98565609730218
 40
16.98565609730218
 40
17.98565609730218
 40
17.98565609730218
 40
17.98565609730218
 40
17.98565609730218
 10
40.23137995199856
 20
21.92853199464219
 30
0.0
 41
1.0
 10
40.18671518819574
 20
21.99981419556269
 30
0.0
 41
1.0
 10
40.14177922137036
 20
22.07077983594646
 30
0.0
 41
1.0
 10
40.09657205152243
 20
22.1414289157935
 30
0.0
 41
1.0
 10
39.99022838195454
 20
22.17628059428873
 30
0.0
 41
1.0
 10
39.76692912521005
 20
22.19043132986637
 30
0.0
 41
1.0
 10
39.54538240781375
 20
22.2041999277141
 30
0.0
 41
1.0
 10
39.43404451919993
 20
22.20501689092377
 30
0.0
 41
1.0
 10
39.09579675765727
 20
22.20749884904576
 30
0.0
 41
0.9999297319738029
 10
38.75754861328577
 20
22.20506962406924
 30
0.0
 41
0.9999297319738029
 10
38.41937139017388
 20
22.19772972808473
 30
0.0
 41
1.0
 10
35.10898435266012
 20
22.12588013306995
 30
0.0
 41
1.0
 10
31.72451727743751
 20
22.02878725394709
 30
0.0
 41
1.0
 10
28.41326628716519
 20
22.02775671488865
 30
0.0
 41
1.0
 10
27.64980813954583
 20
22.02751910878663
 30
0.0
 41
1.0
 10
25.96405252669701
 20
22.32990529987617
 30
0.0
 41
1.0
 10
25.17834677983655
 20
23.85411101353406
 30
0.0
 41
1.0
 10
24.9925559780626
 20
24.59746132667789
 30
0.0
 41
1.0
 10
24.83498106370427
 20
25.2279196745265
 30
0.0
 41
1.0
 10
24.54381965279936
 20
26.49392444402361
 30
0.0
 41
1.0
 10
24.10878971728643
 20
28.39571797837295
 30
0.0
 41
1.0
 10
23.63983767145092
 20
30.28183338078227
 30
0.0
 41
1.0
 10
23.43686867846406
 20
31.58392022288756
 30
0.0
 41
1.0
 10
23.08239609237869
 20
32.13981658358632
 30
0.0
 41
1.0
  0
SPLINE
  5
C2
330
1F
100
AcDbEntity
  8
0
370
    -3
100
AcDbSpline
210
0.0
220
0.0
230
1.0
 70
     8
 71
     5
 72
   179
 73
   173
 74
     0
 42
0.000000001
 43
0.0000000001
 40
-5.0
 40
-5.0
 40
-5.0
 40
-5.0
 40
-5.0
 40
-5.0
 40
-4.0
 40
-4.0
 40
-4.0
 40
-4.0
 40
-3.0
 40
-3.0
 40
-3.0
 40
-3.0
 40
-2.0
 40
-2.0
 40
-2.0
 40
-2.0
 40
-1.0
 40
-1.0
 40
-1.0
 40
-1.0
 40
0.0
 40
0.0
 40
0.0
 40
0.0
 40
0.0
 40
1.0
 40
1.0
 40
1.0
 40
1.0
 40
2.0
 40
2.0
 40
2.0
 40
2.0
 40
3.0
 40
3.0
 40
3.0
 40
3.0
 40
4.0
 40
4.0
 40
4.0
 40
4.0
 40
4.0
 40
5.0
 40
5.0
 40
5.0
 40
5.0
 40
5.0
 40
6.0
 40
6.0
 40
6.0
 40
6.0
 40
7.0
 40
7.0
 40
7.0
 40
7.0
 40
8.0
 40
8.0
 40
8.0
 40
8.0
 40
9.0
 40
9.0
 40
9.0
 40
9.0
 40
9.0
 40
10.11881851817765
 40
10.11881851817765
 40
10.11881851817765
 40
10.11881851817765
 40
10.11881851817765
 40
11.11881851817765
 40
11.11881851817765
 40
11.11881851817765
 40
12.11881851817765
 40
12.11881851817765
 40
12.11881851817765
 40
12.11881851817765
 40
12.11881851817765
 40
13.11881851817765
 40
13.11881851817765
 40
13.11881851817765
 40
14.11881851817765
 40
14.11881851817765
 40
14.11881851817765
 40
14.11881851817765
 40
14.11881851817765
 40
15.11881851817765
 40
15.11881851817765
 40
15.11881851817765
 40
15.11881851817765
 40
15.11881851817765
 40
16.11882120142723
 40
16.11882120142723
 40
16.11882120142723
 40
16.11882120142723
 40
16.11882120142723
 40
17.11882120142723
 40
17.11882120142723
 40
17.11882120142723
 40
17.11882120142723
 40
17.11882120142723
 40
18.11882120142723
 40
18.11882120142723
 40
18.11882120142723
 40
19.11882120142723
 40
19.11882120142723
 40
19.11882120142723
 40
19.11882120142723
 40
19.11882120142723
 40
20.11882120142723
 40
20.11882120142723
 40
20.11882120142723
 40
21.11882120142723
 40
21.11882120142723
 40
21.11882120142723
 40
22.11882120142723
 40
22.11882120142723
 40
22.11882120142723
 40
22.11882120142723
 40
22.11882120142723
 40
23.11882120142723
 40
23.11882120142723
 40
23.11882120142723
 40
24.11882120142723
 40
24.11882120142723
 40
24.11882120142723
 40
25.11882120142723
 40
25.11882120142723
 40
25.11882120142723
 40
26.11882120142723
 40
26.11882120142723
 40
26.11882120142723
 40
26.11882120142723
 40
26.11882120142723
 40
27.11882120142723
 40
27.11882120142723
 40
27.11882120142723
 40
28.11882120142723
 40
28.11882120142723
 40
28.11882120142723
 40
28.11882120142723
 40
28.11882120142723
 40
29.11882120142723
 40
29.11882120142723
 40
29.11882120142723
 40
29.11882120142723
 40
30.11882120142723
 40
30.11882120142723
 40
30.11882120142723
 40
30.11882120142723
 40
31.11882120142723
 40
31.11882120142723
 40
31.11882120142723
 40
31.11882120142723
 40
32.11882120142723
 40
32.11882120142723
 40
32.11882120142723
 40
32.11882120142723
 40
33.11882120142723
 40
33.11882120142723
 40
33.11882120142723
 40
33.11882120142723
 40
33.11882120142723
 40
34.11882120142723
 40
34.11882120142723
 40
34.11882120142723
 40
34.11882120142723
 40
34.11882120142723
 40
35.1637853384389
 40
35.1637853384389
 40
35.1637853384389
 40
35.1637853384389
 40
36.1637853384389
 40
36.1637853384389
 40
36.1637853384389
 40
36.1637853384389
 40
36.1637853384389
 40
36.1637853384389
 10
26.03141271139818
 20
21.2094147588485
 30
0.0
 10
25.86460010637553
 20
21.31305429407811
 30
0.0
 10
25.71063957053942
 20
21.43022119579116
 30
0.0
 10
25.56953110388984
 20
21.56091546398763
 30
0.0
 10
25.44127470642681
 20
21.70513709866753
 30
0.0
 10
25.21046604987381
 20
22.02063510099416
 30
0.0
 10
25.10551412936861
 20
22.18391108199488
 30
0.0
 10
25.01101461663472
 20
22.35271404283296
 30
0.0
 10
24.92696751167213
 20
22.52704398350845
 30
0.0
 10
24.77977811728957
 20
22.88675782453418
 30
0.0
 10
24.71161402180105
 20
23.06835022396062
 30
0.0
 10
24.6488805280153
 20
23.25167810230066
 30
0.0
 10
24.59157763593231
 20
23.43674145955429
 30
0.0
 10
24.48783305517187
 20
23.81033913188873
 30
0.0
 10
24.43745601069025
 20
23.99750952288178
 30
0.0
 10
24.38857421210723
 20
24.18505146870069
 30
0.0
 10
24.3411876594228
 20
24.37296496934541
 30
0.0
 10
24.24940504585113
 20
24.74953508028655
 30
0.0
 10
24.20433189300325
 20
24.93801305026414
 30
0.0
 10
24.16007689409332
 20
25.12668393474875
 30
0.0
 10
24.11664004912135
 20
25.31554773374037
 30
0.0
 10
24.07402135808734
 20
25.50460444723902
 30
0.0
 10
23.99927066296964
 20
25.83703464528238
 30
0.0
 10
23.92611459050248
 20
26.16980670236219
 30
0.0
 10
23.85455314068584
 20
26.50292061847845
 30
0.0
 10
23.78458631351976
 20
26.83637639363116
 30
0.0
 10
23.64784190448865
 20
27.50397166200948
 30
0.0
 10
23.58051117107522
 20
27.83797463336452
 30
0.0
 10
23.5142219087639
 20
28.17218294188545
 30
0.0
 10
23.44897411755471
 20
28.50659658757227
 30
0.0
 10
23.32056147734058
 20
29.17583455327769
 30
0.0
 10
23.25717592269303
 20
29.51060674192141
 30
0.0
 10
23.19461113350501
 20
29.84553213635615
 30
0.0
 10
23.13286710977651
 20
30.18061073658191
 30
0.0
 10
23.01102059323855
 20
30.85107434861549
 30
0.0
 10
22.95086359179682
 20
31.18824494952289
 30
0.0
 10
22.89147284718235
 20
31.52735434532092
 30
0.0
 10
22.83284835939514
 20
31.86840253600956
 30
0.0
 10
22.77499012843518
 20
32.21138952158882
 30
0.0
 10
22.73192184606604
 20
32.22353520780391
 30
0.0
 10
22.69028874168362
 20
32.23772016886576
 30
0.0
 10
22.6551223344443
 20
32.25678126212325
 30
0.0
 10
22.63145414350451
 20
32.28355534492528
 30
0.0
 10
22.62431568802063
 20
32.32087927462069
 30
0.0
 10
22.59331631721592
 20
32.4829617221655
 30
0.0
 10
22.56516999013597
 20
32.64549958644322
 30
0.0
 10
22.5398767067808
 20
32.80849286745388
 30
0.0
 10
22.5174364671504
 20
32.97194156519745
 30
0.0
 10
22.47826207533911
 20
33.29974979415043
 30
0.0
 10
22.46335307998671
 20
33.46398728564236
 30
0.0
 10
22.45312228518754
 20
33.62855815414973
 30
0.0
 10
22.44756969094161
 20
33.79346239967252
 30
0.0
 10
22.44582090355621
 20
34.12393764474895
 30
0.0
 10
22.45213260102203
 20
34.28867518939893
 30
0.0
 10
22.46563038964636
 20
34.45291265616064
 30
0.0
 10
22.4863142694292
 20
34.61665004503408
 30
0.0
 10
22.54205421131194
 20
34.94312466700446
 30
0.0
 10
22.57959871078283
 20
35.10352188589464
 30
0.0
 10
22.62681773878324
 20
35.26107901268976
 30
0.0
 10
22.68371129531317
 20
35.41579604738988
 30
0.0
 10
22.75027938037262
 20
35.56767298999496
 30
0.0
 10
22.9562346698609
 20
35.65076376517744
 30
0.0
 10
23.17106168922443
 20
35.71186437732078
 30
0.0
 10
23.39163030887683
 20
35.74970968708997
 30
0.0
 10
23.61453782395588
 20
35.76371585620934
 30
0.0
 10
23.83641140463057
 20
35.75403224181994
 30
0.0
 10
24.11562337966323
 20
35.57080687614343
 30
0.0
 10
24.35633891628556
 20
35.34354235736537
 30
0.0
 10
24.56368570221951
 20
35.08339691842952
 30
0.0
 10
24.92189714815452
 20
34.5196606661298
 30
0.0
 10
25.18765509311153
 20
33.91366659674897
 30
0.0
 10
25.30268782037093
 20
33.6031436785061
 30
0.0
 10
25.4051414324366
 20
33.28813344742856
 30
0.0
 10
25.50028305933392
 20
32.97167447423416
 30
0.0
 10
25.69285941451987
 20
32.33112924065897
 30
0.0
 10
25.87465287856389
 20
31.68751675151414
 30
0.0
 10
26.04763600378226
 20
31.04146295283543
 30
0.0
 10
26.37992668120022
 20
29.74572462848188
 30
0.0
 10
26.69275642184576
 20
28.44522863427914
 30
0.0
 10
26.84733994731178
 20
27.79453270539508
 30
0.0
 10
27.00312601725741
 20
27.14413033040798
 30
0.0
 10
27.16314852101901
 20
26.49476299499743
 30
0.0
 10
27.25922758908923
 20
26.10487652931358
 30
0.0
 10
27.3241031922635
 20
25.70597971214089
 30
0.0
 10
27.35501034081306
 20
25.30249090140518
 30
0.0
 10
27.34918404500917
 20
24.89882845503219
 30
0.0
 10
27.30385931512306
 20
24.49941073094777
 30
0.0
 10
27.29107186068508
 20
24.4188842482222
 30
0.0
 10
27.28724834565543
 20
24.33925812719642
 30
0.0
 10
27.29238877003413
 20
24.26053236787044
 30
0.0
 10
27.30649313382116
 20
24.18270697024425
 30
0.0
 10
27.32956143701652
 20
24.10578193431786
 30
0.0
 10
27.40405283943313
 20
24.09457771152705
 30
0.0
 10
27.47991914252614
 20
24.09102734112026
 30
0.0
 10
27.55581227035462
 20
24.09561994212422
 30
0.0
 10
27.63038414697762
 20
24.10884463356569
 30
0.0
 10
27.70228669645422
 20
24.13119053447142
 30
0.0
 10
27.86680407902226
 20
24.18231930744118
 30
0.0
 10
28.03551241756794
 20
24.22687660708671
 30
0.0
 10
28.20725131118639
 20
24.26457331194585
 30
0.0
 10
28.55446940675907
 20
24.32566728916695
 30
0.0
 10
28.9045265153838
 20
24.35700591554512
 30
0.0
 10
29.08000634300936
 20
24.36676537530289
 30
0.0
 10
29.25567896399828
 20
24.37214396590879
 30
0.0
 10
29.43128589840074
 20
24.37467067164225
 30
0.0
 10
30.06113430898664
 20
24.38373319298091
 30
0.0
 10
30.69096030126789
 20
24.39417569468829
 30
0.0
 10
31.32077462562798
 20
24.40536598601422
 30
0.0
 10
32.58040143927283
 20
24.42797776640275
 30
0.0
 10
33.84006758430097
 20
24.44852317926383
 30
0.0
 10
34.46991285782369
 20
24.4579393185783
 30
0.0
 10
35.72963254321208
 20
24.47437851250673
 30
0.0
 10
36.98941997793768
 20
24.48467163609729
 30
0.0
 10
37.61932011245303
 20
24.48922518121418
 30
0.0
 10
38.24921614393921
 20
24.49412921055876
 30
0.0
 10
38.87909755221447
 20
24.50032722503711
 30
0.0
 10
39.07412377719741
 20
24.50224627733842
 30
0.0
 10
39.26915097797519
 20
24.50219588427199
 30
0.0
 10
39.4641621286808
 20
24.49987315005154
 30
0.0
 10
39.85411827821376
 20
24.49007720773006
 30
0.0
 10
40.24387402052228
 20
24.46876873450236
 30
0.0
 10
40.43847043444026
 20
24.45433022362656
 30
0.0
 10
40.82663763694348
 20
24.41607237028022
 30
0.0
 10
41.2118281670606
 20
24.35542828760284
 30
0.0
 10
41.40279774607678
 20
24.31645988839785
 30
0.0
 10
41.77972249613261
 20
24.21513077318827
 30
0.0
 10
42.14309235845199
 20
24.05481782224533
 30
0.0
 10
42.31069299536934
 20
23.95259369864355
 30
0.0
 10
42.45351376573616
 20
23.82098023771449
 30
0.0
 10
42.56085909724424
 20
23.65265575026118
 30
0.0
 10
42.58503634164172
 20
23.54428725667185
 30
0.0
 10
42.60339136481944
 20
23.43462331252854
 30
0.0
 10
42.61588434825521
 20
23.32408414986921
 30
0.0
 10
42.62906659859847
 20
23.1020958515944
 30
0.0
 10
42.61848214179643
 20
22.8799685355591
 30
0.0
 10
42.60728313656213
 20
22.76929079178734
 30
0.0
 10
42.59021225444753
 20
22.65941963094753
 30
0.0
 10
42.56730439540567
 20
22.55077572172567
 30
0.0
 10
42.5019919021279
 20
22.48148003788419
 30
0.0
 10
42.43238256885424
 20
22.41772583170098
 30
0.0
 10
42.3584763955847
 20
22.35951310317602
 30
0.0
 10
42.28027338231929
 20
22.30684185230932
 30
0.0
 10
42.1152736757967
 20
22.21258230589244
 30
0.0
 10
42.03085711524879
 20
22.16999461918832
 30
0.0
 10
41.94452384741426
 20
22.1319490189885
 30
0.0
 10
41.8562738722931
 20
22.09844550529301
 30
0.0
 10
41.67594050747761
 20
22.04052265091065
 30
0.0
 10
41.58509403818401
 20
22.01438317363337
 30
0.0
 10
41.49356778200458
 20
21.99106564627
 30
0.0
 10
41.40136173893929
 20
21.97057006882054
 30
0.0
 10
41.21559007903701
 20
21.93522281374942
 30
0.0
 10
41.12248764388421
 20
21.91900143522511
 30
0.0
 10
41.02916860352975
 20
21.90423230571205
 30
0.0
 10
40.93563295797365
 20
21.89091542521025
 30
0.0
 10
40.74812845645813
 20
21.86718616222915
 30
0.0
 10
40.65435464078915
 20
21.8555271083154
 30
0.0
 10
40.56055926020895
 20
21.84407363197846
 30
0.0
 10
40.46674231471752
 20
21.83282573321832
 30
0.0
 10
40.37290380431487
 20
21.82178341203498
 30
0.0
 10
40.33662870520185
 20
21.81751478827226
 30
0.0
 10
40.30557533761115
 20
21.83133962246054
 30
0.0
 10
40.27850713434532
 20
21.85797362679092
 30
0.0
 10
40.25418752820694
 20
21.89213251345443
 30
0.0
 10
40.23137995199855
 20
21.92853199464219
 30
0.0
 10
40.09434417695405
 20
21.90098223993646
 30
0.0
 10
39.95720606130935
 20
21.87396407340415
 30
0.0
 10
39.81996560506444
 20
21.84747749504525
 30
0.0
 10
39.68262280821931
 20
21.82152250485977
 30
0.0
 10
39.41364670949296
 20
21.77176965352826
 30
0.0
 10
39.28203678345508
 20
21.74788420737281
 30
0.0
 10
39.15034789266029
 20
21.72444276438136
 30
0.0
 10
39.0185800371086
 20
21.70144532455389
 30
0.0
 10
38.8867332168
 20
21.67889188789044
 30
0.0
  0
SPLINE
  5
C3
330
1F
100
AcDbEntity
  8
0
100
AcDbSpline
210
0.0
220
0.0
230
1.0
 70
    15
 71
     3
 72
    17
 73
    13
 74
     0
 42
0.000000001
 43
0.0000000001
 40
-66.85822351689727
 40
-66.85822351689727
 40
-66.85822351689727
 40
-66.85822351689727
 40
-66.47010254008285
 40
-66.47010254008285
 40
-66.47010254008285
 40
-52.72985803619736
 40
-52.72985803619736
 40
-52.72985803619736
 40
-52.35250236418132
 40
-52.35250236418132
 40
-52.35250236418132
 40
-38.71285684202027
 40
-38.71285684202027
 40
-38.71285684202027
 40
-38.71285684202027
 10
25.22332929067133
 20
5.98223953924436
 30
0.0
 41
0.9999999999999998
 10
25.20305853257016
 20
5.856632692079956
 30
0.0
 41
0.9999999999999998
 10
25.18278777446899
 20
5.731025844915554
 30
0.0
 41
0.9999999999999998
 10
25.16251701636782
 20
5.605418997751153
 30
0.0
 41
0.9999999999999998
 10
29.73727669701295
 20
5.731638646281997
 30
0.0
 41
0.9999999999999998
 10
34.31203637765807
 20
5.85785829481284
 30
0.0
 41
0.9999999999999998
 10
38.8867960583032
 20
5.984077943343685
 30
0.0
 41
0.9999999999999998
 10
38.87357278612151
 20
6.108760675357717
 30
0.0
 41
0.9999999999999998
 10
38.86034951393982
 20
6.233443407371745
 30
0.0
 41
0.9999999999999998
 10
38.84712624175813
 20
6.358126139385774
 30
0.0
 41
0.9999999999999998
 10
34.30586059139586
 20
6.232830606005304
 30
0.0
 41
0.9999999999999998
 10
29.76459494103359
 20
6.107535072624832
 30
0.0
 41
0.9999999999999998
 10
25.22332929067132
 20
5.982239539244361
 30
0.0
 41
0.9999999999999998
  0
SPLINE
  5
C4
330
1F
100
AcDbEntity
  8
0
100
AcDbSpline
210
0.0
220
0.0
230
1.0
 70
    11
 71
     3
 72
    23
 73
    19
 74
     0
 42
0.000000001
 43
0.0000000001
 40
0.0
 40
0.0
 40
0.0
 40
0.0
 40
1.0
 40
1.0
 40
1.0
 40
1.573187160405986
 40
1.573187160405986
 40
1.573187160405986
 40
2.555574506554523
 40
2.555574506554523
 40
2.555574506554523
 40
3.555574506554524
 40
3.555574506554524
 40
3.555574506554524
 40
4.555574506554523
 40
4.555574506554523
 40
4.555574506554523
 40
5.611094901369554
 40
5.611094901369554
 40
5.611094901369554
 40
5.611094901369554
 10
23.23192076533954
 20
0.0747462832149646
 30
0.0
 10
23.23383862339949
 20
0.0257985528866369
 30
0.0
 10
23.26122373845223
 20
-0.0000000000000027
 30
0.0
 10
23.31035282025257
 20
-0.0000000000000027
 30
0.0
 10
23.50141520705456
 20
-0.0000000000000027
 30
0.0
 10
23.69247759385656
 20
-0.0000000000000027
 30
0.0
 10
23.88353998065855
 20
-0.0000000000000027
 30
0.0
 10
23.93407392032995
 20
-0.0006671869228496
 30
0.0
 10
23.9610304758996
 20
0.0241753568521164
 30
0.0
 10
23.96442416250135
 20
0.0747462832149646
 30
0.0
 10
23.96845032347466
 20
0.1360647886941141
 30
0.0
 10
23.97247648444797
 20
0.1973832941732635
 30
0.0
 10
23.97650264542128
 20
0.258701799652413
 30
0.0
 10
23.72590611863214
 20
0.2587017996524124
 30
0.0
 10
23.47530959184299
 20
0.2587017996524119
 30
0.0
 10
23.22471306505385
 20
0.2587017996524112
 30
0.0
 10
23.22711563181575
 20
0.1973832941732624
 30
0.0
 10
23.22951819857764
 20
0.1360647886941135
 30
0.0
 10
23.23192076533954
 20
0.0747462832149646
 30
0.0
  0
SPLINE
  5
C5
330
1F
100
AcDbEntity
  8
0
100
AcDbSpline
210
0.0
220
0.0
230
1.0
 70
    11
 71
     3
 72
    23
 73
    19
 74
     0
 42
0.000000001
 43
0.0000000001
 40
0.0
 40
0.0
 40
0.0
 40
0.0
 40
1.0
 40
1.0
 40
1.0
 40
1.573187160405986
 40
1.573187160405986
 40
1.573187160405986
 40
2.555574506554523
 40
2.555574506554523
 40
2.555574506554523
 40
3.555574506554524
 40
3.555574506554524
 40
3.555574506554524
 40
4.555574506554523
 40
4.555574506554523
 40
4.555574506554523
 40
5.611094901369554
 40
5.611094901369554
 40
5.611094901369554
 40
5.611094901369554
 10
39.82543103246164
 20
0.0747462832149646
 30
0.0
 10
39.82734889052158
 20
0.0257985528866369
 30
0.0
 10
39.85473400557433
 20
-0.0000000000000027
 30
0.0
 10
39.90386308737467
 20
-0.0000000000000027
 30
0.0
 10
40.09492547417667
 20
-0.0000000000000027
 30
0.0
 10
40.28598786097866
 20
-0.0000000000000027
 30
0.0
 10
40.47705024778065
 20
-0.0000000000000027
 30
0.0
 10
40.52758418745205
 20
-0.0006671869228496
 30
0.0
 10
40.5545407430217
 20
0.0241753568521164
 30
0.0
 10
40.55793442962345
 20
0.0747462832149646
 30
0.0
 10
40.56196059059676
 20
0.1360647886941141
 30
0.0
 10
40.56598675157007
 20
0.1973832941732635
 30
0.0
 10
40.57001291254338
 20
0.258701799652413
 30
0.0
 10
40.31941638575423
 20
0.2587017996524124
 30
0.0
 10
40.06881985896509
 20
0.2587017996524119
 30
0.0
 10
39.81822333217595
 20
0.2587017996524112
 30
0.0
 10
39.82062589893784
 20
0.1973832941732624
 30
0.0
 10
39.82302846569974
 20
0.1360647886941135
 30
0.0
 10
39.82543103246164
 20
0.0747462832149646
 30
0.0
  0
SPLINE
  5
C6
330
1F
100
AcDbEntity
  8
0
370
    -3
100
AcDbSpline
210
0.0
220
0.0
230
1.0
 70
    12
 71
     3
 72
    71
 73
    67
 74
     0
 42
0.000000001
 43
0.0000000001
 40
-1.0
 40
-1.0
 40
-1.0
 40
-1.0
 40
-0.0835879548158119
 40
-0.0835879548158119
 40
-0.0835879548158119
 40
3.320643601077654
 40
3.320643601077654
 40
3.320643601077654
 40
4.320643601077654
 40
4.320643601077654
 40
4.320643601077654
 40
17.92985550338833
 40
17.92985550338833
 40
17.92985550338833
 40
18.92985550338832
 40
18.92985550338832
 40
18.92985550338832
 40
21.95049058722649
 40
21.95049058722649
 40
21.95049058722649
 40
22.89432361666413
 40
22.89432361666413
 40
22.89432361666413
 40
45.19946841751955
 40
45.19946841751955
 40
45.19946841751955
 40
45.2681008654001
 40
45.2681008654001
 40
45.2681008654001
 40
45.33673331328066
 40
45.33673331328066
 40
45.33673331328066
 40
45.74631978512492
 40
45.74631978512492
 40
45.74631978512492
 40
45.85918324741498
 40
45.85918324741498
 40
45.85918324741498
 40
61.72776243449883
 40
61.72776243449883
 40
61.72776243449883
 40
62.72776243449882
 40
62.72776243449882
 40
62.72776243449882
 40
76.97411177462325
 40
76.97411177462325
 40
76.97411177462325
 40
77.97411177462321
 40
77.97411177462321
 40
77.97411177462321
 40
93.68118056560729
 40
93.68118056560729
 40
93.68118056560729
 40
93.79839144010313
 40
93.79839144010313
 40
93.79839144010313
 40
94.21203796604433
 40
94.21203796604433
 40
94.21203796604433
 40
94.27849273994778
 40
94.27849273994778
 40
94.27849273994778
 40
94.34494751385122
 40
94.34494751385122
 40
94.34494751385122
 40
116.3431224013792
 40
116.3431224013792
 40
116.3431224013792
 40
116.3431224013792
 10
37.92441144703072
 20
22.1884308276265
 30
0.0
 41
1.0
 10
37.79958654258505
 20
22.16484839936259
 30
0.0
 41
1.0
 10
37.67484844455461
 20
22.1408162498753
 30
0.0
 41
1.0
 10
37.55019715293938
 20
22.11633437916463
 30
0.0
 41
1.0
 10
37.56393181857076
 20
20.98177253067687
 30
0.0
 41
1.0
 10
37.57766648420214
 20
19.84721068218911
 30
0.0
 41
1.0
 10
37.59140114983352
 20
18.71264883370135
 30
0.0
 41
1.0
 10
37.59455810302917
 20
18.45186646379334
 30
0.0
 41
1.0
 10
37.48723371374375
 20
18.12759816208744
 30
0.0
 41
1.0
 10
37.22292484736143
 20
18.12090779678395
 30
0.0
 41
1.0
 10
34.01622999081244
 20
18.03973776151116
 30
0.0
 41
1.0
 10
30.80953513426346
 20
17.95856772623836
 30
0.0
 41
1.0
 10
27.60284027771448
 20
17.87739769096557
 30
0.0
 41
1.0
 10
27.29781776630124
 20
17.86967675426346
 30
0.0
 41
1.0
 10
27.17935800425299
 20
18.26365096805777
 30
0.0
 41
1.0
 10
27.20816463952988
 20
18.56740831051457
 30
0.0
 41
1.0
 10
27.30255244447835
 20
19.5626994479864
 30
0.0
 41
1.0
 10
27.39694024942681
 20
20.55799058545823
 30
0.0
 41
1.0
 10
27.49132805437527
 20
21.55328172293007
 30
0.0
 41
1.0
 10
27.05451786452848
 20
21.75359039250915
 30
0.0
 41
1.0
 10
26.61178719959416
 20
21.9394653852191
 30
0.0
 41
1.0
 10
26.16313605957233
 20
22.11090670105991
 30
0.0
 41
1.0
 10
25.1038277823039
 20
14.8573585910941
 30
0.0
 41
1.0
 10
24.04451950503547
 20
7.603810481128282
 30
0.0
 41
1.0
 10
22.98521122776704
 20
0.3502623711624697
 30
0.0
 41
1.0
 10
22.98179966838811
 20
0.3269019286777864
 30
0.0
 41
0.9396011990742443
 10
22.98841323512564
 20
0.304238968908939
 30
0.0
 41
0.9396011990742443
 10
23.00385357347725
 20
0.2863799386423284
 30
0.0
 41
1.0
 10
23.01929391182887
 20
0.2685209083757178
 30
0.0
 41
0.9396011990742443
 10
23.0407632880276
 20
0.2587017996527442
 30
0.0
 41
0.9396011990742443
 10
23.06437152833636
 20
0.2587017996524894
 30
0.0
 41
1.0
 10
23.45342284747851
 20
0.2587017996524663
 30
0.0
 41
1.0
 10
23.84247416662066
 20
0.2587017996524432
 30
0.0
 41
1.0
 10
24.23152548576282
 20
0.2587017996524201
 30
0.0
 41
1.0
 10
24.2726454650337
 20
0.2587017996525882
 30
0.0
 41
0.8409029707776977
 10
24.30395234448895
 20
0.2853613569259552
 30
0.0
 41
0.8409029707776977
 10
24.31050362958192
 20
0.3259561023847974
 30
0.0
 41
1.0
 10
25.13928679082902
 20
5.461473942795872
 30
0.0
 41
1.0
 10
25.96806995207613
 20
10.59699178320695
 30
0.0
 41
1.0
 10
26.79685311332323
 20
15.73250962361802
 30
0.0
 41
1.0
 10
26.8483208068076
 20
16.05142688744856
 30
0.0
 41
1.0
 10
26.97139568528759
 20
16.28590964174291
 30
0.0
 41
1.0
 10
27.258012276524
 20
16.29316467530884
 30
0.0
 41
1.0
 10
30.61483377972338
 20
16.37813481808908
 30
0.0
 41
1.0
 10
33.97165528292276
 20
16.46310496086933
 30
0.0
 41
1.0
 10
37.32847678612213
 20
16.54807510364957
 30
0.0
 41
1.0
 10
37.6383346060176
 20
16.55591843495957
 30
0.0
 41
1.0
 10
37.80250582512291
 20
16.2078914375752
 30
0.0
 41
1.0
 10
37.83519510812961
 20
15.89966295548291
 30
0.0
 41
1.0
 10
38.38560116056829
 20
10.70986353275435
 30
0.0
 41
1.0
 10
38.93600721300697
 20
5.520064110025795
 30
0.0
 41
1.0
 10
39.48641326544564
 20
0.3302646872972383
 30
0.0
 41
1.0
 10
39.49095107371944
 20
0.2874775219751011
 30
0.0
 41
0.8289729659600006
 10
39.5229399940674
 20
0.2587017996521875
 30
0.0
 41
0.8289729659600006
 10
39.56596711598176
 20
0.2587017996522372
 30
0.0
 41
1.0
 10
39.95887493310615
 20
0.2587017996522911
 30
0.0
 41
1.0
 10
40.35178275023055
 20
0.2587017996523449
 30
0.0
 41
1.0
 10
40.74469056735493
 20
0.2587017996523988
 30
0.0
 41
1.0
 10
40.76750381908725
 20
0.2587017996523057
 30
0.0
 41
0.9433188267230221
 10
40.78837744800791
 20
0.267907019382643
 30
0.0
 41
0.9433188267230221
 10
40.80376202878362
 20
0.2847521708796471
 30
0.0
 41
1.0
 10
40.81914660955935
 20
0.3015973223766513
 30
0.0
 41
0.9433188267230221
 10
40.82642609392386
 20
0.3232179967876865
 30
0.0
 41
0.9433188267230221
 10
40.82436265273333
 20
0.3459377385347816
 30
0.0
 41
1.0
 10
40.16252936633187
 20
7.633124509732251
 30
0.0
 41
1.0
 10
39.50069607993041
 20
14.92031128092972
 30
0.0
 41
1.0
 10
38.83886279352897
 20
22.20749805212719
 30
0.0
 41
1.0
  0
SPLINE
  5
C7
330
1F
100
AcDbEntity
  8
0
370
    -3
100
AcDbSpline
210
0.0
220
0.0
230
1.0
 70
    12
 71
     3
 72
    53
 73
    49
 74
     0
 42
0.000000001
 43
0.0000000001
 40
-62.40746906513731
 40
-62.40746906513731
 40
-62.40746906513731
 40
-62.40746906513731
 40
-40.46089044710737
 40
-40.46089044710737
 40
-40.46089044710737
 40
-40.39544281507184
 40
-40.39544281507184
 40
-40.39544281507184
 40
-40.3299951830363
 40
-40.3299951830363
 40
-40.3299951830363
 40
-39.91713687935219
 40
-39.91713687935219
 40
-39.91713687935219
 40
-39.79791655037985
 40
-39.79791655037985
 40
-39.79791655037985
 40
-24.07617357724029
 40
-24.07617357724029
 40
-24.07617357724029
 40
-23.0761735772403
 40
-23.0761735772403
 40
-23.0761735772403
 40
-14.8382961655005
 40
-14.8382961655005
 40
-14.8382961655005
 40
-6.600418753760708
 40
-6.600418753760708
 40
-6.600418753760708
 40
-5.600418753760701
 40
-5.600418753760701
 40
-5.600418753760701
 40
10.12132421937886
 40
10.12132421937886
 40
10.12132421937886
 40
10.24054454835119
 40
10.24054454835119
 40
10.24054454835119
 40
10.65340285203531
 40
10.65340285203531
 40
10.65340285203531
 40
10.71885048407084
 40
10.71885048407084
 40
10.71885048407084
 40
10.78429811610638
 40
10.78429811610638
 40
10.78429811610638
 40
32.73087673413632
 40
32.73087673413632
 40
32.73087673413632
 40
32.73087673413632
 10
-7.480833982902384
 20
22.15421410042375
 30
0.0
 41
0.8535564458844906
 10
-7.956936878785709
 20
14.8841192768288
 30
0.0
 41
0.8535564458844908
 10
-8.43303977466904
 20
7.614024453233852
 30
0.0
 41
0.8535564458844908
 10
-8.909142670552368
 20
0.3439296296389074
 30
0.0
 41
0.8535564458844908
 10
-8.91060954533144
 20
0.3215304406602387
 30
0.0
 41
0.8066108427702705
 10
-8.903046444192544
 20
0.3003957561420723
 30
0.0
 41
0.8066108427702705
 10
-8.887701278786134
 20
0.2840127989252103
 30
0.0
 41
0.8535564458844908
 10
-8.872356113379729
 20
0.2676298417083485
 30
0.0
 41
0.8066108427702705
 10
-8.851760835921848
 20
0.2587017996524166
 30
0.0
 41
0.8066108427702705
 10
-8.829313667091018
 20
0.2587017996524165
 30
0.0
 41
0.8535564458844908
 10
-8.437154553671446
 20
0.2587017996524154
 30
0.0
 41
0.8535564458844908
 10
-8.044995440251874
 20
0.2587017996524142
 30
0.0
 41
0.8535564458844908
 10
-7.652836326832306
 20
0.258701799652413
 30
0.0
 41
0.8535564458844908
 10
-7.6089131373101
 20
0.2587017996524131
 30
0.0
 41
0.7027624730137765
 10
-7.576629515881736
 20
0.2884845860444494
 30
0.0
 41
0.7027624730137765
 10
-7.573095668523549
 20
0.3322653866384601
 30
0.0
 41
0.8535564458844908
 10
-7.153800163058472
 20
5.526913330952618
 30
0.0
 41
0.8535564458844908
 10
-6.734504657593396
 20
10.72156127526677
 30
0.0
 41
0.8535564458844908
 10
-6.315209152128318
 20
15.91620921958093
 30
0.0
 41
0.8535564458844906
 10
-6.284335908723214
 20
16.29869753223467
 30
0.0
 41
0.8535564458844906
 10
-6.095526400228198
 20
16.56833933743776
 30
0.0
 41
0.8535564458844906
 10
-5.825058980424862
 20
16.56149527490574
 30
0.0
 41
0.8535564458844906
 10
-3.883372653616574
 20
16.51236173176808
 30
0.0
 41
0.8535564458844906
 10
-1.941686326808287
 20
16.46322818863042
 30
0.0
 41
0.8535564458844906
 10
0.0
 20
16.41409464549276
 30
0.0
 41
0.8535564458844906
 10
1.941686326808287
 20
16.46322818863042
 30
0.0
 41
0.8535564458844906
 10
3.883372653616574
 20
16.51236173176808
 30
0.0
 41
0.8535564458844906
 10
5.825058980424862
 20
16.56149527490574
 30
0.0
 41
0.8535564458844906
 10
6.095526400228198
 20
16.56833933743776
 30
0.0
 41
0.8535564458844906
 10
6.284335908723214
 20
16.29869753223467
 30
0.0
 41
0.8535564458844906
 10
6.315209152128318
 20
15.91620921958093
 30
0.0
 41
0.8535564458844906
 10
6.73450465759339
 20
10.72156127526677
 30
0.0
 41
0.8535564458844908
 10
7.153800163058462
 20
5.526913330952615
 30
0.0
 41
0.8535564458844908
 10
7.573095668523537
 20
0.3322653866384594
 30
0.0
 41
0.8535564458844906
 10
7.576629515881726
 20
0.2884845860444499
 30
0.0
 41
0.7027624730137847
 10
7.608913137310091
 20
0.2587017996524142
 30
0.0
 41
0.7027624730137847
 10
7.652836326832292
 20
0.2587017996524122
 30
0.0
 41
0.8535564458844906
 10
8.044995440251869
 20
0.2587017996524124
 30
0.0
 41
0.8535564458844906
 10
8.437154553671446
 20
0.2587017996524127
 30
0.0
 41
0.8535564458844906
 10
8.829313667091022
 20
0.258701799652413
 30
0.0
 41
0.8535564458844906
 10
8.851760835921848
 20
0.2587017996524136
 30
0.0
 41
0.80661084277027
 10
8.872356113379729
 20
0.267629841708346
 30
0.0
 41
0.80661084277027
 10
8.887701278786137
 20
0.2840127989252084
 30
0.0
 41
0.8535564458844906
 10
8.90304644419255
 20
0.3003957561420709
 30
0.0
 41
0.80661084277027
 10
8.910609545331441
 20
0.3215304406602376
 30
0.0
 41
0.80661084277027
 10
8.90914267055237
 20
0.3439296296389065
 30
0.0
 41
0.8535564458844906
 10
8.43303977466904
 20
7.614024453233855
 30
0.0
 41
0.8535564458844906
 10
7.956936878785712
 20
14.8841192768288
 30
0.0
 41
0.8535564458844906
 10
7.480833982902384
 20
22.15421410042375
 30
0.0
 41
0.8535564458844906
  0
SPLINE
  5
C8
330
1F
100
AcDbEntity
  8
0
100
AcDbSpline
210
0.0
220
0.0
230
1.0
 70
    11
 71
     3
 72
    23
 73
    19
 74
     0
 42
0.000000001
 43
0.0000000001
 40
0.0
 40
0.0
 40
0.0
 40
0.0
 40
1.0
 40
1.0
 40
1.0
 40
1.573187160405986
 40
1.573187160405986
 40
1.573187160405986
 40
2.555574506554523
 40
2.555574506554523
 40
2.555574506554523
 40
3.555574506554524
 40
3.555574506554524
 40
3.555574506554524
 40
4.555574506554523
 40
4.555574506554523
 40
4.555574506554523
 40
5.611094901369554
 40
5.611094901369554
 40
5.611094901369554
 40
5.611094901369554
 10
-7.891835391558416
 20
0.0747462832149672
 30
0.0
 10
-7.893753249618364
 20
0.0257985528866396
 30
0.0
 10
-7.92113836467111
 20
0.0
 30
0.0
 10
-7.970267446471446
 20
0.0
 30
0.0
 10
-8.161329833273442
 20
0.0
 30
0.0
 10
-8.352392220075437
 20
0.0
 30
0.0
 10
-8.543454606877432
 20
0.0
 30
0.0
 10
-8.593988546548829
 20
-0.000667186922847
 30
0.0
 10
-8.620945102118476
 20
0.024175356852119
 30
0.0
 10
-8.624338788720234
 20
0.0747462832149672
 30
0.0
 10
-8.628364949693543
 20
0.1360647886941167
 30
0.0
 10
-8.63239111066685
 20
0.1973832941732662
 30
0.0
 10
-8.636417271640157
 20
0.2587017996524157
 30
0.0
 10
-8.385820744851015
 20
0.2587017996524151
 30
0.0
 10
-8.135224218061873
 20
0.2587017996524145
 30
0.0
 10
-7.88462769127273
 20
0.2587017996524139
 30
0.0
 10
-7.887030258034625
 20
0.197383294173265
 30
0.0
 10
-7.889432824796521
 20
0.1360647886941161
 30
0.0
 10
-7.891835391558416
 20
0.0747462832149672
 30
0.0
  0
SPLINE
  5
C9
330
1F
100
AcDbEntity
  8
0
100
AcDbSpline
210
0.0
220
0.0
230
1.0
 70
    11
 71
     3
 72
    23
 73
    19
 74
     0
 42
0.000000001
 43
0.0000000001
 40
0.0
 40
0.0
 40
0.0
 40
0.0
 40
1.0
 40
1.0
 40
1.0
 40
1.573187160405986
 40
1.573187160405986
 40
1.573187160405986
 40
2.555574506554523
 40
2.555574506554523
 40
2.555574506554523
 40
3.555574506554524
 40
3.555574506554524
 40
3.555574506554524
 40
4.555574506554523
 40
4.555574506554523
 40
4.555574506554523
 40
5.611094901369554
 40
5.611094901369554
 40
5.611094901369554
 40
5.611094901369554
 10
7.891835391558416
 20
0.0747462832149672
 30
0.0
 10
7.893753249618364
 20
0.0257985528866396
 30
0.0
 10
7.92113836467111
 20
0.0
 30
0.0
 10
7.970267446471446
 20
0.0
 30
0.0
 10
8.161329833273442
 20
0.0
 30
0.0
 10
8.352392220075437
 20
0.0
 30
0.0
 10
8.543454606877432
 20
0.0
 30
0.0
 10
8.593988546548829
 20
-0.000667186922847
 30
0.0
 10
8.620945102118476
 20
0.024175356852119
 30
0.0
 10
8.624338788720234
 20
0.0747462832149672
 30
0.0
 10
8.628364949693543
 20
0.1360647886941167
 30
0.0
 10
8.63239111066685
 20
0.1973832941732662
 30
0.0
 10
8.636417271640157
 20
0.2587017996524157
 30
0.0
 10
8.385820744851015
 20
0.2587017996524151
 30
0.0
 10
8.135224218061873
 20
0.2587017996524145
 30
0.0
 10
7.88462769127273
 20
0.2587017996524139
 30
0.0
 10
7.887030258034625
 20
0.197383294173265
 30
0.0
 10
7.889432824796521
 20
0.1360647886941161
 30
0.0
 10
7.891835391558416
 20
0.0747462832149672
 30
0.0
  0
ENDSEC
  0
SECTION
  2
OBJECTS
  0
DICTIONARY
  5
C
330
0
100
AcDbDictionary
281
     1
  3
ACAD_DETAILVIEWSTYLE
350
105
  3
ACAD_GROUP
350
D
  3
ACAD_LAYOUT
350
1A
  3
ACAD_MATERIAL
350
43
  3
ACAD_MLEADERSTYLE
350
6B
  3
ACAD_MLINESTYLE
350
17
  3
ACAD_PLOTSETTINGS
350
19
  3
ACAD_PLOTSTYLENAME
350
E
  3
ACAD_SCALELIST
350
47
  3
ACAD_SECTIONVIEWSTYLE
350
106
  3
ACAD_TABLESTYLE
350
69
  3
ACAD_VISUALSTYLE
350
2A
  3
ACDB_RECOMPOSE_DATA
350
102
  3
AcDbVariableDictionary
350
CA
  0
SUN
  5
6D
330
29
100
AcDbSun
 90
        1
290
     0
 63
     7
421
 16777215
 40
1.0
291
     1
 91
  2455826
 92
 54000000
292
     0
 70
     2
 71
   256
280
     1
  0
DICTIONARY
  5
105
102
{ACAD_REACTORS
330
C
102
}
330
C
100
AcDbDictionary
281
     1
  0
DICTIONARY
  5
D
102
{ACAD_REACTORS
330
C
102
}
330
C
100
AcDbDictionary
281
     1
  0
DICTIONARY
  5
1A
102
{ACAD_REACTORS
330
C
102
}
330
C
100
AcDbDictionary
281
     1
  3
Layout1
350
1E
  3
Layout2
350
26
  3
Model
350
22
  0
DICTIONARY
  5
43
102
{ACAD_REACTORS
330
C
102
}
330
C
100
AcDbDictionary
281
     1
  3
ByBlock
350
45
  3
ByLayer
350
44
  3
Global
350
46
  0
DICTIONARY
  5
6B
102
{ACAD_REACTORS
330
C
102
}
330
C
100
AcDbDictionary
281
     1
  3
Standard
350
6C
  0
DICTIONARY
  5
17
102
{ACAD_REACTORS
330
C
102
}
330
C
100
AcDbDictionary
281
     1
  3
Standard
350
18
  0
DICTIONARY
  5
19
102
{ACAD_REACTORS
330
C
102
}
330
C
100
AcDbDictionary
281
     1
  0
ACDBDICTIONARYWDFLT
  5
E
102
{ACAD_REACTORS
330
C
102
}
330
C
100
AcDbDictionary
281
     1
  3
Normal
350
F
100
AcDbDictionaryWithDefault
340
F
  0
DICTIONARY
  5
47
102
{ACAD_REACTORS
330
C
102
}
330
C
100
AcDbDictionary
281
     1
  3
A0
350
48
  3
A1
350
49
  3
A2
350
4A
  3
A3
350
4B
  3
A4
350
4C
  3
A5
350
4D
  3
A6
350
4E
  3
A7
350
4F
  3
A8
350
50
  3
A9
350
51
  3
B0
350
52
  3
B1
350
53
  3
B2
350
54
  3
B3
350
55
  3
B4
350
56
  3
B5
350
57
  3
B6
350
58
  3
B7
350
59
  3
B8
350
5A
  3
B9
350
5B
  3
C0
350
5C
  3
C1
350
5D
  3
C2
350
5E
  3
C3
350
5F
  3
C4
350
60
  3
C5
350
61
  3
C6
350
62
  3
C7
350
63
  3
C8
350
64
  3
C9
350
65
  3
D0
350
66
  3
D1
350
67
  3
D2
350
68
  0
DICTIONARY
  5
106
102
{ACAD_REACTORS
330
C
102
}
330
C
100
AcDbDictionary
281
     1
  0
DICTIONARY
  5
69
102
{ACAD_REACTORS
330
C
102
}
330
C
100
AcDbDictionary
281
     1
  3
Standard
350
6A
  0
DICTIONARY
  5
2A
102
{ACAD_REACTORS
330
C
102
}
330
C
100
AcDbDictionary
281
     1
  3
2dWireframe
350
2F
  3
Basic
350
32
  3
Brighten
350
36
  3
ColorChange
350
3A
  3
Conceptual
350
34
  3
Dim
350
35
  3
EdgeColorOff
350
3D
  3
Facepattern
350
39
  3
Flat
350
2B
  3
FlatWithEdges
350
2C
  3
Gouraud
350
2D
  3
GouraudWithEdges
350
2E
  3
Hidden
350
31
  3
JitterOff
350
3B
  3
Linepattern
350
38
  3
OverhangOff
350
3C
  3
Realistic
350
33
  3
Shaded
350
42
  3
Shaded with edges
350
41
  3
Shades of Gray
350
3E
  3
Sketchy
350
3F
  3
Thicken
350
37
  3
Wireframe
350
30
  3
X-Ray
350
40
  0
XRECORD
  5
102
102
{ACAD_REACTORS
330
C
102
}
330
C
100
AcDbXrecord
280
     1
 90
        1
330
6A
  0
DICTIONARY
  5
CA
102
{ACAD_REACTORS
330
C
102
}
330
C
100
AcDbDictionary
281
     1
  3
CANNOSCALE
350
CB
  3
CMLEADERSTYLE
350
104
  3
CTABLESTYLE
350
103
  3
XCLIPFRAME
350
CC
  0
LAYOUT
  5
1E
102
{ACAD_REACTORS
330
1A
102
}
330
1A
100
AcDbPlotSettings
  1

  2
none_device
  4

  6

 40
0.0
 41
0.0
 42
0.0
 43
0.0
 44
0.0
 45
0.0
 46
0.0
 47
0.0
 48
0.0
 49
0.0
140
0.0
141
0.0
142
1.0
143
1.0
 70
   688
 72
     0
 73
     0
 74
     5
  7

 75
    16
 76
     0
 77
     2
 78
   300
147
1.0
148
0.0
149
0.0
100
AcDbLayout
  1
Layout1
 70
     1
 71
     1
 10
0.0
 20
0.0
 11
12.0
 21
9.0
 12
0.0
 22
0.0
 32
0.0
 14
1.000000000000000E+20
 24
1.000000000000000E+20
 34
1.000000000000000E+20
 15
-1.000000000000000E+20
 25
-1.000000000000000E+20
 35
-1.000000000000000E+20
146
0.0
 13
0.0
 23
0.0
 33
0.0
 16
1.0
 26
0.0
 36
0.0
 17
0.0
 27
1.0
 37
0.0
 76
     0
330
1B
  0
LAYOUT
  5
26
102
{ACAD_REACTORS
330
1A
102
}
330
1A
100
AcDbPlotSettings
  1

  2
none_device
  4

  6

 40
0.0
 41
0.0
 42
0.0
 43
0.0
 44
0.0
 45
0.0
 46
0.0
 47
0.0
 48
0.0
 49
0.0
140
0.0
141
0.0
142
1.0
143
1.0
 70
   688
 72
     0
 73
     0
 74
     5
  7

 75
    16
 76
     0
 77
     2
 78
   300
147
1.0
148
0.0
149
0.0
100
AcDbLayout
  1
Layout2
 70
     1
 71
     2
 10
0.0
 20
0.0
 11
0.0
 21
0.0
 12
0.0
 22
0.0
 32
0.0
 14
0.0
 24
0.0
 34
0.0
 15
0.0
 25
0.0
 35
0.0
146
0.0
 13
0.0
 23
0.0
 33
0.0
 16
1.0
 26
0.0
 36
0.0
 17
0.0
 27
1.0
 37
0.0
 76
     0
330
23
  0
LAYOUT
  5
22
102
{ACAD_REACTORS
330
1A
102
}
330
1A
100
AcDbPlotSettings
  1

  2
none_device
  4
Letter_(8.50_x_11.00_Inches)
  6

 40
6.35
 41
6.35
 42
6.35000508
 43
6.35000508
 44
215.9
 45
279.4
 46
0.0
 47
0.0
 48
0.0
 49
0.0
140
0.0
141
0.0
142
1.0
143
1.0
 70
  1712
 72
     0
 73
     0
 74
     0
  7

 75
     0
 76
     0
 77
     2
 78
   300
147
1.0
148
0.0
149
0.0
100
AcDbLayout
  1
Model
 70
     1
 71
     0
 10
0.0
 20
0.0
 11
12.0
 21
9.0
 12
0.0
 22
0.0
 32
0.0
 14
1.000000000000000E+20
 24
1.000000000000000E+20
 34
1.000000000000000E+20
 15
-1.000000000000000E+20
 25
-1.000000000000000E+20
 35
-1.000000000000000E+20
146
0.0
 13
0.0
 23
0.0
 33
0.0
 16
1.0
 26
0.0
 36
0.0
 17
0.0
 27
1.0
 37
0.0
 76
     0
330
1F
331
29
  0
MATERIAL
  5
45
102
{ACAD_REACTORS
330
43
102
}
330
43
100
AcDbMaterial
  1
ByBlock
 72
     1
 94
      127
  0
MATERIAL
  5
44
102
{ACAD_REACTORS
330
43
102
}
330
43
100
AcDbMaterial
  1
ByLayer
 72
     1
 94
      127
  0
MATERIAL
  5
46
102
{ACAD_REACTORS
330
43
102
}
330
43
100
AcDbMaterial
  1
Global
 72
     1
 94
      127
  0
MLEADERSTYLE
  5
6C
102
{ACAD_REACTORS
330
6B
102
}
102
{ACAD_XDICTIONARY
360
100
102
}
330
6B
100
AcDbMLeaderStyle
170
     2
171
     1
172
     0
 90
        2
 40
0.0
 41
0.0
173
     1
 91
-1056964608
340
14
 92
       -2
290
     1
 42
0.09
291
     1
 43
0.36
  3
Standard
341
0
 44
0.18
300

342
11
174
     1
178
     6
175
     1
176
     0
 93
-1056964608
 45
0.18
292
     0
297
     0
 46
0.18
343
0
 94
-1056964608
 47
1.0
 49
1.0
140
1.0
293
     1
141
0.0
294
     1
177
     0
142
1.0
295
     0
296
     0
143
0.125
1001
ACAD_MLEADERVER
1070
     2
  0
MLINESTYLE
  5
18
102
{ACAD_REACTORS
330
17
102
}
330
17
100
AcDbMlineStyle
  2
Standard
 70
     0
  3

 62
   256
 51
90.0
 52
90.0
 71
     2
 49
0.5
 62
   256
  6
BYLAYER
 49
-0.5
 62
   256
  6
BYLAYER
  0
ACDBPLACEHOLDER
  5
F
102
{ACAD_REACTORS
330
E
102
}
330
E
  0
SCALE
  5
48
102
{ACAD_REACTORS
330
47
102
}
330
47
100
AcDbScale
 70
     0
300
1:1
140
1.0
141
1.0
290
     1
  0
SCALE
  5
49
102
{ACAD_REACTORS
330
47
102
}
330
47
100
AcDbScale
 70
     0
300
1:2
140
1.0
141
2.0
290
     0
  0
SCALE
  5
4A
102
{ACAD_REACTORS
330
47
102
}
330
47
100
AcDbScale
 70
     0
300
1:4
140
1.0
141
4.0
290
     0
  0
SCALE
  5
4B
102
{ACAD_REACTORS
330
47
102
}
330
47
100
AcDbScale
 70
     0
300
1:5
140
1.0
141
5.0
290
     0
  0
SCALE
  5
4C
102
{ACAD_REACTORS
330
47
102
}
330
47
100
AcDbScale
 70
     0
300
1:8
140
1.0
141
8.0
290
     0
  0
SCALE
  5
4D
102
{ACAD_REACTORS
330
47
102
}
330
47
100
AcDbScale
 70
     0
300
1:10
140
1.0
141
10.0
290
     0
  0
SCALE
  5
4E
102
{ACAD_REACTORS
330
47
102
}
330
47
100
AcDbScale
 70
     0
300
1:16
140
1.0
141
16.0
290
     0
  0
SCALE
  5
4F
102
{ACAD_REACTORS
330
47
102
}
330
47
100
AcDbScale
 70
     0
300
1:20
140
1.0
141
20.0
290
     0
  0
SCALE
  5
50
102
{ACAD_REACTORS
330
47
102
}
330
47
100
AcDbScale
 70
     0
300
1:30
140
1.0
141
30.0
290
     0
  0
SCALE
  5
51
102
{ACAD_REACTORS
330
47
102
}
330
47
100
AcDbScale
 70
     0
300
1:40
140
1.0
141
40.0
290
     0
  0
SCALE
  5
52
102
{ACAD_REACTORS
330
47
102
}
330
47
100
AcDbScale
 70
     0
300
1:50
140
1.0
141
50.0
290
     0
  0
SCALE
  5
53
102
{ACAD_REACTORS
330
47
102
}
330
47
100
AcDbScale
 70
     0
300
1:100
140
1.0
141
100.0
290
     0
  0
SCALE
  5
54
102
{ACAD_REACTORS
330
47
102
}
330
47
100
AcDbScale
 70
     0
300
2:1
140
2.0
141
1.0
290
     0
  0
SCALE
  5
55
102
{ACAD_REACTORS
330
47
102
}
330
47
100
AcDbScale
 70
     0
300
4:1
140
4.0
141
1.0
290
     0
  0
SCALE
  5
56
102
{ACAD_REACTORS
330
47
102
}
330
47
100
AcDbScale
 70
     0
300
8:1
140
8.0
141
1.0
290
     0
  0
SCALE
  5
57
102
{ACAD_REACTORS
330
47
102
}
330
47
100
AcDbScale
 70
     0
300
10:1
140
10.0
141
1.0
290
     0
  0
SCALE
  5
58
102
{ACAD_REACTORS
330
47
102
}
330
47
100
AcDbScale
 70
     0
300
100:1
140
100.0
141
1.0
290
     0
  0
SCALE
  5
59
102
{ACAD_REACTORS
330
47
102
}
330
47
100
AcDbScale
 70
     0
300
1/128" = 1'-0"
140
0.0078125
141
12.0
290
     0
  0
SCALE
  5
5A
102
{ACAD_REACTORS
330
47
102
}
330
47
100
AcDbScale
 70
     0
300
1/64" = 1'-0"
140
0.015625
141
12.0
290
     0
  0
SCALE
  5
5B
102
{ACAD_REACTORS
330
47
102
}
330
47
100
AcDbScale
 70
     0
300
1/32" = 1'-0"
140
0.03125
141
12.0
290
     0
  0
SCALE
  5
5C
102
{ACAD_REACTORS
330
47
102
}
330
47
100
AcDbScale
 70
     0
300
1/16" = 1'-0"
140
0.0625
141
12.0
290
     0
  0
SCALE
  5
5D
102
{ACAD_REACTORS
330
47
102
}
330
47
100
AcDbScale
 70
     0
300
3/32" = 1'-0"
140
0.09375
141
12.0
290
     0
  0
SCALE
  5
5E
102
{ACAD_REACTORS
330
47
102
}
330
47
100
AcDbScale
 70
     0
300
1/8" = 1'-0"
140
0.125
141
12.0
290
     0
  0
SCALE
  5
5F
102
{ACAD_REACTORS
330
47
102
}
330
47
100
AcDbScale
 70
     0
300
3/16" = 1'-0"
140
0.1875
141
12.0
290
     0
  0
SCALE
  5
60
102
{ACAD_REACTORS
330
47
102
}
330
47
100
AcDbScale
 70
     0
300
1/4" = 1'-0"
140
0.25
141
12.0
290
     0
  0
SCALE
  5
61
102
{ACAD_REACTORS
330
47
102
}
330
47
100
AcDbScale
 70
     0
300
3/8" = 1'-0"
140
0.375
141
12.0
290
     0
  0
SCALE
  5
62
102
{ACAD_REACTORS
330
47
102
}
330
47
100
AcDbScale
 70
     0
300
1/2" = 1'-0"
140
0.5
141
12.0
290
     0
  0
SCALE
  5
63
102
{ACAD_REACTORS
330
47
102
}
330
47
100
AcDbScale
 70
     0
300
3/4" = 1'-0"
140
0.75
141
12.0
290
     0
  0
SCALE
  5
64
102
{ACAD_REACTORS
330
47
102
}
330
47
100
AcDbScale
 70
     0
300
1" = 1'-0"
140
1.0
141
12.0
290
     0
  0
SCALE
  5
65
102
{ACAD_REACTORS
330
47
102
}
330
47
100
AcDbScale
 70
     0
300
1-1/2" = 1'-0"
140
1.5
141
12.0
290
     0
  0
SCALE
  5
66
102
{ACAD_REACTORS
330
47
102
}
330
47
100
AcDbScale
 70
     0
300
3" = 1'-0"
140
3.0
141
12.0
290
     0
  0
SCALE
  5
67
102
{ACAD_REACTORS
330
47
102
}
330
47
100
AcDbScale
 70
     0
300
6" = 1'-0"
140
6.0
141
12.0
290
     0
  0
SCALE
  5
68
102
{ACAD_REACTORS
330
47
102
}
330
47
100
AcDbScale
 70
     0
300
1'-0" = 1'-0"
140
12.0
141
12.0
290
     0
  0
TABLESTYLE
  5
6A
102
{ACAD_REACTORS
330
69
102
}
102
{ACAD_XDICTIONARY
360
FD
102
}
330
69
100
AcDbTableStyle
  3
Standard
 70
     0
 71
     0
 40
0.06
 41
0.06
280
     0
281
     0
  7
Standard
140
0.18
170
     2
 62
     0
 63
   257
283
     0
 90
        4
 91
        0
  1

274
    -2
284
     1
 64
     0
275
    -2
285
     1
 65
     0
276
    -2
286
     1
 66
     0
277
    -2
287
     1
 67
     0
278
    -2
288
     1
 68
     0
279
    -2
289
     1
 69
     0
  7
Standard
140
0.25
170
     5
 62
     0
 63
   257
283
     0
 90
        4
 91
        0
  1

274
    -2
284
     1
 64
     0
275
    -2
285
     1
 65
     0
276
    -2
286
     1
 66
     0
277
    -2
287
     1
 67
     0
278
    -2
288
     1
 68
     0
279
    -2
289
     1
 69
     0
  7
Standard
140
0.18
170
     5
 62
     0
 63
   257
283
     0
 90
        4
 91
        0
  1

274
    -2
284
     1
 64
     0
275
    -2
285
     1
 65
     0
276
    -2
286
     1
 66
     0
277
    -2
287
     1
 67
     0
278
    -2
288
     1
 68
     0
279
    -2
289
     1
 69
     0
  0
VISUALSTYLE
  5
2F
102
{ACAD_REACTORS
330
2A
102
}
102
{ACAD_XDICTIONARY
360
D5
102
}
330
2A
100
AcDbVisualStyle
  2
2dWireframe
 70
     4
 71
     0
 72
     2
 73
     0
 90
        0
 40
0.6
 41
30.0
 62
     5
 63
     7
421
 16777215
 74
     1
 91
        4
 64
     7
 65
   257
 75
     1
175
     1
 42
1.0
 92
        0
 66
   257
 43
1.0
 76
     1
 77
     6
 78
     2
 67
     7
 79
     5
170
     0
171
     0
290
     0
174
     0
 93
        1
 44
0.0
173
     0
291
     0
 45
0.0
  0
VISUALSTYLE
  5
32
102
{ACAD_REACTORS
330
2A
102
}
102
{ACAD_XDICTIONARY
360
DB
102
}
330
2A
100
AcDbVisualStyle
  2
Basic
 70
     7
 71
     1
 72
     0
 73
     1
 90
        0
 40
0.6
 41
30.0
 62
     5
 63
     7
421
 16777215
 74
     0
 91
        4
 64
     7
 65
   257
 75
     1
175
     1
 42
1.0
 92
        8
 66
     7
 43
1.0
 76
     1
 77
     6
 78
     2
 67
     7
 79
     5
170
     0
171
     0
290
     0
174
     0
 93
        1
 44
0.0
173
     0
291
     1
 45
0.0
  0
VISUALSTYLE
  5
36
102
{ACAD_REACTORS
330
2A
102
}
102
{ACAD_XDICTIONARY
360
E3
102
}
330
2A
100
AcDbVisualStyle
  2
Brighten
 70
    12
 71
     2
 72
     2
 73
     0
 90
        0
 40
0.6
 41
30.0
 62
     5
 63
     7
421
 16777215
 74
     1
 91
        4
 64
     7
 65
   257
 75
     1
175
     1
 42
1.0
 92
        8
 66
     7
 43
1.0
 76
     1
 77
     6
 78
     2
 67
     7
 79
     5
170
     0
171
     0
290
     0
174
     0
 93
        1
 44
50.0
173
     0
291
     1
 45
0.0
  0
VISUALSTYLE
  5
3A
102
{ACAD_REACTORS
330
2A
102
}
102
{ACAD_XDICTIONARY
360
EB
102
}
330
2A
100
AcDbVisualStyle
  2
ColorChange
 70
    16
 71
     2
 72
     2
 73
     3
 90
        0
 40
0.6
 41
30.0
 62
     5
 63
     8
421
  8421504
 74
     1
 91
        4
 64
     7
 65
   257
 75
     1
175
     1
 42
1.0
 92
        8
 66
     8
424
  8421504
 43
1.0
 76
     1
 77
     6
 78
     2
 67
     7
 79
     5
170
     0
171
     0
290
     0
174
     0
 93
        1
 44
0.0
173
     0
291
     1
 45
0.0
  0
VISUALSTYLE
  5
34
102
{ACAD_REACTORS
330
2A
102
}
102
{ACAD_XDICTIONARY
360
DF
102
}
330
2A
100
AcDbVisualStyle
  2
Conceptual
 70
     9
 71
     3
 72
     2
 73
     0
 90
        0
 40
0.6
 41
30.0
 62
     5
 63
     7
421
 16777215
 74
     2
 91
        2
 64
     7
 65
   257
 75
     1
175
     1
 42
179.0
 92
        8
 66
     7
 43
1.0
 76
     1
 77
     6
 78
     2
 67
     7
 79
     3
170
     0
171
     0
290
     0
174
     0
 93
        1
 44
0.0
173
     0
291
     0
 45
0.0
  0
VISUALSTYLE
  5
35
102
{ACAD_REACTORS
330
2A
102
}
102
{ACAD_XDICTIONARY
360
E1
102
}
330
2A
100
AcDbVisualStyle
  2
Dim
 70
    11
 71
     2
 72
     2
 73
     0
 90
        0
 40
0.6
 41
30.0
 62
     5
 63
     7
421
 16777215
 74
     1
 91
        4
 64
     7
 65
   257
 75
     1
175
     1
 42
1.0
 92
        8
 66
     7
 43
1.0
 76
     1
 77
     6
 78
     2
 67
     7
 79
     5
170
     0
171
     0
290
     0
174
     0
 93
        1
 44
-50.0
173
     0
291
     1
 45
0.0
  0
VISUALSTYLE
  5
3D
102
{ACAD_REACTORS
330
2A
102
}
102
{ACAD_XDICTIONARY
360
F1
102
}
330
2A
100
AcDbVisualStyle
  2
EdgeColorOff
 70
    22
 71
     2
 72
     2
 73
     0
 90
        0
 40
0.6
 41
30.0
 62
     5
 63
     7
421
 16777215
 74
     1
 91
        4
 64
     7
 65
   257
 75
     1
175
     1
 42
1.0
 92
        8
 66
     7
 43
1.0
 76
     1
 77
     6
 78
     2
 67
     7
 79
     5
170
     0
171
     0
290
     0
174
     0
 93
        1
 44
0.0
173
     0
291
     1
 45
0.0
  0
VISUALSTYLE
  5
39
102
{ACAD_REACTORS
330
2A
102
}
102
{ACAD_XDICTIONARY
360
E9
102
}
330
2A
100
AcDbVisualStyle
  2
Facepattern
 70
    15
 71
     2
 72
     2
 73
     0
 90
        0
 40
0.6
 41
30.0
 62
     5
 63
     7
421
 16777215
 74
     1
 91
        4
 64
     7
 65
   257
 75
     1
175
     1
 42
1.0
 92
        8
 66
     7
 43
1.0
 76
     1
 77
     6
 78
     2
 67
     7
 79
     5
170
     0
171
     0
290
     0
174
     0
 93
        1
 44
0.0
173
     0
291
     1
 45
0.0
  0
VISUALSTYLE
  5
2B
102
{ACAD_REACTORS
330
2A
102
}
102
{ACAD_XDICTIONARY
360
CD
102
}
330
2A
100
AcDbVisualStyle
  2
Flat
 70
     0
 71
     2
 72
     1
 73
     1
 90
        2
 40
0.6
 41
30.0
 62
     5
 63
     7
421
 16777215
 74
     0
 91
        0
 64
     7
 65
   257
 75
     1
175
     1
 42
1.0
 92
        8
 66
     7
 43
1.0
 76
     1
 77
     6
 78
     2
 67
     7
 79
     5
170
     0
171
     0
290
     0
174
     0
 93
       13
 44
0.0
173
     0
291
     1
 45
0.0
  0
VISUALSTYLE
  5
2C
102
{ACAD_REACTORS
330
2A
102
}
102
{ACAD_XDICTIONARY
360
CF
102
}
330
2A
100
AcDbVisualStyle
  2
FlatWithEdges
 70
     1
 71
     2
 72
     1
 73
     1
 90
        2
 40
0.6
 41
30.0
 62
     5
 63
     7
421
 16777215
 74
     1
 91
        0
 64
     7
 65
   257
 75
     1
175
     1
 42
1.0
 92
        0
 66
   257
 43
1.0
 76
     1
 77
     6
 78
     2
 67
     7
 79
     5
170
     0
171
     0
290
     0
174
     0
 93
       13
 44
0.0
173
     0
291
     1
 45
0.0
  0
VISUALSTYLE
  5
2D
102
{ACAD_REACTORS
330
2A
102
}
102
{ACAD_XDICTIONARY
360
D1
102
}
330
2A
100
AcDbVisualStyle
  2
Gouraud
 70
     2
 71
     2
 72
     2
 73
     1
 90
        2
 40
0.6
 41
30.0
 62
     5
 63
     7
421
 16777215
 74
     0
 91
        0
 64
     7
 65
   257
 75
     1
175
     1
 42
1.0
 92
        0
 66
     7
 43
1.0
 76
     1
 77
     6
 78
     2
 67
     7
 79
     5
170
     0
171
     0
290
     0
174
     0
 93
       13
 44
0.0
173
     0
291
     1
 45
0.0
  0
VISUALSTYLE
  5
2E
102
{ACAD_REACTORS
330
2A
102
}
102
{ACAD_XDICTIONARY
360
D3
102
}
330
2A
100
AcDbVisualStyle
  2
GouraudWithEdges
 70
     3
 71
     2
 72
     2
 73
     1
 90
        2
 40
0.6
 41
30.0
 62
     5
 63
     7
421
 16777215
 74
     1
 91
        0
 64
     7
 65
   257
 75
     1
175
     1
 42
1.0
 92
        0
 66
   257
 43
1.0
 76
     1
 77
     6
 78
     2
 67
     7
 79
     5
170
     0
171
     0
290
     0
174
     0
 93
       13
 44
0.0
173
     0
291
     1
 45
0.0
  0
VISUALSTYLE
  5
31
102
{ACAD_REACTORS
330
2A
102
}
102
{ACAD_XDICTIONARY
360
D9
102
}
330
2A
100
AcDbVisualStyle
  2
Hidden
 70
     6
 71
     1
 72
     2
 73
     2
 90
        0
 40
0.6
 41
30.0
 62
     5
 63
     7
421
 16777215
 74
     2
 91
        2
 64
     7
 65
   257
 75
     2
175
     1
 42
40.0
 92
        0
 66
   257
 43
1.0
 76
     1
 77
     6
 78
     2
 67
     7
 79
     3
170
     0
171
     0
290
     0
174
     0
 93
        1
 44
0.0
173
     0
291
     0
 45
0.0
  0
VISUALSTYLE
  5
3B
102
{ACAD_REACTORS
330
2A
102
}
102
{ACAD_XDICTIONARY
360
ED
102
}
330
2A
100
AcDbVisualStyle
  2
JitterOff
 70
    20
 71
     2
 72
     2
 73
     0
 90
        0
 40
0.6
 41
30.0
 62
     5
 63
     7
421
 16777215
 74
     1
 91
        4
 64
     7
 65
   257
 75
     1
175
     1
 42
1.0
 92
       10
 66
     7
 43
1.0
 76
     1
 77
     6
 78
     2
 67
     7
 79
     5
170
     0
171
     0
290
     0
174
     0
 93
        1
 44
0.0
173
     0
291
     1
 45
0.0
  0
VISUALSTYLE
  5
38
102
{ACAD_REACTORS
330
2A
102
}
102
{ACAD_XDICTIONARY
360
E7
102
}
330
2A
100
AcDbVisualStyle
  2
Linepattern
 70
    14
 71
     2
 72
     2
 73
     0
 90
        0
 40
0.6
 41
30.0
 62
     5
 63
     7
421
 16777215
 74
     1
 91
        4
 64
     7
 65
   257
 75
     7
175
     7
 42
1.0
 92
        8
 66
     7
 43
1.0
 76
     1
 77
     6
 78
     2
 67
     7
 79
     5
170
     0
171
     0
290
     0
174
     0
 93
        1
 44
0.0
173
     0
291
     1
 45
0.0
  0
VISUALSTYLE
  5
3C
102
{ACAD_REACTORS
330
2A
102
}
102
{ACAD_XDICTIONARY
360
EF
102
}
330
2A
100
AcDbVisualStyle
  2
OverhangOff
 70
    21
 71
     2
 72
     2
 73
     0
 90
        0
 40
0.6
 41
30.0
 62
     5
 63
     7
421
 16777215
 74
     1
 91
        4
 64
     7
 65
   257
 75
     1
175
     1
 42
1.0
 92
        9
 66
     7
 43
1.0
 76
     1
 77
     6
 78
     2
 67
     7
 79
     5
170
     0
171
     0
290
     0
174
     0
 93
        1
 44
0.0
173
     0
291
     1
 45
0.0
  0
VISUALSTYLE
  5
33
102
{ACAD_REACTORS
330
2A
102
}
102
{ACAD_XDICTIONARY
360
DD
102
}
330
2A
100
AcDbVisualStyle
  2
Realistic
 70
     8
 71
     2
 72
     3
 73
     0
 90
        2
 40
0.6
 41
30.0
 62
     5
 63
     7
421
 16777215
 74
     0
 91
        0
 64
     7
 65
   257
 75
     1
175
     1
 42
1.0
 92
        8
 66
   257
 43
1.0
 76
     1
 77
     6
 78
     2
 67
     7
 79
     3
170
     0
171
     0
290
     0
174
     0
 93
       13
 44
0.0
173
     0
291
     0
 45
0.0
  0
VISUALSTYLE
  5
42
102
{ACAD_REACTORS
330
2A
102
}
102
{ACAD_XDICTIONARY
360
FB
102
}
330
2A
100
AcDbVisualStyle
  2
Shaded
 70
    27
 71
     2
 72
     2
 73
     1
 90
        2
 40
0.6
 41
30.0
 62
     5
 63
     7
421
 16777215
 74
     0
 91
        4
 64
     7
 65
   257
 75
     1
175
     1
 42
1.0
 92
        8
 66
   257
 43
1.0
 76
     1
 77
     6
 78
     2
 67
     8
425
  7895160
 79
     3
170
     0
171
     0
290
     0
174
     0
 93
        5
 44
0.0
173
     0
291
     0
 45
0.0
  0
VISUALSTYLE
  5
41
102
{ACAD_REACTORS
330
2A
102
}
102
{ACAD_XDICTIONARY
360
F9
102
}
330
2A
100
AcDbVisualStyle
  2
Shaded with edges
 70
    26
 71
     2
 72
     2
 73
     1
 90
        2
 40
0.6
 41
30.0
 62
     5
 63
     7
421
 16777215
 74
     1
 91
       10
 64
     7
 65
   257
 75
     2
175
     1
 42
1.0
 92
        8
 66
   257
 43
1.0
 76
     1
 77
     6
 78
     2
 67
     7
 79
     3
170
     0
171
     0
290
     0
174
     0
 93
        5
 44
0.0
173
     0
291
     0
 45
0.0
  0
VISUALSTYLE
  5
3E
102
{ACAD_REACTORS
330
2A
102
}
102
{ACAD_XDICTIONARY
360
F3
102
}
330
2A
100
AcDbVisualStyle
  2
Shades of Gray
 70
    23
 71
     2
 72
     2
 73
     3
 90
        0
 40
0.6
 41
30.0
 62
     5
 63
     7
421
 16777215
 74
     2
 91
        2
 64
     7
 65
     7
 75
     1
175
     1
 42
40.0
 92
        8
 66
     7
 43
1.0
 76
     1
 77
     6
 78
     2
 67
     7
 79
     3
170
     0
171
     0
290
     0
174
     0
 93
        1
 44
0.0
173
     0
291
     0
 45
0.0
  0
VISUALSTYLE
  5
3F
102
{ACAD_REACTORS
330
2A
102
}
102
{ACAD_XDICTIONARY
360
F5
102
}
330
2A
100
AcDbVisualStyle
  2
Sketchy
 70
    24
 71
     1
 72
     2
 73
     2
 90
        0
 40
0.6
 41
30.0
 62
     5
 63
     7
421
 16777215
 74
     2
 91
        2
 64
     7
 65
     7
 75
     1
175
     1
 42
40.0
 92
       11
 66
     7
 43
1.0
 76
     1
 77
     6
 78
     2
 67
     7
 79
     6
170
     0
171
     0
290
     0
174
     0
 93
        1
 44
0.0
173
     0
291
     0
 45
0.0
  0
VISUALSTYLE
  5
37
102
{ACAD_REACTORS
330
2A
102
}
102
{ACAD_XDICTIONARY
360
E5
102
}
330
2A
100
AcDbVisualStyle
  2
Thicken
 70
    13
 71
     2
 72
     2
 73
     0
 90
        0
 40
0.6
 41
30.0
 62
     5
 63
     7
421
 16777215
 74
     1
 91
        4
 64
     7
 65
   257
 75
     1
175
     1
 42
1.0
 92
       12
 66
     7
 43
1.0
 76
     1
 77
     6
 78
     2
 67
     7
 79
     5
170
     0
171
     0
290
     0
174
     0
 93
        1
 44
0.0
173
     0
291
     1
 45
0.0
  0
VISUALSTYLE
  5
30
102
{ACAD_REACTORS
330
2A
102
}
102
{ACAD_XDICTIONARY
360
D7
102
}
330
2A
100
AcDbVisualStyle
  2
Wireframe
 70
     5
 71
     0
 72
     2
 73
     0
 90
        0
 40
0.6
 41
30.0
 62
     5
 63
     7
421
 16777215
 74
     1
 91
        4
 64
     7
 65
   257
 75
     1
175
     1
 42
1.0
 92
        0
 66
   257
 43
1.0
 76
     1
 77
     6
 78
     2
 67
     7
 79
     3
170
     0
171
     0
290
     0
174
     0
 93
        1
 44
0.0
173
     0
291
     0
 45
0.0
  0
VISUALSTYLE
  5
40
102
{ACAD_REACTORS
330
2A
102
}
102
{ACAD_XDICTIONARY
360
F7
102
}
330
2A
100
AcDbVisualStyle
  2
X-Ray
 70
    25
 71
     2
 72
     2
 73
     1
 90
        1
 40
0.5
 41
30.0
 62
     5
 63
     7
421
 16777215
 74
     1
 91
        0
 64
     7
 65
   257
 75
     1
175
     1
 42
1.0
 92
        8
 66
     7
 43
1.0
 76
     1
 77
     6
 78
     2
 67
     7
 79
     3
170
     0
171
     0
290
     0
174
     0
 93
       13
 44
0.0
173
     0
291
     0
 45
0.0
  0
DICTIONARYVAR
  5
CB
102
{ACAD_REACTORS
330
CA
102
}
330
CA
100
DictionaryVariables
280
     0
  1
1:1
  0
DICTIONARYVAR
  5
104
102
{ACAD_REACTORS
330
CA
102
}
330
CA
100
DictionaryVariables
280
     0
  1
Standard
  0
DICTIONARYVAR
  5
103
102
{ACAD_REACTORS
330
CA
102
}
330
CA
100
DictionaryVariables
280
     0
  1
Standard
  0
DICTIONARYVAR
  5
CC
102
{ACAD_REACTORS
330
CA
102
}
330
CA
100
DictionaryVariables
280
     0
  1
2
  0
DICTIONARY
  5
100
330
6C
100
AcDbDictionary
280
     1
281
     1
  3
ACAD_XREC_ROUNDTRIP
360
101
  0
DICTIONARY
  5
FD
330
6A
100
AcDbDictionary
280
     1
281
     1
  3
ACAD_ROUNDTRIP_2008_TABLESTYLE_CELLSTYLEMAP
360
FE
  0
DICTIONARY
  5
D5
330
2F
100
AcDbDictionary
280
     1
281
     1
  3
ACAD_XREC_ROUNDTRIP
360
D6
  0
DICTIONARY
  5
DB
330
32
100
AcDbDictionary
280
     1
281
     1
  3
ACAD_XREC_ROUNDTRIP
360
DC
  0
DICTIONARY
  5
E3
330
36
100
AcDbDictionary
280
     1
281
     1
  3
ACAD_XREC_ROUNDTRIP
360
E4
  0
DICTIONARY
  5
EB
330
3A
100
AcDbDictionary
280
     1
281
     1
  3
ACAD_XREC_ROUNDTRIP
360
EC
  0
DICTIONARY
  5
DF
330
34
100
AcDbDictionary
280
     1
281
     1
  3
ACAD_XREC_ROUNDTRIP
360
E0
  0
DICTIONARY
  5
E1
330
35
100
AcDbDictionary
280
     1
281
     1
  3
ACAD_XREC_ROUNDTRIP
360
E2
  0
DICTIONARY
  5
F1
330
3D
100
AcDbDictionary
280
     1
281
     1
  3
ACAD_XREC_ROUNDTRIP
360
F2
  0
DICTIONARY
  5
E9
330
39
100
AcDbDictionary
280
     1
281
     1
  3
ACAD_XREC_ROUNDTRIP
360
EA
  0
DICTIONARY
  5
CD
330
2B
100
AcDbDictionary
280
     1
281
     1
  3
ACAD_XREC_ROUNDTRIP
360
CE
  0
DICTIONARY
  5
CF
330
2C
100
AcDbDictionary
280
     1
281
     1
  3
ACAD_XREC_ROUNDTRIP
360
D0
  0
DICTIONARY
  5
D1
330
2D
100
AcDbDictionary
280
     1
281
     1
  3
ACAD_XREC_ROUNDTRIP
360
D2
  0
DICTIONARY
  5
D3
330
2E
100
AcDbDictionary
280
     1
281
     1
  3
ACAD_XREC_ROUNDTRIP
360
D4
  0
DICTIONARY
  5
D9
330
31
100
AcDbDictionary
280
     1
281
     1
  3
ACAD_XREC_ROUNDTRIP
360
DA
  0
DICTIONARY
  5
ED
330
3B
100
AcDbDictionary
280
     1
281
     1
  3
ACAD_XREC_ROUNDTRIP
360
EE
  0
DICTIONARY
  5
E7
330
38
100
AcDbDictionary
280
     1
281
     1
  3
ACAD_XREC_ROUNDTRIP
360
E8
  0
DICTIONARY
  5
EF
330
3C
100
AcDbDictionary
280
     1
281
     1
  3
ACAD_XREC_ROUNDTRIP
360
F0
  0
DICTIONARY
  5
DD
330
33
100
AcDbDictionary
280
     1
281
     1
  3
ACAD_XREC_ROUNDTRIP
360
DE
  0
DICTIONARY
  5
FB
330
42
100
AcDbDictionary
280
     1
281
     1
  3
ACAD_XREC_ROUNDTRIP
360
FC
  0
DICTIONARY
  5
F9
330
41
100
AcDbDictionary
280
     1
281
     1
  3
ACAD_XREC_ROUNDTRIP
360
FA
  0
DICTIONARY
  5
F3
330
3E
100
AcDbDictionary
280
     1
281
     1
  3
ACAD_XREC_ROUNDTRIP
360
F4
  0
DICTIONARY
  5
F5
330
3F
100
AcDbDictionary
280
     1
281
     1
  3
ACAD_XREC_ROUNDTRIP
360
F6
  0
DICTIONARY
  5
E5
330
37
100
AcDbDictionary
280
     1
281
     1
  3
ACAD_XREC_ROUNDTRIP
360
E6
  0
DICTIONARY
  5
D7
330
30
100
AcDbDictionary
280
     1
281
     1
  3
ACAD_XREC_ROUNDTRIP
360
D8
  0
DICTIONARY
  5
F7
330
40
100
AcDbDictionary
280
     1
281
     1
  3
ACAD_XREC_ROUNDTRIP
360
F8
  0
XRECORD
  5
101
102
{ACAD_REACTORS
330
100
102
}
330
100
100
AcDbXrecord
280
     1
102
ACAD_ROUNDTRIP_2010_MLEADER_STYLE
  0
CELLSTYLEMAP
  5
FE
102
{ACAD_REACTORS
330
FD
102
}
330
FD
100
AcDbCellStyleMap
 90
        3
300
CELLSTYLE
  1
TABLEFORMAT_BEGIN
 90
        5
170
     1
 91
        0
 92
    32768
 62
   257
 93
        1
300
CONTENTFORMAT
  1
CONTENTFORMAT_BEGIN
 90
        0
 91
        0
 92
        4
 93
        0
300

 40
0.0
140
1.0
 94
        5
 62
     0
340
11
144
0.25
309
CONTENTFORMAT_END
171
     1
301
MARGIN
  1
CELLMARGIN_BEGIN
 40
0.06
 40
0.06
 40
0.06
 40
0.06
 40
0.06
 40
0.06
309
CELLMARGIN_END
 94
        6
 95
        1
302
GRIDFORMAT
  1
GRIDFORMAT_BEGIN
 90
        0
 91
        1
 62
     0
 92
       -2
340
14
 93
        0
 40
0.045
309
GRIDFORMAT_END
 95
        2
302
GRIDFORMAT
  1
GRIDFORMAT_BEGIN
 90
        0
 91
        1
 62
     0
 92
       -2
340
14
 93
        0
 40
0.045
309
GRIDFORMAT_END
 95
        4
302
GRIDFORMAT
  1
GRIDFORMAT_BEGIN
 90
        0
 91
        1
 62
     0
 92
       -2
340
14
 93
        0
 40
0.045
309
GRIDFORMAT_END
 95
        8
302
GRIDFORMAT
  1
GRIDFORMAT_BEGIN
 90
        0
 91
        1
 62
     0
 92
       -2
340
14
 93
        0
 40
0.045
309
GRIDFORMAT_END
 95
       16
302
GRIDFORMAT
  1
GRIDFORMAT_BEGIN
 90
        0
 91
        1
 62
     0
 92
       -2
340
14
 93
        0
 40
0.045
309
GRIDFORMAT_END
 95
       32
302
GRIDFORMAT
  1
GRIDFORMAT_BEGIN
 90
        0
 91
        1
 62
     0
 92
       -2
340
14
 93
        0
 40
0.045
309
GRIDFORMAT_END
309
TABLEFORMAT_END
  1
CELLSTYLE_BEGIN
 90
        1
 91
        1
300
_TITLE
309
CELLSTYLE_END
300
CELLSTYLE
  1
TABLEFORMAT_BEGIN
 90
        5
170
     1
 91
        0
 92
        0
 62
   257
 93
        1
300
CONTENTFORMAT
  1
CONTENTFORMAT_BEGIN
 90
        0
 91
        0
 92
        4
 93
        0
300

 40
0.0
140
1.0
 94
        5
 62
     0
340
11
144
0.18
309
CONTENTFORMAT_END
171
     1
301
MARGIN
  1
CELLMARGIN_BEGIN
 40
0.06
 40
0.06
 40
0.06
 40
0.06
 40
0.06
 40
0.06
309
CELLMARGIN_END
 94
        6
 95
        1
302
GRIDFORMAT
  1
GRIDFORMAT_BEGIN
 90
        0
 91
        1
 62
     0
 92
       -2
340
14
 93
        0
 40
0.045
309
GRIDFORMAT_END
 95
        2
302
GRIDFORMAT
  1
GRIDFORMAT_BEGIN
 90
        0
 91
        1
 62
     0
 92
       -2
340
14
 93
        0
 40
0.045
309
GRIDFORMAT_END
 95
        4
302
GRIDFORMAT
  1
GRIDFORMAT_BEGIN
 90
        0
 91
        1
 62
     0
 92
       -2
340
14
 93
        0
 40
0.045
309
GRIDFORMAT_END
 95
        8
302
GRIDFORMAT
  1
GRIDFORMAT_BEGIN
 90
        0
 91
        1
 62
     0
 92
       -2
340
14
 93
        0
 40
0.045
309
GRIDFORMAT_END
 95
       16
302
GRIDFORMAT
  1
GRIDFORMAT_BEGIN
 90
        0
 91
        1
 62
     0
 92
       -2
340
14
 93
        0
 40
0.045
309
GRIDFORMAT_END
 95
       32
302
GRIDFORMAT
  1
GRIDFORMAT_BEGIN
 90
        0
 91
        1
 62
     0
 92
       -2
340
14
 93
        0
 40
0.045
309
GRIDFORMAT_END
309
TABLEFORMAT_END
  1
CELLSTYLE_BEGIN
 90
        2
 91
        1
300
_HEADER
309
CELLSTYLE_END
300
CELLSTYLE
  1
TABLEFORMAT_BEGIN
 90
        5
170
     1
 91
        0
 92
        0
 62
   257
 93
        1
300
CONTENTFORMAT
  1
CONTENTFORMAT_BEGIN
 90
        0
 91
        0
 92
        4
 93
        0
300

 40
0.0
140
1.0
 94
        2
 62
     0
340
11
144
0.18
309
CONTENTFORMAT_END
171
     1
301
MARGIN
  1
CELLMARGIN_BEGIN
 40
0.06
 40
0.06
 40
0.06
 40
0.06
 40
0.06
 40
0.06
309
CELLMARGIN_END
 94
        6
 95
        1
302
GRIDFORMAT
  1
GRIDFORMAT_BEGIN
 90
        0
 91
        1
 62
     0
 92
       -2
340
14
 93
        0
 40
0.045
309
GRIDFORMAT_END
 95
        2
302
GRIDFORMAT
  1
GRIDFORMAT_BEGIN
 90
        0
 91
        1
 62
     0
 92
       -2
340
14
 93
        0
 40
0.045
309
GRIDFORMAT_END
 95
        4
302
GRIDFORMAT
  1
GRIDFORMAT_BEGIN
 90
        0
 91
        1
 62
     0
 92
       -2
340
14
 93
        0
 40
0.045
309
GRIDFORMAT_END
 95
        8
302
GRIDFORMAT
  1
GRIDFORMAT_BEGIN
 90
        0
 91
        1
 62
     0
 92
       -2
340
14
 93
        0
 40
0.045
309
GRIDFORMAT_END
 95
       16
302
GRIDFORMAT
  1
GRIDFORMAT_BEGIN
 90
        0
 91
        1
 62
     0
 92
       -2
340
14
 93
        0
 40
0.045
309
GRIDFORMAT_END
 95
       32
302
GRIDFORMAT
  1
GRIDFORMAT_BEGIN
 90
        0
 91
        1
 62
     0
 92
       -2
340
14
 93
        0
 40
0.045
309
GRIDFORMAT_END
309
TABLEFORMAT_END
  1
CELLSTYLE_BEGIN
 90
        3
 91
        2
300
_DATA
309
CELLSTYLE_END
  0
XRECORD
  5
D6
102
{ACAD_REACTORS
330
D5
102
}
330
D5
100
AcDbXrecord
280
     1
102
RTVSPropertyOp0
 70
     1
102
RTVSPropertyOp1
 70
     1
102
RTVSPropertyOp2
 70
     1
102
RTVSPropertyOp3
 70
     1
102
RTVSPropertyOp4
 70
     1
102
RTVSPropertyOp5
 70
     1
102
RTVSPropertyOp6
 70
     1
102
RTVSPropertyOp7
 70
     1
102
RTVSPropertyOp8
 70
     1
102
RTVSPropertyOp9
 70
     1
102
RTVSPropertyOp10
 70
     1
102
RTVSPropertyOp11
 70
     1
102
RTVSPropertyOp12
 70
     1
102
RTVSPropertyOp13
 70
     1
102
RTVSPropertyOp14
 70
     1
102
RTVSPropertyOp15
 70
     1
102
RTVSPropertyOp16
 70
     1
102
RTVSPropertyOp17
 70
     1
102
RTVSPropertyOp18
 70
     1
102
RTVSPropertyOp19
 70
     1
102
RTVSPropertyOp20
 70
     1
102
RTVSPropertyOp21
 70
     1
102
RTVSPropertyOp22
 70
     1
102
RTVSPropertyOp23
 70
     1
102
RTVSPropertyOp24
 70
     1
102
RTVSPropertyOp25
 70
     1
102
RTVSPropertyOp26
 70
     1
102
RTVSPropertyOp27
 70
     1
102
RTVSPropertyOp28
 70
     1
102
RTVSPropertyOp29
 70
     1
102
RTVSPropertyOp30
 70
     1
102
RTVSPropertyOp31
 70
     1
102
RTVSPropertyOp32
 70
     1
102
RTVSPropertyOp33
 70
     1
102
RTVSPropertyOp34
 70
     1
102
RTVSPropertyOp35
 70
     1
102
RTVSPropertyOp36
 70
     1
102
RTVSPropertyOp37
 70
     1
102
RTVSPropertyOp38
 70
     1
102
RTVSPropertyOp39
 70
     1
102
RTVSPropertyOp40
 70
     1
102
RTVSPropertyOp41
 70
     1
102
RTVSPropertyOp42
 70
     1
102
RTVSPropertyOp43
 70
     1
102
RTVSPropertyOp44
 70
     1
102
RTVSPropertyOp45
 70
     1
102
RTVSPropertyOp46
 70
     1
102
RTVSPropertyOp47
 70
     1
102
RTVSPropertyOp48
 70
     1
102
RTVSPropertyOp49
 70
     1
102
RTVSPropertyOp50
 70
     1
102
RTVSPropertyOp51
 70
     0
102
RTVSPropertyOp52
 70
     0
102
RTVSPropertyOp53
 70
     1
102
RTVSPropertyOp54
 70
     1
102
RTVSPropertyOp55
 70
     1
102
RTVSPropertyOp56
 70
     1
102
RTVSPropertyOp57
 70
     1
102
RTVSPost2010Prop28
280
     1
102
RTVSPost2010PropOp28
 70
     1
102
RTVSPost2010Prop29
280
     1
102
RTVSPost2010PropOp29
 70
     1
102
RTVSPost2010Prop30
280
     0
102
RTVSPost2010PropOp30
 70
     1
102
RTVSPost2010Prop31
280
     0
102
RTVSPost2010PropOp31
 70
     1
102
RTVSPost2010Prop32
280
     0
102
RTVSPost2010PropOp32
 70
     1
102
RTVSPost2010Prop33
280
     0
102
RTVSPost2010PropOp33
 70
     1
102
RTVSPost2010Prop34
280
     0
102
RTVSPost2010PropOp34
 70
     1
102
RTVSPost2010Prop35
280
     0
102
RTVSPost2010PropOp35
 70
     1
102
RTVSPost2010Prop36
280
     0
102
RTVSPost2010PropOp36
 70
     1
102
RTVSPost2010Prop37
 90
       50
102
RTVSPost2010PropOp37
 70
     1
102
RTVSPost2010Prop38
140
0.0
102
RTVSPost2010PropOp38
 70
     1
102
RTVSPost2010Prop39
140
1.0
102
RTVSPost2010PropOp39
 70
     1
102
RTVSPost2010Prop40
 90
        0
102
RTVSPost2010PropOp40
 70
     1
102
RTVSPost2010Prop41ColorIndex
 90
       18
102
RTVSPost2010Prop41ColorRGB
 90
        0
102
RTVSPost2010PropOp41
 70
     1
102
RTVSPost2010Prop42
 90
       50
102
RTVSPost2010PropOp42
 70
     1
102
RTVSPost2010Prop43
 90
        3
102
RTVSPost2010PropOp43
 70
     1
102
RTVSPost2010Prop44ColorIndex
 90
        5
102
RTVSPost2010Prop44ColorRGB
 90
      255
102
RTVSPost2010PropOp44
 70
     1
102
RTVSPost2010Prop45
280
     0
102
RTVSPost2010PropOp45
 70
     1
102
RTVSPost2010Prop46
 90
       50
102
RTVSPost2010PropOp46
 70
     1
102
RTVSPost2010Prop47
 90
       50
102
RTVSPost2010PropOp47
 70
     1
102
RTVSPost2010Prop48
 90
       50
102
RTVSPost2010PropOp48
 70
     1
102
RTVSPost2010Prop49
280
     0
102
RTVSPost2010PropOp49
 70
     1
102
RTVSPost2010Prop50
 90
       50
102
RTVSPost2010PropOp50
 70
     1
102
RTVSPost2010Prop51ColorIndex
 90
      256
102
RTVSPost2010Prop51ColorRGB
 90
-16777216
102
RTVSPost2010PropOp51
 70
     0
102
RTVSPost2010Prop52
140
1.0
102
RTVSPost2010PropOp52
 70
     0
102
RTVSPost2010Prop53
 90
        2
102
RTVSPost2010PropOp53
 70
     1
102
RTVSPost2010Prop54
  1
strokes_ogs.tif
102
RTVSPost2010PropOp54
 70
     1
102
RTVSPost2010Prop55
280
     0
102
RTVSPost2010PropOp55
 70
     1
102
RTVSPost2010Prop56
140
1.0
102
RTVSPost2010PropOp56
 70
     1
102
RTVSPost2010Prop57
140
1.0
102
RTVSPost2010PropOp57
 70
     1
  0
XRECORD
  5
DC
102
{ACAD_REACTORS
330
DB
102
}
330
DB
100
AcDbXrecord
280
     1
102
RTVSPropertyOp0
 70
     1
102
RTVSPropertyOp1
 70
     1
102
RTVSPropertyOp2
 70
     1
102
RTVSPropertyOp3
 70
     1
102
RTVSPropertyOp4
 70
     1
102
RTVSPropertyOp5
 70
     1
102
RTVSPropertyOp6
 70
     1
102
RTVSPropertyOp7
 70
     1
102
RTVSPropertyOp8
 70
     1
102
RTVSPropertyOp9
 70
     1
102
RTVSPropertyOp10
 70
     1
102
RTVSPropertyOp11
 70
     1
102
RTVSPropertyOp12
 70
     1
102
RTVSPropertyOp13
 70
     1
102
RTVSPropertyOp14
 70
     1
102
RTVSPropertyOp15
 70
     1
102
RTVSPropertyOp16
 70
     1
102
RTVSPropertyOp17
 70
     1
102
RTVSPropertyOp18
 70
     1
102
RTVSPropertyOp19
 70
     1
102
RTVSPropertyOp20
 70
     1
102
RTVSPropertyOp21
 70
     1
102
RTVSPropertyOp22
 70
     1
102
RTVSPropertyOp23
 70
     1
102
RTVSPropertyOp24
 70
     1
102
RTVSPropertyOp25
 70
     1
102
RTVSPropertyOp26
 70
     1
102
RTVSPropertyOp27
 70
     1
102
RTVSPropertyOp28
 70
     1
102
RTVSPropertyOp29
 70
     1
102
RTVSPropertyOp30
 70
     1
102
RTVSPropertyOp31
 70
     1
102
RTVSPropertyOp32
 70
     1
102
RTVSPropertyOp33
 70
     1
102
RTVSPropertyOp34
 70
     1
102
RTVSPropertyOp35
 70
     1
102
RTVSPropertyOp36
 70
     1
102
RTVSPropertyOp37
 70
     1
102
RTVSPropertyOp38
 70
     1
102
RTVSPropertyOp39
 70
     1
102
RTVSPropertyOp40
 70
     1
102
RTVSPropertyOp41
 70
     1
102
RTVSPropertyOp42
 70
     1
102
RTVSPropertyOp43
 70
     1
102
RTVSPropertyOp44
 70
     1
102
RTVSPropertyOp45
 70
     1
102
RTVSPropertyOp46
 70
     1
102
RTVSPropertyOp47
 70
     1
102
RTVSPropertyOp48
 70
     1
102
RTVSPropertyOp49
 70
     1
102
RTVSPropertyOp50
 70
     1
102
RTVSPropertyOp51
 70
     0
102
RTVSPropertyOp52
 70
     0
102
RTVSPropertyOp53
 70
     1
102
RTVSPropertyOp54
 70
     1
102
RTVSPropertyOp55
 70
     1
102
RTVSPropertyOp56
 70
     1
102
RTVSPropertyOp57
 70
     1
102
RTVSPost2010Prop28
280
     0
102
RTVSPost2010PropOp28
 70
     1
102
RTVSPost2010Prop29
280
     1
102
RTVSPost2010PropOp29
 70
     1
102
RTVSPost2010Prop30
280
     1
102
RTVSPost2010PropOp30
 70
     1
102
RTVSPost2010Prop31
280
     0
102
RTVSPost2010PropOp31
 70
     1
102
RTVSPost2010Prop32
280
     0
102
RTVSPost2010PropOp32
 70
     1
102
RTVSPost2010Prop33
280
     0
102
RTVSPost2010PropOp33
 70
     1
102
RTVSPost2010Prop34
280
     0
102
RTVSPost2010PropOp34
 70
     1
102
RTVSPost2010Prop35
280
     0
102
RTVSPost2010PropOp35
 70
     1
102
RTVSPost2010Prop36
280
     0
102
RTVSPost2010PropOp36
 70
     1
102
RTVSPost2010Prop37
 90
       50
102
RTVSPost2010PropOp37
 70
     1
102
RTVSPost2010Prop38
140
0.0
102
RTVSPost2010PropOp38
 70
     1
102
RTVSPost2010Prop39
140
1.0
102
RTVSPost2010PropOp39
 70
     1
102
RTVSPost2010Prop40
 90
        0
102
RTVSPost2010PropOp40
 70
     1
102
RTVSPost2010Prop41ColorIndex
 90
       18
102
RTVSPost2010Prop41ColorRGB
 90
        0
102
RTVSPost2010PropOp41
 70
     1
102
RTVSPost2010Prop42
 90
       50
102
RTVSPost2010PropOp42
 70
     1
102
RTVSPost2010Prop43
 90
        3
102
RTVSPost2010PropOp43
 70
     1
102
RTVSPost2010Prop44ColorIndex
 90
        5
102
RTVSPost2010Prop44ColorRGB
 90
      255
102
RTVSPost2010PropOp44
 70
     1
102
RTVSPost2010Prop45
280
     0
102
RTVSPost2010PropOp45
 70
     1
102
RTVSPost2010Prop46
 90
       50
102
RTVSPost2010PropOp46
 70
     1
102
RTVSPost2010Prop47
 90
       50
102
RTVSPost2010PropOp47
 70
     1
102
RTVSPost2010Prop48
 90
       50
102
RTVSPost2010PropOp48
 70
     1
102
RTVSPost2010Prop49
280
     0
102
RTVSPost2010PropOp49
 70
     1
102
RTVSPost2010Prop50
 90
       50
102
RTVSPost2010PropOp50
 70
     1
102
RTVSPost2010Prop51ColorIndex
 90
      256
102
RTVSPost2010Prop51ColorRGB
 90
-16777216
102
RTVSPost2010PropOp51
 70
     0
102
RTVSPost2010Prop52
140
1.0
102
RTVSPost2010PropOp52
 70
     0
102
RTVSPost2010Prop53
 90
        2
102
RTVSPost2010PropOp53
 70
     1
102
RTVSPost2010Prop54
  1
strokes_ogs.tif
102
RTVSPost2010PropOp54
 70
     1
102
RTVSPost2010Prop55
280
     0
102
RTVSPost2010PropOp55
 70
     1
102
RTVSPost2010Prop56
140
1.0
102
RTVSPost2010PropOp56
 70
     1
102
RTVSPost2010Prop57
140
1.0
102
RTVSPost2010PropOp57
 70
     1
  0
XRECORD
  5
E4
102
{ACAD_REACTORS
330
E3
102
}
330
E3
100
AcDbXrecord
280
     1
102
RTVSPropertyOp0
 70
     1
102
RTVSPropertyOp1
 70
     1
102
RTVSPropertyOp2
 70
     1
102
RTVSPropertyOp3
 70
     1
102
RTVSPropertyOp4
 70
     1
102
RTVSPropertyOp5
 70
     1
102
RTVSPropertyOp6
 70
     1
102
RTVSPropertyOp7
 70
     1
102
RTVSPropertyOp8
 70
     1
102
RTVSPropertyOp9
 70
     1
102
RTVSPropertyOp10
 70
     1
102
RTVSPropertyOp11
 70
     1
102
RTVSPropertyOp12
 70
     1
102
RTVSPropertyOp13
 70
     1
102
RTVSPropertyOp14
 70
     1
102
RTVSPropertyOp15
 70
     1
102
RTVSPropertyOp16
 70
     1
102
RTVSPropertyOp17
 70
     1
102
RTVSPropertyOp18
 70
     1
102
RTVSPropertyOp19
 70
     1
102
RTVSPropertyOp20
 70
     1
102
RTVSPropertyOp21
 70
     1
102
RTVSPropertyOp22
 70
     1
102
RTVSPropertyOp23
 70
     1
102
RTVSPropertyOp24
 70
     1
102
RTVSPropertyOp25
 70
     1
102
RTVSPropertyOp26
 70
     1
102
RTVSPropertyOp27
 70
     1
102
RTVSPropertyOp28
 70
     1
102
RTVSPropertyOp29
 70
     1
102
RTVSPropertyOp30
 70
     1
102
RTVSPropertyOp31
 70
     1
102
RTVSPropertyOp32
 70
     1
102
RTVSPropertyOp33
 70
     1
102
RTVSPropertyOp34
 70
     1
102
RTVSPropertyOp35
 70
     1
102
RTVSPropertyOp36
 70
     1
102
RTVSPropertyOp37
 70
     1
102
RTVSPropertyOp38
 70
     1
102
RTVSPropertyOp39
 70
     1
102
RTVSPropertyOp40
 70
     1
102
RTVSPropertyOp41
 70
     1
102
RTVSPropertyOp42
 70
     1
102
RTVSPropertyOp43
 70
     1
102
RTVSPropertyOp44
 70
     1
102
RTVSPropertyOp45
 70
     1
102
RTVSPropertyOp46
 70
     1
102
RTVSPropertyOp47
 70
     1
102
RTVSPropertyOp48
 70
     1
102
RTVSPropertyOp49
 70
     1
102
RTVSPropertyOp50
 70
     1
102
RTVSPropertyOp51
 70
     0
102
RTVSPropertyOp52
 70
     0
102
RTVSPropertyOp53
 70
     1
102
RTVSPropertyOp54
 70
     1
102
RTVSPropertyOp55
 70
     1
102
RTVSPropertyOp56
 70
     1
102
RTVSPropertyOp57
 70
     1
102
RTVSPost2010Prop28
280
     0
102
RTVSPost2010PropOp28
 70
     1
102
RTVSPost2010Prop29
280
     1
102
RTVSPost2010PropOp29
 70
     1
102
RTVSPost2010Prop30
280
     1
102
RTVSPost2010PropOp30
 70
     1
102
RTVSPost2010Prop31
280
     0
102
RTVSPost2010PropOp31
 70
     1
102
RTVSPost2010Prop32
280
     0
102
RTVSPost2010PropOp32
 70
     1
102
RTVSPost2010Prop33
280
     0
102
RTVSPost2010PropOp33
 70
     1
102
RTVSPost2010Prop34
280
     0
102
RTVSPost2010PropOp34
 70
     1
102
RTVSPost2010Prop35
280
     0
102
RTVSPost2010PropOp35
 70
     1
102
RTVSPost2010Prop36
280
     0
102
RTVSPost2010PropOp36
 70
     1
102
RTVSPost2010Prop37
 90
       50
102
RTVSPost2010PropOp37
 70
     1
102
RTVSPost2010Prop38
140
0.0
102
RTVSPost2010PropOp38
 70
     1
102
RTVSPost2010Prop39
140
1.0
102
RTVSPost2010PropOp39
 70
     1
102
RTVSPost2010Prop40
 90
        0
102
RTVSPost2010PropOp40
 70
     1
102
RTVSPost2010Prop41ColorIndex
 90
       18
102
RTVSPost2010Prop41ColorRGB
 90
        0
102
RTVSPost2010PropOp41
 70
     1
102
RTVSPost2010Prop42
 90
       50
102
RTVSPost2010PropOp42
 70
     1
102
RTVSPost2010Prop43
 90
        3
102
RTVSPost2010PropOp43
 70
     1
102
RTVSPost2010Prop44ColorIndex
 90
        5
102
RTVSPost2010Prop44ColorRGB
 90
      255
102
RTVSPost2010PropOp44
 70
     1
102
RTVSPost2010Prop45
280
     0
102
RTVSPost2010PropOp45
 70
     1
102
RTVSPost2010Prop46
 90
       50
102
RTVSPost2010PropOp46
 70
     1
102
RTVSPost2010Prop47
 90
       50
102
RTVSPost2010PropOp47
 70
     1
102
RTVSPost2010Prop48
 90
       50
102
RTVSPost2010PropOp48
 70
     1
102
RTVSPost2010Prop49
280
     0
102
RTVSPost2010PropOp49
 70
     1
102
RTVSPost2010Prop50
 90
       50
102
RTVSPost2010PropOp50
 70
     1
102
RTVSPost2010Prop51ColorIndex
 90
      256
102
RTVSPost2010Prop51ColorRGB
 90
-16777216
102
RTVSPost2010PropOp51
 70
     0
102
RTVSPost2010Prop52
140
1.0
102
RTVSPost2010PropOp52
 70
     0
102
RTVSPost2010Prop53
 90
        2
102
RTVSPost2010PropOp53
 70
     1
102
RTVSPost2010Prop54
  1
strokes_ogs.tif
102
RTVSPost2010PropOp54
 70
     1
102
RTVSPost2010Prop55
280
     0
102
RTVSPost2010PropOp55
 70
     1
102
RTVSPost2010Prop56
140
1.0
102
RTVSPost2010PropOp56
 70
     1
102
RTVSPost2010Prop57
140
1.0
102
RTVSPost2010PropOp57
 70
     1
  0
XRECORD
  5
EC
102
{ACAD_REACTORS
330
EB
102
}
330
EB
100
AcDbXrecord
280
     1
102
RTVSPropertyOp0
 70
     1
102
RTVSPropertyOp1
 70
     1
102
RTVSPropertyOp2
 70
     1
102
RTVSPropertyOp3
 70
     1
102
RTVSPropertyOp4
 70
     1
102
RTVSPropertyOp5
 70
     1
102
RTVSPropertyOp6
 70
     1
102
RTVSPropertyOp7
 70
     1
102
RTVSPropertyOp8
 70
     1
102
RTVSPropertyOp9
 70
     1
102
RTVSPropertyOp10
 70
     1
102
RTVSPropertyOp11
 70
     1
102
RTVSPropertyOp12
 70
     1
102
RTVSPropertyOp13
 70
     1
102
RTVSPropertyOp14
 70
     1
102
RTVSPropertyOp15
 70
     1
102
RTVSPropertyOp16
 70
     1
102
RTVSPropertyOp17
 70
     1
102
RTVSPropertyOp18
 70
     1
102
RTVSPropertyOp19
 70
     1
102
RTVSPropertyOp20
 70
     1
102
RTVSPropertyOp21
 70
     1
102
RTVSPropertyOp22
 70
     1
102
RTVSPropertyOp23
 70
     1
102
RTVSPropertyOp24
 70
     1
102
RTVSPropertyOp25
 70
     1
102
RTVSPropertyOp26
 70
     1
102
RTVSPropertyOp27
 70
     1
102
RTVSPropertyOp28
 70
     1
102
RTVSPropertyOp29
 70
     1
102
RTVSPropertyOp30
 70
     1
102
RTVSPropertyOp31
 70
     1
102
RTVSPropertyOp32
 70
     1
102
RTVSPropertyOp33
 70
     1
102
RTVSPropertyOp34
 70
     1
102
RTVSPropertyOp35
 70
     1
102
RTVSPropertyOp36
 70
     1
102
RTVSPropertyOp37
 70
     1
102
RTVSPropertyOp38
 70
     1
102
RTVSPropertyOp39
 70
     1
102
RTVSPropertyOp40
 70
     1
102
RTVSPropertyOp41
 70
     1
102
RTVSPropertyOp42
 70
     1
102
RTVSPropertyOp43
 70
     1
102
RTVSPropertyOp44
 70
     1
102
RTVSPropertyOp45
 70
     1
102
RTVSPropertyOp46
 70
     1
102
RTVSPropertyOp47
 70
     1
102
RTVSPropertyOp48
 70
     1
102
RTVSPropertyOp49
 70
     1
102
RTVSPropertyOp50
 70
     1
102
RTVSPropertyOp51
 70
     0
102
RTVSPropertyOp52
 70
     0
102
RTVSPropertyOp53
 70
     1
102
RTVSPropertyOp54
 70
     1
102
RTVSPropertyOp55
 70
     1
102
RTVSPropertyOp56
 70
     1
102
RTVSPropertyOp57
 70
     1
102
RTVSPost2010Prop28
280
     0
102
RTVSPost2010PropOp28
 70
     1
102
RTVSPost2010Prop29
280
     1
102
RTVSPost2010PropOp29
 70
     1
102
RTVSPost2010Prop30
280
     1
102
RTVSPost2010PropOp30
 70
     1
102
RTVSPost2010Prop31
280
     0
102
RTVSPost2010PropOp31
 70
     1
102
RTVSPost2010Prop32
280
     0
102
RTVSPost2010PropOp32
 70
     1
102
RTVSPost2010Prop33
280
     0
102
RTVSPost2010PropOp33
 70
     1
102
RTVSPost2010Prop34
280
     0
102
RTVSPost2010PropOp34
 70
     1
102
RTVSPost2010Prop35
280
     0
102
RTVSPost2010PropOp35
 70
     1
102
RTVSPost2010Prop36
280
     0
102
RTVSPost2010PropOp36
 70
     1
102
RTVSPost2010Prop37
 90
       50
102
RTVSPost2010PropOp37
 70
     1
102
RTVSPost2010Prop38
140
0.0
102
RTVSPost2010PropOp38
 70
     1
102
RTVSPost2010Prop39
140
1.0
102
RTVSPost2010PropOp39
 70
     1
102
RTVSPost2010Prop40
 90
        0
102
RTVSPost2010PropOp40
 70
     1
102
RTVSPost2010Prop41ColorIndex
 90
       18
102
RTVSPost2010Prop41ColorRGB
 90
        0
102
RTVSPost2010PropOp41
 70
     1
102
RTVSPost2010Prop42
 90
       50
102
RTVSPost2010PropOp42
 70
     1
102
RTVSPost2010Prop43
 90
        3
102
RTVSPost2010PropOp43
 70
     1
102
RTVSPost2010Prop44ColorIndex
 90
        5
102
RTVSPost2010Prop44ColorRGB
 90
      255
102
RTVSPost2010PropOp44
 70
     1
102
RTVSPost2010Prop45
280
     0
102
RTVSPost2010PropOp45
 70
     1
102
RTVSPost2010Prop46
 90
       50
102
RTVSPost2010PropOp46
 70
     1
102
RTVSPost2010Prop47
 90
       50
102
RTVSPost2010PropOp47
 70
     1
102
RTVSPost2010Prop48
 90
       50
102
RTVSPost2010PropOp48
 70
     1
102
RTVSPost2010Prop49
280
     0
102
RTVSPost2010PropOp49
 70
     1
102
RTVSPost2010Prop50
 90
       50
102
RTVSPost2010PropOp50
 70
     1
102
RTVSPost2010Prop51ColorIndex
 90
      256
102
RTVSPost2010Prop51ColorRGB
 90
-16777216
102
RTVSPost2010PropOp51
 70
     0
102
RTVSPost2010Prop52
140
1.0
102
RTVSPost2010PropOp52
 70
     0
102
RTVSPost2010Prop53
 90
        2
102
RTVSPost2010PropOp53
 70
     1
102
RTVSPost2010Prop54
  1
strokes_ogs.tif
102
RTVSPost2010PropOp54
 70
     1
102
RTVSPost2010Prop55
280
     0
102
RTVSPost2010PropOp55
 70
     1
102
RTVSPost2010Prop56
140
1.0
102
RTVSPost2010PropOp56
 70
     1
102
RTVSPost2010Prop57
140
1.0
102
RTVSPost2010PropOp57
 70
     1
  0
XRECORD
  5
E0
102
{ACAD_REACTORS
330
DF
102
}
330
DF
100
AcDbXrecord
280
     1
102
RTVSPropertyOp0
 70
     1
102
RTVSPropertyOp1
 70
     1
102
RTVSPropertyOp2
 70
     1
102
RTVSPropertyOp3
 70
     1
102
RTVSPropertyOp4
 70
     1
102
RTVSPropertyOp5
 70
     1
102
RTVSPropertyOp6
 70
     1
102
RTVSPropertyOp7
 70
     1
102
RTVSPropertyOp8
 70
     1
102
RTVSPropertyOp9
 70
     1
102
RTVSPropertyOp10
 70
     1
102
RTVSPropertyOp11
 70
     1
102
RTVSPropertyOp12
 70
     1
102
RTVSPropertyOp13
 70
     1
102
RTVSPropertyOp14
 70
     1
102
RTVSPropertyOp15
 70
     1
102
RTVSPropertyOp16
 70
     1
102
RTVSPropertyOp17
 70
     1
102
RTVSPropertyOp18
 70
     1
102
RTVSPropertyOp19
 70
     1
102
RTVSPropertyOp20
 70
     1
102
RTVSPropertyOp21
 70
     1
102
RTVSPropertyOp22
 70
     1
102
RTVSPropertyOp23
 70
     1
102
RTVSPropertyOp24
 70
     1
102
RTVSPropertyOp25
 70
     1
102
RTVSPropertyOp26
 70
     1
102
RTVSPropertyOp27
 70
     1
102
RTVSPropertyOp28
 70
     1
102
RTVSPropertyOp29
 70
     1
102
RTVSPropertyOp30
 70
     1
102
RTVSPropertyOp31
 70
     1
102
RTVSPropertyOp32
 70
     1
102
RTVSPropertyOp33
 70
     1
102
RTVSPropertyOp34
 70
     1
102
RTVSPropertyOp35
 70
     1
102
RTVSPropertyOp36
 70
     1
102
RTVSPropertyOp37
 70
     1
102
RTVSPropertyOp38
 70
     1
102
RTVSPropertyOp39
 70
     1
102
RTVSPropertyOp40
 70
     1
102
RTVSPropertyOp41
 70
     1
102
RTVSPropertyOp42
 70
     1
102
RTVSPropertyOp43
 70
     1
102
RTVSPropertyOp44
 70
     1
102
RTVSPropertyOp45
 70
     1
102
RTVSPropertyOp46
 70
     1
102
RTVSPropertyOp47
 70
     1
102
RTVSPropertyOp48
 70
     1
102
RTVSPropertyOp49
 70
     1
102
RTVSPropertyOp50
 70
     1
102
RTVSPropertyOp51
 70
     0
102
RTVSPropertyOp52
 70
     0
102
RTVSPropertyOp53
 70
     1
102
RTVSPropertyOp54
 70
     1
102
RTVSPropertyOp55
 70
     1
102
RTVSPropertyOp56
 70
     1
102
RTVSPropertyOp57
 70
     1
102
RTVSPost2010Prop28
280
     0
102
RTVSPost2010PropOp28
 70
     1
102
RTVSPost2010Prop29
280
     1
102
RTVSPost2010PropOp29
 70
     1
102
RTVSPost2010Prop30
280
     1
102
RTVSPost2010PropOp30
 70
     1
102
RTVSPost2010Prop31
280
     0
102
RTVSPost2010PropOp31
 70
     1
102
RTVSPost2010Prop32
280
     0
102
RTVSPost2010PropOp32
 70
     1
102
RTVSPost2010Prop33
280
     0
102
RTVSPost2010PropOp33
 70
     1
102
RTVSPost2010Prop34
280
     0
102
RTVSPost2010PropOp34
 70
     1
102
RTVSPost2010Prop35
280
     0
102
RTVSPost2010PropOp35
 70
     1
102
RTVSPost2010Prop36
280
     0
102
RTVSPost2010PropOp36
 70
     1
102
RTVSPost2010Prop37
 90
       50
102
RTVSPost2010PropOp37
 70
     1
102
RTVSPost2010Prop38
140
0.0
102
RTVSPost2010PropOp38
 70
     1
102
RTVSPost2010Prop39
140
1.0
102
RTVSPost2010PropOp39
 70
     1
102
RTVSPost2010Prop40
 90
        0
102
RTVSPost2010PropOp40
 70
     1
102
RTVSPost2010Prop41ColorIndex
 90
       18
102
RTVSPost2010Prop41ColorRGB
 90
        0
102
RTVSPost2010PropOp41
 70
     1
102
RTVSPost2010Prop42
 90
       50
102
RTVSPost2010PropOp42
 70
     1
102
RTVSPost2010Prop43
 90
        3
102
RTVSPost2010PropOp43
 70
     1
102
RTVSPost2010Prop44ColorIndex
 90
        5
102
RTVSPost2010Prop44ColorRGB
 90
      255
102
RTVSPost2010PropOp44
 70
     1
102
RTVSPost2010Prop45
280
     0
102
RTVSPost2010PropOp45
 70
     1
102
RTVSPost2010Prop46
 90
       50
102
RTVSPost2010PropOp46
 70
     1
102
RTVSPost2010Prop47
 90
       50
102
RTVSPost2010PropOp47
 70
     1
102
RTVSPost2010Prop48
 90
       50
102
RTVSPost2010PropOp48
 70
     1
102
RTVSPost2010Prop49
280
     0
102
RTVSPost2010PropOp49
 70
     1
102
RTVSPost2010Prop50
 90
       50
102
RTVSPost2010PropOp50
 70
     1
102
RTVSPost2010Prop51ColorIndex
 90
      256
102
RTVSPost2010Prop51ColorRGB
 90
-16777216
102
RTVSPost2010PropOp51
 70
     0
102
RTVSPost2010Prop52
140
1.0
102
RTVSPost2010PropOp52
 70
     0
102
RTVSPost2010Prop53
 90
        2
102
RTVSPost2010PropOp53
 70
     1
102
RTVSPost2010Prop54
  1
strokes_ogs.tif
102
RTVSPost2010PropOp54
 70
     1
102
RTVSPost2010Prop55
280
     0
102
RTVSPost2010PropOp55
 70
     1
102
RTVSPost2010Prop56
140
1.0
102
RTVSPost2010PropOp56
 70
     1
102
RTVSPost2010Prop57
140
1.0
102
RTVSPost2010PropOp57
 70
     1
  0
XRECORD
  5
E2
102
{ACAD_REACTORS
330
E1
102
}
330
E1
100
AcDbXrecord
280
     1
102
RTVSPropertyOp0
 70
     1
102
RTVSPropertyOp1
 70
     1
102
RTVSPropertyOp2
 70
     1
102
RTVSPropertyOp3
 70
     1
102
RTVSPropertyOp4
 70
     1
102
RTVSPropertyOp5
 70
     1
102
RTVSPropertyOp6
 70
     1
102
RTVSPropertyOp7
 70
     1
102
RTVSPropertyOp8
 70
     1
102
RTVSPropertyOp9
 70
     1
102
RTVSPropertyOp10
 70
     1
102
RTVSPropertyOp11
 70
     1
102
RTVSPropertyOp12
 70
     1
102
RTVSPropertyOp13
 70
     1
102
RTVSPropertyOp14
 70
     1
102
RTVSPropertyOp15
 70
     1
102
RTVSPropertyOp16
 70
     1
102
RTVSPropertyOp17
 70
     1
102
RTVSPropertyOp18
 70
     1
102
RTVSPropertyOp19
 70
     1
102
RTVSPropertyOp20
 70
     1
102
RTVSPropertyOp21
 70
     1
102
RTVSPropertyOp22
 70
     1
102
RTVSPropertyOp23
 70
     1
102
RTVSPropertyOp24
 70
     1
102
RTVSPropertyOp25
 70
     1
102
RTVSPropertyOp26
 70
     1
102
RTVSPropertyOp27
 70
     1
102
RTVSPropertyOp28
 70
     1
102
RTVSPropertyOp29
 70
     1
102
RTVSPropertyOp30
 70
     1
102
RTVSPropertyOp31
 70
     1
102
RTVSPropertyOp32
 70
     1
102
RTVSPropertyOp33
 70
     1
102
RTVSPropertyOp34
 70
     1
102
RTVSPropertyOp35
 70
     1
102
RTVSPropertyOp36
 70
     1
102
RTVSPropertyOp37
 70
     1
102
RTVSPropertyOp38
 70
     1
102
RTVSPropertyOp39
 70
     1
102
RTVSPropertyOp40
 70
     1
102
RTVSPropertyOp41
 70
     1
102
RTVSPropertyOp42
 70
     1
102
RTVSPropertyOp43
 70
     1
102
RTVSPropertyOp44
 70
     1
102
RTVSPropertyOp45
 70
     1
102
RTVSPropertyOp46
 70
     1
102
RTVSPropertyOp47
 70
     1
102
RTVSPropertyOp48
 70
     1
102
RTVSPropertyOp49
 70
     1
102
RTVSPropertyOp50
 70
     1
102
RTVSPropertyOp51
 70
     0
102
RTVSPropertyOp52
 70
     0
102
RTVSPropertyOp53
 70
     1
102
RTVSPropertyOp54
 70
     1
102
RTVSPropertyOp55
 70
     1
102
RTVSPropertyOp56
 70
     1
102
RTVSPropertyOp57
 70
     1
102
RTVSPost2010Prop28
280
     0
102
RTVSPost2010PropOp28
 70
     1
102
RTVSPost2010Prop29
280
     1
102
RTVSPost2010PropOp29
 70
     1
102
RTVSPost2010Prop30
280
     1
102
RTVSPost2010PropOp30
 70
     1
102
RTVSPost2010Prop31
280
     0
102
RTVSPost2010PropOp31
 70
     1
102
RTVSPost2010Prop32
280
     0
102
RTVSPost2010PropOp32
 70
     1
102
RTVSPost2010Prop33
280
     0
102
RTVSPost2010PropOp33
 70
     1
102
RTVSPost2010Prop34
280
     0
102
RTVSPost2010PropOp34
 70
     1
102
RTVSPost2010Prop35
280
     0
102
RTVSPost2010PropOp35
 70
     1
102
RTVSPost2010Prop36
280
     0
102
RTVSPost2010PropOp36
 70
     1
102
RTVSPost2010Prop37
 90
       50
102
RTVSPost2010PropOp37
 70
     1
102
RTVSPost2010Prop38
140
0.0
102
RTVSPost2010PropOp38
 70
     1
102
RTVSPost2010Prop39
140
1.0
102
RTVSPost2010PropOp39
 70
     1
102
RTVSPost2010Prop40
 90
        0
102
RTVSPost2010PropOp40
 70
     1
102
RTVSPost2010Prop41ColorIndex
 90
       18
102
RTVSPost2010Prop41ColorRGB
 90
        0
102
RTVSPost2010PropOp41
 70
     1
102
RTVSPost2010Prop42
 90
       50
102
RTVSPost2010PropOp42
 70
     1
102
RTVSPost2010Prop43
 90
        3
102
RTVSPost2010PropOp43
 70
     1
102
RTVSPost2010Prop44ColorIndex
 90
        5
102
RTVSPost2010Prop44ColorRGB
 90
      255
102
RTVSPost2010PropOp44
 70
     1
102
RTVSPost2010Prop45
280
     0
102
RTVSPost2010PropOp45
 70
     1
102
RTVSPost2010Prop46
 90
       50
102
RTVSPost2010PropOp46
 70
     1
102
RTVSPost2010Prop47
 90
       50
102
RTVSPost2010PropOp47
 70
     1
102
RTVSPost2010Prop48
 90
       50
102
RTVSPost2010PropOp48
 70
     1
102
RTVSPost2010Prop49
280
     0
102
RTVSPost2010PropOp49
 70
     1
102
RTVSPost2010Prop50
 90
       50
102
RTVSPost2010PropOp50
 70
     1
102
RTVSPost2010Prop51ColorIndex
 90
      256
102
RTVSPost2010Prop51ColorRGB
 90
-16777216
102
RTVSPost2010PropOp51
 70
     0
102
RTVSPost2010Prop52
140
1.0
102
RTVSPost2010PropOp52
 70
     0
102
RTVSPost2010Prop53
 90
        2
102
RTVSPost2010PropOp53
 70
     1
102
RTVSPost2010Prop54
  1
strokes_ogs.tif
102
RTVSPost2010PropOp54
 70
     1
102
RTVSPost2010Prop55
280
     0
102
RTVSPost2010PropOp55
 70
     1
102
RTVSPost2010Prop56
140
1.0
102
RTVSPost2010PropOp56
 70
     1
102
RTVSPost2010Prop57
140
1.0
102
RTVSPost2010PropOp57
 70
     1
  0
XRECORD
  5
F2
102
{ACAD_REACTORS
330
F1
102
}
330
F1
100
AcDbXrecord
280
     1
102
RTVSPropertyOp0
 70
     0
102
RTVSPropertyOp1
 70
     0
102
RTVSPropertyOp2
 70
     0
102
RTVSPropertyOp3
 70
     0
102
RTVSPropertyOp4
 70
     0
102
RTVSPropertyOp5
 70
     0
102
RTVSPropertyOp6
 70
     0
102
RTVSPropertyOp7
 70
     0
102
RTVSPropertyOp8
 70
     0
102
RTVSPropertyOp9
 70
     0
102
RTVSPropertyOp10
 70
     0
102
RTVSPropertyOp11
 70
     0
102
RTVSPropertyOp12
 70
     0
102
RTVSPropertyOp13
 70
     0
102
RTVSPropertyOp14
 70
     2
102
RTVSPropertyOp15
 70
     0
102
RTVSPropertyOp16
 70
     0
102
RTVSPropertyOp17
 70
     0
102
RTVSPropertyOp18
 70
     0
102
RTVSPropertyOp19
 70
     0
102
RTVSPropertyOp20
 70
     0
102
RTVSPropertyOp21
 70
     0
102
RTVSPropertyOp22
 70
     0
102
RTVSPropertyOp23
 70
     0
102
RTVSPropertyOp24
 70
     0
102
RTVSPropertyOp25
 70
     0
102
RTVSPropertyOp26
 70
     0
102
RTVSPropertyOp27
 70
     0
102
RTVSPropertyOp28
 70
     0
102
RTVSPropertyOp29
 70
     0
102
RTVSPropertyOp30
 70
     0
102
RTVSPropertyOp31
 70
     0
102
RTVSPropertyOp32
 70
     0
102
RTVSPropertyOp33
 70
     0
102
RTVSPropertyOp34
 70
     0
102
RTVSPropertyOp35
 70
     0
102
RTVSPropertyOp36
 70
     0
102
RTVSPropertyOp37
 70
     0
102
RTVSPropertyOp38
 70
     0
102
RTVSPropertyOp39
 70
     0
102
RTVSPropertyOp40
 70
     0
102
RTVSPropertyOp41
 70
     0
102
RTVSPropertyOp42
 70
     0
102
RTVSPropertyOp43
 70
     0
102
RTVSPropertyOp44
 70
     0
102
RTVSPropertyOp45
 70
     0
102
RTVSPropertyOp46
 70
     0
102
RTVSPropertyOp47
 70
     0
102
RTVSPropertyOp48
 70
     0
102
RTVSPropertyOp49
 70
     0
102
RTVSPropertyOp50
 70
     0
102
RTVSPropertyOp51
 70
     0
102
RTVSPropertyOp52
 70
     0
102
RTVSPropertyOp53
 70
     0
102
RTVSPropertyOp54
 70
     0
102
RTVSPropertyOp55
 70
     0
102
RTVSPropertyOp56
 70
     0
102
RTVSPropertyOp57
 70
     0
102
RTVSPost2010Prop28
280
     0
102
RTVSPost2010PropOp28
 70
     0
102
RTVSPost2010Prop29
280
     1
102
RTVSPost2010PropOp29
 70
     0
102
RTVSPost2010Prop30
280
     1
102
RTVSPost2010PropOp30
 70
     0
102
RTVSPost2010Prop31
280
     0
102
RTVSPost2010PropOp31
 70
     0
102
RTVSPost2010Prop32
280
     0
102
RTVSPost2010PropOp32
 70
     0
102
RTVSPost2010Prop33
280
     0
102
RTVSPost2010PropOp33
 70
     0
102
RTVSPost2010Prop34
280
     0
102
RTVSPost2010PropOp34
 70
     0
102
RTVSPost2010Prop35
280
     0
102
RTVSPost2010PropOp35
 70
     0
102
RTVSPost2010Prop36
280
     0
102
RTVSPost2010PropOp36
 70
     0
102
RTVSPost2010Prop37
 90
       50
102
RTVSPost2010PropOp37
 70
     0
102
RTVSPost2010Prop38
140
0.0
102
RTVSPost2010PropOp38
 70
     0
102
RTVSPost2010Prop39
140
1.0
102
RTVSPost2010PropOp39
 70
     0
102
RTVSPost2010Prop40
 90
        0
102
RTVSPost2010PropOp40
 70
     0
102
RTVSPost2010Prop41ColorIndex
 90
       18
102
RTVSPost2010Prop41ColorRGB
 90
        0
102
RTVSPost2010PropOp41
 70
     0
102
RTVSPost2010Prop42
 90
       50
102
RTVSPost2010PropOp42
 70
     0
102
RTVSPost2010Prop43
 90
        3
102
RTVSPost2010PropOp43
 70
     0
102
RTVSPost2010Prop44ColorIndex
 90
        5
102
RTVSPost2010Prop44ColorRGB
 90
      255
102
RTVSPost2010PropOp44
 70
     0
102
RTVSPost2010Prop45
280
     0
102
RTVSPost2010PropOp45
 70
     0
102
RTVSPost2010Prop46
 90
       50
102
RTVSPost2010PropOp46
 70
     0
102
RTVSPost2010Prop47
 90
       50
102
RTVSPost2010PropOp47
 70
     0
102
RTVSPost2010Prop48
 90
       50
102
RTVSPost2010PropOp48
 70
     0
102
RTVSPost2010Prop49
280
     0
102
RTVSPost2010PropOp49
 70
     0
102
RTVSPost2010Prop50
 90
       50
102
RTVSPost2010PropOp50
 70
     0
102
RTVSPost2010Prop51ColorIndex
 90
      256
102
RTVSPost2010Prop51ColorRGB
 90
-16777216
102
RTVSPost2010PropOp51
 70
     0
102
RTVSPost2010Prop52
140
1.0
102
RTVSPost2010PropOp52
 70
     0
102
RTVSPost2010Prop53
 90
        2
102
RTVSPost2010PropOp53
 70
     0
102
RTVSPost2010Prop54
  1
strokes_ogs.tif
102
RTVSPost2010PropOp54
 70
     0
102
RTVSPost2010Prop55
280
     0
102
RTVSPost2010PropOp55
 70
     0
102
RTVSPost2010Prop56
140
1.0
102
RTVSPost2010PropOp56
 70
     0
102
RTVSPost2010Prop57
140
1.0
102
RTVSPost2010PropOp57
 70
     0
  0
XRECORD
  5
EA
102
{ACAD_REACTORS
330
E9
102
}
330
E9
100
AcDbXrecord
280
     1
102
RTVSPropertyOp0
 70
     1
102
RTVSPropertyOp1
 70
     1
102
RTVSPropertyOp2
 70
     1
102
RTVSPropertyOp3
 70
     1
102
RTVSPropertyOp4
 70
     1
102
RTVSPropertyOp5
 70
     1
102
RTVSPropertyOp6
 70
     1
102
RTVSPropertyOp7
 70
     1
102
RTVSPropertyOp8
 70
     1
102
RTVSPropertyOp9
 70
     1
102
RTVSPropertyOp10
 70
     1
102
RTVSPropertyOp11
 70
     1
102
RTVSPropertyOp12
 70
     1
102
RTVSPropertyOp13
 70
     1
102
RTVSPropertyOp14
 70
     1
102
RTVSPropertyOp15
 70
     1
102
RTVSPropertyOp16
 70
     1
102
RTVSPropertyOp17
 70
     1
102
RTVSPropertyOp18
 70
     1
102
RTVSPropertyOp19
 70
     1
102
RTVSPropertyOp20
 70
     1
102
RTVSPropertyOp21
 70
     1
102
RTVSPropertyOp22
 70
     1
102
RTVSPropertyOp23
 70
     1
102
RTVSPropertyOp24
 70
     1
102
RTVSPropertyOp25
 70
     1
102
RTVSPropertyOp26
 70
     1
102
RTVSPropertyOp27
 70
     1
102
RTVSPropertyOp28
 70
     1
102
RTVSPropertyOp29
 70
     1
102
RTVSPropertyOp30
 70
     1
102
RTVSPropertyOp31
 70
     1
102
RTVSPropertyOp32
 70
     1
102
RTVSPropertyOp33
 70
     1
102
RTVSPropertyOp34
 70
     1
102
RTVSPropertyOp35
 70
     1
102
RTVSPropertyOp36
 70
     1
102
RTVSPropertyOp37
 70
     1
102
RTVSPropertyOp38
 70
     1
102
RTVSPropertyOp39
 70
     1
102
RTVSPropertyOp40
 70
     1
102
RTVSPropertyOp41
 70
     1
102
RTVSPropertyOp42
 70
     1
102
RTVSPropertyOp43
 70
     1
102
RTVSPropertyOp44
 70
     1
102
RTVSPropertyOp45
 70
     1
102
RTVSPropertyOp46
 70
     1
102
RTVSPropertyOp47
 70
     1
102
RTVSPropertyOp48
 70
     1
102
RTVSPropertyOp49
 70
     1
102
RTVSPropertyOp50
 70
     1
102
RTVSPropertyOp51
 70
     0
102
RTVSPropertyOp52
 70
     0
102
RTVSPropertyOp53
 70
     1
102
RTVSPropertyOp54
 70
     1
102
RTVSPropertyOp55
 70
     1
102
RTVSPropertyOp56
 70
     1
102
RTVSPropertyOp57
 70
     1
102
RTVSPost2010Prop28
280
     0
102
RTVSPost2010PropOp28
 70
     1
102
RTVSPost2010Prop29
280
     1
102
RTVSPost2010PropOp29
 70
     1
102
RTVSPost2010Prop30
280
     1
102
RTVSPost2010PropOp30
 70
     1
102
RTVSPost2010Prop31
280
     0
102
RTVSPost2010PropOp31
 70
     1
102
RTVSPost2010Prop32
280
     0
102
RTVSPost2010PropOp32
 70
     1
102
RTVSPost2010Prop33
280
     0
102
RTVSPost2010PropOp33
 70
     1
102
RTVSPost2010Prop34
280
     0
102
RTVSPost2010PropOp34
 70
     1
102
RTVSPost2010Prop35
280
     0
102
RTVSPost2010PropOp35
 70
     1
102
RTVSPost2010Prop36
280
     0
102
RTVSPost2010PropOp36
 70
     1
102
RTVSPost2010Prop37
 90
       50
102
RTVSPost2010PropOp37
 70
     1
102
RTVSPost2010Prop38
140
0.0
102
RTVSPost2010PropOp38
 70
     1
102
RTVSPost2010Prop39
140
1.0
102
RTVSPost2010PropOp39
 70
     1
102
RTVSPost2010Prop40
 90
        0
102
RTVSPost2010PropOp40
 70
     1
102
RTVSPost2010Prop41ColorIndex
 90
       18
102
RTVSPost2010Prop41ColorRGB
 90
        0
102
RTVSPost2010PropOp41
 70
     1
102
RTVSPost2010Prop42
 90
       50
102
RTVSPost2010PropOp42
 70
     1
102
RTVSPost2010Prop43
 90
        3
102
RTVSPost2010PropOp43
 70
     1
102
RTVSPost2010Prop44ColorIndex
 90
        5
102
RTVSPost2010Prop44ColorRGB
 90
      255
102
RTVSPost2010PropOp44
 70
     1
102
RTVSPost2010Prop45
280
     0
102
RTVSPost2010PropOp45
 70
     1
102
RTVSPost2010Prop46
 90
       50
102
RTVSPost2010PropOp46
 70
     1
102
RTVSPost2010Prop47
 90
       50
102
RTVSPost2010PropOp47
 70
     1
102
RTVSPost2010Prop48
 90
       50
102
RTVSPost2010PropOp48
 70
     1
102
RTVSPost2010Prop49
280
     0
102
RTVSPost2010PropOp49
 70
     1
102
RTVSPost2010Prop50
 90
       50
102
RTVSPost2010PropOp50
 70
     1
102
RTVSPost2010Prop51ColorIndex
 90
      256
102
RTVSPost2010Prop51ColorRGB
 90
-16777216
102
RTVSPost2010PropOp51
 70
     0
102
RTVSPost2010Prop52
140
1.0
102
RTVSPost2010PropOp52
 70
     0
102
RTVSPost2010Prop53
 90
        2
102
RTVSPost2010PropOp53
 70
     1
102
RTVSPost2010Prop54
  1
strokes_ogs.tif
102
RTVSPost2010PropOp54
 70
     1
102
RTVSPost2010Prop55
280
     0
102
RTVSPost2010PropOp55
 70
     1
102
RTVSPost2010Prop56
140
1.0
102
RTVSPost2010PropOp56
 70
     1
102
RTVSPost2010Prop57
140
1.0
102
RTVSPost2010PropOp57
 70
     1
  0
XRECORD
  5
CE
102
{ACAD_REACTORS
330
CD
102
}
330
CD
100
AcDbXrecord
280
     1
102
RTVSPropertyOp0
 70
     1
102
RTVSPropertyOp1
 70
     1
102
RTVSPropertyOp2
 70
     1
102
RTVSPropertyOp3
 70
     1
102
RTVSPropertyOp4
 70
     1
102
RTVSPropertyOp5
 70
     1
102
RTVSPropertyOp6
 70
     1
102
RTVSPropertyOp7
 70
     1
102
RTVSPropertyOp8
 70
     1
102
RTVSPropertyOp9
 70
     1
102
RTVSPropertyOp10
 70
     1
102
RTVSPropertyOp11
 70
     1
102
RTVSPropertyOp12
 70
     1
102
RTVSPropertyOp13
 70
     1
102
RTVSPropertyOp14
 70
     1
102
RTVSPropertyOp15
 70
     1
102
RTVSPropertyOp16
 70
     1
102
RTVSPropertyOp17
 70
     1
102
RTVSPropertyOp18
 70
     1
102
RTVSPropertyOp19
 70
     1
102
RTVSPropertyOp20
 70
     1
102
RTVSPropertyOp21
 70
     1
102
RTVSPropertyOp22
 70
     1
102
RTVSPropertyOp23
 70
     1
102
RTVSPropertyOp24
 70
     1
102
RTVSPropertyOp25
 70
     1
102
RTVSPropertyOp26
 70
     1
102
RTVSPropertyOp27
 70
     1
102
RTVSPropertyOp28
 70
     1
102
RTVSPropertyOp29
 70
     1
102
RTVSPropertyOp30
 70
     1
102
RTVSPropertyOp31
 70
     1
102
RTVSPropertyOp32
 70
     1
102
RTVSPropertyOp33
 70
     1
102
RTVSPropertyOp34
 70
     1
102
RTVSPropertyOp35
 70
     1
102
RTVSPropertyOp36
 70
     1
102
RTVSPropertyOp37
 70
     1
102
RTVSPropertyOp38
 70
     1
102
RTVSPropertyOp39
 70
     1
102
RTVSPropertyOp40
 70
     1
102
RTVSPropertyOp41
 70
     1
102
RTVSPropertyOp42
 70
     1
102
RTVSPropertyOp43
 70
     1
102
RTVSPropertyOp44
 70
     1
102
RTVSPropertyOp45
 70
     1
102
RTVSPropertyOp46
 70
     1
102
RTVSPropertyOp47
 70
     1
102
RTVSPropertyOp48
 70
     1
102
RTVSPropertyOp49
 70
     1
102
RTVSPropertyOp50
 70
     1
102
RTVSPropertyOp51
 70
     0
102
RTVSPropertyOp52
 70
     0
102
RTVSPropertyOp53
 70
     1
102
RTVSPropertyOp54
 70
     1
102
RTVSPropertyOp55
 70
     1
102
RTVSPropertyOp56
 70
     1
102
RTVSPropertyOp57
 70
     1
102
RTVSPost2010Prop28
280
     0
102
RTVSPost2010PropOp28
 70
     1
102
RTVSPost2010Prop29
280
     1
102
RTVSPost2010PropOp29
 70
     1
102
RTVSPost2010Prop30
280
     1
102
RTVSPost2010PropOp30
 70
     1
102
RTVSPost2010Prop31
280
     0
102
RTVSPost2010PropOp31
 70
     1
102
RTVSPost2010Prop32
280
     0
102
RTVSPost2010PropOp32
 70
     1
102
RTVSPost2010Prop33
280
     0
102
RTVSPost2010PropOp33
 70
     1
102
RTVSPost2010Prop34
280
     0
102
RTVSPost2010PropOp34
 70
     1
102
RTVSPost2010Prop35
280
     0
102
RTVSPost2010PropOp35
 70
     1
102
RTVSPost2010Prop36
280
     0
102
RTVSPost2010PropOp36
 70
     1
102
RTVSPost2010Prop37
 90
       50
102
RTVSPost2010PropOp37
 70
     1
102
RTVSPost2010Prop38
140
0.0
102
RTVSPost2010PropOp38
 70
     1
102
RTVSPost2010Prop39
140
1.0
102
RTVSPost2010PropOp39
 70
     1
102
RTVSPost2010Prop40
 90
        0
102
RTVSPost2010PropOp40
 70
     1
102
RTVSPost2010Prop41ColorIndex
 90
       18
102
RTVSPost2010Prop41ColorRGB
 90
        0
102
RTVSPost2010PropOp41
 70
     1
102
RTVSPost2010Prop42
 90
       50
102
RTVSPost2010PropOp42
 70
     1
102
RTVSPost2010Prop43
 90
        3
102
RTVSPost2010PropOp43
 70
     1
102
RTVSPost2010Prop44ColorIndex
 90
        5
102
RTVSPost2010Prop44ColorRGB
 90
      255
102
RTVSPost2010PropOp44
 70
     1
102
RTVSPost2010Prop45
280
     0
102
RTVSPost2010PropOp45
 70
     1
102
RTVSPost2010Prop46
 90
       50
102
RTVSPost2010PropOp46
 70
     1
102
RTVSPost2010Prop47
 90
       50
102
RTVSPost2010PropOp47
 70
     1
102
RTVSPost2010Prop48
 90
       50
102
RTVSPost2010PropOp48
 70
     1
102
RTVSPost2010Prop49
280
     0
102
RTVSPost2010PropOp49
 70
     1
102
RTVSPost2010Prop50
 90
       50
102
RTVSPost2010PropOp50
 70
     1
102
RTVSPost2010Prop51ColorIndex
 90
      256
102
RTVSPost2010Prop51ColorRGB
 90
-16777216
102
RTVSPost2010PropOp51
 70
     0
102
RTVSPost2010Prop52
140
1.0
102
RTVSPost2010PropOp52
 70
     0
102
RTVSPost2010Prop53
 90
        2
102
RTVSPost2010PropOp53
 70
     1
102
RTVSPost2010Prop54
  1
strokes_ogs.tif
102
RTVSPost2010PropOp54
 70
     1
102
RTVSPost2010Prop55
280
     0
102
RTVSPost2010PropOp55
 70
     1
102
RTVSPost2010Prop56
140
1.0
102
RTVSPost2010PropOp56
 70
     1
102
RTVSPost2010Prop57
140
1.0
102
RTVSPost2010PropOp57
 70
     1
  0
XRECORD
  5
D0
102
{ACAD_REACTORS
330
CF
102
}
330
CF
100
AcDbXrecord
280
     1
102
RTVSPropertyOp0
 70
     1
102
RTVSPropertyOp1
 70
     1
102
RTVSPropertyOp2
 70
     1
102
RTVSPropertyOp3
 70
     1
102
RTVSPropertyOp4
 70
     1
102
RTVSPropertyOp5
 70
     1
102
RTVSPropertyOp6
 70
     1
102
RTVSPropertyOp7
 70
     1
102
RTVSPropertyOp8
 70
     1
102
RTVSPropertyOp9
 70
     1
102
RTVSPropertyOp10
 70
     1
102
RTVSPropertyOp11
 70
     1
102
RTVSPropertyOp12
 70
     1
102
RTVSPropertyOp13
 70
     1
102
RTVSPropertyOp14
 70
     1
102
RTVSPropertyOp15
 70
     1
102
RTVSPropertyOp16
 70
     1
102
RTVSPropertyOp17
 70
     1
102
RTVSPropertyOp18
 70
     1
102
RTVSPropertyOp19
 70
     1
102
RTVSPropertyOp20
 70
     1
102
RTVSPropertyOp21
 70
     1
102
RTVSPropertyOp22
 70
     1
102
RTVSPropertyOp23
 70
     1
102
RTVSPropertyOp24
 70
     1
102
RTVSPropertyOp25
 70
     1
102
RTVSPropertyOp26
 70
     1
102
RTVSPropertyOp27
 70
     1
102
RTVSPropertyOp28
 70
     1
102
RTVSPropertyOp29
 70
     1
102
RTVSPropertyOp30
 70
     1
102
RTVSPropertyOp31
 70
     1
102
RTVSPropertyOp32
 70
     1
102
RTVSPropertyOp33
 70
     1
102
RTVSPropertyOp34
 70
     1
102
RTVSPropertyOp35
 70
     1
102
RTVSPropertyOp36
 70
     1
102
RTVSPropertyOp37
 70
     1
102
RTVSPropertyOp38
 70
     1
102
RTVSPropertyOp39
 70
     1
102
RTVSPropertyOp40
 70
     1
102
RTVSPropertyOp41
 70
     1
102
RTVSPropertyOp42
 70
     1
102
RTVSPropertyOp43
 70
     1
102
RTVSPropertyOp44
 70
     1
102
RTVSPropertyOp45
 70
     1
102
RTVSPropertyOp46
 70
     1
102
RTVSPropertyOp47
 70
     1
102
RTVSPropertyOp48
 70
     1
102
RTVSPropertyOp49
 70
     1
102
RTVSPropertyOp50
 70
     1
102
RTVSPropertyOp51
 70
     0
102
RTVSPropertyOp52
 70
     0
102
RTVSPropertyOp53
 70
     1
102
RTVSPropertyOp54
 70
     1
102
RTVSPropertyOp55
 70
     1
102
RTVSPropertyOp56
 70
     1
102
RTVSPropertyOp57
 70
     1
102
RTVSPost2010Prop28
280
     0
102
RTVSPost2010PropOp28
 70
     1
102
RTVSPost2010Prop29
280
     1
102
RTVSPost2010PropOp29
 70
     1
102
RTVSPost2010Prop30
280
     1
102
RTVSPost2010PropOp30
 70
     1
102
RTVSPost2010Prop31
280
     0
102
RTVSPost2010PropOp31
 70
     1
102
RTVSPost2010Prop32
280
     0
102
RTVSPost2010PropOp32
 70
     1
102
RTVSPost2010Prop33
280
     0
102
RTVSPost2010PropOp33
 70
     1
102
RTVSPost2010Prop34
280
     0
102
RTVSPost2010PropOp34
 70
     1
102
RTVSPost2010Prop35
280
     0
102
RTVSPost2010PropOp35
 70
     1
102
RTVSPost2010Prop36
280
     0
102
RTVSPost2010PropOp36
 70
     1
102
RTVSPost2010Prop37
 90
       50
102
RTVSPost2010PropOp37
 70
     1
102
RTVSPost2010Prop38
140
0.0
102
RTVSPost2010PropOp38
 70
     1
102
RTVSPost2010Prop39
140
1.0
102
RTVSPost2010PropOp39
 70
     1
102
RTVSPost2010Prop40
 90
        0
102
RTVSPost2010PropOp40
 70
     1
102
RTVSPost2010Prop41ColorIndex
 90
       18
102
RTVSPost2010Prop41ColorRGB
 90
        0
102
RTVSPost2010PropOp41
 70
     1
102
RTVSPost2010Prop42
 90
       50
102
RTVSPost2010PropOp42
 70
     1
102
RTVSPost2010Prop43
 90
        3
102
RTVSPost2010PropOp43
 70
     1
102
RTVSPost2010Prop44ColorIndex
 90
        5
102
RTVSPost2010Prop44ColorRGB
 90
      255
102
RTVSPost2010PropOp44
 70
     1
102
RTVSPost2010Prop45
280
     0
102
RTVSPost2010PropOp45
 70
     1
102
RTVSPost2010Prop46
 90
       50
102
RTVSPost2010PropOp46
 70
     1
102
RTVSPost2010Prop47
 90
       50
102
RTVSPost2010PropOp47
 70
     1
102
RTVSPost2010Prop48
 90
       50
102
RTVSPost2010PropOp48
 70
     1
102
RTVSPost2010Prop49
280
     0
102
RTVSPost2010PropOp49
 70
     1
102
RTVSPost2010Prop50
 90
       50
102
RTVSPost2010PropOp50
 70
     1
102
RTVSPost2010Prop51ColorIndex
 90
      256
102
RTVSPost2010Prop51ColorRGB
 90
-16777216
102
RTVSPost2010PropOp51
 70
     0
102
RTVSPost2010Prop52
140
1.0
102
RTVSPost2010PropOp52
 70
     0
102
RTVSPost2010Prop53
 90
        2
102
RTVSPost2010PropOp53
 70
     1
102
RTVSPost2010Prop54
  1
strokes_ogs.tif
102
RTVSPost2010PropOp54
 70
     1
102
RTVSPost2010Prop55
280
     0
102
RTVSPost2010PropOp55
 70
     1
102
RTVSPost2010Prop56
140
1.0
102
RTVSPost2010PropOp56
 70
     1
102
RTVSPost2010Prop57
140
1.0
102
RTVSPost2010PropOp57
 70
     1
  0
XRECORD
  5
D2
102
{ACAD_REACTORS
330
D1
102
}
330
D1
100
AcDbXrecord
280
     1
102
RTVSPropertyOp0
 70
     1
102
RTVSPropertyOp1
 70
     1
102
RTVSPropertyOp2
 70
     1
102
RTVSPropertyOp3
 70
     1
102
RTVSPropertyOp4
 70
     1
102
RTVSPropertyOp5
 70
     1
102
RTVSPropertyOp6
 70
     1
102
RTVSPropertyOp7
 70
     1
102
RTVSPropertyOp8
 70
     1
102
RTVSPropertyOp9
 70
     1
102
RTVSPropertyOp10
 70
     1
102
RTVSPropertyOp11
 70
     1
102
RTVSPropertyOp12
 70
     1
102
RTVSPropertyOp13
 70
     1
102
RTVSPropertyOp14
 70
     1
102
RTVSPropertyOp15
 70
     1
102
RTVSPropertyOp16
 70
     1
102
RTVSPropertyOp17
 70
     1
102
RTVSPropertyOp18
 70
     1
102
RTVSPropertyOp19
 70
     1
102
RTVSPropertyOp20
 70
     1
102
RTVSPropertyOp21
 70
     1
102
RTVSPropertyOp22
 70
     1
102
RTVSPropertyOp23
 70
     1
102
RTVSPropertyOp24
 70
     1
102
RTVSPropertyOp25
 70
     1
102
RTVSPropertyOp26
 70
     1
102
RTVSPropertyOp27
 70
     1
102
RTVSPropertyOp28
 70
     1
102
RTVSPropertyOp29
 70
     1
102
RTVSPropertyOp30
 70
     1
102
RTVSPropertyOp31
 70
     1
102
RTVSPropertyOp32
 70
     1
102
RTVSPropertyOp33
 70
     1
102
RTVSPropertyOp34
 70
     1
102
RTVSPropertyOp35
 70
     1
102
RTVSPropertyOp36
 70
     1
102
RTVSPropertyOp37
 70
     1
102
RTVSPropertyOp38
 70
     1
102
RTVSPropertyOp39
 70
     1
102
RTVSPropertyOp40
 70
     1
102
RTVSPropertyOp41
 70
     1
102
RTVSPropertyOp42
 70
     1
102
RTVSPropertyOp43
 70
     1
102
RTVSPropertyOp44
 70
     1
102
RTVSPropertyOp45
 70
     1
102
RTVSPropertyOp46
 70
     1
102
RTVSPropertyOp47
 70
     1
102
RTVSPropertyOp48
 70
     1
102
RTVSPropertyOp49
 70
     1
102
RTVSPropertyOp50
 70
     1
102
RTVSPropertyOp51
 70
     0
102
RTVSPropertyOp52
 70
     0
102
RTVSPropertyOp53
 70
     1
102
RTVSPropertyOp54
 70
     1
102
RTVSPropertyOp55
 70
     1
102
RTVSPropertyOp56
 70
     1
102
RTVSPropertyOp57
 70
     1
102
RTVSPost2010Prop28
280
     0
102
RTVSPost2010PropOp28
 70
     1
102
RTVSPost2010Prop29
280
     1
102
RTVSPost2010PropOp29
 70
     1
102
RTVSPost2010Prop30
280
     1
102
RTVSPost2010PropOp30
 70
     1
102
RTVSPost2010Prop31
280
     0
102
RTVSPost2010PropOp31
 70
     1
102
RTVSPost2010Prop32
280
     0
102
RTVSPost2010PropOp32
 70
     1
102
RTVSPost2010Prop33
280
     0
102
RTVSPost2010PropOp33
 70
     1
102
RTVSPost2010Prop34
280
     0
102
RTVSPost2010PropOp34
 70
     1
102
RTVSPost2010Prop35
280
     0
102
RTVSPost2010PropOp35
 70
     1
102
RTVSPost2010Prop36
280
     0
102
RTVSPost2010PropOp36
 70
     1
102
RTVSPost2010Prop37
 90
       50
102
RTVSPost2010PropOp37
 70
     1
102
RTVSPost2010Prop38
140
0.0
102
RTVSPost2010PropOp38
 70
     1
102
RTVSPost2010Prop39
140
1.0
102
RTVSPost2010PropOp39
 70
     1
102
RTVSPost2010Prop40
 90
        0
102
RTVSPost2010PropOp40
 70
     1
102
RTVSPost2010Prop41ColorIndex
 90
       18
102
RTVSPost2010Prop41ColorRGB
 90
        0
102
RTVSPost2010PropOp41
 70
     1
102
RTVSPost2010Prop42
 90
       50
102
RTVSPost2010PropOp42
 70
     1
102
RTVSPost2010Prop43
 90
        3
102
RTVSPost2010PropOp43
 70
     1
102
RTVSPost2010Prop44ColorIndex
 90
        5
102
RTVSPost2010Prop44ColorRGB
 90
      255
102
RTVSPost2010PropOp44
 70
     1
102
RTVSPost2010Prop45
280
     0
102
RTVSPost2010PropOp45
 70
     1
102
RTVSPost2010Prop46
 90
       50
102
RTVSPost2010PropOp46
 70
     1
102
RTVSPost2010Prop47
 90
       50
102
RTVSPost2010PropOp47
 70
     1
102
RTVSPost2010Prop48
 90
       50
102
RTVSPost2010PropOp48
 70
     1
102
RTVSPost2010Prop49
280
     0
102
RTVSPost2010PropOp49
 70
     1
102
RTVSPost2010Prop50
 90
       50
102
RTVSPost2010PropOp50
 70
     1
102
RTVSPost2010Prop51ColorIndex
 90
      256
102
RTVSPost2010Prop51ColorRGB
 90
-16777216
102
RTVSPost2010PropOp51
 70
     0
102
RTVSPost2010Prop52
140
1.0
102
RTVSPost2010PropOp52
 70
     0
102
RTVSPost2010Prop53
 90
        2
102
RTVSPost2010PropOp53
 70
     1
102
RTVSPost2010Prop54
  1
strokes_ogs.tif
102
RTVSPost2010PropOp54
 70
     1
102
RTVSPost2010Prop55
280
     0
102
RTVSPost2010PropOp55
 70
     1
102
RTVSPost2010Prop56
140
1.0
102
RTVSPost2010PropOp56
 70
     1
102
RTVSPost2010Prop57
140
1.0
102
RTVSPost2010PropOp57
 70
     1
  0
XRECORD
  5
D4
102
{ACAD_REACTORS
330
D3
102
}
330
D3
100
AcDbXrecord
280
     1
102
RTVSPropertyOp0
 70
     1
102
RTVSPropertyOp1
 70
     1
102
RTVSPropertyOp2
 70
     1
102
RTVSPropertyOp3
 70
     1
102
RTVSPropertyOp4
 70
     1
102
RTVSPropertyOp5
 70
     1
102
RTVSPropertyOp6
 70
     1
102
RTVSPropertyOp7
 70
     1
102
RTVSPropertyOp8
 70
     1
102
RTVSPropertyOp9
 70
     1
102
RTVSPropertyOp10
 70
     1
102
RTVSPropertyOp11
 70
     1
102
RTVSPropertyOp12
 70
     1
102
RTVSPropertyOp13
 70
     1
102
RTVSPropertyOp14
 70
     1
102
RTVSPropertyOp15
 70
     1
102
RTVSPropertyOp16
 70
     1
102
RTVSPropertyOp17
 70
     1
102
RTVSPropertyOp18
 70
     1
102
RTVSPropertyOp19
 70
     1
102
RTVSPropertyOp20
 70
     1
102
RTVSPropertyOp21
 70
     1
102
RTVSPropertyOp22
 70
     1
102
RTVSPropertyOp23
 70
     1
102
RTVSPropertyOp24
 70
     1
102
RTVSPropertyOp25
 70
     1
102
RTVSPropertyOp26
 70
     1
102
RTVSPropertyOp27
 70
     1
102
RTVSPropertyOp28
 70
     1
102
RTVSPropertyOp29
 70
     1
102
RTVSPropertyOp30
 70
     1
102
RTVSPropertyOp31
 70
     1
102
RTVSPropertyOp32
 70
     1
102
RTVSPropertyOp33
 70
     1
102
RTVSPropertyOp34
 70
     1
102
RTVSPropertyOp35
 70
     1
102
RTVSPropertyOp36
 70
     1
102
RTVSPropertyOp37
 70
     1
102
RTVSPropertyOp38
 70
     1
102
RTVSPropertyOp39
 70
     1
102
RTVSPropertyOp40
 70
     1
102
RTVSPropertyOp41
 70
     1
102
RTVSPropertyOp42
 70
     1
102
RTVSPropertyOp43
 70
     1
102
RTVSPropertyOp44
 70
     1
102
RTVSPropertyOp45
 70
     1
102
RTVSPropertyOp46
 70
     1
102
RTVSPropertyOp47
 70
     1
102
RTVSPropertyOp48
 70
     1
102
RTVSPropertyOp49
 70
     1
102
RTVSPropertyOp50
 70
     1
102
RTVSPropertyOp51
 70
     0
102
RTVSPropertyOp52
 70
     0
102
RTVSPropertyOp53
 70
     1
102
RTVSPropertyOp54
 70
     1
102
RTVSPropertyOp55
 70
     1
102
RTVSPropertyOp56
 70
     1
102
RTVSPropertyOp57
 70
     1
102
RTVSPost2010Prop28
280
     0
102
RTVSPost2010PropOp28
 70
     1
102
RTVSPost2010Prop29
280
     1
102
RTVSPost2010PropOp29
 70
     1
102
RTVSPost2010Prop30
280
     1
102
RTVSPost2010PropOp30
 70
     1
102
RTVSPost2010Prop31
280
     0
102
RTVSPost2010PropOp31
 70
     1
102
RTVSPost2010Prop32
280
     0
102
RTVSPost2010PropOp32
 70
     1
102
RTVSPost2010Prop33
280
     0
102
RTVSPost2010PropOp33
 70
     1
102
RTVSPost2010Prop34
280
     0
102
RTVSPost2010PropOp34
 70
     1
102
RTVSPost2010Prop35
280
     0
102
RTVSPost2010PropOp35
 70
     1
102
RTVSPost2010Prop36
280
     0
102
RTVSPost2010PropOp36
 70
     1
102
RTVSPost2010Prop37
 90
       50
102
RTVSPost2010PropOp37
 70
     1
102
RTVSPost2010Prop38
140
0.0
102
RTVSPost2010PropOp38
 70
     1
102
RTVSPost2010Prop39
140
1.0
102
RTVSPost2010PropOp39
 70
     1
102
RTVSPost2010Prop40
 90
        0
102
RTVSPost2010PropOp40
 70
     1
102
RTVSPost2010Prop41ColorIndex
 90
       18
102
RTVSPost2010Prop41ColorRGB
 90
        0
102
RTVSPost2010PropOp41
 70
     1
102
RTVSPost2010Prop42
 90
       50
102
RTVSPost2010PropOp42
 70
     1
102
RTVSPost2010Prop43
 90
        3
102
RTVSPost2010PropOp43
 70
     1
102
RTVSPost2010Prop44ColorIndex
 90
        5
102
RTVSPost2010Prop44ColorRGB
 90
      255
102
RTVSPost2010PropOp44
 70
     1
102
RTVSPost2010Prop45
280
     0
102
RTVSPost2010PropOp45
 70
     1
102
RTVSPost2010Prop46
 90
       50
102
RTVSPost2010PropOp46
 70
     1
102
RTVSPost2010Prop47
 90
       50
102
RTVSPost2010PropOp47
 70
     1
102
RTVSPost2010Prop48
 90
       50
102
RTVSPost2010PropOp48
 70
     1
102
RTVSPost2010Prop49
280
     0
102
RTVSPost2010PropOp49
 70
     1
102
RTVSPost2010Prop50
 90
       50
102
RTVSPost2010PropOp50
 70
     1
102
RTVSPost2010Prop51ColorIndex
 90
      256
102
RTVSPost2010Prop51ColorRGB
 90
-16777216
102
RTVSPost2010PropOp51
 70
     0
102
RTVSPost2010Prop52
140
1.0
102
RTVSPost2010PropOp52
 70
     0
102
RTVSPost2010Prop53
 90
        2
102
RTVSPost2010PropOp53
 70
     1
102
RTVSPost2010Prop54
  1
strokes_ogs.tif
102
RTVSPost2010PropOp54
 70
     1
102
RTVSPost2010Prop55
280
     0
102
RTVSPost2010PropOp55
 70
     1
102
RTVSPost2010Prop56
140
1.0
102
RTVSPost2010PropOp56
 70
     1
102
RTVSPost2010Prop57
140
1.0
102
RTVSPost2010PropOp57
 70
     1
  0
XRECORD
  5
DA
102
{ACAD_REACTORS
330
D9
102
}
330
D9
100
AcDbXrecord
280
     1
102
RTVSPropertyOp0
 70
     1
102
RTVSPropertyOp1
 70
     1
102
RTVSPropertyOp2
 70
     1
102
RTVSPropertyOp3
 70
     1
102
RTVSPropertyOp4
 70
     1
102
RTVSPropertyOp5
 70
     1
102
RTVSPropertyOp6
 70
     1
102
RTVSPropertyOp7
 70
     1
102
RTVSPropertyOp8
 70
     1
102
RTVSPropertyOp9
 70
     1
102
RTVSPropertyOp10
 70
     1
102
RTVSPropertyOp11
 70
     1
102
RTVSPropertyOp12
 70
     1
102
RTVSPropertyOp13
 70
     1
102
RTVSPropertyOp14
 70
     1
102
RTVSPropertyOp15
 70
     1
102
RTVSPropertyOp16
 70
     1
102
RTVSPropertyOp17
 70
     1
102
RTVSPropertyOp18
 70
     1
102
RTVSPropertyOp19
 70
     1
102
RTVSPropertyOp20
 70
     1
102
RTVSPropertyOp21
 70
     1
102
RTVSPropertyOp22
 70
     1
102
RTVSPropertyOp23
 70
     1
102
RTVSPropertyOp24
 70
     1
102
RTVSPropertyOp25
 70
     1
102
RTVSPropertyOp26
 70
     1
102
RTVSPropertyOp27
 70
     1
102
RTVSPropertyOp28
 70
     1
102
RTVSPropertyOp29
 70
     1
102
RTVSPropertyOp30
 70
     1
102
RTVSPropertyOp31
 70
     1
102
RTVSPropertyOp32
 70
     1
102
RTVSPropertyOp33
 70
     1
102
RTVSPropertyOp34
 70
     1
102
RTVSPropertyOp35
 70
     1
102
RTVSPropertyOp36
 70
     1
102
RTVSPropertyOp37
 70
     1
102
RTVSPropertyOp38
 70
     1
102
RTVSPropertyOp39
 70
     1
102
RTVSPropertyOp40
 70
     1
102
RTVSPropertyOp41
 70
     1
102
RTVSPropertyOp42
 70
     1
102
RTVSPropertyOp43
 70
     1
102
RTVSPropertyOp44
 70
     1
102
RTVSPropertyOp45
 70
     1
102
RTVSPropertyOp46
 70
     1
102
RTVSPropertyOp47
 70
     1
102
RTVSPropertyOp48
 70
     1
102
RTVSPropertyOp49
 70
     1
102
RTVSPropertyOp50
 70
     1
102
RTVSPropertyOp51
 70
     0
102
RTVSPropertyOp52
 70
     0
102
RTVSPropertyOp53
 70
     1
102
RTVSPropertyOp54
 70
     1
102
RTVSPropertyOp55
 70
     1
102
RTVSPropertyOp56
 70
     1
102
RTVSPropertyOp57
 70
     1
102
RTVSPost2010Prop28
280
     0
102
RTVSPost2010PropOp28
 70
     1
102
RTVSPost2010Prop29
280
     1
102
RTVSPost2010PropOp29
 70
     1
102
RTVSPost2010Prop30
280
     1
102
RTVSPost2010PropOp30
 70
     1
102
RTVSPost2010Prop31
280
     0
102
RTVSPost2010PropOp31
 70
     1
102
RTVSPost2010Prop32
280
     0
102
RTVSPost2010PropOp32
 70
     1
102
RTVSPost2010Prop33
280
     0
102
RTVSPost2010PropOp33
 70
     1
102
RTVSPost2010Prop34
280
     0
102
RTVSPost2010PropOp34
 70
     1
102
RTVSPost2010Prop35
280
     0
102
RTVSPost2010PropOp35
 70
     1
102
RTVSPost2010Prop36
280
     0
102
RTVSPost2010PropOp36
 70
     1
102
RTVSPost2010Prop37
 90
       50
102
RTVSPost2010PropOp37
 70
     1
102
RTVSPost2010Prop38
140
0.0
102
RTVSPost2010PropOp38
 70
     1
102
RTVSPost2010Prop39
140
1.0
102
RTVSPost2010PropOp39
 70
     1
102
RTVSPost2010Prop40
 90
        0
102
RTVSPost2010PropOp40
 70
     1
102
RTVSPost2010Prop41ColorIndex
 90
       18
102
RTVSPost2010Prop41ColorRGB
 90
        0
102
RTVSPost2010PropOp41
 70
     1
102
RTVSPost2010Prop42
 90
       50
102
RTVSPost2010PropOp42
 70
     1
102
RTVSPost2010Prop43
 90
        3
102
RTVSPost2010PropOp43
 70
     1
102
RTVSPost2010Prop44ColorIndex
 90
        5
102
RTVSPost2010Prop44ColorRGB
 90
      255
102
RTVSPost2010PropOp44
 70
     1
102
RTVSPost2010Prop45
280
     0
102
RTVSPost2010PropOp45
 70
     1
102
RTVSPost2010Prop46
 90
       50
102
RTVSPost2010PropOp46
 70
     1
102
RTVSPost2010Prop47
 90
       50
102
RTVSPost2010PropOp47
 70
     1
102
RTVSPost2010Prop48
 90
       50
102
RTVSPost2010PropOp48
 70
     1
102
RTVSPost2010Prop49
280
     0
102
RTVSPost2010PropOp49
 70
     1
102
RTVSPost2010Prop50
 90
       50
102
RTVSPost2010PropOp50
 70
     1
102
RTVSPost2010Prop51ColorIndex
 90
      256
102
RTVSPost2010Prop51ColorRGB
 90
-16777216
102
RTVSPost2010PropOp51
 70
     0
102
RTVSPost2010Prop52
140
1.0
102
RTVSPost2010PropOp52
 70
     0
102
RTVSPost2010Prop53
 90
        2
102
RTVSPost2010PropOp53
 70
     1
102
RTVSPost2010Prop54
  1
strokes_ogs.tif
102
RTVSPost2010PropOp54
 70
     1
102
RTVSPost2010Prop55
280
     0
102
RTVSPost2010PropOp55
 70
     1
102
RTVSPost2010Prop56
140
1.0
102
RTVSPost2010PropOp56
 70
     1
102
RTVSPost2010Prop57
140
1.0
102
RTVSPost2010PropOp57
 70
     1
  0
XRECORD
  5
EE
102
{ACAD_REACTORS
330
ED
102
}
330
ED
100
AcDbXrecord
280
     1
102
RTVSPropertyOp0
 70
     0
102
RTVSPropertyOp1
 70
     0
102
RTVSPropertyOp2
 70
     0
102
RTVSPropertyOp3
 70
     0
102
RTVSPropertyOp4
 70
     0
102
RTVSPropertyOp5
 70
     0
102
RTVSPropertyOp6
 70
     0
102
RTVSPropertyOp7
 70
     0
102
RTVSPropertyOp8
 70
     0
102
RTVSPropertyOp9
 70
     0
102
RTVSPropertyOp10
 70
     0
102
RTVSPropertyOp11
 70
     0
102
RTVSPropertyOp12
 70
     0
102
RTVSPropertyOp13
 70
     0
102
RTVSPropertyOp14
 70
     2
102
RTVSPropertyOp15
 70
     0
102
RTVSPropertyOp16
 70
     0
102
RTVSPropertyOp17
 70
     0
102
RTVSPropertyOp18
 70
     0
102
RTVSPropertyOp19
 70
     0
102
RTVSPropertyOp20
 70
     0
102
RTVSPropertyOp21
 70
     0
102
RTVSPropertyOp22
 70
     0
102
RTVSPropertyOp23
 70
     0
102
RTVSPropertyOp24
 70
     0
102
RTVSPropertyOp25
 70
     0
102
RTVSPropertyOp26
 70
     0
102
RTVSPropertyOp27
 70
     0
102
RTVSPropertyOp28
 70
     0
102
RTVSPropertyOp29
 70
     0
102
RTVSPropertyOp30
 70
     0
102
RTVSPropertyOp31
 70
     0
102
RTVSPropertyOp32
 70
     0
102
RTVSPropertyOp33
 70
     0
102
RTVSPropertyOp34
 70
     0
102
RTVSPropertyOp35
 70
     0
102
RTVSPropertyOp36
 70
     0
102
RTVSPropertyOp37
 70
     0
102
RTVSPropertyOp38
 70
     0
102
RTVSPropertyOp39
 70
     0
102
RTVSPropertyOp40
 70
     0
102
RTVSPropertyOp41
 70
     0
102
RTVSPropertyOp42
 70
     0
102
RTVSPropertyOp43
 70
     0
102
RTVSPropertyOp44
 70
     0
102
RTVSPropertyOp45
 70
     0
102
RTVSPropertyOp46
 70
     0
102
RTVSPropertyOp47
 70
     0
102
RTVSPropertyOp48
 70
     0
102
RTVSPropertyOp49
 70
     0
102
RTVSPropertyOp50
 70
     0
102
RTVSPropertyOp51
 70
     0
102
RTVSPropertyOp52
 70
     0
102
RTVSPropertyOp53
 70
     0
102
RTVSPropertyOp54
 70
     0
102
RTVSPropertyOp55
 70
     0
102
RTVSPropertyOp56
 70
     0
102
RTVSPropertyOp57
 70
     0
102
RTVSPost2010Prop28
280
     0
102
RTVSPost2010PropOp28
 70
     0
102
RTVSPost2010Prop29
280
     1
102
RTVSPost2010PropOp29
 70
     0
102
RTVSPost2010Prop30
280
     1
102
RTVSPost2010PropOp30
 70
     0
102
RTVSPost2010Prop31
280
     0
102
RTVSPost2010PropOp31
 70
     0
102
RTVSPost2010Prop32
280
     0
102
RTVSPost2010PropOp32
 70
     0
102
RTVSPost2010Prop33
280
     0
102
RTVSPost2010PropOp33
 70
     0
102
RTVSPost2010Prop34
280
     0
102
RTVSPost2010PropOp34
 70
     0
102
RTVSPost2010Prop35
280
     0
102
RTVSPost2010PropOp35
 70
     0
102
RTVSPost2010Prop36
280
     0
102
RTVSPost2010PropOp36
 70
     0
102
RTVSPost2010Prop37
 90
       50
102
RTVSPost2010PropOp37
 70
     0
102
RTVSPost2010Prop38
140
0.0
102
RTVSPost2010PropOp38
 70
     0
102
RTVSPost2010Prop39
140
1.0
102
RTVSPost2010PropOp39
 70
     0
102
RTVSPost2010Prop40
 90
        0
102
RTVSPost2010PropOp40
 70
     0
102
RTVSPost2010Prop41ColorIndex
 90
       18
102
RTVSPost2010Prop41ColorRGB
 90
        0
102
RTVSPost2010PropOp41
 70
     0
102
RTVSPost2010Prop42
 90
       50
102
RTVSPost2010PropOp42
 70
     0
102
RTVSPost2010Prop43
 90
        3
102
RTVSPost2010PropOp43
 70
     0
102
RTVSPost2010Prop44ColorIndex
 90
        5
102
RTVSPost2010Prop44ColorRGB
 90
      255
102
RTVSPost2010PropOp44
 70
     0
102
RTVSPost2010Prop45
280
     0
102
RTVSPost2010PropOp45
 70
     0
102
RTVSPost2010Prop46
 90
       50
102
RTVSPost2010PropOp46
 70
     0
102
RTVSPost2010Prop47
 90
       50
102
RTVSPost2010PropOp47
 70
     0
102
RTVSPost2010Prop48
 90
       50
102
RTVSPost2010PropOp48
 70
     0
102
RTVSPost2010Prop49
280
     0
102
RTVSPost2010PropOp49
 70
     0
102
RTVSPost2010Prop50
 90
       50
102
RTVSPost2010PropOp50
 70
     0
102
RTVSPost2010Prop51ColorIndex
 90
      256
102
RTVSPost2010Prop51ColorRGB
 90
-16777216
102
RTVSPost2010PropOp51
 70
     0
102
RTVSPost2010Prop52
140
1.0
102
RTVSPost2010PropOp52
 70
     0
102
RTVSPost2010Prop53
 90
        2
102
RTVSPost2010PropOp53
 70
     0
102
RTVSPost2010Prop54
  1
strokes_ogs.tif
102
RTVSPost2010PropOp54
 70
     0
102
RTVSPost2010Prop55
280
     0
102
RTVSPost2010PropOp55
 70
     0
102
RTVSPost2010Prop56
140
1.0
102
RTVSPost2010PropOp56
 70
     0
102
RTVSPost2010Prop57
140
1.0
102
RTVSPost2010PropOp57
 70
     0
  0
XRECORD
  5
E8
102
{ACAD_REACTORS
330
E7
102
}
330
E7
100
AcDbXrecord
280
     1
102
RTVSPropertyOp0
 70
     1
102
RTVSPropertyOp1
 70
     1
102
RTVSPropertyOp2
 70
     1
102
RTVSPropertyOp3
 70
     1
102
RTVSPropertyOp4
 70
     1
102
RTVSPropertyOp5
 70
     1
102
RTVSPropertyOp6
 70
     1
102
RTVSPropertyOp7
 70
     1
102
RTVSPropertyOp8
 70
     1
102
RTVSPropertyOp9
 70
     1
102
RTVSPropertyOp10
 70
     1
102
RTVSPropertyOp11
 70
     1
102
RTVSPropertyOp12
 70
     1
102
RTVSPropertyOp13
 70
     1
102
RTVSPropertyOp14
 70
     1
102
RTVSPropertyOp15
 70
     1
102
RTVSPropertyOp16
 70
     1
102
RTVSPropertyOp17
 70
     1
102
RTVSPropertyOp18
 70
     1
102
RTVSPropertyOp19
 70
     1
102
RTVSPropertyOp20
 70
     1
102
RTVSPropertyOp21
 70
     1
102
RTVSPropertyOp22
 70
     1
102
RTVSPropertyOp23
 70
     1
102
RTVSPropertyOp24
 70
     1
102
RTVSPropertyOp25
 70
     1
102
RTVSPropertyOp26
 70
     1
102
RTVSPropertyOp27
 70
     1
102
RTVSPropertyOp28
 70
     1
102
RTVSPropertyOp29
 70
     1
102
RTVSPropertyOp30
 70
     1
102
RTVSPropertyOp31
 70
     1
102
RTVSPropertyOp32
 70
     1
102
RTVSPropertyOp33
 70
     1
102
RTVSPropertyOp34
 70
     1
102
RTVSPropertyOp35
 70
     1
102
RTVSPropertyOp36
 70
     1
102
RTVSPropertyOp37
 70
     1
102
RTVSPropertyOp38
 70
     1
102
RTVSPropertyOp39
 70
     1
102
RTVSPropertyOp40
 70
     1
102
RTVSPropertyOp41
 70
     1
102
RTVSPropertyOp42
 70
     1
102
RTVSPropertyOp43
 70
     1
102
RTVSPropertyOp44
 70
     1
102
RTVSPropertyOp45
 70
     1
102
RTVSPropertyOp46
 70
     1
102
RTVSPropertyOp47
 70
     1
102
RTVSPropertyOp48
 70
     1
102
RTVSPropertyOp49
 70
     1
102
RTVSPropertyOp50
 70
     1
102
RTVSPropertyOp51
 70
     0
102
RTVSPropertyOp52
 70
     0
102
RTVSPropertyOp53
 70
     1
102
RTVSPropertyOp54
 70
     1
102
RTVSPropertyOp55
 70
     1
102
RTVSPropertyOp56
 70
     1
102
RTVSPropertyOp57
 70
     1
102
RTVSPost2010Prop28
280
     0
102
RTVSPost2010PropOp28
 70
     1
102
RTVSPost2010Prop29
280
     1
102
RTVSPost2010PropOp29
 70
     1
102
RTVSPost2010Prop30
280
     1
102
RTVSPost2010PropOp30
 70
     1
102
RTVSPost2010Prop31
280
     0
102
RTVSPost2010PropOp31
 70
     1
102
RTVSPost2010Prop32
280
     0
102
RTVSPost2010PropOp32
 70
     1
102
RTVSPost2010Prop33
280
     0
102
RTVSPost2010PropOp33
 70
     1
102
RTVSPost2010Prop34
280
     0
102
RTVSPost2010PropOp34
 70
     1
102
RTVSPost2010Prop35
280
     0
102
RTVSPost2010PropOp35
 70
     1
102
RTVSPost2010Prop36
280
     0
102
RTVSPost2010PropOp36
 70
     1
102
RTVSPost2010Prop37
 90
       50
102
RTVSPost2010PropOp37
 70
     1
102
RTVSPost2010Prop38
140
0.0
102
RTVSPost2010PropOp38
 70
     1
102
RTVSPost2010Prop39
140
1.0
102
RTVSPost2010PropOp39
 70
     1
102
RTVSPost2010Prop40
 90
        0
102
RTVSPost2010PropOp40
 70
     1
102
RTVSPost2010Prop41ColorIndex
 90
       18
102
RTVSPost2010Prop41ColorRGB
 90
        0
102
RTVSPost2010PropOp41
 70
     1
102
RTVSPost2010Prop42
 90
       50
102
RTVSPost2010PropOp42
 70
     1
102
RTVSPost2010Prop43
 90
        3
102
RTVSPost2010PropOp43
 70
     1
102
RTVSPost2010Prop44ColorIndex
 90
        5
102
RTVSPost2010Prop44ColorRGB
 90
      255
102
RTVSPost2010PropOp44
 70
     1
102
RTVSPost2010Prop45
280
     0
102
RTVSPost2010PropOp45
 70
     1
102
RTVSPost2010Prop46
 90
       50
102
RTVSPost2010PropOp46
 70
     1
102
RTVSPost2010Prop47
 90
       50
102
RTVSPost2010PropOp47
 70
     1
102
RTVSPost2010Prop48
 90
       50
102
RTVSPost2010PropOp48
 70
     1
102
RTVSPost2010Prop49
280
     0
102
RTVSPost2010PropOp49
 70
     1
102
RTVSPost2010Prop50
 90
       50
102
RTVSPost2010PropOp50
 70
     1
102
RTVSPost2010Prop51ColorIndex
 90
      256
102
RTVSPost2010Prop51ColorRGB
 90
-16777216
102
RTVSPost2010PropOp51
 70
     0
102
RTVSPost2010Prop52
140
1.0
102
RTVSPost2010PropOp52
 70
     0
102
RTVSPost2010Prop53
 90
        2
102
RTVSPost2010PropOp53
 70
     1
102
RTVSPost2010Prop54
  1
strokes_ogs.tif
102
RTVSPost2010PropOp54
 70
     1
102
RTVSPost2010Prop55
280
     0
102
RTVSPost2010PropOp55
 70
     1
102
RTVSPost2010Prop56
140
1.0
102
RTVSPost2010PropOp56
 70
     1
102
RTVSPost2010Prop57
140
1.0
102
RTVSPost2010PropOp57
 70
     1
  0
XRECORD
  5
F0
102
{ACAD_REACTORS
330
EF
102
}
330
EF
100
AcDbXrecord
280
     1
102
RTVSPropertyOp0
 70
     0
102
RTVSPropertyOp1
 70
     0
102
RTVSPropertyOp2
 70
     0
102
RTVSPropertyOp3
 70
     0
102
RTVSPropertyOp4
 70
     0
102
RTVSPropertyOp5
 70
     0
102
RTVSPropertyOp6
 70
     0
102
RTVSPropertyOp7
 70
     0
102
RTVSPropertyOp8
 70
     0
102
RTVSPropertyOp9
 70
     0
102
RTVSPropertyOp10
 70
     0
102
RTVSPropertyOp11
 70
     0
102
RTVSPropertyOp12
 70
     0
102
RTVSPropertyOp13
 70
     0
102
RTVSPropertyOp14
 70
     2
102
RTVSPropertyOp15
 70
     0
102
RTVSPropertyOp16
 70
     0
102
RTVSPropertyOp17
 70
     0
102
RTVSPropertyOp18
 70
     0
102
RTVSPropertyOp19
 70
     0
102
RTVSPropertyOp20
 70
     0
102
RTVSPropertyOp21
 70
     0
102
RTVSPropertyOp22
 70
     0
102
RTVSPropertyOp23
 70
     0
102
RTVSPropertyOp24
 70
     0
102
RTVSPropertyOp25
 70
     0
102
RTVSPropertyOp26
 70
     0
102
RTVSPropertyOp27
 70
     0
102
RTVSPropertyOp28
 70
     0
102
RTVSPropertyOp29
 70
     0
102
RTVSPropertyOp30
 70
     0
102
RTVSPropertyOp31
 70
     0
102
RTVSPropertyOp32
 70
     0
102
RTVSPropertyOp33
 70
     0
102
RTVSPropertyOp34
 70
     0
102
RTVSPropertyOp35
 70
     0
102
RTVSPropertyOp36
 70
     0
102
RTVSPropertyOp37
 70
     0
102
RTVSPropertyOp38
 70
     0
102
RTVSPropertyOp39
 70
     0
102
RTVSPropertyOp40
 70
     0
102
RTVSPropertyOp41
 70
     0
102
RTVSPropertyOp42
 70
     0
102
RTVSPropertyOp43
 70
     0
102
RTVSPropertyOp44
 70
     0
102
RTVSPropertyOp45
 70
     0
102
RTVSPropertyOp46
 70
     0
102
RTVSPropertyOp47
 70
     0
102
RTVSPropertyOp48
 70
     0
102
RTVSPropertyOp49
 70
     0
102
RTVSPropertyOp50
 70
     0
102
RTVSPropertyOp51
 70
     0
102
RTVSPropertyOp52
 70
     0
102
RTVSPropertyOp53
 70
     0
102
RTVSPropertyOp54
 70
     0
102
RTVSPropertyOp55
 70
     0
102
RTVSPropertyOp56
 70
     0
102
RTVSPropertyOp57
 70
     0
102
RTVSPost2010Prop28
280
     0
102
RTVSPost2010PropOp28
 70
     0
102
RTVSPost2010Prop29
280
     1
102
RTVSPost2010PropOp29
 70
     0
102
RTVSPost2010Prop30
280
     1
102
RTVSPost2010PropOp30
 70
     0
102
RTVSPost2010Prop31
280
     0
102
RTVSPost2010PropOp31
 70
     0
102
RTVSPost2010Prop32
280
     0
102
RTVSPost2010PropOp32
 70
     0
102
RTVSPost2010Prop33
280
     0
102
RTVSPost2010PropOp33
 70
     0
102
RTVSPost2010Prop34
280
     0
102
RTVSPost2010PropOp34
 70
     0
102
RTVSPost2010Prop35
280
     0
102
RTVSPost2010PropOp35
 70
     0
102
RTVSPost2010Prop36
280
     0
102
RTVSPost2010PropOp36
 70
     0
102
RTVSPost2010Prop37
 90
       50
102
RTVSPost2010PropOp37
 70
     0
102
RTVSPost2010Prop38
140
0.0
102
RTVSPost2010PropOp38
 70
     0
102
RTVSPost2010Prop39
140
1.0
102
RTVSPost2010PropOp39
 70
     0
102
RTVSPost2010Prop40
 90
        0
102
RTVSPost2010PropOp40
 70
     0
102
RTVSPost2010Prop41ColorIndex
 90
       18
102
RTVSPost2010Prop41ColorRGB
 90
        0
102
RTVSPost2010PropOp41
 70
     0
102
RTVSPost2010Prop42
 90
       50
102
RTVSPost2010PropOp42
 70
     0
102
RTVSPost2010Prop43
 90
        3
102
RTVSPost2010PropOp43
 70
     0
102
RTVSPost2010Prop44ColorIndex
 90
        5
102
RTVSPost2010Prop44ColorRGB
 90
      255
102
RTVSPost2010PropOp44
 70
     0
102
RTVSPost2010Prop45
280
     0
102
RTVSPost2010PropOp45
 70
     0
102
RTVSPost2010Prop46
 90
       50
102
RTVSPost2010PropOp46
 70
     0
102
RTVSPost2010Prop47
 90
       50
102
RTVSPost2010PropOp47
 70
     0
102
RTVSPost2010Prop48
 90
       50
102
RTVSPost2010PropOp48
 70
     0
102
RTVSPost2010Prop49
280
     0
102
RTVSPost2010PropOp49
 70
     0
102
RTVSPost2010Prop50
 90
       50
102
RTVSPost2010PropOp50
 70
     0
102
RTVSPost2010Prop51ColorIndex
 90
      256
102
RTVSPost2010Prop51ColorRGB
 90
-16777216
102
RTVSPost2010PropOp51
 70
     0
102
RTVSPost2010Prop52
140
1.0
102
RTVSPost2010PropOp52
 70
     0
102
RTVSPost2010Prop53
 90
        2
102
RTVSPost2010PropOp53
 70
     0
102
RTVSPost2010Prop54
  1
strokes_ogs.tif
102
RTVSPost2010PropOp54
 70
     0
102
RTVSPost2010Prop55
280
     0
102
RTVSPost2010PropOp55
 70
     0
102
RTVSPost2010Prop56
140
1.0
102
RTVSPost2010PropOp56
 70
     0
102
RTVSPost2010Prop57
140
1.0
102
RTVSPost2010PropOp57
 70
     0
  0
XRECORD
  5
DE
102
{ACAD_REACTORS
330
DD
102
}
330
DD
100
AcDbXrecord
280
     1
102
RTVSPropertyOp0
 70
     1
102
RTVSPropertyOp1
 70
     1
102
RTVSPropertyOp2
 70
     1
102
RTVSPropertyOp3
 70
     1
102
RTVSPropertyOp4
 70
     1
102
RTVSPropertyOp5
 70
     1
102
RTVSPropertyOp6
 70
     1
102
RTVSPropertyOp7
 70
     1
102
RTVSPropertyOp8
 70
     1
102
RTVSPropertyOp9
 70
     1
102
RTVSPropertyOp10
 70
     1
102
RTVSPropertyOp11
 70
     1
102
RTVSPropertyOp12
 70
     1
102
RTVSPropertyOp13
 70
     1
102
RTVSPropertyOp14
 70
     1
102
RTVSPropertyOp15
 70
     1
102
RTVSPropertyOp16
 70
     1
102
RTVSPropertyOp17
 70
     1
102
RTVSPropertyOp18
 70
     1
102
RTVSPropertyOp19
 70
     1
102
RTVSPropertyOp20
 70
     1
102
RTVSPropertyOp21
 70
     1
102
RTVSPropertyOp22
 70
     1
102
RTVSPropertyOp23
 70
     1
102
RTVSPropertyOp24
 70
     1
102
RTVSPropertyOp25
 70
     1
102
RTVSPropertyOp26
 70
     1
102
RTVSPropertyOp27
 70
     1
102
RTVSPropertyOp28
 70
     1
102
RTVSPropertyOp29
 70
     1
102
RTVSPropertyOp30
 70
     1
102
RTVSPropertyOp31
 70
     1
102
RTVSPropertyOp32
 70
     1
102
RTVSPropertyOp33
 70
     1
102
RTVSPropertyOp34
 70
     1
102
RTVSPropertyOp35
 70
     1
102
RTVSPropertyOp36
 70
     1
102
RTVSPropertyOp37
 70
     1
102
RTVSPropertyOp38
 70
     1
102
RTVSPropertyOp39
 70
     1
102
RTVSPropertyOp40
 70
     1
102
RTVSPropertyOp41
 70
     1
102
RTVSPropertyOp42
 70
     1
102
RTVSPropertyOp43
 70
     1
102
RTVSPropertyOp44
 70
     1
102
RTVSPropertyOp45
 70
     1
102
RTVSPropertyOp46
 70
     1
102
RTVSPropertyOp47
 70
     1
102
RTVSPropertyOp48
 70
     1
102
RTVSPropertyOp49
 70
     1
102
RTVSPropertyOp50
 70
     1
102
RTVSPropertyOp51
 70
     0
102
RTVSPropertyOp52
 70
     0
102
RTVSPropertyOp53
 70
     1
102
RTVSPropertyOp54
 70
     1
102
RTVSPropertyOp55
 70
     1
102
RTVSPropertyOp56
 70
     1
102
RTVSPropertyOp57
 70
     1
102
RTVSPost2010Prop28
280
     0
102
RTVSPost2010PropOp28
 70
     1
102
RTVSPost2010Prop29
280
     1
102
RTVSPost2010PropOp29
 70
     1
102
RTVSPost2010Prop30
280
     1
102
RTVSPost2010PropOp30
 70
     1
102
RTVSPost2010Prop31
280
     0
102
RTVSPost2010PropOp31
 70
     1
102
RTVSPost2010Prop32
280
     0
102
RTVSPost2010PropOp32
 70
     1
102
RTVSPost2010Prop33
280
     0
102
RTVSPost2010PropOp33
 70
     1
102
RTVSPost2010Prop34
280
     0
102
RTVSPost2010PropOp34
 70
     1
102
RTVSPost2010Prop35
280
     0
102
RTVSPost2010PropOp35
 70
     1
102
RTVSPost2010Prop36
280
     0
102
RTVSPost2010PropOp36
 70
     1
102
RTVSPost2010Prop37
 90
       50
102
RTVSPost2010PropOp37
 70
     1
102
RTVSPost2010Prop38
140
0.0
102
RTVSPost2010PropOp38
 70
     1
102
RTVSPost2010Prop39
140
1.0
102
RTVSPost2010PropOp39
 70
     1
102
RTVSPost2010Prop40
 90
        0
102
RTVSPost2010PropOp40
 70
     1
102
RTVSPost2010Prop41ColorIndex
 90
       18
102
RTVSPost2010Prop41ColorRGB
 90
        0
102
RTVSPost2010PropOp41
 70
     1
102
RTVSPost2010Prop42
 90
       50
102
RTVSPost2010PropOp42
 70
     1
102
RTVSPost2010Prop43
 90
        3
102
RTVSPost2010PropOp43
 70
     1
102
RTVSPost2010Prop44ColorIndex
 90
        5
102
RTVSPost2010Prop44ColorRGB
 90
      255
102
RTVSPost2010PropOp44
 70
     1
102
RTVSPost2010Prop45
280
     0
102
RTVSPost2010PropOp45
 70
     1
102
RTVSPost2010Prop46
 90
       50
102
RTVSPost2010PropOp46
 70
     1
102
RTVSPost2010Prop47
 90
       50
102
RTVSPost2010PropOp47
 70
     1
102
RTVSPost2010Prop48
 90
       50
102
RTVSPost2010PropOp48
 70
     1
102
RTVSPost2010Prop49
280
     0
102
RTVSPost2010PropOp49
 70
     1
102
RTVSPost2010Prop50
 90
       50
102
RTVSPost2010PropOp50
 70
     1
102
RTVSPost2010Prop51ColorIndex
 90
      256
102
RTVSPost2010Prop51ColorRGB
 90
-16777216
102
RTVSPost2010PropOp51
 70
     0
102
RTVSPost2010Prop52
140
1.0
102
RTVSPost2010PropOp52
 70
     0
102
RTVSPost2010Prop53
 90
        2
102
RTVSPost2010PropOp53
 70
     1
102
RTVSPost2010Prop54
  1
strokes_ogs.tif
102
RTVSPost2010PropOp54
 70
     1
102
RTVSPost2010Prop55
280
     0
102
RTVSPost2010PropOp55
 70
     1
102
RTVSPost2010Prop56
140
1.0
102
RTVSPost2010PropOp56
 70
     1
102
RTVSPost2010Prop57
140
1.0
102
RTVSPost2010PropOp57
 70
     1
  0
XRECORD
  5
FC
102
{ACAD_REACTORS
330
FB
102
}
330
FB
100
AcDbXrecord
280
     1
102
RTVSPropertyOp0
 70
     1
102
RTVSPropertyOp1
 70
     1
102
RTVSPropertyOp2
 70
     1
102
RTVSPropertyOp3
 70
     1
102
RTVSPropertyOp4
 70
     1
102
RTVSPropertyOp5
 70
     1
102
RTVSPropertyOp6
 70
     1
102
RTVSPropertyOp7
 70
     1
102
RTVSPropertyOp8
 70
     1
102
RTVSPropertyOp9
 70
     1
102
RTVSPropertyOp10
 70
     1
102
RTVSPropertyOp11
 70
     1
102
RTVSPropertyOp12
 70
     1
102
RTVSPropertyOp13
 70
     1
102
RTVSPropertyOp14
 70
     1
102
RTVSPropertyOp15
 70
     1
102
RTVSPropertyOp16
 70
     1
102
RTVSPropertyOp17
 70
     1
102
RTVSPropertyOp18
 70
     1
102
RTVSPropertyOp19
 70
     1
102
RTVSPropertyOp20
 70
     1
102
RTVSPropertyOp21
 70
     1
102
RTVSPropertyOp22
 70
     1
102
RTVSPropertyOp23
 70
     1
102
RTVSPropertyOp24
 70
     1
102
RTVSPropertyOp25
 70
     1
102
RTVSPropertyOp26
 70
     1
102
RTVSPropertyOp27
 70
     1
102
RTVSPropertyOp28
 70
     1
102
RTVSPropertyOp29
 70
     1
102
RTVSPropertyOp30
 70
     1
102
RTVSPropertyOp31
 70
     1
102
RTVSPropertyOp32
 70
     1
102
RTVSPropertyOp33
 70
     1
102
RTVSPropertyOp34
 70
     1
102
RTVSPropertyOp35
 70
     1
102
RTVSPropertyOp36
 70
     1
102
RTVSPropertyOp37
 70
     1
102
RTVSPropertyOp38
 70
     1
102
RTVSPropertyOp39
 70
     1
102
RTVSPropertyOp40
 70
     1
102
RTVSPropertyOp41
 70
     1
102
RTVSPropertyOp42
 70
     1
102
RTVSPropertyOp43
 70
     1
102
RTVSPropertyOp44
 70
     1
102
RTVSPropertyOp45
 70
     1
102
RTVSPropertyOp46
 70
     1
102
RTVSPropertyOp47
 70
     1
102
RTVSPropertyOp48
 70
     1
102
RTVSPropertyOp49
 70
     1
102
RTVSPropertyOp50
 70
     1
102
RTVSPropertyOp51
 70
     0
102
RTVSPropertyOp52
 70
     0
102
RTVSPropertyOp53
 70
     1
102
RTVSPropertyOp54
 70
     1
102
RTVSPropertyOp55
 70
     1
102
RTVSPropertyOp56
 70
     1
102
RTVSPropertyOp57
 70
     1
102
RTVSPost2010Prop28
280
     0
102
RTVSPost2010PropOp28
 70
     1
102
RTVSPost2010Prop29
280
     1
102
RTVSPost2010PropOp29
 70
     1
102
RTVSPost2010Prop30
280
     1
102
RTVSPost2010PropOp30
 70
     1
102
RTVSPost2010Prop31
280
     0
102
RTVSPost2010PropOp31
 70
     1
102
RTVSPost2010Prop32
280
     0
102
RTVSPost2010PropOp32
 70
     1
102
RTVSPost2010Prop33
280
     0
102
RTVSPost2010PropOp33
 70
     1
102
RTVSPost2010Prop34
280
     0
102
RTVSPost2010PropOp34
 70
     1
102
RTVSPost2010Prop35
280
     0
102
RTVSPost2010PropOp35
 70
     1
102
RTVSPost2010Prop36
280
     0
102
RTVSPost2010PropOp36
 70
     1
102
RTVSPost2010Prop37
 90
       50
102
RTVSPost2010PropOp37
 70
     1
102
RTVSPost2010Prop38
140
0.0
102
RTVSPost2010PropOp38
 70
     1
102
RTVSPost2010Prop39
140
1.0
102
RTVSPost2010PropOp39
 70
     1
102
RTVSPost2010Prop40
 90
        0
102
RTVSPost2010PropOp40
 70
     1
102
RTVSPost2010Prop41ColorIndex
 90
       18
102
RTVSPost2010Prop41ColorRGB
 90
        0
102
RTVSPost2010PropOp41
 70
     1
102
RTVSPost2010Prop42
 90
       50
102
RTVSPost2010PropOp42
 70
     1
102
RTVSPost2010Prop43
 90
        3
102
RTVSPost2010PropOp43
 70
     1
102
RTVSPost2010Prop44ColorIndex
 90
        5
102
RTVSPost2010Prop44ColorRGB
 90
      255
102
RTVSPost2010PropOp44
 70
     1
102
RTVSPost2010Prop45
280
     0
102
RTVSPost2010PropOp45
 70
     1
102
RTVSPost2010Prop46
 90
       50
102
RTVSPost2010PropOp46
 70
     1
102
RTVSPost2010Prop47
 90
       50
102
RTVSPost2010PropOp47
 70
     1
102
RTVSPost2010Prop48
 90
       50
102
RTVSPost2010PropOp48
 70
     1
102
RTVSPost2010Prop49
280
     0
102
RTVSPost2010PropOp49
 70
     1
102
RTVSPost2010Prop50
 90
       50
102
RTVSPost2010PropOp50
 70
     1
102
RTVSPost2010Prop51ColorIndex
 90
      256
102
RTVSPost2010Prop51ColorRGB
 90
-16777216
102
RTVSPost2010PropOp51
 70
     0
102
RTVSPost2010Prop52
140
1.0
102
RTVSPost2010PropOp52
 70
     0
102
RTVSPost2010Prop53
 90
        2
102
RTVSPost2010PropOp53
 70
     1
102
RTVSPost2010Prop54
  1
strokes_ogs.tif
102
RTVSPost2010PropOp54
 70
     1
102
RTVSPost2010Prop55
280
     0
102
RTVSPost2010PropOp55
 70
     1
102
RTVSPost2010Prop56
140
1.0
102
RTVSPost2010PropOp56
 70
     1
102
RTVSPost2010Prop57
140
1.0
102
RTVSPost2010PropOp57
 70
     1
  0
XRECORD
  5
FA
102
{ACAD_REACTORS
330
F9
102
}
330
F9
100
AcDbXrecord
280
     1
102
RTVSPropertyOp0
 70
     1
102
RTVSPropertyOp1
 70
     1
102
RTVSPropertyOp2
 70
     1
102
RTVSPropertyOp3
 70
     1
102
RTVSPropertyOp4
 70
     1
102
RTVSPropertyOp5
 70
     1
102
RTVSPropertyOp6
 70
     1
102
RTVSPropertyOp7
 70
     1
102
RTVSPropertyOp8
 70
     1
102
RTVSPropertyOp9
 70
     1
102
RTVSPropertyOp10
 70
     1
102
RTVSPropertyOp11
 70
     1
102
RTVSPropertyOp12
 70
     1
102
RTVSPropertyOp13
 70
     1
102
RTVSPropertyOp14
 70
     1
102
RTVSPropertyOp15
 70
     1
102
RTVSPropertyOp16
 70
     1
102
RTVSPropertyOp17
 70
     1
102
RTVSPropertyOp18
 70
     1
102
RTVSPropertyOp19
 70
     1
102
RTVSPropertyOp20
 70
     1
102
RTVSPropertyOp21
 70
     1
102
RTVSPropertyOp22
 70
     1
102
RTVSPropertyOp23
 70
     1
102
RTVSPropertyOp24
 70
     1
102
RTVSPropertyOp25
 70
     1
102
RTVSPropertyOp26
 70
     1
102
RTVSPropertyOp27
 70
     1
102
RTVSPropertyOp28
 70
     1
102
RTVSPropertyOp29
 70
     1
102
RTVSPropertyOp30
 70
     1
102
RTVSPropertyOp31
 70
     1
102
RTVSPropertyOp32
 70
     1
102
RTVSPropertyOp33
 70
     1
102
RTVSPropertyOp34
 70
     1
102
RTVSPropertyOp35
 70
     1
102
RTVSPropertyOp36
 70
     1
102
RTVSPropertyOp37
 70
     1
102
RTVSPropertyOp38
 70
     1
102
RTVSPropertyOp39
 70
     1
102
RTVSPropertyOp40
 70
     1
102
RTVSPropertyOp41
 70
     1
102
RTVSPropertyOp42
 70
     1
102
RTVSPropertyOp43
 70
     1
102
RTVSPropertyOp44
 70
     1
102
RTVSPropertyOp45
 70
     1
102
RTVSPropertyOp46
 70
     1
102
RTVSPropertyOp47
 70
     1
102
RTVSPropertyOp48
 70
     1
102
RTVSPropertyOp49
 70
     1
102
RTVSPropertyOp50
 70
     1
102
RTVSPropertyOp51
 70
     0
102
RTVSPropertyOp52
 70
     0
102
RTVSPropertyOp53
 70
     1
102
RTVSPropertyOp54
 70
     1
102
RTVSPropertyOp55
 70
     1
102
RTVSPropertyOp56
 70
     1
102
RTVSPropertyOp57
 70
     1
102
RTVSPost2010Prop28
280
     0
102
RTVSPost2010PropOp28
 70
     1
102
RTVSPost2010Prop29
280
     1
102
RTVSPost2010PropOp29
 70
     1
102
RTVSPost2010Prop30
280
     1
102
RTVSPost2010PropOp30
 70
     1
102
RTVSPost2010Prop31
280
     0
102
RTVSPost2010PropOp31
 70
     1
102
RTVSPost2010Prop32
280
     0
102
RTVSPost2010PropOp32
 70
     1
102
RTVSPost2010Prop33
280
     0
102
RTVSPost2010PropOp33
 70
     1
102
RTVSPost2010Prop34
280
     0
102
RTVSPost2010PropOp34
 70
     1
102
RTVSPost2010Prop35
280
     0
102
RTVSPost2010PropOp35
 70
     1
102
RTVSPost2010Prop36
280
     0
102
RTVSPost2010PropOp36
 70
     1
102
RTVSPost2010Prop37
 90
       50
102
RTVSPost2010PropOp37
 70
     1
102
RTVSPost2010Prop38
140
0.0
102
RTVSPost2010PropOp38
 70
     1
102
RTVSPost2010Prop39
140
1.0
102
RTVSPost2010PropOp39
 70
     1
102
RTVSPost2010Prop40
 90
        0
102
RTVSPost2010PropOp40
 70
     1
102
RTVSPost2010Prop41ColorIndex
 90
       18
102
RTVSPost2010Prop41ColorRGB
 90
        0
102
RTVSPost2010PropOp41
 70
     1
102
RTVSPost2010Prop42
 90
       50
102
RTVSPost2010PropOp42
 70
     1
102
RTVSPost2010Prop43
 90
        3
102
RTVSPost2010PropOp43
 70
     1
102
RTVSPost2010Prop44ColorIndex
 90
        5
102
RTVSPost2010Prop44ColorRGB
 90
      255
102
RTVSPost2010PropOp44
 70
     1
102
RTVSPost2010Prop45
280
     0
102
RTVSPost2010PropOp45
 70
     1
102
RTVSPost2010Prop46
 90
       50
102
RTVSPost2010PropOp46
 70
     1
102
RTVSPost2010Prop47
 90
       50
102
RTVSPost2010PropOp47
 70
     1
102
RTVSPost2010Prop48
 90
       50
102
RTVSPost2010PropOp48
 70
     1
102
RTVSPost2010Prop49
280
     0
102
RTVSPost2010PropOp49
 70
     1
102
RTVSPost2010Prop50
 90
       50
102
RTVSPost2010PropOp50
 70
     1
102
RTVSPost2010Prop51ColorIndex
 90
      256
102
RTVSPost2010Prop51ColorRGB
 90
-16777216
102
RTVSPost2010PropOp51
 70
     0
102
RTVSPost2010Prop52
140
1.0
102
RTVSPost2010PropOp52
 70
     0
102
RTVSPost2010Prop53
 90
        2
102
RTVSPost2010PropOp53
 70
     1
102
RTVSPost2010Prop54
  1
strokes_ogs.tif
102
RTVSPost2010PropOp54
 70
     1
102
RTVSPost2010Prop55
280
     0
102
RTVSPost2010PropOp55
 70
     1
102
RTVSPost2010Prop56
140
1.0
102
RTVSPost2010PropOp56
 70
     1
102
RTVSPost2010Prop57
140
1.0
102
RTVSPost2010PropOp57
 70
     1
  0
XRECORD
  5
F4
102
{ACAD_REACTORS
330
F3
102
}
330
F3
100
AcDbXrecord
280
     1
102
RTVSPropertyOp0
 70
     1
102
RTVSPropertyOp1
 70
     1
102
RTVSPropertyOp2
 70
     1
102
RTVSPropertyOp3
 70
     1
102
RTVSPropertyOp4
 70
     1
102
RTVSPropertyOp5
 70
     1
102
RTVSPropertyOp6
 70
     1
102
RTVSPropertyOp7
 70
     1
102
RTVSPropertyOp8
 70
     1
102
RTVSPropertyOp9
 70
     1
102
RTVSPropertyOp10
 70
     1
102
RTVSPropertyOp11
 70
     1
102
RTVSPropertyOp12
 70
     1
102
RTVSPropertyOp13
 70
     1
102
RTVSPropertyOp14
 70
     1
102
RTVSPropertyOp15
 70
     1
102
RTVSPropertyOp16
 70
     1
102
RTVSPropertyOp17
 70
     1
102
RTVSPropertyOp18
 70
     1
102
RTVSPropertyOp19
 70
     1
102
RTVSPropertyOp20
 70
     1
102
RTVSPropertyOp21
 70
     1
102
RTVSPropertyOp22
 70
     1
102
RTVSPropertyOp23
 70
     1
102
RTVSPropertyOp24
 70
     1
102
RTVSPropertyOp25
 70
     1
102
RTVSPropertyOp26
 70
     1
102
RTVSPropertyOp27
 70
     1
102
RTVSPropertyOp28
 70
     1
102
RTVSPropertyOp29
 70
     1
102
RTVSPropertyOp30
 70
     1
102
RTVSPropertyOp31
 70
     1
102
RTVSPropertyOp32
 70
     1
102
RTVSPropertyOp33
 70
     1
102
RTVSPropertyOp34
 70
     1
102
RTVSPropertyOp35
 70
     1
102
RTVSPropertyOp36
 70
     1
102
RTVSPropertyOp37
 70
     1
102
RTVSPropertyOp38
 70
     1
102
RTVSPropertyOp39
 70
     1
102
RTVSPropertyOp40
 70
     1
102
RTVSPropertyOp41
 70
     1
102
RTVSPropertyOp42
 70
     1
102
RTVSPropertyOp43
 70
     1
102
RTVSPropertyOp44
 70
     1
102
RTVSPropertyOp45
 70
     1
102
RTVSPropertyOp46
 70
     1
102
RTVSPropertyOp47
 70
     1
102
RTVSPropertyOp48
 70
     1
102
RTVSPropertyOp49
 70
     1
102
RTVSPropertyOp50
 70
     1
102
RTVSPropertyOp51
 70
     0
102
RTVSPropertyOp52
 70
     0
102
RTVSPropertyOp53
 70
     1
102
RTVSPropertyOp54
 70
     1
102
RTVSPropertyOp55
 70
     1
102
RTVSPropertyOp56
 70
     1
102
RTVSPropertyOp57
 70
     1
102
RTVSPost2010Prop28
280
     0
102
RTVSPost2010PropOp28
 70
     1
102
RTVSPost2010Prop29
280
     1
102
RTVSPost2010PropOp29
 70
     1
102
RTVSPost2010Prop30
280
     1
102
RTVSPost2010PropOp30
 70
     1
102
RTVSPost2010Prop31
280
     0
102
RTVSPost2010PropOp31
 70
     1
102
RTVSPost2010Prop32
280
     0
102
RTVSPost2010PropOp32
 70
     1
102
RTVSPost2010Prop33
280
     0
102
RTVSPost2010PropOp33
 70
     1
102
RTVSPost2010Prop34
280
     0
102
RTVSPost2010PropOp34
 70
     1
102
RTVSPost2010Prop35
280
     0
102
RTVSPost2010PropOp35
 70
     1
102
RTVSPost2010Prop36
280
     0
102
RTVSPost2010PropOp36
 70
     1
102
RTVSPost2010Prop37
 90
       50
102
RTVSPost2010PropOp37
 70
     1
102
RTVSPost2010Prop38
140
0.0
102
RTVSPost2010PropOp38
 70
     1
102
RTVSPost2010Prop39
140
1.0
102
RTVSPost2010PropOp39
 70
     1
102
RTVSPost2010Prop40
 90
        0
102
RTVSPost2010PropOp40
 70
     1
102
RTVSPost2010Prop41ColorIndex
 90
       18
102
RTVSPost2010Prop41ColorRGB
 90
        0
102
RTVSPost2010PropOp41
 70
     1
102
RTVSPost2010Prop42
 90
       50
102
RTVSPost2010PropOp42
 70
     1
102
RTVSPost2010Prop43
 90
        3
102
RTVSPost2010PropOp43
 70
     1
102
RTVSPost2010Prop44ColorIndex
 90
        5
102
RTVSPost2010Prop44ColorRGB
 90
      255
102
RTVSPost2010PropOp44
 70
     1
102
RTVSPost2010Prop45
280
     0
102
RTVSPost2010PropOp45
 70
     1
102
RTVSPost2010Prop46
 90
       50
102
RTVSPost2010PropOp46
 70
     1
102
RTVSPost2010Prop47
 90
       50
102
RTVSPost2010PropOp47
 70
     1
102
RTVSPost2010Prop48
 90
       50
102
RTVSPost2010PropOp48
 70
     1
102
RTVSPost2010Prop49
280
     0
102
RTVSPost2010PropOp49
 70
     1
102
RTVSPost2010Prop50
 90
       50
102
RTVSPost2010PropOp50
 70
     1
102
RTVSPost2010Prop51ColorIndex
 90
      256
102
RTVSPost2010Prop51ColorRGB
 90
-16777216
102
RTVSPost2010PropOp51
 70
     0
102
RTVSPost2010Prop52
140
1.0
102
RTVSPost2010PropOp52
 70
     0
102
RTVSPost2010Prop53
 90
        2
102
RTVSPost2010PropOp53
 70
     1
102
RTVSPost2010Prop54
  1
strokes_ogs.tif
102
RTVSPost2010PropOp54
 70
     1
102
RTVSPost2010Prop55
280
     0
102
RTVSPost2010PropOp55
 70
     1
102
RTVSPost2010Prop56
140
1.0
102
RTVSPost2010PropOp56
 70
     1
102
RTVSPost2010Prop57
140
1.0
102
RTVSPost2010PropOp57
 70
     1
  0
XRECORD
  5
F6
102
{ACAD_REACTORS
330
F5
102
}
330
F5
100
AcDbXrecord
280
     1
102
RTVSPropertyOp0
 70
     1
102
RTVSPropertyOp1
 70
     1
102
RTVSPropertyOp2
 70
     1
102
RTVSPropertyOp3
 70
     1
102
RTVSPropertyOp4
 70
     1
102
RTVSPropertyOp5
 70
     1
102
RTVSPropertyOp6
 70
     1
102
RTVSPropertyOp7
 70
     1
102
RTVSPropertyOp8
 70
     1
102
RTVSPropertyOp9
 70
     1
102
RTVSPropertyOp10
 70
     1
102
RTVSPropertyOp11
 70
     1
102
RTVSPropertyOp12
 70
     1
102
RTVSPropertyOp13
 70
     1
102
RTVSPropertyOp14
 70
     1
102
RTVSPropertyOp15
 70
     1
102
RTVSPropertyOp16
 70
     1
102
RTVSPropertyOp17
 70
     1
102
RTVSPropertyOp18
 70
     1
102
RTVSPropertyOp19
 70
     1
102
RTVSPropertyOp20
 70
     1
102
RTVSPropertyOp21
 70
     1
102
RTVSPropertyOp22
 70
     1
102
RTVSPropertyOp23
 70
     1
102
RTVSPropertyOp24
 70
     1
102
RTVSPropertyOp25
 70
     1
102
RTVSPropertyOp26
 70
     1
102
RTVSPropertyOp27
 70
     1
102
RTVSPropertyOp28
 70
     1
102
RTVSPropertyOp29
 70
     1
102
RTVSPropertyOp30
 70
     1
102
RTVSPropertyOp31
 70
     1
102
RTVSPropertyOp32
 70
     1
102
RTVSPropertyOp33
 70
     1
102
RTVSPropertyOp34
 70
     1
102
RTVSPropertyOp35
 70
     1
102
RTVSPropertyOp36
 70
     1
102
RTVSPropertyOp37
 70
     1
102
RTVSPropertyOp38
 70
     1
102
RTVSPropertyOp39
 70
     1
102
RTVSPropertyOp40
 70
     1
102
RTVSPropertyOp41
 70
     1
102
RTVSPropertyOp42
 70
     1
102
RTVSPropertyOp43
 70
     1
102
RTVSPropertyOp44
 70
     1
102
RTVSPropertyOp45
 70
     1
102
RTVSPropertyOp46
 70
     1
102
RTVSPropertyOp47
 70
     1
102
RTVSPropertyOp48
 70
     1
102
RTVSPropertyOp49
 70
     1
102
RTVSPropertyOp50
 70
     1
102
RTVSPropertyOp51
 70
     0
102
RTVSPropertyOp52
 70
     0
102
RTVSPropertyOp53
 70
     1
102
RTVSPropertyOp54
 70
     1
102
RTVSPropertyOp55
 70
     1
102
RTVSPropertyOp56
 70
     1
102
RTVSPropertyOp57
 70
     1
102
RTVSPost2010Prop28
280
     0
102
RTVSPost2010PropOp28
 70
     1
102
RTVSPost2010Prop29
280
     1
102
RTVSPost2010PropOp29
 70
     1
102
RTVSPost2010Prop30
280
     1
102
RTVSPost2010PropOp30
 70
     1
102
RTVSPost2010Prop31
280
     0
102
RTVSPost2010PropOp31
 70
     1
102
RTVSPost2010Prop32
280
     0
102
RTVSPost2010PropOp32
 70
     1
102
RTVSPost2010Prop33
280
     0
102
RTVSPost2010PropOp33
 70
     1
102
RTVSPost2010Prop34
280
     0
102
RTVSPost2010PropOp34
 70
     1
102
RTVSPost2010Prop35
280
     0
102
RTVSPost2010PropOp35
 70
     1
102
RTVSPost2010Prop36
280
     0
102
RTVSPost2010PropOp36
 70
     1
102
RTVSPost2010Prop37
 90
       50
102
RTVSPost2010PropOp37
 70
     1
102
RTVSPost2010Prop38
140
0.0
102
RTVSPost2010PropOp38
 70
     1
102
RTVSPost2010Prop39
140
1.0
102
RTVSPost2010PropOp39
 70
     1
102
RTVSPost2010Prop40
 90
        0
102
RTVSPost2010PropOp40
 70
     1
102
RTVSPost2010Prop41ColorIndex
 90
       18
102
RTVSPost2010Prop41ColorRGB
 90
        0
102
RTVSPost2010PropOp41
 70
     1
102
RTVSPost2010Prop42
 90
       50
102
RTVSPost2010PropOp42
 70
     1
102
RTVSPost2010Prop43
 90
        3
102
RTVSPost2010PropOp43
 70
     1
102
RTVSPost2010Prop44ColorIndex
 90
        5
102
RTVSPost2010Prop44ColorRGB
 90
      255
102
RTVSPost2010PropOp44
 70
     1
102
RTVSPost2010Prop45
280
     0
102
RTVSPost2010PropOp45
 70
     1
102
RTVSPost2010Prop46
 90
       50
102
RTVSPost2010PropOp46
 70
     1
102
RTVSPost2010Prop47
 90
       50
102
RTVSPost2010PropOp47
 70
     1
102
RTVSPost2010Prop48
 90
       50
102
RTVSPost2010PropOp48
 70
     1
102
RTVSPost2010Prop49
280
     0
102
RTVSPost2010PropOp49
 70
     1
102
RTVSPost2010Prop50
 90
       50
102
RTVSPost2010PropOp50
 70
     1
102
RTVSPost2010Prop51ColorIndex
 90
      256
102
RTVSPost2010Prop51ColorRGB
 90
-16777216
102
RTVSPost2010PropOp51
 70
     0
102
RTVSPost2010Prop52
140
1.0
102
RTVSPost2010PropOp52
 70
     0
102
RTVSPost2010Prop53
 90
        2
102
RTVSPost2010PropOp53
 70
     1
102
RTVSPost2010Prop54
  1
strokes_ogs.tif
102
RTVSPost2010PropOp54
 70
     1
102
RTVSPost2010Prop55
280
     0
102
RTVSPost2010PropOp55
 70
     1
102
RTVSPost2010Prop56
140
1.0
102
RTVSPost2010PropOp56
 70
     1
102
RTVSPost2010Prop57
140
1.0
102
RTVSPost2010PropOp57
 70
     1
  0
XRECORD
  5
E6
102
{ACAD_REACTORS
330
E5
102
}
330
E5
100
AcDbXrecord
280
     1
102
RTVSPropertyOp0
 70
     1
102
RTVSPropertyOp1
 70
     1
102
RTVSPropertyOp2
 70
     1
102
RTVSPropertyOp3
 70
     1
102
RTVSPropertyOp4
 70
     1
102
RTVSPropertyOp5
 70
     1
102
RTVSPropertyOp6
 70
     1
102
RTVSPropertyOp7
 70
     1
102
RTVSPropertyOp8
 70
     1
102
RTVSPropertyOp9
 70
     1
102
RTVSPropertyOp10
 70
     1
102
RTVSPropertyOp11
 70
     1
102
RTVSPropertyOp12
 70
     1
102
RTVSPropertyOp13
 70
     1
102
RTVSPropertyOp14
 70
     1
102
RTVSPropertyOp15
 70
     1
102
RTVSPropertyOp16
 70
     1
102
RTVSPropertyOp17
 70
     1
102
RTVSPropertyOp18
 70
     1
102
RTVSPropertyOp19
 70
     1
102
RTVSPropertyOp20
 70
     1
102
RTVSPropertyOp21
 70
     1
102
RTVSPropertyOp22
 70
     1
102
RTVSPropertyOp23
 70
     1
102
RTVSPropertyOp24
 70
     1
102
RTVSPropertyOp25
 70
     1
102
RTVSPropertyOp26
 70
     1
102
RTVSPropertyOp27
 70
     1
102
RTVSPropertyOp28
 70
     1
102
RTVSPropertyOp29
 70
     1
102
RTVSPropertyOp30
 70
     1
102
RTVSPropertyOp31
 70
     1
102
RTVSPropertyOp32
 70
     1
102
RTVSPropertyOp33
 70
     1
102
RTVSPropertyOp34
 70
     1
102
RTVSPropertyOp35
 70
     1
102
RTVSPropertyOp36
 70
     1
102
RTVSPropertyOp37
 70
     1
102
RTVSPropertyOp38
 70
     1
102
RTVSPropertyOp39
 70
     1
102
RTVSPropertyOp40
 70
     1
102
RTVSPropertyOp41
 70
     1
102
RTVSPropertyOp42
 70
     1
102
RTVSPropertyOp43
 70
     1
102
RTVSPropertyOp44
 70
     1
102
RTVSPropertyOp45
 70
     1
102
RTVSPropertyOp46
 70
     1
102
RTVSPropertyOp47
 70
     1
102
RTVSPropertyOp48
 70
     1
102
RTVSPropertyOp49
 70
     1
102
RTVSPropertyOp50
 70
     1
102
RTVSPropertyOp51
 70
     0
102
RTVSPropertyOp52
 70
     0
102
RTVSPropertyOp53
 70
     1
102
RTVSPropertyOp54
 70
     1
102
RTVSPropertyOp55
 70
     1
102
RTVSPropertyOp56
 70
     1
102
RTVSPropertyOp57
 70
     1
102
RTVSPost2010Prop28
280
     0
102
RTVSPost2010PropOp28
 70
     1
102
RTVSPost2010Prop29
280
     1
102
RTVSPost2010PropOp29
 70
     1
102
RTVSPost2010Prop30
280
     1
102
RTVSPost2010PropOp30
 70
     1
102
RTVSPost2010Prop31
280
     0
102
RTVSPost2010PropOp31
 70
     1
102
RTVSPost2010Prop32
280
     0
102
RTVSPost2010PropOp32
 70
     1
102
RTVSPost2010Prop33
280
     0
102
RTVSPost2010PropOp33
 70
     1
102
RTVSPost2010Prop34
280
     0
102
RTVSPost2010PropOp34
 70
     1
102
RTVSPost2010Prop35
280
     0
102
RTVSPost2010PropOp35
 70
     1
102
RTVSPost2010Prop36
280
     0
102
RTVSPost2010PropOp36
 70
     1
102
RTVSPost2010Prop37
 90
       50
102
RTVSPost2010PropOp37
 70
     1
102
RTVSPost2010Prop38
140
0.0
102
RTVSPost2010PropOp38
 70
     1
102
RTVSPost2010Prop39
140
1.0
102
RTVSPost2010PropOp39
 70
     1
102
RTVSPost2010Prop40
 90
        0
102
RTVSPost2010PropOp40
 70
     1
102
RTVSPost2010Prop41ColorIndex
 90
       18
102
RTVSPost2010Prop41ColorRGB
 90
        0
102
RTVSPost2010PropOp41
 70
     1
102
RTVSPost2010Prop42
 90
       50
102
RTVSPost2010PropOp42
 70
     1
102
RTVSPost2010Prop43
 90
        3
102
RTVSPost2010PropOp43
 70
     1
102
RTVSPost2010Prop44ColorIndex
 90
        5
102
RTVSPost2010Prop44ColorRGB
 90
      255
102
RTVSPost2010PropOp44
 70
     1
102
RTVSPost2010Prop45
280
     0
102
RTVSPost2010PropOp45
 70
     1
102
RTVSPost2010Prop46
 90
       50
102
RTVSPost2010PropOp46
 70
     1
102
RTVSPost2010Prop47
 90
       50
102
RTVSPost2010PropOp47
 70
     1
102
RTVSPost2010Prop48
 90
       50
102
RTVSPost2010PropOp48
 70
     1
102
RTVSPost2010Prop49
280
     0
102
RTVSPost2010PropOp49
 70
     1
102
RTVSPost2010Prop50
 90
       50
102
RTVSPost2010PropOp50
 70
     1
102
RTVSPost2010Prop51ColorIndex
 90
      256
102
RTVSPost2010Prop51ColorRGB
 90
-16777216
102
RTVSPost2010PropOp51
 70
     0
102
RTVSPost2010Prop52
140
1.0
102
RTVSPost2010PropOp52
 70
     0
102
RTVSPost2010Prop53
 90
        2
102
RTVSPost2010PropOp53
 70
     1
102
RTVSPost2010Prop54
  1
strokes_ogs.tif
102
RTVSPost2010PropOp54
 70
     1
102
RTVSPost2010Prop55
280
     0
102
RTVSPost2010PropOp55
 70
     1
102
RTVSPost2010Prop56
140
1.0
102
RTVSPost2010PropOp56
 70
     1
102
RTVSPost2010Prop57
140
1.0
102
RTVSPost2010PropOp57
 70
     1
  0
XRECORD
  5
D8
102
{ACAD_REACTORS
330
D7
102
}
330
D7
100
AcDbXrecord
280
     1
102
RTVSPropertyOp0
 70
     1
102
RTVSPropertyOp1
 70
     1
102
RTVSPropertyOp2
 70
     1
102
RTVSPropertyOp3
 70
     1
102
RTVSPropertyOp4
 70
     1
102
RTVSPropertyOp5
 70
     1
102
RTVSPropertyOp6
 70
     1
102
RTVSPropertyOp7
 70
     1
102
RTVSPropertyOp8
 70
     1
102
RTVSPropertyOp9
 70
     1
102
RTVSPropertyOp10
 70
     1
102
RTVSPropertyOp11
 70
     1
102
RTVSPropertyOp12
 70
     1
102
RTVSPropertyOp13
 70
     1
102
RTVSPropertyOp14
 70
     1
102
RTVSPropertyOp15
 70
     1
102
RTVSPropertyOp16
 70
     1
102
RTVSPropertyOp17
 70
     1
102
RTVSPropertyOp18
 70
     1
102
RTVSPropertyOp19
 70
     1
102
RTVSPropertyOp20
 70
     1
102
RTVSPropertyOp21
 70
     1
102
RTVSPropertyOp22
 70
     1
102
RTVSPropertyOp23
 70
     1
102
RTVSPropertyOp24
 70
     1
102
RTVSPropertyOp25
 70
     1
102
RTVSPropertyOp26
 70
     1
102
RTVSPropertyOp27
 70
     1
102
RTVSPropertyOp28
 70
     1
102
RTVSPropertyOp29
 70
     1
102
RTVSPropertyOp30
 70
     1
102
RTVSPropertyOp31
 70
     1
102
RTVSPropertyOp32
 70
     1
102
RTVSPropertyOp33
 70
     1
102
RTVSPropertyOp34
 70
     1
102
RTVSPropertyOp35
 70
     1
102
RTVSPropertyOp36
 70
     1
102
RTVSPropertyOp37
 70
     1
102
RTVSPropertyOp38
 70
     1
102
RTVSPropertyOp39
 70
     1
102
RTVSPropertyOp40
 70
     1
102
RTVSPropertyOp41
 70
     1
102
RTVSPropertyOp42
 70
     1
102
RTVSPropertyOp43
 70
     1
102
RTVSPropertyOp44
 70
     1
102
RTVSPropertyOp45
 70
     1
102
RTVSPropertyOp46
 70
     1
102
RTVSPropertyOp47
 70
     1
102
RTVSPropertyOp48
 70
     1
102
RTVSPropertyOp49
 70
     1
102
RTVSPropertyOp50
 70
     1
102
RTVSPropertyOp51
 70
     0
102
RTVSPropertyOp52
 70
     0
102
RTVSPropertyOp53
 70
     1
102
RTVSPropertyOp54
 70
     1
102
RTVSPropertyOp55
 70
     1
102
RTVSPropertyOp56
 70
     1
102
RTVSPropertyOp57
 70
     1
102
RTVSPost2010Prop28
280
     0
102
RTVSPost2010PropOp28
 70
     1
102
RTVSPost2010Prop29
280
     1
102
RTVSPost2010PropOp29
 70
     1
102
RTVSPost2010Prop30
280
     1
102
RTVSPost2010PropOp30
 70
     1
102
RTVSPost2010Prop31
280
     0
102
RTVSPost2010PropOp31
 70
     1
102
RTVSPost2010Prop32
280
     0
102
RTVSPost2010PropOp32
 70
     1
102
RTVSPost2010Prop33
280
     0
102
RTVSPost2010PropOp33
 70
     1
102
RTVSPost2010Prop34
280
     0
102
RTVSPost2010PropOp34
 70
     1
102
RTVSPost2010Prop35
280
     0
102
RTVSPost2010PropOp35
 70
     1
102
RTVSPost2010Prop36
280
     0
102
RTVSPost2010PropOp36
 70
     1
102
RTVSPost2010Prop37
 90
       50
102
RTVSPost2010PropOp37
 70
     1
102
RTVSPost2010Prop38
140
0.0
102
RTVSPost2010PropOp38
 70
     1
102
RTVSPost2010Prop39
140
1.0
102
RTVSPost2010PropOp39
 70
     1
102
RTVSPost2010Prop40
 90
        0
102
RTVSPost2010PropOp40
 70
     1
102
RTVSPost2010Prop41ColorIndex
 90
       18
102
RTVSPost2010Prop41ColorRGB
 90
        0
102
RTVSPost2010PropOp41
 70
     1
102
RTVSPost2010Prop42
 90
       50
102
RTVSPost2010PropOp42
 70
     1
102
RTVSPost2010Prop43
 90
        3
102
RTVSPost2010PropOp43
 70
     1
102
RTVSPost2010Prop44ColorIndex
 90
        5
102
RTVSPost2010Prop44ColorRGB
 90
      255
102
RTVSPost2010PropOp44
 70
     1
102
RTVSPost2010Prop45
280
     0
102
RTVSPost2010PropOp45
 70
     1
102
RTVSPost2010Prop46
 90
       50
102
RTVSPost2010PropOp46
 70
     1
102
RTVSPost2010Prop47
 90
       50
102
RTVSPost2010PropOp47
 70
     1
102
RTVSPost2010Prop48
 90
       50
102
RTVSPost2010PropOp48
 70
     1
102
RTVSPost2010Prop49
280
     0
102
RTVSPost2010PropOp49
 70
     1
102
RTVSPost2010Prop50
 90
       50
102
RTVSPost2010PropOp50
 70
     1
102
RTVSPost2010Prop51ColorIndex
 90
      256
102
RTVSPost2010Prop51ColorRGB
 90
-16777216
102
RTVSPost2010PropOp51
 70
     0
102
RTVSPost2010Prop52
140
1.0
102
RTVSPost2010PropOp52
 70
     0
102
RTVSPost2010Prop53
 90
        2
102
RTVSPost2010PropOp53
 70
     1
102
RTVSPost2010Prop54
  1
strokes_ogs.tif
102
RTVSPost2010PropOp54
 70
     1
102
RTVSPost2010Prop55
280
     0
102
RTVSPost2010PropOp55
 70
     1
102
RTVSPost2010Prop56
140
1.0
102
RTVSPost2010PropOp56
 70
     1
102
RTVSPost2010Prop57
140
1.0
102
RTVSPost2010PropOp57
 70
     1
  0
XRECORD
  5
F8
102
{ACAD_REACTORS
330
F7
102
}
330
F7
100
AcDbXrecord
280
     1
102
RTVSPropertyOp0
 70
     1
102
RTVSPropertyOp1
 70
     1
102
RTVSPropertyOp2
 70
     1
102
RTVSPropertyOp3
 70
     1
102
RTVSPropertyOp4
 70
     1
102
RTVSPropertyOp5
 70
     1
102
RTVSPropertyOp6
 70
     1
102
RTVSPropertyOp7
 70
     1
102
RTVSPropertyOp8
 70
     1
102
RTVSPropertyOp9
 70
     1
102
RTVSPropertyOp10
 70
     1
102
RTVSPropertyOp11
 70
     1
102
RTVSPropertyOp12
 70
     1
102
RTVSPropertyOp13
 70
     1
102
RTVSPropertyOp14
 70
     1
102
RTVSPropertyOp15
 70
     1
102
RTVSPropertyOp16
 70
     1
102
RTVSPropertyOp17
 70
     1
102
RTVSPropertyOp18
 70
     1
102
RTVSPropertyOp19
 70
     1
102
RTVSPropertyOp20
 70
     1
102
RTVSPropertyOp21
 70
     1
102
RTVSPropertyOp22
 70
     1
102
RTVSPropertyOp23
 70
     1
102
RTVSPropertyOp24
 70
     1
102
RTVSPropertyOp25
 70
     1
102
RTVSPropertyOp26
 70
     1
102
RTVSPropertyOp27
 70
     1
102
RTVSPropertyOp28
 70
     1
102
RTVSPropertyOp29
 70
     1
102
RTVSPropertyOp30
 70
     1
102
RTVSPropertyOp31
 70
     1
102
RTVSPropertyOp32
 70
     1
102
RTVSPropertyOp33
 70
     1
102
RTVSPropertyOp34
 70
     1
102
RTVSPropertyOp35
 70
     1
102
RTVSPropertyOp36
 70
     1
102
RTVSPropertyOp37
 70
     1
102
RTVSPropertyOp38
 70
     1
102
RTVSPropertyOp39
 70
     1
102
RTVSPropertyOp40
 70
     1
102
RTVSPropertyOp41
 70
     1
102
RTVSPropertyOp42
 70
     1
102
RTVSPropertyOp43
 70
     1
102
RTVSPropertyOp44
 70
     1
102
RTVSPropertyOp45
 70
     1
102
RTVSPropertyOp46
 70
     1
102
RTVSPropertyOp47
 70
     1
102
RTVSPropertyOp48
 70
     1
102
RTVSPropertyOp49
 70
     1
102
RTVSPropertyOp50
 70
     1
102
RTVSPropertyOp51
 70
     0
102
RTVSPropertyOp52
 70
     0
102
RTVSPropertyOp53
 70
     1
102
RTVSPropertyOp54
 70
     1
102
RTVSPropertyOp55
 70
     1
102
RTVSPropertyOp56
 70
     1
102
RTVSPropertyOp57
 70
     1
102
RTVSPost2010Prop28
280
     0
102
RTVSPost2010PropOp28
 70
     1
102
RTVSPost2010Prop29
280
     1
102
RTVSPost2010PropOp29
 70
     1
102
RTVSPost2010Prop30
280
     1
102
RTVSPost2010PropOp30
 70
     1
102
RTVSPost2010Prop31
280
     0
102
RTVSPost2010PropOp31
 70
     1
102
RTVSPost2010Prop32
280
     0
102
RTVSPost2010PropOp32
 70
     1
102
RTVSPost2010Prop33
280
     0
102
RTVSPost2010PropOp33
 70
     1
102
RTVSPost2010Prop34
280
     0
102
RTVSPost2010PropOp34
 70
     1
102
RTVSPost2010Prop35
280
     0
102
RTVSPost2010PropOp35
 70
     1
102
RTVSPost2010Prop36
280
     0
102
RTVSPost2010PropOp36
 70
     1
102
RTVSPost2010Prop37
 90
       50
102
RTVSPost2010PropOp37
 70
     1
102
RTVSPost2010Prop38
140
0.0
102
RTVSPost2010PropOp38
 70
     1
102
RTVSPost2010Prop39
140
1.0
102
RTVSPost2010PropOp39
 70
     1
102
RTVSPost2010Prop40
 90
        0
102
RTVSPost2010PropOp40
 70
     1
102
RTVSPost2010Prop41ColorIndex
 90
       18
102
RTVSPost2010Prop41ColorRGB
 90
        0
102
RTVSPost2010PropOp41
 70
     1
102
RTVSPost2010Prop42
 90
       50
102
RTVSPost2010PropOp42
 70
     1
102
RTVSPost2010Prop43
 90
        3
102
RTVSPost2010PropOp43
 70
     1
102
RTVSPost2010Prop44ColorIndex
 90
        5
102
RTVSPost2010Prop44ColorRGB
 90
      255
102
RTVSPost2010PropOp44
 70
     1
102
RTVSPost2010Prop45
280
     0
102
RTVSPost2010PropOp45
 70
     1
102
RTVSPost2010Prop46
 90
       50
102
RTVSPost2010PropOp46
 70
     1
102
RTVSPost2010Prop47
 90
       50
102
RTVSPost2010PropOp47
 70
     1
102
RTVSPost2010Prop48
 90
       50
102
RTVSPost2010PropOp48
 70
     1
102
RTVSPost2010Prop49
280
     0
102
RTVSPost2010PropOp49
 70
     1
102
RTVSPost2010Prop50
 90
       50
102
RTVSPost2010PropOp50
 70
     1
102
RTVSPost2010Prop51ColorIndex
 90
      256
102
RTVSPost2010Prop51ColorRGB
 90
-16777216
102
RTVSPost2010PropOp51
 70
     0
102
RTVSPost2010Prop52
140
1.0
102
RTVSPost2010PropOp52
 70
     0
102
RTVSPost2010Prop53
 90
        2
102
RTVSPost2010PropOp53
 70
     1
102
RTVSPost2010Prop54
  1
strokes_ogs.tif
102
RTVSPost2010PropOp54
 70
     1
102
RTVSPost2010Prop55
280
     0
102
RTVSPost2010PropOp55
 70
     1
102
RTVSPost2010Prop56
140
1.0
102
RTVSPost2010PropOp56
 70
     1
102
RTVSPost2010Prop57
140
1.0
102
RTVSPost2010PropOp57
 70
     1
  0
ENDSEC
  0
EOF
