  0
SECTION
  2
HEADER
  9
$ACADVER
  1
AC1021
  9
$ACADMAINTVER
 70
    25
  9
$DWGCODEPAGE
  3
ANSI_1252
  9
$INSBASE
 10
0.0
 20
0.0
 30
0.0
  9
$EXTMIN
 10
1.000000000000000E+20
 20
1.000000000000000E+20
 30
1.000000000000000E+20
  9
$EXTMAX
 10
-1.000000000000000E+20
 20
-1.000000000000000E+20
 30
-1.000000000000000E+20
  9
$LIMMIN
 10
0.0
 20
0.0
  9
$LIMMAX
 10
12.0
 20
9.0
  9
$ORTHOMODE
 70
     0
  9
$REGENMODE
 70
     1
  9
$FILLMODE
 70
     1
  9
$QTEXTMODE
 70
     0
  9
$MIRRTEXT
 70
     1
  9
$LTSCALE
 40
1.0
  9
$ATTMODE
 70
     1
  9
$TEXTSIZE
 40
0.2
  9
$TRACEWID
 40
0.05
  9
$TEXTSTYLE
  7
Standard
  9
$CLAYER
  8
0
  9
$CELTYPE
  6
ByLayer
  9
$CECOLOR
 62
   256
  9
$CELTSCALE
 40
1.0
  9
$DISPSILH
 70
     0
  9
$DIMSCALE
 40
1.0
  9
$DIMASZ
 40
0.18
  9
$DIMEXO
 40
0.0625
  9
$DIMDLI
 40
0.38
  9
$DIMRND
 40
0.0
  9
$DIMDLE
 40
0.0
  9
$DIMEXE
 40
0.18
  9
$DIMTP
 40
0.0
  9
$DIMTM
 40
0.0
  9
$DIMTXT
 40
0.18
  9
$DIMCEN
 40
0.09
  9
$DIMTSZ
 40
0.0
  9
$DIMTOL
 70
     0
  9
$DIMLIM
 70
     0
  9
$DIMTIH
 70
     1
  9
$DIMTOH
 70
     1
  9
$DIMSE1
 70
     0
  9
$DIMSE2
 70
     0
  9
$DIMTAD
 70
     0
  9
$DIMZIN
 70
     0
  9
$DIMBLK
  1

  9
$DIMASO
 70
     1
  9
$DIMSHO
 70
     1
  9
$DIMPOST
  1

  9
$DIMAPOST
  1

  9
$DIMALT
 70
     0
  9
$DIMALTD
 70
     2
  9
$DIMALTF
 40
25.4
  9
$DIMLFAC
 40
1.0
  9
$DIMTOFL
 70
     0
  9
$DIMTVP
 40
0.0
  9
$DIMTIX
 70
     0
  9
$DIMSOXD
 70
     0
  9
$DIMSAH
 70
     0
  9
$DIMBLK1
  1

  9
$DIMBLK2
  1

  9
$DIMSTYLE
  2
STANDARD_ACAD
  9
$DIMCLRD
 70
     0
  9
$DIMCLRE
 70
     0
  9
$DIMCLRT
 70
     0
  9
$DIMTFAC
 40
1.0
  9
$DIMGAP
 40
0.09
  9
$DIMJUST
 70
     0
  9
$DIMSD1
 70
     0
  9
$DIMSD2
 70
     0
  9
$DIMTOLJ
 70
     1
  9
$DIMTZIN
 70
     0
  9
$DIMALTZ
 70
     0
  9
$DIMALTTZ
 70
     0
  9
$DIMUPT
 70
     0
  9
$DIMDEC
 70
     4
  9
$DIMTDEC
 70
     4
  9
$DIMALTU
 70
     2
  9
$DIMALTTD
 70
     2
  9
$DIMTXSTY
  7
Standard
  9
$DIMAUNIT
 70
     0
  9
$DIMADEC
 70
     0
  9
$DIMALTRND
 40
0.0
  9
$DIMAZIN
 70
     0
  9
$DIMDSEP
 70
    46
  9
$DIMATFIT
 70
     3
  9
$DIMFRAC
 70
     0
  9
$DIMLDRBLK
  1

  9
$DIMLUNIT
 70
     2
  9
$DIMLWD
 70
    -2
  9
$DIMLWE
 70
    -2
  9
$DIMTMOVE
 70
     2
  9
$DIMFXL
 40
1.0
  9
$DIMFXLON
 70
     0
  9
$DIMJOGANG
 40
0.7853981633974483
  9
$DIMTFILL
 70
     0
  9
$DIMTFILLCLR
 70
     0
  9
$DIMARCSYM
 70
     0
  9
$DIMLTYPE
  6

  9
$DIMLTEX1
  6

  9
$DIMLTEX2
  6

  9
$LUNITS
 70
     2
  9
$LUPREC
 70
     3
  9
$SKETCHINC
 40
0.1
  9
$FILLETRAD
 40
0.5
  9
$AUNITS
 70
     0
  9
$AUPREC
 70
     0
  9
$MENU
  1
.
  9
$ELEVATION
 40
0.0
  9
$PELEVATION
 40
0.0
  9
$THICKNESS
 40
0.0
  9
$LIMCHECK
 70
     0
  9
$CHAMFERA
 40
0.0
  9
$CHAMFERB
 40
0.0
  9
$CHAMFERC
 40
0.0
  9
$CHAMFERD
 40
0.0
  9
$SKPOLY
 70
     0
  9
$TDCREATE
 40
2459972.486312268
  9
$TDUCREATE
 40
2459972.694645602
  9
$TDUPDATE
 40
2459972.486369526
  9
$TDUUPDATE
 40
2459972.694702859
  9
$TDINDWG
 40
0.0000000116
  9
$TDUSRTIMER
 40
0.0000000116
  9
$USRTIMER
 70
     1
  9
$ANGBASE
 50
0.0
  9
$ANGDIR
 70
     0
  9
$PDMODE
 70
     0
  9
$PDSIZE
 40
0.0
  9
$PLINEWID
 40
0.0
  9
$SPLFRAME
 70
     0
  9
$SPLINETYPE
 70
     6
  9
$SPLINESEGS
 70
     8
  9
$HANDSEED
  5
110
  9
$SURFTAB1
 70
     6
  9
$SURFTAB2
 70
     6
  9
$SURFTYPE
 70
     6
  9
$SURFU
 70
     6
  9
$SURFV
 70
     6
  9
$UCSBASE
  2

  9
$UCSNAME
  2

  9
$UCSORG
 10
0.0
 20
0.0
 30
0.0
  9
$UCSXDIR
 10
1.0
 20
0.0
 30
0.0
  9
$UCSYDIR
 10
0.0
 20
1.0
 30
0.0
  9
$UCSORTHOREF
  2

  9
$UCSORTHOVIEW
 70
     0
  9
$UCSORGTOP
 10
0.0
 20
0.0
 30
0.0
  9
$UCSORGBOTTOM
 10
0.0
 20
0.0
 30
0.0
  9
$UCSORGLEFT
 10
0.0
 20
0.0
 30
0.0
  9
$UCSORGRIGHT
 10
0.0
 20
0.0
 30
0.0
  9
$UCSORGFRONT
 10
0.0
 20
0.0
 30
0.0
  9
$UCSORGBACK
 10
0.0
 20
0.0
 30
0.0
  9
$PUCSBASE
  2

  9
$PUCSNAME
  2

  9
$PUCSORG
 10
0.0
 20
0.0
 30
0.0
  9
$PUCSXDIR
 10
1.0
 20
0.0
 30
0.0
  9
$PUCSYDIR
 10
0.0
 20
1.0
 30
0.0
  9
$PUCSORTHOREF
  2

  9
$PUCSORTHOVIEW
 70
     0
  9
$PUCSORGTOP
 10
0.0
 20
0.0
 30
0.0
  9
$PUCSORGBOTTOM
 10
0.0
 20
0.0
 30
0.0
  9
$PUCSORGLEFT
 10
0.0
 20
0.0
 30
0.0
  9
$PUCSORGRIGHT
 10
0.0
 20
0.0
 30
0.0
  9
$PUCSORGFRONT
 10
0.0
 20
0.0
 30
0.0
  9
$PUCSORGBACK
 10
0.0
 20
0.0
 30
0.0
  9
$USERI1
 70
     0
  9
$USERI2
 70
     0
  9
$USERI3
 70
     0
  9
$USERI4
 70
     0
  9
$USERI5
 70
     0
  9
$USERR1
 40
0.0
  9
$USERR2
 40
0.0
  9
$USERR3
 40
0.0
  9
$USERR4
 40
0.0
  9
$USERR5
 40
0.0
  9
$WORLDVIEW
 70
     1
  9
$SHADEDGE
 70
     3
  9
$SHADEDIF
 70
    70
  9
$TILEMODE
 70
     1
  9
$MAXACTVP
 70
    64
  9
$PINSBASE
 10
0.0
 20
0.0
 30
0.0
  9
$PLIMCHECK
 70
     0
  9
$PEXTMIN
 10
1.000000000000000E+20
 20
1.000000000000000E+20
 30
1.000000000000000E+20
  9
$PEXTMAX
 10
-1.000000000000000E+20
 20
-1.000000000000000E+20
 30
-1.000000000000000E+20
  9
$PLIMMIN
 10
0.0
 20
0.0
  9
$PLIMMAX
 10
12.0
 20
9.0
  9
$UNITMODE
 70
     0
  9
$VISRETAIN
 70
     1
  9
$PLINEGEN
 70
     0
  9
$PSLTSCALE
 70
     1
  9
$TREEDEPTH
 70
  3020
  9
$CMLSTYLE
  2
Standard
  9
$CMLJUST
 70
     0
  9
$CMLSCALE
 40
1.0
  9
$PROXYGRAPHICS
 70
     1
  9
$MEASUREMENT
 70
     0
  9
$CELWEIGHT
370
    -1
  9
$ENDCAPS
280
     0
  9
$JOINSTYLE
280
     0
  9
$LWDISPLAY
290
     0
  9
$INSUNITS
 70
     1
  9
$HYPERLINKBASE
  1

  9
$STYLESHEET
  1

  9
$XEDIT
290
     1
  9
$CEPSNTYPE
380
     0
  9
$PSTYLEMODE
290
     1
  9
$FINGERPRINTGUID
  2
{625ec20c-f908-4946-9860-379568045b60}
  9
$VERSIONGUID
  2
{FAEB1C32-E019-11D5-929B-00C0DF256EC4}
  9
$EXTNAMES
290
     1
  9
$PSVPSCALE
 40
0.0
  9
$OLESTARTUP
290
     0
  9
$SORTENTS
280
   127
  9
$INDEXCTL
280
     0
  9
$HIDETEXT
280
     1
  9
$XCLIPFRAME
290
     0
  9
$HALOGAP
280
     0
  9
$OBSCOLOR
 70
   257
  9
$OBSLTYPE
280
     0
  9
$INTERSECTIONDISPLAY
280
     0
  9
$INTERSECTIONCOLOR
 70
   257
  9
$DIMASSOC
280
     2
  9
$PROJECTNAME
  1

  9
$CAMERADISPLAY
290
     0
  9
$LENSLENGTH
 40
50.0
  9
$CAMERAHEIGHT
 40
0.0
  9
$STEPSPERSEC
 40
2.0
  9
$STEPSIZE
 40
6.0
  9
$3DDWFPREC
 40
2.0
  9
$PSOLWIDTH
 40
0.25
  9
$PSOLHEIGHT
 40
4.0
  9
$LOFTANG1
 40
1.570796326794897
  9
$LOFTANG2
 40
1.570796326794897
  9
$LOFTMAG1
 40
0.0
  9
$LOFTMAG2
 40
0.0
  9
$LOFTPARAM
 70
     7
  9
$LOFTNORMALS
280
     1
  9
$LATITUDE
 40
37.795
  9
$LONGITUDE
 40
-122.394
  9
$NORTHDIRECTION
 40
0.0
  9
$TIMEZONE
 70
 -8000
  9
$LIGHTGLYPHDISPLAY
280
     1
  9
$TILEMODELIGHTSYNCH
280
     1
  9
$CMATERIAL
347
44
  9
$SOLIDHIST
280
     0
  9
$SHOWHIST
280
     1
  9
$DWFFRAME
280
     2
  9
$DGNFRAME
280
     2
  9
$REALWORLDSCALE
290
     1
  9
$INTERFERECOLOR
 62
   256
  9
$CSHADOW
280
     0
  9
$SHADOWPLANELOCATION
 40
0.0
  0
ENDSEC
  0
SECTION
  2
CLASSES
  0
CLASS
  1
ACDBDICTIONARYWDFLT
  2
AcDbDictionaryWithDefault
  3
ObjectDBX Classes
 90
        0
 91
        3
280
     0
281
     0
  0
CLASS
  1
VISUALSTYLE
  2
AcDbVisualStyle
  3
ObjectDBX Classes
 90
     4095
 91
        3
280
     0
281
     0
  0
CLASS
  1
MATERIAL
  2
AcDbMaterial
  3
ObjectDBX Classes
 90
     1153
 91
        3
280
     0
281
     0
  0
CLASS
  1
SCALE
  2
AcDbScale
  3
ObjectDBX Classes
 90
     1153
 91
        3
280
     0
281
     0
  0
CLASS
  1
TABLESTYLE
  2
AcDbTableStyle
  3
ObjectDBX Classes
 90
     4095
 91
        3
280
     0
281
     0
  0
CLASS
  1
MLEADERSTYLE
  2
AcDbMLeaderStyle
  3
ACDB_MLEADERSTYLE_CLASS
 90
     4095
 91
        3
280
     0
281
     0
  0
CLASS
  1
SUN
  2
AcDbSun
  3
SCENEOE
 90
     1153
 91
        3
280
     0
281
     0
  0
CLASS
  1
DICTIONARYVAR
  2
AcDbDictionaryVar
  3
ObjectDBX Classes
 90
        0
 91
        3
280
     0
281
     0
  0
CLASS
  1
CELLSTYLEMAP
  2
AcDbCellStyleMap
  3
ObjectDBX Classes
 90
     1152
 91
        3
280
     0
281
     0
  0
ENDSEC
  0
SECTION
  2
TABLES
  0
TABLE
  2
VPORT
  5
8
330
0
100
AcDbSymbolTable
 70
     1
  0
VPORT
  5
29
330
8
100
AcDbSymbolTableRecord
100
AcDbViewportTableRecord
  2
*Active
 70
     0
 10
0.0
 20
0.0
 11
1.0
 21
1.0
 12
10.42990654205607
 22
4.5
 13
0.0
 23
0.0
 14
0.5
 24
0.5
 15
0.5
 25
0.5
 16
0.0
 26
0.0
 36
1.0
 17
0.0
 27
0.0
 37
0.0
 40
9.0
 41
1.972972972850329
 42
50.0
 43
0.0
 44
0.0
 50
0.0
 51
0.0
 71
     0
 72
   100
 73
     1
 74
     3
 75
     0
 76
     0
 77
     0
 78
     0
281
     0
 65
     1
110
0.0
120
0.0
130
0.0
111
1.0
121
0.0
131
0.0
112
0.0
122
1.0
132
0.0
 79
     0
146
0.0
348
2F
 60
     3
 61
     5
292
     1
282
     1
141
0.0
142
0.0
 63
   250
361
6D
  0
ENDTAB
  0
TABLE
  2
LTYPE
  5
5
330
0
100
AcDbSymbolTable
 70
     1
  0
LTYPE
  5
14
330
5
100
AcDbSymbolTableRecord
100
AcDbLinetypeTableRecord
  2
ByBlock
 70
     0
  3

 72
    65
 73
     0
 40
0.0
  0
LTYPE
  5
15
330
5
100
AcDbSymbolTableRecord
100
AcDbLinetypeTableRecord
  2
ByLayer
 70
     0
  3

 72
    65
 73
     0
 40
0.0
  0
LTYPE
  5
16
330
5
100
AcDbSymbolTableRecord
100
AcDbLinetypeTableRecord
  2
Continuous
 70
     0
  3
Solid line
 72
    65
 73
     0
 40
0.0
  0
ENDTAB
  0
TABLE
  2
LAYER
  5
2
330
0
100
AcDbSymbolTable
 70
     1
  0
LAYER
  5
10
330
2
100
AcDbSymbolTableRecord
100
AcDbLayerTableRecord
  2
0
 70
     0
 62
    18
420
        0
  6
Continuous
370
    -3
390
F
347
46
  0
ENDTAB
  0
TABLE
  2
STYLE
  5
3
330
0
100
AcDbSymbolTable
 70
     1
  0
STYLE
  5
11
330
3
100
AcDbSymbolTableRecord
100
AcDbTextStyleTableRecord
  2
Standard
 70
     0
 40
0.0
 41
1.0
 50
0.0
 71
     0
 42
0.2
  3
txt
  4

  0
ENDTAB
  0
TABLE
  2
VIEW
  5
6
330
0
100
AcDbSymbolTable
 70
     0
  0
ENDTAB
  0
TABLE
  2
UCS
  5
7
330
0
100
AcDbSymbolTable
 70
     0
  0
ENDTAB
  0
TABLE
  2
APPID
  5
9
330
0
100
AcDbSymbolTable
 70
     2
  0
APPID
  5
12
330
9
100
AcDbSymbolTableRecord
100
AcDbRegAppTableRecord
  2
ACAD
 70
     0
  0
APPID
  5
108
330
9
100
AcDbSymbolTableRecord
100
AcDbRegAppTableRecord
  2
ACAD_MLEADERVER
 70
     0
  0
ENDTAB
  0
TABLE
  2
DIMSTYLE
  5
A
330
0
100
AcDbSymbolTable
 70
     1
100
AcDbDimStyleTable
  0
DIMSTYLE
105
27
330
A
100
AcDbSymbolTableRecord
100
AcDbDimStyleTableRecord
  2
STANDARD_ACAD
 70
     0
178
     0
340
11
  0
ENDTAB
  0
TABLE
  2
BLOCK_RECORD
  5
1
330
0
100
AcDbSymbolTable
 70
     1
  0
BLOCK_RECORD
  5
1F
330
1
100
AcDbSymbolTableRecord
100
AcDbBlockTableRecord
  2
*Model_Space
340
22
 70
     0
280
     1
281
     0
  0
BLOCK_RECORD
  5
1B
330
1
100
AcDbSymbolTableRecord
100
AcDbBlockTableRecord
  2
*Paper_Space
340
1E
 70
     0
280
     1
281
     0
  0
BLOCK_RECORD
  5
23
330
1
100
AcDbSymbolTableRecord
100
AcDbBlockTableRecord
  2
*Paper_Space0
340
26
 70
     0
280
     1
281
     0
  0
ENDTAB
  0
ENDSEC
  0
SECTION
  2
BLOCKS
  0
BLOCK
  5
20
330
1F
100
AcDbEntity
  8
0
100
AcDbBlockBegin
  2
*Model_Space
 70
     0
 10
0.0
 20
0.0
 30
0.0
  3
*Model_Space
  1

  0
ENDBLK
  5
21
330
1F
100
AcDbEntity
  8
0
100
AcDbBlockEnd
  0
BLOCK
  5
1C
330
1B
100
AcDbEntity
 67
     1
  8
0
100
AcDbBlockBegin
  2
*Paper_Space
 70
     0
 10
0.0
 20
0.0
 30
0.0
  3
*Paper_Space
  1

  0
ENDBLK
  5
1D
330
1B
100
AcDbEntity
 67
     1
  8
0
100
AcDbBlockEnd
  0
BLOCK
  5
24
330
23
100
AcDbEntity
  8
0
100
AcDbBlockBegin
  2
*Paper_Space0
 70
     0
 10
0.0
 20
0.0
 30
0.0
  3
*Paper_Space0
  1

  0
ENDBLK
  5
25
330
23
100
AcDbEntity
  8
0
100
AcDbBlockEnd
  0
ENDSEC
  0
SECTION
  2
ENTITIES
  0
LINE
  5
6E
330
1F
100
AcDbEntity
  8
0
370
    -3
100
AcDbLine
 10
-7.085966248763903
 20
12.61679347970283
 30
0.0
 11
7.085988518361464
 21
12.61651758187497
 31
0.0
  0
SPLINE
  5
6F
330
1F
100
AcDbEntity
  8
0
370
    -3
100
AcDbSpline
210
0.0
220
0.0
230
1.0
 70
    12
 71
     2
 72
    10
 73
     7
 74
     0
 42
0.000000001
 43
0.0000000001
 40
-13.91764363249764
 40
-13.91764363249764
 40
-13.91764363249764
 40
-13.21851157825732
 40
-13.21851157825732
 40
0.4225493267218333
 40
0.4225493267218333
 40
1.112045023284437
 40
1.112045023284437
 40
1.112045023284437
 10
6.847980730662184
 20
12.24168813123509
 30
0.0
 41
0.860204406966218
 10
6.834160342151317
 20
12.23205465613887
 30
0.0
 41
0.860204406966218
 10
6.820339953640407
 20
12.22242118104264
 30
0.0
 41
0.860204406966218
 10
-0.0001904907751458
 20
12.22255396226913
 30
0.0
 41
0.860204406966218
 10
-6.820720935190699
 20
12.22268674349563
 30
0.0
 41
0.860204406966218
 10
-6.834350832926456
 20
12.23218743736545
 30
0.0
 41
0.860204406966218
 10
-6.847980730662184
 20
12.24168813123509
 30
0.0
 41
0.860204406966218
  0
SPLINE
  5
70
330
1F
100
AcDbEntity
  8
0
370
    -3
100
AcDbSpline
210
0.0
220
0.0
230
1.0
 70
     8
 71
     3
 72
    19
 73
    15
 74
     0
 42
0.000000001
 43
0.0000000001
 40
0.0297815314360422
 40
0.0297815314360422
 40
0.0297815314360422
 40
0.0297815314360422
 40
0.1139807594237111
 40
0.1139807594237111
 40
0.1492469897160849
 40
0.1492469897160849
 40
0.1549553182548357
 40
0.1549553182548357
 40
0.2173021141115183
 40
0.2173021141115183
 40
0.4500065959538978
 40
0.4500065959538978
 40
0.4500065959538978
 40
0.8464273407069658
 40
0.8464273407069658
 40
0.8464273407069658
 40
0.8464273407069658
 10
-7.005457705295819
 20
11.89434522524481
 30
0.0
 10
-6.985975241258857
 20
11.8807650113481
 30
0.0
 10
-6.942132713985236
 20
11.86502190341321
 30
0.0
 10
-6.920340152105199
 20
11.86103619753184
 30
0.0
 10
-6.914717648730784
 20
11.86025420840034
 30
0.0
 10
-6.909044065399181
 20
11.85954983008122
 30
0.0
 10
-6.908260414969062
 20
11.85945507924859
 30
0.0
 10
-6.898974634221053
 20
11.85835940587141
 30
0.0
 10
-6.892741949457028
 20
11.85780667873724
 30
0.0
 10
-6.850334702276589
 20
11.85453997505222
 30
0.0
 10
-6.808969135334744
 20
11.85289603341069
 30
0.0
 10
-6.750096647766677
 20
11.85133640989772
 30
0.0
 10
-6.654460621902357
 20
11.84880286323123
 30
0.0
 10
-6.529401128729338
 20
11.84742684493192
 30
0.0
 10
-6.398647761129522
 20
11.84742939042199
 30
0.0
  0
SPLINE
  5
71
330
1F
100
AcDbEntity
  8
0
370
    -3
100
AcDbSpline
210
0.0
220
0.0
230
1.0
 70
     8
 71
     3
 72
    15
 73
    11
 74
     0
 42
0.000000001
 43
0.0000000001
 40
-0.5679356782268045
 40
-0.5679356782268045
 40
-0.5679356782268045
 40
-0.5679356782268045
 40
-0.0000000000000431
 40
-0.0000000000000431
 40
-0.0000000000000431
 40
0.9999999999999568
 40
1.999999999999957
 40
2.999999999999956
 40
3.999999999999956
 40
4.999999999999956
 40
4.999999999999956
 40
4.999999999999956
 40
4.999999999999956
 10
-6.73624339368372
 20
11.85098253620548
 30
0.0
 10
-6.770560046646739
 20
11.6671863786949
 30
0.0
 10
-6.804876699609754
 20
11.48339022118432
 30
0.0
 10
-6.839193352572773
 20
11.29959406367374
 30
0.0
 10
-6.84640252000177
 20
11.26087072224056
 30
0.0
 10
-6.874009695951562
 20
11.18581648064993
 30
0.0
 10
-6.948378957847792
 20
11.09262532959393
 30
0.0
 10
-7.065979807389437
 20
11.04147228240917
 30
0.0
 10
-7.177077195099599
 20
11.11036432426756
 30
0.0
 10
-7.195144520374769
 20
11.19204221359064
 30
0.0
 10
-7.197843426742247
 20
11.23078498802502
 30
0.0
  0
SPLINE
  5
72
330
1F
100
AcDbEntity
  8
0
370
    -3
100
AcDbSpline
210
0.0
220
0.0
230
1.0
 70
     8
 71
     3
 72
    18
 73
    14
 74
     0
 42
0.000000001
 43
0.0000000001
 40
-0.1534350406768314
 40
-0.1534350406768314
 40
-0.1534350406768314
 40
-0.1534350406768314
 40
0.0
 40
0.0
 40
0.0
 40
1.0
 40
2.0
 40
3.0
 40
4.0
 40
5.0
 40
5.0
 40
5.0
 40
5.144180069994871
 40
5.144180069994871
 40
5.144180069994871
 40
5.144180069994871
 10
-6.948406448945923
 20
12.6165048119713
 30
0.0
 10
-6.939135369059355
 20
12.66615967956463
 30
0.0
 10
-6.929864289172788
 20
12.71581454715797
 30
0.0
 10
-6.920593209286222
 20
12.7654694147513
 30
0.0
 10
-6.912437870315754
 20
12.80946819025297
 30
0.0
 10
-6.879229021771772
 20
12.89312858840069
 30
0.0
 10
-6.787698704585503
 20
12.99637985105389
 30
0.0
 10
-6.638569165300145
 20
13.01656570770065
 30
0.0
 10
-6.556455077370282
 20
12.89075980656806
 30
0.0
 10
-6.559521077405881
 20
12.80053690052813
 30
0.0
 10
-6.567163294329907
 20
12.75655664934022
 30
0.0
 10
-6.575875156633832
 20
12.70989688861274
 30
0.0
 10
-6.584587018937756
 20
12.66323712788525
 30
0.0
 10
-6.593298881241681
 20
12.61657736715776
 30
0.0
  0
SPLINE
  5
73
330
1F
100
AcDbEntity
  8
0
370
    -3
100
AcDbSpline
210
0.0
220
0.0
230
1.0
 70
    28
 71
     2
 72
     6
 73
     3
 74
     0
 42
0.000000001
 43
0.0000000001
 40
9.970084793942778
 40
9.970084793942778
 40
9.970084793942778
 40
13.29942128423876
 40
13.29942128423876
 40
13.29942128423876
 10
-7.137085839066028
 20
11.98609636144779
 30
0.0
 41
0.8602044069662151
 10
-7.071271772180924
 20
11.94022079334629
 30
0.0
 41
0.8602044069662151
 10
-7.005457705295819
 20
11.89434522524481
 30
0.0
 41
0.8602044069662151
  0
SPLINE
  5
74
330
1F
100
AcDbEntity
  8
0
370
    -3
100
AcDbSpline
210
0.0
220
0.0
230
1.0
 70
     8
 71
     3
 72
     8
 73
     4
 74
     0
 42
0.000000001
 43
0.0000000001
 40
0.8034095802350739
 40
0.8034095802350739
 40
0.8034095802350739
 40
0.8034095802350739
 40
1.0063968465546
 40
1.0063968465546
 40
1.0063968465546
 40
1.0063968465546
 10
-7.116486669117625
 20
12.24044044139837
 30
0.0
 10
-7.056306329350184
 20
12.24114176350472
 30
0.0
 10
-6.990926592951935
 20
12.24151943245749
 30
0.0
 10
-6.924407589362529
 20
12.24152072744106
 30
0.0
  0
SPLINE
  5
75
330
1F
100
AcDbEntity
  8
0
370
    -3
100
AcDbSpline
210
0.0
220
0.0
230
1.0
 70
    24
 71
     2
 72
     6
 73
     3
 74
     0
 42
0.000000001
 43
0.0000000001
 40
-1.490421653205644
 40
-1.490421653205644
 40
-1.490421653205644
 40
-0.8478519167854501
 40
-0.8478519167854501
 40
-0.8478519167854501
 10
-7.190762620730696
 20
11.31847224536212
 30
0.0
 10
-7.132523166436911
 20
11.63039625281845
 30
0.0
 10
-7.074283712143126
 20
11.94232026027477
 30
0.0
  0
SPLINE
  5
76
330
1F
100
AcDbEntity
  8
0
370
    -3
100
AcDbSpline
210
0.0
220
0.0
230
1.0
 70
    28
 71
     2
 72
     6
 73
     3
 74
     0
 42
0.000000001
 43
0.0000000001
 40
12.24251740923229
 40
12.24251740923229
 40
12.24251740923229
 40
12.2615842417205
 40
12.2615842417205
 40
12.2615842417205
 10
-6.542115563167161
 20
12.22301654985188
 30
0.0
 41
0.8535854487995107
 10
-6.540388094306508
 20
12.23227239348308
 30
0.0
 41
0.8535854487995107
 10
-6.538660625445856
 20
12.24152823711429
 30
0.0
 41
0.8535854487995107
  0
SPLINE
  5
77
330
1F
100
AcDbEntity
  8
0
370
    -3
100
AcDbSpline
210
0.0
220
0.0
230
1.0
 70
    24
 71
     2
 72
     6
 73
     3
 74
     0
 42
0.000000001
 43
0.0000000001
 40
-0.9701991824947411
 40
-0.9701991824947411
 40
-0.9701991824947411
 40
-0.9527666339416654
 40
-0.9527666339416654
 40
-0.9527666339416654
 10
-6.663324905174152
 20
12.24152581016582
 30
0.0
 10
-6.664904908179487
 20
12.23306349067479
 30
0.0
 10
-6.666484911184822
 20
12.22460117118376
 30
0.0
  0
SPLINE
  5
78
330
1F
100
AcDbEntity
  8
0
370
    -3
100
AcDbSpline
210
0.0
220
0.0
230
1.0
 70
     8
 71
     3
 72
    19
 73
    15
 74
     0
 42
0.000000001
 43
0.0000000001
 40
0.0297815314360422
 40
0.0297815314360422
 40
0.0297815314360422
 40
0.0297815314360422
 40
0.1139807594237111
 40
0.1139807594237111
 40
0.1492469897160849
 40
0.1492469897160849
 40
0.1549553182548357
 40
0.1549553182548357
 40
0.2173021141115183
 40
0.2173021141115183
 40
0.4500065959538978
 40
0.4500065959538978
 40
0.4500065959538978
 40
0.8464273407069658
 40
0.8464273407069658
 40
0.8464273407069658
 40
0.8464273407069658
 10
7.005457705295819
 20
11.89434522524481
 30
0.0
 10
6.985975241258857
 20
11.8807650113481
 30
0.0
 10
6.942132713985236
 20
11.86502190341321
 30
0.0
 10
6.920340152105199
 20
11.86103619753184
 30
0.0
 10
6.914717648730784
 20
11.86025420840034
 30
0.0
 10
6.909044065399181
 20
11.85954983008122
 30
0.0
 10
6.908260414969062
 20
11.85945507924859
 30
0.0
 10
6.898974634221053
 20
11.85835940587141
 30
0.0
 10
6.892741949457028
 20
11.85780667873724
 30
0.0
 10
6.850334702276589
 20
11.85453997505222
 30
0.0
 10
6.808969135334744
 20
11.85289603341069
 30
0.0
 10
6.750096647766677
 20
11.85133640989772
 30
0.0
 10
6.654460621902357
 20
11.84880286323123
 30
0.0
 10
6.529401128729338
 20
11.84742684493192
 30
0.0
 10
6.398647761129522
 20
11.84742939042199
 30
0.0
  0
SPLINE
  5
79
330
1F
100
AcDbEntity
  8
0
370
    -3
100
AcDbSpline
210
0.0
220
0.0
230
1.0
 70
     8
 71
     2
 72
     6
 73
     3
 74
     0
 42
0.000000001
 43
0.0000000001
 40
0.0
 40
0.0
 40
0.0
 40
1.0
 40
1.0
 40
1.0
 10
23.08124978600204
 20
38.38948773282863
 30
0.0
 10
22.92646734471903
 20
38.41815787563192
 30
0.0
 10
22.77499012843518
 20
38.46087596505905
 30
0.0
  0
SPLINE
  5
7A
330
1F
100
AcDbEntity
  8
0
370
    -3
100
AcDbSpline
210
0.0
220
0.0
230
1.0
 70
     8
 71
     2
 72
    10
 73
     7
 74
     0
 42
0.000000001
 43
0.0000000001
 40
0.0
 40
0.0
 40
0.0
 40
1.0
 40
2.0
 40
3.0
 40
4.0
 40
5.0
 40
5.0
 40
5.0
 10
37.55753231719239
 20
27.71772186675212
 30
0.0
 10
36.55062824875994
 20
27.57070208238517
 30
0.0
 10
34.52870017277227
 20
27.33928535817164
 30
0.0
 10
32.50114026247659
 20
27.16342962608577
 30
0.0
 10
30.46963439805432
 20
27.04627557374419
 30
0.0
 10
28.43454104605324
 20
26.9763546110096
 30
0.0
 10
27.41872224307369
 20
27.0383462014473
 30
0.0
  0
SPLINE
  5
7B
330
1F
100
AcDbEntity
  8
0
370
    -3
100
AcDbSpline
210
0.0
220
0.0
230
1.0
 70
    12
 71
     3
 72
    65
 73
    61
 74
     0
 42
0.000000001
 43
0.0000000001
 40
-1.0
 40
-1.0
 40
-1.0
 40
-1.0
 40
-0.0835879548158117
 40
-0.0835879548158117
 40
-0.0835879548158117
 40
3.320643601077654
 40
3.320643601077654
 40
3.320643601077654
 40
4.320643601077654
 40
4.320643601077654
 40
4.320643601077654
 40
17.92985550338833
 40
17.92985550338833
 40
17.92985550338833
 40
18.92985550338833
 40
18.92985550338833
 40
18.92985550338833
 40
21.95049058722649
 40
21.95049058722649
 40
21.95049058722649
 40
22.89432361666413
 40
22.89432361666413
 40
22.89432361666413
 40
51.58709367876841
 40
51.58709367876841
 40
51.58709367876841
 40
52.58709367876841
 40
52.58709367876841
 40
52.58709367876841
 40
53.63722170571006
 40
53.63722170571006
 40
53.63722170571006
 40
54.63722170571006
 40
54.63722170571006
 40
54.63722170571006
 40
76.90089352197663
 40
76.90089352197663
 40
76.90089352197663
 40
77.90089352197663
 40
77.90089352197663
 40
77.90089352197663
 40
92.14724286210101
 40
92.14724286210101
 40
92.14724286210101
 40
93.14724286210101
 40
93.14724286210101
 40
93.14724286210101
 40
115.1548086760417
 40
115.1548086760417
 40
115.1548086760417
 40
116.1548086760417
 40
116.1548086760417
 40
116.1548086760417
 40
117.2011909382483
 40
117.2011909382483
 40
117.2011909382483
 40
118.2011909382483
 40
118.2011909382483
 40
118.2011909382483
 40
146.4772580057701
 40
146.4772580057701
 40
146.4772580057701
 40
146.4772580057701
 10
37.92441144703072
 20
28.43791727109673
 30
0.0
 41
1.0
 10
37.79958654258505
 20
28.41433484283282
 30
0.0
 41
1.0
 10
37.67484844455461
 20
28.39030269334553
 30
0.0
 41
1.0
 10
37.55019715293938
 20
28.36582082263486
 30
0.0
 41
1.0
 10
37.56393181857076
 20
27.2312589741471
 30
0.0
 41
1.0
 10
37.57766648420214
 20
26.09669712565934
 30
0.0
 41
1.0
 10
37.59140114983352
 20
24.96213527717158
 30
0.0
 41
1.0
 10
37.59455810302917
 20
24.70135290726357
 30
0.0
 41
1.0
 10
37.48723371374375
 20
24.37708460555768
 30
0.0
 41
1.0
 10
37.22292484736143
 20
24.37039424025418
 30
0.0
 41
1.0
 10
34.01622999081244
 20
24.28922420498138
 30
0.0
 41
1.0
 10
30.80953513426346
 20
24.20805416970859
 30
0.0
 41
1.0
 10
27.60284027771448
 20
24.1268841344358
 30
0.0
 41
1.0
 10
27.29781776630124
 20
24.11916319773369
 30
0.0
 41
1.0
 10
27.17935800425299
 20
24.513137411528
 30
0.0
 41
1.0
 10
27.20816463952988
 20
24.8168947539848
 30
0.0
 41
1.0
 10
27.30255244447835
 20
25.81218589145663
 30
0.0
 41
1.0
 10
27.39694024942681
 20
26.80747702892846
 30
0.0
 41
1.0
 10
27.49132805437527
 20
27.8027681664003
 30
0.0
 41
1.0
 10
27.05451786452848
 20
28.00307683597939
 30
0.0
 41
1.0
 10
26.61178719959416
 20
28.18895182868933
 30
0.0
 41
1.0
 10
26.16313605957233
 20
28.36039314453014
 30
0.0
 41
1.0
 10
24.80046887691494
 20
19.02961363550501
 30
0.0
 41
1.0
 10
23.43780169425754
 20
9.698834126479875
 30
0.0
 41
1.0
 10
22.07513451160015
 20
0.3680546174547437
 30
0.0
 41
1.0
 10
22.06715221420742
 20
0.3133963282591543
 30
0.0
 41
1.0
 10
22.10641092211655
 20
0.260075460314885
 30
0.0
 41
1.0
 10
22.16164900363152
 20
0.260075460314885
 30
0.0
 41
1.0
 10
22.51169167927874
 20
0.260075460314885
 30
0.0
 41
1.0
 10
22.86173435492596
 20
0.260075460314885
 30
0.0
 41
1.0
 10
23.21177703057318
 20
0.260075460314885
 30
0.0
 41
1.0
 10
23.27014319780198
 20
0.260075460314885
 30
0.0
 41
1.0
 10
23.2982993347366
 20
0.3033638437541158
 30
0.0
 41
1.0
 10
23.30849613605715
 20
0.3665478676886499
 30
0.0
 41
1.0
 10
24.47128179514585
 20
7.571697267488519
 30
0.0
 41
0.9999999999999999
 10
25.63406745423454
 20
14.77684666728839
 30
0.0
 41
0.9999999999999999
 10
26.79685311332324
 20
21.98199606708825
 30
0.0
 41
0.9999999999999999
 10
26.8483208068076
 20
22.30091333091879
 30
0.0
 41
0.9999999999999999
 10
26.9713956852876
 20
22.53539608521314
 30
0.0
 41
0.9999999999999999
 10
27.258012276524
 20
22.54265111877907
 30
0.0
 41
0.9999999999999999
 10
30.61483377972338
 20
22.62762126155931
 30
0.0
 41
0.9999999999999999
 10
33.97165528292276
 20
22.71259140433956
 30
0.0
 41
0.9999999999999999
 10
37.32847678612213
 20
22.7975615471198
 30
0.0
 41
0.9999999999999999
 10
37.6383346060176
 20
22.80540487842979
 30
0.0
 41
0.9999999999999999
 10
37.80250582512291
 20
22.45737788104543
 30
0.0
 41
0.9999999999999999
 10
37.83519510812961
 20
22.14914939895314
 30
0.0
 41
0.9999999999999999
 10
38.60638275520915
 20
14.87759199529486
 30
0.0
 41
0.9999999999999999
 10
39.3775704022887
 20
7.606034591636587
 30
0.0
 41
0.9999999999999999
 10
40.14875804936823
 20
0.3344771879783067
 30
0.0
 41
0.9999999999999999
 10
40.15434865313827
 20
0.2817631742244341
 30
0.0
 41
0.9999999999999999
 10
40.19309282078292
 20
0.260075460314885
 30
0.0
 41
0.9999999999999999
 10
40.24982305739593
 20
0.260075460314885
 30
0.0
 41
0.9999999999999999
 10
40.59861714479813
 20
0.260075460314885
 30
0.0
 41
0.9999999999999999
 10
40.94741123220032
 20
0.260075460314885
 30
0.0
 41
0.9999999999999999
 10
41.29620531960252
 20
0.260075460314885
 30
0.0
 41
0.9999999999999999
 10
41.36226242267399
 20
0.260075460314885
 30
0.0
 41
0.9999999999999999
 10
41.39684348630561
 20
0.2920622283321828
 30
0.0
 41
0.9999999999999999
 10
41.39098938895997
 20
0.3565193984549999
 30
0.0
 41
0.9999999999999999
 10
40.5402805238163
 20
9.72334109750247
 30
0.0
 41
1.0
 10
39.68957165867263
 20
19.09016279654994
 30
0.0
 41
1.0
 10
38.83886279352897
 20
28.45698449559742
 30
0.0
 41
0.9999999999999999
  0
LINE
  5
7C
330
1F
100
AcDbEntity
  8
0
370
    -3
100
AcDbLine
 10
31.50528305933411
 20
22.6501609177058
 30
0.0
 11
31.46542835707104
 21
24.22465658384905
 31
0.0
  0
SPLINE
  5
7D
330
1F
100
AcDbEntity
  8
0
100
AcDbSpline
210
0.0
220
0.0
230
1.0
 70
    11
 71
     3
 72
    23
 73
    19
 74
     0
 42
0.000000001
 43
0.0000000001
 40
0.0
 40
0.0
 40
0.0
 40
0.0
 40
1.0
 40
1.0
 40
1.0
 40
1.573187160405986
 40
1.573187160405986
 40
1.573187160405986
 40
2.555574506554523
 40
2.555574506554523
 40
2.555574506554523
 40
3.555574506554524
 40
3.555574506554524
 40
3.555574506554524
 40
4.555574506554523
 40
4.555574506554523
 40
4.555574506554523
 40
5.611094901369554
 40
5.611094901369554
 40
5.611094901369554
 40
5.611094901369554
 10
40.46376052099487
 20
0.0761199438774369
 30
0.0
 10
40.46567837905482
 20
0.0271722135491095
 30
0.0
 10
40.49306349410757
 20
0.0013736606624697
 30
0.0
 10
40.5421925759079
 20
0.0013736606624697
 30
0.0
 10
40.7332549627099
 20
0.0013736606624697
 30
0.0
 10
40.9243173495119
 20
0.0013736606624697
 30
0.0
 10
41.11537973631389
 20
0.0013736606624697
 30
0.0
 10
41.16591367598529
 20
0.0007064737396227
 30
0.0
 10
41.19287023155493
 20
0.0255490175145887
 30
0.0
 10
41.19626391815669
 20
0.0761199438774369
 30
0.0
 10
41.20029007912999
 20
0.1374384493565863
 30
0.0
 10
41.2043162401033
 20
0.1987569548357357
 30
0.0
 10
41.20834240107661
 20
0.260075460314885
 30
0.0
 10
40.95774587428747
 20
0.2600754603148845
 30
0.0
 10
40.70714934749833
 20
0.260075460314884
 30
0.0
 10
40.45655282070918
 20
0.2600754603148836
 30
0.0
 10
40.45895538747109
 20
0.1987569548357347
 30
0.0
 10
40.46135795423297
 20
0.1374384493565858
 30
0.0
 10
40.46376052099487
 20
0.0761199438774369
 30
0.0
  0
SPLINE
  5
7E
330
1F
100
AcDbEntity
  8
0
100
AcDbSpline
210
0.0
220
0.0
230
1.0
 70
    11
 71
     3
 72
    23
 73
    19
 74
     0
 42
0.000000001
 43
0.0000000001
 40
0.0
 40
0.0
 40
0.0
 40
0.0
 40
1.0
 40
1.0
 40
1.0
 40
1.573187160405986
 40
1.573187160405986
 40
1.573187160405986
 40
2.555574506554523
 40
2.555574506554523
 40
2.555574506554523
 40
3.555574506554524
 40
3.555574506554524
 40
3.555574506554524
 40
4.555574506554523
 40
4.555574506554523
 40
4.555574506554523
 40
5.611094901369554
 40
5.611094901369554
 40
5.611094901369554
 40
5.611094901369554
 10
22.25923016297119
 20
0.0761199438774369
 30
0.0
 10
22.26114802103114
 20
0.0271722135491095
 30
0.0
 10
22.28853313608388
 20
0.0013736606624697
 30
0.0
 10
22.33766221788422
 20
0.0013736606624697
 30
0.0
 10
22.52872460468622
 20
0.0013736606624697
 30
0.0
 10
22.71978699148822
 20
0.0013736606624697
 30
0.0
 10
22.91084937829021
 20
0.0013736606624697
 30
0.0
 10
22.96138331796161
 20
0.0007064737396227
 30
0.0
 10
22.98833987353125
 20
0.0255490175145887
 30
0.0
 10
22.99173356013301
 20
0.0761199438774369
 30
0.0
 10
22.99575972110631
 20
0.1374384493565863
 30
0.0
 10
22.99978588207962
 20
0.1987569548357357
 30
0.0
 10
23.00381204305293
 20
0.260075460314885
 30
0.0
 10
22.75321551626379
 20
0.2600754603148845
 30
0.0
 10
22.50261898947464
 20
0.260075460314884
 30
0.0
 10
22.2520224626855
 20
0.2600754603148836
 30
0.0
 10
22.2544250294474
 20
0.1987569548357347
 30
0.0
 10
22.25682759620929
 20
0.1374384493565858
 30
0.0
 10
22.25923016297119
 20
0.0761199438774369
 30
0.0
  0
SPLINE
  5
7F
330
1F
100
AcDbEntity
  8
0
370
    -3
100
AcDbSpline
210
0.0
220
0.0
230
1.0
 70
     8
 71
     3
 72
    29
 73
    25
 74
     0
 42
0.000000001
 43
0.0000000001
 40
-8.0
 40
-8.0
 40
-8.0
 40
-8.0
 40
-7.0
 40
-6.0
 40
-5.0
 40
-5.0
 40
-5.0
 40
-4.0
 40
-3.0
 40
-2.0
 40
-1.0
 40
0.0
 40
0.0
 40
0.0
 40
1.0
 40
2.0
 40
3.0
 40
4.0
 40
5.0
 40
5.0
 40
5.0
 40
6.0
 40
7.0
 40
8.0
 40
8.0
 40
8.0
 40
8.0
 10
-7.863472421856146
 20
71.48879717987654
 30
0.0
 10
-7.749296881465811
 20
71.5762966594011
 30
0.0
 10
-7.478596631766154
 20
71.67656709732927
 30
0.0
 10
-7.060510866987846
 20
71.76888507331776
 30
0.0
 10
-6.776830220964214
 20
71.80533158874697
 30
0.0
 10
-6.634944366323715
 20
71.82096868755178
 30
0.0
 10
-6.194729575113342
 20
71.86948432149526
 30
0.0
 10
-5.309866181934504
 20
71.90757493016028
 30
0.0
 10
-3.983281771789947
 20
71.96708144479362
 30
0.0
 10
-2.655768064222374
 20
72.00677482285121
 30
0.0
 10
-1.328038064337004
 20
72.03548707754447
 30
0.0
 10
-0.4426793040273846
 20
72.0427965605327
 30
0.0
 10
0.0
 20
72.04281164684993
 30
0.0
 10
0.4426793040273846
 20
72.0427965605327
 30
0.0
 10
1.328038064337004
 20
72.03548707754447
 30
0.0
 10
2.655768064222374
 20
72.00677482285121
 30
0.0
 10
3.983281771789947
 20
71.96708144479362
 30
0.0
 10
5.309866181934504
 20
71.90757493016028
 30
0.0
 10
6.194729575113342
 20
71.86948432149526
 30
0.0
 10
6.634944366323715
 20
71.82096868755178
 30
0.0
 10
6.776830220964214
 20
71.80533158874697
 30
0.0
 10
7.060510866987846
 20
71.76888507331776
 30
0.0
 10
7.478596631766154
 20
71.67656709732927
 30
0.0
 10
7.749296881465811
 20
71.5762966594011
 30
0.0
 10
7.863472421856146
 20
71.48879717987654
 30
0.0
  0
SPLINE
  5
80
330
1F
100
AcDbEntity
  8
0
370
    -3
100
AcDbSpline
210
0.0
220
0.0
230
1.0
 70
     8
 71
     3
 72
    15
 73
    11
 74
     0
 42
0.000000001
 43
0.0000000001
 40
0.0
 40
0.0
 40
0.0
 40
0.0
 40
1.0
 40
2.0
 40
3.0
 40
3.0
 40
3.0
 40
4.0
 40
5.0
 40
6.0
 40
6.0
 40
6.0
 40
6.0
 10
2.500137248733111
 20
68.39782280242322
 30
0.0
 10
2.21956085599327
 20
68.39999843574965
 30
0.0
 10
1.659482248524073
 20
68.41765726404401
 30
0.0
 10
0.8178992159795553
 20
68.48210614892746
 30
0.0
 10
0.2749828566445974
 20
68.63035786470951
 30
0.0
 10
0.0
 20
68.68488926601493
 30
0.0
 10
-0.2749828566445974
 20
68.63035786470951
 30
0.0
 10
-0.8178992159795553
 20
68.48210614892746
 30
0.0
 10
-1.659482248524073
 20
68.41765726404401
 30
0.0
 10
-2.21956085599327
 20
68.39999843574965
 30
0.0
 10
-2.500137248733111
 20
68.39782280242322
 30
0.0
  0
POLYLINE
  5
81
330
1F
100
AcDbEntity
  8
0
100
AcDb2dPolyline
 66
     1
 10
0.0
 20
0.0
 30
0.0
  0
VERTEX
  5
82
330
81
100
AcDbEntity
  8
0
100
AcDbVertex
100
AcDb2dVertex
 10
3.500000046192229
 20
60.72480796899723
 30
0.0
  0
VERTEX
  5
83
330
81
100
AcDbEntity
  8
0
100
AcDbVertex
100
AcDb2dVertex
 10
0.0
 20
60.72480796899723
 30
0.0
  0
VERTEX
  5
84
330
81
100
AcDbEntity
  8
0
100
AcDbVertex
100
AcDb2dVertex
 10
-3.500000046192229
 20
60.72480796899723
 30
0.0
  0
SEQEND
  5
85
330
81
100
AcDbEntity
  8
0
  0
SPLINE
  5
86
330
1F
100
AcDbEntity
  8
0
370
    -3
100
AcDbSpline
210
0.0
220
0.0
230
1.0
 70
     8
 71
     3
 72
    15
 73
    11
 74
     0
 42
0.000000001
 43
0.0000000001
 40
-3.0
 40
-3.0
 40
-3.0
 40
-3.0
 40
-2.0
 40
-1.0
 40
0.0
 40
0.0
 40
0.0
 40
1.0
 40
2.0
 40
3.0
 40
3.0
 40
3.0
 40
3.0
 10
-8.619986709579637
 20
65.28880725528657
 30
0.0
 10
-7.662281284338535
 20
65.30380769559599
 30
0.0
 10
-5.746708526162503
 20
65.32101659004664
 30
0.0
 10
-2.873517243656704
 20
65.362993127067
 30
0.0
 10
-0.9578130297210532
 20
65.36130510838836
 30
0.0
 10
0.0
 20
65.36180796788825
 30
0.0
 10
0.9578130297210532
 20
65.36130510838836
 30
0.0
 10
2.873517243656704
 20
65.362993127067
 30
0.0
 10
5.746708526162503
 20
65.32101659004664
 30
0.0
 10
7.662281284338535
 20
65.30380769559599
 30
0.0
 10
8.619986709579637
 20
65.28880725528657
 30
0.0
  0
SPLINE
  5
87
330
1F
100
AcDbEntity
  8
0
370
    -3
100
AcDbSpline
210
0.0
220
0.0
230
1.0
 70
    11
 71
     3
 72
    85
 73
    81
 74
     0
 42
0.000000001
 43
0.0000000001
 40
0.0
 40
0.0
 40
0.0
 40
0.0
 40
1.0
 40
2.0
 40
3.0
 40
4.0
 40
5.0
 40
6.0
 40
7.0
 40
8.0
 40
9.0
 40
10.0
 40
11.0
 40
11.0
 40
11.0
 40
12.0
 40
12.0
 40
12.0
 40
13.0
 40
14.0
 40
15.0
 40
16.0
 40
17.0
 40
18.0
 40
19.0
 40
20.0
 40
21.0
 40
22.0
 40
22.0
 40
22.0
 40
23.0
 40
24.0
 40
25.0
 40
26.0
 40
27.0
 40
27.0
 40
27.0
 40
28.0
 40
29.0
 40
30.0
 40
30.0
 40
30.0
 40
31.0
 40
32.0
 40
33.0
 40
33.0
 40
33.0
 40
34.0
 40
35.0
 40
36.0
 40
37.0
 40
38.0
 40
38.0
 40
38.0
 40
39.0
 40
40.0
 40
41.0
 40
42.0
 40
43.0
 40
44.0
 40
45.0
 40
46.0
 40
47.0
 40
48.0
 40
48.0
 40
48.0
 40
49.0
 40
49.0
 40
49.0
 40
50.0
 40
51.0
 40
52.0
 40
53.0
 40
54.0
 40
55.0
 40
56.0
 40
57.0
 40
58.0
 40
59.0
 40
60.0
 40
60.0
 40
60.0
 40
60.0
 10
0.0
 20
72.34638221688738
 30
0.0
 10
0.2417865116429881
 20
72.34636377963623
 30
0.0
 10
0.7253590791868967
 20
72.34383706876869
 30
0.0
 10
1.45064105781209
 20
72.33261032179942
 30
0.0
 10
2.175768283759485
 20
72.31385594770498
 30
0.0
 10
2.90064921456861
 20
72.28722907081965
 30
0.0
 10
3.625199496836919
 20
72.2527218618138
 30
0.0
 10
4.349269545131464
 20
72.20925501048353
 30
0.0
 10
5.072725802147687
 20
72.15650900087061
 30
0.0
 10
5.79551015120843
 20
72.0954862952541
 30
0.0
 10
6.515725710971365
 20
72.00560933548036
 30
0.0
 10
7.224495951226073
 20
71.8461217935364
 30
0.0
 10
7.670988240101551
 20
71.64640919060287
 30
0.0
 10
7.859149794966269
 20
71.49229289212404
 30
0.0
 10
7.899876325342881
 20
71.45893526964882
 30
0.0
 10
7.944390688871948
 20
71.4048631614883
 30
0.0
 10
7.953258688575884
 20
71.35596714718454
 30
0.0
 10
8.047252874796976
 20
70.83770584504492
 30
0.0
 10
8.23898539933838
 20
69.8022544224516
 30
0.0
 10
8.516927831998629
 20
68.24578097964672
 30
0.0
 10
8.65422496425166
 20
66.6706323984893
 30
0.0
 10
8.71822337506173
 20
65.09183468854624
 30
0.0
 10
8.794122280027167
 20
63.51363431754992
 30
0.0
 10
8.868955839132099
 20
61.93537386806656
 30
0.0
 10
8.946786837660305
 20
60.35725983727104
 30
0.0
 10
9.027402951713038
 20
58.77928612011412
 30
0.0
 10
9.107480523875388
 20
57.20128487356467
 30
0.0
 10
9.164667553645995
 20
56.14947910505927
 30
0.0
 10
9.190438010644755
 20
55.62343722744224
 30
0.0
 10
9.204856190929556
 20
55.3291247661148
 30
0.0
 10
9.215595732006136
 20
54.73868604786885
 30
0.0
 10
9.099966918640849
 20
53.85796158099666
 30
0.0
 10
8.699204015899781
 20
53.04069579083424
 30
0.0
 10
7.927325641522014
 20
52.55369889620239
 30
0.0
 10
7.341380414258516
 20
52.44377142783068
 30
0.0
 10
7.047964613480898
 20
52.42142228081268
 30
0.0
 10
6.266462424627029
 20
52.36189615008866
 30
0.0
 10
4.701257743778644
 20
52.27357702940252
 30
0.0
 10
2.351300793043329
 20
52.19051712115333
 30
0.0
 10
0.7837731969334032
 20
52.17016467120456
 30
0.0
 10
0.0
 20
52.16992162622503
 30
0.0
 10
-0.7837731969334032
 20
52.17016467120456
 30
0.0
 10
-2.351300793043329
 20
52.19051712115333
 30
0.0
 10
-4.701257743778644
 20
52.27357702940252
 30
0.0
 10
-6.266462424627029
 20
52.36189615008866
 30
0.0
 10
-7.047964613480898
 20
52.42142228081268
 30
0.0
 10
-7.341380414258516
 20
52.44377142783068
 30
0.0
 10
-7.927325641522014
 20
52.55369889620239
 30
0.0
 10
-8.699204015899781
 20
53.04069579083424
 30
0.0
 10
-9.099966918640849
 20
53.85796158099666
 30
0.0
 10
-9.215595732006136
 20
54.73868604786885
 30
0.0
 10
-9.204856190929556
 20
55.3291247661148
 30
0.0
 10
-9.190438010644755
 20
55.62343722744224
 30
0.0
 10
-9.164667553645995
 20
56.14947910505927
 30
0.0
 10
-9.107480523875388
 20
57.20128487356467
 30
0.0
 10
-9.027402951713038
 20
58.77928612011412
 30
0.0
 10
-8.946786837660305
 20
60.35725983727104
 30
0.0
 10
-8.868955839132099
 20
61.93537386806656
 30
0.0
 10
-8.794122280027167
 20
63.51363431754992
 30
0.0
 10
-8.71822337506173
 20
65.09183468854624
 30
0.0
 10
-8.65422496425166
 20
66.6706323984893
 30
0.0
 10
-8.516927831998629
 20
68.24578097964672
 30
0.0
 10
-8.23898539933838
 20
69.8022544224516
 30
0.0
 10
-8.047252874796976
 20
70.83770584504492
 30
0.0
 10
-7.953258688575884
 20
71.35596714718454
 30
0.0
 10
-7.944390688871948
 20
71.4048631614883
 30
0.0
 10
-7.899876325342881
 20
71.45893526964882
 30
0.0
 10
-7.859149794966269
 20
71.49229289212404
 30
0.0
 10
-7.670988240101551
 20
71.64640919060287
 30
0.0
 10
-7.224495951226073
 20
71.8461217935364
 30
0.0
 10
-6.515725710971365
 20
72.00560933548036
 30
0.0
 10
-5.79551015120843
 20
72.0954862952541
 30
0.0
 10
-5.072725802147687
 20
72.15650900087061
 30
0.0
 10
-4.349269545131464
 20
72.20925501048353
 30
0.0
 10
-3.625199496836919
 20
72.2527218618138
 30
0.0
 10
-2.90064921456861
 20
72.28722907081965
 30
0.0
 10
-2.175768283759485
 20
72.31385594770498
 30
0.0
 10
-1.45064105781209
 20
72.33261032179942
 30
0.0
 10
-0.7253590791868967
 20
72.34383706876869
 30
0.0
 10
-0.2417865116429881
 20
72.34636377963623
 30
0.0
 10
0.0
 20
72.34638221688738
 30
0.0
  0
SPLINE
  5
88
330
1F
100
AcDbEntity
  8
0
370
    -3
100
AcDbSpline
210
0.0
220
0.0
230
1.0
 70
    11
 71
     3
 72
   103
 73
    99
 74
     0
 42
0.000000001
 43
0.0000000001
 40
0.0
 40
0.0
 40
0.0
 40
0.0
 40
1.0
 40
2.0
 40
3.0
 40
4.0
 40
5.0
 40
5.0
 40
5.0
 40
6.0
 40
7.0
 40
8.0
 40
9.0
 40
10.0
 40
11.0
 40
12.0
 40
13.0
 40
14.0
 40
15.0
 40
16.0
 40
16.0
 40
16.0
 40
17.0
 40
18.0
 40
19.0
 40
20.0
 40
21.0
 40
22.0
 40
23.0
 40
24.0
 40
25.0
 40
26.0
 40
27.0
 40
28.0
 40
29.0
 40
29.0
 40
29.0
 40
30.0
 40
31.0
 40
32.0
 40
33.0
 40
34.0
 40
34.0
 40
34.0
 40
35.0
 40
36.0
 40
37.0
 40
38.0
 40
39.0
 40
39.0
 40
39.0
 40
40.0
 40
41.0
 40
42.0
 40
43.0
 40
44.0
 40
44.0
 40
44.0
 40
45.0
 40
46.0
 40
47.0
 40
48.0
 40
49.0
 40
49.0
 40
49.0
 40
50.0
 40
51.0
 40
52.0
 40
53.0
 40
54.0
 40
55.0
 40
56.0
 40
57.0
 40
58.0
 40
59.0
 40
60.0
 40
61.0
 40
62.0
 40
62.0
 40
62.0
 40
63.0
 40
64.0
 40
65.0
 40
66.0
 40
67.0
 40
68.0
 40
69.0
 40
70.0
 40
71.0
 40
72.0
 40
73.0
 40
73.0
 40
73.0
 40
74.0
 40
75.0
 40
76.0
 40
77.0
 40
78.0
 40
78.0
 40
78.0
 40
78.0
 10
0.0
 20
70.956679622592
 30
0.0
 10
0.4382270553485975
 20
70.95666632214656
 30
0.0
 10
1.314673008388236
 20
70.94992722899885
 30
0.0
 10
2.629130065650664
 20
70.92544105218184
 30
0.0
 10
3.943343160003768
 20
70.88853799333891
 30
0.0
 10
5.25684385601041
 20
70.83502352072546
 30
0.0
 10
6.132920551524141
 20
70.80220096585384
 30
0.0
 10
6.569347735165957
 20
70.76136844014988
 30
0.0
 10
6.62253099552185
 20
70.75639256576144
 30
0.0
 10
6.728708783259899
 20
70.7445042996936
 30
0.0
 10
6.887625071114582
 20
70.72382324701877
 30
0.0
 10
7.045989080408378
 20
70.69921343125489
 30
0.0
 10
7.20350164150133
 20
70.66964927600513
 30
0.0
 10
7.359789171497413
 20
70.63393914696391
 30
0.0
 10
7.513957397310124
 20
70.59037924476246
 30
0.0
 10
7.664923517580737
 20
70.53481906195894
 30
0.0
 10
7.806335493834906
 20
70.46196169571688
 30
0.0
 10
7.935491487815928
 20
70.3543671175765
 30
0.0
 10
7.957535446234765
 20
70.18909268160178
 30
0.0
 10
7.980398651987709
 20
70.08651012276081
 30
0.0
 10
7.991000046896874
 20
70.03385647168777
 30
0.0
 10
8.064683008360953
 20
69.66789737138063
 30
0.0
 10
8.20825182657406
 20
68.93564379270768
 30
0.0
 10
8.452320362030152
 20
67.8414483743579
 30
0.0
 10
8.531923026876344
 20
66.72226767277711
 30
0.0
 10
8.605021510660244
 20
65.60549716023637
 30
0.0
 10
8.663138844661376
 20
64.48707418584328
 30
0.0
 10
8.721879822888924
 20
63.36891219727121
 30
0.0
 10
8.780085823332008
 20
62.25066094539191
 30
0.0
 10
8.839105480059294
 20
61.13246878000811
 30
0.0
 10
8.897977922285413
 20
60.01426438688145
 30
0.0
 10
8.956399803022657
 20
58.89603794835364
 30
0.0
 10
9.01510336034576
 20
57.77782420633875
 30
0.0
 10
9.074648523090154
 20
56.65966187236906
 30
0.0
 10
9.117345357199108
 20
55.91436392569177
 30
0.0
 10
9.13221468233378
 20
55.5414008011189
 30
0.0
 10
9.143544739569272
 20
55.25721214360642
 30
0.0
 10
9.151196355778506
 20
54.68733924031564
 30
0.0
 10
9.033767043634876
 20
53.83790010844812
 30
0.0
 10
8.633718955469018
 20
53.05406063278841
 30
0.0
 10
7.876581495240822
 20
52.60456077763007
 30
0.0
 10
7.313470046860512
 20
52.49511740106101
 30
0.0
 10
7.0301022308364
 20
52.47254934010944
 30
0.0
 10
6.562563477613924
 20
52.43531348450666
 30
0.0
 10
5.625998024428981
 20
52.38041945148537
 30
0.0
 10
4.22045120706295
 20
52.31331194524039
 30
0.0
 10
2.814039743080845
 20
52.26652004621896
 30
0.0
 10
1.407146598362912
 20
52.2384525891573
 30
0.0
 10
0.4690483544951689
 20
52.23224491853886
 30
0.0
 10
0.0
 20
52.23223192997833
 30
0.0
 10
-0.4690483544951689
 20
52.23224491853886
 30
0.0
 10
-1.407146598362912
 20
52.2384525891573
 30
0.0
 10
-2.814039743080845
 20
52.26652004621896
 30
0.0
 10
-4.22045120706295
 20
52.31331194524039
 30
0.0
 10
-5.625998024428981
 20
52.38041945148537
 30
0.0
 10
-6.562563477613924
 20
52.43531348450666
 30
0.0
 10
-7.0301022308364
 20
52.47254934010944
 30
0.0
 10
-7.313470046860512
 20
52.49511740106101
 30
0.0
 10
-7.876581495240822
 20
52.60456077763007
 30
0.0
 10
-8.633718955469018
 20
53.05406063278841
 30
0.0
 10
-9.033767043634876
 20
53.83790010844812
 30
0.0
 10
-9.151196355778506
 20
54.68733924031564
 30
0.0
 10
-9.143544739569272
 20
55.25721214360642
 30
0.0
 10
-9.13221468233378
 20
55.5414008011189
 30
0.0
 10
-9.117345357199108
 20
55.91436392569177
 30
0.0
 10
-9.074648523090154
 20
56.65966187236906
 30
0.0
 10
-9.01510336034576
 20
57.77782420633875
 30
0.0
 10
-8.956399803022657
 20
58.89603794835364
 30
0.0
 10
-8.897977922285413
 20
60.01426438688145
 30
0.0
 10
-8.839105480059294
 20
61.13246878000811
 30
0.0
 10
-8.780085823332008
 20
62.25066094539191
 30
0.0
 10
-8.721879822888924
 20
63.36891219727121
 30
0.0
 10
-8.663138844661376
 20
64.48707418584328
 30
0.0
 10
-8.605021510660244
 20
65.60549716023637
 30
0.0
 10
-8.531923026876344
 20
66.72226767277711
 30
0.0
 10
-8.452320362030152
 20
67.8414483743579
 30
0.0
 10
-8.20825182657406
 20
68.93564379270768
 30
0.0
 10
-8.064683008360953
 20
69.66789737138063
 30
0.0
 10
-7.991000046896874
 20
70.03385647168777
 30
0.0
 10
-7.980398651987709
 20
70.08651012276081
 30
0.0
 10
-7.957535446234765
 20
70.18909268160178
 30
0.0
 10
-7.935491487815928
 20
70.3543671175765
 30
0.0
 10
-7.806335493834906
 20
70.46196169571688
 30
0.0
 10
-7.664923517580737
 20
70.53481906195894
 30
0.0
 10
-7.513957397310124
 20
70.59037924476246
 30
0.0
 10
-7.359789171497413
 20
70.63393914696391
 30
0.0
 10
-7.20350164150133
 20
70.66964927600513
 30
0.0
 10
-7.045989080408378
 20
70.69921343125489
 30
0.0
 10
-6.887625071114582
 20
70.72382324701877
 30
0.0
 10
-6.728708783259899
 20
70.7445042996936
 30
0.0
 10
-6.62253099552185
 20
70.75639256576144
 30
0.0
 10
-6.569347735165957
 20
70.76136844014988
 30
0.0
 10
-6.132920551524141
 20
70.80220096585384
 30
0.0
 10
-5.25684385601041
 20
70.83502352072546
 30
0.0
 10
-3.943343160003768
 20
70.88853799333891
 30
0.0
 10
-2.629130065650664
 20
70.92544105218184
 30
0.0
 10
-1.314673008388236
 20
70.94992722899885
 30
0.0
 10
-0.4382270553485975
 20
70.95666632214656
 30
0.0
 10
0.0
 20
70.956679622592
 30
0.0
  0
SPLINE
  5
89
330
1F
100
AcDbEntity
  8
0
370
    -3
100
AcDbSpline
210
0.0
220
0.0
230
1.0
 70
    12
 71
     3
 72
    16
 73
    12
 74
     0
 42
0.000000001
 43
0.0000000001
 40
21.09982715097699
 40
21.09982715097699
 40
21.09982715097699
 40
21.09982715097699
 40
28.8662680986499
 40
28.8662680986499
 40
28.8662680986499
 40
29.8662680986499
 40
30.8662680986499
 40
31.8662680986499
 40
31.8662680986499
 40
31.8662680986499
 40
34.143646211954
 40
34.143646211954
 40
34.143646211954
 40
34.143646211954
 10
-7.865147243868199
 20
71.48798921875138
 30
0.0
 41
0.9686430816496343
 10
-8.297779942588264
 20
71.85683036523302
 30
0.0
 41
0.9686430816496343
 10
-8.730412641308329
 20
72.22567151171465
 30
0.0
 41
0.9686430816496343
 10
-9.163045340028393
 20
72.5945126581963
 30
0.0
 41
0.9686430816496343
 10
-9.293072518713773
 20
72.70536737121724
 30
0.0
 41
0.9686430816496343
 10
-9.680471328323767
 20
72.78468901231776
 30
0.0
 41
0.9686430816496343
 10
-10.07206139886102
 20
72.35242509396288
 30
0.0
 41
0.9686430816496343
 10
-9.967118014974966
 20
71.97310037943751
 30
0.0
 41
0.9686430816496343
 10
-9.839566862580048
 20
71.85937225273693
 30
0.0
 41
0.9686430816496343
 10
-9.272960182540038
 20
71.35417010373969
 30
0.0
 41
0.9686430816496343
 10
-8.706353502500026
 20
70.84896795474246
 30
0.0
 41
0.9686430816496343
 10
-8.139746822460014
 20
70.34376580574522
 30
0.0
 41
0.9686430816496343
  0
SPLINE
  5
8A
330
1F
100
AcDbEntity
  8
0
370
    -3
100
AcDbSpline
210
0.0
220
0.0
230
1.0
 70
     8
 71
     3
 72
    10
 73
     6
 74
     0
 42
0.000000001
 43
0.0000000001
 40
0.0
 40
0.0
 40
0.0
 40
0.0
 40
1.0
 40
2.0
 40
3.0
 40
3.0
 40
3.0
 40
3.0
 10
-9.148354728350956
 20
54.29883475247665
 30
0.0
 10
-9.231169427287352
 20
54.19838310824179
 30
0.0
 10
-9.374117337723558
 20
53.95458616377307
 30
0.0
 10
-9.24199626559438
 20
53.54236501042354
 30
0.0
 10
-8.988991197327806
 20
53.41257720881524
 30
0.0
 10
-8.856934464347924
 20
53.40342168745139
 30
0.0
  0
POLYLINE
  5
8B
330
1F
100
AcDbEntity
  8
0
100
AcDb2dPolyline
 66
     1
 10
0.0
 20
0.0
 30
0.0
  0
VERTEX
  5
8C
330
8B
100
AcDbEntity
  8
0
100
AcDbVertex
100
AcDb2dVertex
 10
0.0000000467284309
 20
68.85184065874364
 30
0.0
  0
VERTEX
  5
8D
330
8B
100
AcDbEntity
  8
0
100
AcDbVertex
100
AcDb2dVertex
 10
0.0000000467064503
 20
67.79220454749463
 30
0.0
  0
SEQEND
  5
8E
330
8B
100
AcDbEntity
  8
0
  0
POLYLINE
  5
8F
330
1F
100
AcDbEntity
  8
0
100
AcDb2dPolyline
 66
     1
 10
0.0
 20
0.0
 30
0.0
  0
VERTEX
  5
90
330
8F
100
AcDbEntity
  8
0
100
AcDbVertex
100
AcDb2dVertex
 10
0.0000000467063774
 20
62.49289504183926
 30
0.0
  0
VERTEX
  5
91
330
8F
100
AcDbEntity
  8
0
100
AcDbVertex
100
AcDb2dVertex
 10
0.0000000467051979
 20
59.19492004739527
 30
0.0
  0
SEQEND
  5
92
330
8F
100
AcDbEntity
  8
0
  0
SPLINE
  5
93
330
1F
100
AcDbEntity
  8
0
370
    -3
100
AcDbSpline
210
0.0
220
0.0
230
1.0
 70
    12
 71
     3
 72
    16
 73
    12
 74
     0
 42
0.000000001
 43
0.0000000001
 40
21.09982715097699
 40
21.09982715097699
 40
21.09982715097699
 40
21.09982715097699
 40
28.8662680986499
 40
28.8662680986499
 40
28.8662680986499
 40
29.8662680986499
 40
30.8662680986499
 40
31.8662680986499
 40
31.8662680986499
 40
31.8662680986499
 40
34.143646211954
 40
34.143646211954
 40
34.143646211954
 40
34.143646211954
 10
7.865147243868199
 20
71.48798921875138
 30
0.0
 41
0.9686430816496343
 10
8.297779942588264
 20
71.85683036523302
 30
0.0
 41
0.9686430816496343
 10
8.730412641308329
 20
72.22567151171465
 30
0.0
 41
0.9686430816496343
 10
9.163045340028393
 20
72.5945126581963
 30
0.0
 41
0.9686430816496343
 10
9.293072518713773
 20
72.70536737121724
 30
0.0
 41
0.9686430816496343
 10
9.680471328323767
 20
72.78468901231776
 30
0.0
 41
0.9686430816496343
 10
10.07206139886102
 20
72.35242509396288
 30
0.0
 41
0.9686430816496343
 10
9.967118014974966
 20
71.97310037943751
 30
0.0
 41
0.9686430816496343
 10
9.839566862580048
 20
71.85937225273693
 30
0.0
 41
0.9686430816496343
 10
9.272960182540038
 20
71.35417010373969
 30
0.0
 41
0.9686430816496343
 10
8.706353502500026
 20
70.84896795474246
 30
0.0
 41
0.9686430816496343
 10
8.139746822460014
 20
70.34376580574522
 30
0.0
 41
0.9686430816496343
  0
SPLINE
  5
94
330
1F
100
AcDbEntity
  8
0
370
    -3
100
AcDbSpline
210
0.0
220
0.0
230
1.0
 70
     8
 71
     3
 72
    10
 73
     6
 74
     0
 42
0.000000001
 43
0.0000000001
 40
0.0
 40
0.0
 40
0.0
 40
0.0
 40
1.0
 40
2.0
 40
3.0
 40
3.0
 40
3.0
 40
3.0
 10
9.148354728350956
 20
54.29883475247665
 30
0.0
 10
9.231169427287352
 20
54.19838310824179
 30
0.0
 10
9.374117337723558
 20
53.95458616377307
 30
0.0
 10
9.24199626559438
 20
53.54236501042354
 30
0.0
 10
8.988991197327806
 20
53.41257720881524
 30
0.0
 10
8.856934464347924
 20
53.40342168745139
 30
0.0
  0
POLYLINE
  5
95
330
1F
100
AcDbEntity
  8
0
100
AcDb2dPolyline
 66
     1
 10
0.0
 20
0.0
 30
0.0
  0
VERTEX
  5
96
330
95
100
AcDbEntity
  8
0
100
AcDbVertex
100
AcDb2dVertex
 10
0.0
 20
24.23815679528444
 30
0.0
  0
VERTEX
  5
97
330
95
100
AcDbEntity
  8
0
100
AcDbVertex
100
AcDb2dVertex
 10
0.0
 20
22.66358108896299
 30
0.0
  0
SEQEND
  5
98
330
95
100
AcDbEntity
  8
0
  0
SPLINE
  5
99
330
1F
100
AcDbEntity
  8
0
370
    -3
100
AcDbSpline
210
0.0
220
0.0
230
1.0
 70
    12
 71
     3
 72
    23
 73
    19
 74
     0
 42
0.000000001
 43
0.0000000001
 40
-10.62799966147673
 40
-10.62799966147673
 40
-10.62799966147673
 40
-10.62799966147673
 40
-0.9999999999999304
 40
-0.9999999999999304
 40
-0.9999999999999304
 40
0.0000000000000696
 40
0.0000000000000696
 40
0.0000000000000696
 40
6.008471928741708
 40
6.008471928741708
 40
6.008471928741708
 40
12.01694385748335
 40
12.01694385748335
 40
12.01694385748335
 40
13.01694385748335
 40
13.01694385748335
 40
13.01694385748335
 40
22.64494351896015
 40
22.64494351896015
 40
22.64494351896015
 40
22.64494351896015
 10
-6.468672064445393
 20
12.61652959971383
 30
0.0
 41
0.8535854487995107
 10
-5.887136226724314
 20
15.73242066003201
 30
0.0
 41
0.8535854487995107
 10
-5.305600389003238
 20
18.84831172035018
 30
0.0
 41
0.8535854487995107
 10
-4.724064551282161
 20
21.96420278066836
 30
0.0
 41
0.8535854487995107
 10
-4.664397557163129
 20
22.28390079670142
 30
0.0
 41
0.8535854487995107
 10
-4.536337979208438
 20
22.52195144141983
 30
0.0
 41
0.8535854487995107
 10
-4.248631245382454
 20
22.52923173742984
 30
0.0
 41
0.8535854487995107
 10
-2.832420830254969
 20
22.56506833707235
 30
0.0
 41
0.8535854487995107
 10
-1.416210415127485
 20
22.60090493671484
 30
0.0
 41
0.8535854487995107
 10
0.0
 20
22.63674153635735
 30
0.0
 41
0.8535854487995107
 10
1.416210415127484
 20
22.60090493671484
 30
0.0
 41
0.8535854487995107
 10
2.832420830254969
 20
22.56506833707235
 30
0.0
 41
0.8535854487995107
 10
4.248631245382454
 20
22.52923173742984
 30
0.0
 41
0.8535854487995107
 10
4.536337979208438
 20
22.52195144141983
 30
0.0
 41
0.8535854487995107
 10
4.664397557163129
 20
22.28390079670142
 30
0.0
 41
0.8535854487995107
 10
4.724064551282161
 20
21.96420278066836
 30
0.0
 41
0.8535854487995107
 10
5.305600389003239
 20
18.84831172035018
 30
0.0
 41
0.8535854487995107
 10
5.887136226724317
 20
15.73242066003201
 30
0.0
 41
0.8535854487995107
 10
6.468672064445393
 20
12.61652959971383
 30
0.0
 41
0.8535854487995107
  0
SPLINE
  5
9A
330
1F
100
AcDbEntity
  8
0
370
    -3
100
AcDbSpline
210
0.0
220
0.0
230
1.0
 70
    12
 71
     3
 72
    47
 73
    43
 74
     0
 42
0.000000001
 43
0.0000000001
 40
-62.40746906513731
 40
-62.40746906513731
 40
-62.40746906513731
 40
-62.40746906513731
 40
-34.17233218665633
 40
-34.17233218665633
 40
-34.17233218665633
 40
-33.17233218665633
 40
-33.17233218665633
 40
-33.17233218665633
 40
-32.12042909198958
 40
-32.12042909198958
 40
-32.12042909198958
 40
-31.12042909198958
 40
-31.12042909198958
 40
-31.12042909198958
 40
-9.112877411763213
 40
-9.112877411763213
 40
-9.112877411763213
 40
-8.112877411763213
 40
-8.112877411763213
 40
-8.112877411763213
 40
0.1249999999765823
 40
0.1249999999765823
 40
0.1249999999765823
 40
8.362877411716378
 40
8.362877411716378
 40
8.362877411716378
 40
9.362877411716378
 40
9.362877411716378
 40
9.362877411716378
 40
31.37042909194274
 40
31.37042909194274
 40
31.37042909194274
 40
32.37042909194274
 40
32.37042909194274
 40
32.37042909194274
 40
33.42233218660949
 40
33.42233218660949
 40
33.42233218660949
 40
34.42233218660949
 40
34.42233218660949
 40
34.42233218660949
 40
62.65746906509047
 40
62.65746906509047
 40
62.65746906509047
 40
62.65746906509047
 10
-7.480833982902384
 20
28.40370054389398
 30
0.0
 41
0.8535564458844906
 10
-8.093359090686754
 20
19.05043751203804
 30
0.0
 41
0.8535564458844908
 10
-8.705884198471123
 20
9.69717448018211
 30
0.0
 41
0.8535564458844908
 10
-9.318409306255496
 20
0.3439114483261776
 30
0.0
 41
0.8535564458844906
 10
-9.321434985485922
 20
0.297709303577277
 30
0.0
 41
0.8535564458844906
 10
-9.269293114795815
 20
0.2600754603148836
 30
0.0
 41
0.8535564458844906
 10
-9.222992003424663
 20
0.2600754603148836
 30
0.0
 41
0.8535564458844906
 10
-8.872357638535744
 20
0.2600754603148836
 30
0.0
 41
0.8535564458844906
 10
-8.521723273646826
 20
0.2600754603148836
 30
0.0
 41
0.8535564458844906
 10
-8.171088908757907
 20
0.2600754603148836
 30
0.0
 41
0.8535564458844906
 10
-8.11312191682994
 20
0.2600754603148836
 30
0.0
 41
0.8535564458844906
 10
-8.080741221776742
 20
0.2925360019494408
 30
0.0
 41
0.8535564458844906
 10
-8.076019169486054
 20
0.3510374619103805
 30
0.0
 41
0.8535564458844906
 10
-7.489082497033476
 20
7.622590195623973
 30
0.0
 41
0.8535564458844908
 10
-6.902145824580897
 20
14.89414292933756
 30
0.0
 41
0.8535564458844908
 10
-6.315209152128318
 20
22.16569566305117
 30
0.0
 41
0.8535564458844906
 10
-6.284335908723214
 20
22.5481839757049
 30
0.0
 41
0.8535564458844906
 10
-6.095526400228198
 20
22.81782578090798
 30
0.0
 41
0.8535564458844906
 10
-5.825058980424862
 20
22.81098171837597
 30
0.0
 41
0.8535564458844906
 10
-3.883372653616574
 20
22.76184817523831
 30
0.0
 41
0.8535564458844906
 10
-1.941686326808287
 20
22.71271463210065
 30
0.0
 41
0.8535564458844906
 10
0.0
 20
22.663581088963
 30
0.0
 41
0.8535564458844906
 10
1.941686326808287
 20
22.71271463210065
 30
0.0
 41
0.8535564458844906
 10
3.883372653616574
 20
22.76184817523831
 30
0.0
 41
0.8535564458844906
 10
5.825058980424862
 20
22.81098171837597
 30
0.0
 41
0.8535564458844906
 10
6.095526400228198
 20
22.81782578090798
 30
0.0
 41
0.8535564458844906
 10
6.284335908723214
 20
22.5481839757049
 30
0.0
 41
0.8535564458844906
 10
6.315209152128318
 20
22.16569566305116
 30
0.0
 41
0.8535564458844906
 10
6.902145824580897
 20
14.89414292933756
 30
0.0
 41
0.8535564458844908
 10
7.489082497033476
 20
7.622590195623973
 30
0.0
 41
0.8535564458844908
 10
8.076019169486054
 20
0.3510374619103805
 30
0.0
 41
0.8535564458844906
 10
8.080741221776742
 20
0.2925360019494408
 30
0.0
 41
0.8535564458844906
 10
8.11312191682994
 20
0.2600754603148836
 30
0.0
 41
0.8535564458844906
 10
8.171088908757907
 20
0.2600754603148836
 30
0.0
 41
0.8535564458844906
 10
8.521723273646826
 20
0.2600754603148836
 30
0.0
 41
0.8535564458844906
 10
8.872357638535744
 20
0.2600754603148836
 30
0.0
 41
0.8535564458844906
 10
9.222992003424663
 20
0.2600754603148836
 30
0.0
 41
0.8535564458844906
 10
9.269293114795815
 20
0.2600754603148836
 30
0.0
 41
0.8535564458844906
 10
9.321434985485922
 20
0.297709303577277
 30
0.0
 41
0.8535564458844906
 10
9.318409306255496
 20
0.3439114483261776
 30
0.0
 41
0.8535564458844906
 10
8.705884198471125
 20
9.697174480182111
 30
0.0
 41
0.8535564458844906
 10
8.093359090686754
 20
19.05043751203804
 30
0.0
 41
0.8535564458844906
 10
7.480833982902384
 20
28.40370054389398
 30
0.0
 41
0.8535564458844906
  0
SPLINE
  5
9B
330
1F
100
AcDbEntity
  8
0
370
    -3
100
AcDbSpline
210
0.0
220
0.0
230
1.0
 70
    12
 71
     3
 72
    23
 73
    19
 74
     0
 42
0.000000001
 43
0.0000000001
 40
-18.67971430498496
 40
-18.67971430498496
 40
-18.67971430498496
 40
-18.67971430498496
 40
-15.35921190299661
 40
-15.35921190299661
 40
-15.35921190299661
 40
-14.35921190299661
 40
-14.35921190299661
 40
-14.35921190299661
 40
-6.218746001708138
 40
-6.218746001708138
 40
-6.218746001708138
 40
1.921719899580338
 40
1.921719899580338
 40
1.921719899580338
 40
2.921719899580338
 40
2.921719899580338
 40
2.921719899580338
 40
6.242222301568686
 40
6.242222301568686
 40
6.242222301568686
 40
6.242222301568686
 10
-6.186505495687764
 20
28.29868871460273
 30
0.0
 41
0.8535534036062348
 10
-6.171894586249023
 20
27.19203210759667
 30
0.0
 41
0.8535534036062348
 10
-6.157283676810281
 20
26.08537550059061
 30
0.0
 41
0.8535534036062348
 10
-6.142672767371539
 20
24.97871889358455
 30
0.0
 41
0.8535534036062348
 10
-6.138193245156375
 20
24.63943180975
 30
0.0
 41
0.8535534036062348
 10
-5.979670627090299
 20
24.3894698063795
 30
0.0
 41
0.8535534036062348
 10
-5.756178640819199
 20
24.38381443712804
 30
0.0
 41
0.8535534036062348
 10
-3.837452427212799
 20
24.33526188984684
 30
0.0
 41
0.8535534036062348
 10
-1.918726213606399
 20
24.28670934256564
 30
0.0
 41
0.8535534036062348
 10
0.0
 20
24.23815679528444
 30
0.0
 41
0.8535534036062348
 10
1.918726213606399
 20
24.28670934256564
 30
0.0
 41
0.8535534036062348
 10
3.837452427212799
 20
24.33526188984684
 30
0.0
 41
0.8535534036062348
 10
5.756178640819199
 20
24.38381443712804
 30
0.0
 41
0.8535534036062348
 10
5.979670627090299
 20
24.3894698063795
 30
0.0
 41
0.8535534036062348
 10
6.138193245156375
 20
24.63943180975
 30
0.0
 41
0.8535534036062348
 10
6.142672767371539
 20
24.97871889358455
 30
0.0
 41
0.8535534036062348
 10
6.15728367681028
 20
26.0853755005906
 30
0.0
 41
0.8535534036062348
 10
6.171894586249023
 20
27.19203210759667
 30
0.0
 41
0.8535534036062348
 10
6.186505495687764
 20
28.29868871460273
 30
0.0
 41
0.8535534036062348
  0
SPLINE
  5
9C
330
1F
100
AcDbEntity
  8
0
370
    -3
100
AcDbSpline
210
0.0
220
0.0
230
1.0
 70
     8
 71
     3
 72
    17
 73
    13
 74
     0
 42
0.000000001
 43
0.0000000001
 40
0.0
 40
0.0
 40
0.0
 40
0.0
 40
1.0
 40
2.0
 40
3.0
 40
4.0
 40
4.0
 40
4.0
 40
5.0
 40
6.0
 40
7.0
 40
8.0
 40
8.0
 40
8.0
 40
8.0
 10
6.182582426159881
 20
27.97851062587075
 30
0.0
 10
5.679731671632187
 20
27.85204569814765
 30
0.0
 10
4.669509647095039
 20
27.61689746467783
 30
0.0
 10
3.14086686516008
 20
27.32692620295087
 30
0.0
 10
1.601673625620929
 20
27.10033692760657
 30
0.0
 10
0.5677943768176463
 20
27.00033872858041
 30
0.0
 10
0.0
 20
27.00033872858041
 30
0.0
 10
-0.5677943768176463
 20
27.00033872858041
 30
0.0
 10
-1.601673625620929
 20
27.10033692760657
 30
0.0
 10
-3.14086686516008
 20
27.32692620295087
 30
0.0
 10
-4.669509647095039
 20
27.61689746467783
 30
0.0
 10
-5.679731671632187
 20
27.85204569814765
 30
0.0
 10
-6.182582426159881
 20
27.97851062587075
 30
0.0
  0
SPLINE
  5
9D
330
1F
100
AcDbEntity
  8
0
370
    -3
100
AcDbSpline
210
0.0
220
0.0
230
1.0
 70
     8
 71
     3
 72
    17
 73
    13
 74
     0
 42
0.000000001
 43
0.0000000001
 40
-4.0
 40
-4.0
 40
-4.0
 40
-4.0
 40
-2.999990278076738
 40
-1.999980556153475
 40
-0.9999708342302129
 40
0.0
 40
0.0
 40
0.0
 40
0.9999708342302128
 40
1.999980556153475
 40
2.999990278076738
 40
4.0
 40
4.0
 40
4.0
 40
4.0
 10
-8.006291578883525
 20
28.44493538646733
 30
0.0
 10
-7.339968617094843
 20
28.3952363110598
 30
0.0
 10
-6.009157025174657
 20
28.27236293665041
 30
0.0
 10
-4.007926895136613
 20
28.15335495516564
 30
0.0
 10
-2.004488728294705
 20
28.08469300295355
 30
0.0
 10
-0.6681406277091739
 20
28.07134363480633
 30
0.0
 10
0.0
 20
28.07127002069545
 30
0.0
 10
0.6681406277091743
 20
28.07134363480633
 30
0.0
 10
2.004488728294705
 20
28.08469300295355
 30
0.0
 10
4.007926895136613
 20
28.15335495516564
 30
0.0
 10
6.009157025174657
 20
28.27236293665041
 30
0.0
 10
7.339968617094843
 20
28.3952363110598
 30
0.0
 10
8.006291578883525
 20
28.44493538646733
 30
0.0
  0
SPLINE
  5
9E
330
1F
100
AcDbEntity
  8
0
370
    -3
100
AcDbSpline
210
0.0
220
0.0
230
1.0
 70
     8
 71
     3
 72
    19
 73
    15
 74
     0
 42
0.000000001
 43
0.0000000001
 40
0.0
 40
0.0
 40
0.0
 40
0.0
 40
1.0
 40
2.0
 40
3.0
 40
4.0
 40
5.0
 40
5.0
 40
5.0
 40
6.0
 40
7.0
 40
8.0
 40
9.0
 40
10.0
 40
10.0
 40
10.0
 40
10.0
 10
9.132127881158729
 20
28.97724945051248
 30
0.0
 10
8.524662564569176
 20
28.98117942505564
 30
0.0
 10
7.306811359320524
 20
28.92312943093324
 30
0.0
 10
5.480768619446057
 20
28.87337248824263
 30
0.0
 10
3.65400579743795
 20
28.83288706959442
 30
0.0
 10
1.827103866361776
 20
28.80674440030443
 30
0.0
 10
0.6090326045641433
 20
28.80025165550067
 30
0.0
 10
0.0
 20
28.80026256014925
 30
0.0
 10
-0.6090326045641433
 20
28.80025165550067
 30
0.0
 10
-1.827103866361776
 20
28.80674440030443
 30
0.0
 10
-3.65400579743795
 20
28.83288706959442
 30
0.0
 10
-5.480768619446057
 20
28.87337248824263
 30
0.0
 10
-7.306811359320524
 20
28.92312943093324
 30
0.0
 10
-8.524662564569176
 20
28.98117942505564
 30
0.0
 10
-9.132127881158729
 20
28.97724945051248
 30
0.0
  0
SPLINE
  5
9F
330
1F
100
AcDbEntity
  8
0
370
    -3
100
AcDbSpline
210
0.0
220
0.0
230
1.0
 70
     8
 71
     3
 72
    19
 73
    15
 74
     0
 42
0.000000001
 43
0.0000000001
 40
0.0
 40
0.0
 40
0.0
 40
0.0
 40
1.0
 40
2.0
 40
3.0
 40
4.0
 40
5.0
 40
5.0
 40
5.0
 40
6.0
 40
7.0
 40
8.0
 40
9.0
 40
10.0
 40
10.0
 40
10.0
 40
10.0
 10
9.140878219276013
 20
30.07872510363918
 30
0.0
 10
8.532283342667348
 20
30.08433909383605
 30
0.0
 10
7.313376488707466
 20
30.03236516804348
 30
0.0
 10
5.485669222800372
 20
29.97949961528134
 30
0.0
 10
3.657336300086607
 20
29.93570389773302
 30
0.0
 10
1.828767237590336
 20
29.90884462982015
 30
0.0
 10
0.6095884856924398
 20
29.90216043694668
 30
0.0
 10
0.0
 20
29.90214258868476
 30
0.0
 10
-0.6095884856924398
 20
29.90216043694668
 30
0.0
 10
-1.828767237590336
 20
29.90884462982015
 30
0.0
 10
-3.657336300086607
 20
29.93570389773302
 30
0.0
 10
-5.485669222800372
 20
29.97949961528134
 30
0.0
 10
-7.313376488707466
 20
30.03236516804348
 30
0.0
 10
-8.532283342667348
 20
30.08433909383605
 30
0.0
 10
-9.140878219276013
 20
30.07872510363918
 30
0.0
  0
SPLINE
  5
A0
330
1F
100
AcDbEntity
  8
0
370
    -3
100
AcDbSpline
210
0.0
220
0.0
230
1.0
 70
    12
 71
     3
 72
    77
 73
    73
 74
     0
 42
0.000000001
 43
0.0000000001
 40
-23.16171615183329
 40
-23.16171615183329
 40
-23.16171615183329
 40
-23.16171615183329
 40
-23.0
 40
-23.0
 40
-23.0
 40
-22.0
 40
-21.0
 40
-20.0
 40
-19.0
 40
-18.0
 40
-18.0
 40
-18.0
 40
-17.0
 40
-16.0
 40
-15.0
 40
-15.0
 40
-15.0
 40
-14.0
 40
-13.0
 40
-12.0
 40
-12.0
 40
-12.0
 40
-11.0
 40
-10.0
 40
-9.0
 40
-8.0
 40
-7.0
 40
-6.0
 40
-5.0
 40
-5.0
 40
-5.0
 40
-4.0
 40
-3.0
 40
-2.0
 40
-1.0
 40
0.0
 40
0.0
 40
0.0
 40
1.0
 40
2.0
 40
3.0
 40
4.0
 40
5.0
 40
5.0
 40
5.0
 40
6.0
 40
7.0
 40
8.0
 40
9.0
 40
10.0
 40
11.0
 40
12.0
 40
12.0
 40
12.0
 40
13.0
 40
14.0
 40
15.0
 40
15.0
 40
15.0
 40
16.0
 40
17.0
 40
18.0
 40
18.0
 40
18.0
 40
19.0
 40
20.0
 40
21.0
 40
22.0
 40
23.0
 40
23.0
 40
23.0
 40
23.16171615183329
 40
23.16171615183329
 40
23.16171615183329
 40
23.16171615183329
 10
-7.617187235645086
 20
28.36160124432508
 30
0.0
 41
1.0
 10
-7.638229473237436
 20
28.30809242343617
 30
0.0
 41
0.8810929905863786
 10
-7.686019035980882
 20
28.27612169669116
 30
0.0
 41
0.8810929905863786
 10
-7.743508381914401
 20
28.27709369460812
 30
0.0
 41
1.0
 10
-7.795671334043422
 20
28.27797563681827
 30
0.0
 41
1.0
 10
-7.896664387900712
 20
28.30399803467486
 30
0.0
 41
1.0
 10
-8.044388853200108
 20
28.35256594960448
 30
0.0
 41
1.0
 10
-8.191317504476155
 20
28.40405945725009
 30
0.0
 41
1.0
 10
-8.338849563867948
 20
28.45362649625161
 30
0.0
 41
1.0
 10
-8.436952871380358
 20
28.48720088597668
 30
0.0
 41
1.0
 10
-8.486436093624329
 20
28.50279261436226
 30
0.0
 41
1.0
 10
-8.573294555460777
 20
28.53016095222567
 30
0.0
 41
1.0
 10
-8.742696680953305
 20
28.59941417118488
 30
0.0
 41
1.0
 10
-8.969435066687723
 20
28.7556742201646
 30
0.0
 41
1.0
 10
-9.086567923831115
 20
28.89786271352986
 30
0.0
 41
1.0
 10
-9.132127881158729
 20
28.97724945051248
 30
0.0
 41
1.0
 10
-9.16400258930971
 20
29.09660703955195
 30
0.0
 41
1.0
 10
-9.205007775594755
 20
29.34116037964245
 30
0.0
 41
1.0
 10
-9.205296910957344
 20
29.71284668696375
 30
0.0
 41
1.0
 10
-9.168447795987454
 20
29.95779468474937
 30
0.0
 41
1.0
 10
-9.140878219276013
 20
30.07872510363918
 30
0.0
 41
1.0
 10
-9.001550702389494
 20
30.2193737236961
 30
0.0
 41
1.0
 10
-8.636883589145846
 20
30.37939298131059
 30
0.0
 41
1.0
 10
-8.06703808151785
 20
30.51921181487746
 30
0.0
 41
1.0
 10
-7.485275119187667
 20
30.60498155460012
 30
0.0
 41
1.0
 10
-6.900153756003215
 20
30.65550094932023
 30
0.0
 41
1.0
 10
-6.313585133284692
 20
30.68534813511756
 30
0.0
 41
1.0
 10
-5.726587764251439
 20
30.70291745864456
 30
0.0
 41
1.0
 10
-5.335182936649389
 20
30.71166026099262
 30
0.0
 41
1.0
 10
-5.139473441097723
 20
30.71566751366197
 30
0.0
 41
1.0
 10
-4.796905676384293
 20
30.72268176499255
 30
0.0
 41
1.0
 10
-4.111622091027471
 20
30.73380078555091
 30
0.0
 41
1.0
 10
-3.083742715930637
 20
30.7431968837018
 30
0.0
 41
1.0
 10
-2.055833893077828
 20
30.74778699869037
 30
0.0
 41
1.0
 10
-1.027917712592062
 20
30.74985005122908
 30
0.0
 41
1.0
 10
-0.3426392896104652
 20
30.7500892491026
 30
0.0
 41
1.0
 10
0.0
 20
30.75012765668315
 30
0.0
 41
1.0
 10
0.3426392896104652
 20
30.7500892491026
 30
0.0
 41
1.0
 10
1.027917712592062
 20
30.74985005122908
 30
0.0
 41
1.0
 10
2.055833893077828
 20
30.74778699869037
 30
0.0
 41
1.0
 10
3.083742715930637
 20
30.7431968837018
 30
0.0
 41
1.0
 10
4.111622091027471
 20
30.73380078555091
 30
0.0
 41
1.0
 10
4.796905676384293
 20
30.72268176499255
 30
0.0
 41
1.0
 10
5.139473441097723
 20
30.71566751366197
 30
0.0
 41
1.0
 10
5.335182936649389
 20
30.71166026099262
 30
0.0
 41
1.0
 10
5.726587764251439
 20
30.70291745864456
 30
0.0
 41
1.0
 10
6.313585133284692
 20
30.68534813511756
 30
0.0
 41
1.0
 10
6.900153756003215
 20
30.65550094932023
 30
0.0
 41
1.0
 10
7.485275119187667
 20
30.60498155460012
 30
0.0
 41
1.0
 10
8.06703808151785
 20
30.51921181487746
 30
0.0
 41
1.0
 10
8.636883589145846
 20
30.37939298131059
 30
0.0
 41
1.0
 10
9.001550702389494
 20
30.2193737236961
 30
0.0
 41
1.0
 10
9.140878219276013
 20
30.07872510363918
 30
0.0
 41
1.0
 10
9.168447795987454
 20
29.95779468474937
 30
0.0
 41
1.0
 10
9.205296910957344
 20
29.71284668696375
 30
0.0
 41
1.0
 10
9.205007775594755
 20
29.34116037964245
 30
0.0
 41
1.0
 10
9.16400258930971
 20
29.09660703955195
 30
0.0
 41
1.0
 10
9.132127881158729
 20
28.97724945051248
 30
0.0
 41
1.0
 10
9.086567923831115
 20
28.89786271352986
 30
0.0
 41
1.0
 10
8.969435066687723
 20
28.7556742201646
 30
0.0
 41
1.0
 10
8.742696680953305
 20
28.59941417118488
 30
0.0
 41
1.0
 10
8.573294555460777
 20
28.53016095222567
 30
0.0
 41
1.0
 10
8.486436093624329
 20
28.50279261436226
 30
0.0
 41
1.0
 10
8.436952871380358
 20
28.48720088597668
 30
0.0
 41
1.0
 10
8.338849563867948
 20
28.45362649625161
 30
0.0
 41
1.0
 10
8.191317504476155
 20
28.40405945725009
 30
0.0
 41
1.0
 10
8.044388853200108
 20
28.35256594960448
 30
0.0
 41
1.0
 10
7.896664387900712
 20
28.30399803467486
 30
0.0
 41
1.0
 10
7.795671334043422
 20
28.27797563681827
 30
0.0
 41
1.0
 10
7.743508381914401
 20
28.27709369460812
 30
0.0
 41
1.0
 10
7.686019035980882
 20
28.27612169669116
 30
0.0
 41
0.8810929905863786
 10
7.638229473237436
 20
28.30809242343617
 30
0.0
 41
0.8810929905863786
 10
7.617187235645086
 20
28.36160124432508
 30
0.0
 41
1.0
  0
SPLINE
  5
A1
330
1F
100
AcDbEntity
  8
0
370
    -3
100
AcDbSpline
210
0.0
220
0.0
230
1.0
 70
     8
 71
     3
 72
    11
 73
     7
 74
     0
 42
0.000000001
 43
0.0000000001
 40
-1.0
 40
-1.0
 40
-1.0
 40
-1.0
 40
0.0
 40
0.0
 40
0.0
 40
1.0
 40
1.0
 40
1.0
 40
1.0
 10
-2.500137202010034
 20
35.90046599223172
 30
0.0
 10
-1.666430818155287
 20
35.8931601651478
 30
0.0
 10
-0.8304250933667199
 20
35.90175107433777
 30
0.0
 10
0.0
 20
35.81816130996946
 30
0.0
 10
0.8304250933667199
 20
35.90175107433777
 30
0.0
 10
1.666430818155287
 20
35.8931601651478
 30
0.0
 10
2.500137202010034
 20
35.90046599223172
 30
0.0
  0
SPLINE
  5
A2
330
1F
100
AcDbEntity
  8
0
370
    -3
100
AcDbSpline
210
0.0
220
0.0
230
1.0
 70
    12
 71
     3
 72
    37
 73
    33
 74
     0
 42
0.000000001
 43
0.0000000001
 40
-7.373750427422864
 40
-7.373750427422864
 40
-7.373750427422864
 40
-7.373750427422864
 40
-6.373750427422864
 40
-5.373750427422864
 40
-4.373750427422864
 40
-4.373750427422864
 40
-4.373750427422864
 40
-4.0
 40
-4.0
 40
-4.0
 40
-3.0
 40
-3.0
 40
-3.0
 40
-2.0
 40
-1.0
 40
0.0
 40
0.0
 40
0.0
 40
1.0
 40
2.0
 40
3.0
 40
3.0
 40
3.0
 40
4.0
 40
4.0
 40
4.0
 40
4.373750427422864
 40
4.373750427422864
 40
4.373750427422864
 40
5.373750427422864
 40
6.373750427422864
 40
7.373750427422864
 40
7.373750427422864
 40
7.373750427422864
 40
7.373750427422864
 10
-8.452755832731883
 20
30.41786326987644
 30
0.0
 41
1.0
 10
-8.371693466829889
 20
31.36222196593167
 30
0.0
 41
1.0
 10
-8.309797290404745
 20
33.25735837278958
 30
0.0
 41
1.0
 10
-8.181355921274271
 20
36.09767917484549
 30
0.0
 41
1.0
 10
-8.095713811159408
 20
37.99139643118292
 30
0.0
 41
1.0
 10
-8.0518179361693
 20
38.93817187721747
 30
0.0
 41
1.0
 10
-8.035411833635944
 20
39.29202961549426
 30
0.0
 41
0.9999999398181488
 10
-8.018855376125808
 20
39.64588035076752
 30
0.0
 41
0.9999999398181488
 10
-8.002148566628081
 20
39.99972401915102
 30
0.0
 41
1.0
 10
-7.947383856520197
 20
41.15961908619834
 30
0.0
 41
1.0
 10
-7.325539936380809
 20
41.82807190339209
 30
0.0
 41
1.0
 10
-6.178706093786027
 20
41.87787075545827
 30
0.0
 41
1.0
 10
-5.492701139255881
 20
41.90765908047841
 30
0.0
 41
1.0
 10
-4.119709080216545
 20
41.94510124210325
 30
0.0
 41
1.0
 10
-2.060116830950647
 20
41.99172635396189
 30
0.0
 41
1.0
 10
-0.6867138676184086
 20
42.00582360808413
 30
0.0
 41
1.0
 10
0.0
 20
42.00599185353248
 30
0.0
 41
1.0
 10
0.6867138676184086
 20
42.00582360808413
 30
0.0
 41
1.0
 10
2.060116830950647
 20
41.99172635396189
 30
0.0
 41
1.0
 10
4.119709080216545
 20
41.94510124210325
 30
0.0
 41
1.0
 10
5.492701139255881
 20
41.90765908047841
 30
0.0
 41
1.0
 10
6.178706093786027
 20
41.87787075545827
 30
0.0
 41
1.0
 10
7.325539936380809
 20
41.82807190339209
 30
0.0
 41
1.0
 10
7.947383856520197
 20
41.15961908619834
 30
0.0
 41
1.0
 10
8.002148566628081
 20
39.99972401915102
 30
0.0
 41
1.0
 10
8.018855376125806
 20
39.64588035076752
 30
0.0
 41
0.9999999398181488
 10
8.035411833635944
 20
39.29202961549426
 30
0.0
 41
0.9999999398181488
 10
8.0518179361693
 20
38.93817187721747
 30
0.0
 41
1.0
 10
8.095713811159408
 20
37.99139643118292
 30
0.0
 41
1.0
 10
8.181355921274271
 20
36.09767917484549
 30
0.0
 41
1.0
 10
8.309797290404745
 20
33.25735837278958
 30
0.0
 41
1.0
 10
8.371693466829889
 20
31.36222196593167
 30
0.0
 41
1.0
 10
8.452755832731883
 20
30.41786326987644
 30
0.0
 41
1.0
  0
SPLINE
  5
A3
330
1F
100
AcDbEntity
  8
0
370
    -3
100
AcDbSpline
210
0.0
220
0.0
230
1.0
 70
    12
 71
     2
 72
    10
 73
     7
 74
     0
 42
0.000000001
 43
0.0000000001
 40
4.248766736126397
 40
4.248766736126397
 40
4.248766736126397
 40
6.765377920520597
 40
6.765377920520597
 40
7.913069793927575
 40
7.913069793927575
 40
16.30362364831284
 40
16.30362364831284
 40
16.30362364831284
 10
-3.087836844825521
 20
22.71487792879432
 30
0.0
 41
1.0
 10
-3.97759326187307
 20
22.69236302270673
 30
0.0
 41
1.0
 10
-4.86734967892062
 20
22.66984811661914
 30
0.0
 41
1.0
 10
-5.343413302281072
 20
22.65780152997343
 30
0.0
 41
0.7925457558248631
 10
-5.4654082001193
 20
22.0041482434047
 30
0.0
 41
1.0
 10
-6.225598468536186
 20
17.93101997192087
 30
0.0
 41
1.0
 10
-6.98578873695307
 20
13.85789170043703
 30
0.0
 41
1.0
  0
SPLINE
  5
A4
330
1F
100
AcDbEntity
  8
0
370
    -3
100
AcDbSpline
210
0.0
220
0.0
230
1.0
 70
    12
 71
     3
 72
    11
 73
     7
 74
     0
 42
0.000000001
 43
0.0000000001
 40
0.5759340830695828
 40
0.5759340830695828
 40
0.5759340830695828
 40
0.5759340830695828
 40
1.079045096615833
 40
1.079045096615833
 40
1.079045096615833
 40
3.787140823995593
 40
3.787140823995593
 40
3.787140823995593
 40
3.787140823995593
 10
-4.170260407205015
 20
24.34403383423191
 30
0.0
 41
1.0
 10
-4.23301574248473
 20
24.4716092483082
 30
0.0
 41
1.0
 10
-4.260362273194884
 20
24.63692299376159
 30
0.0
 41
1.0
 10
-4.240964476492655
 20
24.7999090991714
 30
0.0
 41
1.0
 10
-4.133771984883687
 20
25.69237308716223
 30
0.0
 41
1.0
 10
-4.026579493274719
 20
26.58483707515307
 30
0.0
 41
1.0
 10
-3.91938700166575
 20
27.4773010631439
 30
0.0
 41
1.0
  0
SPLINE
  5
A5
330
1F
100
AcDbEntity
  8
0
370
    -3
100
AcDbSpline
210
0.0
220
0.0
230
1.0
 70
    12
 71
     2
 72
     8
 73
     5
 74
     0
 42
0.000000001
 43
0.0000000001
 40
0.2235433712045844
 40
0.2235433712045844
 40
0.2235433712045844
 40
3.048477902209381
 40
3.048477902209381
 40
3.531887522957095
 40
3.531887522957095
 40
3.531887522957095
 10
-4.648341599967187
 20
27.62335811961574
 30
0.0
 41
0.9999999996107469
 10
-4.816038690186851
 20
26.2271456222646
 30
0.0
 41
0.9999999996107469
 10
-4.983735780406514
 20
24.83093312491346
 30
0.0
 41
0.9999999996107469
 10
-5.013691889175458
 20
24.58152454371815
 30
0.0
 41
0.9280491959783834
 10
-4.927174168191255
 20
24.36312453623484
 30
0.0
 41
0.9673375375331764
  0
SPLINE
  5
A6
330
1F
100
AcDbEntity
  8
0
370
    -3
100
AcDbSpline
210
0.0
220
0.0
230
1.0
 70
    12
 71
     3
 72
    14
 73
    10
 74
     0
 42
0.000000001
 43
0.0000000001
 40
22.39179468832107
 40
22.39179468832107
 40
22.39179468832107
 40
22.39179468832107
 40
28.93041014534821
 40
28.93041014534821
 40
28.93041014534821
 40
29.93041014534821
 40
29.93041014534821
 40
29.93041014534821
 40
30.61523770469905
 40
30.61523770469905
 40
30.61523770469905
 40
30.61523770469905
 10
-8.898264963642246
 20
6.759518739956342
 30
0.0
 41
0.8535748739980054
 10
-9.262501152409513
 20
4.633185904480031
 30
0.0
 41
0.8535748739980052
 10
-9.62673734117678
 20
2.506853069003715
 30
0.0
 41
0.8535748739980052
 10
-9.990973529944045
 20
0.3805202335274
 30
0.0
 41
0.8535748739980054
 10
-10.00367016227617
 20
0.3064000141193624
 30
0.0
 41
0.8535748739980054
 10
-9.979551922914917
 20
0.2600754603148836
 30
0.0
 41
0.8535748739980054
 10
-9.907819562775497
 20
0.2600754603148836
 30
0.0
 41
0.8535748739980054
 10
-9.679543709658548
 20
0.2600754603148836
 30
0.0
 41
0.8535748739980054
 10
-9.451267856541607
 20
0.2600754603148836
 30
0.0
 41
0.8535748739980054
 10
-9.222992003424663
 20
0.2600754603148836
 30
0.0
 41
0.8535748739980054
  0
SPLINE
  5
A7
330
1F
100
AcDbEntity
  8
0
370
    -3
100
AcDbSpline
210
0.0
220
0.0
230
1.0
 70
     8
 71
     3
 72
     8
 73
     4
 74
     0
 42
0.000000001
 43
0.0000000001
 40
0.0
 40
0.0
 40
0.0
 40
0.0
 40
1.0
 40
1.0
 40
1.0
 40
1.0
 10
-7.829284311189001
 20
28.43158638815257
 30
0.0
 10
-7.719217048926533
 20
28.38324888972951
 30
0.0
 10
-7.600823632192547
 20
28.35993178886826
 30
0.0
 10
-7.48635198373748
 20
28.32494711750423
 30
0.0
  0
SPLINE
  5
A8
330
1F
100
AcDbEntity
  8
0
100
AcDbSpline
210
0.0
220
0.0
230
1.0
 70
     8
 71
     3
 72
    20
 73
    16
 74
     0
 42
0.000000001
 43
0.0000000001
 40
0.520316974270397
 40
0.520316974270397
 40
0.520316974270397
 40
0.520316974270397
 40
1.0
 40
1.0
 40
1.0
 40
1.573187160405986
 40
1.573187160405986
 40
1.573187160405986
 40
2.555574506554523
 40
2.555574506554523
 40
2.555574506554523
 40
3.555574506554524
 40
3.555574506554524
 40
3.555574506554524
 40
4.467901250690098
 40
4.467901250690098
 40
4.467901250690098
 40
4.467901250690098
 10
-9.095311992219937
 20
0.0188896574048858
 30
0.0
 10
-9.108461036848382
 20
0.0073097994612221
 30
0.0
 10
-9.12702422792124
 20
0.0013736606624697
 30
0.0
 10
-9.150590614530541
 20
0.0013736606624697
 30
0.0
 10
-9.341653001332537
 20
0.0013736606624697
 30
0.0
 10
-9.532715388134532
 20
0.0013736606624697
 30
0.0
 10
-9.723777774936528
 20
0.0013736606624697
 30
0.0
 10
-9.774311714607924
 20
0.0007064737396227
 30
0.0
 10
-9.801268270177571
 20
0.0255490175145887
 30
0.0
 10
-9.804661956779329
 20
0.0761199438774369
 30
0.0
 10
-9.808688117752636
 20
0.1374384493565863
 30
0.0
 10
-9.812714278725943
 20
0.1987569548357357
 30
0.0
 10
-9.816740439699252
 20
0.260075460314885
 30
0.0
 10
-9.58811452632203
 20
0.2600754603148846
 30
0.0
 10
-9.359488612944808
 20
0.2600754603148842
 30
0.0
 10
-9.130862699567587
 20
0.2600754603148837
 30
0.0
  0
SPLINE
  5
A9
330
1F
100
AcDbEntity
  8
0
100
AcDbSpline
210
0.0
220
0.0
230
1.0
 70
    11
 71
     3
 72
    23
 73
    19
 74
     0
 42
0.000000001
 43
0.0000000001
 40
0.0
 40
0.0
 40
0.0
 40
0.0
 40
1.0
 40
1.0
 40
1.0
 40
1.573187160405986
 40
1.573187160405986
 40
1.573187160405986
 40
2.555574506554523
 40
2.555574506554523
 40
2.555574506554523
 40
3.555574506554524
 40
3.555574506554524
 40
3.555574506554524
 40
4.555574506554523
 40
4.555574506554523
 40
4.555574506554523
 40
5.611094901369554
 40
5.611094901369554
 40
5.611094901369554
 40
5.611094901369554
 10
-8.386280819485846
 20
0.0761199438774369
 30
0.0
 10
-8.388198677545793
 20
0.0271722135491095
 30
0.0
 10
-8.41558379259854
 20
0.0013736606624697
 30
0.0
 10
-8.464712874398876
 20
0.0013736606624697
 30
0.0
 10
-8.655775261200871
 20
0.0013736606624697
 30
0.0
 10
-8.846837648002866
 20
0.0013736606624697
 30
0.0
 10
-9.037900034804862
 20
0.0013736606624697
 30
0.0
 10
-9.088433974476258
 20
0.0007064737396227
 30
0.0
 10
-9.115390530045905
 20
0.0255490175145887
 30
0.0
 10
-9.118784216647663
 20
0.0761199438774369
 30
0.0
 10
-9.12281037762097
 20
0.1374384493565863
 30
0.0
 10
-9.126836538594278
 20
0.1987569548357357
 30
0.0
 10
-9.130862699567587
 20
0.260075460314885
 30
0.0
 10
-8.880266172778443
 20
0.2600754603148845
 30
0.0
 10
-8.629669645989301
 20
0.260075460314884
 30
0.0
 10
-8.379073119200159
 20
0.2600754603148836
 30
0.0
 10
-8.381475685962053
 20
0.1987569548357347
 30
0.0
 10
-8.383878252723951
 20
0.1374384493565858
 30
0.0
 10
-8.386280819485846
 20
0.0761199438774369
 30
0.0
  0
SPLINE
  5
AA
330
1F
100
AcDbEntity
  8
0
370
    -3
100
AcDbSpline
210
0.0
220
0.0
230
1.0
 70
    28
 71
     2
 72
     6
 73
     3
 74
     0
 42
0.000000001
 43
0.0000000001
 40
0.858983217368334
 40
0.858983217368334
 40
0.858983217368334
 40
4.293510425559992
 40
4.293510425559992
 40
4.293510425559992
 10
-5.299783342340505
 20
27.76668350062495
 30
0.0
 41
0.8535748739980054
 10
-5.586765909693836
 20
26.09134075602308
 30
0.0
 41
0.8535748739980054
 10
-5.873748477047166
 20
24.4159980114212
 30
0.0
 41
0.8535748739980054
  0
SPLINE
  5
AB
330
1F
100
AcDbEntity
  8
0
370
    -3
100
AcDbSpline
210
0.0
220
0.0
230
1.0
 70
    28
 71
     2
 72
     6
 73
     3
 74
     0
 42
0.000000001
 43
0.0000000001
 40
6.644846542832986
 40
6.644846542832986
 40
6.644846542832986
 40
11.8569999121912
 40
11.8569999121912
 40
11.8569999121912
 10
-7.556421648865261
 20
6.78832609768943
 30
0.0
 41
0.8535854487995107
 10
-7.08419677102669
 20
9.318524891770936
 30
0.0
 41
0.8535854487995107
 10
-6.611971893188116
 20
11.84872368585244
 30
0.0
 41
0.8535854487995107
  0
SPLINE
  5
AC
330
1F
100
AcDbEntity
  8
0
370
    -3
100
AcDbSpline
210
0.0
220
0.0
230
1.0
 70
    28
 71
     2
 72
     6
 73
     3
 74
     0
 42
0.000000001
 43
0.0000000001
 40
19.97917183331582
 40
19.97917183331582
 40
19.97917183331582
 40
22.94907842016394
 40
22.94907842016394
 40
22.94907842016394
 10
-6.500723546458429
 20
19.86735963371826
 30
0.0
 41
1.000000000000001
 10
-6.252563795369423
 20
21.31606309443157
 30
0.0
 41
1.000000000000001
 10
-6.004404044280418
 20
22.76476655514488
 30
0.0
 41
1.000000000000001
  0
SPLINE
  5
AD
330
1F
100
AcDbEntity
  8
0
370
    -3
100
AcDbSpline
210
0.0
220
0.0
230
1.0
 70
    12
 71
     2
 72
     6
 73
     3
 74
     0
 42
0.000000001
 43
0.0000000001
 40
0.0715694717906845
 40
0.0715694717906845
 40
0.0715694717906845
 40
0.1056030977245731
 40
0.1056030977245731
 40
0.1056030977245731
 10
-5.825058980424862
 20
22.81098171837597
 30
0.0
 41
1.0
 10
-5.834548195736228
 20
22.81122183891563
 30
0.0
 41
0.9932222370025563
 10
-5.844031336843988
 20
22.81098187207983
 30
0.0
 41
0.9868062475735371
  0
SPLINE
  5
AE
330
1F
100
AcDbEntity
  8
0
370
    -3
100
AcDbSpline
210
0.0
220
0.0
230
1.0
 70
     8
 71
     3
 72
    15
 73
    11
 74
     0
 42
0.000000001
 43
0.0000000001
 40
-0.5679356782268045
 40
-0.5679356782268045
 40
-0.5679356782268045
 40
-0.5679356782268045
 40
-0.0000000000000431
 40
-0.0000000000000431
 40
-0.0000000000000431
 40
0.9999999999999568
 40
1.999999999999957
 40
2.999999999999956
 40
3.999999999999956
 40
4.999999999999956
 40
4.999999999999956
 40
4.999999999999956
 40
4.999999999999956
 10
6.73624339368372
 20
11.85098253620548
 30
0.0
 10
6.770560046646739
 20
11.6671863786949
 30
0.0
 10
6.804876699609754
 20
11.48339022118432
 30
0.0
 10
6.839193352572773
 20
11.29959406367374
 30
0.0
 10
6.84640252000177
 20
11.26087072224056
 30
0.0
 10
6.874009695951562
 20
11.18581648064993
 30
0.0
 10
6.948378957847792
 20
11.09262532959393
 30
0.0
 10
7.065979807389437
 20
11.04147228240917
 30
0.0
 10
7.177077195099599
 20
11.11036432426756
 30
0.0
 10
7.195144520374769
 20
11.19204221359064
 30
0.0
 10
7.197843426742247
 20
11.23078498802502
 30
0.0
  0
SPLINE
  5
AF
330
1F
100
AcDbEntity
  8
0
370
    -3
100
AcDbSpline
210
0.0
220
0.0
230
1.0
 70
     8
 71
     3
 72
    18
 73
    14
 74
     0
 42
0.000000001
 43
0.0000000001
 40
-0.1534350406768314
 40
-0.1534350406768314
 40
-0.1534350406768314
 40
-0.1534350406768314
 40
0.0
 40
0.0
 40
0.0
 40
1.0
 40
2.0
 40
3.0
 40
4.0
 40
5.0
 40
5.0
 40
5.0
 40
5.144180069994871
 40
5.144180069994871
 40
5.144180069994871
 40
5.144180069994871
 10
6.948406448945923
 20
12.6165048119713
 30
0.0
 10
6.939135369059355
 20
12.66615967956463
 30
0.0
 10
6.929864289172788
 20
12.71581454715797
 30
0.0
 10
6.920593209286222
 20
12.7654694147513
 30
0.0
 10
6.912437870315754
 20
12.80946819025297
 30
0.0
 10
6.879229021771772
 20
12.89312858840069
 30
0.0
 10
6.787698704585503
 20
12.99637985105389
 30
0.0
 10
6.638569165300145
 20
13.01656570770065
 30
0.0
 10
6.556455077370282
 20
12.89075980656806
 30
0.0
 10
6.559521077405881
 20
12.80053690052813
 30
0.0
 10
6.567163294329907
 20
12.75655664934022
 30
0.0
 10
6.575875156633832
 20
12.70989688861274
 30
0.0
 10
6.584587018937756
 20
12.66323712788525
 30
0.0
 10
6.593298881241681
 20
12.61657736715776
 30
0.0
  0
SPLINE
  5
B0
330
1F
100
AcDbEntity
  8
0
370
    -3
100
AcDbSpline
210
0.0
220
0.0
230
1.0
 70
    12
 71
     2
 72
    10
 73
     7
 74
     0
 42
0.000000001
 43
0.0000000001
 40
4.248766736126397
 40
4.248766736126397
 40
4.248766736126397
 40
6.765377920520597
 40
6.765377920520597
 40
7.913069793927575
 40
7.913069793927575
 40
16.30362364831284
 40
16.30362364831284
 40
16.30362364831284
 10
3.087836844825521
 20
22.71487792879432
 30
0.0
 41
1.0
 10
3.97759326187307
 20
22.69236302270673
 30
0.0
 41
1.0
 10
4.86734967892062
 20
22.66984811661914
 30
0.0
 41
1.0
 10
5.343413302281072
 20
22.65780152997343
 30
0.0
 41
0.7925457558248631
 10
5.4654082001193
 20
22.0041482434047
 30
0.0
 41
1.0
 10
6.225598468536186
 20
17.93101997192087
 30
0.0
 41
1.0
 10
6.98578873695307
 20
13.85789170043703
 30
0.0
 41
1.0
  0
SPLINE
  5
B1
330
1F
100
AcDbEntity
  8
0
370
    -3
100
AcDbSpline
210
0.0
220
0.0
230
1.0
 70
    12
 71
     3
 72
    11
 73
     7
 74
     0
 42
0.000000001
 43
0.0000000001
 40
0.5759340830695828
 40
0.5759340830695828
 40
0.5759340830695828
 40
0.5759340830695828
 40
1.079045096615833
 40
1.079045096615833
 40
1.079045096615833
 40
3.787140823995593
 40
3.787140823995593
 40
3.787140823995593
 40
3.787140823995593
 10
4.170260407205015
 20
24.34403383423191
 30
0.0
 41
1.0
 10
4.23301574248473
 20
24.4716092483082
 30
0.0
 41
1.0
 10
4.260362273194884
 20
24.63692299376159
 30
0.0
 41
1.0
 10
4.240964476492655
 20
24.7999090991714
 30
0.0
 41
1.0
 10
4.133771984883687
 20
25.69237308716223
 30
0.0
 41
1.0
 10
4.026579493274719
 20
26.58483707515307
 30
0.0
 41
1.0
 10
3.91938700166575
 20
27.4773010631439
 30
0.0
 41
1.0
  0
SPLINE
  5
B2
330
1F
100
AcDbEntity
  8
0
370
    -3
100
AcDbSpline
210
0.0
220
0.0
230
1.0
 70
    12
 71
     2
 72
     8
 73
     5
 74
     0
 42
0.000000001
 43
0.0000000001
 40
0.2235433712045844
 40
0.2235433712045844
 40
0.2235433712045844
 40
3.048477902209381
 40
3.048477902209381
 40
3.531887522957095
 40
3.531887522957095
 40
3.531887522957095
 10
4.648341599967187
 20
27.62335811961574
 30
0.0
 41
0.9999999996107469
 10
4.816038690186851
 20
26.2271456222646
 30
0.0
 41
0.9999999996107469
 10
4.983735780406514
 20
24.83093312491346
 30
0.0
 41
0.9999999996107469
 10
5.013691889175458
 20
24.58152454371815
 30
0.0
 41
0.9280491959783834
 10
4.927174168191255
 20
24.36312453623484
 30
0.0
 41
0.9673375375331764
  0
SPLINE
  5
B3
330
1F
100
AcDbEntity
  8
0
370
    -3
100
AcDbSpline
210
0.0
220
0.0
230
1.0
 70
    12
 71
     3
 72
    14
 73
    10
 74
     0
 42
0.000000001
 43
0.0000000001
 40
22.39179468832107
 40
22.39179468832107
 40
22.39179468832107
 40
22.39179468832107
 40
28.93041014534821
 40
28.93041014534821
 40
28.93041014534821
 40
29.93041014534821
 40
29.93041014534821
 40
29.93041014534821
 40
30.61523770469905
 40
30.61523770469905
 40
30.61523770469905
 40
30.61523770469905
 10
8.898264963642246
 20
6.759518739956342
 30
0.0
 41
0.8535748739980054
 10
9.262501152409513
 20
4.633185904480031
 30
0.0
 41
0.8535748739980052
 10
9.62673734117678
 20
2.506853069003715
 30
0.0
 41
0.8535748739980052
 10
9.990973529944045
 20
0.3805202335274
 30
0.0
 41
0.8535748739980054
 10
10.00367016227617
 20
0.3064000141193624
 30
0.0
 41
0.8535748739980054
 10
9.979551922914917
 20
0.2600754603148836
 30
0.0
 41
0.8535748739980054
 10
9.907819562775497
 20
0.2600754603148836
 30
0.0
 41
0.8535748739980054
 10
9.679543709658548
 20
0.2600754603148836
 30
0.0
 41
0.8535748739980054
 10
9.451267856541607
 20
0.2600754603148836
 30
0.0
 41
0.8535748739980054
 10
9.222992003424663
 20
0.2600754603148836
 30
0.0
 41
0.8535748739980054
  0
POLYLINE
  5
B4
330
1F
100
AcDbEntity
  8
0
100
AcDb2dPolyline
 66
     1
 10
0.0
 20
0.0
 30
0.0
  0
VERTEX
  5
B5
330
B4
100
AcDbEntity
  8
0
100
AcDbVertex
100
AcDb2dVertex
 10
0.0000000000053539
 20
37.59154533431831
 30
0.0
  0
VERTEX
  5
B6
330
B4
100
AcDbEntity
  8
0
100
AcDbVertex
100
AcDb2dVertex
 10
-0.0000000000162466
 20
34.17836998334907
 30
0.0
  0
SEQEND
  5
B7
330
B4
100
AcDbEntity
  8
0
  0
SPLINE
  5
B8
330
1F
100
AcDbEntity
  8
0
370
    -3
100
AcDbSpline
210
0.0
220
0.0
230
1.0
 70
     8
 71
     3
 72
     8
 73
     4
 74
     0
 42
0.000000001
 43
0.0000000001
 40
0.0
 40
0.0
 40
0.0
 40
0.0
 40
1.0
 40
1.0
 40
1.0
 40
1.0
 10
7.829284311189001
 20
28.43158638815257
 30
0.0
 10
7.719217048926533
 20
28.38324888972951
 30
0.0
 10
7.600823632192547
 20
28.35993178886826
 30
0.0
 10
7.48635198373748
 20
28.32494711750423
 30
0.0
  0
SPLINE
  5
B9
330
1F
100
AcDbEntity
  8
0
100
AcDbSpline
210
0.0
220
0.0
230
1.0
 70
     8
 71
     3
 72
    20
 73
    16
 74
     0
 42
0.000000001
 43
0.0000000001
 40
0.520316974270397
 40
0.520316974270397
 40
0.520316974270397
 40
0.520316974270397
 40
1.0
 40
1.0
 40
1.0
 40
1.573187160405986
 40
1.573187160405986
 40
1.573187160405986
 40
2.555574506554523
 40
2.555574506554523
 40
2.555574506554523
 40
3.555574506554524
 40
3.555574506554524
 40
3.555574506554524
 40
4.467901250690098
 40
4.467901250690098
 40
4.467901250690098
 40
4.467901250690098
 10
9.095311992219937
 20
0.0188896574048858
 30
0.0
 10
9.108461036848382
 20
0.0073097994612221
 30
0.0
 10
9.12702422792124
 20
0.0013736606624697
 30
0.0
 10
9.150590614530541
 20
0.0013736606624697
 30
0.0
 10
9.341653001332537
 20
0.0013736606624697
 30
0.0
 10
9.532715388134532
 20
0.0013736606624697
 30
0.0
 10
9.723777774936528
 20
0.0013736606624697
 30
0.0
 10
9.774311714607924
 20
0.0007064737396227
 30
0.0
 10
9.801268270177571
 20
0.0255490175145887
 30
0.0
 10
9.804661956779329
 20
0.0761199438774369
 30
0.0
 10
9.808688117752636
 20
0.1374384493565863
 30
0.0
 10
9.812714278725943
 20
0.1987569548357357
 30
0.0
 10
9.816740439699252
 20
0.260075460314885
 30
0.0
 10
9.58811452632203
 20
0.2600754603148846
 30
0.0
 10
9.359488612944808
 20
0.2600754603148842
 30
0.0
 10
9.130862699567587
 20
0.2600754603148837
 30
0.0
  0
SPLINE
  5
BA
330
1F
100
AcDbEntity
  8
0
100
AcDbSpline
210
0.0
220
0.0
230
1.0
 70
    11
 71
     3
 72
    23
 73
    19
 74
     0
 42
0.000000001
 43
0.0000000001
 40
0.0
 40
0.0
 40
0.0
 40
0.0
 40
1.0
 40
1.0
 40
1.0
 40
1.573187160405986
 40
1.573187160405986
 40
1.573187160405986
 40
2.555574506554523
 40
2.555574506554523
 40
2.555574506554523
 40
3.555574506554524
 40
3.555574506554524
 40
3.555574506554524
 40
4.555574506554523
 40
4.555574506554523
 40
4.555574506554523
 40
5.611094901369554
 40
5.611094901369554
 40
5.611094901369554
 40
5.611094901369554
 10
8.386280819485846
 20
0.0761199438774369
 30
0.0
 10
8.388198677545793
 20
0.0271722135491095
 30
0.0
 10
8.41558379259854
 20
0.0013736606624697
 30
0.0
 10
8.464712874398876
 20
0.0013736606624697
 30
0.0
 10
8.655775261200871
 20
0.0013736606624697
 30
0.0
 10
8.846837648002866
 20
0.0013736606624697
 30
0.0
 10
9.037900034804862
 20
0.0013736606624697
 30
0.0
 10
9.088433974476258
 20
0.0007064737396227
 30
0.0
 10
9.115390530045905
 20
0.0255490175145887
 30
0.0
 10
9.118784216647663
 20
0.0761199438774369
 30
0.0
 10
9.12281037762097
 20
0.1374384493565863
 30
0.0
 10
9.126836538594278
 20
0.1987569548357357
 30
0.0
 10
9.130862699567587
 20
0.260075460314885
 30
0.0
 10
8.880266172778443
 20
0.2600754603148845
 30
0.0
 10
8.629669645989301
 20
0.260075460314884
 30
0.0
 10
8.379073119200159
 20
0.2600754603148836
 30
0.0
 10
8.381475685962053
 20
0.1987569548357347
 30
0.0
 10
8.383878252723951
 20
0.1374384493565858
 30
0.0
 10
8.386280819485846
 20
0.0761199438774369
 30
0.0
  0
SPLINE
  5
BB
330
1F
100
AcDbEntity
  8
0
370
    -3
100
AcDbSpline
210
0.0
220
0.0
230
1.0
 70
     8
 71
     3
 72
     8
 73
     4
 74
     0
 42
0.000000001
 43
0.0000000001
 40
0.008383713109811
 40
0.008383713109811
 40
0.008383713109811
 40
0.008383713109811
 40
0.0737762233533894
 40
0.0737762233533894
 40
0.0737762233533894
 40
0.0737762233533894
 10
23.08389163193796
 20
38.38898816271664
 30
0.0
 10
23.08254041608693
 20
38.38924266998005
 30
0.0
 10
23.0822406825429
 20
38.38932457747585
 30
0.0
 10
23.08224360520021
 20
38.38933447125466
 30
0.0
  0
SPLINE
  5
BC
330
1F
100
AcDbEntity
  8
0
370
    -3
100
AcDbSpline
210
0.0
220
0.0
230
1.0
 70
     8
 71
     3
 72
     8
 73
     4
 74
     0
 42
0.000000001
 43
0.0000000001
 40
-1.648757448475123
 40
-1.648757448475123
 40
-1.648757448475123
 40
-1.648757448475123
 40
-1.635569528945595
 40
-1.635569528945595
 40
-1.635569528945595
 40
-1.635569528945595
 10
38.83875970529071
 20
28.455183633286
 30
0.0
 10
38.84119662897773
 20
28.45582155956928
 30
0.0
 10
38.84356885413367
 20
28.45645590713524
 30
0.0
 10
38.84587572262058
 20
28.45708644516018
 30
0.0
  0
SPLINE
  5
BD
330
1F
100
AcDbEntity
  8
0
370
    -3
100
AcDbSpline
210
0.0
220
0.0
230
1.0
 70
     8
 71
     3
 72
     8
 73
     4
 74
     0
 42
0.000000001
 43
0.0000000001
 40
1.301475556434759
 40
1.301475556434759
 40
1.301475556434759
 40
1.301475556434759
 40
1.324486180041336
 40
1.324486180041336
 40
1.324486180041336
 40
1.324486180041336
 10
38.95237740763292
 20
28.46062587968619
 30
0.0
 10
38.95306157808923
 20
28.46044513062146
 30
0.0
 10
38.95342265012987
 20
28.46034526672969
 30
0.0
 10
38.95342319735007
 20
28.46034696471477
 30
0.0
  0
SPLINE
  5
BE
330
1F
100
AcDbEntity
  8
0
370
    -3
100
AcDbSpline
210
0.0
220
0.0
230
1.0
 70
    12
 71
     2
 72
     6
 73
     3
 74
     0
 42
0.000000001
 43
0.0000000001
 40
-0.0237737756344066
 40
-0.0237737756344066
 40
-0.0237737756344066
 40
-0.0135601638895925
 40
-0.0135601638895925
 40
-0.0135601638895925
 10
38.68711751412022
 20
28.45388979533782
 30
0.0
 41
0.9308145873009587
 10
38.68688867098051
 20
28.45344066538771
 30
0.0
 41
0.9431909566435818
 10
38.68664884159958
 20
28.45343501797423
 30
0.0
 41
0.9577027239443547
  0
SPLINE
  5
BF
330
1F
100
AcDbEntity
  8
0
370
    -3
100
AcDbSpline
210
0.0
220
0.0
230
1.0
 70
    12
 71
     2
 72
     6
 73
     3
 74
     0
 42
0.000000001
 43
0.0000000001
 40
-0.0148743258475178
 40
-0.0148743258475178
 40
-0.0148743258475178
 40
0.0
 40
0.0
 40
0.0
 10
38.42002761886849
 20
28.44723113996653
 30
0.0
 41
0.9543265327257009
 10
38.41969761507261
 20
28.44722359760267
 30
0.0
 41
0.9749425628397597
 10
38.41935143090949
 20
28.4480760796009
 30
0.0
 41
1.0
  0
SPLINE
  5
C0
330
1F
100
AcDbEntity
  8
0
370
    -3
100
AcDbSpline
210
0.0
220
0.0
230
1.0
 70
     8
 71
     3
 72
     8
 73
     4
 74
     0
 42
0.000000001
 43
0.0000000001
 40
0.0
 40
0.0
 40
0.0
 40
0.0
 40
0.0015421722990985
 40
0.0015421722990985
 40
0.0015421722990985
 40
0.0015421722990985
 10
23.08125179571482
 20
38.38949837219639
 30
0.0
 10
23.08162089017623
 20
38.38942348162097
 30
0.0
 10
23.08195016956986
 20
38.38935762663634
 30
0.0
 10
23.08224056952157
 20
38.38930024753739
 30
0.0
  0
SPLINE
  5
C1
330
1F
100
AcDbEntity
  8
0
370
    -3
100
AcDbSpline
210
0.0
220
0.0
230
1.0
 70
     8
 71
     3
 72
     8
 73
     4
 74
     0
 42
0.000000001
 43
0.0000000001
 40
2.176925821837618
 40
2.176925821837618
 40
2.176925821837618
 40
2.176925821837618
 40
2.499853960905439
 40
2.499853960905439
 40
2.499853960905439
 40
2.499853960905439
 10
25.9610930647229
 20
37.5961701918846
 30
0.0
 10
25.96111236069028
 20
37.59617413360032
 30
0.0
 10
25.96073314076109
 20
37.59608527683999
 30
0.0
 10
25.95984826154337
 20
37.59587886370005
 30
0.0
  0
SPLINE
  5
C2
330
1F
100
AcDbEntity
  8
0
370
    -3
100
AcDbSpline
210
0.0
220
0.0
230
1.0
 70
    28
 71
     2
 72
     6
 73
     3
 74
     0
 42
0.000000001
 43
0.0000000001
 40
9.970084793942778
 40
9.970084793942778
 40
9.970084793942778
 40
13.29942128423876
 40
13.29942128423876
 40
13.29942128423876
 10
7.137085839066028
 20
11.98609636144779
 30
0.0
 41
0.8602044069662151
 10
7.071271772180924
 20
11.94022079334629
 30
0.0
 41
0.8602044069662151
 10
7.005457705295819
 20
11.89434522524481
 30
0.0
 41
0.8602044069662151
  0
SPLINE
  5
C3
330
1F
100
AcDbEntity
  8
0
370
    -3
100
AcDbSpline
210
0.0
220
0.0
230
1.0
 70
     8
 71
     3
 72
     8
 73
     4
 74
     0
 42
0.000000001
 43
0.0000000001
 40
0.8034095802350739
 40
0.8034095802350739
 40
0.8034095802350739
 40
0.8034095802350739
 40
1.0063968465546
 40
1.0063968465546
 40
1.0063968465546
 40
1.0063968465546
 10
7.116486669117625
 20
12.24044044139837
 30
0.0
 10
7.056306329350184
 20
12.24114176350472
 30
0.0
 10
6.990926592951935
 20
12.24151943245749
 30
0.0
 10
6.924407589362529
 20
12.24152072744106
 30
0.0
  0
SPLINE
  5
C4
330
1F
100
AcDbEntity
  8
0
370
    -3
100
AcDbSpline
210
0.0
220
0.0
230
1.0
 70
    28
 71
     2
 72
     6
 73
     3
 74
     0
 42
0.000000001
 43
0.0000000001
 40
0.0
 40
0.0
 40
0.0
 40
13.84960490671
 40
13.84960490671
 40
13.84960490671
 10
6.924407589362525
 20
12.24152072744105
 30
0.0
 41
0.9888587737173815
 10
-0.0003948557949727
 20
12.24165553862161
 30
0.0
 41
0.9888587737173815
 10
-6.925197300952471
 20
12.24179034980217
 30
0.0
 41
0.9888587737173815
  0
SPLINE
  5
C5
330
1F
100
AcDbEntity
  8
0
370
    -3
100
AcDbSpline
210
0.0
220
0.0
230
1.0
 70
    28
 71
     2
 72
     6
 73
     3
 74
     0
 42
0.000000001
 43
0.0000000001
 40
0.858983217368334
 40
0.858983217368334
 40
0.858983217368334
 40
4.293510425559992
 40
4.293510425559992
 40
4.293510425559992
 10
5.299783342340505
 20
27.76668350062495
 30
0.0
 41
0.8535748739980054
 10
5.586765909693836
 20
26.09134075602308
 30
0.0
 41
0.8535748739980054
 10
5.873748477047166
 20
24.4159980114212
 30
0.0
 41
0.8535748739980054
  0
SPLINE
  5
C6
330
1F
100
AcDbEntity
  8
0
370
    -3
100
AcDbSpline
210
0.0
220
0.0
230
1.0
 70
    24
 71
     2
 72
     6
 73
     3
 74
     0
 42
0.000000001
 43
0.0000000001
 40
-1.490421653205644
 40
-1.490421653205644
 40
-1.490421653205644
 40
-0.8478519167854501
 40
-0.8478519167854501
 40
-0.8478519167854501
 10
7.190762620730696
 20
11.31847224536212
 30
0.0
 10
7.132523166436911
 20
11.63039625281845
 30
0.0
 10
7.074283712143126
 20
11.94232026027477
 30
0.0
  0
SPLINE
  5
C7
330
1F
100
AcDbEntity
  8
0
370
    -3
100
AcDbSpline
210
0.0
220
0.0
230
1.0
 70
    28
 71
     2
 72
     6
 73
     3
 74
     0
 42
0.000000001
 43
0.0000000001
 40
6.644846542832986
 40
6.644846542832986
 40
6.644846542832986
 40
11.8569999121912
 40
11.8569999121912
 40
11.8569999121912
 10
7.556421648865261
 20
6.78832609768943
 30
0.0
 41
0.8535854487995107
 10
7.08419677102669
 20
9.318524891770936
 30
0.0
 41
0.8535854487995107
 10
6.611971893188116
 20
11.84872368585244
 30
0.0
 41
0.8535854487995107
  0
SPLINE
  5
C8
330
1F
100
AcDbEntity
  8
0
370
    -3
100
AcDbSpline
210
0.0
220
0.0
230
1.0
 70
    28
 71
     2
 72
     6
 73
     3
 74
     0
 42
0.000000001
 43
0.0000000001
 40
19.97917183331582
 40
19.97917183331582
 40
19.97917183331582
 40
22.94907842016394
 40
22.94907842016394
 40
22.94907842016394
 10
6.500723546458429
 20
19.86735963371826
 30
0.0
 41
1.000000000000001
 10
6.252563795369423
 20
21.31606309443157
 30
0.0
 41
1.000000000000001
 10
6.004404044280418
 20
22.76476655514488
 30
0.0
 41
1.000000000000001
  0
SPLINE
  5
C9
330
1F
100
AcDbEntity
  8
0
370
    -3
100
AcDbSpline
210
0.0
220
0.0
230
1.0
 70
    12
 71
     2
 72
     6
 73
     3
 74
     0
 42
0.000000001
 43
0.0000000001
 40
0.0715694717906845
 40
0.0715694717906845
 40
0.0715694717906845
 40
0.1056030977245731
 40
0.1056030977245731
 40
0.1056030977245731
 10
5.825058980424862
 20
22.81098171837597
 30
0.0
 41
1.0
 10
5.834548195736228
 20
22.81122183891563
 30
0.0
 41
0.9932222370025563
 10
5.844031336843988
 20
22.81098187207983
 30
0.0
 41
0.9868062475735371
  0
SPLINE
  5
CA
330
1F
100
AcDbEntity
  8
0
370
    -3
100
AcDbSpline
210
0.0
220
0.0
230
1.0
 70
    28
 71
     2
 72
     6
 73
     3
 74
     0
 42
0.000000001
 43
0.0000000001
 40
12.24251740923229
 40
12.24251740923229
 40
12.24251740923229
 40
12.2615842417205
 40
12.2615842417205
 40
12.2615842417205
 10
6.542115563167161
 20
12.22301654985188
 30
0.0
 41
0.8535854487995107
 10
6.540388094306508
 20
12.23227239348308
 30
0.0
 41
0.8535854487995107
 10
6.538660625445856
 20
12.24152823711429
 30
0.0
 41
0.8535854487995107
  0
SPLINE
  5
CB
330
1F
100
AcDbEntity
  8
0
370
    -3
100
AcDbSpline
210
0.0
220
0.0
230
1.0
 70
    24
 71
     2
 72
     6
 73
     3
 74
     0
 42
0.000000001
 43
0.0000000001
 40
-0.9701991824947411
 40
-0.9701991824947411
 40
-0.9701991824947411
 40
-0.9527666339416654
 40
-0.9527666339416654
 40
-0.9527666339416654
 10
6.663324905174152
 20
12.24152581016582
 30
0.0
 10
6.664904908179487
 20
12.23306349067479
 30
0.0
 10
6.666484911184822
 20
12.22460117118376
 30
0.0
  0
SPLINE
  5
CC
330
1F
100
AcDbEntity
  8
0
370
    -3
100
AcDbSpline
210
0.0
220
0.0
230
1.0
 70
    28
 71
     2
 72
     6
 73
     3
 74
     0
 42
0.000000001
 43
0.0000000001
 40
0.0
 40
0.0
 40
0.0
 40
12.7968266857
 40
12.7968266857
 40
12.7968266857
 10
6.398647761129529
 20
11.84742939042199
 30
0.0
 41
0.9888587737173795
 10
0.0002344258538941
 20
11.84755395392576
 30
0.0
 41
0.9888587737173795
 10
-6.39817890942174
 20
11.84767851742952
 30
0.0
 41
0.9888587737173795
  0
SPLINE
  5
CD
330
1F
100
AcDbEntity
  8
0
370
    -3
100
AcDbSpline
210
0.0
220
0.0
230
1.0
 70
     8
 71
     3
 72
    44
 73
    40
 74
     0
 42
0.000000001
 43
0.0000000001
 40
0.0
 40
0.0
 40
0.0
 40
0.0
 40
1.0
 40
1.0
 40
1.0
 40
2.0
 40
2.0
 40
2.0
 40
3.0
 40
4.0
 40
5.0
 40
6.0
 40
6.0
 40
6.0
 40
7.0
 40
7.0
 40
7.0
 40
8.0
 40
8.0
 40
8.0
 40
9.0
 40
10.0
 40
10.0
 40
10.0
 40
11.0
 40
11.0
 40
11.0
 40
12.0
 40
12.0
 40
12.0
 40
13.0
 40
14.0
 40
15.0
 40
15.0
 40
15.0
 40
16.0
 40
16.0
 40
16.0
 40
17.0
 40
17.0
 40
17.0
 40
17.0
 10
22.75027938037261
 20
41.81715943346519
 30
0.0
 10
22.79369533341185
 20
41.7648168505165
 30
0.0
 10
22.83945812677072
 20
41.71462700660002
 30
0.0
 10
22.88756776044924
 20
41.66658990171575
 30
0.0
 10
22.92756130388434
 20
41.62665665147478
 30
0.0
 10
22.97624082502909
 20
41.55104380367969
 30
0.0
 10
22.99590002272118
 20
41.49807649597832
 30
0.0
 10
23.07652927551559
 20
41.28083902223277
 30
0.0
 10
23.20469157564378
 20
40.83538578353301
 30
0.0
 10
23.37360593902485
 20
40.16144307649803
 30
0.0
 10
23.52981242387018
 20
39.48437964925739
 30
0.0
 10
23.63545332108629
 20
39.0333846521301
 30
0.0
 10
23.68796914649448
 20
38.80781011184936
 30
0.0
 10
23.99139329297667
 20
37.50654015821507
 30
0.0
 10
24.29480349337263
 20
36.20526695126348
 30
0.0
 10
24.59819974768236
 20
34.90399049099462
 30
0.0
 10
24.90159600199209
 20
33.60271403072576
 30
0.0
 10
25.20499667906361
 20
32.30143860199766
 30
0.0
 10
25.50840177889691
 20
31.00016420481034
 30
0.0
 10
25.65525488109137
 20
30.3703258067802
 30
0.0
 10
26.3795337445402
 20
29.18248774452402
 30
0.0
 10
27.72097547122993
 20
28.83578555301977
 30
0.0
 10
28.36528550571628
 20
28.84348029649842
 30
0.0
 10
30.03333281318625
 20
28.8634011349989
 30
0.0
 10
31.70138011348206
 20
28.88332257535333
 30
0.0
 10
33.36942740660373
 20
28.90324461756174
 30
0.0
 10
35.0374746997254
 20
28.92316665977014
 30
0.0
 10
36.70552199414126
 20
28.94308859111102
 30
0.0
 10
38.37356928985131
 20
28.96301041158438
 30
0.0
 10
38.79280914539665
 20
28.96801747652729
 30
0.0
 10
39.63133435033475
 20
28.97952129553732
 30
0.0
 10
40.88900500471333
 20
28.9865857176225
 30
0.0
 10
41.72792106462715
 20
28.98057138212389
 30
0.0
 10
42.14616856629846
 20
28.94947788881366
 30
0.0
 10
42.19073813752502
 20
28.9461644830928
 30
0.0
 10
42.26288254170382
 20
28.93851316422918
 30
0.0
 10
42.30282831474334
 20
28.92145660165337
 30
0.0
 10
42.39195135532164
 20
28.8834016936393
 30
0.0
 10
42.47929731090203
 20
28.84098215141322
 30
0.0
 10
42.56730439540566
 20
28.8002621651959
 30
0.0
  0
SPLINE
  5
CE
330
1F
100
AcDbEntity
  8
0
370
    -3
100
AcDbSpline
210
0.0
220
0.0
230
1.0
 70
     8
 71
     3
 72
    38
 73
    34
 74
     0
 42
0.000000001
 43
0.0000000001
 40
-4.0
 40
-4.0
 40
-4.0
 40
-4.0
 40
-3.0
 40
-2.0
 40
-1.0
 40
0.0
 40
0.0
 40
0.0
 40
1.0
 40
1.0
 40
1.0
 40
2.0
 40
2.0
 40
2.0
 40
3.0
 40
4.0
 40
4.0
 40
4.0
 40
5.0
 40
5.0
 40
5.0
 40
6.0
 40
6.0
 40
6.0
 40
7.0
 40
8.0
 40
9.0
 40
9.0
 40
9.0
 40
10.0
 40
10.0
 40
10.0
 40
11.0
 40
11.0
 40
11.0
 40
11.0
 10
23.83641140463057
 20
42.00351868529017
 30
0.0
 10
24.06958717415136
 20
41.81088788954322
 30
0.0
 10
24.2333934587834
 20
41.19361104680225
 30
0.0
 10
24.42286745716842
 20
40.48587902847459
 30
0.0
 10
24.59122427601176
 20
39.77139854627812
 30
0.0
 10
24.70370011971524
 20
39.2954856369707
 30
0.0
 10
24.7592345555348
 20
39.05729341290019
 30
0.0
 10
25.06254784999243
 20
37.75635522687543
 30
0.0
 10
25.36591284329295
 20
36.45542897464301
 30
0.0
 10
25.66932953543637
 20
35.15451465620291
 30
0.0
 10
25.97274622757979
 20
33.85360033776281
 30
0.0
 10
26.27591021916129
 20
32.55262772946978
 30
0.0
 10
26.57882151018086
 20
31.25159683132379
 30
0.0
 10
26.67022203568939
 20
30.85902345648153
 30
0.0
 10
27.12267021113692
 20
30.12863190453373
 30
0.0
 10
27.95291571686273
 20
29.93883841707086
 30
0.0
 10
28.35569547417004
 20
29.94334690629466
 30
0.0
 10
30.02319136504242
 20
29.9620119139529
 30
0.0
 10
31.69067247506654
 20
29.98196935933102
 30
0.0
 10
33.3581388042424
 20
30.00321924242903
 30
0.0
 10
35.02560513341826
 20
30.02446912552703
 30
0.0
 10
36.69308754437525
 20
30.04432691703785
 30
0.0
 10
38.36058603711335
 20
30.06279261696151
 30
0.0
 10
38.78110791238554
 20
30.06744943122186
 30
0.0
 10
39.62218817419194
 20
30.07876628447747
 30
0.0
 10
40.88368609943129
 20
30.08698150647773
 30
0.0
 10
41.72515751004802
 20
30.08353095844566
 30
0.0
 10
42.14479620740563
 20
30.05396836054468
 30
0.0
 10
42.19531784227662
 20
30.05040922554022
 30
0.0
 10
42.2760891428829
 20
30.04676704677212
 30
0.0
 10
42.32054168711313
 20
30.02732264648721
 30
0.0
 10
42.40326853832033
 20
29.99113632606306
 30
0.0
 10
42.48290540673285
 20
29.94776917778887
 30
0.0
 10
42.56085909724424
 20
29.90214219373141
 30
0.0
  0
SPLINE
  5
CF
330
1F
100
AcDbEntity
  8
0
370
    -3
100
AcDbSpline
210
0.0
220
0.0
230
1.0
 70
    24
 71
     2
 72
     6
 73
     3
 74
     0
 42
0.000000001
 43
0.0000000001
 40
0.0
 40
0.0
 40
0.0
 40
1.0
 40
1.0
 40
1.0
 10
27.32945728080191
 20
30.35512978244159
 30
0.0
 10
27.29070042655957
 20
30.29188465780565
 30
0.0
 10
27.25194357231724
 20
30.22863953316971
 30
0.0
  0
SPLINE
  5
D0
330
1F
100
AcDbEntity
  8
0
370
    -3
100
AcDbSpline
210
0.0
220
0.0
230
1.0
 70
    12
 71
     3
 72
    28
 73
    24
 74
     0
 42
0.000000001
 43
0.0000000001
 40
7.195216400800946
 40
7.195216400800946
 40
7.195216400800946
 40
7.195216400800946
 40
7.97092114923877
 40
7.97092114923877
 40
7.97092114923877
 40
8.97092114923877
 40
9.97092114923877
 40
9.97092114923877
 40
9.97092114923877
 40
10.98565609730218
 40
10.98565609730218
 40
10.98565609730218
 40
11.98565609730218
 40
11.98565609730218
 40
11.98565609730218
 40
12.98565609730218
 40
13.98565609730218
 40
13.98565609730218
 40
13.98565609730218
 40
14.98565609730218
 40
15.98565609730218
 40
16.98565609730218
 40
17.98565609730218
 40
17.98565609730218
 40
17.98565609730218
 40
17.98565609730218
 10
40.23137995199856
 20
28.17801843811242
 30
0.0
 41
1.0
 10
40.18671518819574
 20
28.24930063903292
 30
0.0
 41
1.0
 10
40.14177922137036
 20
28.32026627941669
 30
0.0
 41
1.0
 10
40.09657205152243
 20
28.39091535926373
 30
0.0
 41
1.0
 10
39.99022838195454
 20
28.42576703775896
 30
0.0
 41
1.0
 10
39.76692912521005
 20
28.4399177733366
 30
0.0
 41
1.0
 10
39.54538240781375
 20
28.45368637118433
 30
0.0
 41
1.0
 10
39.43404451919993
 20
28.45450333439399
 30
0.0
 41
1.0
 10
39.09579675765727
 20
28.45698529251599
 30
0.0
 41
0.9999297319738029
 10
38.75754861328577
 20
28.45455606753947
 30
0.0
 41
0.9999297319738029
 10
38.41937139017388
 20
28.44721617155496
 30
0.0
 41
1.0
 10
35.10898435266012
 20
28.37536657654018
 30
0.0
 41
1.0
 10
31.72451727743751
 20
28.27827369741732
 30
0.0
 41
1.0
 10
28.41326628716519
 20
28.27724315835889
 30
0.0
 41
1.0
 10
27.64980813954583
 20
28.27700555225687
 30
0.0
 41
1.0
 10
25.96405252669701
 20
28.5793917433464
 30
0.0
 41
1.0
 10
25.17834677983655
 20
30.10359745700429
 30
0.0
 41
1.0
 10
24.9925559780626
 20
30.84694777014813
 30
0.0
 41
1.0
 10
24.83498106370427
 20
31.47740611799674
 30
0.0
 41
1.0
 10
24.54381965279936
 20
32.74341088749384
 30
0.0
 41
1.0
 10
24.10878971728643
 20
34.64520442184318
 30
0.0
 41
1.0
 10
23.63983767145092
 20
36.53131982425251
 30
0.0
 41
1.0
 10
23.43686867846406
 20
37.8334066663578
 30
0.0
 41
1.0
 10
23.08239609237869
 20
38.38930302705655
 30
0.0
 41
1.0
  0
SPLINE
  5
D1
330
1F
100
AcDbEntity
  8
0
370
    -3
100
AcDbSpline
210
0.0
220
0.0
230
1.0
 70
     8
 71
     5
 72
   179
 73
   173
 74
     0
 42
0.000000001
 43
0.0000000001
 40
-5.0
 40
-5.0
 40
-5.0
 40
-5.0
 40
-5.0
 40
-5.0
 40
-4.0
 40
-4.0
 40
-4.0
 40
-4.0
 40
-3.0
 40
-3.0
 40
-3.0
 40
-3.0
 40
-2.0
 40
-2.0
 40
-2.0
 40
-2.0
 40
-1.0
 40
-1.0
 40
-1.0
 40
-1.0
 40
0.0
 40
0.0
 40
0.0
 40
0.0
 40
0.0
 40
1.0
 40
1.0
 40
1.0
 40
1.0
 40
2.0
 40
2.0
 40
2.0
 40
2.0
 40
3.0
 40
3.0
 40
3.0
 40
3.0
 40
4.0
 40
4.0
 40
4.0
 40
4.0
 40
4.0
 40
5.0
 40
5.0
 40
5.0
 40
5.0
 40
5.0
 40
6.0
 40
6.0
 40
6.0
 40
6.0
 40
7.0
 40
7.0
 40
7.0
 40
7.0
 40
8.0
 40
8.0
 40
8.0
 40
8.0
 40
9.0
 40
9.0
 40
9.0
 40
9.0
 40
9.0
 40
10.11881851817765
 40
10.11881851817765
 40
10.11881851817765
 40
10.11881851817765
 40
10.11881851817765
 40
11.11881851817765
 40
11.11881851817765
 40
11.11881851817765
 40
12.11881851817765
 40
12.11881851817765
 40
12.11881851817765
 40
12.11881851817765
 40
12.11881851817765
 40
13.11881851817765
 40
13.11881851817765
 40
13.11881851817765
 40
14.11881851817765
 40
14.11881851817765
 40
14.11881851817765
 40
14.11881851817765
 40
14.11881851817765
 40
15.11881851817765
 40
15.11881851817765
 40
15.11881851817765
 40
15.11881851817765
 40
15.11881851817765
 40
16.11882120142723
 40
16.11882120142723
 40
16.11882120142723
 40
16.11882120142723
 40
16.11882120142723
 40
17.11882120142723
 40
17.11882120142723
 40
17.11882120142723
 40
17.11882120142723
 40
17.11882120142723
 40
18.11882120142723
 40
18.11882120142723
 40
18.11882120142723
 40
19.11882120142723
 40
19.11882120142723
 40
19.11882120142723
 40
19.11882120142723
 40
19.11882120142723
 40
20.11882120142723
 40
20.11882120142723
 40
20.11882120142723
 40
21.11882120142723
 40
21.11882120142723
 40
21.11882120142723
 40
22.11882120142723
 40
22.11882120142723
 40
22.11882120142723
 40
22.11882120142723
 40
22.11882120142723
 40
23.11882120142723
 40
23.11882120142723
 40
23.11882120142723
 40
24.11882120142723
 40
24.11882120142723
 40
24.11882120142723
 40
25.11882120142723
 40
25.11882120142723
 40
25.11882120142723
 40
26.11882120142723
 40
26.11882120142723
 40
26.11882120142723
 40
26.11882120142723
 40
26.11882120142723
 40
27.11882120142723
 40
27.11882120142723
 40
27.11882120142723
 40
28.11882120142723
 40
28.11882120142723
 40
28.11882120142723
 40
28.11882120142723
 40
28.11882120142723
 40
29.11882120142723
 40
29.11882120142723
 40
29.11882120142723
 40
29.11882120142723
 40
30.11882120142723
 40
30.11882120142723
 40
30.11882120142723
 40
30.11882120142723
 40
31.11882120142723
 40
31.11882120142723
 40
31.11882120142723
 40
31.11882120142723
 40
32.11882120142723
 40
32.11882120142723
 40
32.11882120142723
 40
32.11882120142723
 40
33.11882120142723
 40
33.11882120142723
 40
33.11882120142723
 40
33.11882120142723
 40
33.11882120142723
 40
34.11882120142723
 40
34.11882120142723
 40
34.11882120142723
 40
34.11882120142723
 40
34.11882120142723
 40
35.1637853384389
 40
35.1637853384389
 40
35.1637853384389
 40
35.1637853384389
 40
36.1637853384389
 40
36.1637853384389
 40
36.1637853384389
 40
36.1637853384389
 40
36.1637853384389
 40
36.1637853384389
 10
26.03141271139818
 20
27.45890120231872
 30
0.0
 10
25.86460010637553
 20
27.56254073754835
 30
0.0
 10
25.71063957053942
 20
27.67970763926139
 30
0.0
 10
25.56953110388984
 20
27.81040190745786
 30
0.0
 10
25.44127470642681
 20
27.95462354213776
 30
0.0
 10
25.21046604987381
 20
28.27012154446439
 30
0.0
 10
25.10551412936861
 20
28.43339752546511
 30
0.0
 10
25.01101461663472
 20
28.6022004863032
 30
0.0
 10
24.92696751167213
 20
28.77653042697868
 30
0.0
 10
24.77977811728957
 20
29.13624426800441
 30
0.0
 10
24.71161402180105
 20
29.31783666743086
 30
0.0
 10
24.6488805280153
 20
29.50116454577089
 30
0.0
 10
24.59157763593231
 20
29.68622790302452
 30
0.0
 10
24.48783305517187
 20
30.05982557535897
 30
0.0
 10
24.43745601069025
 20
30.24699596635202
 30
0.0
 10
24.38857421210723
 20
30.43453791217092
 30
0.0
 10
24.3411876594228
 20
30.62245141281564
 30
0.0
 10
24.24940504585113
 20
30.99902152375678
 30
0.0
 10
24.20433189300325
 20
31.18749949373437
 30
0.0
 10
24.16007689409332
 20
31.37617037821897
 30
0.0
 10
24.11664004912135
 20
31.56503417721061
 30
0.0
 10
24.07402135808734
 20
31.75409089070925
 30
0.0
 10
23.99927066296964
 20
32.08652108875261
 30
0.0
 10
23.92611459050248
 20
32.41929314583242
 30
0.0
 10
23.85455314068584
 20
32.75240706194869
 30
0.0
 10
23.78458631351976
 20
33.0858628371014
 30
0.0
 10
23.64784190448865
 20
33.75345810547972
 30
0.0
 10
23.58051117107522
 20
34.08746107683476
 30
0.0
 10
23.5142219087639
 20
34.42166938535568
 30
0.0
 10
23.44897411755471
 20
34.75608303104251
 30
0.0
 10
23.32056147734058
 20
35.42532099674791
 30
0.0
 10
23.25717592269303
 20
35.76009318539165
 30
0.0
 10
23.19461113350501
 20
36.09501857982639
 30
0.0
 10
23.13286710977651
 20
36.43009718005216
 30
0.0
 10
23.01102059323855
 20
37.10056079208572
 30
0.0
 10
22.95086359179682
 20
37.43773139299312
 30
0.0
 10
22.89147284718235
 20
37.77684078879115
 30
0.0
 10
22.83284835939514
 20
38.11788897947979
 30
0.0
 10
22.77499012843518
 20
38.46087596505905
 30
0.0
 10
22.73192184606604
 20
38.47302165127414
 30
0.0
 10
22.69028874168362
 20
38.48720661233599
 30
0.0
 10
22.6551223344443
 20
38.50626770559349
 30
0.0
 10
22.63145414350451
 20
38.53304178839551
 30
0.0
 10
22.62431568802063
 20
38.57036571809092
 30
0.0
 10
22.59331631721592
 20
38.73244816563573
 30
0.0
 10
22.56516999013597
 20
38.89498602991345
 30
0.0
 10
22.5398767067808
 20
39.05797931092411
 30
0.0
 10
22.5174364671504
 20
39.22142800866768
 30
0.0
 10
22.47826207533911
 20
39.54923623762066
 30
0.0
 10
22.46335307998671
 20
39.71347372911259
 30
0.0
 10
22.45312228518754
 20
39.87804459761996
 30
0.0
 10
22.44756969094161
 20
40.04294884314275
 30
0.0
 10
22.44582090355621
 20
40.37342408821918
 30
0.0
 10
22.45213260102203
 20
40.53816163286916
 30
0.0
 10
22.46563038964636
 20
40.70239909963087
 30
0.0
 10
22.4863142694292
 20
40.86613648850431
 30
0.0
 10
22.54205421131194
 20
41.19261111047469
 30
0.0
 10
22.57959871078283
 20
41.35300832936487
 30
0.0
 10
22.62681773878324
 20
41.51056545615999
 30
0.0
 10
22.68371129531317
 20
41.66528249086011
 30
0.0
 10
22.75027938037262
 20
41.81715943346519
 30
0.0
 10
22.9562346698609
 20
41.90025020864767
 30
0.0
 10
23.17106168922443
 20
41.96135082079101
 30
0.0
 10
23.39163030887683
 20
41.9991961305602
 30
0.0
 10
23.61453782395588
 20
42.01320229967958
 30
0.0
 10
23.83641140463057
 20
42.00351868529017
 30
0.0
 10
24.11562337966323
 20
41.82029331961366
 30
0.0
 10
24.35633891628556
 20
41.5930288008356
 30
0.0
 10
24.56368570221951
 20
41.33288336189975
 30
0.0
 10
24.92189714815452
 20
40.76914710960003
 30
0.0
 10
25.18765509311153
 20
40.16315304021921
 30
0.0
 10
25.30268782037093
 20
39.85263012197633
 30
0.0
 10
25.4051414324366
 20
39.5376198908988
 30
0.0
 10
25.50028305933392
 20
39.2211609177044
 30
0.0
 10
25.69285941451987
 20
38.58061568412921
 30
0.0
 10
25.87465287856389
 20
37.93700319498437
 30
0.0
 10
26.04763600378226
 20
37.29094939630566
 30
0.0
 10
26.37992668120022
 20
35.99521107195211
 30
0.0
 10
26.69275642184576
 20
34.69471507774936
 30
0.0
 10
26.84733994731178
 20
34.04401914886532
 30
0.0
 10
27.00312601725741
 20
33.39361677387821
 30
0.0
 10
27.16314852101901
 20
32.74424943846766
 30
0.0
 10
27.25922758908923
 20
32.3543629727838
 30
0.0
 10
27.3241031922635
 20
31.95546615561113
 30
0.0
 10
27.35501034081306
 20
31.55197734487541
 30
0.0
 10
27.34918404500917
 20
31.14831489850243
 30
0.0
 10
27.30385931512306
 20
30.748897174418
 30
0.0
 10
27.29107186068508
 20
30.66837069169243
 30
0.0
 10
27.28724834565543
 20
30.58874457066666
 30
0.0
 10
27.29238877003413
 20
30.51001881134067
 30
0.0
 10
27.30649313382116
 20
30.43219341371448
 30
0.0
 10
27.32956143701652
 20
30.35526837778809
 30
0.0
 10
27.40405283943313
 20
30.34406415499728
 30
0.0
 10
27.47991914252614
 20
30.34051378459048
 30
0.0
 10
27.55581227035462
 20
30.34510638559445
 30
0.0
 10
27.63038414697762
 20
30.35833107703592
 30
0.0
 10
27.70228669645422
 20
30.38067697794165
 30
0.0
 10
27.86680407902226
 20
30.43180575091142
 30
0.0
 10
28.03551241756794
 20
30.47636305055694
 30
0.0
 10
28.20725131118639
 20
30.51405975541607
 30
0.0
 10
28.55446940675907
 20
30.57515373263718
 30
0.0
 10
28.9045265153838
 20
30.60649235901534
 30
0.0
 10
29.08000634300936
 20
30.61625181877312
 30
0.0
 10
29.25567896399828
 20
30.62163040937902
 30
0.0
 10
29.43128589840074
 20
30.62415711511249
 30
0.0
 10
30.06113430898664
 20
30.63321963645113
 30
0.0
 10
30.69096030126789
 20
30.64366213815852
 30
0.0
 10
31.32077462562798
 20
30.65485242948445
 30
0.0
 10
32.58040143927283
 20
30.67746420987298
 30
0.0
 10
33.84006758430097
 20
30.69800962273406
 30
0.0
 10
34.46991285782369
 20
30.70742576204854
 30
0.0
 10
35.72963254321208
 20
30.72386495597696
 30
0.0
 10
36.98941997793768
 20
30.73415807956752
 30
0.0
 10
37.61932011245303
 20
30.73871162468441
 30
0.0
 10
38.24921614393921
 20
30.74361565402899
 30
0.0
 10
38.87909755221447
 20
30.74981366850734
 30
0.0
 10
39.07412377719741
 20
30.75173272080865
 30
0.0
 10
39.26915097797519
 20
30.75168232774222
 30
0.0
 10
39.4641621286808
 20
30.74935959352177
 30
0.0
 10
39.85411827821376
 20
30.7395636512003
 30
0.0
 10
40.24387402052228
 20
30.71825517797259
 30
0.0
 10
40.43847043444026
 20
30.7038166670968
 30
0.0
 10
40.82663763694348
 20
30.66555881375045
 30
0.0
 10
41.2118281670606
 20
30.60491473107307
 30
0.0
 10
41.40279774607678
 20
30.56594633186808
 30
0.0
 10
41.77972249613261
 20
30.4646172166585
 30
0.0
 10
42.14309235845199
 20
30.30430426571557
 30
0.0
 10
42.31069299536934
 20
30.20208014211379
 30
0.0
 10
42.45351376573616
 20
30.07046668118472
 30
0.0
 10
42.56085909724424
 20
29.90214219373141
 30
0.0
 10
42.58503634164172
 20
29.79377370014208
 30
0.0
 10
42.60339136481944
 20
29.68410975599878
 30
0.0
 10
42.61588434825521
 20
29.57357059333945
 30
0.0
 10
42.62906659859847
 20
29.35158229506463
 30
0.0
 10
42.61848214179643
 20
29.12945497902932
 30
0.0
 10
42.60728313656213
 20
29.01877723525757
 30
0.0
 10
42.59021225444753
 20
28.90890607441776
 30
0.0
 10
42.56730439540567
 20
28.8002621651959
 30
0.0
 10
42.5019919021279
 20
28.73096648135443
 30
0.0
 10
42.43238256885424
 20
28.66721227517121
 30
0.0
 10
42.3584763955847
 20
28.60899954664625
 30
0.0
 10
42.28027338231929
 20
28.55632829577955
 30
0.0
 10
42.1152736757967
 20
28.46206874936268
 30
0.0
 10
42.03085711524879
 20
28.41948106265855
 30
0.0
 10
41.94452384741426
 20
28.38143546245873
 30
0.0
 10
41.8562738722931
 20
28.34793194876324
 30
0.0
 10
41.67594050747761
 20
28.29000909438088
 30
0.0
 10
41.58509403818401
 20
28.26386961710362
 30
0.0
 10
41.49356778200458
 20
28.24055208974024
 30
0.0
 10
41.40136173893929
 20
28.22005651229077
 30
0.0
 10
41.21559007903701
 20
28.18470925721965
 30
0.0
 10
41.12248764388421
 20
28.16848787869534
 30
0.0
 10
41.02916860352975
 20
28.15371874918228
 30
0.0
 10
40.93563295797365
 20
28.14040186868048
 30
0.0
 10
40.74812845645813
 20
28.11667260569938
 30
0.0
 10
40.65435464078915
 20
28.10501355178564
 30
0.0
 10
40.56055926020895
 20
28.09356007544869
 30
0.0
 10
40.46674231471752
 20
28.08231217668855
 30
0.0
 10
40.37290380431487
 20
28.07126985550521
 30
0.0
 10
40.33662870520185
 20
28.06700123174249
 30
0.0
 10
40.30557533761115
 20
28.08082606593077
 30
0.0
 10
40.27850713434532
 20
28.10746007026114
 30
0.0
 10
40.25418752820694
 20
28.14161895692467
 30
0.0
 10
40.23137995199855
 20
28.17801843811242
 30
0.0
 10
40.09434417695405
 20
28.15046868340669
 30
0.0
 10
39.95720606130935
 20
28.12345051687437
 30
0.0
 10
39.81996560506444
 20
28.09696393851547
 30
0.0
 10
39.68262280821931
 20
28.07100894832999
 30
0.0
 10
39.41364670949296
 20
28.02125609699848
 30
0.0
 10
39.28203678345508
 20
27.99737065084304
 30
0.0
 10
39.15034789266029
 20
27.97392920785159
 30
0.0
 10
39.0185800371086
 20
27.95093176802413
 30
0.0
 10
38.8867332168
 20
27.92837833136067
 30
0.0
  0
SPLINE
  5
D2
330
1F
100
AcDbEntity
  8
0
100
AcDbSpline
210
0.0
220
0.0
230
1.0
 70
    15
 71
     3
 72
    17
 73
    13
 74
     0
 42
0.000000001
 43
0.0000000001
 40
-66.85822351689727
 40
-66.85822351689727
 40
-66.85822351689727
 40
-66.85822351689727
 40
-66.47010254008285
 40
-66.47010254008285
 40
-66.47010254008285
 40
-52.72985803619736
 40
-52.72985803619736
 40
-52.72985803619736
 40
-52.35250236418132
 40
-52.35250236418132
 40
-52.35250236418132
 40
-38.71285684202027
 40
-38.71285684202027
 40
-38.71285684202027
 40
-38.71285684202027
 10
25.22332929067133
 20
12.23172598271459
 30
0.0
 41
0.9999999999999998
 10
25.20305853257016
 20
12.10611913555019
 30
0.0
 41
0.9999999999999998
 10
25.18278777446899
 20
11.98051228838578
 30
0.0
 41
0.9999999999999998
 10
25.16251701636782
 20
11.85490544122138
 30
0.0
 41
0.9999999999999998
 10
29.73727669701295
 20
11.98112508975223
 30
0.0
 41
0.9999999999999998
 10
34.31203637765807
 20
12.10734473828307
 30
0.0
 41
0.9999999999999998
 10
38.8867960583032
 20
12.23356438681392
 30
0.0
 41
0.9999999999999998
 10
38.87357278612151
 20
12.35824711882795
 30
0.0
 41
0.9999999999999998
 10
38.86034951393982
 20
12.48292985084198
 30
0.0
 41
0.9999999999999998
 10
38.84712624175813
 20
12.607612582856
 30
0.0
 41
0.9999999999999998
 10
34.30586059139586
 20
12.48231704947553
 30
0.0
 41
0.9999999999999998
 10
29.76459494103359
 20
12.35702151609506
 30
0.0
 41
0.9999999999999998
 10
25.22332929067132
 20
12.23172598271459
 30
0.0
 41
0.9999999999999998
  0
ENDSEC
  0
SECTION
  2
OBJECTS
  0
DICTIONARY
  5
C
330
0
100
AcDbDictionary
281
     1
  3
ACAD_DETAILVIEWSTYLE
350
10E
  3
ACAD_GROUP
350
D
  3
ACAD_LAYOUT
350
1A
  3
ACAD_MATERIAL
350
43
  3
ACAD_MLEADERSTYLE
350
6B
  3
ACAD_MLINESTYLE
350
17
  3
ACAD_PLOTSETTINGS
350
19
  3
ACAD_PLOTSTYLENAME
350
E
  3
ACAD_SCALELIST
350
47
  3
ACAD_SECTIONVIEWSTYLE
350
10F
  3
ACAD_TABLESTYLE
350
69
  3
ACAD_VISUALSTYLE
350
2A
  3
ACDB_RECOMPOSE_DATA
350
10B
  3
AcDbVariableDictionary
350
D3
  0
SUN
  5
6D
330
29
100
AcDbSun
 90
        1
290
     0
 63
     7
421
 16777215
 40
1.0
291
     1
 91
  2455826
 92
 54000000
292
     0
 70
     2
 71
   256
280
     1
  0
DICTIONARY
  5
10E
102
{ACAD_REACTORS
330
C
102
}
330
C
100
AcDbDictionary
281
     1
  0
DICTIONARY
  5
D
102
{ACAD_REACTORS
330
C
102
}
330
C
100
AcDbDictionary
281
     1
  0
DICTIONARY
  5
1A
102
{ACAD_REACTORS
330
C
102
}
330
C
100
AcDbDictionary
281
     1
  3
Layout1
350
1E
  3
Layout2
350
26
  3
Model
350
22
  0
DICTIONARY
  5
43
102
{ACAD_REACTORS
330
C
102
}
330
C
100
AcDbDictionary
281
     1
  3
ByBlock
350
45
  3
ByLayer
350
44
  3
Global
350
46
  0
DICTIONARY
  5
6B
102
{ACAD_REACTORS
330
C
102
}
330
C
100
AcDbDictionary
281
     1
  3
Standard
350
6C
  0
DICTIONARY
  5
17
102
{ACAD_REACTORS
330
C
102
}
330
C
100
AcDbDictionary
281
     1
  3
Standard
350
18
  0
DICTIONARY
  5
19
102
{ACAD_REACTORS
330
C
102
}
330
C
100
AcDbDictionary
281
     1
  0
ACDBDICTIONARYWDFLT
  5
E
102
{ACAD_REACTORS
330
C
102
}
330
C
100
AcDbDictionary
281
     1
  3
Normal
350
F
100
AcDbDictionaryWithDefault
340
F
  0
DICTIONARY
  5
47
102
{ACAD_REACTORS
330
C
102
}
330
C
100
AcDbDictionary
281
     1
  3
A0
350
48
  3
A1
350
49
  3
A2
350
4A
  3
A3
350
4B
  3
A4
350
4C
  3
A5
350
4D
  3
A6
350
4E
  3
A7
350
4F
  3
A8
350
50
  3
A9
350
51
  3
B0
350
52
  3
B1
350
53
  3
B2
350
54
  3
B3
350
55
  3
B4
350
56
  3
B5
350
57
  3
B6
350
58
  3
B7
350
59
  3
B8
350
5A
  3
B9
350
5B
  3
C0
350
5C
  3
C1
350
5D
  3
C2
350
5E
  3
C3
350
5F
  3
C4
350
60
  3
C5
350
61
  3
C6
350
62
  3
C7
350
63
  3
C8
350
64
  3
C9
350
65
  3
D0
350
66
  3
D1
350
67
  3
D2
350
68
  0
DICTIONARY
  5
10F
102
{ACAD_REACTORS
330
C
102
}
330
C
100
AcDbDictionary
281
     1
  0
DICTIONARY
  5
69
102
{ACAD_REACTORS
330
C
102
}
330
C
100
AcDbDictionary
281
     1
  3
Standard
350
6A
  0
DICTIONARY
  5
2A
102
{ACAD_REACTORS
330
C
102
}
330
C
100
AcDbDictionary
281
     1
  3
2dWireframe
350
2F
  3
Basic
350
32
  3
Brighten
350
36
  3
ColorChange
350
3A
  3
Conceptual
350
34
  3
Dim
350
35
  3
EdgeColorOff
350
3D
  3
Facepattern
350
39
  3
Flat
350
2B
  3
FlatWithEdges
350
2C
  3
Gouraud
350
2D
  3
GouraudWithEdges
350
2E
  3
Hidden
350
31
  3
JitterOff
350
3B
  3
Linepattern
350
38
  3
OverhangOff
350
3C
  3
Realistic
350
33
  3
Shaded
350
42
  3
Shaded with edges
350
41
  3
Shades of Gray
350
3E
  3
Sketchy
350
3F
  3
Thicken
350
37
  3
Wireframe
350
30
  3
X-Ray
350
40
  0
XRECORD
  5
10B
102
{ACAD_REACTORS
330
C
102
}
330
C
100
AcDbXrecord
280
     1
 90
        1
330
6A
  0
DICTIONARY
  5
D3
102
{ACAD_REACTORS
330
C
102
}
330
C
100
AcDbDictionary
281
     1
  3
CANNOSCALE
350
D4
  3
CMLEADERSTYLE
350
10D
  3
CTABLESTYLE
350
10C
  3
XCLIPFRAME
350
D5
  0
LAYOUT
  5
1E
102
{ACAD_REACTORS
330
1A
102
}
330
1A
100
AcDbPlotSettings
  1

  2
none_device
  4

  6

 40
0.0
 41
0.0
 42
0.0
 43
0.0
 44
0.0
 45
0.0
 46
0.0
 47
0.0
 48
0.0
 49
0.0
140
0.0
141
0.0
142
1.0
143
1.0
 70
   688
 72
     0
 73
     0
 74
     5
  7

 75
    16
 76
     0
 77
     2
 78
   300
147
1.0
148
0.0
149
0.0
100
AcDbLayout
  1
Layout1
 70
     1
 71
     1
 10
0.0
 20
0.0
 11
12.0
 21
9.0
 12
0.0
 22
0.0
 32
0.0
 14
1.000000000000000E+20
 24
1.000000000000000E+20
 34
1.000000000000000E+20
 15
-1.000000000000000E+20
 25
-1.000000000000000E+20
 35
-1.000000000000000E+20
146
0.0
 13
0.0
 23
0.0
 33
0.0
 16
1.0
 26
0.0
 36
0.0
 17
0.0
 27
1.0
 37
0.0
 76
     0
330
1B
  0
LAYOUT
  5
26
102
{ACAD_REACTORS
330
1A
102
}
330
1A
100
AcDbPlotSettings
  1

  2
none_device
  4

  6

 40
0.0
 41
0.0
 42
0.0
 43
0.0
 44
0.0
 45
0.0
 46
0.0
 47
0.0
 48
0.0
 49
0.0
140
0.0
141
0.0
142
1.0
143
1.0
 70
   688
 72
     0
 73
     0
 74
     5
  7

 75
    16
 76
     0
 77
     2
 78
   300
147
1.0
148
0.0
149
0.0
100
AcDbLayout
  1
Layout2
 70
     1
 71
     2
 10
0.0
 20
0.0
 11
0.0
 21
0.0
 12
0.0
 22
0.0
 32
0.0
 14
0.0
 24
0.0
 34
0.0
 15
0.0
 25
0.0
 35
0.0
146
0.0
 13
0.0
 23
0.0
 33
0.0
 16
1.0
 26
0.0
 36
0.0
 17
0.0
 27
1.0
 37
0.0
 76
     0
330
23
  0
LAYOUT
  5
22
102
{ACAD_REACTORS
330
1A
102
}
330
1A
100
AcDbPlotSettings
  1

  2
none_device
  4
Letter_(8.50_x_11.00_Inches)
  6

 40
6.35
 41
6.35
 42
6.35000508
 43
6.35000508
 44
215.9
 45
279.4
 46
0.0
 47
0.0
 48
0.0
 49
0.0
140
0.0
141
0.0
142
1.0
143
1.0
 70
  1712
 72
     0
 73
     0
 74
     0
  7

 75
     0
 76
     0
 77
     2
 78
   300
147
1.0
148
0.0
149
0.0
100
AcDbLayout
  1
Model
 70
     1
 71
     0
 10
0.0
 20
0.0
 11
12.0
 21
9.0
 12
0.0
 22
0.0
 32
0.0
 14
1.000000000000000E+20
 24
1.000000000000000E+20
 34
1.000000000000000E+20
 15
-1.000000000000000E+20
 25
-1.000000000000000E+20
 35
-1.000000000000000E+20
146
0.0
 13
0.0
 23
0.0
 33
0.0
 16
1.0
 26
0.0
 36
0.0
 17
0.0
 27
1.0
 37
0.0
 76
     0
330
1F
331
29
  0
MATERIAL
  5
45
102
{ACAD_REACTORS
330
43
102
}
330
43
100
AcDbMaterial
  1
ByBlock
 72
     1
 94
      127
  0
MATERIAL
  5
44
102
{ACAD_REACTORS
330
43
102
}
330
43
100
AcDbMaterial
  1
ByLayer
 72
     1
 94
      127
  0
MATERIAL
  5
46
102
{ACAD_REACTORS
330
43
102
}
330
43
100
AcDbMaterial
  1
Global
 72
     1
 94
      127
  0
MLEADERSTYLE
  5
6C
102
{ACAD_REACTORS
330
6B
102
}
102
{ACAD_XDICTIONARY
360
109
102
}
330
6B
100
AcDbMLeaderStyle
170
     2
171
     1
172
     0
 90
        2
 40
0.0
 41
0.0
173
     1
 91
-1056964608
340
14
 92
       -2
290
     1
 42
0.09
291
     1
 43
0.36
  3
Standard
341
0
 44
0.18
300

342
11
174
     1
178
     6
175
     1
176
     0
 93
-1056964608
 45
0.18
292
     0
297
     0
 46
0.18
343
0
 94
-1056964608
 47
1.0
 49
1.0
140
1.0
293
     1
141
0.0
294
     1
177
     0
142
1.0
295
     0
296
     0
143
0.125
1001
ACAD_MLEADERVER
1070
     2
  0
MLINESTYLE
  5
18
102
{ACAD_REACTORS
330
17
102
}
330
17
100
AcDbMlineStyle
  2
Standard
 70
     0
  3

 62
   256
 51
90.0
 52
90.0
 71
     2
 49
0.5
 62
   256
  6
BYLAYER
 49
-0.5
 62
   256
  6
BYLAYER
  0
ACDBPLACEHOLDER
  5
F
102
{ACAD_REACTORS
330
E
102
}
330
E
  0
SCALE
  5
48
102
{ACAD_REACTORS
330
47
102
}
330
47
100
AcDbScale
 70
     0
300
1:1
140
1.0
141
1.0
290
     1
  0
SCALE
  5
49
102
{ACAD_REACTORS
330
47
102
}
330
47
100
AcDbScale
 70
     0
300
1:2
140
1.0
141
2.0
290
     0
  0
SCALE
  5
4A
102
{ACAD_REACTORS
330
47
102
}
330
47
100
AcDbScale
 70
     0
300
1:4
140
1.0
141
4.0
290
     0
  0
SCALE
  5
4B
102
{ACAD_REACTORS
330
47
102
}
330
47
100
AcDbScale
 70
     0
300
1:5
140
1.0
141
5.0
290
     0
  0
SCALE
  5
4C
102
{ACAD_REACTORS
330
47
102
}
330
47
100
AcDbScale
 70
     0
300
1:8
140
1.0
141
8.0
290
     0
  0
SCALE
  5
4D
102
{ACAD_REACTORS
330
47
102
}
330
47
100
AcDbScale
 70
     0
300
1:10
140
1.0
141
10.0
290
     0
  0
SCALE
  5
4E
102
{ACAD_REACTORS
330
47
102
}
330
47
100
AcDbScale
 70
     0
300
1:16
140
1.0
141
16.0
290
     0
  0
SCALE
  5
4F
102
{ACAD_REACTORS
330
47
102
}
330
47
100
AcDbScale
 70
     0
300
1:20
140
1.0
141
20.0
290
     0
  0
SCALE
  5
50
102
{ACAD_REACTORS
330
47
102
}
330
47
100
AcDbScale
 70
     0
300
1:30
140
1.0
141
30.0
290
     0
  0
SCALE
  5
51
102
{ACAD_REACTORS
330
47
102
}
330
47
100
AcDbScale
 70
     0
300
1:40
140
1.0
141
40.0
290
     0
  0
SCALE
  5
52
102
{ACAD_REACTORS
330
47
102
}
330
47
100
AcDbScale
 70
     0
300
1:50
140
1.0
141
50.0
290
     0
  0
SCALE
  5
53
102
{ACAD_REACTORS
330
47
102
}
330
47
100
AcDbScale
 70
     0
300
1:100
140
1.0
141
100.0
290
     0
  0
SCALE
  5
54
102
{ACAD_REACTORS
330
47
102
}
330
47
100
AcDbScale
 70
     0
300
2:1
140
2.0
141
1.0
290
     0
  0
SCALE
  5
55
102
{ACAD_REACTORS
330
47
102
}
330
47
100
AcDbScale
 70
     0
300
4:1
140
4.0
141
1.0
290
     0
  0
SCALE
  5
56
102
{ACAD_REACTORS
330
47
102
}
330
47
100
AcDbScale
 70
     0
300
8:1
140
8.0
141
1.0
290
     0
  0
SCALE
  5
57
102
{ACAD_REACTORS
330
47
102
}
330
47
100
AcDbScale
 70
     0
300
10:1
140
10.0
141
1.0
290
     0
  0
SCALE
  5
58
102
{ACAD_REACTORS
330
47
102
}
330
47
100
AcDbScale
 70
     0
300
100:1
140
100.0
141
1.0
290
     0
  0
SCALE
  5
59
102
{ACAD_REACTORS
330
47
102
}
330
47
100
AcDbScale
 70
     0
300
1/128" = 1'-0"
140
0.0078125
141
12.0
290
     0
  0
SCALE
  5
5A
102
{ACAD_REACTORS
330
47
102
}
330
47
100
AcDbScale
 70
     0
300
1/64" = 1'-0"
140
0.015625
141
12.0
290
     0
  0
SCALE
  5
5B
102
{ACAD_REACTORS
330
47
102
}
330
47
100
AcDbScale
 70
     0
300
1/32" = 1'-0"
140
0.03125
141
12.0
290
     0
  0
SCALE
  5
5C
102
{ACAD_REACTORS
330
47
102
}
330
47
100
AcDbScale
 70
     0
300
1/16" = 1'-0"
140
0.0625
141
12.0
290
     0
  0
SCALE
  5
5D
102
{ACAD_REACTORS
330
47
102
}
330
47
100
AcDbScale
 70
     0
300
3/32" = 1'-0"
140
0.09375
141
12.0
290
     0
  0
SCALE
  5
5E
102
{ACAD_REACTORS
330
47
102
}
330
47
100
AcDbScale
 70
     0
300
1/8" = 1'-0"
140
0.125
141
12.0
290
     0
  0
SCALE
  5
5F
102
{ACAD_REACTORS
330
47
102
}
330
47
100
AcDbScale
 70
     0
300
3/16" = 1'-0"
140
0.1875
141
12.0
290
     0
  0
SCALE
  5
60
102
{ACAD_REACTORS
330
47
102
}
330
47
100
AcDbScale
 70
     0
300
1/4" = 1'-0"
140
0.25
141
12.0
290
     0
  0
SCALE
  5
61
102
{ACAD_REACTORS
330
47
102
}
330
47
100
AcDbScale
 70
     0
300
3/8" = 1'-0"
140
0.375
141
12.0
290
     0
  0
SCALE
  5
62
102
{ACAD_REACTORS
330
47
102
}
330
47
100
AcDbScale
 70
     0
300
1/2" = 1'-0"
140
0.5
141
12.0
290
     0
  0
SCALE
  5
63
102
{ACAD_REACTORS
330
47
102
}
330
47
100
AcDbScale
 70
     0
300
3/4" = 1'-0"
140
0.75
141
12.0
290
     0
  0
SCALE
  5
64
102
{ACAD_REACTORS
330
47
102
}
330
47
100
AcDbScale
 70
     0
300
1" = 1'-0"
140
1.0
141
12.0
290
     0
  0
SCALE
  5
65
102
{ACAD_REACTORS
330
47
102
}
330
47
100
AcDbScale
 70
     0
300
1-1/2" = 1'-0"
140
1.5
141
12.0
290
     0
  0
SCALE
  5
66
102
{ACAD_REACTORS
330
47
102
}
330
47
100
AcDbScale
 70
     0
300
3" = 1'-0"
140
3.0
141
12.0
290
     0
  0
SCALE
  5
67
102
{ACAD_REACTORS
330
47
102
}
330
47
100
AcDbScale
 70
     0
300
6" = 1'-0"
140
6.0
141
12.0
290
     0
  0
SCALE
  5
68
102
{ACAD_REACTORS
330
47
102
}
330
47
100
AcDbScale
 70
     0
300
1'-0" = 1'-0"
140
12.0
141
12.0
290
     0
  0
TABLESTYLE
  5
6A
102
{ACAD_REACTORS
330
69
102
}
102
{ACAD_XDICTIONARY
360
106
102
}
330
69
100
AcDbTableStyle
  3
Standard
 70
     0
 71
     0
 40
0.06
 41
0.06
280
     0
281
     0
  7
Standard
140
0.18
170
     2
 62
     0
 63
   257
283
     0
 90
        4
 91
        0
  1

274
    -2
284
     1
 64
     0
275
    -2
285
     1
 65
     0
276
    -2
286
     1
 66
     0
277
    -2
287
     1
 67
     0
278
    -2
288
     1
 68
     0
279
    -2
289
     1
 69
     0
  7
Standard
140
0.25
170
     5
 62
     0
 63
   257
283
     0
 90
        4
 91
        0
  1

274
    -2
284
     1
 64
     0
275
    -2
285
     1
 65
     0
276
    -2
286
     1
 66
     0
277
    -2
287
     1
 67
     0
278
    -2
288
     1
 68
     0
279
    -2
289
     1
 69
     0
  7
Standard
140
0.18
170
     5
 62
     0
 63
   257
283
     0
 90
        4
 91
        0
  1

274
    -2
284
     1
 64
     0
275
    -2
285
     1
 65
     0
276
    -2
286
     1
 66
     0
277
    -2
287
     1
 67
     0
278
    -2
288
     1
 68
     0
279
    -2
289
     1
 69
     0
  0
VISUALSTYLE
  5
2F
102
{ACAD_REACTORS
330
2A
102
}
102
{ACAD_XDICTIONARY
360
DE
102
}
330
2A
100
AcDbVisualStyle
  2
2dWireframe
 70
     4
 71
     0
 72
     2
 73
     0
 90
        0
 40
0.6
 41
30.0
 62
     5
 63
     7
421
 16777215
 74
     1
 91
        4
 64
     7
 65
   257
 75
     1
175
     1
 42
1.0
 92
        0
 66
   257
 43
1.0
 76
     1
 77
     6
 78
     2
 67
     7
 79
     5
170
     0
171
     0
290
     0
174
     0
 93
        1
 44
0.0
173
     0
291
     0
 45
0.0
  0
VISUALSTYLE
  5
32
102
{ACAD_REACTORS
330
2A
102
}
102
{ACAD_XDICTIONARY
360
E4
102
}
330
2A
100
AcDbVisualStyle
  2
Basic
 70
     7
 71
     1
 72
     0
 73
     1
 90
        0
 40
0.6
 41
30.0
 62
     5
 63
     7
421
 16777215
 74
     0
 91
        4
 64
     7
 65
   257
 75
     1
175
     1
 42
1.0
 92
        8
 66
     7
 43
1.0
 76
     1
 77
     6
 78
     2
 67
     7
 79
     5
170
     0
171
     0
290
     0
174
     0
 93
        1
 44
0.0
173
     0
291
     1
 45
0.0
  0
VISUALSTYLE
  5
36
102
{ACAD_REACTORS
330
2A
102
}
102
{ACAD_XDICTIONARY
360
EC
102
}
330
2A
100
AcDbVisualStyle
  2
Brighten
 70
    12
 71
     2
 72
     2
 73
     0
 90
        0
 40
0.6
 41
30.0
 62
     5
 63
     7
421
 16777215
 74
     1
 91
        4
 64
     7
 65
   257
 75
     1
175
     1
 42
1.0
 92
        8
 66
     7
 43
1.0
 76
     1
 77
     6
 78
     2
 67
     7
 79
     5
170
     0
171
     0
290
     0
174
     0
 93
        1
 44
50.0
173
     0
291
     1
 45
0.0
  0
VISUALSTYLE
  5
3A
102
{ACAD_REACTORS
330
2A
102
}
102
{ACAD_XDICTIONARY
360
F4
102
}
330
2A
100
AcDbVisualStyle
  2
ColorChange
 70
    16
 71
     2
 72
     2
 73
     3
 90
        0
 40
0.6
 41
30.0
 62
     5
 63
     8
421
  8421504
 74
     1
 91
        4
 64
     7
 65
   257
 75
     1
175
     1
 42
1.0
 92
        8
 66
     8
424
  8421504
 43
1.0
 76
     1
 77
     6
 78
     2
 67
     7
 79
     5
170
     0
171
     0
290
     0
174
     0
 93
        1
 44
0.0
173
     0
291
     1
 45
0.0
  0
VISUALSTYLE
  5
34
102
{ACAD_REACTORS
330
2A
102
}
102
{ACAD_XDICTIONARY
360
E8
102
}
330
2A
100
AcDbVisualStyle
  2
Conceptual
 70
     9
 71
     3
 72
     2
 73
     0
 90
        0
 40
0.6
 41
30.0
 62
     5
 63
     7
421
 16777215
 74
     2
 91
        2
 64
     7
 65
   257
 75
     1
175
     1
 42
179.0
 92
        8
 66
     7
 43
1.0
 76
     1
 77
     6
 78
     2
 67
     7
 79
     3
170
     0
171
     0
290
     0
174
     0
 93
        1
 44
0.0
173
     0
291
     0
 45
0.0
  0
VISUALSTYLE
  5
35
102
{ACAD_REACTORS
330
2A
102
}
102
{ACAD_XDICTIONARY
360
EA
102
}
330
2A
100
AcDbVisualStyle
  2
Dim
 70
    11
 71
     2
 72
     2
 73
     0
 90
        0
 40
0.6
 41
30.0
 62
     5
 63
     7
421
 16777215
 74
     1
 91
        4
 64
     7
 65
   257
 75
     1
175
     1
 42
1.0
 92
        8
 66
     7
 43
1.0
 76
     1
 77
     6
 78
     2
 67
     7
 79
     5
170
     0
171
     0
290
     0
174
     0
 93
        1
 44
-50.0
173
     0
291
     1
 45
0.0
  0
VISUALSTYLE
  5
3D
102
{ACAD_REACTORS
330
2A
102
}
102
{ACAD_XDICTIONARY
360
FA
102
}
330
2A
100
AcDbVisualStyle
  2
EdgeColorOff
 70
    22
 71
     2
 72
     2
 73
     0
 90
        0
 40
0.6
 41
30.0
 62
     5
 63
     7
421
 16777215
 74
     1
 91
        4
 64
     7
 65
   257
 75
     1
175
     1
 42
1.0
 92
        8
 66
     7
 43
1.0
 76
     1
 77
     6
 78
     2
 67
     7
 79
     5
170
     0
171
     0
290
     0
174
     0
 93
        1
 44
0.0
173
     0
291
     1
 45
0.0
  0
VISUALSTYLE
  5
39
102
{ACAD_REACTORS
330
2A
102
}
102
{ACAD_XDICTIONARY
360
F2
102
}
330
2A
100
AcDbVisualStyle
  2
Facepattern
 70
    15
 71
     2
 72
     2
 73
     0
 90
        0
 40
0.6
 41
30.0
 62
     5
 63
     7
421
 16777215
 74
     1
 91
        4
 64
     7
 65
   257
 75
     1
175
     1
 42
1.0
 92
        8
 66
     7
 43
1.0
 76
     1
 77
     6
 78
     2
 67
     7
 79
     5
170
     0
171
     0
290
     0
174
     0
 93
        1
 44
0.0
173
     0
291
     1
 45
0.0
  0
VISUALSTYLE
  5
2B
102
{ACAD_REACTORS
330
2A
102
}
102
{ACAD_XDICTIONARY
360
D6
102
}
330
2A
100
AcDbVisualStyle
  2
Flat
 70
     0
 71
     2
 72
     1
 73
     1
 90
        2
 40
0.6
 41
30.0
 62
     5
 63
     7
421
 16777215
 74
     0
 91
        0
 64
     7
 65
   257
 75
     1
175
     1
 42
1.0
 92
        8
 66
     7
 43
1.0
 76
     1
 77
     6
 78
     2
 67
     7
 79
     5
170
     0
171
     0
290
     0
174
     0
 93
       13
 44
0.0
173
     0
291
     1
 45
0.0
  0
VISUALSTYLE
  5
2C
102
{ACAD_REACTORS
330
2A
102
}
102
{ACAD_XDICTIONARY
360
D8
102
}
330
2A
100
AcDbVisualStyle
  2
FlatWithEdges
 70
     1
 71
     2
 72
     1
 73
     1
 90
        2
 40
0.6
 41
30.0
 62
     5
 63
     7
421
 16777215
 74
     1
 91
        0
 64
     7
 65
   257
 75
     1
175
     1
 42
1.0
 92
        0
 66
   257
 43
1.0
 76
     1
 77
     6
 78
     2
 67
     7
 79
     5
170
     0
171
     0
290
     0
174
     0
 93
       13
 44
0.0
173
     0
291
     1
 45
0.0
  0
VISUALSTYLE
  5
2D
102
{ACAD_REACTORS
330
2A
102
}
102
{ACAD_XDICTIONARY
360
DA
102
}
330
2A
100
AcDbVisualStyle
  2
Gouraud
 70
     2
 71
     2
 72
     2
 73
     1
 90
        2
 40
0.6
 41
30.0
 62
     5
 63
     7
421
 16777215
 74
     0
 91
        0
 64
     7
 65
   257
 75
     1
175
     1
 42
1.0
 92
        0
 66
     7
 43
1.0
 76
     1
 77
     6
 78
     2
 67
     7
 79
     5
170
     0
171
     0
290
     0
174
     0
 93
       13
 44
0.0
173
     0
291
     1
 45
0.0
  0
VISUALSTYLE
  5
2E
102
{ACAD_REACTORS
330
2A
102
}
102
{ACAD_XDICTIONARY
360
DC
102
}
330
2A
100
AcDbVisualStyle
  2
GouraudWithEdges
 70
     3
 71
     2
 72
     2
 73
     1
 90
        2
 40
0.6
 41
30.0
 62
     5
 63
     7
421
 16777215
 74
     1
 91
        0
 64
     7
 65
   257
 75
     1
175
     1
 42
1.0
 92
        0
 66
   257
 43
1.0
 76
     1
 77
     6
 78
     2
 67
     7
 79
     5
170
     0
171
     0
290
     0
174
     0
 93
       13
 44
0.0
173
     0
291
     1
 45
0.0
  0
VISUALSTYLE
  5
31
102
{ACAD_REACTORS
330
2A
102
}
102
{ACAD_XDICTIONARY
360
E2
102
}
330
2A
100
AcDbVisualStyle
  2
Hidden
 70
     6
 71
     1
 72
     2
 73
     2
 90
        0
 40
0.6
 41
30.0
 62
     5
 63
     7
421
 16777215
 74
     2
 91
        2
 64
     7
 65
   257
 75
     2
175
     1
 42
40.0
 92
        0
 66
   257
 43
1.0
 76
     1
 77
     6
 78
     2
 67
     7
 79
     3
170
     0
171
     0
290
     0
174
     0
 93
        1
 44
0.0
173
     0
291
     0
 45
0.0
  0
VISUALSTYLE
  5
3B
102
{ACAD_REACTORS
330
2A
102
}
102
{ACAD_XDICTIONARY
360
F6
102
}
330
2A
100
AcDbVisualStyle
  2
JitterOff
 70
    20
 71
     2
 72
     2
 73
     0
 90
        0
 40
0.6
 41
30.0
 62
     5
 63
     7
421
 16777215
 74
     1
 91
        4
 64
     7
 65
   257
 75
     1
175
     1
 42
1.0
 92
       10
 66
     7
 43
1.0
 76
     1
 77
     6
 78
     2
 67
     7
 79
     5
170
     0
171
     0
290
     0
174
     0
 93
        1
 44
0.0
173
     0
291
     1
 45
0.0
  0
VISUALSTYLE
  5
38
102
{ACAD_REACTORS
330
2A
102
}
102
{ACAD_XDICTIONARY
360
F0
102
}
330
2A
100
AcDbVisualStyle
  2
Linepattern
 70
    14
 71
     2
 72
     2
 73
     0
 90
        0
 40
0.6
 41
30.0
 62
     5
 63
     7
421
 16777215
 74
     1
 91
        4
 64
     7
 65
   257
 75
     7
175
     7
 42
1.0
 92
        8
 66
     7
 43
1.0
 76
     1
 77
     6
 78
     2
 67
     7
 79
     5
170
     0
171
     0
290
     0
174
     0
 93
        1
 44
0.0
173
     0
291
     1
 45
0.0
  0
VISUALSTYLE
  5
3C
102
{ACAD_REACTORS
330
2A
102
}
102
{ACAD_XDICTIONARY
360
F8
102
}
330
2A
100
AcDbVisualStyle
  2
OverhangOff
 70
    21
 71
     2
 72
     2
 73
     0
 90
        0
 40
0.6
 41
30.0
 62
     5
 63
     7
421
 16777215
 74
     1
 91
        4
 64
     7
 65
   257
 75
     1
175
     1
 42
1.0
 92
        9
 66
     7
 43
1.0
 76
     1
 77
     6
 78
     2
 67
     7
 79
     5
170
     0
171
     0
290
     0
174
     0
 93
        1
 44
0.0
173
     0
291
     1
 45
0.0
  0
VISUALSTYLE
  5
33
102
{ACAD_REACTORS
330
2A
102
}
102
{ACAD_XDICTIONARY
360
E6
102
}
330
2A
100
AcDbVisualStyle
  2
Realistic
 70
     8
 71
     2
 72
     3
 73
     0
 90
        2
 40
0.6
 41
30.0
 62
     5
 63
     7
421
 16777215
 74
     0
 91
        0
 64
     7
 65
   257
 75
     1
175
     1
 42
1.0
 92
        8
 66
   257
 43
1.0
 76
     1
 77
     6
 78
     2
 67
     7
 79
     3
170
     0
171
     0
290
     0
174
     0
 93
       13
 44
0.0
173
     0
291
     0
 45
0.0
  0
VISUALSTYLE
  5
42
102
{ACAD_REACTORS
330
2A
102
}
102
{ACAD_XDICTIONARY
360
104
102
}
330
2A
100
AcDbVisualStyle
  2
Shaded
 70
    27
 71
     2
 72
     2
 73
     1
 90
        2
 40
0.6
 41
30.0
 62
     5
 63
     7
421
 16777215
 74
     0
 91
        4
 64
     7
 65
   257
 75
     1
175
     1
 42
1.0
 92
        8
 66
   257
 43
1.0
 76
     1
 77
     6
 78
     2
 67
     8
425
  7895160
 79
     3
170
     0
171
     0
290
     0
174
     0
 93
        5
 44
0.0
173
     0
291
     0
 45
0.0
  0
VISUALSTYLE
  5
41
102
{ACAD_REACTORS
330
2A
102
}
102
{ACAD_XDICTIONARY
360
102
102
}
330
2A
100
AcDbVisualStyle
  2
Shaded with edges
 70
    26
 71
     2
 72
     2
 73
     1
 90
        2
 40
0.6
 41
30.0
 62
     5
 63
     7
421
 16777215
 74
     1
 91
       10
 64
     7
 65
   257
 75
     2
175
     1
 42
1.0
 92
        8
 66
   257
 43
1.0
 76
     1
 77
     6
 78
     2
 67
     7
 79
     3
170
     0
171
     0
290
     0
174
     0
 93
        5
 44
0.0
173
     0
291
     0
 45
0.0
  0
VISUALSTYLE
  5
3E
102
{ACAD_REACTORS
330
2A
102
}
102
{ACAD_XDICTIONARY
360
FC
102
}
330
2A
100
AcDbVisualStyle
  2
Shades of Gray
 70
    23
 71
     2
 72
     2
 73
     3
 90
        0
 40
0.6
 41
30.0
 62
     5
 63
     7
421
 16777215
 74
     2
 91
        2
 64
     7
 65
     7
 75
     1
175
     1
 42
40.0
 92
        8
 66
     7
 43
1.0
 76
     1
 77
     6
 78
     2
 67
     7
 79
     3
170
     0
171
     0
290
     0
174
     0
 93
        1
 44
0.0
173
     0
291
     0
 45
0.0
  0
VISUALSTYLE
  5
3F
102
{ACAD_REACTORS
330
2A
102
}
102
{ACAD_XDICTIONARY
360
FE
102
}
330
2A
100
AcDbVisualStyle
  2
Sketchy
 70
    24
 71
     1
 72
     2
 73
     2
 90
        0
 40
0.6
 41
30.0
 62
     5
 63
     7
421
 16777215
 74
     2
 91
        2
 64
     7
 65
     7
 75
     1
175
     1
 42
40.0
 92
       11
 66
     7
 43
1.0
 76
     1
 77
     6
 78
     2
 67
     7
 79
     6
170
     0
171
     0
290
     0
174
     0
 93
        1
 44
0.0
173
     0
291
     0
 45
0.0
  0
VISUALSTYLE
  5
37
102
{ACAD_REACTORS
330
2A
102
}
102
{ACAD_XDICTIONARY
360
EE
102
}
330
2A
100
AcDbVisualStyle
  2
Thicken
 70
    13
 71
     2
 72
     2
 73
     0
 90
        0
 40
0.6
 41
30.0
 62
     5
 63
     7
421
 16777215
 74
     1
 91
        4
 64
     7
 65
   257
 75
     1
175
     1
 42
1.0
 92
       12
 66
     7
 43
1.0
 76
     1
 77
     6
 78
     2
 67
     7
 79
     5
170
     0
171
     0
290
     0
174
     0
 93
        1
 44
0.0
173
     0
291
     1
 45
0.0
  0
VISUALSTYLE
  5
30
102
{ACAD_REACTORS
330
2A
102
}
102
{ACAD_XDICTIONARY
360
E0
102
}
330
2A
100
AcDbVisualStyle
  2
Wireframe
 70
     5
 71
     0
 72
     2
 73
     0
 90
        0
 40
0.6
 41
30.0
 62
     5
 63
     7
421
 16777215
 74
     1
 91
        4
 64
     7
 65
   257
 75
     1
175
     1
 42
1.0
 92
        0
 66
   257
 43
1.0
 76
     1
 77
     6
 78
     2
 67
     7
 79
     3
170
     0
171
     0
290
     0
174
     0
 93
        1
 44
0.0
173
     0
291
     0
 45
0.0
  0
VISUALSTYLE
  5
40
102
{ACAD_REACTORS
330
2A
102
}
102
{ACAD_XDICTIONARY
360
100
102
}
330
2A
100
AcDbVisualStyle
  2
X-Ray
 70
    25
 71
     2
 72
     2
 73
     1
 90
        1
 40
0.5
 41
30.0
 62
     5
 63
     7
421
 16777215
 74
     1
 91
        0
 64
     7
 65
   257
 75
     1
175
     1
 42
1.0
 92
        8
 66
     7
 43
1.0
 76
     1
 77
     6
 78
     2
 67
     7
 79
     3
170
     0
171
     0
290
     0
174
     0
 93
       13
 44
0.0
173
     0
291
     0
 45
0.0
  0
DICTIONARYVAR
  5
D4
102
{ACAD_REACTORS
330
D3
102
}
330
D3
100
DictionaryVariables
280
     0
  1
1:1
  0
DICTIONARYVAR
  5
10D
102
{ACAD_REACTORS
330
D3
102
}
330
D3
100
DictionaryVariables
280
     0
  1
Standard
  0
DICTIONARYVAR
  5
10C
102
{ACAD_REACTORS
330
D3
102
}
330
D3
100
DictionaryVariables
280
     0
  1
Standard
  0
DICTIONARYVAR
  5
D5
102
{ACAD_REACTORS
330
D3
102
}
330
D3
100
DictionaryVariables
280
     0
  1
2
  0
DICTIONARY
  5
109
330
6C
100
AcDbDictionary
280
     1
281
     1
  3
ACAD_XREC_ROUNDTRIP
360
10A
  0
DICTIONARY
  5
106
330
6A
100
AcDbDictionary
280
     1
281
     1
  3
ACAD_ROUNDTRIP_2008_TABLESTYLE_CELLSTYLEMAP
360
107
  0
DICTIONARY
  5
DE
330
2F
100
AcDbDictionary
280
     1
281
     1
  3
ACAD_XREC_ROUNDTRIP
360
DF
  0
DICTIONARY
  5
E4
330
32
100
AcDbDictionary
280
     1
281
     1
  3
ACAD_XREC_ROUNDTRIP
360
E5
  0
DICTIONARY
  5
EC
330
36
100
AcDbDictionary
280
     1
281
     1
  3
ACAD_XREC_ROUNDTRIP
360
ED
  0
DICTIONARY
  5
F4
330
3A
100
AcDbDictionary
280
     1
281
     1
  3
ACAD_XREC_ROUNDTRIP
360
F5
  0
DICTIONARY
  5
E8
330
34
100
AcDbDictionary
280
     1
281
     1
  3
ACAD_XREC_ROUNDTRIP
360
E9
  0
DICTIONARY
  5
EA
330
35
100
AcDbDictionary
280
     1
281
     1
  3
ACAD_XREC_ROUNDTRIP
360
EB
  0
DICTIONARY
  5
FA
330
3D
100
AcDbDictionary
280
     1
281
     1
  3
ACAD_XREC_ROUNDTRIP
360
FB
  0
DICTIONARY
  5
F2
330
39
100
AcDbDictionary
280
     1
281
     1
  3
ACAD_XREC_ROUNDTRIP
360
F3
  0
DICTIONARY
  5
D6
330
2B
100
AcDbDictionary
280
     1
281
     1
  3
ACAD_XREC_ROUNDTRIP
360
D7
  0
DICTIONARY
  5
D8
330
2C
100
AcDbDictionary
280
     1
281
     1
  3
ACAD_XREC_ROUNDTRIP
360
D9
  0
DICTIONARY
  5
DA
330
2D
100
AcDbDictionary
280
     1
281
     1
  3
ACAD_XREC_ROUNDTRIP
360
DB
  0
DICTIONARY
  5
DC
330
2E
100
AcDbDictionary
280
     1
281
     1
  3
ACAD_XREC_ROUNDTRIP
360
DD
  0
DICTIONARY
  5
E2
330
31
100
AcDbDictionary
280
     1
281
     1
  3
ACAD_XREC_ROUNDTRIP
360
E3
  0
DICTIONARY
  5
F6
330
3B
100
AcDbDictionary
280
     1
281
     1
  3
ACAD_XREC_ROUNDTRIP
360
F7
  0
DICTIONARY
  5
F0
330
38
100
AcDbDictionary
280
     1
281
     1
  3
ACAD_XREC_ROUNDTRIP
360
F1
  0
DICTIONARY
  5
F8
330
3C
100
AcDbDictionary
280
     1
281
     1
  3
ACAD_XREC_ROUNDTRIP
360
F9
  0
DICTIONARY
  5
E6
330
33
100
AcDbDictionary
280
     1
281
     1
  3
ACAD_XREC_ROUNDTRIP
360
E7
  0
DICTIONARY
  5
104
330
42
100
AcDbDictionary
280
     1
281
     1
  3
ACAD_XREC_ROUNDTRIP
360
105
  0
DICTIONARY
  5
102
330
41
100
AcDbDictionary
280
     1
281
     1
  3
ACAD_XREC_ROUNDTRIP
360
103
  0
DICTIONARY
  5
FC
330
3E
100
AcDbDictionary
280
     1
281
     1
  3
ACAD_XREC_ROUNDTRIP
360
FD
  0
DICTIONARY
  5
FE
330
3F
100
AcDbDictionary
280
     1
281
     1
  3
ACAD_XREC_ROUNDTRIP
360
FF
  0
DICTIONARY
  5
EE
330
37
100
AcDbDictionary
280
     1
281
     1
  3
ACAD_XREC_ROUNDTRIP
360
EF
  0
DICTIONARY
  5
E0
330
30
100
AcDbDictionary
280
     1
281
     1
  3
ACAD_XREC_ROUNDTRIP
360
E1
  0
DICTIONARY
  5
100
330
40
100
AcDbDictionary
280
     1
281
     1
  3
ACAD_XREC_ROUNDTRIP
360
101
  0
XRECORD
  5
10A
102
{ACAD_REACTORS
330
109
102
}
330
109
100
AcDbXrecord
280
     1
102
ACAD_ROUNDTRIP_2010_MLEADER_STYLE
  0
CELLSTYLEMAP
  5
107
102
{ACAD_REACTORS
330
106
102
}
330
106
100
AcDbCellStyleMap
 90
        3
300
CELLSTYLE
  1
TABLEFORMAT_BEGIN
 90
        5
170
     1
 91
        0
 92
    32768
 62
   257
 93
        1
300
CONTENTFORMAT
  1
CONTENTFORMAT_BEGIN
 90
        0
 91
        0
 92
        4
 93
        0
300

 40
0.0
140
1.0
 94
        5
 62
     0
340
11
144
0.25
309
CONTENTFORMAT_END
171
     1
301
MARGIN
  1
CELLMARGIN_BEGIN
 40
0.06
 40
0.06
 40
0.06
 40
0.06
 40
0.06
 40
0.06
309
CELLMARGIN_END
 94
        6
 95
        1
302
GRIDFORMAT
  1
GRIDFORMAT_BEGIN
 90
        0
 91
        1
 62
     0
 92
       -2
340
14
 93
        0
 40
0.045
309
GRIDFORMAT_END
 95
        2
302
GRIDFORMAT
  1
GRIDFORMAT_BEGIN
 90
        0
 91
        1
 62
     0
 92
       -2
340
14
 93
        0
 40
0.045
309
GRIDFORMAT_END
 95
        4
302
GRIDFORMAT
  1
GRIDFORMAT_BEGIN
 90
        0
 91
        1
 62
     0
 92
       -2
340
14
 93
        0
 40
0.045
309
GRIDFORMAT_END
 95
        8
302
GRIDFORMAT
  1
GRIDFORMAT_BEGIN
 90
        0
 91
        1
 62
     0
 92
       -2
340
14
 93
        0
 40
0.045
309
GRIDFORMAT_END
 95
       16
302
GRIDFORMAT
  1
GRIDFORMAT_BEGIN
 90
        0
 91
        1
 62
     0
 92
       -2
340
14
 93
        0
 40
0.045
309
GRIDFORMAT_END
 95
       32
302
GRIDFORMAT
  1
GRIDFORMAT_BEGIN
 90
        0
 91
        1
 62
     0
 92
       -2
340
14
 93
        0
 40
0.045
309
GRIDFORMAT_END
309
TABLEFORMAT_END
  1
CELLSTYLE_BEGIN
 90
        1
 91
        1
300
_TITLE
309
CELLSTYLE_END
300
CELLSTYLE
  1
TABLEFORMAT_BEGIN
 90
        5
170
     1
 91
        0
 92
        0
 62
   257
 93
        1
300
CONTENTFORMAT
  1
CONTENTFORMAT_BEGIN
 90
        0
 91
        0
 92
        4
 93
        0
300

 40
0.0
140
1.0
 94
        5
 62
     0
340
11
144
0.18
309
CONTENTFORMAT_END
171
     1
301
MARGIN
  1
CELLMARGIN_BEGIN
 40
0.06
 40
0.06
 40
0.06
 40
0.06
 40
0.06
 40
0.06
309
CELLMARGIN_END
 94
        6
 95
        1
302
GRIDFORMAT
  1
GRIDFORMAT_BEGIN
 90
        0
 91
        1
 62
     0
 92
       -2
340
14
 93
        0
 40
0.045
309
GRIDFORMAT_END
 95
        2
302
GRIDFORMAT
  1
GRIDFORMAT_BEGIN
 90
        0
 91
        1
 62
     0
 92
       -2
340
14
 93
        0
 40
0.045
309
GRIDFORMAT_END
 95
        4
302
GRIDFORMAT
  1
GRIDFORMAT_BEGIN
 90
        0
 91
        1
 62
     0
 92
       -2
340
14
 93
        0
 40
0.045
309
GRIDFORMAT_END
 95
        8
302
GRIDFORMAT
  1
GRIDFORMAT_BEGIN
 90
        0
 91
        1
 62
     0
 92
       -2
340
14
 93
        0
 40
0.045
309
GRIDFORMAT_END
 95
       16
302
GRIDFORMAT
  1
GRIDFORMAT_BEGIN
 90
        0
 91
        1
 62
     0
 92
       -2
340
14
 93
        0
 40
0.045
309
GRIDFORMAT_END
 95
       32
302
GRIDFORMAT
  1
GRIDFORMAT_BEGIN
 90
        0
 91
        1
 62
     0
 92
       -2
340
14
 93
        0
 40
0.045
309
GRIDFORMAT_END
309
TABLEFORMAT_END
  1
CELLSTYLE_BEGIN
 90
        2
 91
        1
300
_HEADER
309
CELLSTYLE_END
300
CELLSTYLE
  1
TABLEFORMAT_BEGIN
 90
        5
170
     1
 91
        0
 92
        0
 62
   257
 93
        1
300
CONTENTFORMAT
  1
CONTENTFORMAT_BEGIN
 90
        0
 91
        0
 92
        4
 93
        0
300

 40
0.0
140
1.0
 94
        2
 62
     0
340
11
144
0.18
309
CONTENTFORMAT_END
171
     1
301
MARGIN
  1
CELLMARGIN_BEGIN
 40
0.06
 40
0.06
 40
0.06
 40
0.06
 40
0.06
 40
0.06
309
CELLMARGIN_END
 94
        6
 95
        1
302
GRIDFORMAT
  1
GRIDFORMAT_BEGIN
 90
        0
 91
        1
 62
     0
 92
       -2
340
14
 93
        0
 40
0.045
309
GRIDFORMAT_END
 95
        2
302
GRIDFORMAT
  1
GRIDFORMAT_BEGIN
 90
        0
 91
        1
 62
     0
 92
       -2
340
14
 93
        0
 40
0.045
309
GRIDFORMAT_END
 95
        4
302
GRIDFORMAT
  1
GRIDFORMAT_BEGIN
 90
        0
 91
        1
 62
     0
 92
       -2
340
14
 93
        0
 40
0.045
309
GRIDFORMAT_END
 95
        8
302
GRIDFORMAT
  1
GRIDFORMAT_BEGIN
 90
        0
 91
        1
 62
     0
 92
       -2
340
14
 93
        0
 40
0.045
309
GRIDFORMAT_END
 95
       16
302
GRIDFORMAT
  1
GRIDFORMAT_BEGIN
 90
        0
 91
        1
 62
     0
 92
       -2
340
14
 93
        0
 40
0.045
309
GRIDFORMAT_END
 95
       32
302
GRIDFORMAT
  1
GRIDFORMAT_BEGIN
 90
        0
 91
        1
 62
     0
 92
       -2
340
14
 93
        0
 40
0.045
309
GRIDFORMAT_END
309
TABLEFORMAT_END
  1
CELLSTYLE_BEGIN
 90
        3
 91
        2
300
_DATA
309
CELLSTYLE_END
  0
XRECORD
  5
DF
102
{ACAD_REACTORS
330
DE
102
}
330
DE
100
AcDbXrecord
280
     1
102
RTVSPropertyOp0
 70
     1
102
RTVSPropertyOp1
 70
     1
102
RTVSPropertyOp2
 70
     1
102
RTVSPropertyOp3
 70
     1
102
RTVSPropertyOp4
 70
     1
102
RTVSPropertyOp5
 70
     1
102
RTVSPropertyOp6
 70
     1
102
RTVSPropertyOp7
 70
     1
102
RTVSPropertyOp8
 70
     1
102
RTVSPropertyOp9
 70
     1
102
RTVSPropertyOp10
 70
     1
102
RTVSPropertyOp11
 70
     1
102
RTVSPropertyOp12
 70
     1
102
RTVSPropertyOp13
 70
     1
102
RTVSPropertyOp14
 70
     1
102
RTVSPropertyOp15
 70
     1
102
RTVSPropertyOp16
 70
     1
102
RTVSPropertyOp17
 70
     1
102
RTVSPropertyOp18
 70
     1
102
RTVSPropertyOp19
 70
     1
102
RTVSPropertyOp20
 70
     1
102
RTVSPropertyOp21
 70
     1
102
RTVSPropertyOp22
 70
     1
102
RTVSPropertyOp23
 70
     1
102
RTVSPropertyOp24
 70
     1
102
RTVSPropertyOp25
 70
     1
102
RTVSPropertyOp26
 70
     1
102
RTVSPropertyOp27
 70
     1
102
RTVSPropertyOp28
 70
     1
102
RTVSPropertyOp29
 70
     1
102
RTVSPropertyOp30
 70
     1
102
RTVSPropertyOp31
 70
     1
102
RTVSPropertyOp32
 70
     1
102
RTVSPropertyOp33
 70
     1
102
RTVSPropertyOp34
 70
     1
102
RTVSPropertyOp35
 70
     1
102
RTVSPropertyOp36
 70
     1
102
RTVSPropertyOp37
 70
     1
102
RTVSPropertyOp38
 70
     1
102
RTVSPropertyOp39
 70
     1
102
RTVSPropertyOp40
 70
     1
102
RTVSPropertyOp41
 70
     1
102
RTVSPropertyOp42
 70
     1
102
RTVSPropertyOp43
 70
     1
102
RTVSPropertyOp44
 70
     1
102
RTVSPropertyOp45
 70
     1
102
RTVSPropertyOp46
 70
     1
102
RTVSPropertyOp47
 70
     1
102
RTVSPropertyOp48
 70
     1
102
RTVSPropertyOp49
 70
     1
102
RTVSPropertyOp50
 70
     1
102
RTVSPropertyOp51
 70
     0
102
RTVSPropertyOp52
 70
     0
102
RTVSPropertyOp53
 70
     1
102
RTVSPropertyOp54
 70
     1
102
RTVSPropertyOp55
 70
     1
102
RTVSPropertyOp56
 70
     1
102
RTVSPropertyOp57
 70
     1
102
RTVSPost2010Prop28
280
     1
102
RTVSPost2010PropOp28
 70
     1
102
RTVSPost2010Prop29
280
     1
102
RTVSPost2010PropOp29
 70
     1
102
RTVSPost2010Prop30
280
     0
102
RTVSPost2010PropOp30
 70
     1
102
RTVSPost2010Prop31
280
     0
102
RTVSPost2010PropOp31
 70
     1
102
RTVSPost2010Prop32
280
     0
102
RTVSPost2010PropOp32
 70
     1
102
RTVSPost2010Prop33
280
     0
102
RTVSPost2010PropOp33
 70
     1
102
RTVSPost2010Prop34
280
     0
102
RTVSPost2010PropOp34
 70
     1
102
RTVSPost2010Prop35
280
     0
102
RTVSPost2010PropOp35
 70
     1
102
RTVSPost2010Prop36
280
     0
102
RTVSPost2010PropOp36
 70
     1
102
RTVSPost2010Prop37
 90
       50
102
RTVSPost2010PropOp37
 70
     1
102
RTVSPost2010Prop38
140
0.0
102
RTVSPost2010PropOp38
 70
     1
102
RTVSPost2010Prop39
140
1.0
102
RTVSPost2010PropOp39
 70
     1
102
RTVSPost2010Prop40
 90
        0
102
RTVSPost2010PropOp40
 70
     1
102
RTVSPost2010Prop41ColorIndex
 90
       18
102
RTVSPost2010Prop41ColorRGB
 90
        0
102
RTVSPost2010PropOp41
 70
     1
102
RTVSPost2010Prop42
 90
       50
102
RTVSPost2010PropOp42
 70
     1
102
RTVSPost2010Prop43
 90
        3
102
RTVSPost2010PropOp43
 70
     1
102
RTVSPost2010Prop44ColorIndex
 90
        5
102
RTVSPost2010Prop44ColorRGB
 90
      255
102
RTVSPost2010PropOp44
 70
     1
102
RTVSPost2010Prop45
280
     0
102
RTVSPost2010PropOp45
 70
     1
102
RTVSPost2010Prop46
 90
       50
102
RTVSPost2010PropOp46
 70
     1
102
RTVSPost2010Prop47
 90
       50
102
RTVSPost2010PropOp47
 70
     1
102
RTVSPost2010Prop48
 90
       50
102
RTVSPost2010PropOp48
 70
     1
102
RTVSPost2010Prop49
280
     0
102
RTVSPost2010PropOp49
 70
     1
102
RTVSPost2010Prop50
 90
       50
102
RTVSPost2010PropOp50
 70
     1
102
RTVSPost2010Prop51ColorIndex
 90
      256
102
RTVSPost2010Prop51ColorRGB
 90
-16777216
102
RTVSPost2010PropOp51
 70
     0
102
RTVSPost2010Prop52
140
1.0
102
RTVSPost2010PropOp52
 70
     0
102
RTVSPost2010Prop53
 90
        2
102
RTVSPost2010PropOp53
 70
     1
102
RTVSPost2010Prop54
  1
strokes_ogs.tif
102
RTVSPost2010PropOp54
 70
     1
102
RTVSPost2010Prop55
280
     0
102
RTVSPost2010PropOp55
 70
     1
102
RTVSPost2010Prop56
140
1.0
102
RTVSPost2010PropOp56
 70
     1
102
RTVSPost2010Prop57
140
1.0
102
RTVSPost2010PropOp57
 70
     1
  0
XRECORD
  5
E5
102
{ACAD_REACTORS
330
E4
102
}
330
E4
100
AcDbXrecord
280
     1
102
RTVSPropertyOp0
 70
     1
102
RTVSPropertyOp1
 70
     1
102
RTVSPropertyOp2
 70
     1
102
RTVSPropertyOp3
 70
     1
102
RTVSPropertyOp4
 70
     1
102
RTVSPropertyOp5
 70
     1
102
RTVSPropertyOp6
 70
     1
102
RTVSPropertyOp7
 70
     1
102
RTVSPropertyOp8
 70
     1
102
RTVSPropertyOp9
 70
     1
102
RTVSPropertyOp10
 70
     1
102
RTVSPropertyOp11
 70
     1
102
RTVSPropertyOp12
 70
     1
102
RTVSPropertyOp13
 70
     1
102
RTVSPropertyOp14
 70
     1
102
RTVSPropertyOp15
 70
     1
102
RTVSPropertyOp16
 70
     1
102
RTVSPropertyOp17
 70
     1
102
RTVSPropertyOp18
 70
     1
102
RTVSPropertyOp19
 70
     1
102
RTVSPropertyOp20
 70
     1
102
RTVSPropertyOp21
 70
     1
102
RTVSPropertyOp22
 70
     1
102
RTVSPropertyOp23
 70
     1
102
RTVSPropertyOp24
 70
     1
102
RTVSPropertyOp25
 70
     1
102
RTVSPropertyOp26
 70
     1
102
RTVSPropertyOp27
 70
     1
102
RTVSPropertyOp28
 70
     1
102
RTVSPropertyOp29
 70
     1
102
RTVSPropertyOp30
 70
     1
102
RTVSPropertyOp31
 70
     1
102
RTVSPropertyOp32
 70
     1
102
RTVSPropertyOp33
 70
     1
102
RTVSPropertyOp34
 70
     1
102
RTVSPropertyOp35
 70
     1
102
RTVSPropertyOp36
 70
     1
102
RTVSPropertyOp37
 70
     1
102
RTVSPropertyOp38
 70
     1
102
RTVSPropertyOp39
 70
     1
102
RTVSPropertyOp40
 70
     1
102
RTVSPropertyOp41
 70
     1
102
RTVSPropertyOp42
 70
     1
102
RTVSPropertyOp43
 70
     1
102
RTVSPropertyOp44
 70
     1
102
RTVSPropertyOp45
 70
     1
102
RTVSPropertyOp46
 70
     1
102
RTVSPropertyOp47
 70
     1
102
RTVSPropertyOp48
 70
     1
102
RTVSPropertyOp49
 70
     1
102
RTVSPropertyOp50
 70
     1
102
RTVSPropertyOp51
 70
     0
102
RTVSPropertyOp52
 70
     0
102
RTVSPropertyOp53
 70
     1
102
RTVSPropertyOp54
 70
     1
102
RTVSPropertyOp55
 70
     1
102
RTVSPropertyOp56
 70
     1
102
RTVSPropertyOp57
 70
     1
102
RTVSPost2010Prop28
280
     0
102
RTVSPost2010PropOp28
 70
     1
102
RTVSPost2010Prop29
280
     1
102
RTVSPost2010PropOp29
 70
     1
102
RTVSPost2010Prop30
280
     1
102
RTVSPost2010PropOp30
 70
     1
102
RTVSPost2010Prop31
280
     0
102
RTVSPost2010PropOp31
 70
     1
102
RTVSPost2010Prop32
280
     0
102
RTVSPost2010PropOp32
 70
     1
102
RTVSPost2010Prop33
280
     0
102
RTVSPost2010PropOp33
 70
     1
102
RTVSPost2010Prop34
280
     0
102
RTVSPost2010PropOp34
 70
     1
102
RTVSPost2010Prop35
280
     0
102
RTVSPost2010PropOp35
 70
     1
102
RTVSPost2010Prop36
280
     0
102
RTVSPost2010PropOp36
 70
     1
102
RTVSPost2010Prop37
 90
       50
102
RTVSPost2010PropOp37
 70
     1
102
RTVSPost2010Prop38
140
0.0
102
RTVSPost2010PropOp38
 70
     1
102
RTVSPost2010Prop39
140
1.0
102
RTVSPost2010PropOp39
 70
     1
102
RTVSPost2010Prop40
 90
        0
102
RTVSPost2010PropOp40
 70
     1
102
RTVSPost2010Prop41ColorIndex
 90
       18
102
RTVSPost2010Prop41ColorRGB
 90
        0
102
RTVSPost2010PropOp41
 70
     1
102
RTVSPost2010Prop42
 90
       50
102
RTVSPost2010PropOp42
 70
     1
102
RTVSPost2010Prop43
 90
        3
102
RTVSPost2010PropOp43
 70
     1
102
RTVSPost2010Prop44ColorIndex
 90
        5
102
RTVSPost2010Prop44ColorRGB
 90
      255
102
RTVSPost2010PropOp44
 70
     1
102
RTVSPost2010Prop45
280
     0
102
RTVSPost2010PropOp45
 70
     1
102
RTVSPost2010Prop46
 90
       50
102
RTVSPost2010PropOp46
 70
     1
102
RTVSPost2010Prop47
 90
       50
102
RTVSPost2010PropOp47
 70
     1
102
RTVSPost2010Prop48
 90
       50
102
RTVSPost2010PropOp48
 70
     1
102
RTVSPost2010Prop49
280
     0
102
RTVSPost2010PropOp49
 70
     1
102
RTVSPost2010Prop50
 90
       50
102
RTVSPost2010PropOp50
 70
     1
102
RTVSPost2010Prop51ColorIndex
 90
      256
102
RTVSPost2010Prop51ColorRGB
 90
-16777216
102
RTVSPost2010PropOp51
 70
     0
102
RTVSPost2010Prop52
140
1.0
102
RTVSPost2010PropOp52
 70
     0
102
RTVSPost2010Prop53
 90
        2
102
RTVSPost2010PropOp53
 70
     1
102
RTVSPost2010Prop54
  1
strokes_ogs.tif
102
RTVSPost2010PropOp54
 70
     1
102
RTVSPost2010Prop55
280
     0
102
RTVSPost2010PropOp55
 70
     1
102
RTVSPost2010Prop56
140
1.0
102
RTVSPost2010PropOp56
 70
     1
102
RTVSPost2010Prop57
140
1.0
102
RTVSPost2010PropOp57
 70
     1
  0
XRECORD
  5
ED
102
{ACAD_REACTORS
330
EC
102
}
330
EC
100
AcDbXrecord
280
     1
102
RTVSPropertyOp0
 70
     1
102
RTVSPropertyOp1
 70
     1
102
RTVSPropertyOp2
 70
     1
102
RTVSPropertyOp3
 70
     1
102
RTVSPropertyOp4
 70
     1
102
RTVSPropertyOp5
 70
     1
102
RTVSPropertyOp6
 70
     1
102
RTVSPropertyOp7
 70
     1
102
RTVSPropertyOp8
 70
     1
102
RTVSPropertyOp9
 70
     1
102
RTVSPropertyOp10
 70
     1
102
RTVSPropertyOp11
 70
     1
102
RTVSPropertyOp12
 70
     1
102
RTVSPropertyOp13
 70
     1
102
RTVSPropertyOp14
 70
     1
102
RTVSPropertyOp15
 70
     1
102
RTVSPropertyOp16
 70
     1
102
RTVSPropertyOp17
 70
     1
102
RTVSPropertyOp18
 70
     1
102
RTVSPropertyOp19
 70
     1
102
RTVSPropertyOp20
 70
     1
102
RTVSPropertyOp21
 70
     1
102
RTVSPropertyOp22
 70
     1
102
RTVSPropertyOp23
 70
     1
102
RTVSPropertyOp24
 70
     1
102
RTVSPropertyOp25
 70
     1
102
RTVSPropertyOp26
 70
     1
102
RTVSPropertyOp27
 70
     1
102
RTVSPropertyOp28
 70
     1
102
RTVSPropertyOp29
 70
     1
102
RTVSPropertyOp30
 70
     1
102
RTVSPropertyOp31
 70
     1
102
RTVSPropertyOp32
 70
     1
102
RTVSPropertyOp33
 70
     1
102
RTVSPropertyOp34
 70
     1
102
RTVSPropertyOp35
 70
     1
102
RTVSPropertyOp36
 70
     1
102
RTVSPropertyOp37
 70
     1
102
RTVSPropertyOp38
 70
     1
102
RTVSPropertyOp39
 70
     1
102
RTVSPropertyOp40
 70
     1
102
RTVSPropertyOp41
 70
     1
102
RTVSPropertyOp42
 70
     1
102
RTVSPropertyOp43
 70
     1
102
RTVSPropertyOp44
 70
     1
102
RTVSPropertyOp45
 70
     1
102
RTVSPropertyOp46
 70
     1
102
RTVSPropertyOp47
 70
     1
102
RTVSPropertyOp48
 70
     1
102
RTVSPropertyOp49
 70
     1
102
RTVSPropertyOp50
 70
     1
102
RTVSPropertyOp51
 70
     0
102
RTVSPropertyOp52
 70
     0
102
RTVSPropertyOp53
 70
     1
102
RTVSPropertyOp54
 70
     1
102
RTVSPropertyOp55
 70
     1
102
RTVSPropertyOp56
 70
     1
102
RTVSPropertyOp57
 70
     1
102
RTVSPost2010Prop28
280
     0
102
RTVSPost2010PropOp28
 70
     1
102
RTVSPost2010Prop29
280
     1
102
RTVSPost2010PropOp29
 70
     1
102
RTVSPost2010Prop30
280
     1
102
RTVSPost2010PropOp30
 70
     1
102
RTVSPost2010Prop31
280
     0
102
RTVSPost2010PropOp31
 70
     1
102
RTVSPost2010Prop32
280
     0
102
RTVSPost2010PropOp32
 70
     1
102
RTVSPost2010Prop33
280
     0
102
RTVSPost2010PropOp33
 70
     1
102
RTVSPost2010Prop34
280
     0
102
RTVSPost2010PropOp34
 70
     1
102
RTVSPost2010Prop35
280
     0
102
RTVSPost2010PropOp35
 70
     1
102
RTVSPost2010Prop36
280
     0
102
RTVSPost2010PropOp36
 70
     1
102
RTVSPost2010Prop37
 90
       50
102
RTVSPost2010PropOp37
 70
     1
102
RTVSPost2010Prop38
140
0.0
102
RTVSPost2010PropOp38
 70
     1
102
RTVSPost2010Prop39
140
1.0
102
RTVSPost2010PropOp39
 70
     1
102
RTVSPost2010Prop40
 90
        0
102
RTVSPost2010PropOp40
 70
     1
102
RTVSPost2010Prop41ColorIndex
 90
       18
102
RTVSPost2010Prop41ColorRGB
 90
        0
102
RTVSPost2010PropOp41
 70
     1
102
RTVSPost2010Prop42
 90
       50
102
RTVSPost2010PropOp42
 70
     1
102
RTVSPost2010Prop43
 90
        3
102
RTVSPost2010PropOp43
 70
     1
102
RTVSPost2010Prop44ColorIndex
 90
        5
102
RTVSPost2010Prop44ColorRGB
 90
      255
102
RTVSPost2010PropOp44
 70
     1
102
RTVSPost2010Prop45
280
     0
102
RTVSPost2010PropOp45
 70
     1
102
RTVSPost2010Prop46
 90
       50
102
RTVSPost2010PropOp46
 70
     1
102
RTVSPost2010Prop47
 90
       50
102
RTVSPost2010PropOp47
 70
     1
102
RTVSPost2010Prop48
 90
       50
102
RTVSPost2010PropOp48
 70
     1
102
RTVSPost2010Prop49
280
     0
102
RTVSPost2010PropOp49
 70
     1
102
RTVSPost2010Prop50
 90
       50
102
RTVSPost2010PropOp50
 70
     1
102
RTVSPost2010Prop51ColorIndex
 90
      256
102
RTVSPost2010Prop51ColorRGB
 90
-16777216
102
RTVSPost2010PropOp51
 70
     0
102
RTVSPost2010Prop52
140
1.0
102
RTVSPost2010PropOp52
 70
     0
102
RTVSPost2010Prop53
 90
        2
102
RTVSPost2010PropOp53
 70
     1
102
RTVSPost2010Prop54
  1
strokes_ogs.tif
102
RTVSPost2010PropOp54
 70
     1
102
RTVSPost2010Prop55
280
     0
102
RTVSPost2010PropOp55
 70
     1
102
RTVSPost2010Prop56
140
1.0
102
RTVSPost2010PropOp56
 70
     1
102
RTVSPost2010Prop57
140
1.0
102
RTVSPost2010PropOp57
 70
     1
  0
XRECORD
  5
F5
102
{ACAD_REACTORS
330
F4
102
}
330
F4
100
AcDbXrecord
280
     1
102
RTVSPropertyOp0
 70
     1
102
RTVSPropertyOp1
 70
     1
102
RTVSPropertyOp2
 70
     1
102
RTVSPropertyOp3
 70
     1
102
RTVSPropertyOp4
 70
     1
102
RTVSPropertyOp5
 70
     1
102
RTVSPropertyOp6
 70
     1
102
RTVSPropertyOp7
 70
     1
102
RTVSPropertyOp8
 70
     1
102
RTVSPropertyOp9
 70
     1
102
RTVSPropertyOp10
 70
     1
102
RTVSPropertyOp11
 70
     1
102
RTVSPropertyOp12
 70
     1
102
RTVSPropertyOp13
 70
     1
102
RTVSPropertyOp14
 70
     1
102
RTVSPropertyOp15
 70
     1
102
RTVSPropertyOp16
 70
     1
102
RTVSPropertyOp17
 70
     1
102
RTVSPropertyOp18
 70
     1
102
RTVSPropertyOp19
 70
     1
102
RTVSPropertyOp20
 70
     1
102
RTVSPropertyOp21
 70
     1
102
RTVSPropertyOp22
 70
     1
102
RTVSPropertyOp23
 70
     1
102
RTVSPropertyOp24
 70
     1
102
RTVSPropertyOp25
 70
     1
102
RTVSPropertyOp26
 70
     1
102
RTVSPropertyOp27
 70
     1
102
RTVSPropertyOp28
 70
     1
102
RTVSPropertyOp29
 70
     1
102
RTVSPropertyOp30
 70
     1
102
RTVSPropertyOp31
 70
     1
102
RTVSPropertyOp32
 70
     1
102
RTVSPropertyOp33
 70
     1
102
RTVSPropertyOp34
 70
     1
102
RTVSPropertyOp35
 70
     1
102
RTVSPropertyOp36
 70
     1
102
RTVSPropertyOp37
 70
     1
102
RTVSPropertyOp38
 70
     1
102
RTVSPropertyOp39
 70
     1
102
RTVSPropertyOp40
 70
     1
102
RTVSPropertyOp41
 70
     1
102
RTVSPropertyOp42
 70
     1
102
RTVSPropertyOp43
 70
     1
102
RTVSPropertyOp44
 70
     1
102
RTVSPropertyOp45
 70
     1
102
RTVSPropertyOp46
 70
     1
102
RTVSPropertyOp47
 70
     1
102
RTVSPropertyOp48
 70
     1
102
RTVSPropertyOp49
 70
     1
102
RTVSPropertyOp50
 70
     1
102
RTVSPropertyOp51
 70
     0
102
RTVSPropertyOp52
 70
     0
102
RTVSPropertyOp53
 70
     1
102
RTVSPropertyOp54
 70
     1
102
RTVSPropertyOp55
 70
     1
102
RTVSPropertyOp56
 70
     1
102
RTVSPropertyOp57
 70
     1
102
RTVSPost2010Prop28
280
     0
102
RTVSPost2010PropOp28
 70
     1
102
RTVSPost2010Prop29
280
     1
102
RTVSPost2010PropOp29
 70
     1
102
RTVSPost2010Prop30
280
     1
102
RTVSPost2010PropOp30
 70
     1
102
RTVSPost2010Prop31
280
     0
102
RTVSPost2010PropOp31
 70
     1
102
RTVSPost2010Prop32
280
     0
102
RTVSPost2010PropOp32
 70
     1
102
RTVSPost2010Prop33
280
     0
102
RTVSPost2010PropOp33
 70
     1
102
RTVSPost2010Prop34
280
     0
102
RTVSPost2010PropOp34
 70
     1
102
RTVSPost2010Prop35
280
     0
102
RTVSPost2010PropOp35
 70
     1
102
RTVSPost2010Prop36
280
     0
102
RTVSPost2010PropOp36
 70
     1
102
RTVSPost2010Prop37
 90
       50
102
RTVSPost2010PropOp37
 70
     1
102
RTVSPost2010Prop38
140
0.0
102
RTVSPost2010PropOp38
 70
     1
102
RTVSPost2010Prop39
140
1.0
102
RTVSPost2010PropOp39
 70
     1
102
RTVSPost2010Prop40
 90
        0
102
RTVSPost2010PropOp40
 70
     1
102
RTVSPost2010Prop41ColorIndex
 90
       18
102
RTVSPost2010Prop41ColorRGB
 90
        0
102
RTVSPost2010PropOp41
 70
     1
102
RTVSPost2010Prop42
 90
       50
102
RTVSPost2010PropOp42
 70
     1
102
RTVSPost2010Prop43
 90
        3
102
RTVSPost2010PropOp43
 70
     1
102
RTVSPost2010Prop44ColorIndex
 90
        5
102
RTVSPost2010Prop44ColorRGB
 90
      255
102
RTVSPost2010PropOp44
 70
     1
102
RTVSPost2010Prop45
280
     0
102
RTVSPost2010PropOp45
 70
     1
102
RTVSPost2010Prop46
 90
       50
102
RTVSPost2010PropOp46
 70
     1
102
RTVSPost2010Prop47
 90
       50
102
RTVSPost2010PropOp47
 70
     1
102
RTVSPost2010Prop48
 90
       50
102
RTVSPost2010PropOp48
 70
     1
102
RTVSPost2010Prop49
280
     0
102
RTVSPost2010PropOp49
 70
     1
102
RTVSPost2010Prop50
 90
       50
102
RTVSPost2010PropOp50
 70
     1
102
RTVSPost2010Prop51ColorIndex
 90
      256
102
RTVSPost2010Prop51ColorRGB
 90
-16777216
102
RTVSPost2010PropOp51
 70
     0
102
RTVSPost2010Prop52
140
1.0
102
RTVSPost2010PropOp52
 70
     0
102
RTVSPost2010Prop53
 90
        2
102
RTVSPost2010PropOp53
 70
     1
102
RTVSPost2010Prop54
  1
strokes_ogs.tif
102
RTVSPost2010PropOp54
 70
     1
102
RTVSPost2010Prop55
280
     0
102
RTVSPost2010PropOp55
 70
     1
102
RTVSPost2010Prop56
140
1.0
102
RTVSPost2010PropOp56
 70
     1
102
RTVSPost2010Prop57
140
1.0
102
RTVSPost2010PropOp57
 70
     1
  0
XRECORD
  5
E9
102
{ACAD_REACTORS
330
E8
102
}
330
E8
100
AcDbXrecord
280
     1
102
RTVSPropertyOp0
 70
     1
102
RTVSPropertyOp1
 70
     1
102
RTVSPropertyOp2
 70
     1
102
RTVSPropertyOp3
 70
     1
102
RTVSPropertyOp4
 70
     1
102
RTVSPropertyOp5
 70
     1
102
RTVSPropertyOp6
 70
     1
102
RTVSPropertyOp7
 70
     1
102
RTVSPropertyOp8
 70
     1
102
RTVSPropertyOp9
 70
     1
102
RTVSPropertyOp10
 70
     1
102
RTVSPropertyOp11
 70
     1
102
RTVSPropertyOp12
 70
     1
102
RTVSPropertyOp13
 70
     1
102
RTVSPropertyOp14
 70
     1
102
RTVSPropertyOp15
 70
     1
102
RTVSPropertyOp16
 70
     1
102
RTVSPropertyOp17
 70
     1
102
RTVSPropertyOp18
 70
     1
102
RTVSPropertyOp19
 70
     1
102
RTVSPropertyOp20
 70
     1
102
RTVSPropertyOp21
 70
     1
102
RTVSPropertyOp22
 70
     1
102
RTVSPropertyOp23
 70
     1
102
RTVSPropertyOp24
 70
     1
102
RTVSPropertyOp25
 70
     1
102
RTVSPropertyOp26
 70
     1
102
RTVSPropertyOp27
 70
     1
102
RTVSPropertyOp28
 70
     1
102
RTVSPropertyOp29
 70
     1
102
RTVSPropertyOp30
 70
     1
102
RTVSPropertyOp31
 70
     1
102
RTVSPropertyOp32
 70
     1
102
RTVSPropertyOp33
 70
     1
102
RTVSPropertyOp34
 70
     1
102
RTVSPropertyOp35
 70
     1
102
RTVSPropertyOp36
 70
     1
102
RTVSPropertyOp37
 70
     1
102
RTVSPropertyOp38
 70
     1
102
RTVSPropertyOp39
 70
     1
102
RTVSPropertyOp40
 70
     1
102
RTVSPropertyOp41
 70
     1
102
RTVSPropertyOp42
 70
     1
102
RTVSPropertyOp43
 70
     1
102
RTVSPropertyOp44
 70
     1
102
RTVSPropertyOp45
 70
     1
102
RTVSPropertyOp46
 70
     1
102
RTVSPropertyOp47
 70
     1
102
RTVSPropertyOp48
 70
     1
102
RTVSPropertyOp49
 70
     1
102
RTVSPropertyOp50
 70
     1
102
RTVSPropertyOp51
 70
     0
102
RTVSPropertyOp52
 70
     0
102
RTVSPropertyOp53
 70
     1
102
RTVSPropertyOp54
 70
     1
102
RTVSPropertyOp55
 70
     1
102
RTVSPropertyOp56
 70
     1
102
RTVSPropertyOp57
 70
     1
102
RTVSPost2010Prop28
280
     0
102
RTVSPost2010PropOp28
 70
     1
102
RTVSPost2010Prop29
280
     1
102
RTVSPost2010PropOp29
 70
     1
102
RTVSPost2010Prop30
280
     1
102
RTVSPost2010PropOp30
 70
     1
102
RTVSPost2010Prop31
280
     0
102
RTVSPost2010PropOp31
 70
     1
102
RTVSPost2010Prop32
280
     0
102
RTVSPost2010PropOp32
 70
     1
102
RTVSPost2010Prop33
280
     0
102
RTVSPost2010PropOp33
 70
     1
102
RTVSPost2010Prop34
280
     0
102
RTVSPost2010PropOp34
 70
     1
102
RTVSPost2010Prop35
280
     0
102
RTVSPost2010PropOp35
 70
     1
102
RTVSPost2010Prop36
280
     0
102
RTVSPost2010PropOp36
 70
     1
102
RTVSPost2010Prop37
 90
       50
102
RTVSPost2010PropOp37
 70
     1
102
RTVSPost2010Prop38
140
0.0
102
RTVSPost2010PropOp38
 70
     1
102
RTVSPost2010Prop39
140
1.0
102
RTVSPost2010PropOp39
 70
     1
102
RTVSPost2010Prop40
 90
        0
102
RTVSPost2010PropOp40
 70
     1
102
RTVSPost2010Prop41ColorIndex
 90
       18
102
RTVSPost2010Prop41ColorRGB
 90
        0
102
RTVSPost2010PropOp41
 70
     1
102
RTVSPost2010Prop42
 90
       50
102
RTVSPost2010PropOp42
 70
     1
102
RTVSPost2010Prop43
 90
        3
102
RTVSPost2010PropOp43
 70
     1
102
RTVSPost2010Prop44ColorIndex
 90
        5
102
RTVSPost2010Prop44ColorRGB
 90
      255
102
RTVSPost2010PropOp44
 70
     1
102
RTVSPost2010Prop45
280
     0
102
RTVSPost2010PropOp45
 70
     1
102
RTVSPost2010Prop46
 90
       50
102
RTVSPost2010PropOp46
 70
     1
102
RTVSPost2010Prop47
 90
       50
102
RTVSPost2010PropOp47
 70
     1
102
RTVSPost2010Prop48
 90
       50
102
RTVSPost2010PropOp48
 70
     1
102
RTVSPost2010Prop49
280
     0
102
RTVSPost2010PropOp49
 70
     1
102
RTVSPost2010Prop50
 90
       50
102
RTVSPost2010PropOp50
 70
     1
102
RTVSPost2010Prop51ColorIndex
 90
      256
102
RTVSPost2010Prop51ColorRGB
 90
-16777216
102
RTVSPost2010PropOp51
 70
     0
102
RTVSPost2010Prop52
140
1.0
102
RTVSPost2010PropOp52
 70
     0
102
RTVSPost2010Prop53
 90
        2
102
RTVSPost2010PropOp53
 70
     1
102
RTVSPost2010Prop54
  1
strokes_ogs.tif
102
RTVSPost2010PropOp54
 70
     1
102
RTVSPost2010Prop55
280
     0
102
RTVSPost2010PropOp55
 70
     1
102
RTVSPost2010Prop56
140
1.0
102
RTVSPost2010PropOp56
 70
     1
102
RTVSPost2010Prop57
140
1.0
102
RTVSPost2010PropOp57
 70
     1
  0
XRECORD
  5
EB
102
{ACAD_REACTORS
330
EA
102
}
330
EA
100
AcDbXrecord
280
     1
102
RTVSPropertyOp0
 70
     1
102
RTVSPropertyOp1
 70
     1
102
RTVSPropertyOp2
 70
     1
102
RTVSPropertyOp3
 70
     1
102
RTVSPropertyOp4
 70
     1
102
RTVSPropertyOp5
 70
     1
102
RTVSPropertyOp6
 70
     1
102
RTVSPropertyOp7
 70
     1
102
RTVSPropertyOp8
 70
     1
102
RTVSPropertyOp9
 70
     1
102
RTVSPropertyOp10
 70
     1
102
RTVSPropertyOp11
 70
     1
102
RTVSPropertyOp12
 70
     1
102
RTVSPropertyOp13
 70
     1
102
RTVSPropertyOp14
 70
     1
102
RTVSPropertyOp15
 70
     1
102
RTVSPropertyOp16
 70
     1
102
RTVSPropertyOp17
 70
     1
102
RTVSPropertyOp18
 70
     1
102
RTVSPropertyOp19
 70
     1
102
RTVSPropertyOp20
 70
     1
102
RTVSPropertyOp21
 70
     1
102
RTVSPropertyOp22
 70
     1
102
RTVSPropertyOp23
 70
     1
102
RTVSPropertyOp24
 70
     1
102
RTVSPropertyOp25
 70
     1
102
RTVSPropertyOp26
 70
     1
102
RTVSPropertyOp27
 70
     1
102
RTVSPropertyOp28
 70
     1
102
RTVSPropertyOp29
 70
     1
102
RTVSPropertyOp30
 70
     1
102
RTVSPropertyOp31
 70
     1
102
RTVSPropertyOp32
 70
     1
102
RTVSPropertyOp33
 70
     1
102
RTVSPropertyOp34
 70
     1
102
RTVSPropertyOp35
 70
     1
102
RTVSPropertyOp36
 70
     1
102
RTVSPropertyOp37
 70
     1
102
RTVSPropertyOp38
 70
     1
102
RTVSPropertyOp39
 70
     1
102
RTVSPropertyOp40
 70
     1
102
RTVSPropertyOp41
 70
     1
102
RTVSPropertyOp42
 70
     1
102
RTVSPropertyOp43
 70
     1
102
RTVSPropertyOp44
 70
     1
102
RTVSPropertyOp45
 70
     1
102
RTVSPropertyOp46
 70
     1
102
RTVSPropertyOp47
 70
     1
102
RTVSPropertyOp48
 70
     1
102
RTVSPropertyOp49
 70
     1
102
RTVSPropertyOp50
 70
     1
102
RTVSPropertyOp51
 70
     0
102
RTVSPropertyOp52
 70
     0
102
RTVSPropertyOp53
 70
     1
102
RTVSPropertyOp54
 70
     1
102
RTVSPropertyOp55
 70
     1
102
RTVSPropertyOp56
 70
     1
102
RTVSPropertyOp57
 70
     1
102
RTVSPost2010Prop28
280
     0
102
RTVSPost2010PropOp28
 70
     1
102
RTVSPost2010Prop29
280
     1
102
RTVSPost2010PropOp29
 70
     1
102
RTVSPost2010Prop30
280
     1
102
RTVSPost2010PropOp30
 70
     1
102
RTVSPost2010Prop31
280
     0
102
RTVSPost2010PropOp31
 70
     1
102
RTVSPost2010Prop32
280
     0
102
RTVSPost2010PropOp32
 70
     1
102
RTVSPost2010Prop33
280
     0
102
RTVSPost2010PropOp33
 70
     1
102
RTVSPost2010Prop34
280
     0
102
RTVSPost2010PropOp34
 70
     1
102
RTVSPost2010Prop35
280
     0
102
RTVSPost2010PropOp35
 70
     1
102
RTVSPost2010Prop36
280
     0
102
RTVSPost2010PropOp36
 70
     1
102
RTVSPost2010Prop37
 90
       50
102
RTVSPost2010PropOp37
 70
     1
102
RTVSPost2010Prop38
140
0.0
102
RTVSPost2010PropOp38
 70
     1
102
RTVSPost2010Prop39
140
1.0
102
RTVSPost2010PropOp39
 70
     1
102
RTVSPost2010Prop40
 90
        0
102
RTVSPost2010PropOp40
 70
     1
102
RTVSPost2010Prop41ColorIndex
 90
       18
102
RTVSPost2010Prop41ColorRGB
 90
        0
102
RTVSPost2010PropOp41
 70
     1
102
RTVSPost2010Prop42
 90
       50
102
RTVSPost2010PropOp42
 70
     1
102
RTVSPost2010Prop43
 90
        3
102
RTVSPost2010PropOp43
 70
     1
102
RTVSPost2010Prop44ColorIndex
 90
        5
102
RTVSPost2010Prop44ColorRGB
 90
      255
102
RTVSPost2010PropOp44
 70
     1
102
RTVSPost2010Prop45
280
     0
102
RTVSPost2010PropOp45
 70
     1
102
RTVSPost2010Prop46
 90
       50
102
RTVSPost2010PropOp46
 70
     1
102
RTVSPost2010Prop47
 90
       50
102
RTVSPost2010PropOp47
 70
     1
102
RTVSPost2010Prop48
 90
       50
102
RTVSPost2010PropOp48
 70
     1
102
RTVSPost2010Prop49
280
     0
102
RTVSPost2010PropOp49
 70
     1
102
RTVSPost2010Prop50
 90
       50
102
RTVSPost2010PropOp50
 70
     1
102
RTVSPost2010Prop51ColorIndex
 90
      256
102
RTVSPost2010Prop51ColorRGB
 90
-16777216
102
RTVSPost2010PropOp51
 70
     0
102
RTVSPost2010Prop52
140
1.0
102
RTVSPost2010PropOp52
 70
     0
102
RTVSPost2010Prop53
 90
        2
102
RTVSPost2010PropOp53
 70
     1
102
RTVSPost2010Prop54
  1
strokes_ogs.tif
102
RTVSPost2010PropOp54
 70
     1
102
RTVSPost2010Prop55
280
     0
102
RTVSPost2010PropOp55
 70
     1
102
RTVSPost2010Prop56
140
1.0
102
RTVSPost2010PropOp56
 70
     1
102
RTVSPost2010Prop57
140
1.0
102
RTVSPost2010PropOp57
 70
     1
  0
XRECORD
  5
FB
102
{ACAD_REACTORS
330
FA
102
}
330
FA
100
AcDbXrecord
280
     1
102
RTVSPropertyOp0
 70
     0
102
RTVSPropertyOp1
 70
     0
102
RTVSPropertyOp2
 70
     0
102
RTVSPropertyOp3
 70
     0
102
RTVSPropertyOp4
 70
     0
102
RTVSPropertyOp5
 70
     0
102
RTVSPropertyOp6
 70
     0
102
RTVSPropertyOp7
 70
     0
102
RTVSPropertyOp8
 70
     0
102
RTVSPropertyOp9
 70
     0
102
RTVSPropertyOp10
 70
     0
102
RTVSPropertyOp11
 70
     0
102
RTVSPropertyOp12
 70
     0
102
RTVSPropertyOp13
 70
     0
102
RTVSPropertyOp14
 70
     2
102
RTVSPropertyOp15
 70
     0
102
RTVSPropertyOp16
 70
     0
102
RTVSPropertyOp17
 70
     0
102
RTVSPropertyOp18
 70
     0
102
RTVSPropertyOp19
 70
     0
102
RTVSPropertyOp20
 70
     0
102
RTVSPropertyOp21
 70
     0
102
RTVSPropertyOp22
 70
     0
102
RTVSPropertyOp23
 70
     0
102
RTVSPropertyOp24
 70
     0
102
RTVSPropertyOp25
 70
     0
102
RTVSPropertyOp26
 70
     0
102
RTVSPropertyOp27
 70
     0
102
RTVSPropertyOp28
 70
     0
102
RTVSPropertyOp29
 70
     0
102
RTVSPropertyOp30
 70
     0
102
RTVSPropertyOp31
 70
     0
102
RTVSPropertyOp32
 70
     0
102
RTVSPropertyOp33
 70
     0
102
RTVSPropertyOp34
 70
     0
102
RTVSPropertyOp35
 70
     0
102
RTVSPropertyOp36
 70
     0
102
RTVSPropertyOp37
 70
     0
102
RTVSPropertyOp38
 70
     0
102
RTVSPropertyOp39
 70
     0
102
RTVSPropertyOp40
 70
     0
102
RTVSPropertyOp41
 70
     0
102
RTVSPropertyOp42
 70
     0
102
RTVSPropertyOp43
 70
     0
102
RTVSPropertyOp44
 70
     0
102
RTVSPropertyOp45
 70
     0
102
RTVSPropertyOp46
 70
     0
102
RTVSPropertyOp47
 70
     0
102
RTVSPropertyOp48
 70
     0
102
RTVSPropertyOp49
 70
     0
102
RTVSPropertyOp50
 70
     0
102
RTVSPropertyOp51
 70
     0
102
RTVSPropertyOp52
 70
     0
102
RTVSPropertyOp53
 70
     0
102
RTVSPropertyOp54
 70
     0
102
RTVSPropertyOp55
 70
     0
102
RTVSPropertyOp56
 70
     0
102
RTVSPropertyOp57
 70
     0
102
RTVSPost2010Prop28
280
     0
102
RTVSPost2010PropOp28
 70
     0
102
RTVSPost2010Prop29
280
     1
102
RTVSPost2010PropOp29
 70
     0
102
RTVSPost2010Prop30
280
     1
102
RTVSPost2010PropOp30
 70
     0
102
RTVSPost2010Prop31
280
     0
102
RTVSPost2010PropOp31
 70
     0
102
RTVSPost2010Prop32
280
     0
102
RTVSPost2010PropOp32
 70
     0
102
RTVSPost2010Prop33
280
     0
102
RTVSPost2010PropOp33
 70
     0
102
RTVSPost2010Prop34
280
     0
102
RTVSPost2010PropOp34
 70
     0
102
RTVSPost2010Prop35
280
     0
102
RTVSPost2010PropOp35
 70
     0
102
RTVSPost2010Prop36
280
     0
102
RTVSPost2010PropOp36
 70
     0
102
RTVSPost2010Prop37
 90
       50
102
RTVSPost2010PropOp37
 70
     0
102
RTVSPost2010Prop38
140
0.0
102
RTVSPost2010PropOp38
 70
     0
102
RTVSPost2010Prop39
140
1.0
102
RTVSPost2010PropOp39
 70
     0
102
RTVSPost2010Prop40
 90
        0
102
RTVSPost2010PropOp40
 70
     0
102
RTVSPost2010Prop41ColorIndex
 90
       18
102
RTVSPost2010Prop41ColorRGB
 90
        0
102
RTVSPost2010PropOp41
 70
     0
102
RTVSPost2010Prop42
 90
       50
102
RTVSPost2010PropOp42
 70
     0
102
RTVSPost2010Prop43
 90
        3
102
RTVSPost2010PropOp43
 70
     0
102
RTVSPost2010Prop44ColorIndex
 90
        5
102
RTVSPost2010Prop44ColorRGB
 90
      255
102
RTVSPost2010PropOp44
 70
     0
102
RTVSPost2010Prop45
280
     0
102
RTVSPost2010PropOp45
 70
     0
102
RTVSPost2010Prop46
 90
       50
102
RTVSPost2010PropOp46
 70
     0
102
RTVSPost2010Prop47
 90
       50
102
RTVSPost2010PropOp47
 70
     0
102
RTVSPost2010Prop48
 90
       50
102
RTVSPost2010PropOp48
 70
     0
102
RTVSPost2010Prop49
280
     0
102
RTVSPost2010PropOp49
 70
     0
102
RTVSPost2010Prop50
 90
       50
102
RTVSPost2010PropOp50
 70
     0
102
RTVSPost2010Prop51ColorIndex
 90
      256
102
RTVSPost2010Prop51ColorRGB
 90
-16777216
102
RTVSPost2010PropOp51
 70
     0
102
RTVSPost2010Prop52
140
1.0
102
RTVSPost2010PropOp52
 70
     0
102
RTVSPost2010Prop53
 90
        2
102
RTVSPost2010PropOp53
 70
     0
102
RTVSPost2010Prop54
  1
strokes_ogs.tif
102
RTVSPost2010PropOp54
 70
     0
102
RTVSPost2010Prop55
280
     0
102
RTVSPost2010PropOp55
 70
     0
102
RTVSPost2010Prop56
140
1.0
102
RTVSPost2010PropOp56
 70
     0
102
RTVSPost2010Prop57
140
1.0
102
RTVSPost2010PropOp57
 70
     0
  0
XRECORD
  5
F3
102
{ACAD_REACTORS
330
F2
102
}
330
F2
100
AcDbXrecord
280
     1
102
RTVSPropertyOp0
 70
     1
102
RTVSPropertyOp1
 70
     1
102
RTVSPropertyOp2
 70
     1
102
RTVSPropertyOp3
 70
     1
102
RTVSPropertyOp4
 70
     1
102
RTVSPropertyOp5
 70
     1
102
RTVSPropertyOp6
 70
     1
102
RTVSPropertyOp7
 70
     1
102
RTVSPropertyOp8
 70
     1
102
RTVSPropertyOp9
 70
     1
102
RTVSPropertyOp10
 70
     1
102
RTVSPropertyOp11
 70
     1
102
RTVSPropertyOp12
 70
     1
102
RTVSPropertyOp13
 70
     1
102
RTVSPropertyOp14
 70
     1
102
RTVSPropertyOp15
 70
     1
102
RTVSPropertyOp16
 70
     1
102
RTVSPropertyOp17
 70
     1
102
RTVSPropertyOp18
 70
     1
102
RTVSPropertyOp19
 70
     1
102
RTVSPropertyOp20
 70
     1
102
RTVSPropertyOp21
 70
     1
102
RTVSPropertyOp22
 70
     1
102
RTVSPropertyOp23
 70
     1
102
RTVSPropertyOp24
 70
     1
102
RTVSPropertyOp25
 70
     1
102
RTVSPropertyOp26
 70
     1
102
RTVSPropertyOp27
 70
     1
102
RTVSPropertyOp28
 70
     1
102
RTVSPropertyOp29
 70
     1
102
RTVSPropertyOp30
 70
     1
102
RTVSPropertyOp31
 70
     1
102
RTVSPropertyOp32
 70
     1
102
RTVSPropertyOp33
 70
     1
102
RTVSPropertyOp34
 70
     1
102
RTVSPropertyOp35
 70
     1
102
RTVSPropertyOp36
 70
     1
102
RTVSPropertyOp37
 70
     1
102
RTVSPropertyOp38
 70
     1
102
RTVSPropertyOp39
 70
     1
102
RTVSPropertyOp40
 70
     1
102
RTVSPropertyOp41
 70
     1
102
RTVSPropertyOp42
 70
     1
102
RTVSPropertyOp43
 70
     1
102
RTVSPropertyOp44
 70
     1
102
RTVSPropertyOp45
 70
     1
102
RTVSPropertyOp46
 70
     1
102
RTVSPropertyOp47
 70
     1
102
RTVSPropertyOp48
 70
     1
102
RTVSPropertyOp49
 70
     1
102
RTVSPropertyOp50
 70
     1
102
RTVSPropertyOp51
 70
     0
102
RTVSPropertyOp52
 70
     0
102
RTVSPropertyOp53
 70
     1
102
RTVSPropertyOp54
 70
     1
102
RTVSPropertyOp55
 70
     1
102
RTVSPropertyOp56
 70
     1
102
RTVSPropertyOp57
 70
     1
102
RTVSPost2010Prop28
280
     0
102
RTVSPost2010PropOp28
 70
     1
102
RTVSPost2010Prop29
280
     1
102
RTVSPost2010PropOp29
 70
     1
102
RTVSPost2010Prop30
280
     1
102
RTVSPost2010PropOp30
 70
     1
102
RTVSPost2010Prop31
280
     0
102
RTVSPost2010PropOp31
 70
     1
102
RTVSPost2010Prop32
280
     0
102
RTVSPost2010PropOp32
 70
     1
102
RTVSPost2010Prop33
280
     0
102
RTVSPost2010PropOp33
 70
     1
102
RTVSPost2010Prop34
280
     0
102
RTVSPost2010PropOp34
 70
     1
102
RTVSPost2010Prop35
280
     0
102
RTVSPost2010PropOp35
 70
     1
102
RTVSPost2010Prop36
280
     0
102
RTVSPost2010PropOp36
 70
     1
102
RTVSPost2010Prop37
 90
       50
102
RTVSPost2010PropOp37
 70
     1
102
RTVSPost2010Prop38
140
0.0
102
RTVSPost2010PropOp38
 70
     1
102
RTVSPost2010Prop39
140
1.0
102
RTVSPost2010PropOp39
 70
     1
102
RTVSPost2010Prop40
 90
        0
102
RTVSPost2010PropOp40
 70
     1
102
RTVSPost2010Prop41ColorIndex
 90
       18
102
RTVSPost2010Prop41ColorRGB
 90
        0
102
RTVSPost2010PropOp41
 70
     1
102
RTVSPost2010Prop42
 90
       50
102
RTVSPost2010PropOp42
 70
     1
102
RTVSPost2010Prop43
 90
        3
102
RTVSPost2010PropOp43
 70
     1
102
RTVSPost2010Prop44ColorIndex
 90
        5
102
RTVSPost2010Prop44ColorRGB
 90
      255
102
RTVSPost2010PropOp44
 70
     1
102
RTVSPost2010Prop45
280
     0
102
RTVSPost2010PropOp45
 70
     1
102
RTVSPost2010Prop46
 90
       50
102
RTVSPost2010PropOp46
 70
     1
102
RTVSPost2010Prop47
 90
       50
102
RTVSPost2010PropOp47
 70
     1
102
RTVSPost2010Prop48
 90
       50
102
RTVSPost2010PropOp48
 70
     1
102
RTVSPost2010Prop49
280
     0
102
RTVSPost2010PropOp49
 70
     1
102
RTVSPost2010Prop50
 90
       50
102
RTVSPost2010PropOp50
 70
     1
102
RTVSPost2010Prop51ColorIndex
 90
      256
102
RTVSPost2010Prop51ColorRGB
 90
-16777216
102
RTVSPost2010PropOp51
 70
     0
102
RTVSPost2010Prop52
140
1.0
102
RTVSPost2010PropOp52
 70
     0
102
RTVSPost2010Prop53
 90
        2
102
RTVSPost2010PropOp53
 70
     1
102
RTVSPost2010Prop54
  1
strokes_ogs.tif
102
RTVSPost2010PropOp54
 70
     1
102
RTVSPost2010Prop55
280
     0
102
RTVSPost2010PropOp55
 70
     1
102
RTVSPost2010Prop56
140
1.0
102
RTVSPost2010PropOp56
 70
     1
102
RTVSPost2010Prop57
140
1.0
102
RTVSPost2010PropOp57
 70
     1
  0
XRECORD
  5
D7
102
{ACAD_REACTORS
330
D6
102
}
330
D6
100
AcDbXrecord
280
     1
102
RTVSPropertyOp0
 70
     1
102
RTVSPropertyOp1
 70
     1
102
RTVSPropertyOp2
 70
     1
102
RTVSPropertyOp3
 70
     1
102
RTVSPropertyOp4
 70
     1
102
RTVSPropertyOp5
 70
     1
102
RTVSPropertyOp6
 70
     1
102
RTVSPropertyOp7
 70
     1
102
RTVSPropertyOp8
 70
     1
102
RTVSPropertyOp9
 70
     1
102
RTVSPropertyOp10
 70
     1
102
RTVSPropertyOp11
 70
     1
102
RTVSPropertyOp12
 70
     1
102
RTVSPropertyOp13
 70
     1
102
RTVSPropertyOp14
 70
     1
102
RTVSPropertyOp15
 70
     1
102
RTVSPropertyOp16
 70
     1
102
RTVSPropertyOp17
 70
     1
102
RTVSPropertyOp18
 70
     1
102
RTVSPropertyOp19
 70
     1
102
RTVSPropertyOp20
 70
     1
102
RTVSPropertyOp21
 70
     1
102
RTVSPropertyOp22
 70
     1
102
RTVSPropertyOp23
 70
     1
102
RTVSPropertyOp24
 70
     1
102
RTVSPropertyOp25
 70
     1
102
RTVSPropertyOp26
 70
     1
102
RTVSPropertyOp27
 70
     1
102
RTVSPropertyOp28
 70
     1
102
RTVSPropertyOp29
 70
     1
102
RTVSPropertyOp30
 70
     1
102
RTVSPropertyOp31
 70
     1
102
RTVSPropertyOp32
 70
     1
102
RTVSPropertyOp33
 70
     1
102
RTVSPropertyOp34
 70
     1
102
RTVSPropertyOp35
 70
     1
102
RTVSPropertyOp36
 70
     1
102
RTVSPropertyOp37
 70
     1
102
RTVSPropertyOp38
 70
     1
102
RTVSPropertyOp39
 70
     1
102
RTVSPropertyOp40
 70
     1
102
RTVSPropertyOp41
 70
     1
102
RTVSPropertyOp42
 70
     1
102
RTVSPropertyOp43
 70
     1
102
RTVSPropertyOp44
 70
     1
102
RTVSPropertyOp45
 70
     1
102
RTVSPropertyOp46
 70
     1
102
RTVSPropertyOp47
 70
     1
102
RTVSPropertyOp48
 70
     1
102
RTVSPropertyOp49
 70
     1
102
RTVSPropertyOp50
 70
     1
102
RTVSPropertyOp51
 70
     0
102
RTVSPropertyOp52
 70
     0
102
RTVSPropertyOp53
 70
     1
102
RTVSPropertyOp54
 70
     1
102
RTVSPropertyOp55
 70
     1
102
RTVSPropertyOp56
 70
     1
102
RTVSPropertyOp57
 70
     1
102
RTVSPost2010Prop28
280
     0
102
RTVSPost2010PropOp28
 70
     1
102
RTVSPost2010Prop29
280
     1
102
RTVSPost2010PropOp29
 70
     1
102
RTVSPost2010Prop30
280
     1
102
RTVSPost2010PropOp30
 70
     1
102
RTVSPost2010Prop31
280
     0
102
RTVSPost2010PropOp31
 70
     1
102
RTVSPost2010Prop32
280
     0
102
RTVSPost2010PropOp32
 70
     1
102
RTVSPost2010Prop33
280
     0
102
RTVSPost2010PropOp33
 70
     1
102
RTVSPost2010Prop34
280
     0
102
RTVSPost2010PropOp34
 70
     1
102
RTVSPost2010Prop35
280
     0
102
RTVSPost2010PropOp35
 70
     1
102
RTVSPost2010Prop36
280
     0
102
RTVSPost2010PropOp36
 70
     1
102
RTVSPost2010Prop37
 90
       50
102
RTVSPost2010PropOp37
 70
     1
102
RTVSPost2010Prop38
140
0.0
102
RTVSPost2010PropOp38
 70
     1
102
RTVSPost2010Prop39
140
1.0
102
RTVSPost2010PropOp39
 70
     1
102
RTVSPost2010Prop40
 90
        0
102
RTVSPost2010PropOp40
 70
     1
102
RTVSPost2010Prop41ColorIndex
 90
       18
102
RTVSPost2010Prop41ColorRGB
 90
        0
102
RTVSPost2010PropOp41
 70
     1
102
RTVSPost2010Prop42
 90
       50
102
RTVSPost2010PropOp42
 70
     1
102
RTVSPost2010Prop43
 90
        3
102
RTVSPost2010PropOp43
 70
     1
102
RTVSPost2010Prop44ColorIndex
 90
        5
102
RTVSPost2010Prop44ColorRGB
 90
      255
102
RTVSPost2010PropOp44
 70
     1
102
RTVSPost2010Prop45
280
     0
102
RTVSPost2010PropOp45
 70
     1
102
RTVSPost2010Prop46
 90
       50
102
RTVSPost2010PropOp46
 70
     1
102
RTVSPost2010Prop47
 90
       50
102
RTVSPost2010PropOp47
 70
     1
102
RTVSPost2010Prop48
 90
       50
102
RTVSPost2010PropOp48
 70
     1
102
RTVSPost2010Prop49
280
     0
102
RTVSPost2010PropOp49
 70
     1
102
RTVSPost2010Prop50
 90
       50
102
RTVSPost2010PropOp50
 70
     1
102
RTVSPost2010Prop51ColorIndex
 90
      256
102
RTVSPost2010Prop51ColorRGB
 90
-16777216
102
RTVSPost2010PropOp51
 70
     0
102
RTVSPost2010Prop52
140
1.0
102
RTVSPost2010PropOp52
 70
     0
102
RTVSPost2010Prop53
 90
        2
102
RTVSPost2010PropOp53
 70
     1
102
RTVSPost2010Prop54
  1
strokes_ogs.tif
102
RTVSPost2010PropOp54
 70
     1
102
RTVSPost2010Prop55
280
     0
102
RTVSPost2010PropOp55
 70
     1
102
RTVSPost2010Prop56
140
1.0
102
RTVSPost2010PropOp56
 70
     1
102
RTVSPost2010Prop57
140
1.0
102
RTVSPost2010PropOp57
 70
     1
  0
XRECORD
  5
D9
102
{ACAD_REACTORS
330
D8
102
}
330
D8
100
AcDbXrecord
280
     1
102
RTVSPropertyOp0
 70
     1
102
RTVSPropertyOp1
 70
     1
102
RTVSPropertyOp2
 70
     1
102
RTVSPropertyOp3
 70
     1
102
RTVSPropertyOp4
 70
     1
102
RTVSPropertyOp5
 70
     1
102
RTVSPropertyOp6
 70
     1
102
RTVSPropertyOp7
 70
     1
102
RTVSPropertyOp8
 70
     1
102
RTVSPropertyOp9
 70
     1
102
RTVSPropertyOp10
 70
     1
102
RTVSPropertyOp11
 70
     1
102
RTVSPropertyOp12
 70
     1
102
RTVSPropertyOp13
 70
     1
102
RTVSPropertyOp14
 70
     1
102
RTVSPropertyOp15
 70
     1
102
RTVSPropertyOp16
 70
     1
102
RTVSPropertyOp17
 70
     1
102
RTVSPropertyOp18
 70
     1
102
RTVSPropertyOp19
 70
     1
102
RTVSPropertyOp20
 70
     1
102
RTVSPropertyOp21
 70
     1
102
RTVSPropertyOp22
 70
     1
102
RTVSPropertyOp23
 70
     1
102
RTVSPropertyOp24
 70
     1
102
RTVSPropertyOp25
 70
     1
102
RTVSPropertyOp26
 70
     1
102
RTVSPropertyOp27
 70
     1
102
RTVSPropertyOp28
 70
     1
102
RTVSPropertyOp29
 70
     1
102
RTVSPropertyOp30
 70
     1
102
RTVSPropertyOp31
 70
     1
102
RTVSPropertyOp32
 70
     1
102
RTVSPropertyOp33
 70
     1
102
RTVSPropertyOp34
 70
     1
102
RTVSPropertyOp35
 70
     1
102
RTVSPropertyOp36
 70
     1
102
RTVSPropertyOp37
 70
     1
102
RTVSPropertyOp38
 70
     1
102
RTVSPropertyOp39
 70
     1
102
RTVSPropertyOp40
 70
     1
102
RTVSPropertyOp41
 70
     1
102
RTVSPropertyOp42
 70
     1
102
RTVSPropertyOp43
 70
     1
102
RTVSPropertyOp44
 70
     1
102
RTVSPropertyOp45
 70
     1
102
RTVSPropertyOp46
 70
     1
102
RTVSPropertyOp47
 70
     1
102
RTVSPropertyOp48
 70
     1
102
RTVSPropertyOp49
 70
     1
102
RTVSPropertyOp50
 70
     1
102
RTVSPropertyOp51
 70
     0
102
RTVSPropertyOp52
 70
     0
102
RTVSPropertyOp53
 70
     1
102
RTVSPropertyOp54
 70
     1
102
RTVSPropertyOp55
 70
     1
102
RTVSPropertyOp56
 70
     1
102
RTVSPropertyOp57
 70
     1
102
RTVSPost2010Prop28
280
     0
102
RTVSPost2010PropOp28
 70
     1
102
RTVSPost2010Prop29
280
     1
102
RTVSPost2010PropOp29
 70
     1
102
RTVSPost2010Prop30
280
     1
102
RTVSPost2010PropOp30
 70
     1
102
RTVSPost2010Prop31
280
     0
102
RTVSPost2010PropOp31
 70
     1
102
RTVSPost2010Prop32
280
     0
102
RTVSPost2010PropOp32
 70
     1
102
RTVSPost2010Prop33
280
     0
102
RTVSPost2010PropOp33
 70
     1
102
RTVSPost2010Prop34
280
     0
102
RTVSPost2010PropOp34
 70
     1
102
RTVSPost2010Prop35
280
     0
102
RTVSPost2010PropOp35
 70
     1
102
RTVSPost2010Prop36
280
     0
102
RTVSPost2010PropOp36
 70
     1
102
RTVSPost2010Prop37
 90
       50
102
RTVSPost2010PropOp37
 70
     1
102
RTVSPost2010Prop38
140
0.0
102
RTVSPost2010PropOp38
 70
     1
102
RTVSPost2010Prop39
140
1.0
102
RTVSPost2010PropOp39
 70
     1
102
RTVSPost2010Prop40
 90
        0
102
RTVSPost2010PropOp40
 70
     1
102
RTVSPost2010Prop41ColorIndex
 90
       18
102
RTVSPost2010Prop41ColorRGB
 90
        0
102
RTVSPost2010PropOp41
 70
     1
102
RTVSPost2010Prop42
 90
       50
102
RTVSPost2010PropOp42
 70
     1
102
RTVSPost2010Prop43
 90
        3
102
RTVSPost2010PropOp43
 70
     1
102
RTVSPost2010Prop44ColorIndex
 90
        5
102
RTVSPost2010Prop44ColorRGB
 90
      255
102
RTVSPost2010PropOp44
 70
     1
102
RTVSPost2010Prop45
280
     0
102
RTVSPost2010PropOp45
 70
     1
102
RTVSPost2010Prop46
 90
       50
102
RTVSPost2010PropOp46
 70
     1
102
RTVSPost2010Prop47
 90
       50
102
RTVSPost2010PropOp47
 70
     1
102
RTVSPost2010Prop48
 90
       50
102
RTVSPost2010PropOp48
 70
     1
102
RTVSPost2010Prop49
280
     0
102
RTVSPost2010PropOp49
 70
     1
102
RTVSPost2010Prop50
 90
       50
102
RTVSPost2010PropOp50
 70
     1
102
RTVSPost2010Prop51ColorIndex
 90
      256
102
RTVSPost2010Prop51ColorRGB
 90
-16777216
102
RTVSPost2010PropOp51
 70
     0
102
RTVSPost2010Prop52
140
1.0
102
RTVSPost2010PropOp52
 70
     0
102
RTVSPost2010Prop53
 90
        2
102
RTVSPost2010PropOp53
 70
     1
102
RTVSPost2010Prop54
  1
strokes_ogs.tif
102
RTVSPost2010PropOp54
 70
     1
102
RTVSPost2010Prop55
280
     0
102
RTVSPost2010PropOp55
 70
     1
102
RTVSPost2010Prop56
140
1.0
102
RTVSPost2010PropOp56
 70
     1
102
RTVSPost2010Prop57
140
1.0
102
RTVSPost2010PropOp57
 70
     1
  0
XRECORD
  5
DB
102
{ACAD_REACTORS
330
DA
102
}
330
DA
100
AcDbXrecord
280
     1
102
RTVSPropertyOp0
 70
     1
102
RTVSPropertyOp1
 70
     1
102
RTVSPropertyOp2
 70
     1
102
RTVSPropertyOp3
 70
     1
102
RTVSPropertyOp4
 70
     1
102
RTVSPropertyOp5
 70
     1
102
RTVSPropertyOp6
 70
     1
102
RTVSPropertyOp7
 70
     1
102
RTVSPropertyOp8
 70
     1
102
RTVSPropertyOp9
 70
     1
102
RTVSPropertyOp10
 70
     1
102
RTVSPropertyOp11
 70
     1
102
RTVSPropertyOp12
 70
     1
102
RTVSPropertyOp13
 70
     1
102
RTVSPropertyOp14
 70
     1
102
RTVSPropertyOp15
 70
     1
102
RTVSPropertyOp16
 70
     1
102
RTVSPropertyOp17
 70
     1
102
RTVSPropertyOp18
 70
     1
102
RTVSPropertyOp19
 70
     1
102
RTVSPropertyOp20
 70
     1
102
RTVSPropertyOp21
 70
     1
102
RTVSPropertyOp22
 70
     1
102
RTVSPropertyOp23
 70
     1
102
RTVSPropertyOp24
 70
     1
102
RTVSPropertyOp25
 70
     1
102
RTVSPropertyOp26
 70
     1
102
RTVSPropertyOp27
 70
     1
102
RTVSPropertyOp28
 70
     1
102
RTVSPropertyOp29
 70
     1
102
RTVSPropertyOp30
 70
     1
102
RTVSPropertyOp31
 70
     1
102
RTVSPropertyOp32
 70
     1
102
RTVSPropertyOp33
 70
     1
102
RTVSPropertyOp34
 70
     1
102
RTVSPropertyOp35
 70
     1
102
RTVSPropertyOp36
 70
     1
102
RTVSPropertyOp37
 70
     1
102
RTVSPropertyOp38
 70
     1
102
RTVSPropertyOp39
 70
     1
102
RTVSPropertyOp40
 70
     1
102
RTVSPropertyOp41
 70
     1
102
RTVSPropertyOp42
 70
     1
102
RTVSPropertyOp43
 70
     1
102
RTVSPropertyOp44
 70
     1
102
RTVSPropertyOp45
 70
     1
102
RTVSPropertyOp46
 70
     1
102
RTVSPropertyOp47
 70
     1
102
RTVSPropertyOp48
 70
     1
102
RTVSPropertyOp49
 70
     1
102
RTVSPropertyOp50
 70
     1
102
RTVSPropertyOp51
 70
     0
102
RTVSPropertyOp52
 70
     0
102
RTVSPropertyOp53
 70
     1
102
RTVSPropertyOp54
 70
     1
102
RTVSPropertyOp55
 70
     1
102
RTVSPropertyOp56
 70
     1
102
RTVSPropertyOp57
 70
     1
102
RTVSPost2010Prop28
280
     0
102
RTVSPost2010PropOp28
 70
     1
102
RTVSPost2010Prop29
280
     1
102
RTVSPost2010PropOp29
 70
     1
102
RTVSPost2010Prop30
280
     1
102
RTVSPost2010PropOp30
 70
     1
102
RTVSPost2010Prop31
280
     0
102
RTVSPost2010PropOp31
 70
     1
102
RTVSPost2010Prop32
280
     0
102
RTVSPost2010PropOp32
 70
     1
102
RTVSPost2010Prop33
280
     0
102
RTVSPost2010PropOp33
 70
     1
102
RTVSPost2010Prop34
280
     0
102
RTVSPost2010PropOp34
 70
     1
102
RTVSPost2010Prop35
280
     0
102
RTVSPost2010PropOp35
 70
     1
102
RTVSPost2010Prop36
280
     0
102
RTVSPost2010PropOp36
 70
     1
102
RTVSPost2010Prop37
 90
       50
102
RTVSPost2010PropOp37
 70
     1
102
RTVSPost2010Prop38
140
0.0
102
RTVSPost2010PropOp38
 70
     1
102
RTVSPost2010Prop39
140
1.0
102
RTVSPost2010PropOp39
 70
     1
102
RTVSPost2010Prop40
 90
        0
102
RTVSPost2010PropOp40
 70
     1
102
RTVSPost2010Prop41ColorIndex
 90
       18
102
RTVSPost2010Prop41ColorRGB
 90
        0
102
RTVSPost2010PropOp41
 70
     1
102
RTVSPost2010Prop42
 90
       50
102
RTVSPost2010PropOp42
 70
     1
102
RTVSPost2010Prop43
 90
        3
102
RTVSPost2010PropOp43
 70
     1
102
RTVSPost2010Prop44ColorIndex
 90
        5
102
RTVSPost2010Prop44ColorRGB
 90
      255
102
RTVSPost2010PropOp44
 70
     1
102
RTVSPost2010Prop45
280
     0
102
RTVSPost2010PropOp45
 70
     1
102
RTVSPost2010Prop46
 90
       50
102
RTVSPost2010PropOp46
 70
     1
102
RTVSPost2010Prop47
 90
       50
102
RTVSPost2010PropOp47
 70
     1
102
RTVSPost2010Prop48
 90
       50
102
RTVSPost2010PropOp48
 70
     1
102
RTVSPost2010Prop49
280
     0
102
RTVSPost2010PropOp49
 70
     1
102
RTVSPost2010Prop50
 90
       50
102
RTVSPost2010PropOp50
 70
     1
102
RTVSPost2010Prop51ColorIndex
 90
      256
102
RTVSPost2010Prop51ColorRGB
 90
-16777216
102
RTVSPost2010PropOp51
 70
     0
102
RTVSPost2010Prop52
140
1.0
102
RTVSPost2010PropOp52
 70
     0
102
RTVSPost2010Prop53
 90
        2
102
RTVSPost2010PropOp53
 70
     1
102
RTVSPost2010Prop54
  1
strokes_ogs.tif
102
RTVSPost2010PropOp54
 70
     1
102
RTVSPost2010Prop55
280
     0
102
RTVSPost2010PropOp55
 70
     1
102
RTVSPost2010Prop56
140
1.0
102
RTVSPost2010PropOp56
 70
     1
102
RTVSPost2010Prop57
140
1.0
102
RTVSPost2010PropOp57
 70
     1
  0
XRECORD
  5
DD
102
{ACAD_REACTORS
330
DC
102
}
330
DC
100
AcDbXrecord
280
     1
102
RTVSPropertyOp0
 70
     1
102
RTVSPropertyOp1
 70
     1
102
RTVSPropertyOp2
 70
     1
102
RTVSPropertyOp3
 70
     1
102
RTVSPropertyOp4
 70
     1
102
RTVSPropertyOp5
 70
     1
102
RTVSPropertyOp6
 70
     1
102
RTVSPropertyOp7
 70
     1
102
RTVSPropertyOp8
 70
     1
102
RTVSPropertyOp9
 70
     1
102
RTVSPropertyOp10
 70
     1
102
RTVSPropertyOp11
 70
     1
102
RTVSPropertyOp12
 70
     1
102
RTVSPropertyOp13
 70
     1
102
RTVSPropertyOp14
 70
     1
102
RTVSPropertyOp15
 70
     1
102
RTVSPropertyOp16
 70
     1
102
RTVSPropertyOp17
 70
     1
102
RTVSPropertyOp18
 70
     1
102
RTVSPropertyOp19
 70
     1
102
RTVSPropertyOp20
 70
     1
102
RTVSPropertyOp21
 70
     1
102
RTVSPropertyOp22
 70
     1
102
RTVSPropertyOp23
 70
     1
102
RTVSPropertyOp24
 70
     1
102
RTVSPropertyOp25
 70
     1
102
RTVSPropertyOp26
 70
     1
102
RTVSPropertyOp27
 70
     1
102
RTVSPropertyOp28
 70
     1
102
RTVSPropertyOp29
 70
     1
102
RTVSPropertyOp30
 70
     1
102
RTVSPropertyOp31
 70
     1
102
RTVSPropertyOp32
 70
     1
102
RTVSPropertyOp33
 70
     1
102
RTVSPropertyOp34
 70
     1
102
RTVSPropertyOp35
 70
     1
102
RTVSPropertyOp36
 70
     1
102
RTVSPropertyOp37
 70
     1
102
RTVSPropertyOp38
 70
     1
102
RTVSPropertyOp39
 70
     1
102
RTVSPropertyOp40
 70
     1
102
RTVSPropertyOp41
 70
     1
102
RTVSPropertyOp42
 70
     1
102
RTVSPropertyOp43
 70
     1
102
RTVSPropertyOp44
 70
     1
102
RTVSPropertyOp45
 70
     1
102
RTVSPropertyOp46
 70
     1
102
RTVSPropertyOp47
 70
     1
102
RTVSPropertyOp48
 70
     1
102
RTVSPropertyOp49
 70
     1
102
RTVSPropertyOp50
 70
     1
102
RTVSPropertyOp51
 70
     0
102
RTVSPropertyOp52
 70
     0
102
RTVSPropertyOp53
 70
     1
102
RTVSPropertyOp54
 70
     1
102
RTVSPropertyOp55
 70
     1
102
RTVSPropertyOp56
 70
     1
102
RTVSPropertyOp57
 70
     1
102
RTVSPost2010Prop28
280
     0
102
RTVSPost2010PropOp28
 70
     1
102
RTVSPost2010Prop29
280
     1
102
RTVSPost2010PropOp29
 70
     1
102
RTVSPost2010Prop30
280
     1
102
RTVSPost2010PropOp30
 70
     1
102
RTVSPost2010Prop31
280
     0
102
RTVSPost2010PropOp31
 70
     1
102
RTVSPost2010Prop32
280
     0
102
RTVSPost2010PropOp32
 70
     1
102
RTVSPost2010Prop33
280
     0
102
RTVSPost2010PropOp33
 70
     1
102
RTVSPost2010Prop34
280
     0
102
RTVSPost2010PropOp34
 70
     1
102
RTVSPost2010Prop35
280
     0
102
RTVSPost2010PropOp35
 70
     1
102
RTVSPost2010Prop36
280
     0
102
RTVSPost2010PropOp36
 70
     1
102
RTVSPost2010Prop37
 90
       50
102
RTVSPost2010PropOp37
 70
     1
102
RTVSPost2010Prop38
140
0.0
102
RTVSPost2010PropOp38
 70
     1
102
RTVSPost2010Prop39
140
1.0
102
RTVSPost2010PropOp39
 70
     1
102
RTVSPost2010Prop40
 90
        0
102
RTVSPost2010PropOp40
 70
     1
102
RTVSPost2010Prop41ColorIndex
 90
       18
102
RTVSPost2010Prop41ColorRGB
 90
        0
102
RTVSPost2010PropOp41
 70
     1
102
RTVSPost2010Prop42
 90
       50
102
RTVSPost2010PropOp42
 70
     1
102
RTVSPost2010Prop43
 90
        3
102
RTVSPost2010PropOp43
 70
     1
102
RTVSPost2010Prop44ColorIndex
 90
        5
102
RTVSPost2010Prop44ColorRGB
 90
      255
102
RTVSPost2010PropOp44
 70
     1
102
RTVSPost2010Prop45
280
     0
102
RTVSPost2010PropOp45
 70
     1
102
RTVSPost2010Prop46
 90
       50
102
RTVSPost2010PropOp46
 70
     1
102
RTVSPost2010Prop47
 90
       50
102
RTVSPost2010PropOp47
 70
     1
102
RTVSPost2010Prop48
 90
       50
102
RTVSPost2010PropOp48
 70
     1
102
RTVSPost2010Prop49
280
     0
102
RTVSPost2010PropOp49
 70
     1
102
RTVSPost2010Prop50
 90
       50
102
RTVSPost2010PropOp50
 70
     1
102
RTVSPost2010Prop51ColorIndex
 90
      256
102
RTVSPost2010Prop51ColorRGB
 90
-16777216
102
RTVSPost2010PropOp51
 70
     0
102
RTVSPost2010Prop52
140
1.0
102
RTVSPost2010PropOp52
 70
     0
102
RTVSPost2010Prop53
 90
        2
102
RTVSPost2010PropOp53
 70
     1
102
RTVSPost2010Prop54
  1
strokes_ogs.tif
102
RTVSPost2010PropOp54
 70
     1
102
RTVSPost2010Prop55
280
     0
102
RTVSPost2010PropOp55
 70
     1
102
RTVSPost2010Prop56
140
1.0
102
RTVSPost2010PropOp56
 70
     1
102
RTVSPost2010Prop57
140
1.0
102
RTVSPost2010PropOp57
 70
     1
  0
XRECORD
  5
E3
102
{ACAD_REACTORS
330
E2
102
}
330
E2
100
AcDbXrecord
280
     1
102
RTVSPropertyOp0
 70
     1
102
RTVSPropertyOp1
 70
     1
102
RTVSPropertyOp2
 70
     1
102
RTVSPropertyOp3
 70
     1
102
RTVSPropertyOp4
 70
     1
102
RTVSPropertyOp5
 70
     1
102
RTVSPropertyOp6
 70
     1
102
RTVSPropertyOp7
 70
     1
102
RTVSPropertyOp8
 70
     1
102
RTVSPropertyOp9
 70
     1
102
RTVSPropertyOp10
 70
     1
102
RTVSPropertyOp11
 70
     1
102
RTVSPropertyOp12
 70
     1
102
RTVSPropertyOp13
 70
     1
102
RTVSPropertyOp14
 70
     1
102
RTVSPropertyOp15
 70
     1
102
RTVSPropertyOp16
 70
     1
102
RTVSPropertyOp17
 70
     1
102
RTVSPropertyOp18
 70
     1
102
RTVSPropertyOp19
 70
     1
102
RTVSPropertyOp20
 70
     1
102
RTVSPropertyOp21
 70
     1
102
RTVSPropertyOp22
 70
     1
102
RTVSPropertyOp23
 70
     1
102
RTVSPropertyOp24
 70
     1
102
RTVSPropertyOp25
 70
     1
102
RTVSPropertyOp26
 70
     1
102
RTVSPropertyOp27
 70
     1
102
RTVSPropertyOp28
 70
     1
102
RTVSPropertyOp29
 70
     1
102
RTVSPropertyOp30
 70
     1
102
RTVSPropertyOp31
 70
     1
102
RTVSPropertyOp32
 70
     1
102
RTVSPropertyOp33
 70
     1
102
RTVSPropertyOp34
 70
     1
102
RTVSPropertyOp35
 70
     1
102
RTVSPropertyOp36
 70
     1
102
RTVSPropertyOp37
 70
     1
102
RTVSPropertyOp38
 70
     1
102
RTVSPropertyOp39
 70
     1
102
RTVSPropertyOp40
 70
     1
102
RTVSPropertyOp41
 70
     1
102
RTVSPropertyOp42
 70
     1
102
RTVSPropertyOp43
 70
     1
102
RTVSPropertyOp44
 70
     1
102
RTVSPropertyOp45
 70
     1
102
RTVSPropertyOp46
 70
     1
102
RTVSPropertyOp47
 70
     1
102
RTVSPropertyOp48
 70
     1
102
RTVSPropertyOp49
 70
     1
102
RTVSPropertyOp50
 70
     1
102
RTVSPropertyOp51
 70
     0
102
RTVSPropertyOp52
 70
     0
102
RTVSPropertyOp53
 70
     1
102
RTVSPropertyOp54
 70
     1
102
RTVSPropertyOp55
 70
     1
102
RTVSPropertyOp56
 70
     1
102
RTVSPropertyOp57
 70
     1
102
RTVSPost2010Prop28
280
     0
102
RTVSPost2010PropOp28
 70
     1
102
RTVSPost2010Prop29
280
     1
102
RTVSPost2010PropOp29
 70
     1
102
RTVSPost2010Prop30
280
     1
102
RTVSPost2010PropOp30
 70
     1
102
RTVSPost2010Prop31
280
     0
102
RTVSPost2010PropOp31
 70
     1
102
RTVSPost2010Prop32
280
     0
102
RTVSPost2010PropOp32
 70
     1
102
RTVSPost2010Prop33
280
     0
102
RTVSPost2010PropOp33
 70
     1
102
RTVSPost2010Prop34
280
     0
102
RTVSPost2010PropOp34
 70
     1
102
RTVSPost2010Prop35
280
     0
102
RTVSPost2010PropOp35
 70
     1
102
RTVSPost2010Prop36
280
     0
102
RTVSPost2010PropOp36
 70
     1
102
RTVSPost2010Prop37
 90
       50
102
RTVSPost2010PropOp37
 70
     1
102
RTVSPost2010Prop38
140
0.0
102
RTVSPost2010PropOp38
 70
     1
102
RTVSPost2010Prop39
140
1.0
102
RTVSPost2010PropOp39
 70
     1
102
RTVSPost2010Prop40
 90
        0
102
RTVSPost2010PropOp40
 70
     1
102
RTVSPost2010Prop41ColorIndex
 90
       18
102
RTVSPost2010Prop41ColorRGB
 90
        0
102
RTVSPost2010PropOp41
 70
     1
102
RTVSPost2010Prop42
 90
       50
102
RTVSPost2010PropOp42
 70
     1
102
RTVSPost2010Prop43
 90
        3
102
RTVSPost2010PropOp43
 70
     1
102
RTVSPost2010Prop44ColorIndex
 90
        5
102
RTVSPost2010Prop44ColorRGB
 90
      255
102
RTVSPost2010PropOp44
 70
     1
102
RTVSPost2010Prop45
280
     0
102
RTVSPost2010PropOp45
 70
     1
102
RTVSPost2010Prop46
 90
       50
102
RTVSPost2010PropOp46
 70
     1
102
RTVSPost2010Prop47
 90
       50
102
RTVSPost2010PropOp47
 70
     1
102
RTVSPost2010Prop48
 90
       50
102
RTVSPost2010PropOp48
 70
     1
102
RTVSPost2010Prop49
280
     0
102
RTVSPost2010PropOp49
 70
     1
102
RTVSPost2010Prop50
 90
       50
102
RTVSPost2010PropOp50
 70
     1
102
RTVSPost2010Prop51ColorIndex
 90
      256
102
RTVSPost2010Prop51ColorRGB
 90
-16777216
102
RTVSPost2010PropOp51
 70
     0
102
RTVSPost2010Prop52
140
1.0
102
RTVSPost2010PropOp52
 70
     0
102
RTVSPost2010Prop53
 90
        2
102
RTVSPost2010PropOp53
 70
     1
102
RTVSPost2010Prop54
  1
strokes_ogs.tif
102
RTVSPost2010PropOp54
 70
     1
102
RTVSPost2010Prop55
280
     0
102
RTVSPost2010PropOp55
 70
     1
102
RTVSPost2010Prop56
140
1.0
102
RTVSPost2010PropOp56
 70
     1
102
RTVSPost2010Prop57
140
1.0
102
RTVSPost2010PropOp57
 70
     1
  0
XRECORD
  5
F7
102
{ACAD_REACTORS
330
F6
102
}
330
F6
100
AcDbXrecord
280
     1
102
RTVSPropertyOp0
 70
     0
102
RTVSPropertyOp1
 70
     0
102
RTVSPropertyOp2
 70
     0
102
RTVSPropertyOp3
 70
     0
102
RTVSPropertyOp4
 70
     0
102
RTVSPropertyOp5
 70
     0
102
RTVSPropertyOp6
 70
     0
102
RTVSPropertyOp7
 70
     0
102
RTVSPropertyOp8
 70
     0
102
RTVSPropertyOp9
 70
     0
102
RTVSPropertyOp10
 70
     0
102
RTVSPropertyOp11
 70
     0
102
RTVSPropertyOp12
 70
     0
102
RTVSPropertyOp13
 70
     0
102
RTVSPropertyOp14
 70
     2
102
RTVSPropertyOp15
 70
     0
102
RTVSPropertyOp16
 70
     0
102
RTVSPropertyOp17
 70
     0
102
RTVSPropertyOp18
 70
     0
102
RTVSPropertyOp19
 70
     0
102
RTVSPropertyOp20
 70
     0
102
RTVSPropertyOp21
 70
     0
102
RTVSPropertyOp22
 70
     0
102
RTVSPropertyOp23
 70
     0
102
RTVSPropertyOp24
 70
     0
102
RTVSPropertyOp25
 70
     0
102
RTVSPropertyOp26
 70
     0
102
RTVSPropertyOp27
 70
     0
102
RTVSPropertyOp28
 70
     0
102
RTVSPropertyOp29
 70
     0
102
RTVSPropertyOp30
 70
     0
102
RTVSPropertyOp31
 70
     0
102
RTVSPropertyOp32
 70
     0
102
RTVSPropertyOp33
 70
     0
102
RTVSPropertyOp34
 70
     0
102
RTVSPropertyOp35
 70
     0
102
RTVSPropertyOp36
 70
     0
102
RTVSPropertyOp37
 70
     0
102
RTVSPropertyOp38
 70
     0
102
RTVSPropertyOp39
 70
     0
102
RTVSPropertyOp40
 70
     0
102
RTVSPropertyOp41
 70
     0
102
RTVSPropertyOp42
 70
     0
102
RTVSPropertyOp43
 70
     0
102
RTVSPropertyOp44
 70
     0
102
RTVSPropertyOp45
 70
     0
102
RTVSPropertyOp46
 70
     0
102
RTVSPropertyOp47
 70
     0
102
RTVSPropertyOp48
 70
     0
102
RTVSPropertyOp49
 70
     0
102
RTVSPropertyOp50
 70
     0
102
RTVSPropertyOp51
 70
     0
102
RTVSPropertyOp52
 70
     0
102
RTVSPropertyOp53
 70
     0
102
RTVSPropertyOp54
 70
     0
102
RTVSPropertyOp55
 70
     0
102
RTVSPropertyOp56
 70
     0
102
RTVSPropertyOp57
 70
     0
102
RTVSPost2010Prop28
280
     0
102
RTVSPost2010PropOp28
 70
     0
102
RTVSPost2010Prop29
280
     1
102
RTVSPost2010PropOp29
 70
     0
102
RTVSPost2010Prop30
280
     1
102
RTVSPost2010PropOp30
 70
     0
102
RTVSPost2010Prop31
280
     0
102
RTVSPost2010PropOp31
 70
     0
102
RTVSPost2010Prop32
280
     0
102
RTVSPost2010PropOp32
 70
     0
102
RTVSPost2010Prop33
280
     0
102
RTVSPost2010PropOp33
 70
     0
102
RTVSPost2010Prop34
280
     0
102
RTVSPost2010PropOp34
 70
     0
102
RTVSPost2010Prop35
280
     0
102
RTVSPost2010PropOp35
 70
     0
102
RTVSPost2010Prop36
280
     0
102
RTVSPost2010PropOp36
 70
     0
102
RTVSPost2010Prop37
 90
       50
102
RTVSPost2010PropOp37
 70
     0
102
RTVSPost2010Prop38
140
0.0
102
RTVSPost2010PropOp38
 70
     0
102
RTVSPost2010Prop39
140
1.0
102
RTVSPost2010PropOp39
 70
     0
102
RTVSPost2010Prop40
 90
        0
102
RTVSPost2010PropOp40
 70
     0
102
RTVSPost2010Prop41ColorIndex
 90
       18
102
RTVSPost2010Prop41ColorRGB
 90
        0
102
RTVSPost2010PropOp41
 70
     0
102
RTVSPost2010Prop42
 90
       50
102
RTVSPost2010PropOp42
 70
     0
102
RTVSPost2010Prop43
 90
        3
102
RTVSPost2010PropOp43
 70
     0
102
RTVSPost2010Prop44ColorIndex
 90
        5
102
RTVSPost2010Prop44ColorRGB
 90
      255
102
RTVSPost2010PropOp44
 70
     0
102
RTVSPost2010Prop45
280
     0
102
RTVSPost2010PropOp45
 70
     0
102
RTVSPost2010Prop46
 90
       50
102
RTVSPost2010PropOp46
 70
     0
102
RTVSPost2010Prop47
 90
       50
102
RTVSPost2010PropOp47
 70
     0
102
RTVSPost2010Prop48
 90
       50
102
RTVSPost2010PropOp48
 70
     0
102
RTVSPost2010Prop49
280
     0
102
RTVSPost2010PropOp49
 70
     0
102
RTVSPost2010Prop50
 90
       50
102
RTVSPost2010PropOp50
 70
     0
102
RTVSPost2010Prop51ColorIndex
 90
      256
102
RTVSPost2010Prop51ColorRGB
 90
-16777216
102
RTVSPost2010PropOp51
 70
     0
102
RTVSPost2010Prop52
140
1.0
102
RTVSPost2010PropOp52
 70
     0
102
RTVSPost2010Prop53
 90
        2
102
RTVSPost2010PropOp53
 70
     0
102
RTVSPost2010Prop54
  1
strokes_ogs.tif
102
RTVSPost2010PropOp54
 70
     0
102
RTVSPost2010Prop55
280
     0
102
RTVSPost2010PropOp55
 70
     0
102
RTVSPost2010Prop56
140
1.0
102
RTVSPost2010PropOp56
 70
     0
102
RTVSPost2010Prop57
140
1.0
102
RTVSPost2010PropOp57
 70
     0
  0
XRECORD
  5
F1
102
{ACAD_REACTORS
330
F0
102
}
330
F0
100
AcDbXrecord
280
     1
102
RTVSPropertyOp0
 70
     1
102
RTVSPropertyOp1
 70
     1
102
RTVSPropertyOp2
 70
     1
102
RTVSPropertyOp3
 70
     1
102
RTVSPropertyOp4
 70
     1
102
RTVSPropertyOp5
 70
     1
102
RTVSPropertyOp6
 70
     1
102
RTVSPropertyOp7
 70
     1
102
RTVSPropertyOp8
 70
     1
102
RTVSPropertyOp9
 70
     1
102
RTVSPropertyOp10
 70
     1
102
RTVSPropertyOp11
 70
     1
102
RTVSPropertyOp12
 70
     1
102
RTVSPropertyOp13
 70
     1
102
RTVSPropertyOp14
 70
     1
102
RTVSPropertyOp15
 70
     1
102
RTVSPropertyOp16
 70
     1
102
RTVSPropertyOp17
 70
     1
102
RTVSPropertyOp18
 70
     1
102
RTVSPropertyOp19
 70
     1
102
RTVSPropertyOp20
 70
     1
102
RTVSPropertyOp21
 70
     1
102
RTVSPropertyOp22
 70
     1
102
RTVSPropertyOp23
 70
     1
102
RTVSPropertyOp24
 70
     1
102
RTVSPropertyOp25
 70
     1
102
RTVSPropertyOp26
 70
     1
102
RTVSPropertyOp27
 70
     1
102
RTVSPropertyOp28
 70
     1
102
RTVSPropertyOp29
 70
     1
102
RTVSPropertyOp30
 70
     1
102
RTVSPropertyOp31
 70
     1
102
RTVSPropertyOp32
 70
     1
102
RTVSPropertyOp33
 70
     1
102
RTVSPropertyOp34
 70
     1
102
RTVSPropertyOp35
 70
     1
102
RTVSPropertyOp36
 70
     1
102
RTVSPropertyOp37
 70
     1
102
RTVSPropertyOp38
 70
     1
102
RTVSPropertyOp39
 70
     1
102
RTVSPropertyOp40
 70
     1
102
RTVSPropertyOp41
 70
     1
102
RTVSPropertyOp42
 70
     1
102
RTVSPropertyOp43
 70
     1
102
RTVSPropertyOp44
 70
     1
102
RTVSPropertyOp45
 70
     1
102
RTVSPropertyOp46
 70
     1
102
RTVSPropertyOp47
 70
     1
102
RTVSPropertyOp48
 70
     1
102
RTVSPropertyOp49
 70
     1
102
RTVSPropertyOp50
 70
     1
102
RTVSPropertyOp51
 70
     0
102
RTVSPropertyOp52
 70
     0
102
RTVSPropertyOp53
 70
     1
102
RTVSPropertyOp54
 70
     1
102
RTVSPropertyOp55
 70
     1
102
RTVSPropertyOp56
 70
     1
102
RTVSPropertyOp57
 70
     1
102
RTVSPost2010Prop28
280
     0
102
RTVSPost2010PropOp28
 70
     1
102
RTVSPost2010Prop29
280
     1
102
RTVSPost2010PropOp29
 70
     1
102
RTVSPost2010Prop30
280
     1
102
RTVSPost2010PropOp30
 70
     1
102
RTVSPost2010Prop31
280
     0
102
RTVSPost2010PropOp31
 70
     1
102
RTVSPost2010Prop32
280
     0
102
RTVSPost2010PropOp32
 70
     1
102
RTVSPost2010Prop33
280
     0
102
RTVSPost2010PropOp33
 70
     1
102
RTVSPost2010Prop34
280
     0
102
RTVSPost2010PropOp34
 70
     1
102
RTVSPost2010Prop35
280
     0
102
RTVSPost2010PropOp35
 70
     1
102
RTVSPost2010Prop36
280
     0
102
RTVSPost2010PropOp36
 70
     1
102
RTVSPost2010Prop37
 90
       50
102
RTVSPost2010PropOp37
 70
     1
102
RTVSPost2010Prop38
140
0.0
102
RTVSPost2010PropOp38
 70
     1
102
RTVSPost2010Prop39
140
1.0
102
RTVSPost2010PropOp39
 70
     1
102
RTVSPost2010Prop40
 90
        0
102
RTVSPost2010PropOp40
 70
     1
102
RTVSPost2010Prop41ColorIndex
 90
       18
102
RTVSPost2010Prop41ColorRGB
 90
        0
102
RTVSPost2010PropOp41
 70
     1
102
RTVSPost2010Prop42
 90
       50
102
RTVSPost2010PropOp42
 70
     1
102
RTVSPost2010Prop43
 90
        3
102
RTVSPost2010PropOp43
 70
     1
102
RTVSPost2010Prop44ColorIndex
 90
        5
102
RTVSPost2010Prop44ColorRGB
 90
      255
102
RTVSPost2010PropOp44
 70
     1
102
RTVSPost2010Prop45
280
     0
102
RTVSPost2010PropOp45
 70
     1
102
RTVSPost2010Prop46
 90
       50
102
RTVSPost2010PropOp46
 70
     1
102
RTVSPost2010Prop47
 90
       50
102
RTVSPost2010PropOp47
 70
     1
102
RTVSPost2010Prop48
 90
       50
102
RTVSPost2010PropOp48
 70
     1
102
RTVSPost2010Prop49
280
     0
102
RTVSPost2010PropOp49
 70
     1
102
RTVSPost2010Prop50
 90
       50
102
RTVSPost2010PropOp50
 70
     1
102
RTVSPost2010Prop51ColorIndex
 90
      256
102
RTVSPost2010Prop51ColorRGB
 90
-16777216
102
RTVSPost2010PropOp51
 70
     0
102
RTVSPost2010Prop52
140
1.0
102
RTVSPost2010PropOp52
 70
     0
102
RTVSPost2010Prop53
 90
        2
102
RTVSPost2010PropOp53
 70
     1
102
RTVSPost2010Prop54
  1
strokes_ogs.tif
102
RTVSPost2010PropOp54
 70
     1
102
RTVSPost2010Prop55
280
     0
102
RTVSPost2010PropOp55
 70
     1
102
RTVSPost2010Prop56
140
1.0
102
RTVSPost2010PropOp56
 70
     1
102
RTVSPost2010Prop57
140
1.0
102
RTVSPost2010PropOp57
 70
     1
  0
XRECORD
  5
F9
102
{ACAD_REACTORS
330
F8
102
}
330
F8
100
AcDbXrecord
280
     1
102
RTVSPropertyOp0
 70
     0
102
RTVSPropertyOp1
 70
     0
102
RTVSPropertyOp2
 70
     0
102
RTVSPropertyOp3
 70
     0
102
RTVSPropertyOp4
 70
     0
102
RTVSPropertyOp5
 70
     0
102
RTVSPropertyOp6
 70
     0
102
RTVSPropertyOp7
 70
     0
102
RTVSPropertyOp8
 70
     0
102
RTVSPropertyOp9
 70
     0
102
RTVSPropertyOp10
 70
     0
102
RTVSPropertyOp11
 70
     0
102
RTVSPropertyOp12
 70
     0
102
RTVSPropertyOp13
 70
     0
102
RTVSPropertyOp14
 70
     2
102
RTVSPropertyOp15
 70
     0
102
RTVSPropertyOp16
 70
     0
102
RTVSPropertyOp17
 70
     0
102
RTVSPropertyOp18
 70
     0
102
RTVSPropertyOp19
 70
     0
102
RTVSPropertyOp20
 70
     0
102
RTVSPropertyOp21
 70
     0
102
RTVSPropertyOp22
 70
     0
102
RTVSPropertyOp23
 70
     0
102
RTVSPropertyOp24
 70
     0
102
RTVSPropertyOp25
 70
     0
102
RTVSPropertyOp26
 70
     0
102
RTVSPropertyOp27
 70
     0
102
RTVSPropertyOp28
 70
     0
102
RTVSPropertyOp29
 70
     0
102
RTVSPropertyOp30
 70
     0
102
RTVSPropertyOp31
 70
     0
102
RTVSPropertyOp32
 70
     0
102
RTVSPropertyOp33
 70
     0
102
RTVSPropertyOp34
 70
     0
102
RTVSPropertyOp35
 70
     0
102
RTVSPropertyOp36
 70
     0
102
RTVSPropertyOp37
 70
     0
102
RTVSPropertyOp38
 70
     0
102
RTVSPropertyOp39
 70
     0
102
RTVSPropertyOp40
 70
     0
102
RTVSPropertyOp41
 70
     0
102
RTVSPropertyOp42
 70
     0
102
RTVSPropertyOp43
 70
     0
102
RTVSPropertyOp44
 70
     0
102
RTVSPropertyOp45
 70
     0
102
RTVSPropertyOp46
 70
     0
102
RTVSPropertyOp47
 70
     0
102
RTVSPropertyOp48
 70
     0
102
RTVSPropertyOp49
 70
     0
102
RTVSPropertyOp50
 70
     0
102
RTVSPropertyOp51
 70
     0
102
RTVSPropertyOp52
 70
     0
102
RTVSPropertyOp53
 70
     0
102
RTVSPropertyOp54
 70
     0
102
RTVSPropertyOp55
 70
     0
102
RTVSPropertyOp56
 70
     0
102
RTVSPropertyOp57
 70
     0
102
RTVSPost2010Prop28
280
     0
102
RTVSPost2010PropOp28
 70
     0
102
RTVSPost2010Prop29
280
     1
102
RTVSPost2010PropOp29
 70
     0
102
RTVSPost2010Prop30
280
     1
102
RTVSPost2010PropOp30
 70
     0
102
RTVSPost2010Prop31
280
     0
102
RTVSPost2010PropOp31
 70
     0
102
RTVSPost2010Prop32
280
     0
102
RTVSPost2010PropOp32
 70
     0
102
RTVSPost2010Prop33
280
     0
102
RTVSPost2010PropOp33
 70
     0
102
RTVSPost2010Prop34
280
     0
102
RTVSPost2010PropOp34
 70
     0
102
RTVSPost2010Prop35
280
     0
102
RTVSPost2010PropOp35
 70
     0
102
RTVSPost2010Prop36
280
     0
102
RTVSPost2010PropOp36
 70
     0
102
RTVSPost2010Prop37
 90
       50
102
RTVSPost2010PropOp37
 70
     0
102
RTVSPost2010Prop38
140
0.0
102
RTVSPost2010PropOp38
 70
     0
102
RTVSPost2010Prop39
140
1.0
102
RTVSPost2010PropOp39
 70
     0
102
RTVSPost2010Prop40
 90
        0
102
RTVSPost2010PropOp40
 70
     0
102
RTVSPost2010Prop41ColorIndex
 90
       18
102
RTVSPost2010Prop41ColorRGB
 90
        0
102
RTVSPost2010PropOp41
 70
     0
102
RTVSPost2010Prop42
 90
       50
102
RTVSPost2010PropOp42
 70
     0
102
RTVSPost2010Prop43
 90
        3
102
RTVSPost2010PropOp43
 70
     0
102
RTVSPost2010Prop44ColorIndex
 90
        5
102
RTVSPost2010Prop44ColorRGB
 90
      255
102
RTVSPost2010PropOp44
 70
     0
102
RTVSPost2010Prop45
280
     0
102
RTVSPost2010PropOp45
 70
     0
102
RTVSPost2010Prop46
 90
       50
102
RTVSPost2010PropOp46
 70
     0
102
RTVSPost2010Prop47
 90
       50
102
RTVSPost2010PropOp47
 70
     0
102
RTVSPost2010Prop48
 90
       50
102
RTVSPost2010PropOp48
 70
     0
102
RTVSPost2010Prop49
280
     0
102
RTVSPost2010PropOp49
 70
     0
102
RTVSPost2010Prop50
 90
       50
102
RTVSPost2010PropOp50
 70
     0
102
RTVSPost2010Prop51ColorIndex
 90
      256
102
RTVSPost2010Prop51ColorRGB
 90
-16777216
102
RTVSPost2010PropOp51
 70
     0
102
RTVSPost2010Prop52
140
1.0
102
RTVSPost2010PropOp52
 70
     0
102
RTVSPost2010Prop53
 90
        2
102
RTVSPost2010PropOp53
 70
     0
102
RTVSPost2010Prop54
  1
strokes_ogs.tif
102
RTVSPost2010PropOp54
 70
     0
102
RTVSPost2010Prop55
280
     0
102
RTVSPost2010PropOp55
 70
     0
102
RTVSPost2010Prop56
140
1.0
102
RTVSPost2010PropOp56
 70
     0
102
RTVSPost2010Prop57
140
1.0
102
RTVSPost2010PropOp57
 70
     0
  0
XRECORD
  5
E7
102
{ACAD_REACTORS
330
E6
102
}
330
E6
100
AcDbXrecord
280
     1
102
RTVSPropertyOp0
 70
     1
102
RTVSPropertyOp1
 70
     1
102
RTVSPropertyOp2
 70
     1
102
RTVSPropertyOp3
 70
     1
102
RTVSPropertyOp4
 70
     1
102
RTVSPropertyOp5
 70
     1
102
RTVSPropertyOp6
 70
     1
102
RTVSPropertyOp7
 70
     1
102
RTVSPropertyOp8
 70
     1
102
RTVSPropertyOp9
 70
     1
102
RTVSPropertyOp10
 70
     1
102
RTVSPropertyOp11
 70
     1
102
RTVSPropertyOp12
 70
     1
102
RTVSPropertyOp13
 70
     1
102
RTVSPropertyOp14
 70
     1
102
RTVSPropertyOp15
 70
     1
102
RTVSPropertyOp16
 70
     1
102
RTVSPropertyOp17
 70
     1
102
RTVSPropertyOp18
 70
     1
102
RTVSPropertyOp19
 70
     1
102
RTVSPropertyOp20
 70
     1
102
RTVSPropertyOp21
 70
     1
102
RTVSPropertyOp22
 70
     1
102
RTVSPropertyOp23
 70
     1
102
RTVSPropertyOp24
 70
     1
102
RTVSPropertyOp25
 70
     1
102
RTVSPropertyOp26
 70
     1
102
RTVSPropertyOp27
 70
     1
102
RTVSPropertyOp28
 70
     1
102
RTVSPropertyOp29
 70
     1
102
RTVSPropertyOp30
 70
     1
102
RTVSPropertyOp31
 70
     1
102
RTVSPropertyOp32
 70
     1
102
RTVSPropertyOp33
 70
     1
102
RTVSPropertyOp34
 70
     1
102
RTVSPropertyOp35
 70
     1
102
RTVSPropertyOp36
 70
     1
102
RTVSPropertyOp37
 70
     1
102
RTVSPropertyOp38
 70
     1
102
RTVSPropertyOp39
 70
     1
102
RTVSPropertyOp40
 70
     1
102
RTVSPropertyOp41
 70
     1
102
RTVSPropertyOp42
 70
     1
102
RTVSPropertyOp43
 70
     1
102
RTVSPropertyOp44
 70
     1
102
RTVSPropertyOp45
 70
     1
102
RTVSPropertyOp46
 70
     1
102
RTVSPropertyOp47
 70
     1
102
RTVSPropertyOp48
 70
     1
102
RTVSPropertyOp49
 70
     1
102
RTVSPropertyOp50
 70
     1
102
RTVSPropertyOp51
 70
     0
102
RTVSPropertyOp52
 70
     0
102
RTVSPropertyOp53
 70
     1
102
RTVSPropertyOp54
 70
     1
102
RTVSPropertyOp55
 70
     1
102
RTVSPropertyOp56
 70
     1
102
RTVSPropertyOp57
 70
     1
102
RTVSPost2010Prop28
280
     0
102
RTVSPost2010PropOp28
 70
     1
102
RTVSPost2010Prop29
280
     1
102
RTVSPost2010PropOp29
 70
     1
102
RTVSPost2010Prop30
280
     1
102
RTVSPost2010PropOp30
 70
     1
102
RTVSPost2010Prop31
280
     0
102
RTVSPost2010PropOp31
 70
     1
102
RTVSPost2010Prop32
280
     0
102
RTVSPost2010PropOp32
 70
     1
102
RTVSPost2010Prop33
280
     0
102
RTVSPost2010PropOp33
 70
     1
102
RTVSPost2010Prop34
280
     0
102
RTVSPost2010PropOp34
 70
     1
102
RTVSPost2010Prop35
280
     0
102
RTVSPost2010PropOp35
 70
     1
102
RTVSPost2010Prop36
280
     0
102
RTVSPost2010PropOp36
 70
     1
102
RTVSPost2010Prop37
 90
       50
102
RTVSPost2010PropOp37
 70
     1
102
RTVSPost2010Prop38
140
0.0
102
RTVSPost2010PropOp38
 70
     1
102
RTVSPost2010Prop39
140
1.0
102
RTVSPost2010PropOp39
 70
     1
102
RTVSPost2010Prop40
 90
        0
102
RTVSPost2010PropOp40
 70
     1
102
RTVSPost2010Prop41ColorIndex
 90
       18
102
RTVSPost2010Prop41ColorRGB
 90
        0
102
RTVSPost2010PropOp41
 70
     1
102
RTVSPost2010Prop42
 90
       50
102
RTVSPost2010PropOp42
 70
     1
102
RTVSPost2010Prop43
 90
        3
102
RTVSPost2010PropOp43
 70
     1
102
RTVSPost2010Prop44ColorIndex
 90
        5
102
RTVSPost2010Prop44ColorRGB
 90
      255
102
RTVSPost2010PropOp44
 70
     1
102
RTVSPost2010Prop45
280
     0
102
RTVSPost2010PropOp45
 70
     1
102
RTVSPost2010Prop46
 90
       50
102
RTVSPost2010PropOp46
 70
     1
102
RTVSPost2010Prop47
 90
       50
102
RTVSPost2010PropOp47
 70
     1
102
RTVSPost2010Prop48
 90
       50
102
RTVSPost2010PropOp48
 70
     1
102
RTVSPost2010Prop49
280
     0
102
RTVSPost2010PropOp49
 70
     1
102
RTVSPost2010Prop50
 90
       50
102
RTVSPost2010PropOp50
 70
     1
102
RTVSPost2010Prop51ColorIndex
 90
      256
102
RTVSPost2010Prop51ColorRGB
 90
-16777216
102
RTVSPost2010PropOp51
 70
     0
102
RTVSPost2010Prop52
140
1.0
102
RTVSPost2010PropOp52
 70
     0
102
RTVSPost2010Prop53
 90
        2
102
RTVSPost2010PropOp53
 70
     1
102
RTVSPost2010Prop54
  1
strokes_ogs.tif
102
RTVSPost2010PropOp54
 70
     1
102
RTVSPost2010Prop55
280
     0
102
RTVSPost2010PropOp55
 70
     1
102
RTVSPost2010Prop56
140
1.0
102
RTVSPost2010PropOp56
 70
     1
102
RTVSPost2010Prop57
140
1.0
102
RTVSPost2010PropOp57
 70
     1
  0
XRECORD
  5
105
102
{ACAD_REACTORS
330
104
102
}
330
104
100
AcDbXrecord
280
     1
102
RTVSPropertyOp0
 70
     1
102
RTVSPropertyOp1
 70
     1
102
RTVSPropertyOp2
 70
     1
102
RTVSPropertyOp3
 70
     1
102
RTVSPropertyOp4
 70
     1
102
RTVSPropertyOp5
 70
     1
102
RTVSPropertyOp6
 70
     1
102
RTVSPropertyOp7
 70
     1
102
RTVSPropertyOp8
 70
     1
102
RTVSPropertyOp9
 70
     1
102
RTVSPropertyOp10
 70
     1
102
RTVSPropertyOp11
 70
     1
102
RTVSPropertyOp12
 70
     1
102
RTVSPropertyOp13
 70
     1
102
RTVSPropertyOp14
 70
     1
102
RTVSPropertyOp15
 70
     1
102
RTVSPropertyOp16
 70
     1
102
RTVSPropertyOp17
 70
     1
102
RTVSPropertyOp18
 70
     1
102
RTVSPropertyOp19
 70
     1
102
RTVSPropertyOp20
 70
     1
102
RTVSPropertyOp21
 70
     1
102
RTVSPropertyOp22
 70
     1
102
RTVSPropertyOp23
 70
     1
102
RTVSPropertyOp24
 70
     1
102
RTVSPropertyOp25
 70
     1
102
RTVSPropertyOp26
 70
     1
102
RTVSPropertyOp27
 70
     1
102
RTVSPropertyOp28
 70
     1
102
RTVSPropertyOp29
 70
     1
102
RTVSPropertyOp30
 70
     1
102
RTVSPropertyOp31
 70
     1
102
RTVSPropertyOp32
 70
     1
102
RTVSPropertyOp33
 70
     1
102
RTVSPropertyOp34
 70
     1
102
RTVSPropertyOp35
 70
     1
102
RTVSPropertyOp36
 70
     1
102
RTVSPropertyOp37
 70
     1
102
RTVSPropertyOp38
 70
     1
102
RTVSPropertyOp39
 70
     1
102
RTVSPropertyOp40
 70
     1
102
RTVSPropertyOp41
 70
     1
102
RTVSPropertyOp42
 70
     1
102
RTVSPropertyOp43
 70
     1
102
RTVSPropertyOp44
 70
     1
102
RTVSPropertyOp45
 70
     1
102
RTVSPropertyOp46
 70
     1
102
RTVSPropertyOp47
 70
     1
102
RTVSPropertyOp48
 70
     1
102
RTVSPropertyOp49
 70
     1
102
RTVSPropertyOp50
 70
     1
102
RTVSPropertyOp51
 70
     0
102
RTVSPropertyOp52
 70
     0
102
RTVSPropertyOp53
 70
     1
102
RTVSPropertyOp54
 70
     1
102
RTVSPropertyOp55
 70
     1
102
RTVSPropertyOp56
 70
     1
102
RTVSPropertyOp57
 70
     1
102
RTVSPost2010Prop28
280
     0
102
RTVSPost2010PropOp28
 70
     1
102
RTVSPost2010Prop29
280
     1
102
RTVSPost2010PropOp29
 70
     1
102
RTVSPost2010Prop30
280
     1
102
RTVSPost2010PropOp30
 70
     1
102
RTVSPost2010Prop31
280
     0
102
RTVSPost2010PropOp31
 70
     1
102
RTVSPost2010Prop32
280
     0
102
RTVSPost2010PropOp32
 70
     1
102
RTVSPost2010Prop33
280
     0
102
RTVSPost2010PropOp33
 70
     1
102
RTVSPost2010Prop34
280
     0
102
RTVSPost2010PropOp34
 70
     1
102
RTVSPost2010Prop35
280
     0
102
RTVSPost2010PropOp35
 70
     1
102
RTVSPost2010Prop36
280
     0
102
RTVSPost2010PropOp36
 70
     1
102
RTVSPost2010Prop37
 90
       50
102
RTVSPost2010PropOp37
 70
     1
102
RTVSPost2010Prop38
140
0.0
102
RTVSPost2010PropOp38
 70
     1
102
RTVSPost2010Prop39
140
1.0
102
RTVSPost2010PropOp39
 70
     1
102
RTVSPost2010Prop40
 90
        0
102
RTVSPost2010PropOp40
 70
     1
102
RTVSPost2010Prop41ColorIndex
 90
       18
102
RTVSPost2010Prop41ColorRGB
 90
        0
102
RTVSPost2010PropOp41
 70
     1
102
RTVSPost2010Prop42
 90
       50
102
RTVSPost2010PropOp42
 70
     1
102
RTVSPost2010Prop43
 90
        3
102
RTVSPost2010PropOp43
 70
     1
102
RTVSPost2010Prop44ColorIndex
 90
        5
102
RTVSPost2010Prop44ColorRGB
 90
      255
102
RTVSPost2010PropOp44
 70
     1
102
RTVSPost2010Prop45
280
     0
102
RTVSPost2010PropOp45
 70
     1
102
RTVSPost2010Prop46
 90
       50
102
RTVSPost2010PropOp46
 70
     1
102
RTVSPost2010Prop47
 90
       50
102
RTVSPost2010PropOp47
 70
     1
102
RTVSPost2010Prop48
 90
       50
102
RTVSPost2010PropOp48
 70
     1
102
RTVSPost2010Prop49
280
     0
102
RTVSPost2010PropOp49
 70
     1
102
RTVSPost2010Prop50
 90
       50
102
RTVSPost2010PropOp50
 70
     1
102
RTVSPost2010Prop51ColorIndex
 90
      256
102
RTVSPost2010Prop51ColorRGB
 90
-16777216
102
RTVSPost2010PropOp51
 70
     0
102
RTVSPost2010Prop52
140
1.0
102
RTVSPost2010PropOp52
 70
     0
102
RTVSPost2010Prop53
 90
        2
102
RTVSPost2010PropOp53
 70
     1
102
RTVSPost2010Prop54
  1
strokes_ogs.tif
102
RTVSPost2010PropOp54
 70
     1
102
RTVSPost2010Prop55
280
     0
102
RTVSPost2010PropOp55
 70
     1
102
RTVSPost2010Prop56
140
1.0
102
RTVSPost2010PropOp56
 70
     1
102
RTVSPost2010Prop57
140
1.0
102
RTVSPost2010PropOp57
 70
     1
  0
XRECORD
  5
103
102
{ACAD_REACTORS
330
102
102
}
330
102
100
AcDbXrecord
280
     1
102
RTVSPropertyOp0
 70
     1
102
RTVSPropertyOp1
 70
     1
102
RTVSPropertyOp2
 70
     1
102
RTVSPropertyOp3
 70
     1
102
RTVSPropertyOp4
 70
     1
102
RTVSPropertyOp5
 70
     1
102
RTVSPropertyOp6
 70
     1
102
RTVSPropertyOp7
 70
     1
102
RTVSPropertyOp8
 70
     1
102
RTVSPropertyOp9
 70
     1
102
RTVSPropertyOp10
 70
     1
102
RTVSPropertyOp11
 70
     1
102
RTVSPropertyOp12
 70
     1
102
RTVSPropertyOp13
 70
     1
102
RTVSPropertyOp14
 70
     1
102
RTVSPropertyOp15
 70
     1
102
RTVSPropertyOp16
 70
     1
102
RTVSPropertyOp17
 70
     1
102
RTVSPropertyOp18
 70
     1
102
RTVSPropertyOp19
 70
     1
102
RTVSPropertyOp20
 70
     1
102
RTVSPropertyOp21
 70
     1
102
RTVSPropertyOp22
 70
     1
102
RTVSPropertyOp23
 70
     1
102
RTVSPropertyOp24
 70
     1
102
RTVSPropertyOp25
 70
     1
102
RTVSPropertyOp26
 70
     1
102
RTVSPropertyOp27
 70
     1
102
RTVSPropertyOp28
 70
     1
102
RTVSPropertyOp29
 70
     1
102
RTVSPropertyOp30
 70
     1
102
RTVSPropertyOp31
 70
     1
102
RTVSPropertyOp32
 70
     1
102
RTVSPropertyOp33
 70
     1
102
RTVSPropertyOp34
 70
     1
102
RTVSPropertyOp35
 70
     1
102
RTVSPropertyOp36
 70
     1
102
RTVSPropertyOp37
 70
     1
102
RTVSPropertyOp38
 70
     1
102
RTVSPropertyOp39
 70
     1
102
RTVSPropertyOp40
 70
     1
102
RTVSPropertyOp41
 70
     1
102
RTVSPropertyOp42
 70
     1
102
RTVSPropertyOp43
 70
     1
102
RTVSPropertyOp44
 70
     1
102
RTVSPropertyOp45
 70
     1
102
RTVSPropertyOp46
 70
     1
102
RTVSPropertyOp47
 70
     1
102
RTVSPropertyOp48
 70
     1
102
RTVSPropertyOp49
 70
     1
102
RTVSPropertyOp50
 70
     1
102
RTVSPropertyOp51
 70
     0
102
RTVSPropertyOp52
 70
     0
102
RTVSPropertyOp53
 70
     1
102
RTVSPropertyOp54
 70
     1
102
RTVSPropertyOp55
 70
     1
102
RTVSPropertyOp56
 70
     1
102
RTVSPropertyOp57
 70
     1
102
RTVSPost2010Prop28
280
     0
102
RTVSPost2010PropOp28
 70
     1
102
RTVSPost2010Prop29
280
     1
102
RTVSPost2010PropOp29
 70
     1
102
RTVSPost2010Prop30
280
     1
102
RTVSPost2010PropOp30
 70
     1
102
RTVSPost2010Prop31
280
     0
102
RTVSPost2010PropOp31
 70
     1
102
RTVSPost2010Prop32
280
     0
102
RTVSPost2010PropOp32
 70
     1
102
RTVSPost2010Prop33
280
     0
102
RTVSPost2010PropOp33
 70
     1
102
RTVSPost2010Prop34
280
     0
102
RTVSPost2010PropOp34
 70
     1
102
RTVSPost2010Prop35
280
     0
102
RTVSPost2010PropOp35
 70
     1
102
RTVSPost2010Prop36
280
     0
102
RTVSPost2010PropOp36
 70
     1
102
RTVSPost2010Prop37
 90
       50
102
RTVSPost2010PropOp37
 70
     1
102
RTVSPost2010Prop38
140
0.0
102
RTVSPost2010PropOp38
 70
     1
102
RTVSPost2010Prop39
140
1.0
102
RTVSPost2010PropOp39
 70
     1
102
RTVSPost2010Prop40
 90
        0
102
RTVSPost2010PropOp40
 70
     1
102
RTVSPost2010Prop41ColorIndex
 90
       18
102
RTVSPost2010Prop41ColorRGB
 90
        0
102
RTVSPost2010PropOp41
 70
     1
102
RTVSPost2010Prop42
 90
       50
102
RTVSPost2010PropOp42
 70
     1
102
RTVSPost2010Prop43
 90
        3
102
RTVSPost2010PropOp43
 70
     1
102
RTVSPost2010Prop44ColorIndex
 90
        5
102
RTVSPost2010Prop44ColorRGB
 90
      255
102
RTVSPost2010PropOp44
 70
     1
102
RTVSPost2010Prop45
280
     0
102
RTVSPost2010PropOp45
 70
     1
102
RTVSPost2010Prop46
 90
       50
102
RTVSPost2010PropOp46
 70
     1
102
RTVSPost2010Prop47
 90
       50
102
RTVSPost2010PropOp47
 70
     1
102
RTVSPost2010Prop48
 90
       50
102
RTVSPost2010PropOp48
 70
     1
102
RTVSPost2010Prop49
280
     0
102
RTVSPost2010PropOp49
 70
     1
102
RTVSPost2010Prop50
 90
       50
102
RTVSPost2010PropOp50
 70
     1
102
RTVSPost2010Prop51ColorIndex
 90
      256
102
RTVSPost2010Prop51ColorRGB
 90
-16777216
102
RTVSPost2010PropOp51
 70
     0
102
RTVSPost2010Prop52
140
1.0
102
RTVSPost2010PropOp52
 70
     0
102
RTVSPost2010Prop53
 90
        2
102
RTVSPost2010PropOp53
 70
     1
102
RTVSPost2010Prop54
  1
strokes_ogs.tif
102
RTVSPost2010PropOp54
 70
     1
102
RTVSPost2010Prop55
280
     0
102
RTVSPost2010PropOp55
 70
     1
102
RTVSPost2010Prop56
140
1.0
102
RTVSPost2010PropOp56
 70
     1
102
RTVSPost2010Prop57
140
1.0
102
RTVSPost2010PropOp57
 70
     1
  0
XRECORD
  5
FD
102
{ACAD_REACTORS
330
FC
102
}
330
FC
100
AcDbXrecord
280
     1
102
RTVSPropertyOp0
 70
     1
102
RTVSPropertyOp1
 70
     1
102
RTVSPropertyOp2
 70
     1
102
RTVSPropertyOp3
 70
     1
102
RTVSPropertyOp4
 70
     1
102
RTVSPropertyOp5
 70
     1
102
RTVSPropertyOp6
 70
     1
102
RTVSPropertyOp7
 70
     1
102
RTVSPropertyOp8
 70
     1
102
RTVSPropertyOp9
 70
     1
102
RTVSPropertyOp10
 70
     1
102
RTVSPropertyOp11
 70
     1
102
RTVSPropertyOp12
 70
     1
102
RTVSPropertyOp13
 70
     1
102
RTVSPropertyOp14
 70
     1
102
RTVSPropertyOp15
 70
     1
102
RTVSPropertyOp16
 70
     1
102
RTVSPropertyOp17
 70
     1
102
RTVSPropertyOp18
 70
     1
102
RTVSPropertyOp19
 70
     1
102
RTVSPropertyOp20
 70
     1
102
RTVSPropertyOp21
 70
     1
102
RTVSPropertyOp22
 70
     1
102
RTVSPropertyOp23
 70
     1
102
RTVSPropertyOp24
 70
     1
102
RTVSPropertyOp25
 70
     1
102
RTVSPropertyOp26
 70
     1
102
RTVSPropertyOp27
 70
     1
102
RTVSPropertyOp28
 70
     1
102
RTVSPropertyOp29
 70
     1
102
RTVSPropertyOp30
 70
     1
102
RTVSPropertyOp31
 70
     1
102
RTVSPropertyOp32
 70
     1
102
RTVSPropertyOp33
 70
     1
102
RTVSPropertyOp34
 70
     1
102
RTVSPropertyOp35
 70
     1
102
RTVSPropertyOp36
 70
     1
102
RTVSPropertyOp37
 70
     1
102
RTVSPropertyOp38
 70
     1
102
RTVSPropertyOp39
 70
     1
102
RTVSPropertyOp40
 70
     1
102
RTVSPropertyOp41
 70
     1
102
RTVSPropertyOp42
 70
     1
102
RTVSPropertyOp43
 70
     1
102
RTVSPropertyOp44
 70
     1
102
RTVSPropertyOp45
 70
     1
102
RTVSPropertyOp46
 70
     1
102
RTVSPropertyOp47
 70
     1
102
RTVSPropertyOp48
 70
     1
102
RTVSPropertyOp49
 70
     1
102
RTVSPropertyOp50
 70
     1
102
RTVSPropertyOp51
 70
     0
102
RTVSPropertyOp52
 70
     0
102
RTVSPropertyOp53
 70
     1
102
RTVSPropertyOp54
 70
     1
102
RTVSPropertyOp55
 70
     1
102
RTVSPropertyOp56
 70
     1
102
RTVSPropertyOp57
 70
     1
102
RTVSPost2010Prop28
280
     0
102
RTVSPost2010PropOp28
 70
     1
102
RTVSPost2010Prop29
280
     1
102
RTVSPost2010PropOp29
 70
     1
102
RTVSPost2010Prop30
280
     1
102
RTVSPost2010PropOp30
 70
     1
102
RTVSPost2010Prop31
280
     0
102
RTVSPost2010PropOp31
 70
     1
102
RTVSPost2010Prop32
280
     0
102
RTVSPost2010PropOp32
 70
     1
102
RTVSPost2010Prop33
280
     0
102
RTVSPost2010PropOp33
 70
     1
102
RTVSPost2010Prop34
280
     0
102
RTVSPost2010PropOp34
 70
     1
102
RTVSPost2010Prop35
280
     0
102
RTVSPost2010PropOp35
 70
     1
102
RTVSPost2010Prop36
280
     0
102
RTVSPost2010PropOp36
 70
     1
102
RTVSPost2010Prop37
 90
       50
102
RTVSPost2010PropOp37
 70
     1
102
RTVSPost2010Prop38
140
0.0
102
RTVSPost2010PropOp38
 70
     1
102
RTVSPost2010Prop39
140
1.0
102
RTVSPost2010PropOp39
 70
     1
102
RTVSPost2010Prop40
 90
        0
102
RTVSPost2010PropOp40
 70
     1
102
RTVSPost2010Prop41ColorIndex
 90
       18
102
RTVSPost2010Prop41ColorRGB
 90
        0
102
RTVSPost2010PropOp41
 70
     1
102
RTVSPost2010Prop42
 90
       50
102
RTVSPost2010PropOp42
 70
     1
102
RTVSPost2010Prop43
 90
        3
102
RTVSPost2010PropOp43
 70
     1
102
RTVSPost2010Prop44ColorIndex
 90
        5
102
RTVSPost2010Prop44ColorRGB
 90
      255
102
RTVSPost2010PropOp44
 70
     1
102
RTVSPost2010Prop45
280
     0
102
RTVSPost2010PropOp45
 70
     1
102
RTVSPost2010Prop46
 90
       50
102
RTVSPost2010PropOp46
 70
     1
102
RTVSPost2010Prop47
 90
       50
102
RTVSPost2010PropOp47
 70
     1
102
RTVSPost2010Prop48
 90
       50
102
RTVSPost2010PropOp48
 70
     1
102
RTVSPost2010Prop49
280
     0
102
RTVSPost2010PropOp49
 70
     1
102
RTVSPost2010Prop50
 90
       50
102
RTVSPost2010PropOp50
 70
     1
102
RTVSPost2010Prop51ColorIndex
 90
      256
102
RTVSPost2010Prop51ColorRGB
 90
-16777216
102
RTVSPost2010PropOp51
 70
     0
102
RTVSPost2010Prop52
140
1.0
102
RTVSPost2010PropOp52
 70
     0
102
RTVSPost2010Prop53
 90
        2
102
RTVSPost2010PropOp53
 70
     1
102
RTVSPost2010Prop54
  1
strokes_ogs.tif
102
RTVSPost2010PropOp54
 70
     1
102
RTVSPost2010Prop55
280
     0
102
RTVSPost2010PropOp55
 70
     1
102
RTVSPost2010Prop56
140
1.0
102
RTVSPost2010PropOp56
 70
     1
102
RTVSPost2010Prop57
140
1.0
102
RTVSPost2010PropOp57
 70
     1
  0
XRECORD
  5
FF
102
{ACAD_REACTORS
330
FE
102
}
330
FE
100
AcDbXrecord
280
     1
102
RTVSPropertyOp0
 70
     1
102
RTVSPropertyOp1
 70
     1
102
RTVSPropertyOp2
 70
     1
102
RTVSPropertyOp3
 70
     1
102
RTVSPropertyOp4
 70
     1
102
RTVSPropertyOp5
 70
     1
102
RTVSPropertyOp6
 70
     1
102
RTVSPropertyOp7
 70
     1
102
RTVSPropertyOp8
 70
     1
102
RTVSPropertyOp9
 70
     1
102
RTVSPropertyOp10
 70
     1
102
RTVSPropertyOp11
 70
     1
102
RTVSPropertyOp12
 70
     1
102
RTVSPropertyOp13
 70
     1
102
RTVSPropertyOp14
 70
     1
102
RTVSPropertyOp15
 70
     1
102
RTVSPropertyOp16
 70
     1
102
RTVSPropertyOp17
 70
     1
102
RTVSPropertyOp18
 70
     1
102
RTVSPropertyOp19
 70
     1
102
RTVSPropertyOp20
 70
     1
102
RTVSPropertyOp21
 70
     1
102
RTVSPropertyOp22
 70
     1
102
RTVSPropertyOp23
 70
     1
102
RTVSPropertyOp24
 70
     1
102
RTVSPropertyOp25
 70
     1
102
RTVSPropertyOp26
 70
     1
102
RTVSPropertyOp27
 70
     1
102
RTVSPropertyOp28
 70
     1
102
RTVSPropertyOp29
 70
     1
102
RTVSPropertyOp30
 70
     1
102
RTVSPropertyOp31
 70
     1
102
RTVSPropertyOp32
 70
     1
102
RTVSPropertyOp33
 70
     1
102
RTVSPropertyOp34
 70
     1
102
RTVSPropertyOp35
 70
     1
102
RTVSPropertyOp36
 70
     1
102
RTVSPropertyOp37
 70
     1
102
RTVSPropertyOp38
 70
     1
102
RTVSPropertyOp39
 70
     1
102
RTVSPropertyOp40
 70
     1
102
RTVSPropertyOp41
 70
     1
102
RTVSPropertyOp42
 70
     1
102
RTVSPropertyOp43
 70
     1
102
RTVSPropertyOp44
 70
     1
102
RTVSPropertyOp45
 70
     1
102
RTVSPropertyOp46
 70
     1
102
RTVSPropertyOp47
 70
     1
102
RTVSPropertyOp48
 70
     1
102
RTVSPropertyOp49
 70
     1
102
RTVSPropertyOp50
 70
     1
102
RTVSPropertyOp51
 70
     0
102
RTVSPropertyOp52
 70
     0
102
RTVSPropertyOp53
 70
     1
102
RTVSPropertyOp54
 70
     1
102
RTVSPropertyOp55
 70
     1
102
RTVSPropertyOp56
 70
     1
102
RTVSPropertyOp57
 70
     1
102
RTVSPost2010Prop28
280
     0
102
RTVSPost2010PropOp28
 70
     1
102
RTVSPost2010Prop29
280
     1
102
RTVSPost2010PropOp29
 70
     1
102
RTVSPost2010Prop30
280
     1
102
RTVSPost2010PropOp30
 70
     1
102
RTVSPost2010Prop31
280
     0
102
RTVSPost2010PropOp31
 70
     1
102
RTVSPost2010Prop32
280
     0
102
RTVSPost2010PropOp32
 70
     1
102
RTVSPost2010Prop33
280
     0
102
RTVSPost2010PropOp33
 70
     1
102
RTVSPost2010Prop34
280
     0
102
RTVSPost2010PropOp34
 70
     1
102
RTVSPost2010Prop35
280
     0
102
RTVSPost2010PropOp35
 70
     1
102
RTVSPost2010Prop36
280
     0
102
RTVSPost2010PropOp36
 70
     1
102
RTVSPost2010Prop37
 90
       50
102
RTVSPost2010PropOp37
 70
     1
102
RTVSPost2010Prop38
140
0.0
102
RTVSPost2010PropOp38
 70
     1
102
RTVSPost2010Prop39
140
1.0
102
RTVSPost2010PropOp39
 70
     1
102
RTVSPost2010Prop40
 90
        0
102
RTVSPost2010PropOp40
 70
     1
102
RTVSPost2010Prop41ColorIndex
 90
       18
102
RTVSPost2010Prop41ColorRGB
 90
        0
102
RTVSPost2010PropOp41
 70
     1
102
RTVSPost2010Prop42
 90
       50
102
RTVSPost2010PropOp42
 70
     1
102
RTVSPost2010Prop43
 90
        3
102
RTVSPost2010PropOp43
 70
     1
102
RTVSPost2010Prop44ColorIndex
 90
        5
102
RTVSPost2010Prop44ColorRGB
 90
      255
102
RTVSPost2010PropOp44
 70
     1
102
RTVSPost2010Prop45
280
     0
102
RTVSPost2010PropOp45
 70
     1
102
RTVSPost2010Prop46
 90
       50
102
RTVSPost2010PropOp46
 70
     1
102
RTVSPost2010Prop47
 90
       50
102
RTVSPost2010PropOp47
 70
     1
102
RTVSPost2010Prop48
 90
       50
102
RTVSPost2010PropOp48
 70
     1
102
RTVSPost2010Prop49
280
     0
102
RTVSPost2010PropOp49
 70
     1
102
RTVSPost2010Prop50
 90
       50
102
RTVSPost2010PropOp50
 70
     1
102
RTVSPost2010Prop51ColorIndex
 90
      256
102
RTVSPost2010Prop51ColorRGB
 90
-16777216
102
RTVSPost2010PropOp51
 70
     0
102
RTVSPost2010Prop52
140
1.0
102
RTVSPost2010PropOp52
 70
     0
102
RTVSPost2010Prop53
 90
        2
102
RTVSPost2010PropOp53
 70
     1
102
RTVSPost2010Prop54
  1
strokes_ogs.tif
102
RTVSPost2010PropOp54
 70
     1
102
RTVSPost2010Prop55
280
     0
102
RTVSPost2010PropOp55
 70
     1
102
RTVSPost2010Prop56
140
1.0
102
RTVSPost2010PropOp56
 70
     1
102
RTVSPost2010Prop57
140
1.0
102
RTVSPost2010PropOp57
 70
     1
  0
XRECORD
  5
EF
102
{ACAD_REACTORS
330
EE
102
}
330
EE
100
AcDbXrecord
280
     1
102
RTVSPropertyOp0
 70
     1
102
RTVSPropertyOp1
 70
     1
102
RTVSPropertyOp2
 70
     1
102
RTVSPropertyOp3
 70
     1
102
RTVSPropertyOp4
 70
     1
102
RTVSPropertyOp5
 70
     1
102
RTVSPropertyOp6
 70
     1
102
RTVSPropertyOp7
 70
     1
102
RTVSPropertyOp8
 70
     1
102
RTVSPropertyOp9
 70
     1
102
RTVSPropertyOp10
 70
     1
102
RTVSPropertyOp11
 70
     1
102
RTVSPropertyOp12
 70
     1
102
RTVSPropertyOp13
 70
     1
102
RTVSPropertyOp14
 70
     1
102
RTVSPropertyOp15
 70
     1
102
RTVSPropertyOp16
 70
     1
102
RTVSPropertyOp17
 70
     1
102
RTVSPropertyOp18
 70
     1
102
RTVSPropertyOp19
 70
     1
102
RTVSPropertyOp20
 70
     1
102
RTVSPropertyOp21
 70
     1
102
RTVSPropertyOp22
 70
     1
102
RTVSPropertyOp23
 70
     1
102
RTVSPropertyOp24
 70
     1
102
RTVSPropertyOp25
 70
     1
102
RTVSPropertyOp26
 70
     1
102
RTVSPropertyOp27
 70
     1
102
RTVSPropertyOp28
 70
     1
102
RTVSPropertyOp29
 70
     1
102
RTVSPropertyOp30
 70
     1
102
RTVSPropertyOp31
 70
     1
102
RTVSPropertyOp32
 70
     1
102
RTVSPropertyOp33
 70
     1
102
RTVSPropertyOp34
 70
     1
102
RTVSPropertyOp35
 70
     1
102
RTVSPropertyOp36
 70
     1
102
RTVSPropertyOp37
 70
     1
102
RTVSPropertyOp38
 70
     1
102
RTVSPropertyOp39
 70
     1
102
RTVSPropertyOp40
 70
     1
102
RTVSPropertyOp41
 70
     1
102
RTVSPropertyOp42
 70
     1
102
RTVSPropertyOp43
 70
     1
102
RTVSPropertyOp44
 70
     1
102
RTVSPropertyOp45
 70
     1
102
RTVSPropertyOp46
 70
     1
102
RTVSPropertyOp47
 70
     1
102
RTVSPropertyOp48
 70
     1
102
RTVSPropertyOp49
 70
     1
102
RTVSPropertyOp50
 70
     1
102
RTVSPropertyOp51
 70
     0
102
RTVSPropertyOp52
 70
     0
102
RTVSPropertyOp53
 70
     1
102
RTVSPropertyOp54
 70
     1
102
RTVSPropertyOp55
 70
     1
102
RTVSPropertyOp56
 70
     1
102
RTVSPropertyOp57
 70
     1
102
RTVSPost2010Prop28
280
     0
102
RTVSPost2010PropOp28
 70
     1
102
RTVSPost2010Prop29
280
     1
102
RTVSPost2010PropOp29
 70
     1
102
RTVSPost2010Prop30
280
     1
102
RTVSPost2010PropOp30
 70
     1
102
RTVSPost2010Prop31
280
     0
102
RTVSPost2010PropOp31
 70
     1
102
RTVSPost2010Prop32
280
     0
102
RTVSPost2010PropOp32
 70
     1
102
RTVSPost2010Prop33
280
     0
102
RTVSPost2010PropOp33
 70
     1
102
RTVSPost2010Prop34
280
     0
102
RTVSPost2010PropOp34
 70
     1
102
RTVSPost2010Prop35
280
     0
102
RTVSPost2010PropOp35
 70
     1
102
RTVSPost2010Prop36
280
     0
102
RTVSPost2010PropOp36
 70
     1
102
RTVSPost2010Prop37
 90
       50
102
RTVSPost2010PropOp37
 70
     1
102
RTVSPost2010Prop38
140
0.0
102
RTVSPost2010PropOp38
 70
     1
102
RTVSPost2010Prop39
140
1.0
102
RTVSPost2010PropOp39
 70
     1
102
RTVSPost2010Prop40
 90
        0
102
RTVSPost2010PropOp40
 70
     1
102
RTVSPost2010Prop41ColorIndex
 90
       18
102
RTVSPost2010Prop41ColorRGB
 90
        0
102
RTVSPost2010PropOp41
 70
     1
102
RTVSPost2010Prop42
 90
       50
102
RTVSPost2010PropOp42
 70
     1
102
RTVSPost2010Prop43
 90
        3
102
RTVSPost2010PropOp43
 70
     1
102
RTVSPost2010Prop44ColorIndex
 90
        5
102
RTVSPost2010Prop44ColorRGB
 90
      255
102
RTVSPost2010PropOp44
 70
     1
102
RTVSPost2010Prop45
280
     0
102
RTVSPost2010PropOp45
 70
     1
102
RTVSPost2010Prop46
 90
       50
102
RTVSPost2010PropOp46
 70
     1
102
RTVSPost2010Prop47
 90
       50
102
RTVSPost2010PropOp47
 70
     1
102
RTVSPost2010Prop48
 90
       50
102
RTVSPost2010PropOp48
 70
     1
102
RTVSPost2010Prop49
280
     0
102
RTVSPost2010PropOp49
 70
     1
102
RTVSPost2010Prop50
 90
       50
102
RTVSPost2010PropOp50
 70
     1
102
RTVSPost2010Prop51ColorIndex
 90
      256
102
RTVSPost2010Prop51ColorRGB
 90
-16777216
102
RTVSPost2010PropOp51
 70
     0
102
RTVSPost2010Prop52
140
1.0
102
RTVSPost2010PropOp52
 70
     0
102
RTVSPost2010Prop53
 90
        2
102
RTVSPost2010PropOp53
 70
     1
102
RTVSPost2010Prop54
  1
strokes_ogs.tif
102
RTVSPost2010PropOp54
 70
     1
102
RTVSPost2010Prop55
280
     0
102
RTVSPost2010PropOp55
 70
     1
102
RTVSPost2010Prop56
140
1.0
102
RTVSPost2010PropOp56
 70
     1
102
RTVSPost2010Prop57
140
1.0
102
RTVSPost2010PropOp57
 70
     1
  0
XRECORD
  5
E1
102
{ACAD_REACTORS
330
E0
102
}
330
E0
100
AcDbXrecord
280
     1
102
RTVSPropertyOp0
 70
     1
102
RTVSPropertyOp1
 70
     1
102
RTVSPropertyOp2
 70
     1
102
RTVSPropertyOp3
 70
     1
102
RTVSPropertyOp4
 70
     1
102
RTVSPropertyOp5
 70
     1
102
RTVSPropertyOp6
 70
     1
102
RTVSPropertyOp7
 70
     1
102
RTVSPropertyOp8
 70
     1
102
RTVSPropertyOp9
 70
     1
102
RTVSPropertyOp10
 70
     1
102
RTVSPropertyOp11
 70
     1
102
RTVSPropertyOp12
 70
     1
102
RTVSPropertyOp13
 70
     1
102
RTVSPropertyOp14
 70
     1
102
RTVSPropertyOp15
 70
     1
102
RTVSPropertyOp16
 70
     1
102
RTVSPropertyOp17
 70
     1
102
RTVSPropertyOp18
 70
     1
102
RTVSPropertyOp19
 70
     1
102
RTVSPropertyOp20
 70
     1
102
RTVSPropertyOp21
 70
     1
102
RTVSPropertyOp22
 70
     1
102
RTVSPropertyOp23
 70
     1
102
RTVSPropertyOp24
 70
     1
102
RTVSPropertyOp25
 70
     1
102
RTVSPropertyOp26
 70
     1
102
RTVSPropertyOp27
 70
     1
102
RTVSPropertyOp28
 70
     1
102
RTVSPropertyOp29
 70
     1
102
RTVSPropertyOp30
 70
     1
102
RTVSPropertyOp31
 70
     1
102
RTVSPropertyOp32
 70
     1
102
RTVSPropertyOp33
 70
     1
102
RTVSPropertyOp34
 70
     1
102
RTVSPropertyOp35
 70
     1
102
RTVSPropertyOp36
 70
     1
102
RTVSPropertyOp37
 70
     1
102
RTVSPropertyOp38
 70
     1
102
RTVSPropertyOp39
 70
     1
102
RTVSPropertyOp40
 70
     1
102
RTVSPropertyOp41
 70
     1
102
RTVSPropertyOp42
 70
     1
102
RTVSPropertyOp43
 70
     1
102
RTVSPropertyOp44
 70
     1
102
RTVSPropertyOp45
 70
     1
102
RTVSPropertyOp46
 70
     1
102
RTVSPropertyOp47
 70
     1
102
RTVSPropertyOp48
 70
     1
102
RTVSPropertyOp49
 70
     1
102
RTVSPropertyOp50
 70
     1
102
RTVSPropertyOp51
 70
     0
102
RTVSPropertyOp52
 70
     0
102
RTVSPropertyOp53
 70
     1
102
RTVSPropertyOp54
 70
     1
102
RTVSPropertyOp55
 70
     1
102
RTVSPropertyOp56
 70
     1
102
RTVSPropertyOp57
 70
     1
102
RTVSPost2010Prop28
280
     0
102
RTVSPost2010PropOp28
 70
     1
102
RTVSPost2010Prop29
280
     1
102
RTVSPost2010PropOp29
 70
     1
102
RTVSPost2010Prop30
280
     1
102
RTVSPost2010PropOp30
 70
     1
102
RTVSPost2010Prop31
280
     0
102
RTVSPost2010PropOp31
 70
     1
102
RTVSPost2010Prop32
280
     0
102
RTVSPost2010PropOp32
 70
     1
102
RTVSPost2010Prop33
280
     0
102
RTVSPost2010PropOp33
 70
     1
102
RTVSPost2010Prop34
280
     0
102
RTVSPost2010PropOp34
 70
     1
102
RTVSPost2010Prop35
280
     0
102
RTVSPost2010PropOp35
 70
     1
102
RTVSPost2010Prop36
280
     0
102
RTVSPost2010PropOp36
 70
     1
102
RTVSPost2010Prop37
 90
       50
102
RTVSPost2010PropOp37
 70
     1
102
RTVSPost2010Prop38
140
0.0
102
RTVSPost2010PropOp38
 70
     1
102
RTVSPost2010Prop39
140
1.0
102
RTVSPost2010PropOp39
 70
     1
102
RTVSPost2010Prop40
 90
        0
102
RTVSPost2010PropOp40
 70
     1
102
RTVSPost2010Prop41ColorIndex
 90
       18
102
RTVSPost2010Prop41ColorRGB
 90
        0
102
RTVSPost2010PropOp41
 70
     1
102
RTVSPost2010Prop42
 90
       50
102
RTVSPost2010PropOp42
 70
     1
102
RTVSPost2010Prop43
 90
        3
102
RTVSPost2010PropOp43
 70
     1
102
RTVSPost2010Prop44ColorIndex
 90
        5
102
RTVSPost2010Prop44ColorRGB
 90
      255
102
RTVSPost2010PropOp44
 70
     1
102
RTVSPost2010Prop45
280
     0
102
RTVSPost2010PropOp45
 70
     1
102
RTVSPost2010Prop46
 90
       50
102
RTVSPost2010PropOp46
 70
     1
102
RTVSPost2010Prop47
 90
       50
102
RTVSPost2010PropOp47
 70
     1
102
RTVSPost2010Prop48
 90
       50
102
RTVSPost2010PropOp48
 70
     1
102
RTVSPost2010Prop49
280
     0
102
RTVSPost2010PropOp49
 70
     1
102
RTVSPost2010Prop50
 90
       50
102
RTVSPost2010PropOp50
 70
     1
102
RTVSPost2010Prop51ColorIndex
 90
      256
102
RTVSPost2010Prop51ColorRGB
 90
-16777216
102
RTVSPost2010PropOp51
 70
     0
102
RTVSPost2010Prop52
140
1.0
102
RTVSPost2010PropOp52
 70
     0
102
RTVSPost2010Prop53
 90
        2
102
RTVSPost2010PropOp53
 70
     1
102
RTVSPost2010Prop54
  1
strokes_ogs.tif
102
RTVSPost2010PropOp54
 70
     1
102
RTVSPost2010Prop55
280
     0
102
RTVSPost2010PropOp55
 70
     1
102
RTVSPost2010Prop56
140
1.0
102
RTVSPost2010PropOp56
 70
     1
102
RTVSPost2010Prop57
140
1.0
102
RTVSPost2010PropOp57
 70
     1
  0
XRECORD
  5
101
102
{ACAD_REACTORS
330
100
102
}
330
100
100
AcDbXrecord
280
     1
102
RTVSPropertyOp0
 70
     1
102
RTVSPropertyOp1
 70
     1
102
RTVSPropertyOp2
 70
     1
102
RTVSPropertyOp3
 70
     1
102
RTVSPropertyOp4
 70
     1
102
RTVSPropertyOp5
 70
     1
102
RTVSPropertyOp6
 70
     1
102
RTVSPropertyOp7
 70
     1
102
RTVSPropertyOp8
 70
     1
102
RTVSPropertyOp9
 70
     1
102
RTVSPropertyOp10
 70
     1
102
RTVSPropertyOp11
 70
     1
102
RTVSPropertyOp12
 70
     1
102
RTVSPropertyOp13
 70
     1
102
RTVSPropertyOp14
 70
     1
102
RTVSPropertyOp15
 70
     1
102
RTVSPropertyOp16
 70
     1
102
RTVSPropertyOp17
 70
     1
102
RTVSPropertyOp18
 70
     1
102
RTVSPropertyOp19
 70
     1
102
RTVSPropertyOp20
 70
     1
102
RTVSPropertyOp21
 70
     1
102
RTVSPropertyOp22
 70
     1
102
RTVSPropertyOp23
 70
     1
102
RTVSPropertyOp24
 70
     1
102
RTVSPropertyOp25
 70
     1
102
RTVSPropertyOp26
 70
     1
102
RTVSPropertyOp27
 70
     1
102
RTVSPropertyOp28
 70
     1
102
RTVSPropertyOp29
 70
     1
102
RTVSPropertyOp30
 70
     1
102
RTVSPropertyOp31
 70
     1
102
RTVSPropertyOp32
 70
     1
102
RTVSPropertyOp33
 70
     1
102
RTVSPropertyOp34
 70
     1
102
RTVSPropertyOp35
 70
     1
102
RTVSPropertyOp36
 70
     1
102
RTVSPropertyOp37
 70
     1
102
RTVSPropertyOp38
 70
     1
102
RTVSPropertyOp39
 70
     1
102
RTVSPropertyOp40
 70
     1
102
RTVSPropertyOp41
 70
     1
102
RTVSPropertyOp42
 70
     1
102
RTVSPropertyOp43
 70
     1
102
RTVSPropertyOp44
 70
     1
102
RTVSPropertyOp45
 70
     1
102
RTVSPropertyOp46
 70
     1
102
RTVSPropertyOp47
 70
     1
102
RTVSPropertyOp48
 70
     1
102
RTVSPropertyOp49
 70
     1
102
RTVSPropertyOp50
 70
     1
102
RTVSPropertyOp51
 70
     0
102
RTVSPropertyOp52
 70
     0
102
RTVSPropertyOp53
 70
     1
102
RTVSPropertyOp54
 70
     1
102
RTVSPropertyOp55
 70
     1
102
RTVSPropertyOp56
 70
     1
102
RTVSPropertyOp57
 70
     1
102
RTVSPost2010Prop28
280
     0
102
RTVSPost2010PropOp28
 70
     1
102
RTVSPost2010Prop29
280
     1
102
RTVSPost2010PropOp29
 70
     1
102
RTVSPost2010Prop30
280
     1
102
RTVSPost2010PropOp30
 70
     1
102
RTVSPost2010Prop31
280
     0
102
RTVSPost2010PropOp31
 70
     1
102
RTVSPost2010Prop32
280
     0
102
RTVSPost2010PropOp32
 70
     1
102
RTVSPost2010Prop33
280
     0
102
RTVSPost2010PropOp33
 70
     1
102
RTVSPost2010Prop34
280
     0
102
RTVSPost2010PropOp34
 70
     1
102
RTVSPost2010Prop35
280
     0
102
RTVSPost2010PropOp35
 70
     1
102
RTVSPost2010Prop36
280
     0
102
RTVSPost2010PropOp36
 70
     1
102
RTVSPost2010Prop37
 90
       50
102
RTVSPost2010PropOp37
 70
     1
102
RTVSPost2010Prop38
140
0.0
102
RTVSPost2010PropOp38
 70
     1
102
RTVSPost2010Prop39
140
1.0
102
RTVSPost2010PropOp39
 70
     1
102
RTVSPost2010Prop40
 90
        0
102
RTVSPost2010PropOp40
 70
     1
102
RTVSPost2010Prop41ColorIndex
 90
       18
102
RTVSPost2010Prop41ColorRGB
 90
        0
102
RTVSPost2010PropOp41
 70
     1
102
RTVSPost2010Prop42
 90
       50
102
RTVSPost2010PropOp42
 70
     1
102
RTVSPost2010Prop43
 90
        3
102
RTVSPost2010PropOp43
 70
     1
102
RTVSPost2010Prop44ColorIndex
 90
        5
102
RTVSPost2010Prop44ColorRGB
 90
      255
102
RTVSPost2010PropOp44
 70
     1
102
RTVSPost2010Prop45
280
     0
102
RTVSPost2010PropOp45
 70
     1
102
RTVSPost2010Prop46
 90
       50
102
RTVSPost2010PropOp46
 70
     1
102
RTVSPost2010Prop47
 90
       50
102
RTVSPost2010PropOp47
 70
     1
102
RTVSPost2010Prop48
 90
       50
102
RTVSPost2010PropOp48
 70
     1
102
RTVSPost2010Prop49
280
     0
102
RTVSPost2010PropOp49
 70
     1
102
RTVSPost2010Prop50
 90
       50
102
RTVSPost2010PropOp50
 70
     1
102
RTVSPost2010Prop51ColorIndex
 90
      256
102
RTVSPost2010Prop51ColorRGB
 90
-16777216
102
RTVSPost2010PropOp51
 70
     0
102
RTVSPost2010Prop52
140
1.0
102
RTVSPost2010PropOp52
 70
     0
102
RTVSPost2010Prop53
 90
        2
102
RTVSPost2010PropOp53
 70
     1
102
RTVSPost2010Prop54
  1
strokes_ogs.tif
102
RTVSPost2010PropOp54
 70
     1
102
RTVSPost2010Prop55
280
     0
102
RTVSPost2010PropOp55
 70
     1
102
RTVSPost2010Prop56
140
1.0
102
RTVSPost2010PropOp56
 70
     1
102
RTVSPost2010Prop57
140
1.0
102
RTVSPost2010PropOp57
 70
     1
  0
ENDSEC
  0
EOF
