  0
SECTION
  2
HEADER
  9
$ACADVER
  1
AC1018
  9
$ACADMAINTVER
 70
     0
  9
$DWGCODEPAGE
  3
ANSI_1252
  9
$INSBASE
 10
0.0
 20
0.0
 30
0.0
  9
$EXTMIN
 10
-36.0
 20
-0.0000000000000054
 30
0.0
  9
$EXTMAX
 10
93.0
 20
82.80999999999995
 30
0.0
  9
$LIMMIN
 10
0.0
 20
0.0
  9
$LIMMAX
 10
12.0
 20
9.0
  9
$ORTHOMODE
 70
     0
  9
$REGENMODE
 70
     1
  9
$FILLMODE
 70
     1
  9
$QTEXTMODE
 70
     0
  9
$MIRRTEXT
 70
     1
  9
$LTSCALE
 40
0.0393700787401575
  9
$ATTMODE
 70
     1
  9
$TEXTSIZE
 40
0.2
  9
$TRACEWID
 40
0.05
  9
$TEXTSTYLE
  7
Standard
  9
$CLAYER
  8
Default
  9
$CELTYPE
  6
ByLayer
  9
$CECOLOR
 62
   256
  9
$CELTSCALE
 40
1.0
  9
$DISPSILH
 70
     0
  9
$DIMSCALE
 40
1.0
  9
$DIMASZ
 40
0.18
  9
$DIMEXO
 40
0.0625
  9
$DIMDLI
 40
0.38
  9
$DIMRND
 40
0.0
  9
$DIMDLE
 40
0.0
  9
$DIMEXE
 40
0.18
  9
$DIMTP
 40
0.0
  9
$DIMTM
 40
0.0
  9
$DIMTXT
 40
0.18
  9
$DIMCEN
 40
0.09
  9
$DIMTSZ
 40
0.0
  9
$DIMTOL
 70
     0
  9
$DIMLIM
 70
     0
  9
$DIMTIH
 70
     1
  9
$DIMTOH
 70
     1
  9
$DIMSE1
 70
     0
  9
$DIMSE2
 70
     0
  9
$DIMTAD
 70
     0
  9
$DIMZIN
 70
     0
  9
$DIMBLK
  1

  9
$DIMASO
 70
     1
  9
$DIMSHO
 70
     1
  9
$DIMPOST
  1

  9
$DIMAPOST
  1

  9
$DIMALT
 70
     0
  9
$DIMALTD
 70
     2
  9
$DIMALTF
 40
25.4
  9
$DIMLFAC
 40
1.0
  9
$DIMTOFL
 70
     0
  9
$DIMTVP
 40
0.0
  9
$DIMTIX
 70
     0
  9
$DIMSOXD
 70
     0
  9
$DIMSAH
 70
     0
  9
$DIMBLK1
  1

  9
$DIMBLK2
  1

  9
$DIMSTYLE
  2
Standard
  9
$DIMCLRD
 70
     0
  9
$DIMCLRE
 70
     0
  9
$DIMCLRT
 70
     0
  9
$DIMTFAC
 40
1.0
  9
$DIMGAP
 40
0.09
  9
$DIMJUST
 70
     0
  9
$DIMSD1
 70
     0
  9
$DIMSD2
 70
     0
  9
$DIMTOLJ
 70
     1
  9
$DIMTZIN
 70
     0
  9
$DIMALTZ
 70
     0
  9
$DIMALTTZ
 70
     0
  9
$DIMUPT
 70
     0
  9
$DIMDEC
 70
     4
  9
$DIMTDEC
 70
     4
  9
$DIMALTU
 70
     2
  9
$DIMALTTD
 70
     2
  9
$DIMTXSTY
  7
Standard
  9
$DIMAUNIT
 70
     0
  9
$DIMADEC
 70
     0
  9
$DIMALTRND
 40
0.0
  9
$DIMAZIN
 70
     0
  9
$DIMDSEP
 70
    46
  9
$DIMATFIT
 70
     3
  9
$DIMFRAC
 70
     0
  9
$DIMLDRBLK
  1

  9
$DIMLUNIT
 70
     2
  9
$DIMLWD
 70
    -2
  9
$DIMLWE
 70
    -2
  9
$DIMTMOVE
 70
     2
  9
$LUNITS
 70
     2
  9
$LUPREC
 70
     4
  9
$SKETCHINC
 40
0.1
  9
$FILLETRAD
 40
0.5
  9
$AUNITS
 70
     0
  9
$AUPREC
 70
     0
  9
$MENU
  1
.
  9
$ELEVATION
 40
0.0
  9
$PELEVATION
 40
0.0
  9
$THICKNESS
 40
0.0
  9
$LIMCHECK
 70
     0
  9
$CHAMFERA
 40
0.5
  9
$CHAMFERB
 40
0.5
  9
$CHAMFERC
 40
1.0
  9
$CHAMFERD
 40
0.0
  9
$SKPOLY
 70
     0
  9
$TDCREATE
 40
2456790.612450891
  9
$TDUCREATE
 40
2456790.779117558
  9
$TDUPDATE
 40
2456790.612450903
  9
$TDUUPDATE
 40
2456790.779117569
  9
$TDINDWG
 40
0.0000000116
  9
$TDUSRTIMER
 40
0.0000000116
  9
$USRTIMER
 70
     1
  9
$ANGBASE
 50
0.0
  9
$ANGDIR
 70
     0
  9
$PDMODE
 70
     0
  9
$PDSIZE
 40
0.0
  9
$PLINEWID
 40
0.0
  9
$SPLFRAME
 70
     0
  9
$SPLINETYPE
 70
     6
  9
$SPLINESEGS
 70
     8
  9
$HANDSEED
  5
A7
  9
$SURFTAB1
 70
     6
  9
$SURFTAB2
 70
     6
  9
$SURFTYPE
 70
     6
  9
$SURFU
 70
     6
  9
$SURFV
 70
     6
  9
$UCSBASE
  2

  9
$UCSNAME
  2

  9
$UCSORG
 10
0.0
 20
0.0
 30
0.0
  9
$UCSXDIR
 10
1.0
 20
0.0
 30
0.0
  9
$UCSYDIR
 10
0.0
 20
1.0
 30
0.0
  9
$UCSORTHOREF
  2

  9
$UCSORTHOVIEW
 70
     0
  9
$UCSORGTOP
 10
0.0
 20
0.0
 30
0.0
  9
$UCSORGBOTTOM
 10
0.0
 20
0.0
 30
0.0
  9
$UCSORGLEFT
 10
0.0
 20
0.0
 30
0.0
  9
$UCSORGRIGHT
 10
0.0
 20
0.0
 30
0.0
  9
$UCSORGFRONT
 10
0.0
 20
0.0
 30
0.0
  9
$UCSORGBACK
 10
0.0
 20
0.0
 30
0.0
  9
$PUCSBASE
  2

  9
$PUCSNAME
  2

  9
$PUCSORG
 10
0.0
 20
0.0
 30
0.0
  9
$PUCSXDIR
 10
1.0
 20
0.0
 30
0.0
  9
$PUCSYDIR
 10
0.0
 20
1.0
 30
0.0
  9
$PUCSORTHOREF
  2

  9
$PUCSORTHOVIEW
 70
     0
  9
$PUCSORGTOP
 10
0.0
 20
0.0
 30
0.0
  9
$PUCSORGBOTTOM
 10
0.0
 20
0.0
 30
0.0
  9
$PUCSORGLEFT
 10
0.0
 20
0.0
 30
0.0
  9
$PUCSORGRIGHT
 10
0.0
 20
0.0
 30
0.0
  9
$PUCSORGFRONT
 10
0.0
 20
0.0
 30
0.0
  9
$PUCSORGBACK
 10
0.0
 20
0.0
 30
0.0
  9
$USERI1
 70
     0
  9
$USERI2
 70
     0
  9
$USERI3
 70
     0
  9
$USERI4
 70
     0
  9
$USERI5
 70
     0
  9
$USERR1
 40
0.0
  9
$USERR2
 40
0.0
  9
$USERR3
 40
0.0
  9
$USERR4
 40
0.0
  9
$USERR5
 40
0.0
  9
$WORLDVIEW
 70
     1
  9
$SHADEDGE
 70
     3
  9
$SHADEDIF
 70
    70
  9
$TILEMODE
 70
     1
  9
$MAXACTVP
 70
    64
  9
$PINSBASE
 10
0.0
 20
0.0
 30
0.0
  9
$PLIMCHECK
 70
     0
  9
$PEXTMIN
 10
1.000000000000000E+20
 20
1.000000000000000E+20
 30
1.000000000000000E+20
  9
$PEXTMAX
 10
-1.000000000000000E+20
 20
-1.000000000000000E+20
 30
-1.000000000000000E+20
  9
$PLIMMIN
 10
0.0
 20
0.0
  9
$PLIMMAX
 10
12.0
 20
9.0
  9
$UNITMODE
 70
     0
  9
$VISRETAIN
 70
     1
  9
$PLINEGEN
 70
     0
  9
$PSLTSCALE
 70
     1
  9
$TREEDEPTH
 70
  3020
  9
$CMLSTYLE
  2
Standard
  9
$CMLJUST
 70
     0
  9
$CMLSCALE
 40
1.0
  9
$PROXYGRAPHICS
 70
     1
  9
$MEASUREMENT
 70
     0
  9
$CELWEIGHT
370
    -1
  9
$ENDCAPS
280
     0
  9
$JOINSTYLE
280
     0
  9
$LWDISPLAY
290
     0
  9
$INSUNITS
 70
     1
  9
$HYPERLINKBASE
  1

  9
$STYLESHEET
  1

  9
$XEDIT
290
     1
  9
$CEPSNTYPE
380
     0
  9
$PSTYLEMODE
290
     1
  9
$FINGERPRINTGUID
  2
{FB036BD9-BEDA-4D53-BAB3-AA85BAC7FE91}
  9
$VERSIONGUID
  2
{FAEB1C32-E019-11D5-929B-00C0DF256EC4}
  9
$EXTNAMES
290
     1
  9
$PSVPSCALE
 40
0.0
  9
$OLESTARTUP
290
     0
  9
$SORTENTS
280
   127
  9
$INDEXCTL
280
     0
  9
$HIDETEXT
280
     1
  9
$XCLIPFRAME
290
     0
  9
$HALOGAP
280
     0
  9
$OBSCOLOR
 70
   257
  9
$OBSLTYPE
280
     0
  9
$INTERSECTIONDISPLAY
280
     0
  9
$INTERSECTIONCOLOR
 70
   257
  9
$DIMASSOC
280
     2
  9
$PROJECTNAME
  1

  0
ENDSEC
  0
SECTION
  2
CLASSES
  0
CLASS
  1
ACDBDICTIONARYWDFLT
  2
AcDbDictionaryWithDefault
  3
ObjectDBX Classes
 90
        0
 91
        4
280
     0
281
     0
  0
CLASS
  1
VISUALSTYLE
  2
AcDbVisualStyle
  3
ObjectDBX Classes
 90
     4095
 91
        4
280
     0
281
     0
  0
ENDSEC
  0
SECTION
  2
TABLES
  0
TABLE
  2
VPORT
  5
8
330
0
100
AcDbSymbolTable
 70
     1
  0
VPORT
  5
29
330
8
100
AcDbSymbolTableRecord
100
AcDbViewportTableRecord
  2
*Active
 70
     0
 10
0.0
 20
0.0
 11
1.0
 21
1.0
 12
28.5
 22
41.40499999999997
 13
0.0
 23
0.0
 14
0.5
 24
0.5
 15
0.5
 25
0.5
 16
0.0
 26
0.0
 36
1.0
 17
0.0
 27
0.0
 37
0.0
 40
84.46619999999994
 41
1.557782876464196
 42
50.0
 43
0.0
 44
0.0
 50
0.0
 51
0.0
 71
     0
 72
   100
 73
     1
 74
     3
 75
     0
 76
     0
 77
     0
 78
     0
281
     0
 65
     1
110
0.0
120
0.0
130
0.0
111
1.0
121
0.0
131
0.0
112
0.0
122
1.0
132
0.0
 79
     0
146
0.0
  0
ENDTAB
  0
TABLE
  2
LTYPE
  5
5
330
0
100
AcDbSymbolTable
 70
     1
  0
LTYPE
  5
14
330
5
100
AcDbSymbolTableRecord
100
AcDbLinetypeTableRecord
  2
ByBlock
 70
     0
  3

 72
    65
 73
     0
 40
0.0
  0
LTYPE
  5
15
330
5
100
AcDbSymbolTableRecord
100
AcDbLinetypeTableRecord
  2
ByLayer
 70
     0
  3

 72
    65
 73
     0
 40
0.0
  0
LTYPE
  5
16
330
5
100
AcDbSymbolTableRecord
100
AcDbLinetypeTableRecord
  2
Continuous
 70
     0
  3
Solid line
 72
    65
 73
     0
 40
0.0
  0
ENDTAB
  0
TABLE
  2
LAYER
  5
2
330
0
100
AcDbSymbolTable
 70
     3
  0
LAYER
  5
10
330
2
100
AcDbSymbolTableRecord
100
AcDbLayerTableRecord
  2
0
 70
     0
 62
     7
  6
Continuous
370
    -3
390
F
  0
LAYER
  5
3B
330
2
100
AcDbSymbolTableRecord
100
AcDbLayerTableRecord
  2
Layer 02
 70
     0
 62
     7
  6
Continuous
370
    -3
390
F
  0
LAYER
  5
90
330
2
100
AcDbSymbolTableRecord
100
AcDbLayerTableRecord
  2
Default
 70
     0
 62
     7
  6
Continuous
370
    -3
390
F
  0
ENDTAB
  0
TABLE
  2
STYLE
  5
3
330
0
100
AcDbSymbolTable
 70
     1
  0
STYLE
  5
11
330
3
100
AcDbSymbolTableRecord
100
AcDbTextStyleTableRecord
  2
Standard
 70
     0
 40
0.0
 41
1.0
 50
0.0
 71
     0
 42
0.2
  3
txt
  4

  0
ENDTAB
  0
TABLE
  2
VIEW
  5
6
330
0
100
AcDbSymbolTable
 70
     0
  0
ENDTAB
  0
TABLE
  2
UCS
  5
7
330
0
100
AcDbSymbolTable
 70
     0
  0
ENDTAB
  0
TABLE
  2
APPID
  5
9
330
0
100
AcDbSymbolTable
 70
     1
  0
APPID
  5
12
330
9
100
AcDbSymbolTableRecord
100
AcDbRegAppTableRecord
  2
ACAD
 70
     0
  0
ENDTAB
  0
TABLE
  2
DIMSTYLE
  5
A
330
0
100
AcDbSymbolTable
 70
     1
100
AcDbDimStyleTable
  0
DIMSTYLE
105
27
330
A
100
AcDbSymbolTableRecord
100
AcDbDimStyleTableRecord
  2
Standard
 70
     0
340
11
  0
ENDTAB
  0
TABLE
  2
BLOCK_RECORD
  5
1
330
0
100
AcDbSymbolTable
 70
     1
  0
BLOCK_RECORD
  5
1F
330
1
100
AcDbSymbolTableRecord
100
AcDbBlockTableRecord
  2
*Model_Space
340
22
  0
BLOCK_RECORD
  5
1B
330
1
100
AcDbSymbolTableRecord
100
AcDbBlockTableRecord
  2
*Paper_Space
340
1E
  0
BLOCK_RECORD
  5
23
330
1
100
AcDbSymbolTableRecord
100
AcDbBlockTableRecord
  2
*Paper_Space0
340
26
  0
ENDTAB
  0
ENDSEC
  0
SECTION
  2
BLOCKS
  0
BLOCK
  5
20
330
1F
100
AcDbEntity
  8
0
100
AcDbBlockBegin
  2
*Model_Space
 70
     0
 10
0.0
 20
0.0
 30
0.0
  3
*Model_Space
  1

  0
ENDBLK
  5
21
330
1F
100
AcDbEntity
  8
0
100
AcDbBlockEnd
  0
BLOCK
  5
1C
330
1B
100
AcDbEntity
 67
     1
  8
0
100
AcDbBlockBegin
  2
*Paper_Space
 70
     0
 10
0.0
 20
0.0
 30
0.0
  3
*Paper_Space
  1

  0
ENDBLK
  5
1D
330
1B
100
AcDbEntity
 67
     1
  8
0
100
AcDbBlockEnd
  0
BLOCK
  5
24
330
23
100
AcDbEntity
  8
0
100
AcDbBlockBegin
  2
*Paper_Space0
 70
     0
 10
0.0
 20
0.0
 30
0.0
  3
*Paper_Space0
  1

  0
ENDBLK
  5
25
330
23
100
AcDbEntity
  8
0
100
AcDbBlockEnd
  0
ENDSEC
  0
SECTION
  2
ENTITIES
  0
ARC
  5
3C
330
1F
100
AcDbEntity
  8
Layer 02
  6
Continuous
100
AcDbCircle
 10
88.53756718769978
 20
0.0937678608999946
 30
0.0
 40
0.0937678609
100
AcDbArc
 50
270.0
 51
61.27967320209791
  0
LINE
  5
3D
330
1F
100
AcDbEntity
  8
Layer 02
  6
Continuous
100
AcDbLine
 10
88.53756718769976
 20
-0.0000000000000054
 30
0.0
 11
87.32768460049977
 21
-0.0000000000000054
 31
0.0
  0
ARC
  5
3E
330
1F
100
AcDbEntity
  8
Layer 02
  6
Continuous
100
AcDbCircle
 10
87.32768460049977
 20
0.0937678608999946
 30
0.0
 40
0.0937678609
100
AcDbArc
 50
118.7203267979021
 51
270.0
  0
LINE
  5
3F
330
1F
100
AcDbEntity
  8
Layer 02
100
AcDbLine
 10
82.01999999999978
 20
22.065
 30
0.0
 11
82.76290136269978
 21
22.065
 31
0.0
  0
SPLINE
  5
40
330
1F
100
AcDbEntity
  8
Layer 02
100
AcDbSpline
210
0.0
220
0.0
230
1.0
 70
     8
 71
     5
 72
    12
 73
     6
 74
     0
 42
0.0000000001
 43
0.0000000001
 40
-1.0
 40
-1.0
 40
-1.0
 40
-1.0
 40
-1.0
 40
-1.0
 40
0.0
 40
0.0
 40
0.0
 40
0.0
 40
0.0
 40
0.0
 10
82.76290136269978
 20
22.065
 30
0.0
 10
83.10311543407303
 20
22.065
 30
0.0
 10
83.4433295054463
 20
22.065
 30
0.0
 10
83.81510231643176
 20
21.4903444246483
 30
0.0
 10
83.86752009411578
 20
21.15419268667415
 30
0.0
 10
83.91993787179979
 20
20.81804094869999
 30
0.0
  0
POLYLINE
  5
41
330
1F
100
AcDbEntity
  8
Layer 02
100
AcDb2dPolyline
 66
     1
 10
0.0
 20
0.0
 30
0.0
  0
VERTEX
  5
42
330
41
100
AcDbEntity
  8
Layer 02
100
AcDbVertex
100
AcDb2dVertex
 10
83.91993787179979
 20
20.81804094869999
 30
0.0
  0
VERTEX
  5
43
330
41
100
AcDbEntity
  8
Layer 02
100
AcDbVertex
100
AcDb2dVertex
 10
87.12944362309085
 20
0.2356930506583386
 30
0.0
  0
SEQEND
  5
44
330
41
100
AcDbEntity
  8
Layer 02
  0
ARC
  5
45
330
1F
100
AcDbEntity
  8
Layer 02
100
AcDbCircle
 10
87.19868065649979
 20
0.2459999999999951
 30
0.0
 40
0.07
100
AcDbArc
 50
188.4671378116971
 51
269.9999999996976
  0
POLYLINE
  5
46
330
1F
100
AcDbEntity
  8
Layer 02
100
AcDb2dPolyline
 66
     1
 10
0.0
 20
0.0
 30
0.0
  0
VERTEX
  5
47
330
46
100
AcDbEntity
  8
Layer 02
100
AcDbVertex
100
AcDb2dVertex
 10
87.19868065649942
 20
0.1759999999999951
 30
0.0
  0
VERTEX
  5
48
330
46
100
AcDbEntity
  8
Layer 02
100
AcDbVertex
100
AcDb2dVertex
 10
88.58254514972707
 20
0.1759999999999951
 30
0.0
  0
SEQEND
  5
49
330
46
100
AcDbEntity
  8
Layer 02
  0
SPLINE
  5
4A
330
1F
100
AcDbEntity
  8
Layer 02
100
AcDbSpline
210
0.0
220
0.0
230
1.0
 70
     8
 71
     5
 72
    12
 73
     6
 74
     0
 42
0.0000000001
 43
0.0000000001
 40
0.0
 40
0.0
 40
0.0
 40
0.0
 40
0.0
 40
0.0
 40
1.0
 40
1.0
 40
1.0
 40
1.0
 40
1.0
 40
1.0
 10
88.58254514972707
 20
0.1759999999999951
 30
0.0
 10
88.60513423143647
 20
0.1759999999999951
 30
0.0
 10
88.62772331314585
 20
0.1759999999999951
 30
0.0
 10
88.66102907671001
 20
0.2172892354304458
 30
0.0
 10
88.6583132016049
 20
0.2397144586152197
 30
0.0
 10
88.65559732649979
 20
0.2621396817999937
 30
0.0
  0
POLYLINE
  5
4B
330
1F
100
AcDbEntity
  8
Layer 02
100
AcDb2dPolyline
 66
     1
 10
0.0
 20
0.0
 30
0.0
  0
VERTEX
  5
4C
330
4B
100
AcDbEntity
  8
Layer 02
100
AcDbVertex
100
AcDb2dVertex
 10
88.65559732649979
 20
0.2621396817999937
 30
0.0
  0
VERTEX
  5
4D
330
4B
100
AcDbEntity
  8
Layer 02
100
AcDbVertex
100
AcDb2dVertex
 10
85.68306792448872
 20
24.8065803072322
 30
0.0
  0
SEQEND
  5
4E
330
4B
100
AcDbEntity
  8
Layer 02
  0
LINE
  5
4F
330
1F
100
AcDbEntity
  8
Layer 02
  6
Continuous
100
AcDbLine
 10
82.0
 20
22.06
 30
0.0
 11
82.0
 21
24.79499999999999
 31
0.0
  0
POLYLINE
  5
50
330
1F
100
AcDbEntity
  8
Layer 02
  6
Continuous
100
AcDb2dPolyline
 66
     1
 10
0.0
 20
0.0
 30
0.0
  0
VERTEX
  5
51
330
50
100
AcDbEntity
  8
Layer 02
  6
Continuous
100
AcDbVertex
100
AcDb2dVertex
 10
85.689653364
 20
24.75041383929999
 30
0.0
  0
VERTEX
  5
52
330
50
100
AcDbEntity
  8
Layer 02
  6
Continuous
100
AcDbVertex
100
AcDb2dVertex
 10
85.6867947283
 20
24.76104269189999
 30
0.0
  0
VERTEX
  5
53
330
50
100
AcDbEntity
  8
Layer 02
  6
Continuous
100
AcDbVertex
100
AcDb2dVertex
 10
85.6825042582
 20
24.7711785898
 30
0.0
  0
VERTEX
  5
54
330
50
100
AcDbEntity
  8
Layer 02
  6
Continuous
100
AcDbVertex
100
AcDb2dVertex
 10
85.6768631657
 20
24.780629674
 30
0.0
  0
VERTEX
  5
55
330
50
100
AcDbEntity
  8
Layer 02
  6
Continuous
100
AcDbVertex
100
AcDb2dVertex
 10
85.6699782259
 20
24.789217049
 30
0.0
  0
VERTEX
  5
56
330
50
100
AcDbEntity
  8
Layer 02
  6
Continuous
100
AcDbVertex
100
AcDb2dVertex
 10
85.6619797633
 20
24.79677816169999
 30
0.0
  0
VERTEX
  5
57
330
50
100
AcDbEntity
  8
Layer 02
  6
Continuous
100
AcDbVertex
100
AcDb2dVertex
 10
85.6530191752
 20
24.8031698903
 30
0.0
  0
SEQEND
  5
58
330
50
100
AcDbEntity
  8
Layer 02
  6
Continuous
  0
LINE
  5
59
330
1F
100
AcDbEntity
  8
Layer 02
  6
Continuous
100
AcDbLine
 10
85.6905681012
 20
24.7446506786
 30
0.0
 11
85.689653364
 21
24.75041383929999
 31
0.0
  0
POLYLINE
  5
5A
330
1F
100
AcDbEntity
  8
Layer 02
  6
Continuous
100
AcDb2dPolyline
 66
     1
 10
0.0
 20
0.0
 30
0.0
  0
VERTEX
  5
5B
330
5A
100
AcDbEntity
  8
Layer 02
  6
Continuous
100
AcDbVertex
100
AcDb2dVertex
 10
85.6905681012
 20
24.7446506786
 30
0.0
  0
VERTEX
  5
5C
330
5A
100
AcDbEntity
  8
Layer 02
  6
Continuous
100
AcDbVertex
100
AcDb2dVertex
 10
85.6891343285
 20
24.7528551348
 30
0.0
  0
VERTEX
  5
5D
330
5A
100
AcDbEntity
  8
Layer 02
  6
Continuous
100
AcDbVertex
100
AcDb2dVertex
 10
85.68603373010001
 20
24.76315615349999
 30
0.0
  0
VERTEX
  5
5E
330
5A
100
AcDbEntity
  8
Layer 02
  6
Continuous
100
AcDbVertex
100
AcDb2dVertex
 10
85.6815791136
 20
24.77294805589999
 30
0.0
  0
VERTEX
  5
5F
330
5A
100
AcDbEntity
  8
Layer 02
  6
Continuous
100
AcDbVertex
100
AcDb2dVertex
 10
85.6758510252
 20
24.7820537863
 30
0.0
  0
VERTEX
  5
60
330
5A
100
AcDbEntity
  8
Layer 02
  6
Continuous
100
AcDbVertex
100
AcDb2dVertex
 10
85.6689530366
 20
24.79030869659999
 30
0.0
  0
VERTEX
  5
61
330
5A
100
AcDbEntity
  8
Layer 02
  6
Continuous
100
AcDbVertex
100
AcDb2dVertex
 10
85.6610098777
 20
24.7975635176
 30
0.0
  0
VERTEX
  5
62
330
5A
100
AcDbEntity
  8
Layer 02
  6
Continuous
100
AcDbVertex
100
AcDb2dVertex
 10
85.6521651727
 20
24.80368706819999
 30
0.0
  0
VERTEX
  5
63
330
5A
100
AcDbEntity
  8
Layer 02
  6
Continuous
100
AcDbVertex
100
AcDb2dVertex
 10
85.6425788382
 20
24.80856862489999
 30
0.0
  0
VERTEX
  5
64
330
5A
100
AcDbEntity
  8
Layer 02
  6
Continuous
100
AcDbVertex
100
AcDb2dVertex
 10
85.6384859329
 20
24.80999999999999
 30
0.0
  0
SEQEND
  5
65
330
5A
100
AcDbEntity
  8
Layer 02
  6
Continuous
  0
ARC
  5
66
330
1F
100
AcDbEntity
  8
Layer 02
  6
Continuous
100
AcDbCircle
 10
55.46243281230021
 20
0.0937678608999946
 30
0.0
 40
0.0937678609
100
AcDbArc
 50
118.7203267979021
 51
270.0000000000043
  0
LINE
  5
67
330
1F
100
AcDbEntity
  8
Layer 02
  6
Continuous
100
AcDbLine
 10
55.46243281230024
 20
-0.0000000000000054
 30
0.0
 11
56.67231539950022
 21
-0.0000000000000054
 31
0.0
  0
ARC
  5
68
330
1F
100
AcDbEntity
  8
Layer 02
  6
Continuous
100
AcDbCircle
 10
56.67231539950022
 20
0.0937678608999946
 30
0.0
 40
0.0937678609
100
AcDbArc
 50
270.0
 51
61.27967320209792
  0
LINE
  5
69
330
1F
100
AcDbEntity
  8
Layer 02
100
AcDbLine
 10
61.98000000000021
 20
22.065
 30
0.0
 11
61.23709863730021
 21
22.065
 31
0.0
  0
SPLINE
  5
6A
330
1F
100
AcDbEntity
  8
Layer 02
100
AcDbSpline
210
0.0
220
0.0
230
1.0
 70
     8
 71
     5
 72
    12
 73
     6
 74
     0
 42
0.0000000001
 43
0.0000000001
 40
-1.0
 40
-1.0
 40
-1.0
 40
-1.0
 40
-1.0
 40
-1.0
 40
0.0
 40
0.0
 40
0.0
 40
0.0
 40
0.0
 40
0.0
 10
61.23709863730021
 20
22.065
 30
0.0
 10
60.89688456592696
 20
22.065
 30
0.0
 10
60.55667049455369
 20
22.065
 30
0.0
 10
60.18489768356823
 20
21.4903444246483
 30
0.0
 10
60.13247990588421
 20
21.15419268667415
 30
0.0
 10
60.0800621282002
 20
20.81804094869999
 30
0.0
  0
POLYLINE
  5
6B
330
1F
100
AcDbEntity
  8
Layer 02
100
AcDb2dPolyline
 66
     1
 10
0.0
 20
0.0
 30
0.0
  0
VERTEX
  5
6C
330
6B
100
AcDbEntity
  8
Layer 02
100
AcDbVertex
100
AcDb2dVertex
 10
60.0800621282002
 20
20.81804094869999
 30
0.0
  0
VERTEX
  5
6D
330
6B
100
AcDbEntity
  8
Layer 02
100
AcDbVertex
100
AcDb2dVertex
 10
56.87055637690914
 20
0.2356930506583386
 30
0.0
  0
SEQEND
  5
6E
330
6B
100
AcDbEntity
  8
Layer 02
  0
ARC
  5
6F
330
1F
100
AcDbEntity
  8
Layer 02
100
AcDbCircle
 10
56.8013193435002
 20
0.2459999999999951
 30
0.0
 40
0.07
100
AcDbArc
 50
270.0000000003024
 51
351.5328621883029
  0
POLYLINE
  5
70
330
1F
100
AcDbEntity
  8
Layer 02
100
AcDb2dPolyline
 66
     1
 10
0.0
 20
0.0
 30
0.0
  0
VERTEX
  5
71
330
70
100
AcDbEntity
  8
Layer 02
100
AcDbVertex
100
AcDb2dVertex
 10
56.80131934350057
 20
0.1759999999999951
 30
0.0
  0
VERTEX
  5
72
330
70
100
AcDbEntity
  8
Layer 02
100
AcDbVertex
100
AcDb2dVertex
 10
55.41745485027293
 20
0.1759999999999951
 30
0.0
  0
SEQEND
  5
73
330
70
100
AcDbEntity
  8
Layer 02
  0
SPLINE
  5
74
330
1F
100
AcDbEntity
  8
Layer 02
100
AcDbSpline
210
0.0
220
0.0
230
1.0
 70
     8
 71
     5
 72
    12
 73
     6
 74
     0
 42
0.0000000001
 43
0.0000000001
 40
0.0
 40
0.0
 40
0.0
 40
0.0
 40
0.0
 40
0.0
 40
1.0
 40
1.0
 40
1.0
 40
1.0
 40
1.0
 40
1.0
 10
55.41745485027293
 20
0.1759999999999951
 30
0.0
 10
55.39486576856352
 20
0.1759999999999951
 30
0.0
 10
55.37227668685414
 20
0.1759999999999951
 30
0.0
 10
55.33897092328998
 20
0.2172892354304458
 30
0.0
 10
55.3416867983951
 20
0.2397144586152197
 30
0.0
 10
55.34440267350021
 20
0.2621396817999937
 30
0.0
  0
POLYLINE
  5
75
330
1F
100
AcDbEntity
  8
Layer 02
100
AcDb2dPolyline
 66
     1
 10
0.0
 20
0.0
 30
0.0
  0
VERTEX
  5
76
330
75
100
AcDbEntity
  8
Layer 02
100
AcDbVertex
100
AcDb2dVertex
 10
55.34440267350021
 20
0.2621396817999937
 30
0.0
  0
VERTEX
  5
77
330
75
100
AcDbEntity
  8
Layer 02
100
AcDbVertex
100
AcDb2dVertex
 10
58.31693207551128
 20
24.8065803072322
 30
0.0
  0
SEQEND
  5
78
330
75
100
AcDbEntity
  8
Layer 02
  0
LINE
  5
79
330
1F
100
AcDbEntity
  8
Layer 02
  6
Continuous
100
AcDbLine
 10
61.99999999999999
 20
24.7894551174
 30
0.0
 11
62.0
 21
22.06
 31
0.0
  0
SPLINE
  5
7A
330
1F
100
AcDbEntity
  8
Layer 02
  6
Continuous
100
AcDbSpline
210
0.0
220
0.0
230
1.0
 70
    12
 71
     2
 72
     8
 73
     5
 74
     0
 42
0.0000000001
 43
0.0000000001
 40
0.0
 40
0.0
 40
0.0
 40
0.123788972541802
 40
0.123788972541802
 40
0.247577945083604
 40
0.247577945083604
 40
0.247577945083604
 10
31.53756718769976
 20
-0.0000000000000054
 30
0.0
 41
1.0
 10
31.61035322092468
 20
-0.0000000000000109
 30
0.0
 41
0.7899418936709612
 10
31.62840535018236
 20
0.0705118944709471
 30
0.0
 41
1.0
 10
31.64645747944003
 20
0.141023788941905
 30
0.0
 41
0.7899418936709612
 10
31.5826258941029
 20
0.1760000000855873
 30
0.0
 41
1.0
  0
SPLINE
  5
7B
330
1F
100
AcDbEntity
  8
Layer 02
  6
Continuous
100
AcDbSpline
210
0.0
220
0.0
230
1.0
 70
    24
 71
     2
 72
     6
 73
     3
 74
     0
 42
0.0000000001
 43
0.0000000001
 40
0.0
 40
0.0
 40
0.0
 40
1.209882587199985
 40
1.209882587199985
 40
1.209882587199985
 10
31.53756718769976
 20
-0.0000000000000054
 30
0.0
 10
30.93262589409976
 20
-0.0000000000000054
 30
0.0
 10
30.32768460049977
 20
-0.0000000000000054
 30
0.0
  0
SPLINE
  5
7C
330
1F
100
AcDbEntity
  8
Layer 02
  6
Continuous
100
AcDbSpline
210
0.0
220
0.0
230
1.0
 70
    12
 71
     2
 72
     8
 73
     5
 74
     0
 42
0.0000000001
 43
0.0000000001
 40
0.0
 40
0.0
 40
0.0
 40
0.1237889725417989
 40
0.1237889725417989
 40
0.2475779450835977
 40
0.2475779450835977
 40
0.2475779450835977
 10
30.28262589409665
 20
0.1760000000855874
 30
0.0
 41
1.0
 10
30.21879430875951
 20
0.1410237889419065
 30
0.0
 41
0.7899418936709716
 10
30.23684643801719
 20
0.0705118944709503
 30
0.0
 41
1.0
 10
30.25489856727486
 20
-0.0000000000000058
 30
0.0
 41
0.7899418936709716
 10
30.32768460049978
 20
-0.0000000000000054
 30
0.0
 41
1.0
  0
SPLINE
  5
7D
330
1F
100
AcDbEntity
  8
Layer 02
100
AcDbSpline
210
0.0
220
0.0
230
1.0
 70
    24
 71
     2
 72
     6
 73
     3
 74
     0
 42
0.0000000001
 43
0.0000000001
 40
0.0
 40
0.0
 40
0.0
 40
0.742901362699989
 40
0.742901362699989
 40
0.742901362699989
 10
25.01999999999978
 20
22.065
 30
0.0
 10
25.39145068134977
 20
22.065
 30
0.0
 10
25.76290136269977
 20
22.065
 30
0.0
  0
SPLINE
  5
7E
330
1F
100
AcDbEntity
  8
Layer 02
100
AcDbSpline
210
0.0
220
0.0
230
1.0
 70
     8
 71
     5
 72
    12
 73
     6
 74
     0
 42
0.0000000001
 43
0.0000000001
 40
-1.0
 40
-1.0
 40
-1.0
 40
-1.0
 40
-1.0
 40
-1.0
 40
0.0
 40
0.0
 40
0.0
 40
0.0
 40
0.0
 40
0.0
 10
25.76290136269977
 20
22.065
 30
0.0
 10
26.10311543407304
 20
22.065
 30
0.0
 10
26.4433295054463
 20
22.065
 30
0.0
 10
26.81510231643176
 20
21.4903444246483
 30
0.0
 10
26.86752009411577
 20
21.15419268667415
 30
0.0
 10
26.91993787179978
 20
20.81804094869999
 30
0.0
  0
SPLINE
  5
7F
330
1F
100
AcDbEntity
  8
Layer 02
100
AcDbSpline
210
0.0
220
0.0
230
1.0
 70
    24
 71
     2
 72
     6
 73
     3
 74
     0
 42
0.0000000001
 43
0.0000000001
 40
0.0
 40
0.0
 40
0.0
 40
1.0
 40
1.0
 40
1.0
 10
26.91993787179978
 20
20.81804094869999
 30
0.0
 10
28.52469074744532
 20
10.52686699967916
 30
0.0
 10
30.12944362309086
 20
0.2356930506583386
 30
0.0
  0
SPLINE
  5
80
330
1F
100
AcDbEntity
  8
Layer 02
100
AcDbSpline
210
0.0
220
0.0
230
1.0
 70
    12
 71
     2
 72
     6
 73
     3
 74
     0
 42
0.0000000001
 43
0.0000000001
 40
0.0
 40
0.0
 40
0.0
 40
0.0996111825628767
 40
0.0996111825628767
 40
0.0996111825628767
 10
30.12944362309086
 20
0.2356930506583386
 30
0.0
 41
1.0
 10
30.13832981042282
 20
0.1760000000003137
 30
0.0
 41
0.7573777569540366
 10
30.19868065649941
 20
0.1759999999999951
 30
0.0
 41
1.0
  0
SPLINE
  5
81
330
1F
100
AcDbEntity
  8
Layer 02
100
AcDbSpline
210
0.0
220
0.0
230
1.0
 70
    24
 71
     2
 72
     6
 73
     3
 74
     0
 42
0.0000000001
 43
0.0000000001
 40
0.0
 40
0.0
 40
0.0
 40
1.0
 40
1.0
 40
1.0
 10
30.19868065649941
 20
0.1759999999999951
 30
0.0
 10
30.89061290311324
 20
0.1759999999999951
 30
0.0
 10
31.58254514972707
 20
0.1759999999999951
 30
0.0
  0
SPLINE
  5
82
330
1F
100
AcDbEntity
  8
Layer 02
100
AcDbSpline
210
0.0
220
0.0
230
1.0
 70
     8
 71
     5
 72
    12
 73
     6
 74
     0
 42
0.0000000001
 43
0.0000000001
 40
0.0
 40
0.0
 40
0.0
 40
0.0
 40
0.0
 40
0.0
 40
1.0
 40
1.0
 40
1.0
 40
1.0
 40
1.0
 40
1.0
 10
31.58254514972707
 20
0.1759999999999951
 30
0.0
 10
31.60513423143646
 20
0.1759999999999951
 30
0.0
 10
31.62772331314585
 20
0.1759999999999951
 30
0.0
 10
31.66102907671
 20
0.2172892354304458
 30
0.0
 10
31.65831320160489
 20
0.2397144586152197
 30
0.0
 10
31.65559732649978
 20
0.2621396817999937
 30
0.0
  0
SPLINE
  5
83
330
1F
100
AcDbEntity
  8
Layer 02
100
AcDbSpline
210
0.0
220
0.0
230
1.0
 70
    24
 71
     2
 72
     6
 73
     3
 74
     0
 42
0.0000000001
 43
0.0000000001
 40
0.0
 40
0.0
 40
0.0
 40
1.0
 40
1.0
 40
1.0
 10
31.65559732649978
 20
0.2621396817999937
 30
0.0
 10
30.16933262549425
 20
12.5343599945161
 30
0.0
 10
28.68306792448872
 20
24.8065803072322
 30
0.0
  0
SPLINE
  5
84
330
1F
100
AcDbEntity
  8
Layer 02
  6
Continuous
100
AcDbSpline
210
0.0
220
0.0
230
1.0
 70
    24
 71
     2
 72
     6
 73
     3
 74
     0
 42
0.0000000001
 43
0.0000000001
 40
0.0
 40
0.0
 40
0.0
 40
2.734999999999971
 40
2.734999999999971
 40
2.734999999999971
 10
25.0
 20
22.06000000000002
 30
0.0
 10
24.99999999999989
 20
23.42750000000001
 30
0.0
 10
24.99999999999978
 20
24.79499999999999
 30
0.0
  0
SPLINE
  5
85
330
1F
100
AcDbEntity
  8
Layer 02
  6
Continuous
100
AcDbSpline
210
0.0
220
0.0
230
1.0
 70
    12
 71
     2
 72
     8
 73
     5
 74
     0
 42
0.0000000001
 43
0.0000000001
 40
0.0
 40
0.0
 40
0.0
 40
0.123788972541802
 40
0.123788972541802
 40
0.247577945083604
 40
0.247577945083604
 40
0.247577945083604
 10
-31.5826258941029
 20
0.1760000000855874
 30
0.0
 41
1.0
 10
-31.64645747944003
 20
0.1410237889419051
 30
0.0
 41
0.7899418936709612
 10
-31.62840535018236
 20
0.0705118944709471
 30
0.0
 41
1.0
 10
-31.61035322092468
 20
-0.0000000000000109
 30
0.0
 41
0.7899418936709612
 10
-31.53756718769976
 20
-0.0000000000000054
 30
0.0
 41
1.0
  0
SPLINE
  5
86
330
1F
100
AcDbEntity
  8
Layer 02
  6
Continuous
100
AcDbSpline
210
0.0
220
0.0
230
1.0
 70
    24
 71
     2
 72
     6
 73
     3
 74
     0
 42
0.0000000001
 43
0.0000000001
 40
0.0
 40
0.0
 40
0.0
 40
1.209882587199985
 40
1.209882587199985
 40
1.209882587199985
 10
-31.53756718769976
 20
-0.0000000000000054
 30
0.0
 10
-30.93262589409976
 20
-0.0000000000000054
 30
0.0
 10
-30.32768460049977
 20
-0.0000000000000054
 30
0.0
  0
SPLINE
  5
87
330
1F
100
AcDbEntity
  8
Layer 02
  6
Continuous
100
AcDbSpline
210
0.0
220
0.0
230
1.0
 70
    12
 71
     2
 72
     8
 73
     5
 74
     0
 42
0.0000000001
 43
0.0000000001
 40
0.0
 40
0.0
 40
0.0
 40
0.1237889725417989
 40
0.1237889725417989
 40
0.2475779450835977
 40
0.2475779450835977
 40
0.2475779450835977
 10
-30.32768460049977
 20
-0.0000000000000054
 30
0.0
 41
1.0
 10
-30.25489856727486
 20
-0.0000000000000054
 30
0.0
 41
0.7899418936709716
 10
-30.23684643801718
 20
0.0705118944709509
 30
0.0
 41
1.0
 10
-30.21879430875951
 20
0.1410237889419072
 30
0.0
 41
0.7899418936709716
 10
-30.28262589409665
 20
0.1760000000855877
 30
0.0
 41
1.0
  0
SPLINE
  5
88
330
1F
100
AcDbEntity
  8
Layer 02
100
AcDbSpline
210
0.0
220
0.0
230
1.0
 70
     8
 71
     5
 72
    12
 73
     6
 74
     0
 42
0.0000000001
 43
0.0000000001
 40
0.0
 40
0.0
 40
0.0
 40
0.0
 40
0.0
 40
0.0
 40
1.0
 40
1.0
 40
1.0
 40
1.0
 40
1.0
 40
1.0
 10
-31.58254514972707
 20
0.1759999999999951
 30
0.0
 10
-31.60513423143646
 20
0.1759999999999951
 30
0.0
 10
-31.62772331314585
 20
0.1759999999999951
 30
0.0
 10
-31.66102907671
 20
0.2172892354304458
 30
0.0
 10
-31.65831320160489
 20
0.2397144586152197
 30
0.0
 10
-31.65559732649978
 20
0.2621396817999937
 30
0.0
  0
SPLINE
  5
89
330
1F
100
AcDbEntity
  8
Layer 02
100
AcDbSpline
210
0.0
220
0.0
230
1.0
 70
    24
 71
     2
 72
     6
 73
     3
 74
     0
 42
0.0000000001
 43
0.0000000001
 40
0.0
 40
0.0
 40
0.0
 40
1.0
 40
1.0
 40
1.0
 10
-31.65559732649978
 20
0.2621396817999937
 30
0.0
 10
-30.16933262549425
 20
12.5343599945161
 30
0.0
 10
-28.68306792448872
 20
24.8065803072322
 30
0.0
  0
SPLINE
  5
8A
330
1F
100
AcDbEntity
  8
Layer 02
100
AcDbSpline
210
0.0
220
0.0
230
1.0
 70
    24
 71
     2
 72
     6
 73
     3
 74
     0
 42
0.0000000001
 43
0.0000000001
 40
0.0
 40
0.0
 40
0.0
 40
1.0
 40
1.0
 40
1.0
 10
-31.58254514972707
 20
0.1759999999999951
 30
0.0
 10
-30.89061290311324
 20
0.1759999999999951
 30
0.0
 10
-30.19868065649941
 20
0.1759999999999951
 30
0.0
  0
SPLINE
  5
8B
330
1F
100
AcDbEntity
  8
Layer 02
100
AcDbSpline
210
0.0
220
0.0
230
1.0
 70
    12
 71
     2
 72
     6
 73
     3
 74
     0
 42
0.0000000001
 43
0.0000000001
 40
0.0
 40
0.0
 40
0.0
 40
0.0996111825628766
 40
0.0996111825628766
 40
0.0996111825628766
 10
-30.19868065649941
 20
0.1759999999999951
 30
0.0
 41
1.0
 10
-30.13832981042282
 20
0.1760000000003136
 30
0.0
 41
0.757377756954037
 10
-30.12944362309086
 20
0.2356930506583386
 30
0.0
 41
1.0
  0
SPLINE
  5
8C
330
1F
100
AcDbEntity
  8
Layer 02
100
AcDbSpline
210
0.0
220
0.0
230
1.0
 70
    24
 71
     2
 72
     6
 73
     3
 74
     0
 42
0.0000000001
 43
0.0000000001
 40
0.0
 40
0.0
 40
0.0
 40
1.0
 40
1.0
 40
1.0
 10
-30.12944362309086
 20
0.2356930506583386
 30
0.0
 10
-28.52469074744532
 20
10.52686699967916
 30
0.0
 10
-26.91993787179978
 20
20.81804094869999
 30
0.0
  0
SPLINE
  5
8D
330
1F
100
AcDbEntity
  8
Layer 02
100
AcDbSpline
210
0.0
220
0.0
230
1.0
 70
     8
 71
     5
 72
    12
 73
     6
 74
     0
 42
0.0000000001
 43
0.0000000001
 40
0.0
 40
0.0
 40
0.0
 40
0.0
 40
0.0
 40
0.0
 40
1.0
 40
1.0
 40
1.0
 40
1.0
 40
1.0
 40
1.0
 10
-26.91993787179978
 20
20.81804094869999
 30
0.0
 10
-26.86752009411577
 20
21.15419268667415
 30
0.0
 10
-26.81510231643176
 20
21.4903444246483
 30
0.0
 10
-26.4433295054463
 20
22.065
 30
0.0
 10
-26.10311543407304
 20
22.065
 30
0.0
 10
-25.76290136269977
 20
22.065
 30
0.0
  0
SPLINE
  5
8E
330
1F
100
AcDbEntity
  8
Layer 02
  6
Continuous
100
AcDbSpline
210
0.0
220
0.0
230
1.0
 70
    24
 71
     2
 72
     6
 73
     3
 74
     0
 42
0.0000000001
 43
0.0000000001
 40
0.0
 40
0.0
 40
0.0
 40
2.734999999999971
 40
2.734999999999971
 40
2.734999999999971
 10
-24.99999999999978
 20
24.79499999999999
 30
0.0
 10
-24.99999999999989
 20
23.42750000000001
 30
0.0
 10
-25.0
 20
22.06000000000002
 30
0.0
  0
SPLINE
  5
8F
330
1F
100
AcDbEntity
  8
Layer 02
  6
Continuous
100
AcDbSpline
210
0.0
220
0.0
230
1.0
 70
    24
 71
     2
 72
     6
 73
     3
 74
     0
 42
0.0000000001
 43
0.0000000001
 40
0.0
 40
0.0
 40
0.0
 40
0.742901362699989
 40
0.742901362699989
 40
0.742901362699989
 10
-25.01999999999978
 20
22.065
 30
0.0
 10
-25.39145068134977
 20
22.065
 30
0.0
 10
-25.76290136269977
 20
22.065
 30
0.0
  0
LINE
  5
91
330
1F
100
AcDbEntity
  8
Default
100
AcDbLine
 10
82.0
 20
22.06
 30
0.0
 11
62.0
 21
22.06
 31
0.0
  0
LINE
  5
92
330
1F
100
AcDbEntity
  8
Default
100
AcDbLine
 10
25.0
 20
22.06000000000002
 30
0.0
 11
-25.0
 21
22.06000000000002
 31
0.0
  0
POLYLINE
  5
93
330
1F
100
AcDbEntity
  8
Layer 02
100
AcDb2dPolyline
 66
     1
 10
0.0
 20
0.0
 30
0.0
  0
VERTEX
  5
94
330
93
100
AcDbEntity
  8
Layer 02
100
AcDbVertex
100
AcDb2dVertex
 10
51.0
 20
25.80999999999999
 30
0.0
  0
VERTEX
  5
95
330
93
100
AcDbEntity
  8
Layer 02
100
AcDbVertex
100
AcDb2dVertex
 10
93.0
 20
25.80999999999999
 30
0.0
  0
SEQEND
  5
96
330
93
100
AcDbEntity
  8
Layer 02
  0
LINE
  5
97
330
1F
100
AcDbEntity
  8
Layer 02
  6
Continuous
100
AcDbLine
 10
93.0
 20
25.30999999999999
 30
0.0
 11
93.0
 21
25.80999999999999
 31
0.0
  0
LINE
  5
98
330
1F
100
AcDbEntity
  8
Layer 02
  6
Continuous
100
AcDbLine
 10
93.0
 20
25.30999999999999
 30
0.0
 11
51.0
 21
25.30999999999999
 31
0.0
  0
LINE
  5
99
330
1F
100
AcDbEntity
  8
Layer 02
  6
Continuous
100
AcDbLine
 10
91.836
 20
24.80999999999999
 30
0.0
 11
52.164
 21
24.80999999999999
 31
0.0
  0
LINE
  5
9A
330
1F
100
AcDbEntity
  8
Layer 02
  6
Continuous
100
AcDbLine
 10
52.164
 20
24.80999999999999
 30
0.0
 11
51.0
 21
25.30999999999999
 31
0.0
  0
LINE
  5
9B
330
1F
100
AcDbEntity
  8
Layer 02
  6
Continuous
100
AcDbLine
 10
91.836
 20
24.80999999999999
 30
0.0
 11
93.0
 21
25.30999999999999
 31
0.0
  0
LINE
  5
9C
330
1F
100
AcDbEntity
  8
Layer 02
  6
Continuous
100
AcDbLine
 10
51.0
 20
25.30999999999999
 30
0.0
 11
51.0
 21
25.80999999999999
 31
0.0
  0
SPLINE
  5
9D
330
1F
100
AcDbEntity
  8
Layer 02
  6
Continuous
100
AcDbSpline
210
0.0
220
0.0
230
1.0
 70
    15
 71
     2
 72
    36
 73
    33
 74
     0
 42
0.0000000001
 43
0.0000000001
 40
134.5572221399775
 40
134.5572221399775
 40
134.5572221399775
 40
145.8739497597173
 40
145.8739497597173
 40
151.8370365449596
 40
151.8370365449596
 40
183.8969260075124
 40
183.8969260075124
 40
186.8429260075125
 40
186.8429260075125
 40
218.9028154699916
 40
218.9028154699916
 40
224.8659022551588
 40
224.8659022551588
 40
236.1826298748987
 40
236.1826298748987
 40
244.0086298748986
 40
244.0086298748986
 40
255.3253574946385
 40
255.3253574946385
 40
261.2884442798808
 40
261.2884442798808
 40
293.3483337424338
 40
293.3483337424338
 40
296.2943337424338
 40
296.2943337424338
 40
328.354223204987
 40
328.354223204987
 40
334.3173099902293
 40
334.3173099902293
 40
345.634037609969
 40
345.634037609969
 40
353.460037609969
 40
353.460037609969
 40
353.460037609969
 10
-36.0
 20
57.89699999999996
 30
0.0
 41
1.0
 10
-36.0
 20
52.21025602480155
 30
0.0
 41
0.992530910114433
 10
-34.7288055650018
 20
46.69277676100437
 30
0.0
 41
1.0
 10
-33.97019958456118
 20
43.40013115844258
 30
0.0
 41
0.8274142641196152
 10
-30.8655012326261
 20
42.94814374044653
 30
0.0
 41
1.0
 10
-16.17860712423225
 20
40.81000000000002
 30
0.0
 41
0.9977702811138766
 10
-1.359692307691593
 20
40.81
 30
0.0
 41
1.0
 10
0.0000000000007695
 20
40.80999999999998
 30
0.0
 41
1.0
 10
1.359692307693133
 20
40.80999999999997
 30
0.0
 41
1.0
 10
16.17860712419951
 20
40.80999999999997
 30
0.0
 41
0.9977702811138923
 10
30.86550123256032
 20
42.94814374043396
 30
0.0
 41
1.0
 10
33.97019958457492
 20
43.40013115849511
 30
0.0
 41
0.827414264123563
 10
34.72880556500346
 20
46.69277676100435
 30
0.0
 41
1.0
 10
36.00000000000164
 20
52.21025602480152
 30
0.0
 41
0.992530910114433
 10
36.00000000000166
 20
57.89699999999994
 30
0.0
 41
1.0
 10
36.00000000000166
 20
61.80999999999995
 30
0.0
 41
1.0
 10
36.00000000000166
 20
65.72299999999996
 30
0.0
 41
1.0
 10
36.00000000000166
 20
71.40974397519835
 30
0.0
 41
0.992530910114433
 10
34.72880556500347
 20
76.92722323899554
 30
0.0
 41
1.0
 10
33.97019958456286
 20
80.21986884155726
 30
0.0
 41
0.8274142641196273
 10
30.86550123262786
 20
80.67185625955341
 30
0.0
 41
1.0
 10
16.17860712423395
 20
82.80999999999999
 30
0.0
 41
0.9977702811138762
 10
1.35969230769321
 20
82.80999999999995
 30
0.0
 41
1.0
 10
0.0000000000008598
 20
82.80999999999992
 30
0.0
 41
1.0
 10
-1.359692307691491
 20
82.80999999999989
 30
0.0
 41
1.0
 10
-16.17860712423226
 20
82.80999999999986
 30
0.0
 41
0.9977702811138767
 10
-30.86550123262623
 20
80.67185625955338
 30
0.0
 41
1.0
 10
-33.97019958456121
 20
80.21986884155726
 30
0.0
 41
0.8274142641196212
 10
-34.72880556500179
 20
76.92722323899554
 30
0.0
 41
1.0
 10
-35.99999999999999
 20
71.40974397519837
 30
0.0
 41
0.9925309101144328
 10
-36.0
 20
65.72299999999998
 30
0.0
 41
1.0
 10
-36.0
 20
61.80999999999997
 30
0.0
 41
1.0
 10
-36.0
 20
57.89699999999996
 30
0.0
 41
1.0
  0
SPLINE
  5
9E
330
1F
100
AcDbEntity
  8
Layer 02
  6
Continuous
100
AcDbSpline
210
0.0
220
0.0
230
1.0
 70
    24
 71
     2
 72
     6
 73
     3
 74
     0
 42
0.0000000001
 43
0.0000000001
 40
0.0
 40
0.0
 40
0.0
 40
1.266844899741087
 40
1.266844899741087
 40
1.266844899741087
 10
-34.836
 20
24.80999999999999
 30
0.0
 10
-35.418
 20
25.05999999999999
 30
0.0
 10
-36.0
 20
25.30999999999999
 30
0.0
  0
SPLINE
  5
9F
330
1F
100
AcDbEntity
  8
Layer 02
  6
Continuous
100
AcDbSpline
210
0.0
220
0.0
230
1.0
 70
    24
 71
     2
 72
     6
 73
     3
 74
     0
 42
0.0000000001
 43
0.0000000001
 40
0.0
 40
0.0
 40
0.0
 40
0.5
 40
0.5
 40
0.5
 10
-36.0
 20
25.30999999999999
 30
0.0
 10
-36.0
 20
25.55999999999999
 30
0.0
 10
-36.0
 20
25.80999999999999
 30
0.0
  0
SPLINE
  5
A0
330
1F
100
AcDbEntity
  8
Layer 02
  6
Continuous
100
AcDbSpline
210
0.0
220
0.0
230
1.0
 70
    24
 71
     2
 72
     6
 73
     3
 74
     0
 42
0.0000000001
 43
0.0000000001
 40
0.0
 40
0.0
 40
0.0
 40
1.266844899741087
 40
1.266844899741087
 40
1.266844899741087
 10
34.836
 20
24.80999999999999
 30
0.0
 10
35.418
 20
25.05999999999999
 30
0.0
 10
36.0
 20
25.30999999999999
 30
0.0
  0
SPLINE
  5
A1
330
1F
100
AcDbEntity
  8
Layer 02
  6
Continuous
100
AcDbSpline
210
0.0
220
0.0
230
1.0
 70
    24
 71
     2
 72
     6
 73
     3
 74
     0
 42
0.0000000001
 43
0.0000000001
 40
0.0
 40
0.0
 40
0.0
 40
0.5
 40
0.5
 40
0.5
 10
36.0
 20
25.30999999999999
 30
0.0
 10
36.0
 20
25.55999999999999
 30
0.0
 10
36.0
 20
25.80999999999999
 30
0.0
  0
SPLINE
  5
A2
330
1F
100
AcDbEntity
  8
Layer 02
100
AcDbSpline
210
0.0
220
0.0
230
1.0
 70
    24
 71
     2
 72
     6
 73
     3
 74
     0
 42
0.0000000001
 43
0.0000000001
 40
0.0
 40
0.0
 40
0.0
 40
1.0
 40
1.0
 40
1.0
 10
-36.0
 20
25.80999999999999
 30
0.0
 10
0.0
 20
25.80999999999999
 30
0.0
 10
36.0
 20
25.80999999999999
 30
0.0
  0
SPLINE
  5
A3
330
1F
100
AcDbEntity
  8
Layer 02
  6
Continuous
100
AcDbSpline
210
0.0
220
0.0
230
1.0
 70
    24
 71
     2
 72
     6
 73
     3
 74
     0
 42
0.0000000001
 43
0.0000000001
 40
0.0
 40
0.0
 40
0.0
 40
78.0
 40
78.0
 40
78.0
 10
36.0
 20
25.30999999999999
 30
0.0
 10
0.0
 20
25.30999999999999
 30
0.0
 10
-36.0
 20
25.30999999999999
 30
0.0
  0
SPLINE
  5
A4
330
1F
100
AcDbEntity
  8
Layer 02
  6
Continuous
100
AcDbSpline
210
0.0
220
0.0
230
1.0
 70
    24
 71
     2
 72
     6
 73
     3
 74
     0
 42
0.0000000001
 43
0.0000000001
 40
0.0
 40
0.0
 40
0.0
 40
75.672
 40
75.672
 40
75.672
 10
34.836
 20
24.80999999999999
 30
0.0
 10
0.0
 20
24.80999999999999
 30
0.0
 10
-34.836
 20
24.80999999999999
 30
0.0
  0
ENDSEC
  0
SECTION
  2
OBJECTS
  0
DICTIONARY
  5
C
330
0
100
AcDbDictionary
281
     1
  3
ACAD_GROUP
350
D
  3
ACAD_LAYOUT
350
1A
  3
ACAD_MLEADERSTYLE
350
A6
  3
ACAD_MLINESTYLE
350
17
  3
ACAD_PLOTSETTINGS
350
19
  3
ACAD_PLOTSTYLENAME
350
E
  3
ACAD_TABLESTYLE
350
A5
  3
ACAD_VISUALSTYLE
350
2A
  0
DICTIONARY
  5
D
102
{ACAD_REACTORS
330
C
102
}
330
C
100
AcDbDictionary
281
     1
  0
DICTIONARY
  5
1A
102
{ACAD_REACTORS
330
C
102
}
330
C
100
AcDbDictionary
281
     1
  3
Layout1
350
1E
  3
Layout2
350
26
  3
Model
350
22
  0
DICTIONARY
  5
A6
102
{ACAD_REACTORS
330
C
102
}
330
C
100
AcDbDictionary
281
     1
  0
DICTIONARY
  5
17
102
{ACAD_REACTORS
330
C
102
}
330
C
100
AcDbDictionary
281
     1
  3
Standard
350
18
  0
DICTIONARY
  5
19
102
{ACAD_REACTORS
330
C
102
}
330
C
100
AcDbDictionary
281
     1
  0
ACDBDICTIONARYWDFLT
  5
E
102
{ACAD_REACTORS
330
C
102
}
330
C
100
AcDbDictionary
281
     1
  3
Normal
350
F
100
AcDbDictionaryWithDefault
340
F
  0
DICTIONARY
  5
A5
102
{ACAD_REACTORS
330
C
102
}
330
C
100
AcDbDictionary
281
     1
  0
DICTIONARY
  5
2A
102
{ACAD_REACTORS
330
C
102
}
330
C
100
AcDbDictionary
281
     1
  3
2dWireframe
350
2F
  3
3D Hidden
350
31
  3
3dWireframe
350
30
  3
Basic
350
32
  3
Brighten
350
36
  3
ColorChange
350
3A
  3
Conceptual
350
34
  3
Dim
350
35
  3
Facepattern
350
39
  3
Flat
350
2B
  3
FlatWithEdges
350
2C
  3
Gouraud
350
2D
  3
GouraudWithEdges
350
2E
  3
Linepattern
350
38
  3
Realistic
350
33
  3
Thicken
350
37
  0
LAYOUT
  5
1E
102
{ACAD_REACTORS
330
1A
102
}
330
1A
100
AcDbPlotSettings
  1

  2
none_device
  4

  6

 40
0.0
 41
0.0
 42
0.0
 43
0.0
 44
0.0
 45
0.0
 46
0.0
 47
0.0
 48
0.0
 49
0.0
140
0.0
141
0.0
142
1.0
143
1.0
 70
   688
 72
     0
 73
     0
 74
     5
  7

 75
    16
 76
     0
 77
     2
 78
   300
147
1.0
148
0.0
149
0.0
100
AcDbLayout
  1
Layout1
 70
     1
 71
     1
 10
0.0
 20
0.0
 11
12.0
 21
9.0
 12
0.0
 22
0.0
 32
0.0
 14
1.000000000000000E+20
 24
1.000000000000000E+20
 34
1.000000000000000E+20
 15
-1.000000000000000E+20
 25
-1.000000000000000E+20
 35
-1.000000000000000E+20
146
0.0
 13
0.0
 23
0.0
 33
0.0
 16
1.0
 26
0.0
 36
0.0
 17
0.0
 27
1.0
 37
0.0
 76
     0
330
1B
  0
LAYOUT
  5
26
102
{ACAD_REACTORS
330
1A
102
}
330
1A
100
AcDbPlotSettings
  1

  2
none_device
  4

  6

 40
0.0
 41
0.0
 42
0.0
 43
0.0
 44
0.0
 45
0.0
 46
0.0
 47
0.0
 48
0.0
 49
0.0
140
0.0
141
0.0
142
1.0
143
1.0
 70
   688
 72
     0
 73
     0
 74
     5
  7

 75
    16
 76
     0
 77
     2
 78
   300
147
1.0
148
0.0
149
0.0
100
AcDbLayout
  1
Layout2
 70
     1
 71
     2
 10
0.0
 20
0.0
 11
0.0
 21
0.0
 12
0.0
 22
0.0
 32
0.0
 14
0.0
 24
0.0
 34
0.0
 15
0.0
 25
0.0
 35
0.0
146
0.0
 13
0.0
 23
0.0
 33
0.0
 16
1.0
 26
0.0
 36
0.0
 17
0.0
 27
1.0
 37
0.0
 76
     0
330
23
  0
LAYOUT
  5
22
102
{ACAD_REACTORS
330
1A
102
}
330
1A
100
AcDbPlotSettings
  1

  2
none_device
  4

  6

 40
0.0
 41
0.0
 42
0.0
 43
0.0
 44
0.0
 45
0.0
 46
0.0
 47
0.0
 48
0.0
 49
0.0
140
0.0
141
0.0
142
1.0
143
1.0
 70
  1712
 72
     0
 73
     0
 74
     0
  7

 75
     0
 76
     0
 77
     2
 78
   300
147
1.0
148
0.0
149
0.0
100
AcDbLayout
  1
Model
 70
     1
 71
     0
 10
0.0
 20
0.0
 11
12.0
 21
9.0
 12
0.0
 22
0.0
 32
0.0
 14
-36.0
 24
-0.0000000000000054
 34
0.0
 15
93.0
 25
82.80999999999995
 35
0.0
146
0.0
 13
0.0
 23
0.0
 33
0.0
 16
1.0
 26
0.0
 36
0.0
 17
0.0
 27
1.0
 37
0.0
 76
     0
330
1F
331
29
  0
MLINESTYLE
  5
18
102
{ACAD_REACTORS
330
17
102
}
330
17
100
AcDbMlineStyle
  2
Standard
 70
     0
  3

 62
   256
 51
90.0
 52
90.0
 71
     2
 49
0.5
 62
   256
  6
BYLAYER
 49
-0.5
 62
   256
  6
BYLAYER
  0
ACDBPLACEHOLDER
  5
F
102
{ACAD_REACTORS
330
E
102
}
330
E
  0
VISUALSTYLE
  5
2F
102
{ACAD_REACTORS
330
2A
102
}
330
2A
100
AcDbVisualStyle
  2
2dWireframe
 70
     4
 71
     0
 72
     2
 73
     0
 90
        0
 40
-0.6
 41
-30.0
 62
     5
 63
     7
421
 16777215
 74
     1
 91
        4
 64
     7
 65
   257
 75
     1
175
     1
 42
1.0
 92
        0
 66
   257
 43
1.0
 76
     1
 77
     6
 78
     2
 67
     7
 79
     5
170
     0
171
     0
290
     0
174
     0
 93
        1
 44
0.0
173
     0
291
     0
 45
0.0
1001
ACAD
1000
AcDbSavedByObjectVersion
1070
     0
  0
VISUALSTYLE
  5
31
102
{ACAD_REACTORS
330
2A
102
}
330
2A
100
AcDbVisualStyle
  2
3D Hidden
 70
     6
 71
     1
 72
     2
 73
     2
 90
        0
 40
-0.6
 41
-30.0
 62
     5
 63
     7
421
 16777215
 74
     2
 91
        2
 64
     7
 65
   257
 75
     2
175
     1
 42
40.0
 92
        0
 66
   257
 43
1.0
 76
     1
 77
     6
 78
     2
 67
     7
 79
     3
170
     0
171
     0
290
     0
174
     0
 93
        1
 44
0.0
173
     0
291
     0
 45
0.0
1001
ACAD
1000
AcDbSavedByObjectVersion
1070
     0
  0
VISUALSTYLE
  5
30
102
{ACAD_REACTORS
330
2A
102
}
330
2A
100
AcDbVisualStyle
  2
3dWireframe
 70
     5
 71
     0
 72
     2
 73
     0
 90
        0
 40
-0.6
 41
-30.0
 62
     5
 63
     7
421
 16777215
 74
     1
 91
        4
 64
     7
 65
   257
 75
     1
175
     1
 42
1.0
 92
        0
 66
   257
 43
1.0
 76
     1
 77
     6
 78
     2
 67
     7
 79
     5
170
     0
171
     0
290
     0
174
     0
 93
        1
 44
0.0
173
     0
291
     0
 45
0.0
1001
ACAD
1000
AcDbSavedByObjectVersion
1070
     0
  0
VISUALSTYLE
  5
32
102
{ACAD_REACTORS
330
2A
102
}
330
2A
100
AcDbVisualStyle
  2
Basic
 70
     7
 71
     1
 72
     0
 73
     1
 90
        0
 40
-0.6
 41
-30.0
 62
     5
 63
     7
421
 16777215
 74
     0
 91
        4
 64
     7
 65
   257
 75
     1
175
     1
 42
1.0
 92
        8
 66
     7
 43
1.0
 76
     1
 77
     6
 78
     2
 67
     7
 79
     5
170
     0
171
     0
290
     0
174
     0
 93
        1
 44
0.0
173
     0
291
     1
 45
0.0
1001
ACAD
1000
AcDbSavedByObjectVersion
1070
     0
  0
VISUALSTYLE
  5
36
102
{ACAD_REACTORS
330
2A
102
}
330
2A
100
AcDbVisualStyle
  2
Brighten
 70
    12
 71
     2
 72
     2
 73
     0
 90
        0
 40
-0.6
 41
-30.0
 62
     5
 63
     7
421
 16777215
 74
     1
 91
        4
 64
     7
 65
   257
 75
     1
175
     1
 42
1.0
 92
        8
 66
     7
 43
1.0
 76
     1
 77
     6
 78
     2
 67
     7
 79
     5
170
     0
171
     0
290
     0
174
     0
 93
        1
 44
50.0
173
     0
291
     1
 45
0.0
1001
ACAD
1000
AcDbSavedByObjectVersion
1070
     0
  0
VISUALSTYLE
  5
3A
102
{ACAD_REACTORS
330
2A
102
}
330
2A
100
AcDbVisualStyle
  2
ColorChange
 70
    16
 71
     2
 72
     2
 73
     3
 90
        0
 40
-0.6
 41
-30.0
 62
     5
 63
     8
421
  8421504
 74
     1
 91
        4
 64
     7
 65
   257
 75
     1
175
     1
 42
1.0
 92
        8
 66
     8
424
  8421504
 43
1.0
 76
     1
 77
     6
 78
     2
 67
     7
 79
     5
170
     0
171
     0
290
     0
174
     0
 93
        1
 44
0.0
173
     0
291
     1
 45
0.0
1001
ACAD
1000
AcDbSavedByObjectVersion
1070
     0
  0
VISUALSTYLE
  5
34
102
{ACAD_REACTORS
330
2A
102
}
330
2A
100
AcDbVisualStyle
  2
Conceptual
 70
     9
 71
     3
 72
     2
 73
     0
 90
        0
 40
-0.6
 41
-30.0
 62
     5
 63
     7
421
 16777215
 74
     2
 91
        2
 64
     7
 65
   257
 75
     1
175
     1
 42
40.0
 92
        8
 66
     7
 43
1.0
 76
     1
 77
     6
 78
     2
 67
     7
 79
     3
170
     0
171
     0
290
     0
174
     0
 93
        1
 44
0.0
173
     0
291
     0
 45
0.0
1001
ACAD
1000
AcDbSavedByObjectVersion
1070
     0
  0
VISUALSTYLE
  5
35
102
{ACAD_REACTORS
330
2A
102
}
330
2A
100
AcDbVisualStyle
  2
Dim
 70
    11
 71
     2
 72
     2
 73
     0
 90
        0
 40
-0.6
 41
-30.0
 62
     5
 63
     7
421
 16777215
 74
     1
 91
        4
 64
     7
 65
   257
 75
     1
175
     1
 42
1.0
 92
        8
 66
     7
 43
1.0
 76
     1
 77
     6
 78
     2
 67
     7
 79
     5
170
     0
171
     0
290
     0
174
     0
 93
        1
 44
-50.0
173
     0
291
     1
 45
0.0
1001
ACAD
1000
AcDbSavedByObjectVersion
1070
     0
  0
VISUALSTYLE
  5
39
102
{ACAD_REACTORS
330
2A
102
}
330
2A
100
AcDbVisualStyle
  2
Facepattern
 70
    15
 71
     2
 72
     2
 73
     0
 90
        0
 40
-0.6
 41
-30.0
 62
     5
 63
     7
421
 16777215
 74
     1
 91
        4
 64
     7
 65
   257
 75
     1
175
     1
 42
1.0
 92
        8
 66
     7
 43
1.0
 76
     1
 77
     6
 78
     2
 67
     7
 79
     5
170
     0
171
     0
290
     0
174
     0
 93
        1
 44
0.0
173
     0
291
     1
 45
0.0
1001
ACAD
1000
AcDbSavedByObjectVersion
1070
     0
  0
VISUALSTYLE
  5
2B
102
{ACAD_REACTORS
330
2A
102
}
330
2A
100
AcDbVisualStyle
  2
Flat
 70
     0
 71
     2
 72
     1
 73
     1
 90
        2
 40
-0.6
 41
30.0
 62
     5
 63
     7
421
 16777215
 74
     0
 91
        4
 64
     7
 65
   257
 75
     1
175
     1
 42
1.0
 92
        8
 66
     7
 43
1.0
 76
     1
 77
     6
 78
     2
 67
     7
 79
     5
170
     0
171
     0
290
     0
174
     0
 93
       13
 44
0.0
173
     0
291
     1
 45
0.0
1001
ACAD
1000
AcDbSavedByObjectVersion
1070
     0
  0
VISUALSTYLE
  5
2C
102
{ACAD_REACTORS
330
2A
102
}
330
2A
100
AcDbVisualStyle
  2
FlatWithEdges
 70
     1
 71
     2
 72
     1
 73
     1
 90
        2
 40
-0.6
 41
30.0
 62
     5
 63
     7
421
 16777215
 74
     1
 91
        4
 64
     7
 65
   257
 75
     1
175
     1
 42
1.0
 92
        0
 66
   257
 43
1.0
 76
     1
 77
     6
 78
     2
 67
     7
 79
     5
170
     0
171
     0
290
     0
174
     0
 93
       13
 44
0.0
173
     0
291
     1
 45
0.0
1001
ACAD
1000
AcDbSavedByObjectVersion
1070
     0
  0
VISUALSTYLE
  5
2D
102
{ACAD_REACTORS
330
2A
102
}
330
2A
100
AcDbVisualStyle
  2
Gouraud
 70
     2
 71
     2
 72
     2
 73
     1
 90
        2
 40
-0.6
 41
30.0
 62
     5
 63
     7
421
 16777215
 74
     0
 91
        4
 64
     7
 65
   257
 75
     1
175
     1
 42
1.0
 92
        0
 66
     7
 43
1.0
 76
     1
 77
     6
 78
     2
 67
     7
 79
     5
170
     0
171
     0
290
     0
174
     0
 93
       13
 44
0.0
173
     0
291
     1
 45
0.0
1001
ACAD
1000
AcDbSavedByObjectVersion
1070
     0
  0
VISUALSTYLE
  5
2E
102
{ACAD_REACTORS
330
2A
102
}
330
2A
100
AcDbVisualStyle
  2
GouraudWithEdges
 70
     3
 71
     2
 72
     2
 73
     1
 90
        2
 40
-0.6
 41
30.0
 62
     5
 63
     7
421
 16777215
 74
     1
 91
        4
 64
     7
 65
   257
 75
     1
175
     1
 42
1.0
 92
        0
 66
   257
 43
1.0
 76
     1
 77
     6
 78
     2
 67
     7
 79
     5
170
     0
171
     0
290
     0
174
     0
 93
       13
 44
0.0
173
     0
291
     1
 45
0.0
1001
ACAD
1000
AcDbSavedByObjectVersion
1070
     0
  0
VISUALSTYLE
  5
38
102
{ACAD_REACTORS
330
2A
102
}
330
2A
100
AcDbVisualStyle
  2
Linepattern
 70
    14
 71
     2
 72
     2
 73
     0
 90
        0
 40
-0.6
 41
-30.0
 62
     5
 63
     7
421
 16777215
 74
     1
 91
        4
 64
     7
 65
   257
 75
     7
175
     7
 42
1.0
 92
        8
 66
     7
 43
1.0
 76
     1
 77
     6
 78
     2
 67
     7
 79
     5
170
     0
171
     0
290
     0
174
     0
 93
        1
 44
0.0
173
     0
291
     1
 45
0.0
1001
ACAD
1000
AcDbSavedByObjectVersion
1070
     0
  0
VISUALSTYLE
  5
33
102
{ACAD_REACTORS
330
2A
102
}
330
2A
100
AcDbVisualStyle
  2
Realistic
 70
     8
 71
     2
 72
     2
 73
     0
 90
        0
 40
-0.6
 41
-30.0
 62
     5
 63
     7
421
 16777215
 74
     1
 91
        0
 64
     7
 65
   257
 75
     1
175
     1
 42
1.0
 92
        8
 66
     8
424
  7895160
 43
1.0
 76
     1
 77
     6
 78
     2
 67
     7
 79
     5
170
     0
171
     0
290
     0
174
     0
 93
       13
 44
0.0
173
     0
291
     0
 45
0.0
1001
ACAD
1000
AcDbSavedByObjectVersion
1070
     0
  0
VISUALSTYLE
  5
37
102
{ACAD_REACTORS
330
2A
102
}
330
2A
100
AcDbVisualStyle
  2
Thicken
 70
    13
 71
     2
 72
     2
 73
     0
 90
        0
 40
-0.6
 41
-30.0
 62
     5
 63
     7
421
 16777215
 74
     1
 91
        4
 64
     7
 65
   257
 75
     1
175
     1
 42
1.0
 92
       12
 66
     7
 43
1.0
 76
     1
 77
     6
 78
     2
 67
     7
 79
     5
170
     0
171
     0
290
     0
174
     0
 93
        1
 44
0.0
173
     0
291
     1
 45
0.0
1001
ACAD
1000
AcDbSavedByObjectVersion
1070
     0
  0
ENDSEC
  0
EOF
