  0
SECTION
  2
HEADER
  9
$ACADVER
  1
AC1018
  9
$ACADMAINTVER
 70
     0
  9
$DWGCODEPAGE
  3
ANSI_1252
  9
$INSBASE
 10
0.0
 20
0.0
 30
0.0
  9
$EXTMIN
 10
-48.00000000000001
 20
-0.0000000000002204
 30
0.0
  9
$EXTMAX
 10
101.0
 20
73.81599999999989
 30
0.0
  9
$LIMMIN
 10
0.0
 20
0.0
  9
$LIMMAX
 10
12.0
 20
9.0
  9
$ORTHOMODE
 70
     0
  9
$REGENMODE
 70
     1
  9
$FILLMODE
 70
     1
  9
$QTEXTMODE
 70
     0
  9
$MIRRTEXT
 70
     1
  9
$LTSCALE
 40
0.0393700787401575
  9
$ATTMODE
 70
     1
  9
$TEXTSIZE
 40
0.2
  9
$TRACEWID
 40
0.05
  9
$TEXTSTYLE
  7
Standard
  9
$CLAYER
  8
Default
  9
$CELTYPE
  6
ByLayer
  9
$CECOLOR
 62
   256
  9
$CELTSCALE
 40
1.0
  9
$DISPSILH
 70
     0
  9
$DIMSCALE
 40
1.0
  9
$DIMASZ
 40
0.18
  9
$DIMEXO
 40
0.0625
  9
$DIMDLI
 40
0.38
  9
$DIMRND
 40
0.0
  9
$DIMDLE
 40
0.0
  9
$DIMEXE
 40
0.18
  9
$DIMTP
 40
0.0
  9
$DIMTM
 40
0.0
  9
$DIMTXT
 40
0.18
  9
$DIMCEN
 40
0.09
  9
$DIMTSZ
 40
0.0
  9
$DIMTOL
 70
     0
  9
$DIMLIM
 70
     0
  9
$DIMTIH
 70
     1
  9
$DIMTOH
 70
     1
  9
$DIMSE1
 70
     0
  9
$DIMSE2
 70
     0
  9
$DIMTAD
 70
     0
  9
$DIMZIN
 70
     0
  9
$DIMBLK
  1

  9
$DIMASO
 70
     1
  9
$DIMSHO
 70
     1
  9
$DIMPOST
  1

  9
$DIMAPOST
  1

  9
$DIMALT
 70
     0
  9
$DIMALTD
 70
     2
  9
$DIMALTF
 40
25.4
  9
$DIMLFAC
 40
1.0
  9
$DIMTOFL
 70
     0
  9
$DIMTVP
 40
0.0
  9
$DIMTIX
 70
     0
  9
$DIMSOXD
 70
     0
  9
$DIMSAH
 70
     0
  9
$DIMBLK1
  1

  9
$DIMBLK2
  1

  9
$DIMSTYLE
  2
Standard
  9
$DIMCLRD
 70
     0
  9
$DIMCLRE
 70
     0
  9
$DIMCLRT
 70
     0
  9
$DIMTFAC
 40
1.0
  9
$DIMGAP
 40
0.09
  9
$DIMJUST
 70
     0
  9
$DIMSD1
 70
     0
  9
$DIMSD2
 70
     0
  9
$DIMTOLJ
 70
     1
  9
$DIMTZIN
 70
     0
  9
$DIMALTZ
 70
     0
  9
$DIMALTTZ
 70
     0
  9
$DIMUPT
 70
     0
  9
$DIMDEC
 70
     4
  9
$DIMTDEC
 70
     4
  9
$DIMALTU
 70
     2
  9
$DIMALTTD
 70
     2
  9
$DIMTXSTY
  7
Standard
  9
$DIMAUNIT
 70
     0
  9
$DIMADEC
 70
     0
  9
$DIMALTRND
 40
0.0
  9
$DIMAZIN
 70
     0
  9
$DIMDSEP
 70
    46
  9
$DIMATFIT
 70
     3
  9
$DIMFRAC
 70
     0
  9
$DIMLDRBLK
  1

  9
$DIMLUNIT
 70
     2
  9
$DIMLWD
 70
    -2
  9
$DIMLWE
 70
    -2
  9
$DIMTMOVE
 70
     2
  9
$LUNITS
 70
     2
  9
$LUPREC
 70
     4
  9
$SKETCHINC
 40
0.1
  9
$FILLETRAD
 40
0.5
  9
$AUNITS
 70
     0
  9
$AUPREC
 70
     0
  9
$MENU
  1
.
  9
$ELEVATION
 40
0.0
  9
$PELEVATION
 40
0.0
  9
$THICKNESS
 40
0.0
  9
$LIMCHECK
 70
     0
  9
$CHAMFERA
 40
0.5
  9
$CHAMFERB
 40
0.5
  9
$CHAMFERC
 40
1.0
  9
$CHAMFERD
 40
0.0
  9
$SKPOLY
 70
     0
  9
$TDCREATE
 40
2456790.661918426
  9
$TDUCREATE
 40
2456790.828585092
  9
$TDUPDATE
 40
2456790.661918438
  9
$TDUUPDATE
 40
2456790.828585104
  9
$TDINDWG
 40
0.0000000116
  9
$TDUSRTIMER
 40
0.0000000116
  9
$USRTIMER
 70
     1
  9
$ANGBASE
 50
0.0
  9
$ANGDIR
 70
     0
  9
$PDMODE
 70
     0
  9
$PDSIZE
 40
0.0
  9
$PLINEWID
 40
0.0
  9
$SPLFRAME
 70
     0
  9
$SPLINETYPE
 70
     6
  9
$SPLINESEGS
 70
     8
  9
$HANDSEED
  5
94
  9
$SURFTAB1
 70
     6
  9
$SURFTAB2
 70
     6
  9
$SURFTYPE
 70
     6
  9
$SURFU
 70
     6
  9
$SURFV
 70
     6
  9
$UCSBASE
  2

  9
$UCSNAME
  2

  9
$UCSORG
 10
0.0
 20
0.0
 30
0.0
  9
$UCSXDIR
 10
1.0
 20
0.0
 30
0.0
  9
$UCSYDIR
 10
0.0
 20
1.0
 30
0.0
  9
$UCSORTHOREF
  2

  9
$UCSORTHOVIEW
 70
     0
  9
$UCSORGTOP
 10
0.0
 20
0.0
 30
0.0
  9
$UCSORGBOTTOM
 10
0.0
 20
0.0
 30
0.0
  9
$UCSORGLEFT
 10
0.0
 20
0.0
 30
0.0
  9
$UCSORGRIGHT
 10
0.0
 20
0.0
 30
0.0
  9
$UCSORGFRONT
 10
0.0
 20
0.0
 30
0.0
  9
$UCSORGBACK
 10
0.0
 20
0.0
 30
0.0
  9
$PUCSBASE
  2

  9
$PUCSNAME
  2

  9
$PUCSORG
 10
0.0
 20
0.0
 30
0.0
  9
$PUCSXDIR
 10
1.0
 20
0.0
 30
0.0
  9
$PUCSYDIR
 10
0.0
 20
1.0
 30
0.0
  9
$PUCSORTHOREF
  2

  9
$PUCSORTHOVIEW
 70
     0
  9
$PUCSORGTOP
 10
0.0
 20
0.0
 30
0.0
  9
$PUCSORGBOTTOM
 10
0.0
 20
0.0
 30
0.0
  9
$PUCSORGLEFT
 10
0.0
 20
0.0
 30
0.0
  9
$PUCSORGRIGHT
 10
0.0
 20
0.0
 30
0.0
  9
$PUCSORGFRONT
 10
0.0
 20
0.0
 30
0.0
  9
$PUCSORGBACK
 10
0.0
 20
0.0
 30
0.0
  9
$USERI1
 70
     0
  9
$USERI2
 70
     0
  9
$USERI3
 70
     0
  9
$USERI4
 70
     0
  9
$USERI5
 70
     0
  9
$USERR1
 40
0.0
  9
$USERR2
 40
0.0
  9
$USERR3
 40
0.0
  9
$USERR4
 40
0.0
  9
$USERR5
 40
0.0
  9
$WORLDVIEW
 70
     1
  9
$SHADEDGE
 70
     3
  9
$SHADEDIF
 70
    70
  9
$TILEMODE
 70
     1
  9
$MAXACTVP
 70
    64
  9
$PINSBASE
 10
0.0
 20
0.0
 30
0.0
  9
$PLIMCHECK
 70
     0
  9
$PEXTMIN
 10
1.000000000000000E+20
 20
1.000000000000000E+20
 30
1.000000000000000E+20
  9
$PEXTMAX
 10
-1.000000000000000E+20
 20
-1.000000000000000E+20
 30
-1.000000000000000E+20
  9
$PLIMMIN
 10
0.0
 20
0.0
  9
$PLIMMAX
 10
12.0
 20
9.0
  9
$UNITMODE
 70
     0
  9
$VISRETAIN
 70
     1
  9
$PLINEGEN
 70
     0
  9
$PSLTSCALE
 70
     1
  9
$TREEDEPTH
 70
  3020
  9
$CMLSTYLE
  2
Standard
  9
$CMLJUST
 70
     0
  9
$CMLSCALE
 40
1.0
  9
$PROXYGRAPHICS
 70
     1
  9
$MEASUREMENT
 70
     0
  9
$CELWEIGHT
370
    -1
  9
$ENDCAPS
280
     0
  9
$JOINSTYLE
280
     0
  9
$LWDISPLAY
290
     0
  9
$INSUNITS
 70
     1
  9
$HYPERLINKBASE
  1

  9
$STYLESHEET
  1

  9
$XEDIT
290
     1
  9
$CEPSNTYPE
380
     0
  9
$PSTYLEMODE
290
     1
  9
$FINGERPRINTGUID
  2
{414048D5-0C5A-4513-B285-EE02C7E5C6D7}
  9
$VERSIONGUID
  2
{FAEB1C32-E019-11D5-929B-00C0DF256EC4}
  9
$EXTNAMES
290
     1
  9
$PSVPSCALE
 40
0.0
  9
$OLESTARTUP
290
     0
  9
$SORTENTS
280
   127
  9
$INDEXCTL
280
     0
  9
$HIDETEXT
280
     1
  9
$XCLIPFRAME
290
     0
  9
$HALOGAP
280
     0
  9
$OBSCOLOR
 70
   257
  9
$OBSLTYPE
280
     0
  9
$INTERSECTIONDISPLAY
280
     0
  9
$INTERSECTIONCOLOR
 70
   257
  9
$DIMASSOC
280
     2
  9
$PROJECTNAME
  1

  0
ENDSEC
  0
SECTION
  2
CLASSES
  0
CLASS
  1
ACDBDICTIONARYWDFLT
  2
AcDbDictionaryWithDefault
  3
ObjectDBX Classes
 90
        0
 91
        4
280
     0
281
     0
  0
CLASS
  1
VISUALSTYLE
  2
AcDbVisualStyle
  3
ObjectDBX Classes
 90
     4095
 91
        4
280
     0
281
     0
  0
ENDSEC
  0
SECTION
  2
TABLES
  0
TABLE
  2
VPORT
  5
8
330
0
100
AcDbSymbolTable
 70
     1
  0
VPORT
  5
29
330
8
100
AcDbSymbolTableRecord
100
AcDbViewportTableRecord
  2
*Active
 70
     0
 10
0.0
 20
0.0
 11
1.0
 21
1.0
 12
26.5
 22
36.90799999999983
 13
0.0
 23
0.0
 14
0.5
 24
0.5
 15
0.5
 25
0.5
 16
0.0
 26
0.0
 36
1.0
 17
0.0
 27
0.0
 37
0.0
 40
75.29232000000012
 41
2.018532567465045
 42
50.0
 43
0.0
 44
0.0
 50
0.0
 51
0.0
 71
     0
 72
   100
 73
     1
 74
     3
 75
     0
 76
     0
 77
     0
 78
     0
281
     0
 65
     1
110
0.0
120
0.0
130
0.0
111
1.0
121
0.0
131
0.0
112
0.0
122
1.0
132
0.0
 79
     0
146
0.0
  0
ENDTAB
  0
TABLE
  2
LTYPE
  5
5
330
0
100
AcDbSymbolTable
 70
     1
  0
LTYPE
  5
14
330
5
100
AcDbSymbolTableRecord
100
AcDbLinetypeTableRecord
  2
ByBlock
 70
     0
  3

 72
    65
 73
     0
 40
0.0
  0
LTYPE
  5
15
330
5
100
AcDbSymbolTableRecord
100
AcDbLinetypeTableRecord
  2
ByLayer
 70
     0
  3

 72
    65
 73
     0
 40
0.0
  0
LTYPE
  5
16
330
5
100
AcDbSymbolTableRecord
100
AcDbLinetypeTableRecord
  2
Continuous
 70
     0
  3
Solid line
 72
    65
 73
     0
 40
0.0
  0
ENDTAB
  0
TABLE
  2
LAYER
  5
2
330
0
100
AcDbSymbolTable
 70
     3
  0
LAYER
  5
10
330
2
100
AcDbSymbolTableRecord
100
AcDbLayerTableRecord
  2
0
 70
     0
 62
     7
  6
Continuous
370
    -3
390
F
  0
LAYER
  5
3B
330
2
100
AcDbSymbolTableRecord
100
AcDbLayerTableRecord
  2
Layer 04
 70
     0
 62
     7
  6
Continuous
370
    -3
390
F
  0
LAYER
  5
7A
330
2
100
AcDbSymbolTableRecord
100
AcDbLayerTableRecord
  2
Default
 70
     0
 62
     7
  6
Continuous
370
    -3
390
F
  0
ENDTAB
  0
TABLE
  2
STYLE
  5
3
330
0
100
AcDbSymbolTable
 70
     1
  0
STYLE
  5
11
330
3
100
AcDbSymbolTableRecord
100
AcDbTextStyleTableRecord
  2
Standard
 70
     0
 40
0.0
 41
1.0
 50
0.0
 71
     0
 42
0.2
  3
txt
  4

  0
ENDTAB
  0
TABLE
  2
VIEW
  5
6
330
0
100
AcDbSymbolTable
 70
     0
  0
ENDTAB
  0
TABLE
  2
UCS
  5
7
330
0
100
AcDbSymbolTable
 70
     0
  0
ENDTAB
  0
TABLE
  2
APPID
  5
9
330
0
100
AcDbSymbolTable
 70
     1
  0
APPID
  5
12
330
9
100
AcDbSymbolTableRecord
100
AcDbRegAppTableRecord
  2
ACAD
 70
     0
  0
ENDTAB
  0
TABLE
  2
DIMSTYLE
  5
A
330
0
100
AcDbSymbolTable
 70
     1
100
AcDbDimStyleTable
  0
DIMSTYLE
105
27
330
A
100
AcDbSymbolTableRecord
100
AcDbDimStyleTableRecord
  2
Standard
 70
     0
340
11
  0
ENDTAB
  0
TABLE
  2
BLOCK_RECORD
  5
1
330
0
100
AcDbSymbolTable
 70
     1
  0
BLOCK_RECORD
  5
1F
330
1
100
AcDbSymbolTableRecord
100
AcDbBlockTableRecord
  2
*Model_Space
340
22
  0
BLOCK_RECORD
  5
1B
330
1
100
AcDbSymbolTableRecord
100
AcDbBlockTableRecord
  2
*Paper_Space
340
1E
  0
BLOCK_RECORD
  5
23
330
1
100
AcDbSymbolTableRecord
100
AcDbBlockTableRecord
  2
*Paper_Space0
340
26
  0
ENDTAB
  0
ENDSEC
  0
SECTION
  2
BLOCKS
  0
BLOCK
  5
20
330
1F
100
AcDbEntity
  8
0
100
AcDbBlockBegin
  2
*Model_Space
 70
     0
 10
0.0
 20
0.0
 30
0.0
  3
*Model_Space
  1

  0
ENDBLK
  5
21
330
1F
100
AcDbEntity
  8
0
100
AcDbBlockEnd
  0
BLOCK
  5
1C
330
1B
100
AcDbEntity
 67
     1
  8
0
100
AcDbBlockBegin
  2
*Paper_Space
 70
     0
 10
0.0
 20
0.0
 30
0.0
  3
*Paper_Space
  1

  0
ENDBLK
  5
1D
330
1B
100
AcDbEntity
 67
     1
  8
0
100
AcDbBlockEnd
  0
BLOCK
  5
24
330
23
100
AcDbEntity
  8
0
100
AcDbBlockBegin
  2
*Paper_Space0
 70
     0
 10
0.0
 20
0.0
 30
0.0
  3
*Paper_Space0
  1

  0
ENDBLK
  5
25
330
23
100
AcDbEntity
  8
0
100
AcDbBlockEnd
  0
ENDSEC
  0
SECTION
  2
ENTITIES
  0
LINE
  5
3C
330
1F
100
AcDbEntity
  8
Layer 04
  6
Continuous
100
AcDbLine
 10
89.0
 20
13.81100000000011
 30
0.0
 11
89.0
 21
11.0759999999999
 31
0.0
  0
ARC
  5
3D
330
1F
100
AcDbEntity
  8
Layer 04
  6
Continuous
100
AcDbCircle
 10
92.62355725779977
 20
0.0937678609001153
 30
0.0
 40
0.0937678609
100
AcDbArc
 50
118.7203267979021
 51
270.0
  0
LINE
  5
3E
330
1F
100
AcDbEntity
  8
Layer 04
  6
Continuous
100
AcDbLine
 10
93.83343984509978
 20
0.0000000000001153
 30
0.0
 11
92.62355725779977
 21
0.0000000000001153
 31
0.0
  0
ARC
  5
3F
330
1F
100
AcDbEntity
  8
Layer 04
  6
Continuous
100
AcDbCircle
 10
93.83343984509978
 20
0.0937678609001153
 30
0.0
 40
0.0937678609
100
AcDbArc
 50
270.0
 51
61.27967320209791
  0
LINE
  5
40
330
1F
100
AcDbEntity
  8
Layer 04
100
AcDbLine
 10
89.84521504479977
 20
11.08100000000012
 30
0.0
 11
89.01999999999978
 21
11.08100000000012
 31
0.0
  0
SPLINE
  5
41
330
1F
100
AcDbEntity
  8
Layer 04
100
AcDbSpline
210
0.0
220
0.0
230
1.0
 70
     8
 71
     5
 72
    12
 73
     6
 74
     0
 42
0.0000000001
 43
0.0000000001
 40
0.0
 40
0.0
 40
0.0
 40
0.0
 40
0.0
 40
0.0
 40
1.0
 40
1.0
 40
1.0
 40
1.0
 40
1.0
 40
1.0
 10
91.0019406886585
 20
10.04074447879685
 30
0.0
 10
90.95406078835356
 20
10.34817470783908
 30
0.0
 10
90.90618088804862
 20
10.65560493688131
 30
0.0
 10
90.46748775216261
 20
11.08100000000012
 30
0.0
 10
90.1563513984812
 20
11.08100000000012
 30
0.0
 10
89.84521504479977
 20
11.08100000000012
 30
0.0
  0
POLYLINE
  5
42
330
1F
100
AcDbEntity
  8
Layer 04
100
AcDb2dPolyline
 66
     1
 10
0.0
 20
0.0
 30
0.0
  0
VERTEX
  5
43
330
42
100
AcDbEntity
  8
Layer 04
100
AcDbVertex
100
AcDb2dVertex
 10
92.52740238949977
 20
0.2459655194001158
 30
0.0
  0
VERTEX
  5
44
330
42
100
AcDbEntity
  8
Layer 04
100
AcDbVertex
100
AcDb2dVertex
 10
91.0019406886585
 20
10.04074447879685
 30
0.0
  0
SEQEND
  5
45
330
42
100
AcDbEntity
  8
Layer 04
  0
SPLINE
  5
46
330
1F
100
AcDbEntity
  8
Layer 04
100
AcDbSpline
210
0.0
220
0.0
230
1.0
 70
     8
 71
     5
 72
    12
 73
     6
 74
     0
 42
0.0000000001
 43
0.0000000001
 40
0.0
 40
0.0
 40
0.0
 40
0.0
 40
0.0
 40
0.0
 40
1.0
 40
1.0
 40
1.0
 40
1.0
 40
1.0
 40
1.0
 10
92.5966820241998
 20
0.1860000000001136
 30
0.0
 10
92.57835659781884
 20
0.1860000000001136
 30
0.0
 10
92.56003117143791
 20
0.1860000000001136
 30
0.0
 10
92.53304248637554
 20
0.2097512360935968
 30
0.0
 10
92.53022243793765
 20
0.2278583777468563
 30
0.0
 10
92.52740238949977
 20
0.2459655194001158
 30
0.0
  0
POLYLINE
  5
47
330
1F
100
AcDbEntity
  8
Layer 04
100
AcDb2dPolyline
 66
     1
 10
0.0
 20
0.0
 30
0.0
  0
VERTEX
  5
48
330
47
100
AcDbEntity
  8
Layer 04
100
AcDbVertex
100
AcDb2dVertex
 10
93.83380938000991
 20
0.1860000000001136
 30
0.0
  0
VERTEX
  5
49
330
47
100
AcDbEntity
  8
Layer 04
100
AcDbVertex
100
AcDb2dVertex
 10
92.5966820241998
 20
0.1860000000001136
 30
0.0
  0
SEQEND
  5
4A
330
47
100
AcDbEntity
  8
Layer 04
  0
SPLINE
  5
4B
330
1F
100
AcDbEntity
  8
Layer 04
100
AcDbSpline
210
0.0
220
0.0
230
1.0
 70
     8
 71
     5
 72
    12
 73
     6
 74
     0
 42
0.0000000001
 43
0.0000000001
 40
0.0
 40
0.0
 40
0.0
 40
0.0
 40
0.0
 40
0.0
 40
1.0
 40
1.0
 40
1.0
 40
1.0
 40
1.0
 40
1.0
 10
93.88950212881517
 20
0.2646177197647258
 30
0.0
 10
93.89183407349836
 20
0.2454902745821212
 30
0.0
 10
93.89416601818152
 20
0.2263628293995168
 30
0.0
 10
93.87234752346384
 20
0.1860000000001136
 30
0.0
 10
93.85307845173688
 20
0.1860000000001136
 30
0.0
 10
93.83380938000991
 20
0.1860000000001136
 30
0.0
  0
POLYLINE
  5
4C
330
1F
100
AcDbEntity
  8
Layer 04
100
AcDb2dPolyline
 66
     1
 10
0.0
 20
0.0
 30
0.0
  0
VERTEX
  5
4D
330
4C
100
AcDbEntity
  8
Layer 04
100
AcDbVertex
100
AcDb2dVertex
 10
92.23736962725033
 20
13.81600000000012
 30
0.0
  0
VERTEX
  5
4E
330
4C
100
AcDbEntity
  8
Layer 04
100
AcDbVertex
100
AcDb2dVertex
 10
93.88950212881517
 20
0.2646177197647258
 30
0.0
  0
SEQEND
  5
4F
330
4C
100
AcDbEntity
  8
Layer 04
  0
LINE
  5
50
330
1F
100
AcDbEntity
  8
Layer 04
  6
Continuous
100
AcDbLine
 10
69.0
 20
11.0759999999999
 30
0.0
 11
69.0
 21
13.81099999999989
 31
0.0
  0
ARC
  5
51
330
1F
100
AcDbEntity
  8
Layer 04
  6
Continuous
100
AcDbCircle
 10
65.37644274220023
 20
0.0937678608998951
 30
0.0
 40
0.0937678609
100
AcDbArc
 50
270.0
 51
61.27967320209792
  0
LINE
  5
52
330
1F
100
AcDbEntity
  8
Layer 04
  6
Continuous
100
AcDbLine
 10
64.16656015490022
 20
-0.0000000000001049
 30
0.0
 11
65.37644274220023
 21
-0.0000000000001049
 31
0.0
  0
ARC
  5
53
330
1F
100
AcDbEntity
  8
Layer 04
  6
Continuous
100
AcDbCircle
 10
64.16656015490022
 20
0.0937678608998951
 30
0.0
 40
0.0937678609
100
AcDbArc
 50
118.7203267979022
 51
270.0
  0
LINE
  5
54
330
1F
100
AcDbEntity
  8
Layer 04
100
AcDbLine
 10
68.15478495520023
 20
11.0809999999999
 30
0.0
 11
68.98000000000022
 21
11.0809999999999
 31
0.0
  0
SPLINE
  5
55
330
1F
100
AcDbEntity
  8
Layer 04
100
AcDbSpline
210
0.0
220
0.0
230
1.0
 70
     8
 71
     5
 72
    12
 73
     6
 74
     0
 42
0.0000000001
 43
0.0000000001
 40
0.0
 40
0.0
 40
0.0
 40
0.0
 40
0.0
 40
0.0
 40
1.0
 40
1.0
 40
1.0
 40
1.0
 40
1.0
 40
1.0
 10
66.9980593113415
 20
10.04074447879663
 30
0.0
 10
67.04593921164644
 20
10.34817470783886
 30
0.0
 10
67.09381911195138
 20
10.65560493688109
 30
0.0
 10
67.53251224783739
 20
11.0809999999999
 30
0.0
 10
67.8436486015188
 20
11.0809999999999
 30
0.0
 10
68.15478495520023
 20
11.0809999999999
 30
0.0
  0
POLYLINE
  5
56
330
1F
100
AcDbEntity
  8
Layer 04
100
AcDb2dPolyline
 66
     1
 10
0.0
 20
0.0
 30
0.0
  0
VERTEX
  5
57
330
56
100
AcDbEntity
  8
Layer 04
100
AcDbVertex
100
AcDb2dVertex
 10
65.47259761050023
 20
0.2459655193998956
 30
0.0
  0
VERTEX
  5
58
330
56
100
AcDbEntity
  8
Layer 04
100
AcDbVertex
100
AcDb2dVertex
 10
66.9980593113415
 20
10.04074447879663
 30
0.0
  0
SEQEND
  5
59
330
56
100
AcDbEntity
  8
Layer 04
  0
SPLINE
  5
5A
330
1F
100
AcDbEntity
  8
Layer 04
100
AcDbSpline
210
0.0
220
0.0
230
1.0
 70
     8
 71
     5
 72
    12
 73
     6
 74
     0
 42
0.0000000001
 43
0.0000000001
 40
0.0
 40
0.0
 40
0.0
 40
0.0
 40
0.0
 40
0.0
 40
1.0
 40
1.0
 40
1.0
 40
1.0
 40
1.0
 40
1.0
 10
65.4033179758002
 20
0.1859999999998934
 30
0.0
 10
65.42164340218115
 20
0.1859999999998934
 30
0.0
 10
65.43996882856209
 20
0.1859999999998934
 30
0.0
 10
65.46695751362446
 20
0.2097512360933766
 30
0.0
 10
65.46977756206235
 20
0.2278583777466361
 30
0.0
 10
65.47259761050023
 20
0.2459655193998956
 30
0.0
  0
POLYLINE
  5
5B
330
1F
100
AcDbEntity
  8
Layer 04
100
AcDb2dPolyline
 66
     1
 10
0.0
 20
0.0
 30
0.0
  0
VERTEX
  5
5C
330
5B
100
AcDbEntity
  8
Layer 04
100
AcDbVertex
100
AcDb2dVertex
 10
64.16619061999009
 20
0.1859999999998934
 30
0.0
  0
VERTEX
  5
5D
330
5B
100
AcDbEntity
  8
Layer 04
100
AcDbVertex
100
AcDb2dVertex
 10
65.4033179758002
 20
0.1859999999998934
 30
0.0
  0
SEQEND
  5
5E
330
5B
100
AcDbEntity
  8
Layer 04
  0
SPLINE
  5
5F
330
1F
100
AcDbEntity
  8
Layer 04
100
AcDbSpline
210
0.0
220
0.0
230
1.0
 70
     8
 71
     5
 72
    12
 73
     6
 74
     0
 42
0.0000000001
 43
0.0000000001
 40
0.0
 40
0.0
 40
0.0
 40
0.0
 40
0.0
 40
0.0
 40
1.0
 40
1.0
 40
1.0
 40
1.0
 40
1.0
 40
1.0
 10
64.11049787118483
 20
0.2646177197645055
 30
0.0
 10
64.10816592650163
 20
0.245490274581901
 30
0.0
 10
64.10583398181848
 20
0.2263628293992966
 30
0.0
 10
64.12765247653616
 20
0.1859999999998934
 30
0.0
 10
64.14692154826312
 20
0.1859999999998934
 30
0.0
 10
64.16619061999009
 20
0.1859999999998934
 30
0.0
  0
POLYLINE
  5
60
330
1F
100
AcDbEntity
  8
Layer 04
100
AcDb2dPolyline
 66
     1
 10
0.0
 20
0.0
 30
0.0
  0
VERTEX
  5
61
330
60
100
AcDbEntity
  8
Layer 04
100
AcDbVertex
100
AcDb2dVertex
 10
65.76263037274967
 20
13.8159999999999
 30
0.0
  0
VERTEX
  5
62
330
60
100
AcDbEntity
  8
Layer 04
100
AcDbVertex
100
AcDb2dVertex
 10
64.11049787118483
 20
0.2646177197645055
 30
0.0
  0
SEQEND
  5
63
330
60
100
AcDbEntity
  8
Layer 04
  0
SPLINE
  5
64
330
1F
100
AcDbEntity
  8
Layer 04
  6
Continuous
100
AcDbSpline
210
0.0
220
0.0
230
1.0
 70
    24
 71
     2
 72
     6
 73
     3
 74
     0
 42
0.0000000001
 43
0.0000000001
 40
0.0
 40
0.0
 40
0.0
 40
2.735000000000211
 40
2.735000000000211
 40
2.735000000000211
 10
35.99999999999978
 20
13.81100000000023
 30
0.0
 10
35.99999999999989
 20
12.44350000000012
 30
0.0
 10
36.0
 20
11.07600000000001
 30
0.0
  0
SPLINE
  5
65
330
1F
100
AcDbEntity
  8
Layer 04
  6
Continuous
100
AcDbSpline
210
0.0
220
0.0
230
1.0
 70
    12
 71
     2
 72
     8
 73
     5
 74
     0
 42
0.0000000001
 43
0.0000000001
 40
0.0
 40
0.0
 40
0.0
 40
0.1237889725417989
 40
0.1237889725417989
 40
0.2475779450835977
 40
0.2475779450835977
 40
0.2475779450835977
 10
39.57849855139665
 20
0.1760000000858236
 30
0.0
 41
1.0
 10
39.51466696605951
 20
0.1410237889421428
 30
0.0
 41
0.7899418936709716
 10
39.53271909531718
 20
0.0705118944711865
 30
0.0
 41
1.0
 10
39.55077122457486
 20
0.0000000000002304
 30
0.0
 41
0.7899418936709716
 10
39.62355725779977
 20
0.0000000000002308
 30
0.0
 41
1.0
  0
SPLINE
  5
66
330
1F
100
AcDbEntity
  8
Layer 04
  6
Continuous
100
AcDbSpline
210
0.0
220
0.0
230
1.0
 70
    24
 71
     2
 72
     6
 73
     3
 74
     0
 42
0.0000000001
 43
0.0000000001
 40
0.0
 40
0.0
 40
0.0
 40
1.209882587300015
 40
1.209882587300015
 40
1.209882587300015
 10
40.83343984509979
 20
0.0000000000002308
 30
0.0
 10
40.22849855144977
 20
0.0000000000002308
 30
0.0
 10
39.62355725779977
 20
0.0000000000002308
 30
0.0
  0
SPLINE
  5
67
330
1F
100
AcDbEntity
  8
Layer 04
  6
Continuous
100
AcDbSpline
210
0.0
220
0.0
230
1.0
 70
    12
 71
     2
 72
     8
 73
     5
 74
     0
 42
0.0000000001
 43
0.0000000001
 40
0.0
 40
0.0
 40
0.0
 40
0.1237889725417986
 40
0.1237889725417986
 40
0.2475779450835973
 40
0.2475779450835973
 40
0.2475779450835973
 10
40.83343984509979
 20
0.0000000000002308
 30
0.0
 41
1.0
 10
40.9062258783247
 20
0.0000000000002308
 30
0.0
 41
0.7899418936709723
 10
40.92427800758238
 20
0.0705118944711869
 30
0.0
 41
1.0
 10
40.94233013684003
 20
0.1410237889421429
 30
0.0
 41
0.7899418936709723
 10
40.87849855150291
 20
0.1760000000858237
 30
0.0
 41
1.0
  0
SPLINE
  5
68
330
1F
100
AcDbEntity
  8
Layer 04
100
AcDbSpline
210
0.0
220
0.0
230
1.0
 70
    24
 71
     2
 72
     6
 73
     3
 74
     0
 42
0.0000000001
 43
0.0000000001
 40
0.0
 40
0.0
 40
0.0
 40
0.8252150448000037
 40
0.8252150448000037
 40
0.8252150448000037
 10
36.84521504479978
 20
11.08100000000024
 30
0.0
 10
36.43260752239976
 20
11.08100000000024
 30
0.0
 10
36.01999999999977
 20
11.08100000000024
 30
0.0
  0
SPLINE
  5
69
330
1F
100
AcDbEntity
  8
Layer 04
100
AcDbSpline
210
0.0
220
0.0
230
1.0
 70
     8
 71
     5
 72
    12
 73
     6
 74
     0
 42
0.0000000001
 43
0.0000000001
 40
0.0
 40
0.0
 40
0.0
 40
0.0
 40
0.0
 40
0.0
 40
1.0
 40
1.0
 40
1.0
 40
1.0
 40
1.0
 40
1.0
 10
38.0019406886585
 20
10.04074447879696
 30
0.0
 10
37.95406078835354
 20
10.3481747078392
 30
0.0
 10
37.90618088804862
 20
10.65560493688143
 30
0.0
 10
37.4674877521626
 20
11.08100000000024
 30
0.0
 10
37.1563513984812
 20
11.08100000000024
 30
0.0
 10
36.84521504479978
 20
11.08100000000024
 30
0.0
  0
SPLINE
  5
6A
330
1F
100
AcDbEntity
  8
Layer 04
100
AcDbSpline
210
0.0
220
0.0
230
1.0
 70
    24
 71
     2
 72
     6
 73
     3
 74
     0
 42
0.0000000001
 43
0.0000000001
 40
0.0
 40
0.0
 40
0.0
 40
1.0
 40
1.0
 40
1.0
 10
39.52740238949977
 20
0.2459655194002313
 30
0.0
 10
38.76467153907912
 20
5.143354999098597
 30
0.0
 10
38.0019406886585
 20
10.04074447879696
 30
0.0
  0
SPLINE
  5
6B
330
1F
100
AcDbEntity
  8
Layer 04
100
AcDbSpline
210
0.0
220
0.0
230
1.0
 70
     8
 71
     5
 72
    12
 73
     6
 74
     0
 42
0.0000000001
 43
0.0000000001
 40
0.0
 40
0.0
 40
0.0
 40
0.0
 40
0.0
 40
0.0
 40
1.0
 40
1.0
 40
1.0
 40
1.0
 40
1.0
 40
1.0
 10
39.59668202419978
 20
0.1860000000002291
 30
0.0
 10
39.57835659781884
 20
0.1860000000002291
 30
0.0
 10
39.5600311714379
 20
0.1860000000002291
 30
0.0
 10
39.53304248637551
 20
0.2097512360937123
 30
0.0
 10
39.53022243793766
 20
0.2278583777469718
 30
0.0
 10
39.52740238949977
 20
0.2459655194002313
 30
0.0
  0
SPLINE
  5
6C
330
1F
100
AcDbEntity
  8
Layer 04
100
AcDbSpline
210
0.0
220
0.0
230
1.0
 70
    24
 71
     2
 72
     6
 73
     3
 74
     0
 42
0.0000000001
 43
0.0000000001
 40
0.0
 40
0.0
 40
0.0
 40
1.0
 40
1.0
 40
1.0
 10
40.83380938000991
 20
0.1860000000002291
 30
0.0
 10
40.21524570210484
 20
0.1860000000002291
 30
0.0
 10
39.59668202419978
 20
0.1860000000002291
 30
0.0
  0
SPLINE
  5
6D
330
1F
100
AcDbEntity
  8
Layer 04
100
AcDbSpline
210
0.0
220
0.0
230
1.0
 70
     8
 71
     5
 72
    12
 73
     6
 74
     0
 42
0.0000000001
 43
0.0000000001
 40
0.0
 40
0.0
 40
0.0
 40
0.0
 40
0.0
 40
0.0
 40
1.0
 40
1.0
 40
1.0
 40
1.0
 40
1.0
 40
1.0
 10
40.88950212881517
 20
0.2646177197648412
 30
0.0
 10
40.89183407349834
 20
0.2454902745822367
 30
0.0
 10
40.89416601818153
 20
0.2263628293996323
 30
0.0
 10
40.87234752346384
 20
0.1860000000002291
 30
0.0
 10
40.85307845173687
 20
0.1860000000002291
 30
0.0
 10
40.83380938000991
 20
0.1860000000002291
 30
0.0
  0
SPLINE
  5
6E
330
1F
100
AcDbEntity
  8
Layer 04
100
AcDbSpline
210
0.0
220
0.0
230
1.0
 70
    24
 71
     2
 72
     6
 73
     3
 74
     0
 42
0.0000000001
 43
0.0000000001
 40
0.0
 40
0.0
 40
0.0
 40
1.0
 40
1.0
 40
1.0
 10
39.23736962725032
 20
13.81600000000024
 30
0.0
 10
40.06343587803273
 20
7.040308859882537
 30
0.0
 10
40.88950212881517
 20
0.2646177197648412
 30
0.0
  0
SPLINE
  5
6F
330
1F
100
AcDbEntity
  8
Layer 04
  6
Continuous
100
AcDbSpline
210
0.0
220
0.0
230
1.0
 70
    24
 71
     2
 72
     6
 73
     3
 74
     0
 42
0.0000000001
 43
0.0000000001
 40
0.0
 40
0.0
 40
0.0
 40
2.73499999999976
 40
2.73499999999976
 40
2.73499999999976
 10
-36.0
 20
11.07600000000001
 30
0.0
 10
-35.99999999999989
 20
12.44349999999989
 30
0.0
 10
-35.99999999999978
 20
13.81099999999977
 30
0.0
  0
SPLINE
  5
70
330
1F
100
AcDbEntity
  8
Layer 04
  6
Continuous
100
AcDbSpline
210
0.0
220
0.0
230
1.0
 70
    12
 71
     2
 72
     8
 73
     5
 74
     0
 42
0.0000000001
 43
0.0000000001
 40
0.0
 40
0.0
 40
0.0
 40
0.1237889725417989
 40
0.1237889725417989
 40
0.2475779450835977
 40
0.2475779450835977
 40
0.2475779450835977
 10
-39.62355725779977
 20
-0.0000000000002204
 30
0.0
 41
1.0
 10
-39.55077122457486
 20
-0.0000000000002204
 30
0.0
 41
0.7899418936709716
 10
-39.53271909531718
 20
0.0705118944707359
 30
0.0
 41
1.0
 10
-39.51466696605952
 20
0.1410237889416922
 30
0.0
 41
0.7899418936709716
 10
-39.57849855139665
 20
0.1760000000853727
 30
0.0
 41
1.0
  0
SPLINE
  5
71
330
1F
100
AcDbEntity
  8
Layer 04
  6
Continuous
100
AcDbSpline
210
0.0
220
0.0
230
1.0
 70
    24
 71
     2
 72
     6
 73
     3
 74
     0
 42
0.0000000001
 43
0.0000000001
 40
0.0
 40
0.0
 40
0.0
 40
1.209882587300015
 40
1.209882587300015
 40
1.209882587300015
 10
-40.83343984509979
 20
-0.0000000000002204
 30
0.0
 10
-40.22849855144978
 20
-0.0000000000002204
 30
0.0
 10
-39.62355725779977
 20
-0.0000000000002204
 30
0.0
  0
SPLINE
  5
72
330
1F
100
AcDbEntity
  8
Layer 04
  6
Continuous
100
AcDbSpline
210
0.0
220
0.0
230
1.0
 70
    12
 71
     2
 72
     8
 73
     5
 74
     0
 42
0.0000000001
 43
0.0000000001
 40
0.0
 40
0.0
 40
0.0
 40
0.1237889725417986
 40
0.1237889725417986
 40
0.2475779450835973
 40
0.2475779450835973
 40
0.2475779450835973
 10
-40.87849855150292
 20
0.1760000000853724
 30
0.0
 41
1.0
 10
-40.94233013684005
 20
0.1410237889416915
 30
0.0
 41
0.7899418936709723
 10
-40.92427800758237
 20
0.0705118944707355
 30
0.0
 41
1.0
 10
-40.9062258783247
 20
-0.0000000000002206
 30
0.0
 41
0.7899418936709723
 10
-40.83343984509978
 20
-0.0000000000002204
 30
0.0
 41
1.0
  0
SPLINE
  5
73
330
1F
100
AcDbEntity
  8
Layer 04
100
AcDbSpline
210
0.0
220
0.0
230
1.0
 70
    24
 71
     2
 72
     6
 73
     3
 74
     0
 42
0.0000000001
 43
0.0000000001
 40
0.0
 40
0.0
 40
0.0
 40
0.8252150448000037
 40
0.8252150448000037
 40
0.8252150448000037
 10
-36.84521504479978
 20
11.08099999999978
 30
0.0
 10
-36.43260752239978
 20
11.08099999999978
 30
0.0
 10
-36.01999999999978
 20
11.08099999999978
 30
0.0
  0
SPLINE
  5
74
330
1F
100
AcDbEntity
  8
Layer 04
100
AcDbSpline
210
0.0
220
0.0
230
1.0
 70
     8
 71
     5
 72
    12
 73
     6
 74
     0
 42
0.0000000001
 43
0.0000000001
 40
0.0
 40
0.0
 40
0.0
 40
0.0
 40
0.0
 40
0.0
 40
1.0
 40
1.0
 40
1.0
 40
1.0
 40
1.0
 40
1.0
 10
-38.0019406886585
 20
10.04074447879651
 30
0.0
 10
-37.95406078835356
 20
10.34817470783874
 30
0.0
 10
-37.90618088804862
 20
10.65560493688097
 30
0.0
 10
-37.46748775216262
 20
11.08099999999978
 30
0.0
 10
-37.1563513984812
 20
11.08099999999978
 30
0.0
 10
-36.84521504479978
 20
11.08099999999978
 30
0.0
  0
SPLINE
  5
75
330
1F
100
AcDbEntity
  8
Layer 04
100
AcDbSpline
210
0.0
220
0.0
230
1.0
 70
    24
 71
     2
 72
     6
 73
     3
 74
     0
 42
0.0000000001
 43
0.0000000001
 40
0.0
 40
0.0
 40
0.0
 40
1.0
 40
1.0
 40
1.0
 10
-39.52740238949978
 20
0.2459655193997801
 30
0.0
 10
-38.76467153907914
 20
5.143354999098146
 30
0.0
 10
-38.0019406886585
 20
10.04074447879651
 30
0.0
  0
SPLINE
  5
76
330
1F
100
AcDbEntity
  8
Layer 04
100
AcDbSpline
210
0.0
220
0.0
230
1.0
 70
     8
 71
     5
 72
    12
 73
     6
 74
     0
 42
0.0000000001
 43
0.0000000001
 40
0.0
 40
0.0
 40
0.0
 40
0.0
 40
0.0
 40
0.0
 40
1.0
 40
1.0
 40
1.0
 40
1.0
 40
1.0
 40
1.0
 10
-39.59668202419979
 20
0.1859999999997779
 30
0.0
 10
-39.57835659781885
 20
0.1859999999997779
 30
0.0
 10
-39.56003117143791
 20
0.1859999999997779
 30
0.0
 10
-39.53304248637553
 20
0.2097512360932611
 30
0.0
 10
-39.53022243793766
 20
0.2278583777465206
 30
0.0
 10
-39.52740238949978
 20
0.2459655193997801
 30
0.0
  0
SPLINE
  5
77
330
1F
100
AcDbEntity
  8
Layer 04
100
AcDbSpline
210
0.0
220
0.0
230
1.0
 70
    24
 71
     2
 72
     6
 73
     3
 74
     0
 42
0.0000000001
 43
0.0000000001
 40
0.0
 40
0.0
 40
0.0
 40
1.0
 40
1.0
 40
1.0
 10
-40.83380938000991
 20
0.1859999999997779
 30
0.0
 10
-40.21524570210485
 20
0.1859999999997779
 30
0.0
 10
-39.59668202419979
 20
0.1859999999997779
 30
0.0
  0
SPLINE
  5
78
330
1F
100
AcDbEntity
  8
Layer 04
100
AcDbSpline
210
0.0
220
0.0
230
1.0
 70
     8
 71
     5
 72
    12
 73
     6
 74
     0
 42
0.0000000001
 43
0.0000000001
 40
0.0
 40
0.0
 40
0.0
 40
0.0
 40
0.0
 40
0.0
 40
1.0
 40
1.0
 40
1.0
 40
1.0
 40
1.0
 40
1.0
 10
-40.88950212881517
 20
0.26461771976439
 30
0.0
 10
-40.89183407349834
 20
0.2454902745817855
 30
0.0
 10
-40.89416601818153
 20
0.2263628293991811
 30
0.0
 10
-40.87234752346384
 20
0.1859999999997779
 30
0.0
 10
-40.85307845173688
 20
0.1859999999997779
 30
0.0
 10
-40.83380938000991
 20
0.1859999999997779
 30
0.0
  0
SPLINE
  5
79
330
1F
100
AcDbEntity
  8
Layer 04
100
AcDbSpline
210
0.0
220
0.0
230
1.0
 70
    24
 71
     2
 72
     6
 73
     3
 74
     0
 42
0.0000000001
 43
0.0000000001
 40
0.0
 40
0.0
 40
0.0
 40
1.0
 40
1.0
 40
1.0
 10
-39.23736962725032
 20
13.81599999999978
 30
0.0
 10
-40.06343587803275
 20
7.040308859882086
 30
0.0
 10
-40.88950212881517
 20
0.26461771976439
 30
0.0
  0
LINE
  5
7B
330
1F
100
AcDbEntity
  8
Default
100
AcDbLine
 10
89.0
 20
11.0759999999999
 30
0.0
 11
69.0
 21
11.0759999999999
 31
0.0
  0
LINE
  5
7C
330
1F
100
AcDbEntity
  8
Default
100
AcDbLine
 10
36.0
 20
11.07600000000001
 30
0.0
 11
-36.0
 21
11.07600000000001
 31
0.0
  0
SPLINE
  5
7D
330
1F
100
AcDbEntity
  8
Layer 04
  6
Continuous
100
AcDbSpline
210
0.0
220
0.0
230
1.0
 70
    15
 71
     2
 72
    36
 73
    33
 74
     0
 42
0.0000000001
 43
0.0000000001
 40
148.1634404116053
 40
148.1634404116053
 40
148.1634404116053
 40
161.2992730782022
 40
161.2992730782022
 40
167.2003156937497
 40
167.2003156937497
 40
199.6115340874425
 40
199.6115340874425
 40
213.3185340874426
 40
213.3185340874426
 40
245.7297524812161
 40
245.7297524812161
 40
251.6307950968605
 40
251.6307950968605
 40
264.7666277634657
 40
264.7666277634657
 40
271.0283166523658
 40
271.0283166523658
 40
284.1641493189711
 40
284.1641493189711
 40
290.0651919344791
 40
290.0651919344791
 40
322.4764103281193
 40
322.4764103281193
 40
336.183410328116
 40
336.183410328116
 40
368.594628721804
 40
368.594628721804
 40
374.4956713373245
 40
374.4956713373245
 40
387.6315040039213
 40
387.6315040039213
 40
393.8931928928214
 40
393.8931928928214
 40
393.8931928928214
 10
47.99999999999652
 20
54.94684444440003
 30
0.0
 41
1.0
 10
47.99999999999651
 20
61.55073681042925
 30
0.0
 41
0.9918484445883136
 10
46.21945723051412
 20
67.94017882721357
 30
0.0
 41
1.0
 10
45.31662501974813
 20
71.17997410776894
 30
0.0
 41
0.8308826675222181
 10
41.77737698955634
 20
71.6308093421534
 30
0.0
 41
1.0
 10
24.62270241457468
 20
73.81599999999985
 30
0.0
 41
0.9977211631827531
 10
7.310399999998176
 20
73.81599999999986
 30
0.0
 41
1.0
 10
-0.0000000000016404
 20
73.81599999999987
 30
0.0
 41
1.0
 10
-7.310400000001457
 20
73.81599999999989
 30
0.0
 41
1.0
 10
-24.62270241462029
 20
73.81599999999987
 30
0.0
 41
0.997721163182816
 10
-41.77737698964823
 20
71.63080934217817
 30
0.0
 41
1.0
 10
-45.31662501963919
 20
71.17997410782307
 30
0.0
 41
0.8308826675181757
 10
-46.2194572304643
 20
67.94017882721354
 30
0.0
 41
1.0
 10
-48.00000000000001
 20
61.55073681043564
 30
0.0
 41
0.9918484445878313
 10
-48.00000000000001
 20
54.94684444439996
 30
0.0
 41
1.0
 10
-48.0
 20
51.81599999994996
 30
0.0
 41
1.0
 10
-47.99999999999999
 20
48.68515555549996
 30
0.0
 41
1.0
 10
-48.0
 20
42.08126318946428
 30
0.0
 41
0.9918484445878311
 10
-46.21945723046427
 20
35.69182117268638
 30
0.0
 41
1.0
 10
-45.31662501966525
 20
32.45202589217049
 30
0.0
 41
0.8308826675250198
 10
-41.77737698950467
 20
32.00119065779626
 30
0.0
 41
1.0
 10
-24.62270241454527
 20
29.81599999999982
 30
0.0
 41
0.9977211631828498
 10
-7.310399999997987
 20
29.816
 30
0.0
 41
1.0
 10
-0.0000000000000005
 20
29.816
 30
0.0
 41
1.0
 10
7.310399999997986
 20
29.816
 30
0.0
 41
1.0
 10
24.62270241457082
 20
29.81600000000009
 30
0.0
 41
0.9977211631828572
 10
41.77737698955605
 20
32.00119065779646
 30
0.0
 41
1.0
 10
45.31662501974937
 20
32.45202589213552
 30
0.0
 41
0.8308826675184661
 10
46.21945723051412
 20
35.69182117268637
 30
0.0
 41
1.0
 10
47.99999999999651
 20
42.08126318947073
 30
0.0
 41
0.9918484445883136
 10
47.99999999999652
 20
48.68515555550001
 30
0.0
 41
1.0
 10
47.99999999999652
 20
51.81599999995002
 30
0.0
 41
1.0
 10
47.99999999999652
 20
54.94684444440003
 30
0.0
 41
1.0
  0
LINE
  5
7E
330
1F
100
AcDbEntity
  8
Layer 04
  6
Continuous
100
AcDbLine
 10
56.99999999999999
 20
14.31600000000001
 30
0.0
 11
56.99999999999999
 21
14.81600000000001
 31
0.0
  0
LINE
  5
7F
330
1F
100
AcDbEntity
  8
Layer 04
  6
Continuous
100
AcDbLine
 10
56.99999999999999
 20
14.31600000000001
 30
0.0
 11
56.99999999999999
 21
14.81600000000001
 31
0.0
  0
LINE
  5
80
330
1F
100
AcDbEntity
  8
Layer 04
  6
Continuous
100
AcDbLine
 10
58.16399999999999
 20
13.81600000000001
 30
0.0
 11
56.99999999999999
 21
14.31600000000001
 31
0.0
  0
LINE
  5
81
330
1F
100
AcDbEntity
  8
Layer 04
  6
Continuous
100
AcDbLine
 10
99.83599999999998
 20
13.81600000000001
 30
0.0
 11
101.0
 21
14.31600000000001
 31
0.0
  0
LINE
  5
82
330
1F
100
AcDbEntity
  8
Layer 04
  6
Continuous
100
AcDbLine
 10
99.83599999999998
 20
13.81600000000001
 30
0.0
 11
58.16399999999999
 21
13.81600000000001
 31
0.0
  0
LINE
  5
83
330
1F
100
AcDbEntity
  8
Layer 04
  6
Continuous
100
AcDbLine
 10
101.0
 20
14.31600000000001
 30
0.0
 11
56.99999999999999
 21
14.31600000000001
 31
0.0
  0
LINE
  5
84
330
1F
100
AcDbEntity
  8
Layer 04
  6
Continuous
100
AcDbLine
 10
101.0
 20
14.31600000000001
 30
0.0
 11
101.0
 21
14.81600000000001
 31
0.0
  0
POLYLINE
  5
85
330
1F
100
AcDbEntity
  8
Layer 04
100
AcDb2dPolyline
 66
     1
 10
0.0
 20
0.0
 30
0.0
  0
VERTEX
  5
86
330
85
100
AcDbEntity
  8
Layer 04
100
AcDbVertex
100
AcDb2dVertex
 10
56.99999999999999
 20
14.81600000000001
 30
0.0
  0
VERTEX
  5
87
330
85
100
AcDbEntity
  8
Layer 04
100
AcDbVertex
100
AcDb2dVertex
 10
101.0
 20
14.81600000000001
 30
0.0
  0
SEQEND
  5
88
330
85
100
AcDbEntity
  8
Layer 04
  0
SPLINE
  5
89
330
1F
100
AcDbEntity
  8
Layer 04
  6
Continuous
100
AcDbSpline
210
0.0
220
0.0
230
1.0
 70
    24
 71
     2
 72
     6
 73
     3
 74
     0
 42
0.0000000001
 43
0.0000000001
 40
0.0
 40
0.0
 40
0.0
 40
0.5
 40
0.5
 40
0.5
 10
-48.0
 20
14.31600000000001
 30
0.0
 10
-48.0
 20
14.56600000000001
 30
0.0
 10
-48.0
 20
14.81600000000001
 30
0.0
  0
SPLINE
  5
8A
330
1F
100
AcDbEntity
  8
Layer 04
  6
Continuous
100
AcDbSpline
210
0.0
220
0.0
230
1.0
 70
    24
 71
     2
 72
     6
 73
     3
 74
     0
 42
0.0000000001
 43
0.0000000001
 40
0.0
 40
0.0
 40
0.0
 40
0.5
 40
0.5
 40
0.5
 10
-48.0
 20
14.31600000000001
 30
0.0
 10
-48.0
 20
14.56600000000001
 30
0.0
 10
-48.0
 20
14.81600000000001
 30
0.0
  0
SPLINE
  5
8B
330
1F
100
AcDbEntity
  8
Layer 04
  6
Continuous
100
AcDbSpline
210
0.0
220
0.0
230
1.0
 70
    24
 71
     2
 72
     6
 73
     3
 74
     0
 42
0.0000000001
 43
0.0000000001
 40
0.0
 40
0.0
 40
0.0
 40
1.266844899741087
 40
1.266844899741087
 40
1.266844899741087
 10
-46.836
 20
13.81600000000001
 30
0.0
 10
-47.418
 20
14.06600000000001
 30
0.0
 10
-48.0
 20
14.31600000000001
 30
0.0
  0
SPLINE
  5
8C
330
1F
100
AcDbEntity
  8
Layer 04
  6
Continuous
100
AcDbSpline
210
0.0
220
0.0
230
1.0
 70
    24
 71
     2
 72
     6
 73
     3
 74
     0
 42
0.0000000001
 43
0.0000000001
 40
0.0
 40
0.0
 40
0.0
 40
0.5
 40
0.5
 40
0.5
 10
47.99999999999999
 20
14.31600000000001
 30
0.0
 10
47.99999999999999
 20
14.56600000000001
 30
0.0
 10
47.99999999999999
 20
14.81600000000001
 30
0.0
  0
SPLINE
  5
8D
330
1F
100
AcDbEntity
  8
Layer 04
  6
Continuous
100
AcDbSpline
210
0.0
220
0.0
230
1.0
 70
    24
 71
     2
 72
     6
 73
     3
 74
     0
 42
0.0000000001
 43
0.0000000001
 40
0.0
 40
0.0
 40
0.0
 40
0.5
 40
0.5
 40
0.5
 10
47.99999999999999
 20
14.31600000000001
 30
0.0
 10
47.99999999999999
 20
14.56600000000001
 30
0.0
 10
47.99999999999999
 20
14.81600000000001
 30
0.0
  0
SPLINE
  5
8E
330
1F
100
AcDbEntity
  8
Layer 04
  6
Continuous
100
AcDbSpline
210
0.0
220
0.0
230
1.0
 70
    24
 71
     2
 72
     6
 73
     3
 74
     0
 42
0.0000000001
 43
0.0000000001
 40
0.0
 40
0.0
 40
0.0
 40
1.266844899741087
 40
1.266844899741087
 40
1.266844899741087
 10
46.83599999999998
 20
13.81600000000001
 30
0.0
 10
47.41799999999999
 20
14.06600000000001
 30
0.0
 10
47.99999999999999
 20
14.31600000000001
 30
0.0
  0
SPLINE
  5
8F
330
1F
100
AcDbEntity
  8
Layer 04
  6
Continuous
100
AcDbSpline
210
0.0
220
0.0
230
1.0
 70
    24
 71
     2
 72
     6
 73
     3
 74
     0
 42
0.0000000001
 43
0.0000000001
 40
0.0
 40
0.0
 40
0.0
 40
87.672
 40
87.672
 40
87.672
 10
46.83600000000001
 20
13.81600000000001
 30
0.0
 10
0.0000000000000036
 20
13.81600000000001
 30
0.0
 10
-46.836
 20
13.81600000000001
 30
0.0
  0
SPLINE
  5
90
330
1F
100
AcDbEntity
  8
Layer 04
  6
Continuous
100
AcDbSpline
210
0.0
220
0.0
230
1.0
 70
    24
 71
     2
 72
     6
 73
     3
 74
     0
 42
0.0000000001
 43
0.0000000001
 40
0.0
 40
0.0
 40
0.0
 40
90.0
 40
90.0
 40
90.0
 10
48.0
 20
14.31600000000001
 30
0.0
 10
0.0
 20
14.31600000000001
 30
0.0
 10
-48.0
 20
14.31600000000001
 30
0.0
  0
SPLINE
  5
91
330
1F
100
AcDbEntity
  8
Layer 04
100
AcDbSpline
210
0.0
220
0.0
230
1.0
 70
    24
 71
     2
 72
     6
 73
     3
 74
     0
 42
0.0000000001
 43
0.0000000001
 40
0.0
 40
0.0
 40
0.0
 40
1.0
 40
1.0
 40
1.0
 10
-48.0
 20
14.81600000000001
 30
0.0
 10
0.0
 20
14.81600000000001
 30
0.0
 10
48.0
 20
14.81600000000001
 30
0.0
  0
ENDSEC
  0
SECTION
  2
OBJECTS
  0
DICTIONARY
  5
C
330
0
100
AcDbDictionary
281
     1
  3
ACAD_GROUP
350
D
  3
ACAD_LAYOUT
350
1A
  3
ACAD_MLEADERSTYLE
350
93
  3
ACAD_MLINESTYLE
350
17
  3
ACAD_PLOTSETTINGS
350
19
  3
ACAD_PLOTSTYLENAME
350
E
  3
ACAD_TABLESTYLE
350
92
  3
ACAD_VISUALSTYLE
350
2A
  0
DICTIONARY
  5
D
102
{ACAD_REACTORS
330
C
102
}
330
C
100
AcDbDictionary
281
     1
  0
DICTIONARY
  5
1A
102
{ACAD_REACTORS
330
C
102
}
330
C
100
AcDbDictionary
281
     1
  3
Layout1
350
1E
  3
Layout2
350
26
  3
Model
350
22
  0
DICTIONARY
  5
93
102
{ACAD_REACTORS
330
C
102
}
330
C
100
AcDbDictionary
281
     1
  0
DICTIONARY
  5
17
102
{ACAD_REACTORS
330
C
102
}
330
C
100
AcDbDictionary
281
     1
  3
Standard
350
18
  0
DICTIONARY
  5
19
102
{ACAD_REACTORS
330
C
102
}
330
C
100
AcDbDictionary
281
     1
  0
ACDBDICTIONARYWDFLT
  5
E
102
{ACAD_REACTORS
330
C
102
}
330
C
100
AcDbDictionary
281
     1
  3
Normal
350
F
100
AcDbDictionaryWithDefault
340
F
  0
DICTIONARY
  5
92
102
{ACAD_REACTORS
330
C
102
}
330
C
100
AcDbDictionary
281
     1
  0
DICTIONARY
  5
2A
102
{ACAD_REACTORS
330
C
102
}
330
C
100
AcDbDictionary
281
     1
  3
2dWireframe
350
2F
  3
3D Hidden
350
31
  3
3dWireframe
350
30
  3
Basic
350
32
  3
Brighten
350
36
  3
ColorChange
350
3A
  3
Conceptual
350
34
  3
Dim
350
35
  3
Facepattern
350
39
  3
Flat
350
2B
  3
FlatWithEdges
350
2C
  3
Gouraud
350
2D
  3
GouraudWithEdges
350
2E
  3
Linepattern
350
38
  3
Realistic
350
33
  3
Thicken
350
37
  0
LAYOUT
  5
1E
102
{ACAD_REACTORS
330
1A
102
}
330
1A
100
AcDbPlotSettings
  1

  2
none_device
  4

  6

 40
0.0
 41
0.0
 42
0.0
 43
0.0
 44
0.0
 45
0.0
 46
0.0
 47
0.0
 48
0.0
 49
0.0
140
0.0
141
0.0
142
1.0
143
1.0
 70
   688
 72
     0
 73
     0
 74
     5
  7

 75
    16
 76
     0
 77
     2
 78
   300
147
1.0
148
0.0
149
0.0
100
AcDbLayout
  1
Layout1
 70
     1
 71
     1
 10
0.0
 20
0.0
 11
12.0
 21
9.0
 12
0.0
 22
0.0
 32
0.0
 14
1.000000000000000E+20
 24
1.000000000000000E+20
 34
1.000000000000000E+20
 15
-1.000000000000000E+20
 25
-1.000000000000000E+20
 35
-1.000000000000000E+20
146
0.0
 13
0.0
 23
0.0
 33
0.0
 16
1.0
 26
0.0
 36
0.0
 17
0.0
 27
1.0
 37
0.0
 76
     0
330
1B
  0
LAYOUT
  5
26
102
{ACAD_REACTORS
330
1A
102
}
330
1A
100
AcDbPlotSettings
  1

  2
none_device
  4

  6

 40
0.0
 41
0.0
 42
0.0
 43
0.0
 44
0.0
 45
0.0
 46
0.0
 47
0.0
 48
0.0
 49
0.0
140
0.0
141
0.0
142
1.0
143
1.0
 70
   688
 72
     0
 73
     0
 74
     5
  7

 75
    16
 76
     0
 77
     2
 78
   300
147
1.0
148
0.0
149
0.0
100
AcDbLayout
  1
Layout2
 70
     1
 71
     2
 10
0.0
 20
0.0
 11
0.0
 21
0.0
 12
0.0
 22
0.0
 32
0.0
 14
0.0
 24
0.0
 34
0.0
 15
0.0
 25
0.0
 35
0.0
146
0.0
 13
0.0
 23
0.0
 33
0.0
 16
1.0
 26
0.0
 36
0.0
 17
0.0
 27
1.0
 37
0.0
 76
     0
330
23
  0
LAYOUT
  5
22
102
{ACAD_REACTORS
330
1A
102
}
330
1A
100
AcDbPlotSettings
  1

  2
none_device
  4

  6

 40
0.0
 41
0.0
 42
0.0
 43
0.0
 44
0.0
 45
0.0
 46
0.0
 47
0.0
 48
0.0
 49
0.0
140
0.0
141
0.0
142
1.0
143
1.0
 70
  1712
 72
     0
 73
     0
 74
     0
  7

 75
     0
 76
     0
 77
     2
 78
   300
147
1.0
148
0.0
149
0.0
100
AcDbLayout
  1
Model
 70
     1
 71
     0
 10
0.0
 20
0.0
 11
12.0
 21
9.0
 12
0.0
 22
0.0
 32
0.0
 14
-48.00000000000001
 24
-0.0000000000002204
 34
0.0
 15
101.0
 25
73.81599999999989
 35
0.0
146
0.0
 13
0.0
 23
0.0
 33
0.0
 16
1.0
 26
0.0
 36
0.0
 17
0.0
 27
1.0
 37
0.0
 76
     0
330
1F
331
29
  0
MLINESTYLE
  5
18
102
{ACAD_REACTORS
330
17
102
}
330
17
100
AcDbMlineStyle
  2
Standard
 70
     0
  3

 62
   256
 51
90.0
 52
90.0
 71
     2
 49
0.5
 62
   256
  6
BYLAYER
 49
-0.5
 62
   256
  6
BYLAYER
  0
ACDBPLACEHOLDER
  5
F
102
{ACAD_REACTORS
330
E
102
}
330
E
  0
VISUALSTYLE
  5
2F
102
{ACAD_REACTORS
330
2A
102
}
330
2A
100
AcDbVisualStyle
  2
2dWireframe
 70
     4
 71
     0
 72
     2
 73
     0
 90
        0
 40
-0.6
 41
-30.0
 62
     5
 63
     7
421
 16777215
 74
     1
 91
        4
 64
     7
 65
   257
 75
     1
175
     1
 42
1.0
 92
        0
 66
   257
 43
1.0
 76
     1
 77
     6
 78
     2
 67
     7
 79
     5
170
     0
171
     0
290
     0
174
     0
 93
        1
 44
0.0
173
     0
291
     0
 45
0.0
1001
ACAD
1000
AcDbSavedByObjectVersion
1070
     0
  0
VISUALSTYLE
  5
31
102
{ACAD_REACTORS
330
2A
102
}
330
2A
100
AcDbVisualStyle
  2
3D Hidden
 70
     6
 71
     1
 72
     2
 73
     2
 90
        0
 40
-0.6
 41
-30.0
 62
     5
 63
     7
421
 16777215
 74
     2
 91
        2
 64
     7
 65
   257
 75
     2
175
     1
 42
40.0
 92
        0
 66
   257
 43
1.0
 76
     1
 77
     6
 78
     2
 67
     7
 79
     3
170
     0
171
     0
290
     0
174
     0
 93
        1
 44
0.0
173
     0
291
     0
 45
0.0
1001
ACAD
1000
AcDbSavedByObjectVersion
1070
     0
  0
VISUALSTYLE
  5
30
102
{ACAD_REACTORS
330
2A
102
}
330
2A
100
AcDbVisualStyle
  2
3dWireframe
 70
     5
 71
     0
 72
     2
 73
     0
 90
        0
 40
-0.6
 41
-30.0
 62
     5
 63
     7
421
 16777215
 74
     1
 91
        4
 64
     7
 65
   257
 75
     1
175
     1
 42
1.0
 92
        0
 66
   257
 43
1.0
 76
     1
 77
     6
 78
     2
 67
     7
 79
     5
170
     0
171
     0
290
     0
174
     0
 93
        1
 44
0.0
173
     0
291
     0
 45
0.0
1001
ACAD
1000
AcDbSavedByObjectVersion
1070
     0
  0
VISUALSTYLE
  5
32
102
{ACAD_REACTORS
330
2A
102
}
330
2A
100
AcDbVisualStyle
  2
Basic
 70
     7
 71
     1
 72
     0
 73
     1
 90
        0
 40
-0.6
 41
-30.0
 62
     5
 63
     7
421
 16777215
 74
     0
 91
        4
 64
     7
 65
   257
 75
     1
175
     1
 42
1.0
 92
        8
 66
     7
 43
1.0
 76
     1
 77
     6
 78
     2
 67
     7
 79
     5
170
     0
171
     0
290
     0
174
     0
 93
        1
 44
0.0
173
     0
291
     1
 45
0.0
1001
ACAD
1000
AcDbSavedByObjectVersion
1070
     0
  0
VISUALSTYLE
  5
36
102
{ACAD_REACTORS
330
2A
102
}
330
2A
100
AcDbVisualStyle
  2
Brighten
 70
    12
 71
     2
 72
     2
 73
     0
 90
        0
 40
-0.6
 41
-30.0
 62
     5
 63
     7
421
 16777215
 74
     1
 91
        4
 64
     7
 65
   257
 75
     1
175
     1
 42
1.0
 92
        8
 66
     7
 43
1.0
 76
     1
 77
     6
 78
     2
 67
     7
 79
     5
170
     0
171
     0
290
     0
174
     0
 93
        1
 44
50.0
173
     0
291
     1
 45
0.0
1001
ACAD
1000
AcDbSavedByObjectVersion
1070
     0
  0
VISUALSTYLE
  5
3A
102
{ACAD_REACTORS
330
2A
102
}
330
2A
100
AcDbVisualStyle
  2
ColorChange
 70
    16
 71
     2
 72
     2
 73
     3
 90
        0
 40
-0.6
 41
-30.0
 62
     5
 63
     8
421
  8421504
 74
     1
 91
        4
 64
     7
 65
   257
 75
     1
175
     1
 42
1.0
 92
        8
 66
     8
424
  8421504
 43
1.0
 76
     1
 77
     6
 78
     2
 67
     7
 79
     5
170
     0
171
     0
290
     0
174
     0
 93
        1
 44
0.0
173
     0
291
     1
 45
0.0
1001
ACAD
1000
AcDbSavedByObjectVersion
1070
     0
  0
VISUALSTYLE
  5
34
102
{ACAD_REACTORS
330
2A
102
}
330
2A
100
AcDbVisualStyle
  2
Conceptual
 70
     9
 71
     3
 72
     2
 73
     0
 90
        0
 40
-0.6
 41
-30.0
 62
     5
 63
     7
421
 16777215
 74
     2
 91
        2
 64
     7
 65
   257
 75
     1
175
     1
 42
40.0
 92
        8
 66
     7
 43
1.0
 76
     1
 77
     6
 78
     2
 67
     7
 79
     3
170
     0
171
     0
290
     0
174
     0
 93
        1
 44
0.0
173
     0
291
     0
 45
0.0
1001
ACAD
1000
AcDbSavedByObjectVersion
1070
     0
  0
VISUALSTYLE
  5
35
102
{ACAD_REACTORS
330
2A
102
}
330
2A
100
AcDbVisualStyle
  2
Dim
 70
    11
 71
     2
 72
     2
 73
     0
 90
        0
 40
-0.6
 41
-30.0
 62
     5
 63
     7
421
 16777215
 74
     1
 91
        4
 64
     7
 65
   257
 75
     1
175
     1
 42
1.0
 92
        8
 66
     7
 43
1.0
 76
     1
 77
     6
 78
     2
 67
     7
 79
     5
170
     0
171
     0
290
     0
174
     0
 93
        1
 44
-50.0
173
     0
291
     1
 45
0.0
1001
ACAD
1000
AcDbSavedByObjectVersion
1070
     0
  0
VISUALSTYLE
  5
39
102
{ACAD_REACTORS
330
2A
102
}
330
2A
100
AcDbVisualStyle
  2
Facepattern
 70
    15
 71
     2
 72
     2
 73
     0
 90
        0
 40
-0.6
 41
-30.0
 62
     5
 63
     7
421
 16777215
 74
     1
 91
        4
 64
     7
 65
   257
 75
     1
175
     1
 42
1.0
 92
        8
 66
     7
 43
1.0
 76
     1
 77
     6
 78
     2
 67
     7
 79
     5
170
     0
171
     0
290
     0
174
     0
 93
        1
 44
0.0
173
     0
291
     1
 45
0.0
1001
ACAD
1000
AcDbSavedByObjectVersion
1070
     0
  0
VISUALSTYLE
  5
2B
102
{ACAD_REACTORS
330
2A
102
}
330
2A
100
AcDbVisualStyle
  2
Flat
 70
     0
 71
     2
 72
     1
 73
     1
 90
        2
 40
-0.6
 41
30.0
 62
     5
 63
     7
421
 16777215
 74
     0
 91
        4
 64
     7
 65
   257
 75
     1
175
     1
 42
1.0
 92
        8
 66
     7
 43
1.0
 76
     1
 77
     6
 78
     2
 67
     7
 79
     5
170
     0
171
     0
290
     0
174
     0
 93
       13
 44
0.0
173
     0
291
     1
 45
0.0
1001
ACAD
1000
AcDbSavedByObjectVersion
1070
     0
  0
VISUALSTYLE
  5
2C
102
{ACAD_REACTORS
330
2A
102
}
330
2A
100
AcDbVisualStyle
  2
FlatWithEdges
 70
     1
 71
     2
 72
     1
 73
     1
 90
        2
 40
-0.6
 41
30.0
 62
     5
 63
     7
421
 16777215
 74
     1
 91
        4
 64
     7
 65
   257
 75
     1
175
     1
 42
1.0
 92
        0
 66
   257
 43
1.0
 76
     1
 77
     6
 78
     2
 67
     7
 79
     5
170
     0
171
     0
290
     0
174
     0
 93
       13
 44
0.0
173
     0
291
     1
 45
0.0
1001
ACAD
1000
AcDbSavedByObjectVersion
1070
     0
  0
VISUALSTYLE
  5
2D
102
{ACAD_REACTORS
330
2A
102
}
330
2A
100
AcDbVisualStyle
  2
Gouraud
 70
     2
 71
     2
 72
     2
 73
     1
 90
        2
 40
-0.6
 41
30.0
 62
     5
 63
     7
421
 16777215
 74
     0
 91
        4
 64
     7
 65
   257
 75
     1
175
     1
 42
1.0
 92
        0
 66
     7
 43
1.0
 76
     1
 77
     6
 78
     2
 67
     7
 79
     5
170
     0
171
     0
290
     0
174
     0
 93
       13
 44
0.0
173
     0
291
     1
 45
0.0
1001
ACAD
1000
AcDbSavedByObjectVersion
1070
     0
  0
VISUALSTYLE
  5
2E
102
{ACAD_REACTORS
330
2A
102
}
330
2A
100
AcDbVisualStyle
  2
GouraudWithEdges
 70
     3
 71
     2
 72
     2
 73
     1
 90
        2
 40
-0.6
 41
30.0
 62
     5
 63
     7
421
 16777215
 74
     1
 91
        4
 64
     7
 65
   257
 75
     1
175
     1
 42
1.0
 92
        0
 66
   257
 43
1.0
 76
     1
 77
     6
 78
     2
 67
     7
 79
     5
170
     0
171
     0
290
     0
174
     0
 93
       13
 44
0.0
173
     0
291
     1
 45
0.0
1001
ACAD
1000
AcDbSavedByObjectVersion
1070
     0
  0
VISUALSTYLE
  5
38
102
{ACAD_REACTORS
330
2A
102
}
330
2A
100
AcDbVisualStyle
  2
Linepattern
 70
    14
 71
     2
 72
     2
 73
     0
 90
        0
 40
-0.6
 41
-30.0
 62
     5
 63
     7
421
 16777215
 74
     1
 91
        4
 64
     7
 65
   257
 75
     7
175
     7
 42
1.0
 92
        8
 66
     7
 43
1.0
 76
     1
 77
     6
 78
     2
 67
     7
 79
     5
170
     0
171
     0
290
     0
174
     0
 93
        1
 44
0.0
173
     0
291
     1
 45
0.0
1001
ACAD
1000
AcDbSavedByObjectVersion
1070
     0
  0
VISUALSTYLE
  5
33
102
{ACAD_REACTORS
330
2A
102
}
330
2A
100
AcDbVisualStyle
  2
Realistic
 70
     8
 71
     2
 72
     2
 73
     0
 90
        0
 40
-0.6
 41
-30.0
 62
     5
 63
     7
421
 16777215
 74
     1
 91
        0
 64
     7
 65
   257
 75
     1
175
     1
 42
1.0
 92
        8
 66
     8
424
  7895160
 43
1.0
 76
     1
 77
     6
 78
     2
 67
     7
 79
     5
170
     0
171
     0
290
     0
174
     0
 93
       13
 44
0.0
173
     0
291
     0
 45
0.0
1001
ACAD
1000
AcDbSavedByObjectVersion
1070
     0
  0
VISUALSTYLE
  5
37
102
{ACAD_REACTORS
330
2A
102
}
330
2A
100
AcDbVisualStyle
  2
Thicken
 70
    13
 71
     2
 72
     2
 73
     0
 90
        0
 40
-0.6
 41
-30.0
 62
     5
 63
     7
421
 16777215
 74
     1
 91
        4
 64
     7
 65
   257
 75
     1
175
     1
 42
1.0
 92
       12
 66
     7
 43
1.0
 76
     1
 77
     6
 78
     2
 67
     7
 79
     5
170
     0
171
     0
290
     0
174
     0
 93
        1
 44
0.0
173
     0
291
     1
 45
0.0
1001
ACAD
1000
AcDbSavedByObjectVersion
1070
     0
  0
ENDSEC
  0
EOF
