  0
SECTION
  2
HEADER
  9
$ACADVER
  1
AC1018
  9
$ACADMAINTVER
 70
     0
  9
$DWGCODEPAGE
  3
ANSI_1252
  9
$INSBASE
 10
0.0
 20
0.0
 30
0.0
  9
$EXTMIN
 10
-48.00000000000001
 20
-0.0000000001000001
 30
0.0
  9
$EXTMAX
 10
101.0
 20
87.81799999999988
 30
0.0
  9
$LIMMIN
 10
0.0
 20
0.0
  9
$LIMMAX
 10
12.0
 20
9.0
  9
$ORTHOMODE
 70
     0
  9
$REGENMODE
 70
     1
  9
$FILLMODE
 70
     1
  9
$QTEXTMODE
 70
     0
  9
$MIRRTEXT
 70
     1
  9
$LTSCALE
 40
0.0393700787401575
  9
$ATTMODE
 70
     1
  9
$TEXTSIZE
 40
0.2
  9
$TRACEWID
 40
0.05
  9
$TEXTSTYLE
  7
Standard
  9
$CLAYER
  8
Default
  9
$CELTYPE
  6
ByLayer
  9
$CECOLOR
 62
   256
  9
$CELTSCALE
 40
1.0
  9
$DISPSILH
 70
     0
  9
$DIMSCALE
 40
1.0
  9
$DIMASZ
 40
0.18
  9
$DIMEXO
 40
0.0625
  9
$DIMDLI
 40
0.38
  9
$DIMRND
 40
0.0
  9
$DIMDLE
 40
0.0
  9
$DIMEXE
 40
0.18
  9
$DIMTP
 40
0.0
  9
$DIMTM
 40
0.0
  9
$DIMTXT
 40
0.18
  9
$DIMCEN
 40
0.09
  9
$DIMTSZ
 40
0.0
  9
$DIMTOL
 70
     0
  9
$DIMLIM
 70
     0
  9
$DIMTIH
 70
     1
  9
$DIMTOH
 70
     1
  9
$DIMSE1
 70
     0
  9
$DIMSE2
 70
     0
  9
$DIMTAD
 70
     0
  9
$DIMZIN
 70
     0
  9
$DIMBLK
  1

  9
$DIMASO
 70
     1
  9
$DIMSHO
 70
     1
  9
$DIMPOST
  1

  9
$DIMAPOST
  1

  9
$DIMALT
 70
     0
  9
$DIMALTD
 70
     2
  9
$DIMALTF
 40
25.4
  9
$DIMLFAC
 40
1.0
  9
$DIMTOFL
 70
     0
  9
$DIMTVP
 40
0.0
  9
$DIMTIX
 70
     0
  9
$DIMSOXD
 70
     0
  9
$DIMSAH
 70
     0
  9
$DIMBLK1
  1

  9
$DIMBLK2
  1

  9
$DIMSTYLE
  2
Standard
  9
$DIMCLRD
 70
     0
  9
$DIMCLRE
 70
     0
  9
$DIMCLRT
 70
     0
  9
$DIMTFAC
 40
1.0
  9
$DIMGAP
 40
0.09
  9
$DIMJUST
 70
     0
  9
$DIMSD1
 70
     0
  9
$DIMSD2
 70
     0
  9
$DIMTOLJ
 70
     1
  9
$DIMTZIN
 70
     0
  9
$DIMALTZ
 70
     0
  9
$DIMALTTZ
 70
     0
  9
$DIMUPT
 70
     0
  9
$DIMDEC
 70
     4
  9
$DIMTDEC
 70
     4
  9
$DIMALTU
 70
     2
  9
$DIMALTTD
 70
     2
  9
$DIMTXSTY
  7
Standard
  9
$DIMAUNIT
 70
     0
  9
$DIMADEC
 70
     0
  9
$DIMALTRND
 40
0.0
  9
$DIMAZIN
 70
     0
  9
$DIMDSEP
 70
    46
  9
$DIMATFIT
 70
     3
  9
$DIMFRAC
 70
     0
  9
$DIMLDRBLK
  1

  9
$DIMLUNIT
 70
     2
  9
$DIMLWD
 70
    -2
  9
$DIMLWE
 70
    -2
  9
$DIMTMOVE
 70
     2
  9
$LUNITS
 70
     2
  9
$LUPREC
 70
     4
  9
$SKETCHINC
 40
0.1
  9
$FILLETRAD
 40
0.5
  9
$AUNITS
 70
     0
  9
$AUPREC
 70
     0
  9
$MENU
  1
.
  9
$ELEVATION
 40
0.0
  9
$PELEVATION
 40
0.0
  9
$THICKNESS
 40
0.0
  9
$LIMCHECK
 70
     0
  9
$CHAMFERA
 40
0.5
  9
$CHAMFERB
 40
0.5
  9
$CHAMFERC
 40
1.0
  9
$CHAMFERD
 40
0.0
  9
$SKPOLY
 70
     0
  9
$TDCREATE
 40
2456790.660801539
  9
$TDUCREATE
 40
2456790.827468206
  9
$TDUPDATE
 40
2456790.660801551
  9
$TDUUPDATE
 40
2456790.827468218
  9
$TDINDWG
 40
0.0000000116
  9
$TDUSRTIMER
 40
0.0000000116
  9
$USRTIMER
 70
     1
  9
$ANGBASE
 50
0.0
  9
$ANGDIR
 70
     0
  9
$PDMODE
 70
     0
  9
$PDSIZE
 40
0.0
  9
$PLINEWID
 40
0.0
  9
$SPLFRAME
 70
     0
  9
$SPLINETYPE
 70
     6
  9
$SPLINESEGS
 70
     8
  9
$HANDSEED
  5
9A
  9
$SURFTAB1
 70
     6
  9
$SURFTAB2
 70
     6
  9
$SURFTYPE
 70
     6
  9
$SURFU
 70
     6
  9
$SURFV
 70
     6
  9
$UCSBASE
  2

  9
$UCSNAME
  2

  9
$UCSORG
 10
0.0
 20
0.0
 30
0.0
  9
$UCSXDIR
 10
1.0
 20
0.0
 30
0.0
  9
$UCSYDIR
 10
0.0
 20
1.0
 30
0.0
  9
$UCSORTHOREF
  2

  9
$UCSORTHOVIEW
 70
     0
  9
$UCSORGTOP
 10
0.0
 20
0.0
 30
0.0
  9
$UCSORGBOTTOM
 10
0.0
 20
0.0
 30
0.0
  9
$UCSORGLEFT
 10
0.0
 20
0.0
 30
0.0
  9
$UCSORGRIGHT
 10
0.0
 20
0.0
 30
0.0
  9
$UCSORGFRONT
 10
0.0
 20
0.0
 30
0.0
  9
$UCSORGBACK
 10
0.0
 20
0.0
 30
0.0
  9
$PUCSBASE
  2

  9
$PUCSNAME
  2

  9
$PUCSORG
 10
0.0
 20
0.0
 30
0.0
  9
$PUCSXDIR
 10
1.0
 20
0.0
 30
0.0
  9
$PUCSYDIR
 10
0.0
 20
1.0
 30
0.0
  9
$PUCSORTHOREF
  2

  9
$PUCSORTHOVIEW
 70
     0
  9
$PUCSORGTOP
 10
0.0
 20
0.0
 30
0.0
  9
$PUCSORGBOTTOM
 10
0.0
 20
0.0
 30
0.0
  9
$PUCSORGLEFT
 10
0.0
 20
0.0
 30
0.0
  9
$PUCSORGRIGHT
 10
0.0
 20
0.0
 30
0.0
  9
$PUCSORGFRONT
 10
0.0
 20
0.0
 30
0.0
  9
$PUCSORGBACK
 10
0.0
 20
0.0
 30
0.0
  9
$USERI1
 70
     0
  9
$USERI2
 70
     0
  9
$USERI3
 70
     0
  9
$USERI4
 70
     0
  9
$USERI5
 70
     0
  9
$USERR1
 40
0.0
  9
$USERR2
 40
0.0
  9
$USERR3
 40
0.0
  9
$USERR4
 40
0.0
  9
$USERR5
 40
0.0
  9
$WORLDVIEW
 70
     1
  9
$SHADEDGE
 70
     3
  9
$SHADEDIF
 70
    70
  9
$TILEMODE
 70
     1
  9
$MAXACTVP
 70
    64
  9
$PINSBASE
 10
0.0
 20
0.0
 30
0.0
  9
$PLIMCHECK
 70
     0
  9
$PEXTMIN
 10
1.000000000000000E+20
 20
1.000000000000000E+20
 30
1.000000000000000E+20
  9
$PEXTMAX
 10
-1.000000000000000E+20
 20
-1.000000000000000E+20
 30
-1.000000000000000E+20
  9
$PLIMMIN
 10
0.0
 20
0.0
  9
$PLIMMAX
 10
12.0
 20
9.0
  9
$UNITMODE
 70
     0
  9
$VISRETAIN
 70
     1
  9
$PLINEGEN
 70
     0
  9
$PSLTSCALE
 70
     1
  9
$TREEDEPTH
 70
  3020
  9
$CMLSTYLE
  2
Standard
  9
$CMLJUST
 70
     0
  9
$CMLSCALE
 40
1.0
  9
$PROXYGRAPHICS
 70
     1
  9
$MEASUREMENT
 70
     0
  9
$CELWEIGHT
370
    -1
  9
$ENDCAPS
280
     0
  9
$JOINSTYLE
280
     0
  9
$LWDISPLAY
290
     0
  9
$INSUNITS
 70
     1
  9
$HYPERLINKBASE
  1

  9
$STYLESHEET
  1

  9
$XEDIT
290
     1
  9
$CEPSNTYPE
380
     0
  9
$PSTYLEMODE
290
     1
  9
$FINGERPRINTGUID
  2
{2A744D01-F6A5-4776-B29E-B1EDE7509164}
  9
$VERSIONGUID
  2
{FAEB1C32-E019-11D5-929B-00C0DF256EC4}
  9
$EXTNAMES
290
     1
  9
$PSVPSCALE
 40
0.0
  9
$OLESTARTUP
290
     0
  9
$SORTENTS
280
   127
  9
$INDEXCTL
280
     0
  9
$HIDETEXT
280
     1
  9
$XCLIPFRAME
290
     0
  9
$HALOGAP
280
     0
  9
$OBSCOLOR
 70
   257
  9
$OBSLTYPE
280
     0
  9
$INTERSECTIONDISPLAY
280
     0
  9
$INTERSECTIONCOLOR
 70
   257
  9
$DIMASSOC
280
     2
  9
$PROJECTNAME
  1

  0
ENDSEC
  0
SECTION
  2
CLASSES
  0
CLASS
  1
ACDBDICTIONARYWDFLT
  2
AcDbDictionaryWithDefault
  3
ObjectDBX Classes
 90
        0
 91
        4
280
     0
281
     0
  0
CLASS
  1
VISUALSTYLE
  2
AcDbVisualStyle
  3
ObjectDBX Classes
 90
     4095
 91
        4
280
     0
281
     0
  0
ENDSEC
  0
SECTION
  2
TABLES
  0
TABLE
  2
VPORT
  5
8
330
0
100
AcDbSymbolTable
 70
     1
  0
VPORT
  5
29
330
8
100
AcDbSymbolTableRecord
100
AcDbViewportTableRecord
  2
*Active
 70
     0
 10
0.0
 20
0.0
 11
1.0
 21
1.0
 12
26.5
 22
43.90899999994994
 13
0.0
 23
0.0
 14
0.5
 24
0.5
 15
0.5
 25
0.5
 16
0.0
 26
0.0
 36
1.0
 17
0.0
 27
0.0
 37
0.0
 40
89.57436000010189
 41
1.696690883416048
 42
50.0
 43
0.0
 44
0.0
 50
0.0
 51
0.0
 71
     0
 72
   100
 73
     1
 74
     3
 75
     0
 76
     0
 77
     0
 78
     0
281
     0
 65
     1
110
0.0
120
0.0
130
0.0
111
1.0
121
0.0
131
0.0
112
0.0
122
1.0
132
0.0
 79
     0
146
0.0
  0
ENDTAB
  0
TABLE
  2
LTYPE
  5
5
330
0
100
AcDbSymbolTable
 70
     1
  0
LTYPE
  5
14
330
5
100
AcDbSymbolTableRecord
100
AcDbLinetypeTableRecord
  2
ByBlock
 70
     0
  3

 72
    65
 73
     0
 40
0.0
  0
LTYPE
  5
15
330
5
100
AcDbSymbolTableRecord
100
AcDbLinetypeTableRecord
  2
ByLayer
 70
     0
  3

 72
    65
 73
     0
 40
0.0
  0
LTYPE
  5
16
330
5
100
AcDbSymbolTableRecord
100
AcDbLinetypeTableRecord
  2
Continuous
 70
     0
  3
Solid line
 72
    65
 73
     0
 40
0.0
  0
ENDTAB
  0
TABLE
  2
LAYER
  5
2
330
0
100
AcDbSymbolTable
 70
     3
  0
LAYER
  5
10
330
2
100
AcDbSymbolTableRecord
100
AcDbLayerTableRecord
  2
0
 70
     0
 62
     7
  6
Continuous
370
    -3
390
F
  0
LAYER
  5
3B
330
2
100
AcDbSymbolTableRecord
100
AcDbLayerTableRecord
  2
Layer 06
 70
     0
 62
     7
  6
Continuous
370
    -3
390
F
  0
LAYER
  5
80
330
2
100
AcDbSymbolTableRecord
100
AcDbLayerTableRecord
  2
Default
 70
     0
 62
     7
  6
Continuous
370
    -3
390
F
  0
ENDTAB
  0
TABLE
  2
STYLE
  5
3
330
0
100
AcDbSymbolTable
 70
     1
  0
STYLE
  5
11
330
3
100
AcDbSymbolTableRecord
100
AcDbTextStyleTableRecord
  2
Standard
 70
     0
 40
0.0
 41
1.0
 50
0.0
 71
     0
 42
0.2
  3
txt
  4

  0
ENDTAB
  0
TABLE
  2
VIEW
  5
6
330
0
100
AcDbSymbolTable
 70
     0
  0
ENDTAB
  0
TABLE
  2
UCS
  5
7
330
0
100
AcDbSymbolTable
 70
     0
  0
ENDTAB
  0
TABLE
  2
APPID
  5
9
330
0
100
AcDbSymbolTable
 70
     1
  0
APPID
  5
12
330
9
100
AcDbSymbolTableRecord
100
AcDbRegAppTableRecord
  2
ACAD
 70
     0
  0
ENDTAB
  0
TABLE
  2
DIMSTYLE
  5
A
330
0
100
AcDbSymbolTable
 70
     1
100
AcDbDimStyleTable
  0
DIMSTYLE
105
27
330
A
100
AcDbSymbolTableRecord
100
AcDbDimStyleTableRecord
  2
Standard
 70
     0
340
11
  0
ENDTAB
  0
TABLE
  2
BLOCK_RECORD
  5
1
330
0
100
AcDbSymbolTable
 70
     1
  0
BLOCK_RECORD
  5
1F
330
1
100
AcDbSymbolTableRecord
100
AcDbBlockTableRecord
  2
*Model_Space
340
22
  0
BLOCK_RECORD
  5
1B
330
1
100
AcDbSymbolTableRecord
100
AcDbBlockTableRecord
  2
*Paper_Space
340
1E
  0
BLOCK_RECORD
  5
23
330
1
100
AcDbSymbolTableRecord
100
AcDbBlockTableRecord
  2
*Paper_Space0
340
26
  0
ENDTAB
  0
ENDSEC
  0
SECTION
  2
BLOCKS
  0
BLOCK
  5
20
330
1F
100
AcDbEntity
  8
0
100
AcDbBlockBegin
  2
*Model_Space
 70
     0
 10
0.0
 20
0.0
 30
0.0
  3
*Model_Space
  1

  0
ENDBLK
  5
21
330
1F
100
AcDbEntity
  8
0
100
AcDbBlockEnd
  0
BLOCK
  5
1C
330
1B
100
AcDbEntity
 67
     1
  8
0
100
AcDbBlockBegin
  2
*Paper_Space
 70
     0
 10
0.0
 20
0.0
 30
0.0
  3
*Paper_Space
  1

  0
ENDBLK
  5
1D
330
1B
100
AcDbEntity
 67
     1
  8
0
100
AcDbBlockEnd
  0
BLOCK
  5
24
330
23
100
AcDbEntity
  8
0
100
AcDbBlockBegin
  2
*Paper_Space0
 70
     0
 10
0.0
 20
0.0
 30
0.0
  3
*Paper_Space0
  1

  0
ENDBLK
  5
25
330
23
100
AcDbEntity
  8
0
100
AcDbBlockEnd
  0
ENDSEC
  0
SECTION
  2
ENTITIES
  0
POLYLINE
  5
3C
330
1F
100
AcDbEntity
  8
Layer 06
100
AcDb2dPolyline
 66
     1
 10
0.0
 20
0.0
 30
0.0
  0
VERTEX
  5
3D
330
3C
100
AcDbEntity
  8
Layer 06
100
AcDbVertex
100
AcDb2dVertex
 10
89.0
 20
25.068
 30
0.0
  0
VERTEX
  5
3E
330
3C
100
AcDbEntity
  8
Layer 06
100
AcDbVertex
100
AcDb2dVertex
 10
89.0
 20
27.818
 30
0.0
  0
SEQEND
  5
3F
330
3C
100
AcDbEntity
  8
Layer 06
  0
LINE
  5
40
330
1F
100
AcDbEntity
  8
Layer 06
100
AcDbLine
 10
89.60412160399979
 20
25.07300000000022
 30
0.0
 11
89.02999999999979
 21
25.07300000000022
 31
0.0
  0
SPLINE
  5
41
330
1F
100
AcDbEntity
  8
Layer 06
100
AcDbSpline
210
0.0
220
0.0
230
1.0
 70
     8
 71
     5
 72
    12
 73
     6
 74
     0
 42
0.0000000001
 43
0.0000000001
 40
0.0
 40
0.0
 40
0.0
 40
0.0
 40
0.0
 40
0.0
 40
1.0
 40
1.0
 40
1.0
 40
1.0
 40
1.0
 40
1.0
 10
90.84252806299979
 20
23.80981292960022
 30
0.0
 10
90.78797646159828
 20
24.15937809961187
 30
0.0
 10
90.73342486019676
 20
24.50894326962353
 30
0.0
 10
90.31171381792176
 20
25.07300000000022
 30
0.0
 10
89.95791771096076
 20
25.07300000000022
 30
0.0
 10
89.60412160399979
 20
25.07300000000022
 30
0.0
  0
POLYLINE
  5
42
330
1F
100
AcDbEntity
  8
Layer 06
100
AcDb2dPolyline
 66
     1
 10
0.0
 20
0.0
 30
0.0
  0
VERTEX
  5
43
330
42
100
AcDbEntity
  8
Layer 06
100
AcDbVertex
100
AcDb2dVertex
 10
94.52140825939979
 20
0.2356492338002205
 30
0.0
  0
VERTEX
  5
44
330
42
100
AcDbEntity
  8
Layer 06
100
AcDbVertex
100
AcDb2dVertex
 10
90.84252806299979
 20
23.80981292960022
 30
0.0
  0
SEQEND
  5
45
330
42
100
AcDbEntity
  8
Layer 06
  0
SPLINE
  5
46
330
1F
100
AcDbEntity
  8
Layer 06
100
AcDbSpline
210
0.0
220
0.0
230
1.0
 70
     8
 71
     2
 72
     7
 73
     4
 74
     0
 42
0.0000000001
 43
0.0000000001
 40
0.0
 40
0.0
 40
0.0
 40
1.0
 40
2.0
 40
2.0
 40
2.0
 10
94.59064054519978
 20
0.1760000000002186
 30
0.0
 10
94.56474807221956
 20
0.1764295380535018
 30
0.0
 10
94.52554202807191
 20
0.2100313661312115
 30
0.0
 10
94.52140825939979
 20
0.2356492338002205
 30
0.0
  0
POLYLINE
  5
47
330
1F
100
AcDbEntity
  8
Layer 06
100
AcDb2dPolyline
 66
     1
 10
0.0
 20
0.0
 30
0.0
  0
VERTEX
  5
48
330
47
100
AcDbEntity
  8
Layer 06
100
AcDbVertex
100
AcDb2dVertex
 10
95.97772984441652
 20
0.1760000000002186
 30
0.0
  0
VERTEX
  5
49
330
47
100
AcDbEntity
  8
Layer 06
100
AcDbVertex
100
AcDb2dVertex
 10
94.59064054519978
 20
0.1760000000002186
 30
0.0
  0
SEQEND
  5
4A
330
47
100
AcDbEntity
  8
Layer 06
  0
SPLINE
  5
4B
330
1F
100
AcDbEntity
  8
Layer 06
100
AcDbSpline
210
0.0
220
0.0
230
1.0
 70
     8
 71
     5
 72
    12
 73
     6
 74
     0
 42
0.0000000001
 43
0.0000000001
 40
0.0
 40
0.0
 40
0.0
 40
0.0
 40
0.0
 40
0.0
 40
1.0
 40
1.0
 40
1.0
 40
1.0
 40
1.0
 40
1.0
 10
96.04754237439978
 20
0.2588448862002188
 30
0.0
 10
96.05016075741104
 20
0.2373361286607309
 30
0.0
 10
96.05277914042232
 20
0.215827371121243
 30
0.0
 10
96.02106493783911
 20
0.1760000000002186
 30
0.0
 10
95.99939739112781
 20
0.1760000000002186
 30
0.0
 10
95.97772984441652
 20
0.1760000000002186
 30
0.0
  0
POLYLINE
  5
4C
330
1F
100
AcDbEntity
  8
Layer 06
100
AcDb2dPolyline
 66
     1
 10
0.0
 20
0.0
 30
0.0
  0
VERTEX
  5
4D
330
4C
100
AcDbEntity
  8
Layer 06
100
AcDbVertex
100
AcDb2dVertex
 10
92.69280746849134
 20
27.81637920791686
 30
0.0
  0
VERTEX
  5
4E
330
4C
100
AcDbEntity
  8
Layer 06
100
AcDbVertex
100
AcDb2dVertex
 10
96.04754237439978
 20
0.2588448862002188
 30
0.0
  0
SEQEND
  5
4F
330
4C
100
AcDbEntity
  8
Layer 06
  0
ARC
  5
50
330
1F
100
AcDbEntity
  8
Layer 06
  6
Continuous
100
AcDbCircle
 10
94.71315830129977
 20
0.0937678608002201
 30
0.0
 40
0.0937678609
100
AcDbArc
 50
118.7203267979021
 51
270.0
  0
LINE
  5
51
330
1F
100
AcDbEntity
  8
Layer 06
  6
Continuous
100
AcDbLine
 10
95.92304088849978
 20
-0.0000000000997799
 30
0.0
 11
94.71315830129977
 21
-0.0000000000997799
 31
0.0
  0
ARC
  5
52
330
1F
100
AcDbEntity
  8
Layer 06
  6
Continuous
100
AcDbCircle
 10
95.92304088849978
 20
0.0937678608002201
 30
0.0
 40
0.0937678609
100
AcDbArc
 50
270.0
 51
61.27967320209792
  0
POLYLINE
  5
53
330
1F
100
AcDbEntity
  8
Layer 06
100
AcDb2dPolyline
 66
     1
 10
0.0
 20
0.0
 30
0.0
  0
VERTEX
  5
54
330
53
100
AcDbEntity
  8
Layer 06
100
AcDbVertex
100
AcDb2dVertex
 10
69.0
 20
25.068
 30
0.0
  0
VERTEX
  5
55
330
53
100
AcDbEntity
  8
Layer 06
100
AcDbVertex
100
AcDb2dVertex
 10
69.0
 20
27.818
 30
0.0
  0
SEQEND
  5
56
330
53
100
AcDbEntity
  8
Layer 06
  0
LINE
  5
57
330
1F
100
AcDbEntity
  8
Layer 06
100
AcDbLine
 10
68.39587839600021
 20
25.07300000000022
 30
0.0
 11
68.97000000000021
 21
25.07300000000022
 31
0.0
  0
SPLINE
  5
58
330
1F
100
AcDbEntity
  8
Layer 06
100
AcDbSpline
210
0.0
220
0.0
230
1.0
 70
     8
 71
     5
 72
    12
 73
     6
 74
     0
 42
0.0000000001
 43
0.0000000001
 40
0.0
 40
0.0
 40
0.0
 40
0.0
 40
0.0
 40
0.0
 40
1.0
 40
1.0
 40
1.0
 40
1.0
 40
1.0
 40
1.0
 10
67.15747193700021
 20
23.80981292960022
 30
0.0
 10
67.21202353840172
 20
24.15937809961187
 30
0.0
 10
67.26657513980324
 20
24.50894326962353
 30
0.0
 10
67.68828618207824
 20
25.07300000000022
 30
0.0
 10
68.04208228903924
 20
25.07300000000022
 30
0.0
 10
68.39587839600021
 20
25.07300000000022
 30
0.0
  0
POLYLINE
  5
59
330
1F
100
AcDbEntity
  8
Layer 06
100
AcDb2dPolyline
 66
     1
 10
0.0
 20
0.0
 30
0.0
  0
VERTEX
  5
5A
330
59
100
AcDbEntity
  8
Layer 06
100
AcDbVertex
100
AcDb2dVertex
 10
63.4785917406002
 20
0.2356492338002205
 30
0.0
  0
VERTEX
  5
5B
330
59
100
AcDbEntity
  8
Layer 06
100
AcDbVertex
100
AcDb2dVertex
 10
67.15747193700021
 20
23.80981292960022
 30
0.0
  0
SEQEND
  5
5C
330
59
100
AcDbEntity
  8
Layer 06
  0
SPLINE
  5
5D
330
1F
100
AcDbEntity
  8
Layer 06
100
AcDbSpline
210
0.0
220
0.0
230
1.0
 70
     8
 71
     2
 72
     7
 73
     4
 74
     0
 42
0.0000000001
 43
0.0000000001
 40
0.0
 40
0.0
 40
0.0
 40
1.0
 40
2.0
 40
2.0
 40
2.0
 10
63.40935945480022
 20
0.1760000000002186
 30
0.0
 10
63.43525192778044
 20
0.1764295380535018
 30
0.0
 10
63.4744579719281
 20
0.2100313661312115
 30
0.0
 10
63.4785917406002
 20
0.2356492338002205
 30
0.0
  0
POLYLINE
  5
5E
330
1F
100
AcDbEntity
  8
Layer 06
100
AcDb2dPolyline
 66
     1
 10
0.0
 20
0.0
 30
0.0
  0
VERTEX
  5
5F
330
5E
100
AcDbEntity
  8
Layer 06
100
AcDbVertex
100
AcDb2dVertex
 10
62.02227015558348
 20
0.1760000000002186
 30
0.0
  0
VERTEX
  5
60
330
5E
100
AcDbEntity
  8
Layer 06
100
AcDbVertex
100
AcDb2dVertex
 10
63.40935945480022
 20
0.1760000000002186
 30
0.0
  0
SEQEND
  5
61
330
5E
100
AcDbEntity
  8
Layer 06
  0
SPLINE
  5
62
330
1F
100
AcDbEntity
  8
Layer 06
100
AcDbSpline
210
0.0
220
0.0
230
1.0
 70
     8
 71
     5
 72
    12
 73
     6
 74
     0
 42
0.0000000001
 43
0.0000000001
 40
0.0
 40
0.0
 40
0.0
 40
0.0
 40
0.0
 40
0.0
 40
1.0
 40
1.0
 40
1.0
 40
1.0
 40
1.0
 40
1.0
 10
61.95245762560021
 20
0.2588448862002188
 30
0.0
 10
61.94983924258896
 20
0.2373361286607309
 30
0.0
 10
61.94722085957768
 20
0.215827371121243
 30
0.0
 10
61.97893506216089
 20
0.1760000000002186
 30
0.0
 10
62.00060260887219
 20
0.1760000000002186
 30
0.0
 10
62.02227015558348
 20
0.1760000000002186
 30
0.0
  0
POLYLINE
  5
63
330
1F
100
AcDbEntity
  8
Layer 06
100
AcDb2dPolyline
 66
     1
 10
0.0
 20
0.0
 30
0.0
  0
VERTEX
  5
64
330
63
100
AcDbEntity
  8
Layer 06
100
AcDbVertex
100
AcDb2dVertex
 10
65.30719253150866
 20
27.81637920791686
 30
0.0
  0
VERTEX
  5
65
330
63
100
AcDbEntity
  8
Layer 06
100
AcDbVertex
100
AcDb2dVertex
 10
61.95245762560021
 20
0.2588448862002188
 30
0.0
  0
SEQEND
  5
66
330
63
100
AcDbEntity
  8
Layer 06
  0
ARC
  5
67
330
1F
100
AcDbEntity
  8
Layer 06
  6
Continuous
100
AcDbCircle
 10
63.28684169870024
 20
0.0937678608002201
 30
0.0
 40
0.0937678609
100
AcDbArc
 50
270.0
 51
61.27967320209792
  0
LINE
  5
68
330
1F
100
AcDbEntity
  8
Layer 06
  6
Continuous
100
AcDbLine
 10
62.07695911150022
 20
-0.0000000000997799
 30
0.0
 11
63.28684169870024
 21
-0.0000000000997799
 31
0.0
  0
ARC
  5
69
330
1F
100
AcDbEntity
  8
Layer 06
  6
Continuous
100
AcDbCircle
 10
62.07695911150022
 20
0.0937678608002201
 30
0.0
 40
0.0937678609
100
AcDbArc
 50
118.7203267979021
 51
270.0000000000043
  0
SPLINE
  5
6A
330
1F
100
AcDbEntity
  8
Layer 06
  6
Continuous
100
AcDbSpline
210
0.0
220
0.0
230
1.0
 70
    24
 71
     2
 72
     6
 73
     3
 74
     0
 42
0.0000000001
 43
0.0000000001
 40
0.0
 40
0.0
 40
0.0
 40
2.730000000000217
 40
2.730000000000217
 40
2.730000000000217
 10
36.0
 20
25.06799999999978
 30
0.0
 10
35.99999999999989
 20
26.43299999999989
 30
0.0
 10
35.99999999999978
 20
27.798
 30
0.0
  0
SPLINE
  5
6B
330
1F
100
AcDbEntity
  8
Layer 06
100
AcDbSpline
210
0.0
220
0.0
230
1.0
 70
    24
 71
     2
 72
     6
 73
     3
 74
     0
 42
0.0000000001
 43
0.0000000001
 40
0.0
 40
0.0
 40
0.0
 40
0.5741216039999983
 40
0.5741216039999983
 40
0.5741216039999983
 10
36.60412160399978
 20
25.073
 30
0.0
 10
36.31706080199978
 20
25.073
 30
0.0
 10
36.02999999999978
 20
25.073
 30
0.0
  0
SPLINE
  5
6C
330
1F
100
AcDbEntity
  8
Layer 06
100
AcDbSpline
210
0.0
220
0.0
230
1.0
 70
     8
 71
     5
 72
    12
 73
     6
 74
     0
 42
0.0000000001
 43
0.0000000001
 40
0.0
 40
0.0
 40
0.0
 40
0.0
 40
0.0
 40
0.0
 40
1.0
 40
1.0
 40
1.0
 40
1.0
 40
1.0
 40
1.0
 10
37.84252806299978
 20
23.8098129296
 30
0.0
 10
37.78797646159828
 20
24.15937809961165
 30
0.0
 10
37.73342486019677
 20
24.50894326962331
 30
0.0
 10
37.31171381792175
 20
25.073
 30
0.0
 10
36.95791771096076
 20
25.073
 30
0.0
 10
36.60412160399978
 20
25.073
 30
0.0
  0
SPLINE
  5
6D
330
1F
100
AcDbEntity
  8
Layer 06
100
AcDbSpline
210
0.0
220
0.0
230
1.0
 70
    24
 71
     2
 72
     6
 73
     3
 74
     0
 42
0.0000000001
 43
0.0000000001
 40
0.0
 40
0.0
 40
0.0
 40
1.0
 40
1.0
 40
1.0
 10
41.52140825939978
 20
0.2356492338000002
 30
0.0
 10
39.68196816119978
 20
12.0227310817
 30
0.0
 10
37.84252806299978
 20
23.8098129296
 30
0.0
  0
SPLINE
  5
6E
330
1F
100
AcDbEntity
  8
Layer 06
100
AcDbSpline
210
0.0
220
0.0
230
1.0
 70
     8
 71
     2
 72
     7
 73
     4
 74
     0
 42
0.0000000001
 43
0.0000000001
 40
0.0
 40
0.0
 40
0.0
 40
1.0
 40
2.0
 40
2.0
 40
2.0
 10
41.59064054519978
 20
0.1759999999999984
 30
0.0
 10
41.56474807221957
 20
0.1764295380532815
 30
0.0
 10
41.52554202807192
 20
0.2100313661309913
 30
0.0
 10
41.52140825939978
 20
0.2356492338000002
 30
0.0
  0
SPLINE
  5
6F
330
1F
100
AcDbEntity
  8
Layer 06
100
AcDbSpline
210
0.0
220
0.0
230
1.0
 70
    24
 71
     2
 72
     6
 73
     3
 74
     0
 42
0.0000000001
 43
0.0000000001
 40
0.0
 40
0.0
 40
0.0
 40
1.0
 40
1.0
 40
1.0
 10
42.97772984441652
 20
0.1759999999999984
 30
0.0
 10
42.28418519480815
 20
0.1759999999999984
 30
0.0
 10
41.59064054519978
 20
0.1759999999999984
 30
0.0
  0
SPLINE
  5
70
330
1F
100
AcDbEntity
  8
Layer 06
100
AcDbSpline
210
0.0
220
0.0
230
1.0
 70
     8
 71
     5
 72
    12
 73
     6
 74
     0
 42
0.0000000001
 43
0.0000000001
 40
0.0
 40
0.0
 40
0.0
 40
0.0
 40
0.0
 40
0.0
 40
1.0
 40
1.0
 40
1.0
 40
1.0
 40
1.0
 40
1.0
 10
43.04754237439978
 20
0.2588448861999986
 30
0.0
 10
43.05016075741104
 20
0.2373361286605106
 30
0.0
 10
43.05277914042231
 20
0.2158273711210227
 30
0.0
 10
43.02106493783911
 20
0.1759999999999984
 30
0.0
 10
42.99939739112781
 20
0.1759999999999984
 30
0.0
 10
42.97772984441652
 20
0.1759999999999984
 30
0.0
  0
SPLINE
  5
71
330
1F
100
AcDbEntity
  8
Layer 06
100
AcDbSpline
210
0.0
220
0.0
230
1.0
 70
    24
 71
     2
 72
     6
 73
     3
 74
     0
 42
0.0000000001
 43
0.0000000001
 40
0.0
 40
0.0
 40
0.0
 40
1.0
 40
1.0
 40
1.0
 10
39.69280746849134
 20
27.81637920791664
 30
0.0
 10
41.37017492144556
 20
14.03761204705832
 30
0.0
 10
43.04754237439978
 20
0.2588448861999986
 30
0.0
  0
SPLINE
  5
72
330
1F
100
AcDbEntity
  8
Layer 06
  6
Continuous
100
AcDbSpline
210
0.0
220
0.0
230
1.0
 70
    12
 71
     2
 72
     8
 73
     5
 74
     0
 42
0.0000000001
 43
0.0000000001
 40
0.0
 40
0.0
 40
0.0
 40
0.1237889725417989
 40
0.1237889725417989
 40
0.2475779450835977
 40
0.2475779450835977
 40
0.2475779450835977
 10
41.66809959489665
 20
0.1759999999855927
 30
0.0
 41
1.0
 10
41.60426800955952
 20
0.1410237888419118
 30
0.0
 41
0.7899418936709716
 10
41.62232013881719
 20
0.0705118943709556
 30
0.0
 41
1.0
 10
41.64037226807486
 20
-0.0000000001000005
 30
0.0
 41
0.7899418936709716
 10
41.71315830129979
 20
-0.0000000001000001
 30
0.0
 41
1.0
  0
SPLINE
  5
73
330
1F
100
AcDbEntity
  8
Layer 06
  6
Continuous
100
AcDbSpline
210
0.0
220
0.0
230
1.0
 70
    24
 71
     2
 72
     6
 73
     3
 74
     0
 42
0.0000000001
 43
0.0000000001
 40
0.0
 40
0.0
 40
0.0
 40
1.209882587199999
 40
1.209882587199999
 40
1.209882587199999
 10
42.92304088849978
 20
-0.0000000001000001
 30
0.0
 10
42.31809959489978
 20
-0.0000000001000001
 30
0.0
 10
41.71315830129978
 20
-0.0000000001000001
 30
0.0
  0
SPLINE
  5
74
330
1F
100
AcDbEntity
  8
Layer 06
  6
Continuous
100
AcDbSpline
210
0.0
220
0.0
230
1.0
 70
    12
 71
     2
 72
     8
 73
     5
 74
     0
 42
0.0000000001
 43
0.0000000001
 40
0.0
 40
0.0
 40
0.0
 40
0.1237889725417986
 40
0.1237889725417986
 40
0.2475779450835973
 40
0.2475779450835973
 40
0.2475779450835973
 10
42.92304088849978
 20
-0.0000000001000001
 30
0.0
 41
1.0
 10
42.99582692172469
 20
-0.0000000001000001
 30
0.0
 41
0.7899418936709723
 10
43.01387905098237
 20
0.070511894370956
 30
0.0
 41
1.0
 10
43.03193118024003
 20
0.1410237888419121
 30
0.0
 41
0.7899418936709723
 10
42.9680995949029
 20
0.1759999999855928
 30
0.0
 41
1.0
  0
SPLINE
  5
75
330
1F
100
AcDbEntity
  8
Layer 06
  6
Continuous
100
AcDbSpline
210
0.0
220
0.0
230
1.0
 70
    24
 71
     2
 72
     6
 73
     3
 74
     0
 42
0.0000000001
 43
0.0000000001
 40
0.0
 40
0.0
 40
0.0
 40
2.730000000000217
 40
2.730000000000217
 40
2.730000000000217
 10
-35.99999999999978
 20
27.798
 30
0.0
 10
-35.99999999999989
 20
26.43299999999989
 30
0.0
 10
-36.0
 20
25.06799999999978
 30
0.0
  0
SPLINE
  5
76
330
1F
100
AcDbEntity
  8
Layer 06
100
AcDbSpline
210
0.0
220
0.0
230
1.0
 70
    24
 71
     2
 72
     6
 73
     3
 74
     0
 42
0.0000000001
 43
0.0000000001
 40
0.0
 40
0.0
 40
0.0
 40
0.5741216039999983
 40
0.5741216039999983
 40
0.5741216039999983
 10
-36.60412160399978
 20
25.073
 30
0.0
 10
-36.31706080199978
 20
25.073
 30
0.0
 10
-36.02999999999978
 20
25.073
 30
0.0
  0
SPLINE
  5
77
330
1F
100
AcDbEntity
  8
Layer 06
100
AcDbSpline
210
0.0
220
0.0
230
1.0
 70
     8
 71
     5
 72
    12
 73
     6
 74
     0
 42
0.0000000001
 43
0.0000000001
 40
0.0
 40
0.0
 40
0.0
 40
0.0
 40
0.0
 40
0.0
 40
1.0
 40
1.0
 40
1.0
 40
1.0
 40
1.0
 40
1.0
 10
-37.84252806299978
 20
23.8098129296
 30
0.0
 10
-37.78797646159828
 20
24.15937809961165
 30
0.0
 10
-37.73342486019677
 20
24.50894326962331
 30
0.0
 10
-37.31171381792175
 20
25.073
 30
0.0
 10
-36.95791771096076
 20
25.073
 30
0.0
 10
-36.60412160399978
 20
25.073
 30
0.0
  0
SPLINE
  5
78
330
1F
100
AcDbEntity
  8
Layer 06
100
AcDbSpline
210
0.0
220
0.0
230
1.0
 70
    24
 71
     2
 72
     6
 73
     3
 74
     0
 42
0.0000000001
 43
0.0000000001
 40
0.0
 40
0.0
 40
0.0
 40
1.0
 40
1.0
 40
1.0
 10
-41.52140825939978
 20
0.2356492338000002
 30
0.0
 10
-39.68196816119978
 20
12.0227310817
 30
0.0
 10
-37.84252806299978
 20
23.8098129296
 30
0.0
  0
SPLINE
  5
79
330
1F
100
AcDbEntity
  8
Layer 06
100
AcDbSpline
210
0.0
220
0.0
230
1.0
 70
     8
 71
     2
 72
     7
 73
     4
 74
     0
 42
0.0000000001
 43
0.0000000001
 40
0.0
 40
0.0
 40
0.0
 40
1.0
 40
2.0
 40
2.0
 40
2.0
 10
-41.59064054519978
 20
0.1759999999999984
 30
0.0
 10
-41.56474807221957
 20
0.1764295380532815
 30
0.0
 10
-41.52554202807192
 20
0.2100313661309913
 30
0.0
 10
-41.52140825939978
 20
0.2356492338000002
 30
0.0
  0
SPLINE
  5
7A
330
1F
100
AcDbEntity
  8
Layer 06
100
AcDbSpline
210
0.0
220
0.0
230
1.0
 70
    24
 71
     2
 72
     6
 73
     3
 74
     0
 42
0.0000000001
 43
0.0000000001
 40
0.0
 40
0.0
 40
0.0
 40
1.0
 40
1.0
 40
1.0
 10
-42.97772984441652
 20
0.1759999999999984
 30
0.0
 10
-42.28418519480815
 20
0.1759999999999984
 30
0.0
 10
-41.59064054519978
 20
0.1759999999999984
 30
0.0
  0
SPLINE
  5
7B
330
1F
100
AcDbEntity
  8
Layer 06
100
AcDbSpline
210
0.0
220
0.0
230
1.0
 70
     8
 71
     5
 72
    12
 73
     6
 74
     0
 42
0.0000000001
 43
0.0000000001
 40
0.0
 40
0.0
 40
0.0
 40
0.0
 40
0.0
 40
0.0
 40
1.0
 40
1.0
 40
1.0
 40
1.0
 40
1.0
 40
1.0
 10
-43.04754237439978
 20
0.2588448861999986
 30
0.0
 10
-43.05016075741104
 20
0.2373361286605106
 30
0.0
 10
-43.05277914042231
 20
0.2158273711210227
 30
0.0
 10
-43.02106493783911
 20
0.1759999999999984
 30
0.0
 10
-42.99939739112781
 20
0.1759999999999984
 30
0.0
 10
-42.97772984441652
 20
0.1759999999999984
 30
0.0
  0
SPLINE
  5
7C
330
1F
100
AcDbEntity
  8
Layer 06
100
AcDbSpline
210
0.0
220
0.0
230
1.0
 70
    24
 71
     2
 72
     6
 73
     3
 74
     0
 42
0.0000000001
 43
0.0000000001
 40
0.0
 40
0.0
 40
0.0
 40
1.0
 40
1.0
 40
1.0
 10
-39.69280746849134
 20
27.81637920791664
 30
0.0
 10
-41.37017492144556
 20
14.03761204705832
 30
0.0
 10
-43.04754237439978
 20
0.2588448861999986
 30
0.0
  0
SPLINE
  5
7D
330
1F
100
AcDbEntity
  8
Layer 06
  6
Continuous
100
AcDbSpline
210
0.0
220
0.0
230
1.0
 70
    12
 71
     2
 72
     8
 73
     5
 74
     0
 42
0.0000000001
 43
0.0000000001
 40
0.0
 40
0.0
 40
0.0
 40
0.1237889725417989
 40
0.1237889725417989
 40
0.2475779450835977
 40
0.2475779450835977
 40
0.2475779450835977
 10
-41.71315830129978
 20
-0.0000000001000001
 30
0.0
 41
1.0
 10
-41.64037226807486
 20
-0.0000000001000001
 30
0.0
 41
0.7899418936709716
 10
-41.62232013881719
 20
0.0705118943709562
 30
0.0
 41
1.0
 10
-41.60426800955952
 20
0.1410237888419125
 30
0.0
 41
0.7899418936709716
 10
-41.66809959489665
 20
0.175999999985593
 30
0.0
 41
1.0
  0
SPLINE
  5
7E
330
1F
100
AcDbEntity
  8
Layer 06
  6
Continuous
100
AcDbSpline
210
0.0
220
0.0
230
1.0
 70
    24
 71
     2
 72
     6
 73
     3
 74
     0
 42
0.0000000001
 43
0.0000000001
 40
0.0
 40
0.0
 40
0.0
 40
1.209882587199999
 40
1.209882587199999
 40
1.209882587199999
 10
-42.92304088849978
 20
-0.0000000001000001
 30
0.0
 10
-42.31809959489978
 20
-0.0000000001000001
 30
0.0
 10
-41.71315830129978
 20
-0.0000000001000001
 30
0.0
  0
SPLINE
  5
7F
330
1F
100
AcDbEntity
  8
Layer 06
  6
Continuous
100
AcDbSpline
210
0.0
220
0.0
230
1.0
 70
    12
 71
     2
 72
     8
 73
     5
 74
     0
 42
0.0000000001
 43
0.0000000001
 40
0.0
 40
0.0
 40
0.0
 40
0.1237889725417986
 40
0.1237889725417986
 40
0.2475779450835973
 40
0.2475779450835973
 40
0.2475779450835973
 10
-42.9680995949029
 20
0.1759999999855927
 30
0.0
 41
1.0
 10
-43.03193118024003
 20
0.1410237888419118
 30
0.0
 41
0.7899418936709723
 10
-43.01387905098236
 20
0.0705118943709558
 30
0.0
 41
1.0
 10
-42.99582692172469
 20
-0.0000000001000003
 30
0.0
 41
0.7899418936709723
 10
-42.92304088849977
 20
-0.0000000001000001
 30
0.0
 41
1.0
  0
LINE
  5
81
330
1F
100
AcDbEntity
  8
Default
100
AcDbLine
 10
89.0
 20
25.068
 30
0.0
 11
69.0
 21
25.068
 31
0.0
  0
LINE
  5
82
330
1F
100
AcDbEntity
  8
Default
100
AcDbLine
 10
36.0
 20
25.06799999999978
 30
0.0
 11
-36.0
 21
25.06799999999978
 31
0.0
  0
LINE
  5
83
330
1F
100
AcDbEntity
  8
Layer 06
  6
Continuous
100
AcDbLine
 10
57.0
 20
28.318
 30
0.0
 11
57.0
 21
28.818
 31
0.0
  0
LINE
  5
84
330
1F
100
AcDbEntity
  8
Layer 06
  6
Continuous
100
AcDbLine
 10
57.0
 20
28.318
 30
0.0
 11
57.0
 21
28.818
 31
0.0
  0
LINE
  5
85
330
1F
100
AcDbEntity
  8
Layer 06
  6
Continuous
100
AcDbLine
 10
99.836
 20
27.818
 30
0.0
 11
101.0
 21
28.318
 31
0.0
  0
LINE
  5
86
330
1F
100
AcDbEntity
  8
Layer 06
  6
Continuous
100
AcDbLine
 10
58.164
 20
27.818
 30
0.0
 11
57.0
 21
28.318
 31
0.0
  0
LINE
  5
87
330
1F
100
AcDbEntity
  8
Layer 06
  6
Continuous
100
AcDbLine
 10
99.836
 20
27.818
 30
0.0
 11
58.164
 21
27.818
 31
0.0
  0
LINE
  5
88
330
1F
100
AcDbEntity
  8
Layer 06
  6
Continuous
100
AcDbLine
 10
101.0
 20
28.318
 30
0.0
 11
57.0
 21
28.318
 31
0.0
  0
LINE
  5
89
330
1F
100
AcDbEntity
  8
Layer 06
  6
Continuous
100
AcDbLine
 10
101.0
 20
28.318
 30
0.0
 11
101.0
 21
28.818
 31
0.0
  0
POLYLINE
  5
8A
330
1F
100
AcDbEntity
  8
Layer 06
100
AcDb2dPolyline
 66
     1
 10
0.0
 20
0.0
 30
0.0
  0
VERTEX
  5
8B
330
8A
100
AcDbEntity
  8
Layer 06
100
AcDbVertex
100
AcDb2dVertex
 10
57.0
 20
28.818
 30
0.0
  0
VERTEX
  5
8C
330
8A
100
AcDbEntity
  8
Layer 06
100
AcDbVertex
100
AcDb2dVertex
 10
101.0
 20
28.818
 30
0.0
  0
SEQEND
  5
8D
330
8A
100
AcDbEntity
  8
Layer 06
  0
SPLINE
  5
8E
330
1F
100
AcDbEntity
  8
Layer 06
  6
Continuous
100
AcDbSpline
210
0.0
220
0.0
230
1.0
 70
    15
 71
     2
 72
    36
 73
    33
 74
     0
 42
0.0000000001
 43
0.0000000001
 40
148.1634404116053
 40
148.1634404116053
 40
148.1634404116053
 40
161.2992730782022
 40
161.2992730782022
 40
167.2003156937497
 40
167.2003156937497
 40
199.6115340874425
 40
199.6115340874425
 40
213.3185340874426
 40
213.3185340874426
 40
245.7297524812161
 40
245.7297524812161
 40
251.6307950968605
 40
251.6307950968605
 40
264.7666277634657
 40
264.7666277634657
 40
271.0283166523658
 40
271.0283166523658
 40
284.1641493189711
 40
284.1641493189711
 40
290.0651919344791
 40
290.0651919344791
 40
322.4764103281193
 40
322.4764103281193
 40
336.183410328116
 40
336.183410328116
 40
368.594628721804
 40
368.594628721804
 40
374.4956713373245
 40
374.4956713373245
 40
387.6315040039213
 40
387.6315040039213
 40
393.8931928928214
 40
393.8931928928214
 40
393.8931928928214
 10
47.99999999999652
 20
68.94884444440002
 30
0.0
 41
1.0
 10
47.99999999999651
 20
75.55273681042925
 30
0.0
 41
0.9918484445883136
 10
46.21945723051412
 20
81.94217882721357
 30
0.0
 41
1.0
 10
45.31662501974813
 20
85.18197410776894
 30
0.0
 41
0.8308826675222181
 10
41.77737698955634
 20
85.6328093421534
 30
0.0
 41
1.0
 10
24.62270241457468
 20
87.81799999999986
 30
0.0
 41
0.9977211631827531
 10
7.310399999998176
 20
87.81799999999986
 30
0.0
 41
1.0
 10
-0.0000000000016404
 20
87.81799999999987
 30
0.0
 41
1.0
 10
-7.310400000001457
 20
87.81799999999988
 30
0.0
 41
1.0
 10
-24.62270241462029
 20
87.81799999999988
 30
0.0
 41
0.997721163182816
 10
-41.77737698964823
 20
85.63280934217816
 30
0.0
 41
1.0
 10
-45.31662501963919
 20
85.18197410782305
 30
0.0
 41
0.8308826675181757
 10
-46.2194572304643
 20
81.94217882721354
 30
0.0
 41
1.0
 10
-48.00000000000001
 20
75.55273681043563
 30
0.0
 41
0.9918484445878313
 10
-48.00000000000001
 20
68.94884444439995
 30
0.0
 41
1.0
 10
-48.0
 20
65.81799999994996
 30
0.0
 41
1.0
 10
-47.99999999999999
 20
62.68715555549996
 30
0.0
 41
1.0
 10
-48.0
 20
56.08326318946428
 30
0.0
 41
0.9918484445878311
 10
-46.21945723046427
 20
49.69382117268638
 30
0.0
 41
1.0
 10
-45.31662501966525
 20
46.45402589217048
 30
0.0
 41
0.8308826675250198
 10
-41.77737698950467
 20
46.00319065779626
 30
0.0
 41
1.0
 10
-24.62270241454527
 20
43.81799999999982
 30
0.0
 41
0.9977211631828498
 10
-7.310399999997987
 20
43.818
 30
0.0
 41
1.0
 10
-0.0000000000000005
 20
43.818
 30
0.0
 41
1.0
 10
7.310399999997986
 20
43.818
 30
0.0
 41
1.0
 10
24.62270241457082
 20
43.81800000000008
 30
0.0
 41
0.9977211631828572
 10
41.77737698955605
 20
46.00319065779646
 30
0.0
 41
1.0
 10
45.31662501974937
 20
46.45402589213552
 30
0.0
 41
0.8308826675184661
 10
46.21945723051412
 20
49.69382117268637
 30
0.0
 41
1.0
 10
47.99999999999651
 20
56.08326318947072
 30
0.0
 41
0.9918484445883136
 10
47.99999999999652
 20
62.68715555550001
 30
0.0
 41
1.0
 10
47.99999999999652
 20
65.81799999995002
 30
0.0
 41
1.0
 10
47.99999999999652
 20
68.94884444440002
 30
0.0
 41
1.0
  0
SPLINE
  5
8F
330
1F
100
AcDbEntity
  8
Layer 06
  6
Continuous
100
AcDbSpline
210
0.0
220
0.0
230
1.0
 70
    24
 71
     2
 72
     6
 73
     3
 74
     0
 42
0.0000000001
 43
0.0000000001
 40
0.0
 40
0.0
 40
0.0
 40
0.5
 40
0.5
 40
0.5
 10
-48.0
 20
28.318
 30
0.0
 10
-48.0
 20
28.568
 30
0.0
 10
-48.0
 20
28.818
 30
0.0
  0
SPLINE
  5
90
330
1F
100
AcDbEntity
  8
Layer 06
  6
Continuous
100
AcDbSpline
210
0.0
220
0.0
230
1.0
 70
    24
 71
     2
 72
     6
 73
     3
 74
     0
 42
0.0000000001
 43
0.0000000001
 40
0.0
 40
0.0
 40
0.0
 40
0.5
 40
0.5
 40
0.5
 10
-48.0
 20
28.318
 30
0.0
 10
-48.0
 20
28.568
 30
0.0
 10
-48.0
 20
28.818
 30
0.0
  0
SPLINE
  5
91
330
1F
100
AcDbEntity
  8
Layer 06
  6
Continuous
100
AcDbSpline
210
0.0
220
0.0
230
1.0
 70
    24
 71
     2
 72
     6
 73
     3
 74
     0
 42
0.0000000001
 43
0.0000000001
 40
0.0
 40
0.0
 40
0.0
 40
1.266844899741087
 40
1.266844899741087
 40
1.266844899741087
 10
-46.836
 20
27.818
 30
0.0
 10
-47.418
 20
28.068
 30
0.0
 10
-48.0
 20
28.318
 30
0.0
  0
SPLINE
  5
92
330
1F
100
AcDbEntity
  8
Layer 06
  6
Continuous
100
AcDbSpline
210
0.0
220
0.0
230
1.0
 70
    24
 71
     2
 72
     6
 73
     3
 74
     0
 42
0.0000000001
 43
0.0000000001
 40
0.0
 40
0.0
 40
0.0
 40
0.5
 40
0.5
 40
0.5
 10
48.0
 20
28.318
 30
0.0
 10
48.0
 20
28.568
 30
0.0
 10
48.0
 20
28.818
 30
0.0
  0
SPLINE
  5
93
330
1F
100
AcDbEntity
  8
Layer 06
  6
Continuous
100
AcDbSpline
210
0.0
220
0.0
230
1.0
 70
    24
 71
     2
 72
     6
 73
     3
 74
     0
 42
0.0000000001
 43
0.0000000001
 40
0.0
 40
0.0
 40
0.0
 40
0.5
 40
0.5
 40
0.5
 10
48.0
 20
28.318
 30
0.0
 10
48.0
 20
28.568
 30
0.0
 10
48.0
 20
28.818
 30
0.0
  0
SPLINE
  5
94
330
1F
100
AcDbEntity
  8
Layer 06
  6
Continuous
100
AcDbSpline
210
0.0
220
0.0
230
1.0
 70
    24
 71
     2
 72
     6
 73
     3
 74
     0
 42
0.0000000001
 43
0.0000000001
 40
0.0
 40
0.0
 40
0.0
 40
1.266844899741087
 40
1.266844899741087
 40
1.266844899741087
 10
46.836
 20
27.818
 30
0.0
 10
47.418
 20
28.068
 30
0.0
 10
48.0
 20
28.318
 30
0.0
  0
SPLINE
  5
95
330
1F
100
AcDbEntity
  8
Layer 06
  6
Continuous
100
AcDbSpline
210
0.0
220
0.0
230
1.0
 70
    24
 71
     2
 72
     6
 73
     3
 74
     0
 42
0.0000000001
 43
0.0000000001
 40
0.0
 40
0.0
 40
0.0
 40
87.672
 40
87.672
 40
87.672
 10
46.836
 20
27.818
 30
0.0
 10
0.0
 20
27.818
 30
0.0
 10
-46.836
 20
27.818
 30
0.0
  0
SPLINE
  5
96
330
1F
100
AcDbEntity
  8
Layer 06
  6
Continuous
100
AcDbSpline
210
0.0
220
0.0
230
1.0
 70
    24
 71
     2
 72
     6
 73
     3
 74
     0
 42
0.0000000001
 43
0.0000000001
 40
0.0
 40
0.0
 40
0.0
 40
90.0
 40
90.0
 40
90.0
 10
48.0
 20
28.318
 30
0.0
 10
0.0
 20
28.318
 30
0.0
 10
-48.0
 20
28.318
 30
0.0
  0
SPLINE
  5
97
330
1F
100
AcDbEntity
  8
Layer 06
100
AcDbSpline
210
0.0
220
0.0
230
1.0
 70
    24
 71
     2
 72
     6
 73
     3
 74
     0
 42
0.0000000001
 43
0.0000000001
 40
0.0
 40
0.0
 40
0.0
 40
1.0
 40
1.0
 40
1.0
 10
-48.0
 20
28.818
 30
0.0
 10
0.0
 20
28.818
 30
0.0
 10
48.0
 20
28.818
 30
0.0
  0
ENDSEC
  0
SECTION
  2
OBJECTS
  0
DICTIONARY
  5
C
330
0
100
AcDbDictionary
281
     1
  3
ACAD_GROUP
350
D
  3
ACAD_LAYOUT
350
1A
  3
ACAD_MLEADERSTYLE
350
99
  3
ACAD_MLINESTYLE
350
17
  3
ACAD_PLOTSETTINGS
350
19
  3
ACAD_PLOTSTYLENAME
350
E
  3
ACAD_TABLESTYLE
350
98
  3
ACAD_VISUALSTYLE
350
2A
  0
DICTIONARY
  5
D
102
{ACAD_REACTORS
330
C
102
}
330
C
100
AcDbDictionary
281
     1
  0
DICTIONARY
  5
1A
102
{ACAD_REACTORS
330
C
102
}
330
C
100
AcDbDictionary
281
     1
  3
Layout1
350
1E
  3
Layout2
350
26
  3
Model
350
22
  0
DICTIONARY
  5
99
102
{ACAD_REACTORS
330
C
102
}
330
C
100
AcDbDictionary
281
     1
  0
DICTIONARY
  5
17
102
{ACAD_REACTORS
330
C
102
}
330
C
100
AcDbDictionary
281
     1
  3
Standard
350
18
  0
DICTIONARY
  5
19
102
{ACAD_REACTORS
330
C
102
}
330
C
100
AcDbDictionary
281
     1
  0
ACDBDICTIONARYWDFLT
  5
E
102
{ACAD_REACTORS
330
C
102
}
330
C
100
AcDbDictionary
281
     1
  3
Normal
350
F
100
AcDbDictionaryWithDefault
340
F
  0
DICTIONARY
  5
98
102
{ACAD_REACTORS
330
C
102
}
330
C
100
AcDbDictionary
281
     1
  0
DICTIONARY
  5
2A
102
{ACAD_REACTORS
330
C
102
}
330
C
100
AcDbDictionary
281
     1
  3
2dWireframe
350
2F
  3
3D Hidden
350
31
  3
3dWireframe
350
30
  3
Basic
350
32
  3
Brighten
350
36
  3
ColorChange
350
3A
  3
Conceptual
350
34
  3
Dim
350
35
  3
Facepattern
350
39
  3
Flat
350
2B
  3
FlatWithEdges
350
2C
  3
Gouraud
350
2D
  3
GouraudWithEdges
350
2E
  3
Linepattern
350
38
  3
Realistic
350
33
  3
Thicken
350
37
  0
LAYOUT
  5
1E
102
{ACAD_REACTORS
330
1A
102
}
330
1A
100
AcDbPlotSettings
  1

  2
none_device
  4

  6

 40
0.0
 41
0.0
 42
0.0
 43
0.0
 44
0.0
 45
0.0
 46
0.0
 47
0.0
 48
0.0
 49
0.0
140
0.0
141
0.0
142
1.0
143
1.0
 70
   688
 72
     0
 73
     0
 74
     5
  7

 75
    16
 76
     0
 77
     2
 78
   300
147
1.0
148
0.0
149
0.0
100
AcDbLayout
  1
Layout1
 70
     1
 71
     1
 10
0.0
 20
0.0
 11
12.0
 21
9.0
 12
0.0
 22
0.0
 32
0.0
 14
1.000000000000000E+20
 24
1.000000000000000E+20
 34
1.000000000000000E+20
 15
-1.000000000000000E+20
 25
-1.000000000000000E+20
 35
-1.000000000000000E+20
146
0.0
 13
0.0
 23
0.0
 33
0.0
 16
1.0
 26
0.0
 36
0.0
 17
0.0
 27
1.0
 37
0.0
 76
     0
330
1B
  0
LAYOUT
  5
26
102
{ACAD_REACTORS
330
1A
102
}
330
1A
100
AcDbPlotSettings
  1

  2
none_device
  4

  6

 40
0.0
 41
0.0
 42
0.0
 43
0.0
 44
0.0
 45
0.0
 46
0.0
 47
0.0
 48
0.0
 49
0.0
140
0.0
141
0.0
142
1.0
143
1.0
 70
   688
 72
     0
 73
     0
 74
     5
  7

 75
    16
 76
     0
 77
     2
 78
   300
147
1.0
148
0.0
149
0.0
100
AcDbLayout
  1
Layout2
 70
     1
 71
     2
 10
0.0
 20
0.0
 11
0.0
 21
0.0
 12
0.0
 22
0.0
 32
0.0
 14
0.0
 24
0.0
 34
0.0
 15
0.0
 25
0.0
 35
0.0
146
0.0
 13
0.0
 23
0.0
 33
0.0
 16
1.0
 26
0.0
 36
0.0
 17
0.0
 27
1.0
 37
0.0
 76
     0
330
23
  0
LAYOUT
  5
22
102
{ACAD_REACTORS
330
1A
102
}
330
1A
100
AcDbPlotSettings
  1

  2
none_device
  4

  6

 40
0.0
 41
0.0
 42
0.0
 43
0.0
 44
0.0
 45
0.0
 46
0.0
 47
0.0
 48
0.0
 49
0.0
140
0.0
141
0.0
142
1.0
143
1.0
 70
  1712
 72
     0
 73
     0
 74
     0
  7

 75
     0
 76
     0
 77
     2
 78
   300
147
1.0
148
0.0
149
0.0
100
AcDbLayout
  1
Model
 70
     1
 71
     0
 10
0.0
 20
0.0
 11
12.0
 21
9.0
 12
0.0
 22
0.0
 32
0.0
 14
-48.00000000000001
 24
-0.0000000001000001
 34
0.0
 15
101.0
 25
87.81799999999988
 35
0.0
146
0.0
 13
0.0
 23
0.0
 33
0.0
 16
1.0
 26
0.0
 36
0.0
 17
0.0
 27
1.0
 37
0.0
 76
     0
330
1F
331
29
  0
MLINESTYLE
  5
18
102
{ACAD_REACTORS
330
17
102
}
330
17
100
AcDbMlineStyle
  2
Standard
 70
     0
  3

 62
   256
 51
90.0
 52
90.0
 71
     2
 49
0.5
 62
   256
  6
BYLAYER
 49
-0.5
 62
   256
  6
BYLAYER
  0
ACDBPLACEHOLDER
  5
F
102
{ACAD_REACTORS
330
E
102
}
330
E
  0
VISUALSTYLE
  5
2F
102
{ACAD_REACTORS
330
2A
102
}
330
2A
100
AcDbVisualStyle
  2
2dWireframe
 70
     4
 71
     0
 72
     2
 73
     0
 90
        0
 40
-0.6
 41
-30.0
 62
     5
 63
     7
421
 16777215
 74
     1
 91
        4
 64
     7
 65
   257
 75
     1
175
     1
 42
1.0
 92
        0
 66
   257
 43
1.0
 76
     1
 77
     6
 78
     2
 67
     7
 79
     5
170
     0
171
     0
290
     0
174
     0
 93
        1
 44
0.0
173
     0
291
     0
 45
0.0
1001
ACAD
1000
AcDbSavedByObjectVersion
1070
     0
  0
VISUALSTYLE
  5
31
102
{ACAD_REACTORS
330
2A
102
}
330
2A
100
AcDbVisualStyle
  2
3D Hidden
 70
     6
 71
     1
 72
     2
 73
     2
 90
        0
 40
-0.6
 41
-30.0
 62
     5
 63
     7
421
 16777215
 74
     2
 91
        2
 64
     7
 65
   257
 75
     2
175
     1
 42
40.0
 92
        0
 66
   257
 43
1.0
 76
     1
 77
     6
 78
     2
 67
     7
 79
     3
170
     0
171
     0
290
     0
174
     0
 93
        1
 44
0.0
173
     0
291
     0
 45
0.0
1001
ACAD
1000
AcDbSavedByObjectVersion
1070
     0
  0
VISUALSTYLE
  5
30
102
{ACAD_REACTORS
330
2A
102
}
330
2A
100
AcDbVisualStyle
  2
3dWireframe
 70
     5
 71
     0
 72
     2
 73
     0
 90
        0
 40
-0.6
 41
-30.0
 62
     5
 63
     7
421
 16777215
 74
     1
 91
        4
 64
     7
 65
   257
 75
     1
175
     1
 42
1.0
 92
        0
 66
   257
 43
1.0
 76
     1
 77
     6
 78
     2
 67
     7
 79
     5
170
     0
171
     0
290
     0
174
     0
 93
        1
 44
0.0
173
     0
291
     0
 45
0.0
1001
ACAD
1000
AcDbSavedByObjectVersion
1070
     0
  0
VISUALSTYLE
  5
32
102
{ACAD_REACTORS
330
2A
102
}
330
2A
100
AcDbVisualStyle
  2
Basic
 70
     7
 71
     1
 72
     0
 73
     1
 90
        0
 40
-0.6
 41
-30.0
 62
     5
 63
     7
421
 16777215
 74
     0
 91
        4
 64
     7
 65
   257
 75
     1
175
     1
 42
1.0
 92
        8
 66
     7
 43
1.0
 76
     1
 77
     6
 78
     2
 67
     7
 79
     5
170
     0
171
     0
290
     0
174
     0
 93
        1
 44
0.0
173
     0
291
     1
 45
0.0
1001
ACAD
1000
AcDbSavedByObjectVersion
1070
     0
  0
VISUALSTYLE
  5
36
102
{ACAD_REACTORS
330
2A
102
}
330
2A
100
AcDbVisualStyle
  2
Brighten
 70
    12
 71
     2
 72
     2
 73
     0
 90
        0
 40
-0.6
 41
-30.0
 62
     5
 63
     7
421
 16777215
 74
     1
 91
        4
 64
     7
 65
   257
 75
     1
175
     1
 42
1.0
 92
        8
 66
     7
 43
1.0
 76
     1
 77
     6
 78
     2
 67
     7
 79
     5
170
     0
171
     0
290
     0
174
     0
 93
        1
 44
50.0
173
     0
291
     1
 45
0.0
1001
ACAD
1000
AcDbSavedByObjectVersion
1070
     0
  0
VISUALSTYLE
  5
3A
102
{ACAD_REACTORS
330
2A
102
}
330
2A
100
AcDbVisualStyle
  2
ColorChange
 70
    16
 71
     2
 72
     2
 73
     3
 90
        0
 40
-0.6
 41
-30.0
 62
     5
 63
     8
421
  8421504
 74
     1
 91
        4
 64
     7
 65
   257
 75
     1
175
     1
 42
1.0
 92
        8
 66
     8
424
  8421504
 43
1.0
 76
     1
 77
     6
 78
     2
 67
     7
 79
     5
170
     0
171
     0
290
     0
174
     0
 93
        1
 44
0.0
173
     0
291
     1
 45
0.0
1001
ACAD
1000
AcDbSavedByObjectVersion
1070
     0
  0
VISUALSTYLE
  5
34
102
{ACAD_REACTORS
330
2A
102
}
330
2A
100
AcDbVisualStyle
  2
Conceptual
 70
     9
 71
     3
 72
     2
 73
     0
 90
        0
 40
-0.6
 41
-30.0
 62
     5
 63
     7
421
 16777215
 74
     2
 91
        2
 64
     7
 65
   257
 75
     1
175
     1
 42
40.0
 92
        8
 66
     7
 43
1.0
 76
     1
 77
     6
 78
     2
 67
     7
 79
     3
170
     0
171
     0
290
     0
174
     0
 93
        1
 44
0.0
173
     0
291
     0
 45
0.0
1001
ACAD
1000
AcDbSavedByObjectVersion
1070
     0
  0
VISUALSTYLE
  5
35
102
{ACAD_REACTORS
330
2A
102
}
330
2A
100
AcDbVisualStyle
  2
Dim
 70
    11
 71
     2
 72
     2
 73
     0
 90
        0
 40
-0.6
 41
-30.0
 62
     5
 63
     7
421
 16777215
 74
     1
 91
        4
 64
     7
 65
   257
 75
     1
175
     1
 42
1.0
 92
        8
 66
     7
 43
1.0
 76
     1
 77
     6
 78
     2
 67
     7
 79
     5
170
     0
171
     0
290
     0
174
     0
 93
        1
 44
-50.0
173
     0
291
     1
 45
0.0
1001
ACAD
1000
AcDbSavedByObjectVersion
1070
     0
  0
VISUALSTYLE
  5
39
102
{ACAD_REACTORS
330
2A
102
}
330
2A
100
AcDbVisualStyle
  2
Facepattern
 70
    15
 71
     2
 72
     2
 73
     0
 90
        0
 40
-0.6
 41
-30.0
 62
     5
 63
     7
421
 16777215
 74
     1
 91
        4
 64
     7
 65
   257
 75
     1
175
     1
 42
1.0
 92
        8
 66
     7
 43
1.0
 76
     1
 77
     6
 78
     2
 67
     7
 79
     5
170
     0
171
     0
290
     0
174
     0
 93
        1
 44
0.0
173
     0
291
     1
 45
0.0
1001
ACAD
1000
AcDbSavedByObjectVersion
1070
     0
  0
VISUALSTYLE
  5
2B
102
{ACAD_REACTORS
330
2A
102
}
330
2A
100
AcDbVisualStyle
  2
Flat
 70
     0
 71
     2
 72
     1
 73
     1
 90
        2
 40
-0.6
 41
30.0
 62
     5
 63
     7
421
 16777215
 74
     0
 91
        4
 64
     7
 65
   257
 75
     1
175
     1
 42
1.0
 92
        8
 66
     7
 43
1.0
 76
     1
 77
     6
 78
     2
 67
     7
 79
     5
170
     0
171
     0
290
     0
174
     0
 93
       13
 44
0.0
173
     0
291
     1
 45
0.0
1001
ACAD
1000
AcDbSavedByObjectVersion
1070
     0
  0
VISUALSTYLE
  5
2C
102
{ACAD_REACTORS
330
2A
102
}
330
2A
100
AcDbVisualStyle
  2
FlatWithEdges
 70
     1
 71
     2
 72
     1
 73
     1
 90
        2
 40
-0.6
 41
30.0
 62
     5
 63
     7
421
 16777215
 74
     1
 91
        4
 64
     7
 65
   257
 75
     1
175
     1
 42
1.0
 92
        0
 66
   257
 43
1.0
 76
     1
 77
     6
 78
     2
 67
     7
 79
     5
170
     0
171
     0
290
     0
174
     0
 93
       13
 44
0.0
173
     0
291
     1
 45
0.0
1001
ACAD
1000
AcDbSavedByObjectVersion
1070
     0
  0
VISUALSTYLE
  5
2D
102
{ACAD_REACTORS
330
2A
102
}
330
2A
100
AcDbVisualStyle
  2
Gouraud
 70
     2
 71
     2
 72
     2
 73
     1
 90
        2
 40
-0.6
 41
30.0
 62
     5
 63
     7
421
 16777215
 74
     0
 91
        4
 64
     7
 65
   257
 75
     1
175
     1
 42
1.0
 92
        0
 66
     7
 43
1.0
 76
     1
 77
     6
 78
     2
 67
     7
 79
     5
170
     0
171
     0
290
     0
174
     0
 93
       13
 44
0.0
173
     0
291
     1
 45
0.0
1001
ACAD
1000
AcDbSavedByObjectVersion
1070
     0
  0
VISUALSTYLE
  5
2E
102
{ACAD_REACTORS
330
2A
102
}
330
2A
100
AcDbVisualStyle
  2
GouraudWithEdges
 70
     3
 71
     2
 72
     2
 73
     1
 90
        2
 40
-0.6
 41
30.0
 62
     5
 63
     7
421
 16777215
 74
     1
 91
        4
 64
     7
 65
   257
 75
     1
175
     1
 42
1.0
 92
        0
 66
   257
 43
1.0
 76
     1
 77
     6
 78
     2
 67
     7
 79
     5
170
     0
171
     0
290
     0
174
     0
 93
       13
 44
0.0
173
     0
291
     1
 45
0.0
1001
ACAD
1000
AcDbSavedByObjectVersion
1070
     0
  0
VISUALSTYLE
  5
38
102
{ACAD_REACTORS
330
2A
102
}
330
2A
100
AcDbVisualStyle
  2
Linepattern
 70
    14
 71
     2
 72
     2
 73
     0
 90
        0
 40
-0.6
 41
-30.0
 62
     5
 63
     7
421
 16777215
 74
     1
 91
        4
 64
     7
 65
   257
 75
     7
175
     7
 42
1.0
 92
        8
 66
     7
 43
1.0
 76
     1
 77
     6
 78
     2
 67
     7
 79
     5
170
     0
171
     0
290
     0
174
     0
 93
        1
 44
0.0
173
     0
291
     1
 45
0.0
1001
ACAD
1000
AcDbSavedByObjectVersion
1070
     0
  0
VISUALSTYLE
  5
33
102
{ACAD_REACTORS
330
2A
102
}
330
2A
100
AcDbVisualStyle
  2
Realistic
 70
     8
 71
     2
 72
     2
 73
     0
 90
        0
 40
-0.6
 41
-30.0
 62
     5
 63
     7
421
 16777215
 74
     1
 91
        0
 64
     7
 65
   257
 75
     1
175
     1
 42
1.0
 92
        8
 66
     8
424
  7895160
 43
1.0
 76
     1
 77
     6
 78
     2
 67
     7
 79
     5
170
     0
171
     0
290
     0
174
     0
 93
       13
 44
0.0
173
     0
291
     0
 45
0.0
1001
ACAD
1000
AcDbSavedByObjectVersion
1070
     0
  0
VISUALSTYLE
  5
37
102
{ACAD_REACTORS
330
2A
102
}
330
2A
100
AcDbVisualStyle
  2
Thicken
 70
    13
 71
     2
 72
     2
 73
     0
 90
        0
 40
-0.6
 41
-30.0
 62
     5
 63
     7
421
 16777215
 74
     1
 91
        4
 64
     7
 65
   257
 75
     1
175
     1
 42
1.0
 92
       12
 66
     7
 43
1.0
 76
     1
 77
     6
 78
     2
 67
     7
 79
     5
170
     0
171
     0
290
     0
174
     0
 93
        1
 44
0.0
173
     0
291
     1
 45
0.0
1001
ACAD
1000
AcDbSavedByObjectVersion
1070
     0
  0
ENDSEC
  0
EOF
