  0
SECTION
  2
HEADER
  9
$ACADVER
  1
AC1018
  9
$ACADMAINTVER
 70
     0
  9
$DWGCODEPAGE
  3
ANSI_1252
  9
$INSBASE
 10
0.0
 20
0.0
 30
0.0
  9
$EXTMIN
 10
-54.00000000000001
 20
-0.0052056213665158
 30
0.0
  9
$EXTMAX
 10
112.9999999999979
 20
84.81000000000012
 30
0.0
  9
$LIMMIN
 10
0.0
 20
0.0
  9
$LIMMAX
 10
12.0
 20
9.0
  9
$ORTHOMODE
 70
     0
  9
$REGENMODE
 70
     1
  9
$FILLMODE
 70
     1
  9
$QTEXTMODE
 70
     0
  9
$MIRRTEXT
 70
     1
  9
$LTSCALE
 40
0.0393700787401575
  9
$ATTMODE
 70
     1
  9
$TEXTSIZE
 40
0.2
  9
$TRACEWID
 40
0.05
  9
$TEXTSTYLE
  7
Standard
  9
$CLAYER
  8
Default
  9
$CELTYPE
  6
ByLayer
  9
$CECOLOR
 62
   256
  9
$CELTSCALE
 40
1.0
  9
$DISPSILH
 70
     0
  9
$DIMSCALE
 40
1.0
  9
$DIMASZ
 40
0.18
  9
$DIMEXO
 40
0.0625
  9
$DIMDLI
 40
0.38
  9
$DIMRND
 40
0.0
  9
$DIMDLE
 40
0.0
  9
$DIMEXE
 40
0.18
  9
$DIMTP
 40
0.0
  9
$DIMTM
 40
0.0
  9
$DIMTXT
 40
0.18
  9
$DIMCEN
 40
0.09
  9
$DIMTSZ
 40
0.0
  9
$DIMTOL
 70
     0
  9
$DIMLIM
 70
     0
  9
$DIMTIH
 70
     1
  9
$DIMTOH
 70
     1
  9
$DIMSE1
 70
     0
  9
$DIMSE2
 70
     0
  9
$DIMTAD
 70
     0
  9
$DIMZIN
 70
     0
  9
$DIMBLK
  1

  9
$DIMASO
 70
     1
  9
$DIMSHO
 70
     1
  9
$DIMPOST
  1

  9
$DIMAPOST
  1

  9
$DIMALT
 70
     0
  9
$DIMALTD
 70
     2
  9
$DIMALTF
 40
25.4
  9
$DIMLFAC
 40
1.0
  9
$DIMTOFL
 70
     0
  9
$DIMTVP
 40
0.0
  9
$DIMTIX
 70
     0
  9
$DIMSOXD
 70
     0
  9
$DIMSAH
 70
     0
  9
$DIMBLK1
  1

  9
$DIMBLK2
  1

  9
$DIMSTYLE
  2
Standard
  9
$DIMCLRD
 70
     0
  9
$DIMCLRE
 70
     0
  9
$DIMCLRT
 70
     0
  9
$DIMTFAC
 40
1.0
  9
$DIMGAP
 40
0.09
  9
$DIMJUST
 70
     0
  9
$DIMSD1
 70
     0
  9
$DIMSD2
 70
     0
  9
$DIMTOLJ
 70
     1
  9
$DIMTZIN
 70
     0
  9
$DIMALTZ
 70
     0
  9
$DIMALTTZ
 70
     0
  9
$DIMUPT
 70
     0
  9
$DIMDEC
 70
     4
  9
$DIMTDEC
 70
     4
  9
$DIMALTU
 70
     2
  9
$DIMALTTD
 70
     2
  9
$DIMTXSTY
  7
Standard
  9
$DIMAUNIT
 70
     0
  9
$DIMADEC
 70
     0
  9
$DIMALTRND
 40
0.0
  9
$DIMAZIN
 70
     0
  9
$DIMDSEP
 70
    46
  9
$DIMATFIT
 70
     3
  9
$DIMFRAC
 70
     0
  9
$DIMLDRBLK
  1

  9
$DIMLUNIT
 70
     2
  9
$DIMLWD
 70
    -2
  9
$DIMLWE
 70
    -2
  9
$DIMTMOVE
 70
     2
  9
$LUNITS
 70
     2
  9
$LUPREC
 70
     4
  9
$SKETCHINC
 40
0.1
  9
$FILLETRAD
 40
0.5
  9
$AUNITS
 70
     0
  9
$AUPREC
 70
     0
  9
$MENU
  1
.
  9
$ELEVATION
 40
0.0
  9
$PELEVATION
 40
0.0
  9
$THICKNESS
 40
0.0
  9
$LIMCHECK
 70
     0
  9
$CHAMFERA
 40
0.5
  9
$CHAMFERB
 40
0.5
  9
$CHAMFERC
 40
1.0
  9
$CHAMFERD
 40
0.0
  9
$SKPOLY
 70
     0
  9
$TDCREATE
 40
2456790.667746516
  9
$TDUCREATE
 40
2456790.834413183
  9
$TDUPDATE
 40
2456790.667746528
  9
$TDUUPDATE
 40
2456790.834413195
  9
$TDINDWG
 40
0.0000000116
  9
$TDUSRTIMER
 40
0.0000000116
  9
$USRTIMER
 70
     1
  9
$ANGBASE
 50
0.0
  9
$ANGDIR
 70
     0
  9
$PDMODE
 70
     0
  9
$PDSIZE
 40
0.0
  9
$PLINEWID
 40
0.0
  9
$SPLFRAME
 70
     0
  9
$SPLINETYPE
 70
     6
  9
$SPLINESEGS
 70
     8
  9
$HANDSEED
  5
9D
  9
$SURFTAB1
 70
     6
  9
$SURFTAB2
 70
     6
  9
$SURFTYPE
 70
     6
  9
$SURFU
 70
     6
  9
$SURFV
 70
     6
  9
$UCSBASE
  2

  9
$UCSNAME
  2

  9
$UCSORG
 10
0.0
 20
0.0
 30
0.0
  9
$UCSXDIR
 10
1.0
 20
0.0
 30
0.0
  9
$UCSYDIR
 10
0.0
 20
1.0
 30
0.0
  9
$UCSORTHOREF
  2

  9
$UCSORTHOVIEW
 70
     0
  9
$UCSORGTOP
 10
0.0
 20
0.0
 30
0.0
  9
$UCSORGBOTTOM
 10
0.0
 20
0.0
 30
0.0
  9
$UCSORGLEFT
 10
0.0
 20
0.0
 30
0.0
  9
$UCSORGRIGHT
 10
0.0
 20
0.0
 30
0.0
  9
$UCSORGFRONT
 10
0.0
 20
0.0
 30
0.0
  9
$UCSORGBACK
 10
0.0
 20
0.0
 30
0.0
  9
$PUCSBASE
  2

  9
$PUCSNAME
  2

  9
$PUCSORG
 10
0.0
 20
0.0
 30
0.0
  9
$PUCSXDIR
 10
1.0
 20
0.0
 30
0.0
  9
$PUCSYDIR
 10
0.0
 20
1.0
 30
0.0
  9
$PUCSORTHOREF
  2

  9
$PUCSORTHOVIEW
 70
     0
  9
$PUCSORGTOP
 10
0.0
 20
0.0
 30
0.0
  9
$PUCSORGBOTTOM
 10
0.0
 20
0.0
 30
0.0
  9
$PUCSORGLEFT
 10
0.0
 20
0.0
 30
0.0
  9
$PUCSORGRIGHT
 10
0.0
 20
0.0
 30
0.0
  9
$PUCSORGFRONT
 10
0.0
 20
0.0
 30
0.0
  9
$PUCSORGBACK
 10
0.0
 20
0.0
 30
0.0
  9
$USERI1
 70
     0
  9
$USERI2
 70
     0
  9
$USERI3
 70
     0
  9
$USERI4
 70
     0
  9
$USERI5
 70
     0
  9
$USERR1
 40
0.0
  9
$USERR2
 40
0.0
  9
$USERR3
 40
0.0
  9
$USERR4
 40
0.0
  9
$USERR5
 40
0.0
  9
$WORLDVIEW
 70
     1
  9
$SHADEDGE
 70
     3
  9
$SHADEDIF
 70
    70
  9
$TILEMODE
 70
     1
  9
$MAXACTVP
 70
    64
  9
$PINSBASE
 10
0.0
 20
0.0
 30
0.0
  9
$PLIMCHECK
 70
     0
  9
$PEXTMIN
 10
1.000000000000000E+20
 20
1.000000000000000E+20
 30
1.000000000000000E+20
  9
$PEXTMAX
 10
-1.000000000000000E+20
 20
-1.000000000000000E+20
 30
-1.000000000000000E+20
  9
$PLIMMIN
 10
0.0
 20
0.0
  9
$PLIMMAX
 10
12.0
 20
9.0
  9
$UNITMODE
 70
     0
  9
$VISRETAIN
 70
     1
  9
$PLINEGEN
 70
     0
  9
$PSLTSCALE
 70
     1
  9
$TREEDEPTH
 70
  3020
  9
$CMLSTYLE
  2
Standard
  9
$CMLJUST
 70
     0
  9
$CMLSCALE
 40
1.0
  9
$PROXYGRAPHICS
 70
     1
  9
$MEASUREMENT
 70
     0
  9
$CELWEIGHT
370
    -1
  9
$ENDCAPS
280
     0
  9
$JOINSTYLE
280
     0
  9
$LWDISPLAY
290
     0
  9
$INSUNITS
 70
     1
  9
$HYPERLINKBASE
  1

  9
$STYLESHEET
  1

  9
$XEDIT
290
     1
  9
$CEPSNTYPE
380
     0
  9
$PSTYLEMODE
290
     1
  9
$FINGERPRINTGUID
  2
{CB225C15-6978-45E0-B801-67362CE75578}
  9
$VERSIONGUID
  2
{FAEB1C32-E019-11D5-929B-00C0DF256EC4}
  9
$EXTNAMES
290
     1
  9
$PSVPSCALE
 40
0.0
  9
$OLESTARTUP
290
     0
  9
$SORTENTS
280
   127
  9
$INDEXCTL
280
     0
  9
$HIDETEXT
280
     1
  9
$XCLIPFRAME
290
     0
  9
$HALOGAP
280
     0
  9
$OBSCOLOR
 70
   257
  9
$OBSLTYPE
280
     0
  9
$INTERSECTIONDISPLAY
280
     0
  9
$INTERSECTIONCOLOR
 70
   257
  9
$DIMASSOC
280
     2
  9
$PROJECTNAME
  1

  0
ENDSEC
  0
SECTION
  2
CLASSES
  0
CLASS
  1
ACDBDICTIONARYWDFLT
  2
AcDbDictionaryWithDefault
  3
ObjectDBX Classes
 90
        0
 91
        4
280
     0
281
     0
  0
CLASS
  1
VISUALSTYLE
  2
AcDbVisualStyle
  3
ObjectDBX Classes
 90
     4095
 91
        4
280
     0
281
     0
  0
ENDSEC
  0
SECTION
  2
TABLES
  0
TABLE
  2
VPORT
  5
8
330
0
100
AcDbSymbolTable
 70
     1
  0
VPORT
  5
29
330
8
100
AcDbSymbolTableRecord
100
AcDbViewportTableRecord
  2
*Active
 70
     0
 10
0.0
 20
0.0
 11
1.0
 21
1.0
 12
29.49999999999895
 22
42.4023971893168
 13
0.0
 23
0.0
 14
0.5
 24
0.5
 15
0.5
 25
0.5
 16
0.0
 26
0.0
 36
1.0
 17
0.0
 27
0.0
 37
0.0
 40
86.51150973379396
 41
1.968986560564646
 42
50.0
 43
0.0
 44
0.0
 50
0.0
 51
0.0
 71
     0
 72
   100
 73
     1
 74
     3
 75
     0
 76
     0
 77
     0
 78
     0
281
     0
 65
     1
110
0.0
120
0.0
130
0.0
111
1.0
121
0.0
131
0.0
112
0.0
122
1.0
132
0.0
 79
     0
146
0.0
  0
ENDTAB
  0
TABLE
  2
LTYPE
  5
5
330
0
100
AcDbSymbolTable
 70
     1
  0
LTYPE
  5
14
330
5
100
AcDbSymbolTableRecord
100
AcDbLinetypeTableRecord
  2
ByBlock
 70
     0
  3

 72
    65
 73
     0
 40
0.0
  0
LTYPE
  5
15
330
5
100
AcDbSymbolTableRecord
100
AcDbLinetypeTableRecord
  2
ByLayer
 70
     0
  3

 72
    65
 73
     0
 40
0.0
  0
LTYPE
  5
16
330
5
100
AcDbSymbolTableRecord
100
AcDbLinetypeTableRecord
  2
Continuous
 70
     0
  3
Solid line
 72
    65
 73
     0
 40
0.0
  0
ENDTAB
  0
TABLE
  2
LAYER
  5
2
330
0
100
AcDbSymbolTable
 70
     3
  0
LAYER
  5
10
330
2
100
AcDbSymbolTableRecord
100
AcDbLayerTableRecord
  2
0
 70
     0
 62
     7
  6
Continuous
370
    -3
390
F
  0
LAYER
  5
3B
330
2
100
AcDbSymbolTableRecord
100
AcDbLayerTableRecord
  2
Layer 02
 70
     0
 62
     7
  6
Continuous
370
    -3
390
F
  0
LAYER
  5
84
330
2
100
AcDbSymbolTableRecord
100
AcDbLayerTableRecord
  2
Default
 70
     0
 62
     7
  6
Continuous
370
    -3
390
F
  0
ENDTAB
  0
TABLE
  2
STYLE
  5
3
330
0
100
AcDbSymbolTable
 70
     1
  0
STYLE
  5
11
330
3
100
AcDbSymbolTableRecord
100
AcDbTextStyleTableRecord
  2
Standard
 70
     0
 40
0.0
 41
1.0
 50
0.0
 71
     0
 42
0.2
  3
txt
  4

  0
ENDTAB
  0
TABLE
  2
VIEW
  5
6
330
0
100
AcDbSymbolTable
 70
     0
  0
ENDTAB
  0
TABLE
  2
UCS
  5
7
330
0
100
AcDbSymbolTable
 70
     0
  0
ENDTAB
  0
TABLE
  2
APPID
  5
9
330
0
100
AcDbSymbolTable
 70
     1
  0
APPID
  5
12
330
9
100
AcDbSymbolTableRecord
100
AcDbRegAppTableRecord
  2
ACAD
 70
     0
  0
ENDTAB
  0
TABLE
  2
DIMSTYLE
  5
A
330
0
100
AcDbSymbolTable
 70
     1
100
AcDbDimStyleTable
  0
DIMSTYLE
105
27
330
A
100
AcDbSymbolTableRecord
100
AcDbDimStyleTableRecord
  2
Standard
 70
     0
340
11
  0
ENDTAB
  0
TABLE
  2
BLOCK_RECORD
  5
1
330
0
100
AcDbSymbolTable
 70
     1
  0
BLOCK_RECORD
  5
1F
330
1
100
AcDbSymbolTableRecord
100
AcDbBlockTableRecord
  2
*Model_Space
340
22
  0
BLOCK_RECORD
  5
1B
330
1
100
AcDbSymbolTableRecord
100
AcDbBlockTableRecord
  2
*Paper_Space
340
1E
  0
BLOCK_RECORD
  5
23
330
1
100
AcDbSymbolTableRecord
100
AcDbBlockTableRecord
  2
*Paper_Space0
340
26
  0
ENDTAB
  0
ENDSEC
  0
SECTION
  2
BLOCKS
  0
BLOCK
  5
20
330
1F
100
AcDbEntity
  8
0
100
AcDbBlockBegin
  2
*Model_Space
 70
     0
 10
0.0
 20
0.0
 30
0.0
  3
*Model_Space
  1

  0
ENDBLK
  5
21
330
1F
100
AcDbEntity
  8
0
100
AcDbBlockEnd
  0
BLOCK
  5
1C
330
1B
100
AcDbEntity
 67
     1
  8
0
100
AcDbBlockBegin
  2
*Paper_Space
 70
     0
 10
0.0
 20
0.0
 30
0.0
  3
*Paper_Space
  1

  0
ENDBLK
  5
1D
330
1B
100
AcDbEntity
 67
     1
  8
0
100
AcDbBlockEnd
  0
BLOCK
  5
24
330
23
100
AcDbEntity
  8
0
100
AcDbBlockBegin
  2
*Paper_Space0
 70
     0
 10
0.0
 20
0.0
 30
0.0
  3
*Paper_Space0
  1

  0
ENDBLK
  5
25
330
23
100
AcDbEntity
  8
0
100
AcDbBlockEnd
  0
ENDSEC
  0
SECTION
  2
ENTITIES
  0
POLYLINE
  5
3C
330
1F
100
AcDbEntity
  8
Layer 02
100
AcDb2dPolyline
 66
     1
 10
0.0
 20
0.0
 30
0.0
  0
VERTEX
  5
3D
330
3C
100
AcDbEntity
  8
Layer 02
100
AcDbVertex
100
AcDb2dVertex
 10
100.9999986450731
 20
22.06520562136652
 30
0.0
  0
VERTEX
  5
3E
330
3C
100
AcDbEntity
  8
Layer 02
100
AcDbVertex
100
AcDb2dVertex
 10
100.9999986450731
 20
24.81520562136652
 30
0.0
  0
SEQEND
  5
3F
330
3C
100
AcDbEntity
  8
Layer 02
  0
POLYLINE
  5
40
330
1F
100
AcDbEntity
  8
Layer 02
100
AcDb2dPolyline
 66
     1
 10
0.0
 20
0.0
 30
0.0
  0
VERTEX
  5
41
330
40
100
AcDbEntity
  8
Layer 02
100
AcDbVertex
100
AcDb2dVertex
 10
107.6355959715732
 20
0.2673453031665183
 30
0.0
  0
VERTEX
  5
42
330
40
100
AcDbEntity
  8
Layer 02
100
AcDbVertex
100
AcDb2dVertex
 10
104.6633853537251
 20
24.81148232309919
 30
0.0
  0
SEQEND
  5
43
330
40
100
AcDbEntity
  8
Layer 02
  0
ARC
  5
44
330
1F
100
AcDbEntity
  8
Layer 02
100
AcDbCircle
 10
106.1786793015732
 20
0.2512056213665161
 30
0.0
 40
0.07
100
AcDbArc
 50
188.4671378116978
 51
269.9999999996976
  0
ARC
  5
45
330
1F
100
AcDbEntity
  8
Layer 02
  6
Continuous
100
AcDbCircle
 10
106.3076832455731
 20
0.0989734822665192
 30
0.0
 40
0.0937678609
100
AcDbArc
 50
118.7203267979021
 51
270.0
  0
SPLINE
  5
46
330
1F
100
AcDbEntity
  8
Layer 02
100
AcDbSpline
210
0.0
220
0.0
230
1.0
 70
     8
 71
     5
 72
    12
 73
     6
 74
     0
 42
0.0000000001
 43
0.0000000001
 40
0.0
 40
0.0
 40
0.0
 40
0.0
 40
0.0
 40
0.0
 40
1.0
 40
1.0
 40
1.0
 40
1.0
 40
1.0
 40
1.0
 10
107.538980646576
 20
0.1812056213665162
 30
0.0
 10
107.5648685323954
 20
0.1812056213665162
 30
0.0
 10
107.5907564182148
 20
0.1812056213665162
 30
0.0
 10
107.6418203671853
 20
0.2159450363573781
 30
0.0
 10
107.6387081693792
 20
0.2416451697619482
 30
0.0
 10
107.6355959715732
 20
0.2673453031665183
 30
0.0
  0
POLYLINE
  5
47
330
1F
100
AcDbEntity
  8
Layer 02
100
AcDb2dPolyline
 66
     1
 10
0.0
 20
0.0
 30
0.0
  0
VERTEX
  5
48
330
47
100
AcDbEntity
  8
Layer 02
100
AcDbVertex
100
AcDb2dVertex
 10
102.8999365168732
 20
20.82324657006652
 30
0.0
  0
VERTEX
  5
49
330
47
100
AcDbEntity
  8
Layer 02
100
AcDbVertex
100
AcDb2dVertex
 10
106.1094422681642
 20
0.2408986720248597
 30
0.0
  0
SEQEND
  5
4A
330
47
100
AcDbEntity
  8
Layer 02
  0
LINE
  5
4B
330
1F
100
AcDbEntity
  8
Layer 02
100
AcDbLine
 10
100.9999986450731
 20
22.07020562136652
 30
0.0
 11
101.7429000077731
 21
22.07020562136652
 31
0.0
  0
SPLINE
  5
4C
330
1F
100
AcDbEntity
  8
Layer 02
100
AcDbSpline
210
0.0
220
0.0
230
1.0
 70
     8
 71
     5
 72
    12
 73
     6
 74
     0
 42
0.0000000001
 43
0.0000000001
 40
-1.0
 40
-1.0
 40
-1.0
 40
-1.0
 40
-1.0
 40
-1.0
 40
0.0
 40
0.0
 40
0.0
 40
0.0
 40
0.0
 40
0.0
 10
101.7429000077731
 20
22.07020562136652
 30
0.0
 10
102.0831140791464
 20
22.07020562136652
 30
0.0
 10
102.4233281505198
 20
22.07020562136652
 30
0.0
 10
102.7951009615051
 20
21.49555004601483
 30
0.0
 10
102.8475187391891
 20
21.15939830804067
 30
0.0
 10
102.8999365168732
 20
20.82324657006652
 30
0.0
  0
LINE
  5
4D
330
1F
100
AcDbEntity
  8
Layer 02
  6
Continuous
100
AcDbLine
 10
107.5175658327731
 20
0.0052056213665192
 30
0.0
 11
106.3076832455731
 21
0.0052056213665192
 31
0.0
  0
ARC
  5
4E
330
1F
100
AcDbEntity
  8
Layer 02
  6
Continuous
100
AcDbCircle
 10
107.5175658327731
 20
0.0989734822665192
 30
0.0
 40
0.0937678609
100
AcDbArc
 50
270.0
 51
61.27967320209791
  0
LINE
  5
4F
330
1F
100
AcDbEntity
  8
Layer 02
  6
Continuous
100
AcDbLine
 10
107.1570428928732
 20
4.205595503566517
 30
0.0
 11
107.4064495398732
 21
2.153402593066521
 31
0.0
  0
POLYLINE
  5
50
330
1F
100
AcDbEntity
  8
Layer 02
100
AcDb2dPolyline
 66
     1
 10
0.0
 20
0.0
 30
0.0
  0
VERTEX
  5
51
330
50
100
AcDbEntity
  8
Layer 02
100
AcDbVertex
100
AcDb2dVertex
 10
106.1786793015728
 20
0.1812056213665162
 30
0.0
  0
VERTEX
  5
52
330
50
100
AcDbEntity
  8
Layer 02
100
AcDbVertex
100
AcDb2dVertex
 10
107.538980646576
 20
0.1812056213665162
 30
0.0
  0
SEQEND
  5
53
330
50
100
AcDbEntity
  8
Layer 02
  0
ARC
  5
54
330
1F
100
AcDbEntity
  8
Layer 02
  6
Continuous
100
AcDbCircle
 10
74.48243416722269
 20
0.0885622395334842
 30
0.0
 40
0.0937678609
100
AcDbArc
 50
118.7203267979021
 51
270.0
  0
LINE
  5
55
330
1F
100
AcDbEntity
  8
Layer 02
  6
Continuous
100
AcDbLine
 10
74.84295710712269
 20
4.195184260833482
 30
0.0
 11
74.59355046012269
 21
2.142991350333486
 31
0.0
  0
POLYLINE
  5
56
330
1F
100
AcDbEntity
  8
Layer 02
100
AcDb2dPolyline
 66
     1
 10
0.0
 20
0.0
 30
0.0
  0
VERTEX
  5
57
330
56
100
AcDbEntity
  8
Layer 02
100
AcDbVertex
100
AcDb2dVertex
 10
81.0000013549227
 20
22.05479437863348
 30
0.0
  0
VERTEX
  5
58
330
56
100
AcDbEntity
  8
Layer 02
100
AcDbVertex
100
AcDb2dVertex
 10
81.0000013549227
 20
24.80479437863348
 30
0.0
  0
SEQEND
  5
59
330
56
100
AcDbEntity
  8
Layer 02
  0
POLYLINE
  5
5A
330
1F
100
AcDbEntity
  8
Layer 02
100
AcDb2dPolyline
 66
     1
 10
0.0
 20
0.0
 30
0.0
  0
VERTEX
  5
5B
330
5A
100
AcDbEntity
  8
Layer 02
100
AcDbVertex
100
AcDb2dVertex
 10
74.36440402842268
 20
0.2569340604334833
 30
0.0
  0
VERTEX
  5
5C
330
5A
100
AcDbEntity
  8
Layer 02
100
AcDbVertex
100
AcDb2dVertex
 10
77.33661464627075
 20
24.80107108036615
 30
0.0
  0
SEQEND
  5
5D
330
5A
100
AcDbEntity
  8
Layer 02
  0
POLYLINE
  5
5E
330
1F
100
AcDbEntity
  8
Layer 02
100
AcDb2dPolyline
 66
     1
 10
0.0
 20
0.0
 30
0.0
  0
VERTEX
  5
5F
330
5E
100
AcDbEntity
  8
Layer 02
100
AcDbVertex
100
AcDb2dVertex
 10
75.82132069842305
 20
0.1707943786334812
 30
0.0
  0
VERTEX
  5
60
330
5E
100
AcDbEntity
  8
Layer 02
100
AcDbVertex
100
AcDb2dVertex
 10
74.46101935341987
 20
0.1707943786334812
 30
0.0
  0
SEQEND
  5
61
330
5E
100
AcDbEntity
  8
Layer 02
  0
POLYLINE
  5
62
330
1F
100
AcDbEntity
  8
Layer 02
100
AcDb2dPolyline
 66
     1
 10
0.0
 20
0.0
 30
0.0
  0
VERTEX
  5
63
330
62
100
AcDbEntity
  8
Layer 02
100
AcDbVertex
100
AcDb2dVertex
 10
79.10006348312268
 20
20.81283532733348
 30
0.0
  0
VERTEX
  5
64
330
62
100
AcDbEntity
  8
Layer 02
100
AcDbVertex
100
AcDb2dVertex
 10
75.8905577318316
 20
0.2304874292918247
 30
0.0
  0
SEQEND
  5
65
330
62
100
AcDbEntity
  8
Layer 02
  0
SPLINE
  5
66
330
1F
100
AcDbEntity
  8
Layer 02
100
AcDbSpline
210
0.0
220
0.0
230
1.0
 70
     8
 71
     5
 72
    12
 73
     6
 74
     0
 42
0.0000000001
 43
0.0000000001
 40
0.0
 40
0.0
 40
0.0
 40
0.0
 40
0.0
 40
0.0
 40
1.0
 40
1.0
 40
1.0
 40
1.0
 40
1.0
 40
1.0
 10
74.46101935341987
 20
0.1707943786334812
 30
0.0
 10
74.4351314676005
 20
0.1707943786334812
 30
0.0
 10
74.40924358178113
 20
0.1707943786334812
 30
0.0
 10
74.35817963281056
 20
0.2055337936243431
 30
0.0
 10
74.36129183061662
 20
0.2312339270289132
 30
0.0
 10
74.36440402842268
 20
0.2569340604334833
 30
0.0
  0
ARC
  5
67
330
1F
100
AcDbEntity
  8
Layer 02
100
AcDbCircle
 10
75.82132069842268
 20
0.2407943786334812
 30
0.0
 40
0.07
100
AcDbArc
 50
270.0000000003024
 51
351.5328621883017
  0
LINE
  5
68
330
1F
100
AcDbEntity
  8
Layer 02
100
AcDbLine
 10
81.00000135492269
 20
22.05979437863348
 30
0.0
 11
80.25709999222269
 21
22.05979437863348
 31
0.0
  0
LINE
  5
69
330
1F
100
AcDbEntity
  8
Layer 02
  6
Continuous
100
AcDbLine
 10
74.48243416722269
 20
-0.0052056213665158
 30
0.0
 11
75.69231675442269
 21
-0.0052056213665158
 31
0.0
  0
SPLINE
  5
6A
330
1F
100
AcDbEntity
  8
Layer 02
100
AcDbSpline
210
0.0
220
0.0
230
1.0
 70
     8
 71
     5
 72
    12
 73
     6
 74
     0
 42
0.0000000001
 43
0.0000000001
 40
-1.0
 40
-1.0
 40
-1.0
 40
-1.0
 40
-1.0
 40
-1.0
 40
0.0
 40
0.0
 40
0.0
 40
0.0
 40
0.0
 40
0.0
 10
80.25709999222269
 20
22.05979437863348
 30
0.0
 10
79.91688592084942
 20
22.05979437863348
 30
0.0
 10
79.57667184947616
 20
22.05979437863348
 30
0.0
 10
79.20489903849071
 20
21.48513880328179
 30
0.0
 10
79.1524812608067
 20
21.14898706530763
 30
0.0
 10
79.10006348312268
 20
20.81283532733348
 30
0.0
  0
ARC
  5
6B
330
1F
100
AcDbEntity
  8
Layer 02
  6
Continuous
100
AcDbCircle
 10
75.69231675442269
 20
0.0885622395334842
 30
0.0
 40
0.0937678609
100
AcDbArc
 50
270.0
 51
61.27967320209792
  0
SPLINE
  5
6C
330
1F
100
AcDbEntity
  8
Layer 02
  6
Continuous
100
AcDbSpline
210
0.0
220
0.0
230
1.0
 70
    24
 71
     2
 72
     6
 73
     3
 74
     0
 42
0.0000000001
 43
0.0000000001
 40
0.0
 40
0.0
 40
0.0
 40
2.067292774977514
 40
2.067292774977514
 40
2.067292774977514
 10
48.15704424779987
 20
4.195389882200221
 30
0.0
 10
48.28174757129987
 20
3.169293426950222
 30
0.0
 10
48.40645089479987
 20
2.143196971700224
 30
0.0
  0
SPLINE
  5
6D
330
1F
100
AcDbEntity
  8
Layer 02
  6
Continuous
100
AcDbSpline
210
0.0
220
0.0
230
1.0
 70
    12
 71
     2
 72
     8
 73
     5
 74
     0
 42
0.0000000001
 43
0.0000000001
 40
0.0
 40
0.0
 40
0.0
 40
0.1237889725417986
 40
0.1237889725417986
 40
0.2475779450835973
 40
0.2475779450835973
 40
0.2475779450835973
 10
48.51756718769987
 20
-0.004999999999777
 30
0.0
 41
1.0
 10
48.59035322092478
 20
-0.0049999999997787
 30
0.0
 41
0.7899418936709723
 10
48.60840535018246
 20
0.0655118944711791
 30
0.0
 41
1.0
 10
48.62645747944013
 20
0.1360237889421352
 30
0.0
 41
0.7899418936709723
 10
48.56262589410299
 20
0.1710000000858159
 30
0.0
 41
1.0
  0
SPLINE
  5
6E
330
1F
100
AcDbEntity
  8
Layer 02
  6
Continuous
100
AcDbSpline
210
0.0
220
0.0
230
1.0
 70
    24
 71
     2
 72
     6
 73
     3
 74
     0
 42
0.0000000001
 43
0.0000000001
 40
0.0
 40
0.0
 40
0.0
 40
1.209882587199999
 40
1.209882587199999
 40
1.209882587199999
 10
48.51756718769987
 20
-0.004999999999777
 30
0.0
 10
47.91262589409988
 20
-0.004999999999777
 30
0.0
 10
47.30768460049987
 20
-0.004999999999777
 30
0.0
  0
SPLINE
  5
6F
330
1F
100
AcDbEntity
  8
Layer 02
  6
Continuous
100
AcDbSpline
210
0.0
220
0.0
230
1.0
 70
    12
 71
     2
 72
     8
 73
     5
 74
     0
 42
0.0000000001
 43
0.0000000001
 40
0.0
 40
0.0
 40
0.0
 40
0.1237889725417989
 40
0.1237889725417989
 40
0.2475779450835977
 40
0.2475779450835977
 40
0.2475779450835977
 10
47.26262589409674
 20
0.1710000000858158
 30
0.0
 41
1.0
 10
47.19879430875962
 20
0.136023788942135
 30
0.0
 41
0.7899418936709716
 10
47.21684643801728
 20
0.0655118944711787
 30
0.0
 41
1.0
 10
47.23489856727496
 20
-0.0049999999997787
 30
0.0
 41
0.7899418936709716
 10
47.30768460049987
 20
-0.004999999999777
 30
0.0
 41
1.0
  0
SPLINE
  5
70
330
1F
100
AcDbEntity
  8
Layer 02
100
AcDbSpline
210
0.0
220
0.0
230
1.0
 70
    24
 71
     2
 72
     6
 73
     3
 74
     0
 42
0.0000000001
 43
0.0000000001
 40
0.0
 40
0.0
 40
0.0
 40
0.7429013626999961
 40
0.7429013626999961
 40
0.7429013626999961
 10
41.99999999999987
 20
22.06000000000022
 30
0.0
 10
42.37145068134987
 20
22.06000000000022
 30
0.0
 10
42.74290136269988
 20
22.06000000000022
 30
0.0
  0
SPLINE
  5
71
330
1F
100
AcDbEntity
  8
Layer 02
100
AcDbSpline
210
0.0
220
0.0
230
1.0
 70
     8
 71
     5
 72
    12
 73
     6
 74
     0
 42
0.0000000001
 43
0.0000000001
 40
-1.0
 40
-1.0
 40
-1.0
 40
-1.0
 40
-1.0
 40
-1.0
 40
0.0
 40
0.0
 40
0.0
 40
0.0
 40
0.0
 40
0.0
 10
42.74290136269988
 20
22.06000000000022
 30
0.0
 10
43.08311543407313
 20
22.06000000000022
 30
0.0
 10
43.4233295054464
 20
22.06000000000022
 30
0.0
 10
43.79510231643185
 20
21.48534442464853
 30
0.0
 10
43.84752009411586
 20
21.14919268667437
 30
0.0
 10
43.89993787179989
 20
20.81304094870022
 30
0.0
  0
SPLINE
  5
72
330
1F
100
AcDbEntity
  8
Layer 02
100
AcDbSpline
210
0.0
220
0.0
230
1.0
 70
    24
 71
     2
 72
     6
 73
     3
 74
     0
 42
0.0000000001
 43
0.0000000001
 40
0.0
 40
0.0
 40
0.0
 40
1.0
 40
1.0
 40
1.0
 10
43.89993787179989
 20
20.81304094870022
 30
0.0
 10
45.50469074744541
 20
10.52186699967939
 30
0.0
 10
47.10944362309095
 20
0.2306930506585635
 30
0.0
  0
SPLINE
  5
73
330
1F
100
AcDbEntity
  8
Layer 02
100
AcDbSpline
210
0.0
220
0.0
230
1.0
 70
    12
 71
     2
 72
     6
 73
     3
 74
     0
 42
0.0000000001
 43
0.0000000001
 40
0.0
 40
0.0
 40
0.0
 40
0.0996111825628767
 40
0.0996111825628767
 40
0.0996111825628767
 10
47.10944362309095
 20
0.2306930506585635
 30
0.0
 41
1.0
 10
47.1183298104229
 20
0.1710000000005385
 30
0.0
 41
0.7573777569540366
 10
47.17868065649951
 20
0.17100000000022
 30
0.0
 41
1.0
  0
SPLINE
  5
74
330
1F
100
AcDbEntity
  8
Layer 02
100
AcDbSpline
210
0.0
220
0.0
230
1.0
 70
    24
 71
     2
 72
     6
 73
     3
 74
     0
 42
0.0000000001
 43
0.0000000001
 40
0.0
 40
0.0
 40
0.0
 40
1.0
 40
1.0
 40
1.0
 10
47.17868065649951
 20
0.17100000000022
 30
0.0
 10
47.85883132900109
 20
0.17100000000022
 30
0.0
 10
48.53898200150268
 20
0.17100000000022
 30
0.0
  0
SPLINE
  5
75
330
1F
100
AcDbEntity
  8
Layer 02
100
AcDbSpline
210
0.0
220
0.0
230
1.0
 70
     8
 71
     5
 72
    12
 73
     6
 74
     0
 42
0.0000000001
 43
0.0000000001
 40
0.0
 40
0.0
 40
0.0
 40
0.0
 40
0.0
 40
0.0
 40
1.0
 40
1.0
 40
1.0
 40
1.0
 40
1.0
 40
1.0
 10
48.53898200150268
 20
0.17100000000022
 30
0.0
 10
48.56486988732205
 20
0.17100000000022
 30
0.0
 10
48.59075777314143
 20
0.17100000000022
 30
0.0
 10
48.641821722112
 20
0.2057394149910819
 30
0.0
 10
48.63870952430594
 20
0.231439548395652
 30
0.0
 10
48.63559732649988
 20
0.2571396818002221
 30
0.0
  0
SPLINE
  5
76
330
1F
100
AcDbEntity
  8
Layer 02
100
AcDbSpline
210
0.0
220
0.0
230
1.0
 70
    24
 71
     2
 72
     6
 73
     3
 74
     0
 42
0.0000000001
 43
0.0000000001
 40
0.0
 40
0.0
 40
0.0
 40
1.0
 40
1.0
 40
1.0
 10
48.63559732649988
 20
0.2571396818002221
 30
0.0
 10
47.14949201757585
 20
12.52920819176656
 30
0.0
 10
45.66338670865181
 20
24.80127670173289
 30
0.0
  0
SPLINE
  5
77
330
1F
100
AcDbEntity
  8
Layer 02
  6
Continuous
100
AcDbSpline
210
0.0
220
0.0
230
1.0
 70
    24
 71
     2
 72
     6
 73
     3
 74
     0
 42
0.0000000001
 43
0.0000000001
 40
0.0
 40
0.0
 40
0.0
 40
2.734999999999321
 40
2.734999999999321
 40
2.734999999999321
 10
41.97999999999984
 20
22.0550000000009
 30
0.0
 10
41.97999999999985
 20
23.42250000000056
 30
0.0
 10
41.97999999999987
 20
24.79000000000022
 30
0.0
  0
SPLINE
  5
78
330
1F
100
AcDbEntity
  8
Layer 02
  6
Continuous
100
AcDbSpline
210
0.0
220
0.0
230
1.0
 70
    24
 71
     2
 72
     6
 73
     3
 74
     0
 42
0.0000000001
 43
0.0000000001
 40
0.0
 40
0.0
 40
0.0
 40
2.067292774977514
 40
2.067292774977514
 40
2.067292774977514
 10
-48.1770442477999
 20
4.200389882200451
 30
0.0
 10
-48.3017475712999
 20
3.174293426950453
 30
0.0
 10
-48.4264508947999
 20
2.148196971700454
 30
0.0
  0
SPLINE
  5
79
330
1F
100
AcDbEntity
  8
Layer 02
  6
Continuous
100
AcDbSpline
210
0.0
220
0.0
230
1.0
 70
    12
 71
     2
 72
     8
 73
     5
 74
     0
 42
0.0000000001
 43
0.0000000001
 40
0.0
 40
0.0
 40
0.0
 40
0.1237889725417986
 40
0.1237889725417986
 40
0.2475779450835973
 40
0.2475779450835973
 40
0.2475779450835973
 10
-48.58262589410302
 20
0.1760000000860457
 30
0.0
 41
1.0
 10
-48.64645747944015
 20
0.1410237889423647
 30
0.0
 41
0.7899418936709723
 10
-48.62840535018248
 20
0.0705118944714088
 30
0.0
 41
1.0
 10
-48.6103532209248
 20
0.0000000000004512
 30
0.0
 41
0.7899418936709723
 10
-48.53756718769989
 20
0.0000000000004529
 30
0.0
 41
1.0
  0
SPLINE
  5
7A
330
1F
100
AcDbEntity
  8
Layer 02
  6
Continuous
100
AcDbSpline
210
0.0
220
0.0
230
1.0
 70
    24
 71
     2
 72
     6
 73
     3
 74
     0
 42
0.0000000001
 43
0.0000000001
 40
0.0
 40
0.0
 40
0.0
 40
1.209882587199999
 40
1.209882587199999
 40
1.209882587199999
 10
-48.5375671876999
 20
0.0000000000004529
 30
0.0
 10
-47.9326258940999
 20
0.0000000000004529
 30
0.0
 10
-47.32768460049989
 20
0.0000000000004529
 30
0.0
  0
SPLINE
  5
7B
330
1F
100
AcDbEntity
  8
Layer 02
  6
Continuous
100
AcDbSpline
210
0.0
220
0.0
230
1.0
 70
    12
 71
     2
 72
     8
 73
     5
 74
     0
 42
0.0000000001
 43
0.0000000001
 40
0.0
 40
0.0
 40
0.0
 40
0.1237889725417989
 40
0.1237889725417989
 40
0.2475779450835977
 40
0.2475779450835977
 40
0.2475779450835977
 10
-47.32768460049989
 20
0.0000000000004529
 30
0.0
 41
1.0
 10
-47.25489856727498
 20
0.0000000000004512
 30
0.0
 41
0.7899418936709716
 10
-47.23684643801731
 20
0.0705118944714093
 30
0.0
 41
1.0
 10
-47.21879430875963
 20
0.1410237889423654
 30
0.0
 41
0.7899418936709716
 10
-47.28262589409677
 20
0.176000000086046
 30
0.0
 41
1.0
  0
SPLINE
  5
7C
330
1F
100
AcDbEntity
  8
Layer 02
100
AcDbSpline
210
0.0
220
0.0
230
1.0
 70
    24
 71
     2
 72
     6
 73
     3
 74
     0
 42
0.0000000001
 43
0.0000000001
 40
0.0
 40
0.0
 40
0.0
 40
0.7429013626999961
 40
0.7429013626999961
 40
0.7429013626999961
 10
-42.0199999999999
 20
22.06500000000045
 30
0.0
 10
-42.39145068134989
 20
22.06500000000045
 30
0.0
 10
-42.7629013626999
 20
22.06500000000045
 30
0.0
  0
SPLINE
  5
7D
330
1F
100
AcDbEntity
  8
Layer 02
100
AcDbSpline
210
0.0
220
0.0
230
1.0
 70
     8
 71
     5
 72
    12
 73
     6
 74
     0
 42
0.0000000001
 43
0.0000000001
 40
-1.0
 40
-1.0
 40
-1.0
 40
-1.0
 40
-1.0
 40
-1.0
 40
0.0
 40
0.0
 40
0.0
 40
0.0
 40
0.0
 40
0.0
 10
-42.7629013626999
 20
22.06500000000045
 30
0.0
 10
-43.10311543407315
 20
22.06500000000045
 30
0.0
 10
-43.44332950544643
 20
22.06500000000045
 30
0.0
 10
-43.81510231643188
 20
21.49034442464876
 30
0.0
 10
-43.86752009411589
 20
21.1541926866746
 30
0.0
 10
-43.91993787179991
 20
20.81804094870045
 30
0.0
  0
SPLINE
  5
7E
330
1F
100
AcDbEntity
  8
Layer 02
100
AcDbSpline
210
0.0
220
0.0
230
1.0
 70
    24
 71
     2
 72
     6
 73
     3
 74
     0
 42
0.0000000001
 43
0.0000000001
 40
0.0
 40
0.0
 40
0.0
 40
1.0
 40
1.0
 40
1.0
 10
-43.91993787179991
 20
20.81804094870045
 30
0.0
 10
-45.52469074744543
 20
10.52686699967962
 30
0.0
 10
-47.12944362309098
 20
0.2356930506587933
 30
0.0
  0
SPLINE
  5
7F
330
1F
100
AcDbEntity
  8
Layer 02
100
AcDbSpline
210
0.0
220
0.0
230
1.0
 70
    12
 71
     2
 72
     6
 73
     3
 74
     0
 42
0.0000000001
 43
0.0000000001
 40
0.0
 40
0.0
 40
0.0
 40
0.0996111825628766
 40
0.0996111825628766
 40
0.0996111825628766
 10
-47.19868065649953
 20
0.1760000000004499
 30
0.0
 41
1.0
 10
-47.13832981042294
 20
0.1760000000007683
 30
0.0
 41
0.757377756954037
 10
-47.12944362309098
 20
0.2356930506587933
 30
0.0
 41
1.0
  0
SPLINE
  5
80
330
1F
100
AcDbEntity
  8
Layer 02
100
AcDbSpline
210
0.0
220
0.0
230
1.0
 70
    24
 71
     2
 72
     6
 73
     3
 74
     0
 42
0.0000000001
 43
0.0000000001
 40
0.0
 40
0.0
 40
0.0
 40
1.0
 40
1.0
 40
1.0
 10
-47.19868065649953
 20
0.17600000000045
 30
0.0
 10
-47.87883132900112
 20
0.17600000000045
 30
0.0
 10
-48.55898200150271
 20
0.17600000000045
 30
0.0
  0
SPLINE
  5
81
330
1F
100
AcDbEntity
  8
Layer 02
100
AcDbSpline
210
0.0
220
0.0
230
1.0
 70
     8
 71
     5
 72
    12
 73
     6
 74
     0
 42
0.0000000001
 43
0.0000000001
 40
0.0
 40
0.0
 40
0.0
 40
0.0
 40
0.0
 40
0.0
 40
1.0
 40
1.0
 40
1.0
 40
1.0
 40
1.0
 40
1.0
 10
-48.55898200150271
 20
0.17600000000045
 30
0.0
 10
-48.58486988732208
 20
0.17600000000045
 30
0.0
 10
-48.61075777314146
 20
0.17600000000045
 30
0.0
 10
-48.66182172211202
 20
0.2107394149913117
 30
0.0
 10
-48.65870952430597
 20
0.2364395483958819
 30
0.0
 10
-48.65559732649991
 20
0.2621396818004519
 30
0.0
  0
SPLINE
  5
82
330
1F
100
AcDbEntity
  8
Layer 02
100
AcDbSpline
210
0.0
220
0.0
230
1.0
 70
    24
 71
     2
 72
     6
 73
     3
 74
     0
 42
0.0000000001
 43
0.0000000001
 40
0.0
 40
0.0
 40
0.0
 40
1.0
 40
1.0
 40
1.0
 10
-48.65559732649991
 20
0.2621396818004519
 30
0.0
 10
-47.16949201757588
 20
12.53420819176679
 30
0.0
 10
-45.68338670865184
 20
24.80627670173312
 30
0.0
  0
SPLINE
  5
83
330
1F
100
AcDbEntity
  8
Layer 02
  6
Continuous
100
AcDbSpline
210
0.0
220
0.0
230
1.0
 70
    24
 71
     2
 72
     6
 73
     3
 74
     0
 42
0.0000000001
 43
0.0000000001
 40
0.0
 40
0.0
 40
0.0
 40
2.73500000000023
 40
2.73500000000023
 40
2.73500000000023
 10
-41.99999999999989
 20
24.79500000000045
 30
0.0
 10
-42.00000000000001
 20
23.42750000000033
 30
0.0
 10
-42.00000000000013
 20
22.06000000000022
 30
0.0
  0
LINE
  5
85
330
1F
100
AcDbEntity
  8
Default
100
AcDbLine
 10
81.0000013549227
 20
22.05479437863348
 30
0.0
 11
100.9999986450731
 21
22.06520562136652
 31
0.0
  0
LINE
  5
86
330
1F
100
AcDbEntity
  8
Default
100
AcDbLine
 10
-42.00000000000013
 20
22.06000000000022
 30
0.0
 11
41.99999999999987
 21
22.06000000000022
 31
0.0
  0
POLYLINE
  5
87
330
1F
100
AcDbEntity
  8
Layer 02
100
AcDb2dPolyline
 66
     1
 10
0.0
 20
0.0
 30
0.0
  0
VERTEX
  5
88
330
87
100
AcDbEntity
  8
Layer 02
100
AcDbVertex
100
AcDb2dVertex
 10
68.99999999999793
 20
25.81
 30
0.0
  0
VERTEX
  5
89
330
87
100
AcDbEntity
  8
Layer 02
100
AcDbVertex
100
AcDb2dVertex
 10
112.9999999999979
 20
25.81
 30
0.0
  0
SEQEND
  5
8A
330
87
100
AcDbEntity
  8
Layer 02
  0
LINE
  5
8B
330
1F
100
AcDbEntity
  8
Layer 02
  6
Continuous
100
AcDbLine
 10
112.9999999999979
 20
25.31
 30
0.0
 11
112.9999999999979
 21
25.81
 31
0.0
  0
LINE
  5
8C
330
1F
100
AcDbEntity
  8
Layer 02
  6
Continuous
100
AcDbLine
 10
112.9999999999979
 20
25.31
 30
0.0
 11
68.99999999999793
 21
25.31
 31
0.0
  0
LINE
  5
8D
330
1F
100
AcDbEntity
  8
Layer 02
  6
Continuous
100
AcDbLine
 10
111.8359999999979
 20
24.81
 30
0.0
 11
70.16399999999793
 21
24.81
 31
0.0
  0
LINE
  5
8E
330
1F
100
AcDbEntity
  8
Layer 02
  6
Continuous
100
AcDbLine
 10
70.16399999999793
 20
24.81
 30
0.0
 11
68.99999999999793
 21
25.31
 31
0.0
  0
LINE
  5
8F
330
1F
100
AcDbEntity
  8
Layer 02
  6
Continuous
100
AcDbLine
 10
111.8359999999979
 20
24.81
 30
0.0
 11
112.9999999999979
 21
25.31
 31
0.0
  0
LINE
  5
90
330
1F
100
AcDbEntity
  8
Layer 02
  6
Continuous
100
AcDbLine
 10
68.99999999999793
 20
25.31
 30
0.0
 11
68.99999999999793
 21
25.81
 31
0.0
  0
LINE
  5
91
330
1F
100
AcDbEntity
  8
Layer 02
  6
Continuous
100
AcDbLine
 10
68.99999999999793
 20
25.31
 30
0.0
 11
68.99999999999793
 21
25.81
 31
0.0
  0
SPLINE
  5
92
330
1F
100
AcDbEntity
  8
Layer 02
  6
Continuous
100
AcDbSpline
210
0.0
220
0.0
230
1.0
 70
    15
 71
     2
 72
    36
 73
    33
 74
     0
 42
0.0000000001
 43
0.0000000001
 40
203.9794021959924
 40
203.9794021959924
 40
203.9794021959924
 40
247.3402268336658
 40
247.3402268336658
 40
254.947174288261
 40
254.947174288261
 40
268.4042348350075
 40
268.4042348350075
 40
272.5371471157079
 40
272.5371471157079
 40
285.994207662405
 40
285.994207662405
 40
293.6011551171591
 40
293.6011551171591
 40
336.9619797546268
 40
336.9619797546268
 40
350.779979754631
 40
350.779979754631
 40
394.140804392049
 40
394.140804392049
 40
401.7477518467897
 40
401.7477518467897
 40
415.2048123934936
 40
415.2048123934936
 40
419.337724674194
 40
419.337724674194
 40
432.7947852209478
 40
432.7947852209478
 40
440.4017326757319
 40
440.4017326757319
 40
483.76255731315
 40
483.76255731315
 40
497.5805573131514
 40
497.5805573131514
 40
497.5805573131514
 10
-6.54536842105254
 20
84.81000000000012
 30
0.0
 41
1.0
 10
-27.09771757196946
 20
84.81000000000014
 30
0.0
 41
0.9990506589786532
 10
-47.5720590158929
 20
82.92164738066862
 30
0.0
 41
1.0
 10
-51.73479842834183
 20
82.53771708945301
 30
0.0
 41
0.8057164264668963
 10
-52.62962739201745
 20
78.2292947193722
 30
0.0
 41
1.0
 10
-54.00000000000002
 20
71.63122487678515
 30
0.0
 41
0.9941835188103065
 10
-54.00000000000001
 20
64.87645614030001
 30
0.0
 41
1.0
 10
-54.00000000000001
 20
62.80999999995002
 30
0.0
 41
1.0
 10
-54.0
 20
60.74354385960004
 30
0.0
 41
1.0
 10
-54.0
 20
53.98877512313956
 30
0.0
 41
0.994183518810264
 10
-52.62962739201748
 20
47.39070528057777
 30
0.0
 41
1.0
 10
-51.73479842827474
 20
43.08228291039129
 30
0.0
 41
0.8057164264600588
 10
-47.57205901570184
 20
42.69835261931327
 30
0.0
 41
1.0
 10
-27.09771757187568
 20
40.81000000000009
 30
0.0
 41
0.9990506589786627
 10
-6.545368421056406
 20
40.81000000000001
 30
0.0
 41
1.0
 10
-0.0000000000016299
 20
40.81
 30
0.0
 41
1.0
 10
6.545368421053147
 20
40.81
 30
0.0
 41
1.0
 10
27.09771757184897
 20
40.81000000000007
 30
0.0
 41
0.9990506589786606
 10
47.57205901565237
 20
42.69835261931311
 30
0.0
 41
1.0
 10
51.73479842819503
 20
43.08228291042777
 30
0.0
 41
0.805716426465464
 10
52.62962739197005
 20
47.39070528057747
 30
0.0
 41
1.0
 10
53.9999999999999
 20
53.98877512313359
 30
0.0
 41
0.9941835188098658
 10
54.00000000000001
 20
60.74354385959924
 30
0.0
 41
1.0
 10
54.00000000000001
 20
62.8099999999496
 30
0.0
 41
1.0
 10
54.00000000000001
 20
64.87645614029998
 30
0.0
 41
1.0
 10
54.0
 20
71.63122487679054
 30
0.0
 41
0.9941835188099082
 10
52.6296273919701
 20
78.2292947193722
 30
0.0
 41
1.0
 10
51.73479842823086
 20
82.53771708956812
 30
0.0
 41
0.8057164264623716
 10
47.57205901565332
 20
82.9216473806868
 30
0.0
 41
1.0
 10
27.09771757184995
 20
84.80999999999986
 30
0.0
 41
0.9990506589786607
 10
6.545368421054179
 20
84.81000000000006
 30
0.0
 41
1.0
 10
0.0000000000008191
 20
84.81000000000009
 30
0.0
 41
1.0
 10
-6.54536842105254
 20
84.81000000000012
 30
0.0
 41
1.0
  0
SPLINE
  5
93
330
1F
100
AcDbEntity
  8
Layer 02
  6
Continuous
100
AcDbSpline
210
0.0
220
0.0
230
1.0
 70
    24
 71
     2
 72
     6
 73
     3
 74
     0
 42
0.0000000001
 43
0.0000000001
 40
0.0
 40
0.0
 40
0.0
 40
1.26684489974108
 40
1.26684489974108
 40
1.26684489974108
 10
-52.83600000000001
 20
24.80999999999999
 30
0.0
 10
-53.41800000000001
 20
25.05999999999999
 30
0.0
 10
-54.00000000000001
 20
25.30999999999999
 30
0.0
  0
SPLINE
  5
94
330
1F
100
AcDbEntity
  8
Layer 02
  6
Continuous
100
AcDbSpline
210
0.0
220
0.0
230
1.0
 70
    24
 71
     2
 72
     6
 73
     3
 74
     0
 42
0.0000000001
 43
0.0000000001
 40
0.0
 40
0.0
 40
0.0
 40
0.5
 40
0.5
 40
0.5
 10
-54.00000000000001
 20
25.30999999999999
 30
0.0
 10
-54.00000000000001
 20
25.55999999999999
 30
0.0
 10
-54.00000000000001
 20
25.80999999999999
 30
0.0
  0
SPLINE
  5
95
330
1F
100
AcDbEntity
  8
Layer 02
  6
Continuous
100
AcDbSpline
210
0.0
220
0.0
230
1.0
 70
    24
 71
     2
 72
     6
 73
     3
 74
     0
 42
0.0000000001
 43
0.0000000001
 40
0.0
 40
0.0
 40
0.0
 40
0.5
 40
0.5
 40
0.5
 10
-54.00000000000001
 20
25.30999999999999
 30
0.0
 10
-54.00000000000001
 20
25.55999999999999
 30
0.0
 10
-54.00000000000001
 20
25.80999999999999
 30
0.0
  0
SPLINE
  5
96
330
1F
100
AcDbEntity
  8
Layer 02
  6
Continuous
100
AcDbSpline
210
0.0
220
0.0
230
1.0
 70
    24
 71
     2
 72
     6
 73
     3
 74
     0
 42
0.0000000001
 43
0.0000000001
 40
0.0
 40
0.0
 40
0.0
 40
0.5
 40
0.5
 40
0.5
 10
53.99999999999587
 20
25.31
 30
0.0
 10
53.99999999999587
 20
25.56
 30
0.0
 10
53.99999999999587
 20
25.81
 30
0.0
  0
SPLINE
  5
97
330
1F
100
AcDbEntity
  8
Layer 02
  6
Continuous
100
AcDbSpline
210
0.0
220
0.0
230
1.0
 70
    24
 71
     2
 72
     6
 73
     3
 74
     0
 42
0.0000000001
 43
0.0000000001
 40
0.0
 40
0.0
 40
0.0
 40
1.266844899741099
 40
1.266844899741099
 40
1.266844899741099
 10
52.83599999999586
 20
24.81
 30
0.0
 10
53.41799999999586
 20
25.06
 30
0.0
 10
53.99999999999587
 20
25.31
 30
0.0
  0
SPLINE
  5
98
330
1F
100
AcDbEntity
  8
Layer 02
100
AcDbSpline
210
0.0
220
0.0
230
1.0
 70
    24
 71
     2
 72
     6
 73
     3
 74
     0
 42
0.0000000001
 43
0.0000000001
 40
0.0
 40
0.0
 40
0.0
 40
1.0
 40
1.0
 40
1.0
 10
-54.00000000000001
 20
25.80999999999999
 30
0.0
 10
-0.0000000000020677
 20
25.81
 30
0.0
 10
53.99999999999587
 20
25.81
 30
0.0
  0
SPLINE
  5
99
330
1F
100
AcDbEntity
  8
Layer 02
  6
Continuous
100
AcDbSpline
210
0.0
220
0.0
230
1.0
 70
    24
 71
     2
 72
     6
 73
     3
 74
     0
 42
0.0000000001
 43
0.0000000001
 40
0.0
 40
0.0
 40
0.0
 40
114.0
 40
114.0
 40
114.0
 10
53.99999999999587
 20
25.31
 30
0.0
 10
-0.0000000000020677
 20
25.31
 30
0.0
 10
-54.00000000000001
 20
25.30999999999999
 30
0.0
  0
SPLINE
  5
9A
330
1F
100
AcDbEntity
  8
Layer 02
  6
Continuous
100
AcDbSpline
210
0.0
220
0.0
230
1.0
 70
    24
 71
     2
 72
     6
 73
     3
 74
     0
 42
0.0000000001
 43
0.0000000001
 40
0.0
 40
0.0
 40
0.0
 40
111.672
 40
111.672
 40
111.672
 10
52.83599999999586
 20
24.81
 30
0.0
 10
-0.0000000000020783
 20
24.81
 30
0.0
 10
-52.83600000000001
 20
24.80999999999999
 30
0.0
  0
ENDSEC
  0
SECTION
  2
OBJECTS
  0
DICTIONARY
  5
C
330
0
100
AcDbDictionary
281
     1
  3
ACAD_GROUP
350
D
  3
ACAD_LAYOUT
350
1A
  3
ACAD_MLEADERSTYLE
350
9C
  3
ACAD_MLINESTYLE
350
17
  3
ACAD_PLOTSETTINGS
350
19
  3
ACAD_PLOTSTYLENAME
350
E
  3
ACAD_TABLESTYLE
350
9B
  3
ACAD_VISUALSTYLE
350
2A
  0
DICTIONARY
  5
D
102
{ACAD_REACTORS
330
C
102
}
330
C
100
AcDbDictionary
281
     1
  0
DICTIONARY
  5
1A
102
{ACAD_REACTORS
330
C
102
}
330
C
100
AcDbDictionary
281
     1
  3
Layout1
350
1E
  3
Layout2
350
26
  3
Model
350
22
  0
DICTIONARY
  5
9C
102
{ACAD_REACTORS
330
C
102
}
330
C
100
AcDbDictionary
281
     1
  0
DICTIONARY
  5
17
102
{ACAD_REACTORS
330
C
102
}
330
C
100
AcDbDictionary
281
     1
  3
Standard
350
18
  0
DICTIONARY
  5
19
102
{ACAD_REACTORS
330
C
102
}
330
C
100
AcDbDictionary
281
     1
  0
ACDBDICTIONARYWDFLT
  5
E
102
{ACAD_REACTORS
330
C
102
}
330
C
100
AcDbDictionary
281
     1
  3
Normal
350
F
100
AcDbDictionaryWithDefault
340
F
  0
DICTIONARY
  5
9B
102
{ACAD_REACTORS
330
C
102
}
330
C
100
AcDbDictionary
281
     1
  0
DICTIONARY
  5
2A
102
{ACAD_REACTORS
330
C
102
}
330
C
100
AcDbDictionary
281
     1
  3
2dWireframe
350
2F
  3
3D Hidden
350
31
  3
3dWireframe
350
30
  3
Basic
350
32
  3
Brighten
350
36
  3
ColorChange
350
3A
  3
Conceptual
350
34
  3
Dim
350
35
  3
Facepattern
350
39
  3
Flat
350
2B
  3
FlatWithEdges
350
2C
  3
Gouraud
350
2D
  3
GouraudWithEdges
350
2E
  3
Linepattern
350
38
  3
Realistic
350
33
  3
Thicken
350
37
  0
LAYOUT
  5
1E
102
{ACAD_REACTORS
330
1A
102
}
330
1A
100
AcDbPlotSettings
  1

  2
none_device
  4

  6

 40
0.0
 41
0.0
 42
0.0
 43
0.0
 44
0.0
 45
0.0
 46
0.0
 47
0.0
 48
0.0
 49
0.0
140
0.0
141
0.0
142
1.0
143
1.0
 70
   688
 72
     0
 73
     0
 74
     5
  7

 75
    16
 76
     0
 77
     2
 78
   300
147
1.0
148
0.0
149
0.0
100
AcDbLayout
  1
Layout1
 70
     1
 71
     1
 10
0.0
 20
0.0
 11
12.0
 21
9.0
 12
0.0
 22
0.0
 32
0.0
 14
1.000000000000000E+20
 24
1.000000000000000E+20
 34
1.000000000000000E+20
 15
-1.000000000000000E+20
 25
-1.000000000000000E+20
 35
-1.000000000000000E+20
146
0.0
 13
0.0
 23
0.0
 33
0.0
 16
1.0
 26
0.0
 36
0.0
 17
0.0
 27
1.0
 37
0.0
 76
     0
330
1B
  0
LAYOUT
  5
26
102
{ACAD_REACTORS
330
1A
102
}
330
1A
100
AcDbPlotSettings
  1

  2
none_device
  4

  6

 40
0.0
 41
0.0
 42
0.0
 43
0.0
 44
0.0
 45
0.0
 46
0.0
 47
0.0
 48
0.0
 49
0.0
140
0.0
141
0.0
142
1.0
143
1.0
 70
   688
 72
     0
 73
     0
 74
     5
  7

 75
    16
 76
     0
 77
     2
 78
   300
147
1.0
148
0.0
149
0.0
100
AcDbLayout
  1
Layout2
 70
     1
 71
     2
 10
0.0
 20
0.0
 11
0.0
 21
0.0
 12
0.0
 22
0.0
 32
0.0
 14
0.0
 24
0.0
 34
0.0
 15
0.0
 25
0.0
 35
0.0
146
0.0
 13
0.0
 23
0.0
 33
0.0
 16
1.0
 26
0.0
 36
0.0
 17
0.0
 27
1.0
 37
0.0
 76
     0
330
23
  0
LAYOUT
  5
22
102
{ACAD_REACTORS
330
1A
102
}
330
1A
100
AcDbPlotSettings
  1

  2
none_device
  4

  6

 40
0.0
 41
0.0
 42
0.0
 43
0.0
 44
0.0
 45
0.0
 46
0.0
 47
0.0
 48
0.0
 49
0.0
140
0.0
141
0.0
142
1.0
143
1.0
 70
  1712
 72
     0
 73
     0
 74
     0
  7

 75
     0
 76
     0
 77
     2
 78
   300
147
1.0
148
0.0
149
0.0
100
AcDbLayout
  1
Model
 70
     1
 71
     0
 10
0.0
 20
0.0
 11
12.0
 21
9.0
 12
0.0
 22
0.0
 32
0.0
 14
-54.00000000000001
 24
-0.0052056213665158
 34
0.0
 15
112.9999999999979
 25
84.81000000000012
 35
0.0
146
0.0
 13
0.0
 23
0.0
 33
0.0
 16
1.0
 26
0.0
 36
0.0
 17
0.0
 27
1.0
 37
0.0
 76
     0
330
1F
331
29
  0
MLINESTYLE
  5
18
102
{ACAD_REACTORS
330
17
102
}
330
17
100
AcDbMlineStyle
  2
Standard
 70
     0
  3

 62
   256
 51
90.0
 52
90.0
 71
     2
 49
0.5
 62
   256
  6
BYLAYER
 49
-0.5
 62
   256
  6
BYLAYER
  0
ACDBPLACEHOLDER
  5
F
102
{ACAD_REACTORS
330
E
102
}
330
E
  0
VISUALSTYLE
  5
2F
102
{ACAD_REACTORS
330
2A
102
}
330
2A
100
AcDbVisualStyle
  2
2dWireframe
 70
     4
 71
     0
 72
     2
 73
     0
 90
        0
 40
-0.6
 41
-30.0
 62
     5
 63
     7
421
 16777215
 74
     1
 91
        4
 64
     7
 65
   257
 75
     1
175
     1
 42
1.0
 92
        0
 66
   257
 43
1.0
 76
     1
 77
     6
 78
     2
 67
     7
 79
     5
170
     0
171
     0
290
     0
174
     0
 93
        1
 44
0.0
173
     0
291
     0
 45
0.0
1001
ACAD
1000
AcDbSavedByObjectVersion
1070
     0
  0
VISUALSTYLE
  5
31
102
{ACAD_REACTORS
330
2A
102
}
330
2A
100
AcDbVisualStyle
  2
3D Hidden
 70
     6
 71
     1
 72
     2
 73
     2
 90
        0
 40
-0.6
 41
-30.0
 62
     5
 63
     7
421
 16777215
 74
     2
 91
        2
 64
     7
 65
   257
 75
     2
175
     1
 42
40.0
 92
        0
 66
   257
 43
1.0
 76
     1
 77
     6
 78
     2
 67
     7
 79
     3
170
     0
171
     0
290
     0
174
     0
 93
        1
 44
0.0
173
     0
291
     0
 45
0.0
1001
ACAD
1000
AcDbSavedByObjectVersion
1070
     0
  0
VISUALSTYLE
  5
30
102
{ACAD_REACTORS
330
2A
102
}
330
2A
100
AcDbVisualStyle
  2
3dWireframe
 70
     5
 71
     0
 72
     2
 73
     0
 90
        0
 40
-0.6
 41
-30.0
 62
     5
 63
     7
421
 16777215
 74
     1
 91
        4
 64
     7
 65
   257
 75
     1
175
     1
 42
1.0
 92
        0
 66
   257
 43
1.0
 76
     1
 77
     6
 78
     2
 67
     7
 79
     5
170
     0
171
     0
290
     0
174
     0
 93
        1
 44
0.0
173
     0
291
     0
 45
0.0
1001
ACAD
1000
AcDbSavedByObjectVersion
1070
     0
  0
VISUALSTYLE
  5
32
102
{ACAD_REACTORS
330
2A
102
}
330
2A
100
AcDbVisualStyle
  2
Basic
 70
     7
 71
     1
 72
     0
 73
     1
 90
        0
 40
-0.6
 41
-30.0
 62
     5
 63
     7
421
 16777215
 74
     0
 91
        4
 64
     7
 65
   257
 75
     1
175
     1
 42
1.0
 92
        8
 66
     7
 43
1.0
 76
     1
 77
     6
 78
     2
 67
     7
 79
     5
170
     0
171
     0
290
     0
174
     0
 93
        1
 44
0.0
173
     0
291
     1
 45
0.0
1001
ACAD
1000
AcDbSavedByObjectVersion
1070
     0
  0
VISUALSTYLE
  5
36
102
{ACAD_REACTORS
330
2A
102
}
330
2A
100
AcDbVisualStyle
  2
Brighten
 70
    12
 71
     2
 72
     2
 73
     0
 90
        0
 40
-0.6
 41
-30.0
 62
     5
 63
     7
421
 16777215
 74
     1
 91
        4
 64
     7
 65
   257
 75
     1
175
     1
 42
1.0
 92
        8
 66
     7
 43
1.0
 76
     1
 77
     6
 78
     2
 67
     7
 79
     5
170
     0
171
     0
290
     0
174
     0
 93
        1
 44
50.0
173
     0
291
     1
 45
0.0
1001
ACAD
1000
AcDbSavedByObjectVersion
1070
     0
  0
VISUALSTYLE
  5
3A
102
{ACAD_REACTORS
330
2A
102
}
330
2A
100
AcDbVisualStyle
  2
ColorChange
 70
    16
 71
     2
 72
     2
 73
     3
 90
        0
 40
-0.6
 41
-30.0
 62
     5
 63
     8
421
  8421504
 74
     1
 91
        4
 64
     7
 65
   257
 75
     1
175
     1
 42
1.0
 92
        8
 66
     8
424
  8421504
 43
1.0
 76
     1
 77
     6
 78
     2
 67
     7
 79
     5
170
     0
171
     0
290
     0
174
     0
 93
        1
 44
0.0
173
     0
291
     1
 45
0.0
1001
ACAD
1000
AcDbSavedByObjectVersion
1070
     0
  0
VISUALSTYLE
  5
34
102
{ACAD_REACTORS
330
2A
102
}
330
2A
100
AcDbVisualStyle
  2
Conceptual
 70
     9
 71
     3
 72
     2
 73
     0
 90
        0
 40
-0.6
 41
-30.0
 62
     5
 63
     7
421
 16777215
 74
     2
 91
        2
 64
     7
 65
   257
 75
     1
175
     1
 42
40.0
 92
        8
 66
     7
 43
1.0
 76
     1
 77
     6
 78
     2
 67
     7
 79
     3
170
     0
171
     0
290
     0
174
     0
 93
        1
 44
0.0
173
     0
291
     0
 45
0.0
1001
ACAD
1000
AcDbSavedByObjectVersion
1070
     0
  0
VISUALSTYLE
  5
35
102
{ACAD_REACTORS
330
2A
102
}
330
2A
100
AcDbVisualStyle
  2
Dim
 70
    11
 71
     2
 72
     2
 73
     0
 90
        0
 40
-0.6
 41
-30.0
 62
     5
 63
     7
421
 16777215
 74
     1
 91
        4
 64
     7
 65
   257
 75
     1
175
     1
 42
1.0
 92
        8
 66
     7
 43
1.0
 76
     1
 77
     6
 78
     2
 67
     7
 79
     5
170
     0
171
     0
290
     0
174
     0
 93
        1
 44
-50.0
173
     0
291
     1
 45
0.0
1001
ACAD
1000
AcDbSavedByObjectVersion
1070
     0
  0
VISUALSTYLE
  5
39
102
{ACAD_REACTORS
330
2A
102
}
330
2A
100
AcDbVisualStyle
  2
Facepattern
 70
    15
 71
     2
 72
     2
 73
     0
 90
        0
 40
-0.6
 41
-30.0
 62
     5
 63
     7
421
 16777215
 74
     1
 91
        4
 64
     7
 65
   257
 75
     1
175
     1
 42
1.0
 92
        8
 66
     7
 43
1.0
 76
     1
 77
     6
 78
     2
 67
     7
 79
     5
170
     0
171
     0
290
     0
174
     0
 93
        1
 44
0.0
173
     0
291
     1
 45
0.0
1001
ACAD
1000
AcDbSavedByObjectVersion
1070
     0
  0
VISUALSTYLE
  5
2B
102
{ACAD_REACTORS
330
2A
102
}
330
2A
100
AcDbVisualStyle
  2
Flat
 70
     0
 71
     2
 72
     1
 73
     1
 90
        2
 40
-0.6
 41
30.0
 62
     5
 63
     7
421
 16777215
 74
     0
 91
        4
 64
     7
 65
   257
 75
     1
175
     1
 42
1.0
 92
        8
 66
     7
 43
1.0
 76
     1
 77
     6
 78
     2
 67
     7
 79
     5
170
     0
171
     0
290
     0
174
     0
 93
       13
 44
0.0
173
     0
291
     1
 45
0.0
1001
ACAD
1000
AcDbSavedByObjectVersion
1070
     0
  0
VISUALSTYLE
  5
2C
102
{ACAD_REACTORS
330
2A
102
}
330
2A
100
AcDbVisualStyle
  2
FlatWithEdges
 70
     1
 71
     2
 72
     1
 73
     1
 90
        2
 40
-0.6
 41
30.0
 62
     5
 63
     7
421
 16777215
 74
     1
 91
        4
 64
     7
 65
   257
 75
     1
175
     1
 42
1.0
 92
        0
 66
   257
 43
1.0
 76
     1
 77
     6
 78
     2
 67
     7
 79
     5
170
     0
171
     0
290
     0
174
     0
 93
       13
 44
0.0
173
     0
291
     1
 45
0.0
1001
ACAD
1000
AcDbSavedByObjectVersion
1070
     0
  0
VISUALSTYLE
  5
2D
102
{ACAD_REACTORS
330
2A
102
}
330
2A
100
AcDbVisualStyle
  2
Gouraud
 70
     2
 71
     2
 72
     2
 73
     1
 90
        2
 40
-0.6
 41
30.0
 62
     5
 63
     7
421
 16777215
 74
     0
 91
        4
 64
     7
 65
   257
 75
     1
175
     1
 42
1.0
 92
        0
 66
     7
 43
1.0
 76
     1
 77
     6
 78
     2
 67
     7
 79
     5
170
     0
171
     0
290
     0
174
     0
 93
       13
 44
0.0
173
     0
291
     1
 45
0.0
1001
ACAD
1000
AcDbSavedByObjectVersion
1070
     0
  0
VISUALSTYLE
  5
2E
102
{ACAD_REACTORS
330
2A
102
}
330
2A
100
AcDbVisualStyle
  2
GouraudWithEdges
 70
     3
 71
     2
 72
     2
 73
     1
 90
        2
 40
-0.6
 41
30.0
 62
     5
 63
     7
421
 16777215
 74
     1
 91
        4
 64
     7
 65
   257
 75
     1
175
     1
 42
1.0
 92
        0
 66
   257
 43
1.0
 76
     1
 77
     6
 78
     2
 67
     7
 79
     5
170
     0
171
     0
290
     0
174
     0
 93
       13
 44
0.0
173
     0
291
     1
 45
0.0
1001
ACAD
1000
AcDbSavedByObjectVersion
1070
     0
  0
VISUALSTYLE
  5
38
102
{ACAD_REACTORS
330
2A
102
}
330
2A
100
AcDbVisualStyle
  2
Linepattern
 70
    14
 71
     2
 72
     2
 73
     0
 90
        0
 40
-0.6
 41
-30.0
 62
     5
 63
     7
421
 16777215
 74
     1
 91
        4
 64
     7
 65
   257
 75
     7
175
     7
 42
1.0
 92
        8
 66
     7
 43
1.0
 76
     1
 77
     6
 78
     2
 67
     7
 79
     5
170
     0
171
     0
290
     0
174
     0
 93
        1
 44
0.0
173
     0
291
     1
 45
0.0
1001
ACAD
1000
AcDbSavedByObjectVersion
1070
     0
  0
VISUALSTYLE
  5
33
102
{ACAD_REACTORS
330
2A
102
}
330
2A
100
AcDbVisualStyle
  2
Realistic
 70
     8
 71
     2
 72
     2
 73
     0
 90
        0
 40
-0.6
 41
-30.0
 62
     5
 63
     7
421
 16777215
 74
     1
 91
        0
 64
     7
 65
   257
 75
     1
175
     1
 42
1.0
 92
        8
 66
     8
424
  7895160
 43
1.0
 76
     1
 77
     6
 78
     2
 67
     7
 79
     5
170
     0
171
     0
290
     0
174
     0
 93
       13
 44
0.0
173
     0
291
     0
 45
0.0
1001
ACAD
1000
AcDbSavedByObjectVersion
1070
     0
  0
VISUALSTYLE
  5
37
102
{ACAD_REACTORS
330
2A
102
}
330
2A
100
AcDbVisualStyle
  2
Thicken
 70
    13
 71
     2
 72
     2
 73
     0
 90
        0
 40
-0.6
 41
-30.0
 62
     5
 63
     7
421
 16777215
 74
     1
 91
        4
 64
     7
 65
   257
 75
     1
175
     1
 42
1.0
 92
       12
 66
     7
 43
1.0
 76
     1
 77
     6
 78
     2
 67
     7
 79
     5
170
     0
171
     0
290
     0
174
     0
 93
        1
 44
0.0
173
     0
291
     1
 45
0.0
1001
ACAD
1000
AcDbSavedByObjectVersion
1070
     0
  0
ENDSEC
  0
EOF
