  0
SECTION
  2
HEADER
  9
$ACADVER
  1
AC1018
  9
$ACADMAINTVER
 70
     0
  9
$DWGCODEPAGE
  3
ANSI_1252
  9
$INSBASE
 10
0.0
 20
0.0
 30
0.0
  9
$EXTMIN
 10
-57.00000000000207
 20
-0.0050000000000009
 30
0.0
  9
$EXTMAX
 10
112.9999999999979
 20
84.81000000000023
 30
0.0
  9
$LIMMIN
 10
0.0
 20
0.0
  9
$LIMMAX
 10
12.0
 20
9.0
  9
$ORTHOMODE
 70
     0
  9
$REGENMODE
 70
     1
  9
$FILLMODE
 70
     1
  9
$QTEXTMODE
 70
     0
  9
$MIRRTEXT
 70
     1
  9
$LTSCALE
 40
0.0393700787401575
  9
$ATTMODE
 70
     1
  9
$TEXTSIZE
 40
0.2
  9
$TRACEWID
 40
0.05
  9
$TEXTSTYLE
  7
Standard
  9
$CLAYER
  8
Default
  9
$CELTYPE
  6
ByLayer
  9
$CECOLOR
 62
   256
  9
$CELTSCALE
 40
1.0
  9
$DISPSILH
 70
     0
  9
$DIMSCALE
 40
1.0
  9
$DIMASZ
 40
0.18
  9
$DIMEXO
 40
0.0625
  9
$DIMDLI
 40
0.38
  9
$DIMRND
 40
0.0
  9
$DIMDLE
 40
0.0
  9
$DIMEXE
 40
0.18
  9
$DIMTP
 40
0.0
  9
$DIMTM
 40
0.0
  9
$DIMTXT
 40
0.18
  9
$DIMCEN
 40
0.09
  9
$DIMTSZ
 40
0.0
  9
$DIMTOL
 70
     0
  9
$DIMLIM
 70
     0
  9
$DIMTIH
 70
     1
  9
$DIMTOH
 70
     1
  9
$DIMSE1
 70
     0
  9
$DIMSE2
 70
     0
  9
$DIMTAD
 70
     0
  9
$DIMZIN
 70
     0
  9
$DIMBLK
  1

  9
$DIMASO
 70
     1
  9
$DIMSHO
 70
     1
  9
$DIMPOST
  1

  9
$DIMAPOST
  1

  9
$DIMALT
 70
     0
  9
$DIMALTD
 70
     2
  9
$DIMALTF
 40
25.4
  9
$DIMLFAC
 40
1.0
  9
$DIMTOFL
 70
     0
  9
$DIMTVP
 40
0.0
  9
$DIMTIX
 70
     0
  9
$DIMSOXD
 70
     0
  9
$DIMSAH
 70
     0
  9
$DIMBLK1
  1

  9
$DIMBLK2
  1

  9
$DIMSTYLE
  2
Standard
  9
$DIMCLRD
 70
     0
  9
$DIMCLRE
 70
     0
  9
$DIMCLRT
 70
     0
  9
$DIMTFAC
 40
1.0
  9
$DIMGAP
 40
0.09
  9
$DIMJUST
 70
     0
  9
$DIMSD1
 70
     0
  9
$DIMSD2
 70
     0
  9
$DIMTOLJ
 70
     1
  9
$DIMTZIN
 70
     0
  9
$DIMALTZ
 70
     0
  9
$DIMALTTZ
 70
     0
  9
$DIMUPT
 70
     0
  9
$DIMDEC
 70
     4
  9
$DIMTDEC
 70
     4
  9
$DIMALTU
 70
     2
  9
$DIMALTTD
 70
     2
  9
$DIMTXSTY
  7
Standard
  9
$DIMAUNIT
 70
     0
  9
$DIMADEC
 70
     0
  9
$DIMALTRND
 40
0.0
  9
$DIMAZIN
 70
     0
  9
$DIMDSEP
 70
    46
  9
$DIMATFIT
 70
     3
  9
$DIMFRAC
 70
     0
  9
$DIMLDRBLK
  1

  9
$DIMLUNIT
 70
     2
  9
$DIMLWD
 70
    -2
  9
$DIMLWE
 70
    -2
  9
$DIMTMOVE
 70
     2
  9
$LUNITS
 70
     2
  9
$LUPREC
 70
     4
  9
$SKETCHINC
 40
0.1
  9
$FILLETRAD
 40
0.5
  9
$AUNITS
 70
     0
  9
$AUPREC
 70
     0
  9
$MENU
  1
.
  9
$ELEVATION
 40
0.0
  9
$PELEVATION
 40
0.0
  9
$THICKNESS
 40
0.0
  9
$LIMCHECK
 70
     0
  9
$CHAMFERA
 40
0.5
  9
$CHAMFERB
 40
0.5
  9
$CHAMFERC
 40
1.0
  9
$CHAMFERD
 40
0.0
  9
$SKPOLY
 70
     0
  9
$TDCREATE
 40
2456791.414151366
  9
$TDUCREATE
 40
2456791.580818032
  9
$TDUPDATE
 40
2456791.414151378
  9
$TDUUPDATE
 40
2456791.580818044
  9
$TDINDWG
 40
0.0000000116
  9
$TDUSRTIMER
 40
0.0000000116
  9
$USRTIMER
 70
     1
  9
$ANGBASE
 50
0.0
  9
$ANGDIR
 70
     0
  9
$PDMODE
 70
     0
  9
$PDSIZE
 40
0.0
  9
$PLINEWID
 40
0.0
  9
$SPLFRAME
 70
     0
  9
$SPLINETYPE
 70
     6
  9
$SPLINESEGS
 70
     8
  9
$HANDSEED
  5
C0
  9
$SURFTAB1
 70
     6
  9
$SURFTAB2
 70
     6
  9
$SURFTYPE
 70
     6
  9
$SURFU
 70
     6
  9
$SURFV
 70
     6
  9
$UCSBASE
  2

  9
$UCSNAME
  2

  9
$UCSORG
 10
0.0
 20
0.0
 30
0.0
  9
$UCSXDIR
 10
1.0
 20
0.0
 30
0.0
  9
$UCSYDIR
 10
0.0
 20
1.0
 30
0.0
  9
$UCSORTHOREF
  2

  9
$UCSORTHOVIEW
 70
     0
  9
$UCSORGTOP
 10
0.0
 20
0.0
 30
0.0
  9
$UCSORGBOTTOM
 10
0.0
 20
0.0
 30
0.0
  9
$UCSORGLEFT
 10
0.0
 20
0.0
 30
0.0
  9
$UCSORGRIGHT
 10
0.0
 20
0.0
 30
0.0
  9
$UCSORGFRONT
 10
0.0
 20
0.0
 30
0.0
  9
$UCSORGBACK
 10
0.0
 20
0.0
 30
0.0
  9
$PUCSBASE
  2

  9
$PUCSNAME
  2

  9
$PUCSORG
 10
0.0
 20
0.0
 30
0.0
  9
$PUCSXDIR
 10
1.0
 20
0.0
 30
0.0
  9
$PUCSYDIR
 10
0.0
 20
1.0
 30
0.0
  9
$PUCSORTHOREF
  2

  9
$PUCSORTHOVIEW
 70
     0
  9
$PUCSORGTOP
 10
0.0
 20
0.0
 30
0.0
  9
$PUCSORGBOTTOM
 10
0.0
 20
0.0
 30
0.0
  9
$PUCSORGLEFT
 10
0.0
 20
0.0
 30
0.0
  9
$PUCSORGRIGHT
 10
0.0
 20
0.0
 30
0.0
  9
$PUCSORGFRONT
 10
0.0
 20
0.0
 30
0.0
  9
$PUCSORGBACK
 10
0.0
 20
0.0
 30
0.0
  9
$USERI1
 70
     0
  9
$USERI2
 70
     0
  9
$USERI3
 70
     0
  9
$USERI4
 70
     0
  9
$USERI5
 70
     0
  9
$USERR1
 40
0.0
  9
$USERR2
 40
0.0
  9
$USERR3
 40
0.0
  9
$USERR4
 40
0.0
  9
$USERR5
 40
0.0
  9
$WORLDVIEW
 70
     1
  9
$SHADEDGE
 70
     3
  9
$SHADEDIF
 70
    70
  9
$TILEMODE
 70
     1
  9
$MAXACTVP
 70
    64
  9
$PINSBASE
 10
0.0
 20
0.0
 30
0.0
  9
$PLIMCHECK
 70
     0
  9
$PEXTMIN
 10
1.000000000000000E+20
 20
1.000000000000000E+20
 30
1.000000000000000E+20
  9
$PEXTMAX
 10
-1.000000000000000E+20
 20
-1.000000000000000E+20
 30
-1.000000000000000E+20
  9
$PLIMMIN
 10
0.0
 20
0.0
  9
$PLIMMAX
 10
12.0
 20
9.0
  9
$UNITMODE
 70
     0
  9
$VISRETAIN
 70
     1
  9
$PLINEGEN
 70
     0
  9
$PSLTSCALE
 70
     1
  9
$TREEDEPTH
 70
  3020
  9
$CMLSTYLE
  2
Standard
  9
$CMLJUST
 70
     0
  9
$CMLSCALE
 40
1.0
  9
$PROXYGRAPHICS
 70
     1
  9
$MEASUREMENT
 70
     0
  9
$CELWEIGHT
370
    -1
  9
$ENDCAPS
280
     0
  9
$JOINSTYLE
280
     0
  9
$LWDISPLAY
290
     0
  9
$INSUNITS
 70
     1
  9
$HYPERLINKBASE
  1

  9
$STYLESHEET
  1

  9
$XEDIT
290
     1
  9
$CEPSNTYPE
380
     0
  9
$PSTYLEMODE
290
     1
  9
$FINGERPRINTGUID
  2
{6E7B110F-8B04-4DF5-A3AE-DFCB49B40F38}
  9
$VERSIONGUID
  2
{FAEB1C32-E019-11D5-929B-00C0DF256EC4}
  9
$EXTNAMES
290
     1
  9
$PSVPSCALE
 40
0.0
  9
$OLESTARTUP
290
     0
  9
$SORTENTS
280
   127
  9
$INDEXCTL
280
     0
  9
$HIDETEXT
280
     1
  9
$XCLIPFRAME
290
     0
  9
$HALOGAP
280
     0
  9
$OBSCOLOR
 70
   257
  9
$OBSLTYPE
280
     0
  9
$INTERSECTIONDISPLAY
280
     0
  9
$INTERSECTIONCOLOR
 70
   257
  9
$DIMASSOC
280
     2
  9
$PROJECTNAME
  1

  0
ENDSEC
  0
SECTION
  2
CLASSES
  0
CLASS
  1
ACDBDICTIONARYWDFLT
  2
AcDbDictionaryWithDefault
  3
ObjectDBX Classes
 90
        0
 91
        4
280
     0
281
     0
  0
CLASS
  1
VISUALSTYLE
  2
AcDbVisualStyle
  3
ObjectDBX Classes
 90
     4095
 91
        4
280
     0
281
     0
  0
ENDSEC
  0
SECTION
  2
TABLES
  0
TABLE
  2
VPORT
  5
8
330
0
100
AcDbSymbolTable
 70
     1
  0
VPORT
  5
29
330
8
100
AcDbSymbolTableRecord
100
AcDbViewportTableRecord
  2
*Active
 70
     0
 10
0.0
 20
0.0
 11
1.0
 21
1.0
 12
27.99999999999791
 22
42.40250000000012
 13
0.0
 23
0.0
 14
0.5
 24
0.5
 15
0.5
 25
0.5
 16
0.0
 26
0.0
 36
1.0
 17
0.0
 27
0.0
 37
0.0
 40
86.51130000000023
 41
2.004362435889872
 42
50.0
 43
0.0
 44
0.0
 50
0.0
 51
0.0
 71
     0
 72
   100
 73
     1
 74
     3
 75
     0
 76
     0
 77
     0
 78
     0
281
     0
 65
     1
110
0.0
120
0.0
130
0.0
111
1.0
121
0.0
131
0.0
112
0.0
122
1.0
132
0.0
 79
     0
146
0.0
  0
ENDTAB
  0
TABLE
  2
LTYPE
  5
5
330
0
100
AcDbSymbolTable
 70
     1
  0
LTYPE
  5
14
330
5
100
AcDbSymbolTableRecord
100
AcDbLinetypeTableRecord
  2
ByBlock
 70
     0
  3

 72
    65
 73
     0
 40
0.0
  0
LTYPE
  5
15
330
5
100
AcDbSymbolTableRecord
100
AcDbLinetypeTableRecord
  2
ByLayer
 70
     0
  3

 72
    65
 73
     0
 40
0.0
  0
LTYPE
  5
16
330
5
100
AcDbSymbolTableRecord
100
AcDbLinetypeTableRecord
  2
Continuous
 70
     0
  3
Solid line
 72
    65
 73
     0
 40
0.0
  0
ENDTAB
  0
TABLE
  2
LAYER
  5
2
330
0
100
AcDbSymbolTable
 70
     2
  0
LAYER
  5
10
330
2
100
AcDbSymbolTableRecord
100
AcDbLayerTableRecord
  2
0
 70
     0
 62
     7
  6
Continuous
370
    -3
390
F
  0
LAYER
  5
3B
330
2
100
AcDbSymbolTableRecord
100
AcDbLayerTableRecord
  2
Default
 70
     0
 62
     7
  6
Continuous
370
    -3
390
F
  0
ENDTAB
  0
TABLE
  2
STYLE
  5
3
330
0
100
AcDbSymbolTable
 70
     1
  0
STYLE
  5
11
330
3
100
AcDbSymbolTableRecord
100
AcDbTextStyleTableRecord
  2
Standard
 70
     0
 40
0.0
 41
1.0
 50
0.0
 71
     0
 42
0.2
  3
txt
  4

  0
ENDTAB
  0
TABLE
  2
VIEW
  5
6
330
0
100
AcDbSymbolTable
 70
     0
  0
ENDTAB
  0
TABLE
  2
UCS
  5
7
330
0
100
AcDbSymbolTable
 70
     0
  0
ENDTAB
  0
TABLE
  2
APPID
  5
9
330
0
100
AcDbSymbolTable
 70
     1
  0
APPID
  5
12
330
9
100
AcDbSymbolTableRecord
100
AcDbRegAppTableRecord
  2
ACAD
 70
     0
  0
ENDTAB
  0
TABLE
  2
DIMSTYLE
  5
A
330
0
100
AcDbSymbolTable
 70
     1
100
AcDbDimStyleTable
  0
DIMSTYLE
105
27
330
A
100
AcDbSymbolTableRecord
100
AcDbDimStyleTableRecord
  2
Standard
 70
     0
340
11
  0
ENDTAB
  0
TABLE
  2
BLOCK_RECORD
  5
1
330
0
100
AcDbSymbolTable
 70
     1
  0
BLOCK_RECORD
  5
1F
330
1
100
AcDbSymbolTableRecord
100
AcDbBlockTableRecord
  2
*Model_Space
340
22
  0
BLOCK_RECORD
  5
1B
330
1
100
AcDbSymbolTableRecord
100
AcDbBlockTableRecord
  2
*Paper_Space
340
1E
  0
BLOCK_RECORD
  5
23
330
1
100
AcDbSymbolTableRecord
100
AcDbBlockTableRecord
  2
*Paper_Space0
340
26
  0
ENDTAB
  0
ENDSEC
  0
SECTION
  2
BLOCKS
  0
BLOCK
  5
20
330
1F
100
AcDbEntity
  8
0
100
AcDbBlockBegin
  2
*Model_Space
 70
     0
 10
0.0
 20
0.0
 30
0.0
  3
*Model_Space
  1

  0
ENDBLK
  5
21
330
1F
100
AcDbEntity
  8
0
100
AcDbBlockEnd
  0
BLOCK
  5
1C
330
1B
100
AcDbEntity
 67
     1
  8
0
100
AcDbBlockBegin
  2
*Paper_Space
 70
     0
 10
0.0
 20
0.0
 30
0.0
  3
*Paper_Space
  1

  0
ENDBLK
  5
1D
330
1B
100
AcDbEntity
 67
     1
  8
0
100
AcDbBlockEnd
  0
BLOCK
  5
24
330
23
100
AcDbEntity
  8
0
100
AcDbBlockBegin
  2
*Paper_Space0
 70
     0
 10
0.0
 20
0.0
 30
0.0
  3
*Paper_Space0
  1

  0
ENDBLK
  5
25
330
23
100
AcDbEntity
  8
0
100
AcDbBlockEnd
  0
ENDSEC
  0
SECTION
  2
ENTITIES
  0
SPLINE
  5
3C
330
1F
100
AcDbEntity
  8
Default
100
AcDbSpline
210
0.0
220
0.0
230
1.0
 70
     8
 71
     5
 72
    12
 73
     6
 74
     0
 42
0.0000000001
 43
0.0000000001
 40
-1.0
 40
-1.0
 40
-1.0
 40
-1.0
 40
-1.0
 40
-1.0
 40
0.0
 40
0.0
 40
0.0
 40
0.0
 40
0.0
 40
0.0
 10
101.7429013626979
 20
22.065
 30
0.0
 10
102.0831154340712
 20
22.065
 30
0.0
 10
102.4233295054445
 20
22.065
 30
0.0
 10
102.7951023164299
 20
21.49034442464831
 30
0.0
 10
102.8475200941139
 20
21.15419268667415
 30
0.0
 10
102.8999378717979
 20
20.8180409487
 30
0.0
  0
ARC
  5
3D
330
1F
100
AcDbEntity
  8
Default
  6
Continuous
100
AcDbCircle
 10
107.5175671876979
 20
0.0937678609000017
 30
0.0
 40
0.0937678609
100
AcDbArc
 50
270.0
 51
61.27967320209795
  0
LINE
  5
3E
330
1F
100
AcDbEntity
  8
Default
  6
Continuous
100
AcDbLine
 10
107.1570442477979
 20
4.2003898822
 30
0.0
 11
107.4064508947979
 21
2.148196971700003
 31
0.0
  0
POLYLINE
  5
3F
330
1F
100
AcDbEntity
  8
Default
100
AcDb2dPolyline
 66
     1
 10
0.0
 20
0.0
 30
0.0
  0
VERTEX
  5
40
330
3F
100
AcDbEntity
  8
Default
100
AcDbVertex
100
AcDb2dVertex
 10
102.8999378717979
 20
20.8180409487
 30
0.0
  0
VERTEX
  5
41
330
3F
100
AcDbEntity
  8
Default
100
AcDbVertex
100
AcDb2dVertex
 10
106.109443623089
 20
0.2356930506583422
 30
0.0
  0
SEQEND
  5
42
330
3F
100
AcDbEntity
  8
Default
  0
ARC
  5
43
330
1F
100
AcDbEntity
  8
Default
100
AcDbCircle
 10
106.1786806564979
 20
0.2459999999999987
 30
0.0
 40
0.07
100
AcDbArc
 50
188.4671378116979
 51
269.9999999996976
  0
POLYLINE
  5
44
330
1F
100
AcDbEntity
  8
Default
100
AcDb2dPolyline
 66
     1
 10
0.0
 20
0.0
 30
0.0
  0
VERTEX
  5
45
330
44
100
AcDbEntity
  8
Default
100
AcDbVertex
100
AcDb2dVertex
 10
106.1786806564976
 20
0.1759999999999987
 30
0.0
  0
VERTEX
  5
46
330
44
100
AcDbEntity
  8
Default
100
AcDbVertex
100
AcDb2dVertex
 10
107.5389820015007
 20
0.1759999999999987
 30
0.0
  0
SEQEND
  5
47
330
44
100
AcDbEntity
  8
Default
  0
POLYLINE
  5
48
330
1F
100
AcDbEntity
  8
Default
100
AcDb2dPolyline
 66
     1
 10
0.0
 20
0.0
 30
0.0
  0
VERTEX
  5
49
330
48
100
AcDbEntity
  8
Default
100
AcDbVertex
100
AcDb2dVertex
 10
107.6355973264979
 20
0.2621396818000008
 30
0.0
  0
VERTEX
  5
4A
330
48
100
AcDbEntity
  8
Default
100
AcDbVertex
100
AcDb2dVertex
 10
104.6633867086499
 20
24.80627670173267
 30
0.0
  0
SEQEND
  5
4B
330
48
100
AcDbEntity
  8
Default
  0
SPLINE
  5
4C
330
1F
100
AcDbEntity
  8
Default
100
AcDbSpline
210
0.0
220
0.0
230
1.0
 70
     8
 71
     5
 72
    12
 73
     6
 74
     0
 42
0.0000000001
 43
0.0000000001
 40
0.0
 40
0.0
 40
0.0
 40
0.0
 40
0.0
 40
0.0
 40
1.0
 40
1.0
 40
1.0
 40
1.0
 40
1.0
 40
1.0
 10
107.5389820015007
 20
0.1759999999999987
 30
0.0
 10
107.5648698873201
 20
0.1759999999999987
 30
0.0
 10
107.5907577731395
 20
0.1759999999999987
 30
0.0
 10
107.6418217221101
 20
0.2107394149908606
 30
0.0
 10
107.638709524304
 20
0.2364395483954307
 30
0.0
 10
107.6355973264979
 20
0.2621396818000008
 30
0.0
  0
POLYLINE
  5
4D
330
1F
100
AcDbEntity
  8
Default
100
AcDb2dPolyline
 66
     1
 10
0.0
 20
0.0
 30
0.0
  0
VERTEX
  5
4E
330
4D
100
AcDbEntity
  8
Default
100
AcDbVertex
100
AcDb2dVertex
 10
100.9999999999979
 20
22.06
 30
0.0
  0
VERTEX
  5
4F
330
4D
100
AcDbEntity
  8
Default
100
AcDbVertex
100
AcDb2dVertex
 10
100.9999999999979
 20
24.81
 30
0.0
  0
SEQEND
  5
50
330
4D
100
AcDbEntity
  8
Default
  0
LINE
  5
51
330
1F
100
AcDbEntity
  8
Default
  6
Continuous
100
AcDbLine
 10
107.5175671876979
 20
0.0000000000000017
 30
0.0
 11
106.3076846004979
 21
0.0000000000000017
 31
0.0
  0
ARC
  5
52
330
1F
100
AcDbEntity
  8
Default
  6
Continuous
100
AcDbCircle
 10
106.3076846004979
 20
0.0937678609000017
 30
0.0
 40
0.0937678609
100
AcDbArc
 50
118.7203267979021
 51
270.0
  0
LINE
  5
53
330
1F
100
AcDbEntity
  8
Default
100
AcDbLine
 10
100.9999999999979
 20
22.065
 30
0.0
 11
101.7429013626979
 21
22.065
 31
0.0
  0
LINE
  5
54
330
1F
100
AcDbEntity
  8
Default
  6
Continuous
100
AcDbLine
 10
74.48243281229793
 20
-0.0050000000000009
 30
0.0
 11
75.69231539949793
 21
-0.0050000000000009
 31
0.0
  0
ARC
  5
55
330
1F
100
AcDbEntity
  8
Default
100
AcDbCircle
 10
75.82131934349792
 20
0.2409999999999961
 30
0.0
 40
0.07
100
AcDbArc
 50
270.0000000003024
 51
351.5328621883017
  0
SPLINE
  5
56
330
1F
100
AcDbEntity
  8
Default
100
AcDbSpline
210
0.0
220
0.0
230
1.0
 70
     8
 71
     5
 72
    12
 73
     6
 74
     0
 42
0.0000000001
 43
0.0000000001
 40
-1.0
 40
-1.0
 40
-1.0
 40
-1.0
 40
-1.0
 40
-1.0
 40
0.0
 40
0.0
 40
0.0
 40
0.0
 40
0.0
 40
0.0
 10
80.25709863729793
 20
22.06
 30
0.0
 10
79.91688456592466
 20
22.06
 30
0.0
 10
79.5766704945514
 20
22.06
 30
0.0
 10
79.20489768356595
 20
21.48534442464831
 30
0.0
 10
79.15247990588193
 20
21.14919268667415
 30
0.0
 10
79.10006212819792
 20
20.8130409487
 30
0.0
  0
LINE
  5
57
330
1F
100
AcDbEntity
  8
Default
  6
Continuous
100
AcDbLine
 10
74.84295575219792
 20
4.195389882199997
 30
0.0
 11
74.59354910519792
 21
2.143196971700001
 31
0.0
  0
ARC
  5
58
330
1F
100
AcDbEntity
  8
Default
  6
Continuous
100
AcDbCircle
 10
75.69231539949793
 20
0.0887678608999991
 30
0.0
 40
0.0937678609
100
AcDbArc
 50
270.0
 51
61.27967320209802
  0
POLYLINE
  5
59
330
1F
100
AcDbEntity
  8
Default
100
AcDb2dPolyline
 66
     1
 10
0.0
 20
0.0
 30
0.0
  0
VERTEX
  5
5A
330
59
100
AcDbEntity
  8
Default
100
AcDbVertex
100
AcDb2dVertex
 10
79.10006212819792
 20
20.8130409487
 30
0.0
  0
VERTEX
  5
5B
330
59
100
AcDbEntity
  8
Default
100
AcDbVertex
100
AcDb2dVertex
 10
75.89055637690684
 20
0.2306930506583396
 30
0.0
  0
SEQEND
  5
5C
330
59
100
AcDbEntity
  8
Default
  0
POLYLINE
  5
5D
330
1F
100
AcDbEntity
  8
Default
100
AcDb2dPolyline
 66
     1
 10
0.0
 20
0.0
 30
0.0
  0
VERTEX
  5
5E
330
5D
100
AcDbEntity
  8
Default
100
AcDbVertex
100
AcDb2dVertex
 10
75.82131934349829
 20
0.1709999999999962
 30
0.0
  0
VERTEX
  5
5F
330
5D
100
AcDbEntity
  8
Default
100
AcDbVertex
100
AcDb2dVertex
 10
74.46101799849511
 20
0.1709999999999962
 30
0.0
  0
SEQEND
  5
60
330
5D
100
AcDbEntity
  8
Default
  0
POLYLINE
  5
61
330
1F
100
AcDbEntity
  8
Default
100
AcDb2dPolyline
 66
     1
 10
0.0
 20
0.0
 30
0.0
  0
VERTEX
  5
62
330
61
100
AcDbEntity
  8
Default
100
AcDbVertex
100
AcDb2dVertex
 10
74.36440267349792
 20
0.2571396817999982
 30
0.0
  0
VERTEX
  5
63
330
61
100
AcDbEntity
  8
Default
100
AcDbVertex
100
AcDb2dVertex
 10
77.33661329134598
 20
24.80127670173267
 30
0.0
  0
SEQEND
  5
64
330
61
100
AcDbEntity
  8
Default
  0
SPLINE
  5
65
330
1F
100
AcDbEntity
  8
Default
100
AcDbSpline
210
0.0
220
0.0
230
1.0
 70
     8
 71
     5
 72
    12
 73
     6
 74
     0
 42
0.0000000001
 43
0.0000000001
 40
0.0
 40
0.0
 40
0.0
 40
0.0
 40
0.0
 40
0.0
 40
1.0
 40
1.0
 40
1.0
 40
1.0
 40
1.0
 40
1.0
 10
74.46101799849511
 20
0.1709999999999962
 30
0.0
 10
74.43513011267574
 20
0.1709999999999962
 30
0.0
 10
74.40924222685636
 20
0.1709999999999962
 30
0.0
 10
74.3581782778858
 20
0.205739414990858
 30
0.0
 10
74.36129047569186
 20
0.2314395483954281
 30
0.0
 10
74.36440267349792
 20
0.2571396817999982
 30
0.0
  0
ARC
  5
66
330
1F
100
AcDbEntity
  8
Default
  6
Continuous
100
AcDbCircle
 10
74.48243281229793
 20
0.0887678608999991
 30
0.0
 40
0.0937678609
100
AcDbArc
 50
118.7203267979021
 51
270.0
  0
LINE
  5
67
330
1F
100
AcDbEntity
  8
Default
100
AcDbLine
 10
80.99999999999793
 20
22.06
 30
0.0
 11
80.25709863729793
 21
22.06
 31
0.0
  0
POLYLINE
  5
68
330
1F
100
AcDbEntity
  8
Default
100
AcDb2dPolyline
 66
     1
 10
0.0
 20
0.0
 30
0.0
  0
VERTEX
  5
69
330
68
100
AcDbEntity
  8
Default
100
AcDbVertex
100
AcDb2dVertex
 10
80.99999999999794
 20
22.055
 30
0.0
  0
VERTEX
  5
6A
330
68
100
AcDbEntity
  8
Default
100
AcDbVertex
100
AcDb2dVertex
 10
80.99999999999794
 20
24.805
 30
0.0
  0
SEQEND
  5
6B
330
68
100
AcDbEntity
  8
Default
  0
LINE
  5
6C
330
1F
100
AcDbEntity
  8
Default
  6
Continuous
100
AcDbLine
 10
44.99999999999987
 20
22.06000000000023
 30
0.0
 11
44.9999999999999
 21
24.79499999999955
 31
0.0
  0
POLYLINE
  5
6D
330
1F
100
AcDbEntity
  8
Default
100
AcDb2dPolyline
 66
     1
 10
0.0
 20
0.0
 30
0.0
  0
VERTEX
  5
6E
330
6D
100
AcDbEntity
  8
Default
100
AcDbVertex
100
AcDb2dVertex
 10
51.65559732649992
 20
0.2621396817995461
 30
0.0
  0
VERTEX
  5
6F
330
6D
100
AcDbEntity
  8
Default
100
AcDbVertex
100
AcDb2dVertex
 10
48.68338670865185
 20
24.80627670173222
 30
0.0
  0
SEQEND
  5
70
330
6D
100
AcDbEntity
  8
Default
  0
SPLINE
  5
71
330
1F
100
AcDbEntity
  8
Default
100
AcDbSpline
210
0.0
220
0.0
230
1.0
 70
     8
 71
     5
 72
    12
 73
     6
 74
     0
 42
0.0000000001
 43
0.0000000001
 40
0.0
 40
0.0
 40
0.0
 40
0.0
 40
0.0
 40
0.0
 40
1.0
 40
1.0
 40
1.0
 40
1.0
 40
1.0
 40
1.0
 10
51.55898200150271
 20
0.175999999999544
 30
0.0
 10
51.58486988732209
 20
0.175999999999544
 30
0.0
 10
51.61075777314147
 20
0.175999999999544
 30
0.0
 10
51.66182172211203
 20
0.2107394149904059
 30
0.0
 10
51.65870952430597
 20
0.2364395483949759
 30
0.0
 10
51.65559732649992
 20
0.2621396817995461
 30
0.0
  0
POLYLINE
  5
72
330
1F
100
AcDbEntity
  8
Default
100
AcDb2dPolyline
 66
     1
 10
0.0
 20
0.0
 30
0.0
  0
VERTEX
  5
73
330
72
100
AcDbEntity
  8
Default
100
AcDbVertex
100
AcDb2dVertex
 10
50.19868065649954
 20
0.175999999999544
 30
0.0
  0
VERTEX
  5
74
330
72
100
AcDbEntity
  8
Default
100
AcDbVertex
100
AcDb2dVertex
 10
51.55898200150271
 20
0.175999999999544
 30
0.0
  0
SEQEND
  5
75
330
72
100
AcDbEntity
  8
Default
  0
ARC
  5
76
330
1F
100
AcDbEntity
  8
Default
100
AcDbCircle
 10
50.19868065649991
 20
0.2459999999995439
 30
0.0
 40
0.07
100
AcDbArc
 50
188.467137811698
 51
269.9999999996976
  0
POLYLINE
  5
77
330
1F
100
AcDbEntity
  8
Default
100
AcDb2dPolyline
 66
     1
 10
0.0
 20
0.0
 30
0.0
  0
VERTEX
  5
78
330
77
100
AcDbEntity
  8
Default
100
AcDbVertex
100
AcDb2dVertex
 10
46.91993787179991
 20
20.81804094869954
 30
0.0
  0
VERTEX
  5
79
330
77
100
AcDbEntity
  8
Default
100
AcDbVertex
100
AcDb2dVertex
 10
50.12944362309099
 20
0.2356930506578875
 30
0.0
  0
SEQEND
  5
7A
330
77
100
AcDbEntity
  8
Default
  0
SPLINE
  5
7B
330
1F
100
AcDbEntity
  8
Default
100
AcDbSpline
210
0.0
220
0.0
230
1.0
 70
     8
 71
     5
 72
    12
 73
     6
 74
     0
 42
0.0000000001
 43
0.0000000001
 40
-1.0
 40
-1.0
 40
-1.0
 40
-1.0
 40
-1.0
 40
-1.0
 40
0.0
 40
0.0
 40
0.0
 40
0.0
 40
0.0
 40
0.0
 10
45.7629013626999
 20
22.06499999999955
 30
0.0
 10
46.10311543407316
 20
22.06499999999955
 30
0.0
 10
46.44332950544644
 20
22.06499999999955
 30
0.0
 10
46.81510231643188
 20
21.49034442464785
 30
0.0
 10
46.8675200941159
 20
21.1541926866737
 30
0.0
 10
46.91993787179991
 20
20.81804094869954
 30
0.0
  0
LINE
  5
7C
330
1F
100
AcDbEntity
  8
Default
100
AcDbLine
 10
45.0199999999999
 20
22.06499999999955
 30
0.0
 11
45.7629013626999
 21
22.06499999999955
 31
0.0
  0
ARC
  5
7D
330
1F
100
AcDbEntity
  8
Default
  6
Continuous
100
AcDbCircle
 10
50.3276846004999
 20
0.093767860899547
 30
0.0
 40
0.0937678609
100
AcDbArc
 50
118.7203267979021
 51
270.0000000000043
  0
LINE
  5
7E
330
1F
100
AcDbEntity
  8
Default
  6
Continuous
100
AcDbLine
 10
51.5375671876999
 20
-0.000000000000453
 30
0.0
 11
50.3276846004999
 21
-0.000000000000453
 31
0.0
  0
ARC
  5
7F
330
1F
100
AcDbEntity
  8
Default
  6
Continuous
100
AcDbCircle
 10
51.5375671876999
 20
0.093767860899547
 30
0.0
 40
0.0937678609
100
AcDbArc
 50
270.0
 51
61.27967320209795
  0
LINE
  5
80
330
1F
100
AcDbEntity
  8
Default
  6
Continuous
100
AcDbLine
 10
51.17704424779991
 20
4.200389882199545
 30
0.0
 11
51.42645089479991
 21
2.148196971699548
 31
0.0
  0
LINE
  5
81
330
1F
100
AcDbEntity
  8
Default
  6
Continuous
100
AcDbLine
 10
-44.99999999999989
 20
24.79500000000046
 30
0.0
 11
-45.00000000000013
 21
22.06000000000023
 31
0.0
  0
POLYLINE
  5
82
330
1F
100
AcDbEntity
  8
Default
100
AcDb2dPolyline
 66
     1
 10
0.0
 20
0.0
 30
0.0
  0
VERTEX
  5
83
330
82
100
AcDbEntity
  8
Default
100
AcDbVertex
100
AcDb2dVertex
 10
-51.65559732649991
 20
0.2621396818004555
 30
0.0
  0
VERTEX
  5
84
330
82
100
AcDbEntity
  8
Default
100
AcDbVertex
100
AcDb2dVertex
 10
-48.68338670865184
 20
24.80627670173313
 30
0.0
  0
SEQEND
  5
85
330
82
100
AcDbEntity
  8
Default
  0
SPLINE
  5
86
330
1F
100
AcDbEntity
  8
Default
100
AcDbSpline
210
0.0
220
0.0
230
1.0
 70
     8
 71
     5
 72
    12
 73
     6
 74
     0
 42
0.0000000001
 43
0.0000000001
 40
0.0
 40
0.0
 40
0.0
 40
0.0
 40
0.0
 40
0.0
 40
1.0
 40
1.0
 40
1.0
 40
1.0
 40
1.0
 40
1.0
 10
-51.55898200150271
 20
0.1760000000004535
 30
0.0
 10
-51.58486988732208
 20
0.1760000000004535
 30
0.0
 10
-51.61075777314146
 20
0.1760000000004535
 30
0.0
 10
-51.66182172211202
 20
0.2107394149913153
 30
0.0
 10
-51.65870952430596
 20
0.2364395483958854
 30
0.0
 10
-51.65559732649991
 20
0.2621396818004555
 30
0.0
  0
POLYLINE
  5
87
330
1F
100
AcDbEntity
  8
Default
100
AcDb2dPolyline
 66
     1
 10
0.0
 20
0.0
 30
0.0
  0
VERTEX
  5
88
330
87
100
AcDbEntity
  8
Default
100
AcDbVertex
100
AcDb2dVertex
 10
-50.19868065649953
 20
0.1760000000004535
 30
0.0
  0
VERTEX
  5
89
330
87
100
AcDbEntity
  8
Default
100
AcDbVertex
100
AcDb2dVertex
 10
-51.55898200150271
 20
0.1760000000004535
 30
0.0
  0
SEQEND
  5
8A
330
87
100
AcDbEntity
  8
Default
  0
ARC
  5
8B
330
1F
100
AcDbEntity
  8
Default
100
AcDbCircle
 10
-50.1986806564999
 20
0.2460000000004534
 30
0.0
 40
0.07
100
AcDbArc
 50
270.0000000003024
 51
351.532862188302
  0
POLYLINE
  5
8C
330
1F
100
AcDbEntity
  8
Default
100
AcDb2dPolyline
 66
     1
 10
0.0
 20
0.0
 30
0.0
  0
VERTEX
  5
8D
330
8C
100
AcDbEntity
  8
Default
100
AcDbVertex
100
AcDb2dVertex
 10
-46.9199378717999
 20
20.81804094870045
 30
0.0
  0
VERTEX
  5
8E
330
8C
100
AcDbEntity
  8
Default
100
AcDbVertex
100
AcDb2dVertex
 10
-50.12944362309098
 20
0.2356930506587969
 30
0.0
  0
SEQEND
  5
8F
330
8C
100
AcDbEntity
  8
Default
  0
SPLINE
  5
90
330
1F
100
AcDbEntity
  8
Default
100
AcDbSpline
210
0.0
220
0.0
230
1.0
 70
     8
 71
     5
 72
    12
 73
     6
 74
     0
 42
0.0000000001
 43
0.0000000001
 40
-1.0
 40
-1.0
 40
-1.0
 40
-1.0
 40
-1.0
 40
-1.0
 40
0.0
 40
0.0
 40
0.0
 40
0.0
 40
0.0
 40
0.0
 10
-45.76290136269989
 20
22.06500000000046
 30
0.0
 10
-46.10311543407315
 20
22.06500000000046
 30
0.0
 10
-46.44332950544643
 20
22.06500000000046
 30
0.0
 10
-46.81510231643188
 20
21.49034442464876
 30
0.0
 10
-46.86752009411589
 20
21.15419268667461
 30
0.0
 10
-46.9199378717999
 20
20.81804094870045
 30
0.0
  0
LINE
  5
91
330
1F
100
AcDbEntity
  8
Default
100
AcDbLine
 10
-45.0199999999999
 20
22.06500000000046
 30
0.0
 11
-45.76290136269989
 21
22.06500000000046
 31
0.0
  0
ARC
  5
92
330
1F
100
AcDbEntity
  8
Default
  6
Continuous
100
AcDbCircle
 10
-50.32768460049989
 20
0.0937678609004565
 30
0.0
 40
0.0937678609
100
AcDbArc
 50
270.0
 51
61.27967320209802
  0
LINE
  5
93
330
1F
100
AcDbEntity
  8
Default
  6
Continuous
100
AcDbLine
 10
-51.53756718769989
 20
0.0000000000004564
 30
0.0
 11
-50.32768460049989
 21
0.0000000000004564
 31
0.0
  0
ARC
  5
94
330
1F
100
AcDbEntity
  8
Default
  6
Continuous
100
AcDbCircle
 10
-51.53756718769989
 20
0.0937678609004565
 30
0.0
 40
0.0937678609
100
AcDbArc
 50
118.7203267979021
 51
270.0000000000043
  0
LINE
  5
95
330
1F
100
AcDbEntity
  8
Default
  6
Continuous
100
AcDbLine
 10
-51.1770442477999
 20
4.200389882200454
 30
0.0
 11
-51.4264508947999
 21
2.148196971700458
 31
0.0
  0
LINE
  5
96
330
1F
100
AcDbEntity
  8
Default
100
AcDbLine
 10
100.9999999999979
 20
22.06
 30
0.0
 11
80.99999999999793
 21
22.06
 31
0.0
  0
LINE
  5
97
330
1F
100
AcDbEntity
  8
Default
100
AcDbLine
 10
44.99999999999987
 20
22.06000000000023
 30
0.0
 11
-45.00000000000013
 21
22.06000000000023
 31
0.0
  0
LINE
  5
98
330
1F
100
AcDbEntity
  8
Default
  6
Continuous
100
AcDbLine
 10
-57.00000000000207
 20
25.31
 30
0.0
 11
-57.00000000000207
 21
25.81
 31
0.0
  0
LINE
  5
99
330
1F
100
AcDbEntity
  8
Default
  6
Continuous
100
AcDbLine
 10
-57.00000000000207
 20
25.31
 30
0.0
 11
-57.00000000000207
 21
25.81
 31
0.0
  0
LINE
  5
9A
330
1F
100
AcDbEntity
  8
Default
  6
Continuous
100
AcDbLine
 10
-55.83600000000207
 20
24.81
 30
0.0
 11
-57.00000000000207
 21
25.31
 31
0.0
  0
LINE
  5
9B
330
1F
100
AcDbEntity
  8
Default
  6
Continuous
100
AcDbLine
 10
55.83599999999792
 20
24.81
 30
0.0
 11
56.99999999999793
 21
25.31
 31
0.0
  0
LINE
  5
9C
330
1F
100
AcDbEntity
  8
Default
  6
Continuous
100
AcDbLine
 10
55.83599999999792
 20
24.81
 30
0.0
 11
-55.83600000000207
 21
24.81
 31
0.0
  0
LINE
  5
9D
330
1F
100
AcDbEntity
  8
Default
  6
Continuous
100
AcDbLine
 10
56.99999999999793
 20
25.31
 30
0.0
 11
-57.00000000000207
 21
25.31
 31
0.0
  0
LINE
  5
9E
330
1F
100
AcDbEntity
  8
Default
  6
Continuous
100
AcDbLine
 10
56.99999999999793
 20
25.31
 30
0.0
 11
56.99999999999793
 21
25.81
 31
0.0
  0
ARC
  5
9F
330
1F
100
AcDbEntity
  8
Default
  6
Continuous
100
AcDbCircle
 10
-6.909000000000376
 20
-412.7059999997427
 30
0.0
 40
497.5159999997429
100
AcDbArc
 50
89.99999999999994
 51
94.99359266424963
  0
LINE
  5
A0
330
1F
100
AcDbEntity
  8
Default
  6
Continuous
100
AcDbLine
 10
6.909000000001498
 20
84.81000000000006
 30
0.0
 11
-6.908999999999992
 21
84.81000000000006
 31
0.0
  0
ARC
  5
A1
330
1F
100
AcDbEntity
  8
Default
  6
Continuous
100
AcDbCircle
 10
6.908999999999386
 20
-412.7059999987479
 30
0.0
 40
497.5159999987479
100
AcDbArc
 50
85.00640733576948
 51
89.99999999999974
  0
ARC
  5
A2
330
1F
100
AcDbEntity
  8
Default
  6
Continuous
100
AcDbCircle
 10
49.69268515149009
 20
76.94442075016183
 30
0.0
 40
6.000000000043713
100
AcDbArc
 50
12.36540998158605
 51
85.00640733720839
  0
ARC
  5
A3
330
1F
100
AcDbEntity
  8
Default
  6
Continuous
100
AcDbCircle
 10
-5.353999998884916
 20
64.87645614030001
 30
0.0
 40
62.35399999888492
100
AcDbArc
 50
0.0
 51
12.36540998163384
  0
LINE
  5
A4
330
1F
100
AcDbEntity
  8
Default
  6
Continuous
100
AcDbLine
 10
57.00000000000001
 20
60.74354385959964
 30
0.0
 11
57.0
 21
64.8764561403
 31
0.0
  0
ARC
  5
A5
330
1F
100
AcDbEntity
  8
Default
  6
Continuous
100
AcDbCircle
 10
-5.35399999842507
 20
60.74354385960018
 30
0.0
 40
62.35399999842507
100
AcDbArc
 50
347.63459001832
 51
359.9999999999992
  0
ARC
  5
A6
330
1F
100
AcDbEntity
  8
Default
  6
Continuous
100
AcDbCircle
 10
49.69268515148878
 20
48.6755792498534
 30
0.0
 40
6.000000000058976
100
AcDbArc
 50
274.9935926627833
 51
347.6345900178067
  0
ARC
  5
A7
330
1F
100
AcDbEntity
  8
Default
  6
Continuous
100
AcDbCircle
 10
6.908999999998868
 20
538.325999998765
 30
0.0
 40
497.515999998765
100
AcDbArc
 50
270.0000000000002
 51
274.9935926642303
  0
LINE
  5
A8
330
1F
100
AcDbEntity
  8
Default
  6
Continuous
100
AcDbLine
 10
-6.90900000000417
 20
40.81
 30
0.0
 11
6.909000000000006
 21
40.81
 31
0.0
  0
ARC
  5
A9
330
1F
100
AcDbEntity
  8
Default
  6
Continuous
100
AcDbCircle
 10
-6.909000000001245
 20
538.3259999998521
 30
0.0
 40
497.5159999998521
100
AcDbArc
 50
265.0064073357748
 51
269.9999999999997
  0
ARC
  5
AA
330
1F
100
AcDbEntity
  8
Default
  6
Continuous
100
AcDbCircle
 10
-49.6926851516009
 20
48.67557924978274
 30
0.0
 40
5.999999999983162
100
AcDbArc
 50
192.3654099816595
 51
265.0064073377288
  0
ARC
  5
AB
330
1F
100
AcDbEntity
  8
Default
  6
Continuous
100
AcDbCircle
 10
5.354000000529234
 20
60.74354385960007
 30
0.0
 40
62.35400000052923
100
AcDbArc
 50
180.0
 51
192.3654099812556
  0
LINE
  5
AC
330
1F
100
AcDbEntity
  8
Default
  6
Continuous
100
AcDbLine
 10
-57.00000000000001
 20
64.87645614030032
 30
0.0
 11
-57.0
 21
60.7435438596
 31
0.0
  0
ARC
  5
AD
330
1F
100
AcDbEntity
  8
Default
  6
Continuous
100
AcDbCircle
 10
5.354000000989612
 20
64.87645614030002
 30
0.0
 40
62.35400000098962
100
AcDbArc
 50
167.6345900187903
 51
180.0
  0
ARC
  5
AE
330
1F
100
AcDbEntity
  8
Default
  6
Continuous
100
AcDbCircle
 10
-49.69268515160284
 20
76.94442075023261
 30
0.0
 40
5.999999999967262
100
AcDbArc
 50
94.99359266419935
 51
167.6345900189441
  0
LINE
  5
AF
330
1F
100
AcDbEntity
  8
Default
  6
Continuous
100
AcDbLine
 10
68.99999999999793
 20
25.31
 30
0.0
 11
68.99999999999793
 21
25.81
 31
0.0
  0
LINE
  5
B0
330
1F
100
AcDbEntity
  8
Default
  6
Continuous
100
AcDbLine
 10
68.99999999999793
 20
25.31
 30
0.0
 11
68.99999999999793
 21
25.81
 31
0.0
  0
LINE
  5
B1
330
1F
100
AcDbEntity
  8
Default
  6
Continuous
100
AcDbLine
 10
111.8359999999979
 20
24.81
 30
0.0
 11
112.9999999999979
 21
25.31
 31
0.0
  0
LINE
  5
B2
330
1F
100
AcDbEntity
  8
Default
  6
Continuous
100
AcDbLine
 10
70.16399999999793
 20
24.81
 30
0.0
 11
68.99999999999793
 21
25.31
 31
0.0
  0
LINE
  5
B3
330
1F
100
AcDbEntity
  8
Default
  6
Continuous
100
AcDbLine
 10
111.8359999999979
 20
24.81
 30
0.0
 11
70.16399999999793
 21
24.81
 31
0.0
  0
LINE
  5
B4
330
1F
100
AcDbEntity
  8
Default
  6
Continuous
100
AcDbLine
 10
112.9999999999979
 20
25.31
 30
0.0
 11
68.99999999999793
 21
25.31
 31
0.0
  0
LINE
  5
B5
330
1F
100
AcDbEntity
  8
Default
  6
Continuous
100
AcDbLine
 10
112.9999999999979
 20
25.31
 30
0.0
 11
112.9999999999979
 21
25.81
 31
0.0
  0
POLYLINE
  5
B6
330
1F
100
AcDbEntity
  8
Default
100
AcDb2dPolyline
 66
     1
 10
0.0
 20
0.0
 30
0.0
  0
VERTEX
  5
B7
330
B6
100
AcDbEntity
  8
Default
100
AcDbVertex
100
AcDb2dVertex
 10
-57.00000000000207
 20
25.81
 30
0.0
  0
VERTEX
  5
B8
330
B6
100
AcDbEntity
  8
Default
100
AcDbVertex
100
AcDb2dVertex
 10
56.99999999999793
 20
25.81
 30
0.0
  0
SEQEND
  5
B9
330
B6
100
AcDbEntity
  8
Default
  0
POLYLINE
  5
BA
330
1F
100
AcDbEntity
  8
Default
100
AcDb2dPolyline
 66
     1
 10
0.0
 20
0.0
 30
0.0
  0
VERTEX
  5
BB
330
BA
100
AcDbEntity
  8
Default
100
AcDbVertex
100
AcDb2dVertex
 10
68.99999999999793
 20
25.81
 30
0.0
  0
VERTEX
  5
BC
330
BA
100
AcDbEntity
  8
Default
100
AcDbVertex
100
AcDb2dVertex
 10
112.9999999999979
 20
25.81
 30
0.0
  0
SEQEND
  5
BD
330
BA
100
AcDbEntity
  8
Default
  0
ENDSEC
  0
SECTION
  2
OBJECTS
  0
DICTIONARY
  5
C
330
0
100
AcDbDictionary
281
     1
  3
ACAD_GROUP
350
D
  3
ACAD_LAYOUT
350
1A
  3
ACAD_MLEADERSTYLE
350
BF
  3
ACAD_MLINESTYLE
350
17
  3
ACAD_PLOTSETTINGS
350
19
  3
ACAD_PLOTSTYLENAME
350
E
  3
ACAD_TABLESTYLE
350
BE
  3
ACAD_VISUALSTYLE
350
2A
  0
DICTIONARY
  5
D
102
{ACAD_REACTORS
330
C
102
}
330
C
100
AcDbDictionary
281
     1
  0
DICTIONARY
  5
1A
102
{ACAD_REACTORS
330
C
102
}
330
C
100
AcDbDictionary
281
     1
  3
Layout1
350
1E
  3
Layout2
350
26
  3
Model
350
22
  0
DICTIONARY
  5
BF
102
{ACAD_REACTORS
330
C
102
}
330
C
100
AcDbDictionary
281
     1
  0
DICTIONARY
  5
17
102
{ACAD_REACTORS
330
C
102
}
330
C
100
AcDbDictionary
281
     1
  3
Standard
350
18
  0
DICTIONARY
  5
19
102
{ACAD_REACTORS
330
C
102
}
330
C
100
AcDbDictionary
281
     1
  0
ACDBDICTIONARYWDFLT
  5
E
102
{ACAD_REACTORS
330
C
102
}
330
C
100
AcDbDictionary
281
     1
  3
Normal
350
F
100
AcDbDictionaryWithDefault
340
F
  0
DICTIONARY
  5
BE
102
{ACAD_REACTORS
330
C
102
}
330
C
100
AcDbDictionary
281
     1
  0
DICTIONARY
  5
2A
102
{ACAD_REACTORS
330
C
102
}
330
C
100
AcDbDictionary
281
     1
  3
2dWireframe
350
2F
  3
3D Hidden
350
31
  3
3dWireframe
350
30
  3
Basic
350
32
  3
Brighten
350
36
  3
ColorChange
350
3A
  3
Conceptual
350
34
  3
Dim
350
35
  3
Facepattern
350
39
  3
Flat
350
2B
  3
FlatWithEdges
350
2C
  3
Gouraud
350
2D
  3
GouraudWithEdges
350
2E
  3
Linepattern
350
38
  3
Realistic
350
33
  3
Thicken
350
37
  0
LAYOUT
  5
1E
102
{ACAD_REACTORS
330
1A
102
}
330
1A
100
AcDbPlotSettings
  1

  2
none_device
  4

  6

 40
0.0
 41
0.0
 42
0.0
 43
0.0
 44
0.0
 45
0.0
 46
0.0
 47
0.0
 48
0.0
 49
0.0
140
0.0
141
0.0
142
1.0
143
1.0
 70
   688
 72
     0
 73
     0
 74
     5
  7

 75
    16
 76
     0
 77
     2
 78
   300
147
1.0
148
0.0
149
0.0
100
AcDbLayout
  1
Layout1
 70
     1
 71
     1
 10
0.0
 20
0.0
 11
12.0
 21
9.0
 12
0.0
 22
0.0
 32
0.0
 14
1.000000000000000E+20
 24
1.000000000000000E+20
 34
1.000000000000000E+20
 15
-1.000000000000000E+20
 25
-1.000000000000000E+20
 35
-1.000000000000000E+20
146
0.0
 13
0.0
 23
0.0
 33
0.0
 16
1.0
 26
0.0
 36
0.0
 17
0.0
 27
1.0
 37
0.0
 76
     0
330
1B
  0
LAYOUT
  5
26
102
{ACAD_REACTORS
330
1A
102
}
330
1A
100
AcDbPlotSettings
  1

  2
none_device
  4

  6

 40
0.0
 41
0.0
 42
0.0
 43
0.0
 44
0.0
 45
0.0
 46
0.0
 47
0.0
 48
0.0
 49
0.0
140
0.0
141
0.0
142
1.0
143
1.0
 70
   688
 72
     0
 73
     0
 74
     5
  7

 75
    16
 76
     0
 77
     2
 78
   300
147
1.0
148
0.0
149
0.0
100
AcDbLayout
  1
Layout2
 70
     1
 71
     2
 10
0.0
 20
0.0
 11
0.0
 21
0.0
 12
0.0
 22
0.0
 32
0.0
 14
0.0
 24
0.0
 34
0.0
 15
0.0
 25
0.0
 35
0.0
146
0.0
 13
0.0
 23
0.0
 33
0.0
 16
1.0
 26
0.0
 36
0.0
 17
0.0
 27
1.0
 37
0.0
 76
     0
330
23
  0
LAYOUT
  5
22
102
{ACAD_REACTORS
330
1A
102
}
330
1A
100
AcDbPlotSettings
  1

  2
none_device
  4

  6

 40
0.0
 41
0.0
 42
0.0
 43
0.0
 44
0.0
 45
0.0
 46
0.0
 47
0.0
 48
0.0
 49
0.0
140
0.0
141
0.0
142
1.0
143
1.0
 70
  1712
 72
     0
 73
     0
 74
     0
  7

 75
     0
 76
     0
 77
     2
 78
   300
147
1.0
148
0.0
149
0.0
100
AcDbLayout
  1
Model
 70
     1
 71
     0
 10
0.0
 20
0.0
 11
12.0
 21
9.0
 12
0.0
 22
0.0
 32
0.0
 14
-57.00000000000207
 24
-0.0050000000000009
 34
0.0
 15
112.9999999999979
 25
84.81000000000023
 35
0.0
146
0.0
 13
0.0
 23
0.0
 33
0.0
 16
1.0
 26
0.0
 36
0.0
 17
0.0
 27
1.0
 37
0.0
 76
     0
330
1F
331
29
  0
MLINESTYLE
  5
18
102
{ACAD_REACTORS
330
17
102
}
330
17
100
AcDbMlineStyle
  2
Standard
 70
     0
  3

 62
   256
 51
90.0
 52
90.0
 71
     2
 49
0.5
 62
   256
  6
BYLAYER
 49
-0.5
 62
   256
  6
BYLAYER
  0
ACDBPLACEHOLDER
  5
F
102
{ACAD_REACTORS
330
E
102
}
330
E
  0
VISUALSTYLE
  5
2F
102
{ACAD_REACTORS
330
2A
102
}
330
2A
100
AcDbVisualStyle
  2
2dWireframe
 70
     4
 71
     0
 72
     2
 73
     0
 90
        0
 40
-0.6
 41
-30.0
 62
     5
 63
     7
421
 16777215
 74
     1
 91
        4
 64
     7
 65
   257
 75
     1
175
     1
 42
1.0
 92
        0
 66
   257
 43
1.0
 76
     1
 77
     6
 78
     2
 67
     7
 79
     5
170
     0
171
     0
290
     0
174
     0
 93
        1
 44
0.0
173
     0
291
     0
 45
0.0
1001
ACAD
1000
AcDbSavedByObjectVersion
1070
     0
  0
VISUALSTYLE
  5
31
102
{ACAD_REACTORS
330
2A
102
}
330
2A
100
AcDbVisualStyle
  2
3D Hidden
 70
     6
 71
     1
 72
     2
 73
     2
 90
        0
 40
-0.6
 41
-30.0
 62
     5
 63
     7
421
 16777215
 74
     2
 91
        2
 64
     7
 65
   257
 75
     2
175
     1
 42
40.0
 92
        0
 66
   257
 43
1.0
 76
     1
 77
     6
 78
     2
 67
     7
 79
     3
170
     0
171
     0
290
     0
174
     0
 93
        1
 44
0.0
173
     0
291
     0
 45
0.0
1001
ACAD
1000
AcDbSavedByObjectVersion
1070
     0
  0
VISUALSTYLE
  5
30
102
{ACAD_REACTORS
330
2A
102
}
330
2A
100
AcDbVisualStyle
  2
3dWireframe
 70
     5
 71
     0
 72
     2
 73
     0
 90
        0
 40
-0.6
 41
-30.0
 62
     5
 63
     7
421
 16777215
 74
     1
 91
        4
 64
     7
 65
   257
 75
     1
175
     1
 42
1.0
 92
        0
 66
   257
 43
1.0
 76
     1
 77
     6
 78
     2
 67
     7
 79
     5
170
     0
171
     0
290
     0
174
     0
 93
        1
 44
0.0
173
     0
291
     0
 45
0.0
1001
ACAD
1000
AcDbSavedByObjectVersion
1070
     0
  0
VISUALSTYLE
  5
32
102
{ACAD_REACTORS
330
2A
102
}
330
2A
100
AcDbVisualStyle
  2
Basic
 70
     7
 71
     1
 72
     0
 73
     1
 90
        0
 40
-0.6
 41
-30.0
 62
     5
 63
     7
421
 16777215
 74
     0
 91
        4
 64
     7
 65
   257
 75
     1
175
     1
 42
1.0
 92
        8
 66
     7
 43
1.0
 76
     1
 77
     6
 78
     2
 67
     7
 79
     5
170
     0
171
     0
290
     0
174
     0
 93
        1
 44
0.0
173
     0
291
     1
 45
0.0
1001
ACAD
1000
AcDbSavedByObjectVersion
1070
     0
  0
VISUALSTYLE
  5
36
102
{ACAD_REACTORS
330
2A
102
}
330
2A
100
AcDbVisualStyle
  2
Brighten
 70
    12
 71
     2
 72
     2
 73
     0
 90
        0
 40
-0.6
 41
-30.0
 62
     5
 63
     7
421
 16777215
 74
     1
 91
        4
 64
     7
 65
   257
 75
     1
175
     1
 42
1.0
 92
        8
 66
     7
 43
1.0
 76
     1
 77
     6
 78
     2
 67
     7
 79
     5
170
     0
171
     0
290
     0
174
     0
 93
        1
 44
50.0
173
     0
291
     1
 45
0.0
1001
ACAD
1000
AcDbSavedByObjectVersion
1070
     0
  0
VISUALSTYLE
  5
3A
102
{ACAD_REACTORS
330
2A
102
}
330
2A
100
AcDbVisualStyle
  2
ColorChange
 70
    16
 71
     2
 72
     2
 73
     3
 90
        0
 40
-0.6
 41
-30.0
 62
     5
 63
     8
421
  8421504
 74
     1
 91
        4
 64
     7
 65
   257
 75
     1
175
     1
 42
1.0
 92
        8
 66
     8
424
  8421504
 43
1.0
 76
     1
 77
     6
 78
     2
 67
     7
 79
     5
170
     0
171
     0
290
     0
174
     0
 93
        1
 44
0.0
173
     0
291
     1
 45
0.0
1001
ACAD
1000
AcDbSavedByObjectVersion
1070
     0
  0
VISUALSTYLE
  5
34
102
{ACAD_REACTORS
330
2A
102
}
330
2A
100
AcDbVisualStyle
  2
Conceptual
 70
     9
 71
     3
 72
     2
 73
     0
 90
        0
 40
-0.6
 41
-30.0
 62
     5
 63
     7
421
 16777215
 74
     2
 91
        2
 64
     7
 65
   257
 75
     1
175
     1
 42
40.0
 92
        8
 66
     7
 43
1.0
 76
     1
 77
     6
 78
     2
 67
     7
 79
     3
170
     0
171
     0
290
     0
174
     0
 93
        1
 44
0.0
173
     0
291
     0
 45
0.0
1001
ACAD
1000
AcDbSavedByObjectVersion
1070
     0
  0
VISUALSTYLE
  5
35
102
{ACAD_REACTORS
330
2A
102
}
330
2A
100
AcDbVisualStyle
  2
Dim
 70
    11
 71
     2
 72
     2
 73
     0
 90
        0
 40
-0.6
 41
-30.0
 62
     5
 63
     7
421
 16777215
 74
     1
 91
        4
 64
     7
 65
   257
 75
     1
175
     1
 42
1.0
 92
        8
 66
     7
 43
1.0
 76
     1
 77
     6
 78
     2
 67
     7
 79
     5
170
     0
171
     0
290
     0
174
     0
 93
        1
 44
-50.0
173
     0
291
     1
 45
0.0
1001
ACAD
1000
AcDbSavedByObjectVersion
1070
     0
  0
VISUALSTYLE
  5
39
102
{ACAD_REACTORS
330
2A
102
}
330
2A
100
AcDbVisualStyle
  2
Facepattern
 70
    15
 71
     2
 72
     2
 73
     0
 90
        0
 40
-0.6
 41
-30.0
 62
     5
 63
     7
421
 16777215
 74
     1
 91
        4
 64
     7
 65
   257
 75
     1
175
     1
 42
1.0
 92
        8
 66
     7
 43
1.0
 76
     1
 77
     6
 78
     2
 67
     7
 79
     5
170
     0
171
     0
290
     0
174
     0
 93
        1
 44
0.0
173
     0
291
     1
 45
0.0
1001
ACAD
1000
AcDbSavedByObjectVersion
1070
     0
  0
VISUALSTYLE
  5
2B
102
{ACAD_REACTORS
330
2A
102
}
330
2A
100
AcDbVisualStyle
  2
Flat
 70
     0
 71
     2
 72
     1
 73
     1
 90
        2
 40
-0.6
 41
30.0
 62
     5
 63
     7
421
 16777215
 74
     0
 91
        4
 64
     7
 65
   257
 75
     1
175
     1
 42
1.0
 92
        8
 66
     7
 43
1.0
 76
     1
 77
     6
 78
     2
 67
     7
 79
     5
170
     0
171
     0
290
     0
174
     0
 93
       13
 44
0.0
173
     0
291
     1
 45
0.0
1001
ACAD
1000
AcDbSavedByObjectVersion
1070
     0
  0
VISUALSTYLE
  5
2C
102
{ACAD_REACTORS
330
2A
102
}
330
2A
100
AcDbVisualStyle
  2
FlatWithEdges
 70
     1
 71
     2
 72
     1
 73
     1
 90
        2
 40
-0.6
 41
30.0
 62
     5
 63
     7
421
 16777215
 74
     1
 91
        4
 64
     7
 65
   257
 75
     1
175
     1
 42
1.0
 92
        0
 66
   257
 43
1.0
 76
     1
 77
     6
 78
     2
 67
     7
 79
     5
170
     0
171
     0
290
     0
174
     0
 93
       13
 44
0.0
173
     0
291
     1
 45
0.0
1001
ACAD
1000
AcDbSavedByObjectVersion
1070
     0
  0
VISUALSTYLE
  5
2D
102
{ACAD_REACTORS
330
2A
102
}
330
2A
100
AcDbVisualStyle
  2
Gouraud
 70
     2
 71
     2
 72
     2
 73
     1
 90
        2
 40
-0.6
 41
30.0
 62
     5
 63
     7
421
 16777215
 74
     0
 91
        4
 64
     7
 65
   257
 75
     1
175
     1
 42
1.0
 92
        0
 66
     7
 43
1.0
 76
     1
 77
     6
 78
     2
 67
     7
 79
     5
170
     0
171
     0
290
     0
174
     0
 93
       13
 44
0.0
173
     0
291
     1
 45
0.0
1001
ACAD
1000
AcDbSavedByObjectVersion
1070
     0
  0
VISUALSTYLE
  5
2E
102
{ACAD_REACTORS
330
2A
102
}
330
2A
100
AcDbVisualStyle
  2
GouraudWithEdges
 70
     3
 71
     2
 72
     2
 73
     1
 90
        2
 40
-0.6
 41
30.0
 62
     5
 63
     7
421
 16777215
 74
     1
 91
        4
 64
     7
 65
   257
 75
     1
175
     1
 42
1.0
 92
        0
 66
   257
 43
1.0
 76
     1
 77
     6
 78
     2
 67
     7
 79
     5
170
     0
171
     0
290
     0
174
     0
 93
       13
 44
0.0
173
     0
291
     1
 45
0.0
1001
ACAD
1000
AcDbSavedByObjectVersion
1070
     0
  0
VISUALSTYLE
  5
38
102
{ACAD_REACTORS
330
2A
102
}
330
2A
100
AcDbVisualStyle
  2
Linepattern
 70
    14
 71
     2
 72
     2
 73
     0
 90
        0
 40
-0.6
 41
-30.0
 62
     5
 63
     7
421
 16777215
 74
     1
 91
        4
 64
     7
 65
   257
 75
     7
175
     7
 42
1.0
 92
        8
 66
     7
 43
1.0
 76
     1
 77
     6
 78
     2
 67
     7
 79
     5
170
     0
171
     0
290
     0
174
     0
 93
        1
 44
0.0
173
     0
291
     1
 45
0.0
1001
ACAD
1000
AcDbSavedByObjectVersion
1070
     0
  0
VISUALSTYLE
  5
33
102
{ACAD_REACTORS
330
2A
102
}
330
2A
100
AcDbVisualStyle
  2
Realistic
 70
     8
 71
     2
 72
     2
 73
     0
 90
        0
 40
-0.6
 41
-30.0
 62
     5
 63
     7
421
 16777215
 74
     1
 91
        0
 64
     7
 65
   257
 75
     1
175
     1
 42
1.0
 92
        8
 66
     8
424
  7895160
 43
1.0
 76
     1
 77
     6
 78
     2
 67
     7
 79
     5
170
     0
171
     0
290
     0
174
     0
 93
       13
 44
0.0
173
     0
291
     0
 45
0.0
1001
ACAD
1000
AcDbSavedByObjectVersion
1070
     0
  0
VISUALSTYLE
  5
37
102
{ACAD_REACTORS
330
2A
102
}
330
2A
100
AcDbVisualStyle
  2
Thicken
 70
    13
 71
     2
 72
     2
 73
     0
 90
        0
 40
-0.6
 41
-30.0
 62
     5
 63
     7
421
 16777215
 74
     1
 91
        4
 64
     7
 65
   257
 75
     1
175
     1
 42
1.0
 92
       12
 66
     7
 43
1.0
 76
     1
 77
     6
 78
     2
 67
     7
 79
     5
170
     0
171
     0
290
     0
174
     0
 93
        1
 44
0.0
173
     0
291
     1
 45
0.0
1001
ACAD
1000
AcDbSavedByObjectVersion
1070
     0
  0
ENDSEC
  0
EOF
