  0
SECTION
  2
HEADER
  9
$ACADVER
  1
AC1018
  9
$ACADMAINTVER
 70
     0
  9
$DWGCODEPAGE
  3
ANSI_1252
  9
$INSBASE
 10
0.0
 20
0.0
 30
0.0
  9
$EXTMIN
 10
-60.00000000000001
 20
-0.0000000000006858
 30
0.0
  9
$EXTMAX
 10
112.9999999999979
 20
73.81600000000014
 30
0.0
  9
$LIMMIN
 10
0.0
 20
0.0
  9
$LIMMAX
 10
12.0
 20
9.0
  9
$ORTHOMODE
 70
     0
  9
$REGENMODE
 70
     1
  9
$FILLMODE
 70
     1
  9
$QTEXTMODE
 70
     0
  9
$MIRRTEXT
 70
     1
  9
$LTSCALE
 40
0.0393700787401575
  9
$ATTMODE
 70
     1
  9
$TEXTSIZE
 40
0.2
  9
$TRACEWID
 40
0.05
  9
$TEXTSTYLE
  7
Standard
  9
$CLAYER
  8
Default
  9
$CELTYPE
  6
ByLayer
  9
$CECOLOR
 62
   256
  9
$CELTSCALE
 40
1.0
  9
$DISPSILH
 70
     0
  9
$DIMSCALE
 40
1.0
  9
$DIMASZ
 40
0.18
  9
$DIMEXO
 40
0.0625
  9
$DIMDLI
 40
0.38
  9
$DIMRND
 40
0.0
  9
$DIMDLE
 40
0.0
  9
$DIMEXE
 40
0.18
  9
$DIMTP
 40
0.0
  9
$DIMTM
 40
0.0
  9
$DIMTXT
 40
0.18
  9
$DIMCEN
 40
0.09
  9
$DIMTSZ
 40
0.0
  9
$DIMTOL
 70
     0
  9
$DIMLIM
 70
     0
  9
$DIMTIH
 70
     1
  9
$DIMTOH
 70
     1
  9
$DIMSE1
 70
     0
  9
$DIMSE2
 70
     0
  9
$DIMTAD
 70
     0
  9
$DIMZIN
 70
     0
  9
$DIMBLK
  1

  9
$DIMASO
 70
     1
  9
$DIMSHO
 70
     1
  9
$DIMPOST
  1

  9
$DIMAPOST
  1

  9
$DIMALT
 70
     0
  9
$DIMALTD
 70
     2
  9
$DIMALTF
 40
25.4
  9
$DIMLFAC
 40
1.0
  9
$DIMTOFL
 70
     0
  9
$DIMTVP
 40
0.0
  9
$DIMTIX
 70
     0
  9
$DIMSOXD
 70
     0
  9
$DIMSAH
 70
     0
  9
$DIMBLK1
  1

  9
$DIMBLK2
  1

  9
$DIMSTYLE
  2
Standard
  9
$DIMCLRD
 70
     0
  9
$DIMCLRE
 70
     0
  9
$DIMCLRT
 70
     0
  9
$DIMTFAC
 40
1.0
  9
$DIMGAP
 40
0.09
  9
$DIMJUST
 70
     0
  9
$DIMSD1
 70
     0
  9
$DIMSD2
 70
     0
  9
$DIMTOLJ
 70
     1
  9
$DIMTZIN
 70
     0
  9
$DIMALTZ
 70
     0
  9
$DIMALTTZ
 70
     0
  9
$DIMUPT
 70
     0
  9
$DIMDEC
 70
     4
  9
$DIMTDEC
 70
     4
  9
$DIMALTU
 70
     2
  9
$DIMALTTD
 70
     2
  9
$DIMTXSTY
  7
Standard
  9
$DIMAUNIT
 70
     0
  9
$DIMADEC
 70
     0
  9
$DIMALTRND
 40
0.0
  9
$DIMAZIN
 70
     0
  9
$DIMDSEP
 70
    46
  9
$DIMATFIT
 70
     3
  9
$DIMFRAC
 70
     0
  9
$DIMLDRBLK
  1

  9
$DIMLUNIT
 70
     2
  9
$DIMLWD
 70
    -2
  9
$DIMLWE
 70
    -2
  9
$DIMTMOVE
 70
     2
  9
$LUNITS
 70
     2
  9
$LUPREC
 70
     4
  9
$SKETCHINC
 40
0.1
  9
$FILLETRAD
 40
0.5
  9
$AUNITS
 70
     0
  9
$AUPREC
 70
     0
  9
$MENU
  1
.
  9
$ELEVATION
 40
0.0
  9
$PELEVATION
 40
0.0
  9
$THICKNESS
 40
0.0
  9
$LIMCHECK
 70
     0
  9
$CHAMFERA
 40
0.5
  9
$CHAMFERB
 40
0.5
  9
$CHAMFERC
 40
1.0
  9
$CHAMFERD
 40
0.0
  9
$SKPOLY
 70
     0
  9
$TDCREATE
 40
2456790.673788553
  9
$TDUCREATE
 40
2456790.84045522
  9
$TDUPDATE
 40
2456790.673788565
  9
$TDUUPDATE
 40
2456790.840455231
  9
$TDINDWG
 40
0.0000000116
  9
$TDUSRTIMER
 40
0.0000000116
  9
$USRTIMER
 70
     1
  9
$ANGBASE
 50
0.0
  9
$ANGDIR
 70
     0
  9
$PDMODE
 70
     0
  9
$PDSIZE
 40
0.0
  9
$PLINEWID
 40
0.0
  9
$SPLFRAME
 70
     0
  9
$SPLINETYPE
 70
     6
  9
$SPLINESEGS
 70
     8
  9
$HANDSEED
  5
99
  9
$SURFTAB1
 70
     6
  9
$SURFTAB2
 70
     6
  9
$SURFTYPE
 70
     6
  9
$SURFU
 70
     6
  9
$SURFV
 70
     6
  9
$UCSBASE
  2

  9
$UCSNAME
  2

  9
$UCSORG
 10
0.0
 20
0.0
 30
0.0
  9
$UCSXDIR
 10
1.0
 20
0.0
 30
0.0
  9
$UCSYDIR
 10
0.0
 20
1.0
 30
0.0
  9
$UCSORTHOREF
  2

  9
$UCSORTHOVIEW
 70
     0
  9
$UCSORGTOP
 10
0.0
 20
0.0
 30
0.0
  9
$UCSORGBOTTOM
 10
0.0
 20
0.0
 30
0.0
  9
$UCSORGLEFT
 10
0.0
 20
0.0
 30
0.0
  9
$UCSORGRIGHT
 10
0.0
 20
0.0
 30
0.0
  9
$UCSORGFRONT
 10
0.0
 20
0.0
 30
0.0
  9
$UCSORGBACK
 10
0.0
 20
0.0
 30
0.0
  9
$PUCSBASE
  2

  9
$PUCSNAME
  2

  9
$PUCSORG
 10
0.0
 20
0.0
 30
0.0
  9
$PUCSXDIR
 10
1.0
 20
0.0
 30
0.0
  9
$PUCSYDIR
 10
0.0
 20
1.0
 30
0.0
  9
$PUCSORTHOREF
  2

  9
$PUCSORTHOVIEW
 70
     0
  9
$PUCSORGTOP
 10
0.0
 20
0.0
 30
0.0
  9
$PUCSORGBOTTOM
 10
0.0
 20
0.0
 30
0.0
  9
$PUCSORGLEFT
 10
0.0
 20
0.0
 30
0.0
  9
$PUCSORGRIGHT
 10
0.0
 20
0.0
 30
0.0
  9
$PUCSORGFRONT
 10
0.0
 20
0.0
 30
0.0
  9
$PUCSORGBACK
 10
0.0
 20
0.0
 30
0.0
  9
$USERI1
 70
     0
  9
$USERI2
 70
     0
  9
$USERI3
 70
     0
  9
$USERI4
 70
     0
  9
$USERI5
 70
     0
  9
$USERR1
 40
0.0
  9
$USERR2
 40
0.0
  9
$USERR3
 40
0.0
  9
$USERR4
 40
0.0
  9
$USERR5
 40
0.0
  9
$WORLDVIEW
 70
     1
  9
$SHADEDGE
 70
     3
  9
$SHADEDIF
 70
    70
  9
$TILEMODE
 70
     1
  9
$MAXACTVP
 70
    64
  9
$PINSBASE
 10
0.0
 20
0.0
 30
0.0
  9
$PLIMCHECK
 70
     0
  9
$PEXTMIN
 10
1.000000000000000E+20
 20
1.000000000000000E+20
 30
1.000000000000000E+20
  9
$PEXTMAX
 10
-1.000000000000000E+20
 20
-1.000000000000000E+20
 30
-1.000000000000000E+20
  9
$PLIMMIN
 10
0.0
 20
0.0
  9
$PLIMMAX
 10
12.0
 20
9.0
  9
$UNITMODE
 70
     0
  9
$VISRETAIN
 70
     1
  9
$PLINEGEN
 70
     0
  9
$PSLTSCALE
 70
     1
  9
$TREEDEPTH
 70
  3020
  9
$CMLSTYLE
  2
Standard
  9
$CMLJUST
 70
     0
  9
$CMLSCALE
 40
1.0
  9
$PROXYGRAPHICS
 70
     1
  9
$MEASUREMENT
 70
     0
  9
$CELWEIGHT
370
    -1
  9
$ENDCAPS
280
     0
  9
$JOINSTYLE
280
     0
  9
$LWDISPLAY
290
     0
  9
$INSUNITS
 70
     1
  9
$HYPERLINKBASE
  1

  9
$STYLESHEET
  1

  9
$XEDIT
290
     1
  9
$CEPSNTYPE
380
     0
  9
$PSTYLEMODE
290
     1
  9
$FINGERPRINTGUID
  2
{95CC45E2-C249-40C4-BBFA-FEED449E6F11}
  9
$VERSIONGUID
  2
{FAEB1C32-E019-11D5-929B-00C0DF256EC4}
  9
$EXTNAMES
290
     1
  9
$PSVPSCALE
 40
0.0
  9
$OLESTARTUP
290
     0
  9
$SORTENTS
280
   127
  9
$INDEXCTL
280
     0
  9
$HIDETEXT
280
     1
  9
$XCLIPFRAME
290
     0
  9
$HALOGAP
280
     0
  9
$OBSCOLOR
 70
   257
  9
$OBSLTYPE
280
     0
  9
$INTERSECTIONDISPLAY
280
     0
  9
$INTERSECTIONCOLOR
 70
   257
  9
$DIMASSOC
280
     2
  9
$PROJECTNAME
  1

  0
ENDSEC
  0
SECTION
  2
CLASSES
  0
CLASS
  1
ACDBDICTIONARYWDFLT
  2
AcDbDictionaryWithDefault
  3
ObjectDBX Classes
 90
        0
 91
        4
280
     0
281
     0
  0
CLASS
  1
VISUALSTYLE
  2
AcDbVisualStyle
  3
ObjectDBX Classes
 90
     4095
 91
        4
280
     0
281
     0
  0
ENDSEC
  0
SECTION
  2
TABLES
  0
TABLE
  2
VPORT
  5
8
330
0
100
AcDbSymbolTable
 70
     1
  0
VPORT
  5
29
330
8
100
AcDbSymbolTableRecord
100
AcDbViewportTableRecord
  2
*Active
 70
     0
 10
0.0
 20
0.0
 11
1.0
 21
1.0
 12
26.49999999999895
 22
36.90799999999973
 13
0.0
 23
0.0
 14
0.5
 24
0.5
 15
0.5
 25
0.5
 16
0.0
 26
0.0
 36
1.0
 17
0.0
 27
0.0
 37
0.0
 40
75.29232000000084
 41
2.343665330009699
 42
50.0
 43
0.0
 44
0.0
 50
0.0
 51
0.0
 71
     0
 72
   100
 73
     1
 74
     3
 75
     0
 76
     0
 77
     0
 78
     0
281
     0
 65
     1
110
0.0
120
0.0
130
0.0
111
1.0
121
0.0
131
0.0
112
0.0
122
1.0
132
0.0
 79
     0
146
0.0
  0
ENDTAB
  0
TABLE
  2
LTYPE
  5
5
330
0
100
AcDbSymbolTable
 70
     1
  0
LTYPE
  5
14
330
5
100
AcDbSymbolTableRecord
100
AcDbLinetypeTableRecord
  2
ByBlock
 70
     0
  3

 72
    65
 73
     0
 40
0.0
  0
LTYPE
  5
15
330
5
100
AcDbSymbolTableRecord
100
AcDbLinetypeTableRecord
  2
ByLayer
 70
     0
  3

 72
    65
 73
     0
 40
0.0
  0
LTYPE
  5
16
330
5
100
AcDbSymbolTableRecord
100
AcDbLinetypeTableRecord
  2
Continuous
 70
     0
  3
Solid line
 72
    65
 73
     0
 40
0.0
  0
ENDTAB
  0
TABLE
  2
LAYER
  5
2
330
0
100
AcDbSymbolTable
 70
     3
  0
LAYER
  5
10
330
2
100
AcDbSymbolTableRecord
100
AcDbLayerTableRecord
  2
0
 70
     0
 62
     7
  6
Continuous
370
    -3
390
F
  0
LAYER
  5
3B
330
2
100
AcDbSymbolTableRecord
100
AcDbLayerTableRecord
  2
Layer 04
 70
     0
 62
     7
  6
Continuous
370
    -3
390
F
  0
LAYER
  5
80
330
2
100
AcDbSymbolTableRecord
100
AcDbLayerTableRecord
  2
Default
 70
     0
 62
     7
  6
Continuous
370
    -3
390
F
  0
ENDTAB
  0
TABLE
  2
STYLE
  5
3
330
0
100
AcDbSymbolTable
 70
     1
  0
STYLE
  5
11
330
3
100
AcDbSymbolTableRecord
100
AcDbTextStyleTableRecord
  2
Standard
 70
     0
 40
0.0
 41
1.0
 50
0.0
 71
     0
 42
0.2
  3
txt
  4

  0
ENDTAB
  0
TABLE
  2
VIEW
  5
6
330
0
100
AcDbSymbolTable
 70
     0
  0
ENDTAB
  0
TABLE
  2
UCS
  5
7
330
0
100
AcDbSymbolTable
 70
     0
  0
ENDTAB
  0
TABLE
  2
APPID
  5
9
330
0
100
AcDbSymbolTable
 70
     1
  0
APPID
  5
12
330
9
100
AcDbSymbolTableRecord
100
AcDbRegAppTableRecord
  2
ACAD
 70
     0
  0
ENDTAB
  0
TABLE
  2
DIMSTYLE
  5
A
330
0
100
AcDbSymbolTable
 70
     1
100
AcDbDimStyleTable
  0
DIMSTYLE
105
27
330
A
100
AcDbSymbolTableRecord
100
AcDbDimStyleTableRecord
  2
Standard
 70
     0
340
11
  0
ENDTAB
  0
TABLE
  2
BLOCK_RECORD
  5
1
330
0
100
AcDbSymbolTable
 70
     1
  0
BLOCK_RECORD
  5
1F
330
1
100
AcDbSymbolTableRecord
100
AcDbBlockTableRecord
  2
*Model_Space
340
22
  0
BLOCK_RECORD
  5
1B
330
1
100
AcDbSymbolTableRecord
100
AcDbBlockTableRecord
  2
*Paper_Space
340
1E
  0
BLOCK_RECORD
  5
23
330
1
100
AcDbSymbolTableRecord
100
AcDbBlockTableRecord
  2
*Paper_Space0
340
26
  0
ENDTAB
  0
ENDSEC
  0
SECTION
  2
BLOCKS
  0
BLOCK
  5
20
330
1F
100
AcDbEntity
  8
0
100
AcDbBlockBegin
  2
*Model_Space
 70
     0
 10
0.0
 20
0.0
 30
0.0
  3
*Model_Space
  1

  0
ENDBLK
  5
21
330
1F
100
AcDbEntity
  8
0
100
AcDbBlockEnd
  0
BLOCK
  5
1C
330
1B
100
AcDbEntity
 67
     1
  8
0
100
AcDbBlockBegin
  2
*Paper_Space
 70
     0
 10
0.0
 20
0.0
 30
0.0
  3
*Paper_Space
  1

  0
ENDBLK
  5
1D
330
1B
100
AcDbEntity
 67
     1
  8
0
100
AcDbBlockEnd
  0
BLOCK
  5
24
330
23
100
AcDbEntity
  8
0
100
AcDbBlockBegin
  2
*Paper_Space0
 70
     0
 10
0.0
 20
0.0
 30
0.0
  3
*Paper_Space0
  1

  0
ENDBLK
  5
25
330
23
100
AcDbEntity
  8
0
100
AcDbBlockEnd
  0
ENDSEC
  0
SECTION
  2
ENTITIES
  0
POLYLINE
  5
3C
330
1F
100
AcDbEntity
  8
Layer 04
100
AcDb2dPolyline
 66
     1
 10
0.0
 20
0.0
 30
0.0
  0
VERTEX
  5
3D
330
3C
100
AcDbEntity
  8
Layer 04
100
AcDbVertex
100
AcDb2dVertex
 10
100.9999999999979
 20
11.066
 30
0.0
  0
VERTEX
  5
3E
330
3C
100
AcDbEntity
  8
Layer 04
100
AcDbVertex
100
AcDb2dVertex
 10
100.9999999999979
 20
13.816
 30
0.0
  0
SEQEND
  5
3F
330
3C
100
AcDbEntity
  8
Layer 04
  0
POLYLINE
  5
40
330
1F
100
AcDbEntity
  8
Layer 04
100
AcDb2dPolyline
 66
     1
 10
0.0
 20
0.0
 30
0.0
  0
VERTEX
  5
41
330
40
100
AcDbEntity
  8
Layer 04
100
AcDbVertex
100
AcDb2dVertex
 10
105.889501982498
 20
0.2546163923993152
 30
0.0
  0
VERTEX
  5
42
330
40
100
AcDbEntity
  8
Layer 04
100
AcDbVertex
100
AcDb2dVertex
 10
104.2367338365835
 20
13.81229871862497
 30
0.0
  0
SEQEND
  5
43
330
40
100
AcDbEntity
  8
Layer 04
  0
SPLINE
  5
44
330
1F
100
AcDbEntity
  8
Layer 04
100
AcDbSpline
210
0.0
220
0.0
230
1.0
 70
     8
 71
     5
 72
    12
 73
     6
 74
     0
 42
0.0000000001
 43
0.0000000001
 40
0.0
 40
0.0
 40
0.0
 40
0.0
 40
0.0
 40
0.0
 40
1.0
 40
1.0
 40
1.0
 40
1.0
 40
1.0
 40
1.0
 10
105.8412850932488
 20
0.1786505021993126
 30
0.0
 10
105.8592802980353
 20
0.1786505021993126
 30
0.0
 10
105.8772755028219
 20
0.1786505021993126
 30
0.0
 10
105.8938572010312
 20
0.2188904682997563
 30
0.0
 10
105.8916795917646
 20
0.2367534303495357
 30
0.0
 10
105.889501982498
 20
0.2546163923993152
 30
0.0
  0
POLYLINE
  5
45
330
1F
100
AcDbEntity
  8
Layer 04
100
AcDb2dPolyline
 66
     1
 10
0.0
 20
0.0
 30
0.0
  0
VERTEX
  5
46
330
45
100
AcDbEntity
  8
Layer 04
100
AcDbVertex
100
AcDb2dVertex
 10
104.5776013471979
 20
0.1786505021993126
 30
0.0
  0
VERTEX
  5
47
330
45
100
AcDbEntity
  8
Layer 04
100
AcDbVertex
100
AcDb2dVertex
 10
105.8412850932488
 20
0.1786505021993126
 30
0.0
  0
SEQEND
  5
48
330
45
100
AcDbEntity
  8
Layer 04
  0
SPLINE
  5
49
330
1F
100
AcDbEntity
  8
Layer 04
100
AcDbSpline
210
0.0
220
0.0
230
1.0
 70
     8
 71
     2
 72
     7
 73
     4
 74
     0
 42
0.0000000001
 43
0.0000000001
 40
-2.0
 40
-2.0
 40
-2.0
 40
-1.0
 40
0.0
 40
0.0
 40
0.0
 10
104.5274023895979
 20
0.2359655193993131
 30
0.0
 10
104.5306367393136
 20
0.2155613533196962
 30
0.0
 10
104.5577157788126
 20
0.1844291200002125
 30
0.0
 10
104.5776013471979
 20
0.1786505021993126
 30
0.0
  0
POLYLINE
  5
4A
330
1F
100
AcDbEntity
  8
Layer 04
100
AcDb2dPolyline
 66
     1
 10
0.0
 20
0.0
 30
0.0
  0
VERTEX
  5
4B
330
4A
100
AcDbEntity
  8
Layer 04
100
AcDbVertex
100
AcDb2dVertex
 10
103.0019406886849
 20
10.03074447884443
 30
0.0
  0
VERTEX
  5
4C
330
4A
100
AcDbEntity
  8
Layer 04
100
AcDbVertex
100
AcDb2dVertex
 10
104.5274023895979
 20
0.2359655193993131
 30
0.0
  0
SEQEND
  5
4D
330
4A
100
AcDbEntity
  8
Layer 04
  0
SPLINE
  5
4E
330
1F
100
AcDbEntity
  8
Layer 04
100
AcDbSpline
210
0.0
220
0.0
230
1.0
 70
     8
 71
     5
 72
    12
 73
     6
 74
     0
 42
0.0000000001
 43
0.0000000001
 40
-1.0
 40
-1.0
 40
-1.0
 40
-1.0
 40
-1.0
 40
-1.0
 40
0.0
 40
0.0
 40
0.0
 40
0.0
 40
0.0
 40
0.0
 10
101.845215044798
 20
11.07099999999932
 30
0.0
 10
102.1563513984771
 20
11.07099999999932
 30
0.0
 10
102.4674877521562
 20
11.07099999999932
 30
0.0
 10
102.9061808880718
 20
10.64560493692379
 30
0.0
 10
102.9540607883783
 20
10.33817470788411
 30
0.0
 10
103.0019406886849
 20
10.03074447884443
 30
0.0
  0
LINE
  5
4F
330
1F
100
AcDbEntity
  8
Layer 04
100
AcDbLine
 10
101.019999999998
 20
11.07099999999932
 30
0.0
 11
101.845215044798
 21
11.07099999999932
 31
0.0
  0
ARC
  5
50
330
1F
100
AcDbEntity
  8
Layer 04
  6
Continuous
100
AcDbCircle
 10
104.6235572578979
 20
0.0937678608993142
 30
0.0
 40
0.0937678609
100
AcDbArc
 50
118.7203267979021
 51
270.0
  0
LINE
  5
51
330
1F
100
AcDbEntity
  8
Layer 04
  6
Continuous
100
AcDbLine
 10
105.833439845098
 20
-0.0000000000006858
 30
0.0
 11
104.6235572578979
 21
-0.0000000000006858
 31
0.0
  0
ARC
  5
52
330
1F
100
AcDbEntity
  8
Layer 04
  6
Continuous
100
AcDbCircle
 10
105.833439845098
 20
0.0937678608993142
 30
0.0
 40
0.0937678609
100
AcDbArc
 50
270.0
 51
61.27967320209791
  0
POLYLINE
  5
53
330
1F
100
AcDbEntity
  8
Layer 04
100
AcDb2dPolyline
 66
     1
 10
0.0
 20
0.0
 30
0.0
  0
VERTEX
  5
54
330
53
100
AcDbEntity
  8
Layer 04
100
AcDbVertex
100
AcDb2dVertex
 10
80.9999999999979
 20
11.066
 30
0.0
  0
VERTEX
  5
55
330
53
100
AcDbEntity
  8
Layer 04
100
AcDbVertex
100
AcDb2dVertex
 10
80.9999999999979
 20
13.816
 30
0.0
  0
SEQEND
  5
56
330
53
100
AcDbEntity
  8
Layer 04
  0
POLYLINE
  5
57
330
1F
100
AcDbEntity
  8
Layer 04
100
AcDb2dPolyline
 66
     1
 10
0.0
 20
0.0
 30
0.0
  0
VERTEX
  5
58
330
57
100
AcDbEntity
  8
Layer 04
100
AcDbVertex
100
AcDb2dVertex
 10
76.11049801749785
 20
0.2546163923993152
 30
0.0
  0
VERTEX
  5
59
330
57
100
AcDbEntity
  8
Layer 04
100
AcDbVertex
100
AcDb2dVertex
 10
77.76326616341227
 20
13.81229871862497
 30
0.0
  0
SEQEND
  5
5A
330
57
100
AcDbEntity
  8
Layer 04
  0
SPLINE
  5
5B
330
1F
100
AcDbEntity
  8
Layer 04
100
AcDbSpline
210
0.0
220
0.0
230
1.0
 70
     8
 71
     5
 72
    12
 73
     6
 74
     0
 42
0.0000000001
 43
0.0000000001
 40
0.0
 40
0.0
 40
0.0
 40
0.0
 40
0.0
 40
0.0
 40
1.0
 40
1.0
 40
1.0
 40
1.0
 40
1.0
 40
1.0
 10
76.15871490674705
 20
0.1786505021993126
 30
0.0
 10
76.1407197019605
 20
0.1786505021993126
 30
0.0
 10
76.12272449717395
 20
0.1786505021993126
 30
0.0
 10
76.1061427989646
 20
0.2188904682997563
 30
0.0
 10
76.10832040823122
 20
0.2367534303495357
 30
0.0
 10
76.11049801749785
 20
0.2546163923993152
 30
0.0
  0
POLYLINE
  5
5C
330
1F
100
AcDbEntity
  8
Layer 04
100
AcDb2dPolyline
 66
     1
 10
0.0
 20
0.0
 30
0.0
  0
VERTEX
  5
5D
330
5C
100
AcDbEntity
  8
Layer 04
100
AcDbVertex
100
AcDb2dVertex
 10
77.42239865279787
 20
0.1786505021993126
 30
0.0
  0
VERTEX
  5
5E
330
5C
100
AcDbEntity
  8
Layer 04
100
AcDbVertex
100
AcDb2dVertex
 10
76.15871490674705
 20
0.1786505021993126
 30
0.0
  0
SEQEND
  5
5F
330
5C
100
AcDbEntity
  8
Layer 04
  0
SPLINE
  5
60
330
1F
100
AcDbEntity
  8
Layer 04
100
AcDbSpline
210
0.0
220
0.0
230
1.0
 70
     8
 71
     2
 72
     7
 73
     4
 74
     0
 42
0.0000000001
 43
0.0000000001
 40
-2.0
 40
-2.0
 40
-2.0
 40
-1.0
 40
0.0
 40
0.0
 40
0.0
 10
77.47259761039787
 20
0.2359655193993131
 30
0.0
 10
77.4693632606822
 20
0.2155613533196962
 30
0.0
 10
77.44228422118317
 20
0.1844291200002125
 30
0.0
 10
77.42239865279787
 20
0.1786505021993126
 30
0.0
  0
POLYLINE
  5
61
330
1F
100
AcDbEntity
  8
Layer 04
100
AcDb2dPolyline
 66
     1
 10
0.0
 20
0.0
 30
0.0
  0
VERTEX
  5
62
330
61
100
AcDbEntity
  8
Layer 04
100
AcDbVertex
100
AcDb2dVertex
 10
78.99805931131093
 20
10.03074447884443
 30
0.0
  0
VERTEX
  5
63
330
61
100
AcDbEntity
  8
Layer 04
100
AcDbVertex
100
AcDb2dVertex
 10
77.47259761039787
 20
0.2359655193993131
 30
0.0
  0
SEQEND
  5
64
330
61
100
AcDbEntity
  8
Layer 04
  0
SPLINE
  5
65
330
1F
100
AcDbEntity
  8
Layer 04
100
AcDbSpline
210
0.0
220
0.0
230
1.0
 70
     8
 71
     5
 72
    12
 73
     6
 74
     0
 42
0.0000000001
 43
0.0000000001
 40
-1.0
 40
-1.0
 40
-1.0
 40
-1.0
 40
-1.0
 40
-1.0
 40
0.0
 40
0.0
 40
0.0
 40
0.0
 40
0.0
 40
0.0
 10
80.15478495519785
 20
11.07099999999932
 30
0.0
 10
79.84364860151871
 20
11.07099999999932
 30
0.0
 10
79.53251224783956
 20
11.07099999999932
 30
0.0
 10
79.09381911192403
 20
10.64560493692379
 30
0.0
 10
79.04593921161748
 20
10.33817470788411
 30
0.0
 10
78.99805931131093
 20
10.03074447884443
 30
0.0
  0
LINE
  5
66
330
1F
100
AcDbEntity
  8
Layer 04
100
AcDbLine
 10
80.97999999999784
 20
11.07099999999932
 30
0.0
 11
80.15478495519785
 21
11.07099999999932
 31
0.0
  0
ARC
  5
67
330
1F
100
AcDbEntity
  8
Layer 04
  6
Continuous
100
AcDbCircle
 10
77.37644274209786
 20
0.0937678608993142
 30
0.0
 40
0.0937678609
100
AcDbArc
 50
270.0
 51
61.27967320209792
  0
LINE
  5
68
330
1F
100
AcDbEntity
  8
Layer 04
  6
Continuous
100
AcDbLine
 10
76.16656015489785
 20
-0.0000000000006858
 30
0.0
 11
77.37644274209786
 21
-0.0000000000006858
 31
0.0
  0
ARC
  5
69
330
1F
100
AcDbEntity
  8
Layer 04
  6
Continuous
100
AcDbCircle
 10
76.16656015489785
 20
0.0937678608993142
 30
0.0
 40
0.0937678609
100
AcDbArc
 50
118.7203267979021
 51
270.0
  0
SPLINE
  5
6A
330
1F
100
AcDbEntity
  8
Layer 04
  6
Continuous
100
AcDbSpline
210
0.0
220
0.0
230
1.0
 70
    24
 71
     2
 72
     6
 73
     3
 74
     0
 42
0.0000000001
 43
0.0000000001
 40
0.0
 40
0.0
 40
0.0
 40
2.73499999999931
 40
2.73499999999931
 40
2.73499999999931
 10
48.00000000000195
 20
11.06600000000069
 30
0.0
 10
48.00000000000197
 20
12.43350000000035
 30
0.0
 10
48.00000000000198
 20
13.801
 30
0.0
  0
SPLINE
  5
6B
330
1F
100
AcDbEntity
  8
Layer 04
100
AcDbSpline
210
0.0
220
0.0
230
1.0
 70
    24
 71
     2
 72
     6
 73
     3
 74
     0
 42
0.0000000001
 43
0.0000000001
 40
0.0
 40
0.0
 40
0.0
 40
1.0
 40
1.0
 40
1.0
 10
52.889501982502
 20
0.2546163924000044
 30
0.0
 10
52.06311790954479
 20
7.033457555512832
 30
0.0
 10
51.23673383658758
 20
13.81229871862566
 30
0.0
  0
SPLINE
  5
6C
330
1F
100
AcDbEntity
  8
Layer 04
100
AcDbSpline
210
0.0
220
0.0
230
1.0
 70
     8
 71
     5
 72
    12
 73
     6
 74
     0
 42
0.0000000001
 43
0.0000000001
 40
0.0
 40
0.0
 40
0.0
 40
0.0
 40
0.0
 40
0.0
 40
1.0
 40
1.0
 40
1.0
 40
1.0
 40
1.0
 40
1.0
 10
52.84128509325279
 20
0.1786505022000018
 30
0.0
 10
52.85928029803934
 20
0.1786505022000018
 30
0.0
 10
52.8772755028259
 20
0.1786505022000018
 30
0.0
 10
52.89385720103525
 20
0.2188904683004455
 30
0.0
 10
52.89167959176861
 20
0.236753430350225
 30
0.0
 10
52.889501982502
 20
0.2546163924000044
 30
0.0
  0
SPLINE
  5
6D
330
1F
100
AcDbEntity
  8
Layer 04
100
AcDbSpline
210
0.0
220
0.0
230
1.0
 70
    24
 71
     2
 72
     6
 73
     3
 74
     0
 42
0.0000000001
 43
0.0000000001
 40
0.0
 40
0.0
 40
0.0
 40
1.0
 40
1.0
 40
1.0
 10
51.57760134720198
 20
0.1786505022000018
 30
0.0
 10
52.20944322022739
 20
0.1786505022000018
 30
0.0
 10
52.84128509325279
 20
0.1786505022000018
 30
0.0
  0
SPLINE
  5
6E
330
1F
100
AcDbEntity
  8
Layer 04
100
AcDbSpline
210
0.0
220
0.0
230
1.0
 70
     8
 71
     2
 72
     7
 73
     4
 74
     0
 42
0.0000000001
 43
0.0000000001
 40
-2.0
 40
-2.0
 40
-2.0
 40
-1.0
 40
0.0
 40
0.0
 40
0.0
 10
51.52740238960197
 20
0.2359655194000023
 30
0.0
 10
51.53063673931764
 20
0.2155613533203854
 30
0.0
 10
51.55771577881668
 20
0.1844291200009017
 30
0.0
 10
51.57760134720198
 20
0.1786505022000018
 30
0.0
  0
SPLINE
  5
6F
330
1F
100
AcDbEntity
  8
Layer 04
100
AcDbSpline
210
0.0
220
0.0
230
1.0
 70
    24
 71
     2
 72
     6
 73
     3
 74
     0
 42
0.0000000001
 43
0.0000000001
 40
0.0
 40
0.0
 40
0.0
 40
1.0
 40
1.0
 40
1.0
 10
50.00194068868893
 20
10.03074447884512
 30
0.0
 10
50.76467153914545
 20
5.133354999122561
 30
0.0
 10
51.52740238960197
 20
0.2359655194000023
 30
0.0
  0
SPLINE
  5
70
330
1F
100
AcDbEntity
  8
Layer 04
100
AcDbSpline
210
0.0
220
0.0
230
1.0
 70
     8
 71
     5
 72
    12
 73
     6
 74
     0
 42
0.0000000001
 43
0.0000000001
 40
-1.0
 40
-1.0
 40
-1.0
 40
-1.0
 40
-1.0
 40
-1.0
 40
0.0
 40
0.0
 40
0.0
 40
0.0
 40
0.0
 40
0.0
 10
48.84521504480199
 20
11.07100000000001
 30
0.0
 10
49.15635139848114
 20
11.07100000000001
 30
0.0
 10
49.46748775216029
 20
11.07100000000001
 30
0.0
 10
49.90618088807582
 20
10.64560493692448
 30
0.0
 10
49.95406078838238
 20
10.3381747078848
 30
0.0
 10
50.00194068868893
 20
10.03074447884512
 30
0.0
  0
SPLINE
  5
71
330
1F
100
AcDbEntity
  8
Layer 04
100
AcDbSpline
210
0.0
220
0.0
230
1.0
 70
    24
 71
     2
 72
     6
 73
     3
 74
     0
 42
0.0000000001
 43
0.0000000001
 40
0.0
 40
0.0
 40
0.0
 40
0.8252150447999895
 40
0.8252150447999895
 40
0.8252150447999895
 10
48.02000000000199
 20
11.07100000000001
 30
0.0
 10
48.43260752240199
 20
11.07100000000001
 30
0.0
 10
48.84521504480199
 20
11.07100000000001
 30
0.0
  0
SPLINE
  5
72
330
1F
100
AcDbEntity
  8
Layer 04
  6
Continuous
100
AcDbSpline
210
0.0
220
0.0
230
1.0
 70
    12
 71
     2
 72
     8
 73
     5
 74
     0
 42
0.0000000001
 43
0.0000000001
 40
0.0
 40
0.0
 40
0.0
 40
0.1237889725417989
 40
0.1237889725417989
 40
0.2475779450835977
 40
0.2475779450835977
 40
0.2475779450835977
 10
51.57849855149885
 20
0.1760000000855962
 30
0.0
 41
1.0
 10
51.51466696616171
 20
0.1410237889419154
 30
0.0
 41
0.7899418936709716
 10
51.5327190954194
 20
0.0705118944709591
 30
0.0
 41
1.0
 10
51.55077122467706
 20
0.000000000000003
 30
0.0
 41
0.7899418936709716
 10
51.62355725790199
 20
0.0000000000000034
 30
0.0
 41
1.0
  0
SPLINE
  5
73
330
1F
100
AcDbEntity
  8
Layer 04
  6
Continuous
100
AcDbSpline
210
0.0
220
0.0
230
1.0
 70
    24
 71
     2
 72
     6
 73
     3
 74
     0
 42
0.0000000001
 43
0.0000000001
 40
0.0
 40
0.0
 40
0.0
 40
1.209882587200006
 40
1.209882587200006
 40
1.209882587200006
 10
52.83343984510199
 20
0.0000000000000034
 30
0.0
 10
52.22849855150199
 20
0.0000000000000034
 30
0.0
 10
51.62355725790198
 20
0.0000000000000034
 30
0.0
  0
SPLINE
  5
74
330
1F
100
AcDbEntity
  8
Layer 04
  6
Continuous
100
AcDbSpline
210
0.0
220
0.0
230
1.0
 70
    12
 71
     2
 72
     8
 73
     5
 74
     0
 42
0.0000000001
 43
0.0000000001
 40
0.0
 40
0.0
 40
0.0
 40
0.1237889725417986
 40
0.1237889725417986
 40
0.2475779450835973
 40
0.2475779450835973
 40
0.2475779450835973
 10
52.83343984510199
 20
0.0000000000000034
 30
0.0
 41
1.0
 10
52.90622587832689
 20
0.0000000000000034
 30
0.0
 41
0.7899418936709723
 10
52.92427800758458
 20
0.0705118944709595
 30
0.0
 41
1.0
 10
52.94233013684224
 20
0.1410237889419156
 30
0.0
 41
0.7899418936709723
 10
52.8784985515051
 20
0.1760000000855963
 30
0.0
 41
1.0
  0
SPLINE
  5
75
330
1F
100
AcDbEntity
  8
Layer 04
  6
Continuous
100
AcDbSpline
210
0.0
220
0.0
230
1.0
 70
    24
 71
     2
 72
     6
 73
     3
 74
     0
 42
0.0000000001
 43
0.0000000001
 40
0.0
 40
0.0
 40
0.0
 40
2.73499999999931
 40
2.73499999999931
 40
2.73499999999931
 10
-47.99999999999783
 20
13.801
 30
0.0
 10
-47.99999999999794
 20
12.43350000000035
 30
0.0
 10
-47.99999999999805
 20
11.06600000000069
 30
0.0
  0
SPLINE
  5
76
330
1F
100
AcDbEntity
  8
Layer 04
100
AcDbSpline
210
0.0
220
0.0
230
1.0
 70
    24
 71
     2
 72
     6
 73
     3
 74
     0
 42
0.0000000001
 43
0.0000000001
 40
0.0
 40
0.0
 40
0.0
 40
1.0
 40
1.0
 40
1.0
 10
-52.88950198249784
 20
0.2546163924000044
 30
0.0
 10
-52.06311790954063
 20
7.033457555512832
 30
0.0
 10
-51.23673383658343
 20
13.81229871862566
 30
0.0
  0
SPLINE
  5
77
330
1F
100
AcDbEntity
  8
Layer 04
100
AcDbSpline
210
0.0
220
0.0
230
1.0
 70
     8
 71
     5
 72
    12
 73
     6
 74
     0
 42
0.0000000001
 43
0.0000000001
 40
0.0
 40
0.0
 40
0.0
 40
0.0
 40
0.0
 40
0.0
 40
1.0
 40
1.0
 40
1.0
 40
1.0
 40
1.0
 40
1.0
 10
-52.84128509324864
 20
0.1786505022000018
 30
0.0
 10
-52.85928029803518
 20
0.1786505022000018
 30
0.0
 10
-52.87727550282175
 20
0.1786505022000018
 30
0.0
 10
-52.8938572010311
 20
0.2188904683004455
 30
0.0
 10
-52.89167959176445
 20
0.236753430350225
 30
0.0
 10
-52.88950198249784
 20
0.2546163924000044
 30
0.0
  0
SPLINE
  5
78
330
1F
100
AcDbEntity
  8
Layer 04
100
AcDbSpline
210
0.0
220
0.0
230
1.0
 70
    24
 71
     2
 72
     6
 73
     3
 74
     0
 42
0.0000000001
 43
0.0000000001
 40
0.0
 40
0.0
 40
0.0
 40
1.0
 40
1.0
 40
1.0
 10
-51.57760134719782
 20
0.1786505022000018
 30
0.0
 10
-52.20944322022324
 20
0.1786505022000018
 30
0.0
 10
-52.84128509324864
 20
0.1786505022000018
 30
0.0
  0
SPLINE
  5
79
330
1F
100
AcDbEntity
  8
Layer 04
100
AcDbSpline
210
0.0
220
0.0
230
1.0
 70
     8
 71
     2
 72
     7
 73
     4
 74
     0
 42
0.0000000001
 43
0.0000000001
 40
-2.0
 40
-2.0
 40
-2.0
 40
-1.0
 40
0.0
 40
0.0
 40
0.0
 10
-51.52740238959781
 20
0.2359655194000023
 30
0.0
 10
-51.53063673931349
 20
0.2155613533203854
 30
0.0
 10
-51.55771577881252
 20
0.1844291200009017
 30
0.0
 10
-51.57760134719782
 20
0.1786505022000018
 30
0.0
  0
SPLINE
  5
7A
330
1F
100
AcDbEntity
  8
Layer 04
100
AcDbSpline
210
0.0
220
0.0
230
1.0
 70
    24
 71
     2
 72
     6
 73
     3
 74
     0
 42
0.0000000001
 43
0.0000000001
 40
0.0
 40
0.0
 40
0.0
 40
1.0
 40
1.0
 40
1.0
 10
-50.00194068868478
 20
10.03074447884512
 30
0.0
 10
-50.76467153914129
 20
5.133354999122561
 30
0.0
 10
-51.52740238959781
 20
0.2359655194000023
 30
0.0
  0
SPLINE
  5
7B
330
1F
100
AcDbEntity
  8
Layer 04
100
AcDbSpline
210
0.0
220
0.0
230
1.0
 70
     8
 71
     5
 72
    12
 73
     6
 74
     0
 42
0.0000000001
 43
0.0000000001
 40
-1.0
 40
-1.0
 40
-1.0
 40
-1.0
 40
-1.0
 40
-1.0
 40
0.0
 40
0.0
 40
0.0
 40
0.0
 40
0.0
 40
0.0
 10
-48.84521504479783
 20
11.07100000000001
 30
0.0
 10
-49.15635139847699
 20
11.07100000000001
 30
0.0
 10
-49.46748775215612
 20
11.07100000000001
 30
0.0
 10
-49.90618088807166
 20
10.64560493692448
 30
0.0
 10
-49.95406078837821
 20
10.3381747078848
 30
0.0
 10
-50.00194068868478
 20
10.03074447884512
 30
0.0
  0
SPLINE
  5
7C
330
1F
100
AcDbEntity
  8
Layer 04
100
AcDbSpline
210
0.0
220
0.0
230
1.0
 70
    24
 71
     2
 72
     6
 73
     3
 74
     0
 42
0.0000000001
 43
0.0000000001
 40
0.0
 40
0.0
 40
0.0
 40
0.8252150447999895
 40
0.8252150447999895
 40
0.8252150447999895
 10
-48.01999999999784
 20
11.07100000000001
 30
0.0
 10
-48.43260752239783
 20
11.07100000000001
 30
0.0
 10
-48.84521504479783
 20
11.07100000000001
 30
0.0
  0
SPLINE
  5
7D
330
1F
100
AcDbEntity
  8
Layer 04
  6
Continuous
100
AcDbSpline
210
0.0
220
0.0
230
1.0
 70
    12
 71
     2
 72
     8
 73
     5
 74
     0
 42
0.0000000001
 43
0.0000000001
 40
0.0
 40
0.0
 40
0.0
 40
0.1237889725417989
 40
0.1237889725417989
 40
0.2475779450835977
 40
0.2475779450835977
 40
0.2475779450835977
 10
-51.62355725789782
 20
0.0000000000000034
 30
0.0
 41
1.0
 10
-51.5507712246729
 20
0.0000000000000034
 30
0.0
 41
0.7899418936709716
 10
-51.53271909541523
 20
0.0705118944709597
 30
0.0
 41
1.0
 10
-51.51466696615756
 20
0.141023788941916
 30
0.0
 41
0.7899418936709716
 10
-51.57849855149469
 20
0.1760000000855965
 30
0.0
 41
1.0
  0
SPLINE
  5
7E
330
1F
100
AcDbEntity
  8
Layer 04
  6
Continuous
100
AcDbSpline
210
0.0
220
0.0
230
1.0
 70
    24
 71
     2
 72
     6
 73
     3
 74
     0
 42
0.0000000001
 43
0.0000000001
 40
0.0
 40
0.0
 40
0.0
 40
1.209882587200006
 40
1.209882587200006
 40
1.209882587200006
 10
-52.83343984509784
 20
0.0000000000000034
 30
0.0
 10
-52.22849855149784
 20
0.0000000000000034
 30
0.0
 10
-51.62355725789782
 20
0.0000000000000034
 30
0.0
  0
SPLINE
  5
7F
330
1F
100
AcDbEntity
  8
Layer 04
  6
Continuous
100
AcDbSpline
210
0.0
220
0.0
230
1.0
 70
    12
 71
     2
 72
     8
 73
     5
 74
     0
 42
0.0000000001
 43
0.0000000001
 40
0.0
 40
0.0
 40
0.0
 40
0.1237889725417986
 40
0.1237889725417986
 40
0.2475779450835973
 40
0.2475779450835973
 40
0.2475779450835973
 10
-52.87849855150095
 20
0.1760000000855962
 30
0.0
 41
1.0
 10
-52.94233013683808
 20
0.1410237889419153
 30
0.0
 41
0.7899418936709723
 10
-52.92427800758041
 20
0.0705118944709593
 30
0.0
 41
1.0
 10
-52.90622587832274
 20
0.0000000000000032
 30
0.0
 41
0.7899418936709723
 10
-52.83343984509782
 20
0.0000000000000034
 30
0.0
 41
1.0
  0
LINE
  5
81
330
1F
100
AcDbEntity
  8
Default
100
AcDbLine
 10
80.9999999999979
 20
11.066
 30
0.0
 11
100.9999999999979
 21
11.066
 31
0.0
  0
LINE
  5
82
330
1F
100
AcDbEntity
  8
Default
100
AcDbLine
 10
-47.99999999999805
 20
11.06600000000069
 30
0.0
 11
48.00000000000195
 21
11.06600000000069
 31
0.0
  0
SPLINE
  5
83
330
1F
100
AcDbEntity
  8
Layer 04
  6
Continuous
100
AcDbSpline
210
0.0
220
0.0
230
1.0
 70
    15
 71
     2
 72
    36
 73
    33
 74
     0
 42
0.0000000001
 43
0.0000000001
 40
203.9794021959924
 40
203.9794021959924
 40
203.9794021959924
 40
247.3402268336658
 40
247.3402268336658
 40
254.947174288261
 40
254.947174288261
 40
268.4042348350075
 40
268.4042348350075
 40
272.5371471157079
 40
272.5371471157079
 40
285.994207662405
 40
285.994207662405
 40
293.6011551171591
 40
293.6011551171591
 40
336.9619797546268
 40
336.9619797546268
 40
350.779979754631
 40
350.779979754631
 40
394.140804392049
 40
394.140804392049
 40
401.7477518467897
 40
401.7477518467897
 40
415.2048123934936
 40
415.2048123934936
 40
419.337724674194
 40
419.337724674194
 40
432.7947852209478
 40
432.7947852209478
 40
440.4017326757319
 40
440.4017326757319
 40
483.76255731315
 40
483.76255731315
 40
497.5805573131514
 40
497.5805573131514
 40
497.5805573131514
 10
-7.272631578947267
 20
73.81600000000014
 30
0.0
 41
1.0
 10
-30.10857507996607
 20
73.81600000000017
 30
0.0
 41
0.9990506589786532
 10
-52.85784335099211
 20
71.92764738066866
 30
0.0
 41
1.0
 10
-57.48310936482426
 20
71.54371708945307
 30
0.0
 41
0.8057164264668963
 10
-58.47736376890828
 20
67.23529471937225
 30
0.0
 41
1.0
 10
-60.00000000000002
 20
60.63722487678518
 30
0.0
 41
0.9941835188103065
 10
-60.00000000000001
 20
53.88245614030004
 30
0.0
 41
1.0
 10
-60.00000000000001
 20
51.81599999995005
 30
0.0
 41
1.0
 10
-60.0
 20
49.74954385960007
 30
0.0
 41
1.0
 10
-60.0
 20
42.9947751231396
 30
0.0
 41
0.994183518810264
 10
-58.4773637689083
 20
36.39670528057781
 30
0.0
 41
1.0
 10
-57.48310936474972
 20
32.08828291039132
 30
0.0
 41
0.8057164264600588
 10
-52.85784335077982
 20
31.7043526193133
 30
0.0
 41
1.0
 10
-30.10857507986186
 20
29.81600000000013
 30
0.0
 41
0.9990506589786627
 10
-7.272631578951563
 20
29.81600000000005
 30
0.0
 41
1.0
 10
-0.0000000000018109
 20
29.81600000000004
 30
0.0
 41
1.0
 10
7.272631578947941
 20
29.81600000000003
 30
0.0
 41
1.0
 10
30.10857507983219
 20
29.81600000000011
 30
0.0
 41
0.9990506589786606
 10
52.85784335072486
 20
31.70435261931315
 30
0.0
 41
1.0
 10
57.48310936466115
 20
32.08828291042781
 30
0.0
 41
0.805716426465464
 10
58.47736376885562
 20
36.39670528057751
 30
0.0
 41
1.0
 10
59.99999999999989
 20
42.99477512313362
 30
0.0
 41
0.9941835188098658
 10
60.00000000000001
 20
49.74954385959928
 30
0.0
 41
1.0
 10
60.00000000000001
 20
51.81599999994964
 30
0.0
 41
1.0
 10
60.00000000000001
 20
53.88245614030001
 30
0.0
 41
1.0
 10
60.0
 20
60.63722487679058
 30
0.0
 41
0.9941835188099082
 10
58.47736376885567
 20
67.23529471937223
 30
0.0
 41
1.0
 10
57.48310936470097
 20
71.54371708956816
 30
0.0
 41
0.8057164264623716
 10
52.85784335072591
 20
71.92764738068685
 30
0.0
 41
1.0
 10
30.10857507983328
 20
73.8159999999999
 30
0.0
 41
0.9990506589786607
 10
7.272631578949087
 20
73.81600000000009
 30
0.0
 41
1.0
 10
0.0000000000009101
 20
73.81600000000012
 30
0.0
 41
1.0
 10
-7.272631578947267
 20
73.81600000000014
 30
0.0
 41
1.0
  0
LINE
  5
84
330
1F
100
AcDbEntity
  8
Layer 04
  6
Continuous
100
AcDbLine
 10
68.99999999999793
 20
14.316
 30
0.0
 11
68.99999999999793
 21
14.816
 31
0.0
  0
LINE
  5
85
330
1F
100
AcDbEntity
  8
Layer 04
  6
Continuous
100
AcDbLine
 10
68.99999999999793
 20
14.316
 30
0.0
 11
68.99999999999793
 21
14.816
 31
0.0
  0
LINE
  5
86
330
1F
100
AcDbEntity
  8
Layer 04
  6
Continuous
100
AcDbLine
 10
70.16399999999791
 20
13.816
 30
0.0
 11
68.99999999999793
 21
14.316
 31
0.0
  0
LINE
  5
87
330
1F
100
AcDbEntity
  8
Layer 04
  6
Continuous
100
AcDbLine
 10
111.8359999999979
 20
13.816
 30
0.0
 11
112.9999999999979
 21
14.316
 31
0.0
  0
LINE
  5
88
330
1F
100
AcDbEntity
  8
Layer 04
  6
Continuous
100
AcDbLine
 10
111.8359999999979
 20
13.816
 30
0.0
 11
70.16399999999791
 21
13.816
 31
0.0
  0
LINE
  5
89
330
1F
100
AcDbEntity
  8
Layer 04
  6
Continuous
100
AcDbLine
 10
112.9999999999979
 20
14.316
 30
0.0
 11
68.99999999999793
 21
14.316
 31
0.0
  0
LINE
  5
8A
330
1F
100
AcDbEntity
  8
Layer 04
  6
Continuous
100
AcDbLine
 10
112.9999999999979
 20
14.316
 30
0.0
 11
112.9999999999979
 21
14.816
 31
0.0
  0
POLYLINE
  5
8B
330
1F
100
AcDbEntity
  8
Layer 04
100
AcDb2dPolyline
 66
     1
 10
0.0
 20
0.0
 30
0.0
  0
VERTEX
  5
8C
330
8B
100
AcDbEntity
  8
Layer 04
100
AcDbVertex
100
AcDb2dVertex
 10
68.99999999999793
 20
14.816
 30
0.0
  0
VERTEX
  5
8D
330
8B
100
AcDbEntity
  8
Layer 04
100
AcDbVertex
100
AcDb2dVertex
 10
112.9999999999979
 20
14.816
 30
0.0
  0
SEQEND
  5
8E
330
8B
100
AcDbEntity
  8
Layer 04
  0
SPLINE
  5
8F
330
1F
100
AcDbEntity
  8
Layer 04
  6
Continuous
100
AcDbSpline
210
0.0
220
0.0
230
1.0
 70
    24
 71
     2
 72
     6
 73
     3
 74
     0
 42
0.0000000001
 43
0.0000000001
 40
0.0
 40
0.0
 40
0.0
 40
0.5
 40
0.5
 40
0.5
 10
-60.0
 20
14.316
 30
0.0
 10
-60.0
 20
14.566
 30
0.0
 10
-60.0
 20
14.816
 30
0.0
  0
SPLINE
  5
90
330
1F
100
AcDbEntity
  8
Layer 04
  6
Continuous
100
AcDbSpline
210
0.0
220
0.0
230
1.0
 70
    24
 71
     2
 72
     6
 73
     3
 74
     0
 42
0.0000000001
 43
0.0000000001
 40
0.0
 40
0.0
 40
0.0
 40
0.5
 40
0.5
 40
0.5
 10
-60.0
 20
14.316
 30
0.0
 10
-60.0
 20
14.566
 30
0.0
 10
-60.0
 20
14.816
 30
0.0
  0
SPLINE
  5
91
330
1F
100
AcDbEntity
  8
Layer 04
  6
Continuous
100
AcDbSpline
210
0.0
220
0.0
230
1.0
 70
    24
 71
     2
 72
     6
 73
     3
 74
     0
 42
0.0000000001
 43
0.0000000001
 40
0.0
 40
0.0
 40
0.0
 40
1.266844899741093
 40
1.266844899741093
 40
1.266844899741093
 10
-58.83599999999999
 20
13.816
 30
0.0
 10
-59.41799999999999
 20
14.066
 30
0.0
 10
-60.0
 20
14.316
 30
0.0
  0
SPLINE
  5
92
330
1F
100
AcDbEntity
  8
Layer 04
  6
Continuous
100
AcDbSpline
210
0.0
220
0.0
230
1.0
 70
    24
 71
     2
 72
     6
 73
     3
 74
     0
 42
0.0000000001
 43
0.0000000001
 40
0.0
 40
0.0
 40
0.0
 40
1.266844899741087
 40
1.266844899741087
 40
1.266844899741087
 10
58.836
 20
13.816
 30
0.0
 10
59.418
 20
14.066
 30
0.0
 10
60.0
 20
14.316
 30
0.0
  0
SPLINE
  5
93
330
1F
100
AcDbEntity
  8
Layer 04
  6
Continuous
100
AcDbSpline
210
0.0
220
0.0
230
1.0
 70
    24
 71
     2
 72
     6
 73
     3
 74
     0
 42
0.0000000001
 43
0.0000000001
 40
0.0
 40
0.0
 40
0.0
 40
0.5
 40
0.5
 40
0.5
 10
60.0
 20
14.316
 30
0.0
 10
60.0
 20
14.566
 30
0.0
 10
60.0
 20
14.816
 30
0.0
  0
SPLINE
  5
94
330
1F
100
AcDbEntity
  8
Layer 04
  6
Continuous
100
AcDbSpline
210
0.0
220
0.0
230
1.0
 70
    24
 71
     2
 72
     6
 73
     3
 74
     0
 42
0.0000000001
 43
0.0000000001
 40
0.0
 40
0.0
 40
0.0
 40
111.672
 40
111.672
 40
111.672
 10
58.836
 20
13.816
 30
0.0
 10
0.0000000000000036
 20
13.816
 30
0.0
 10
-58.83599999999999
 20
13.816
 30
0.0
  0
SPLINE
  5
95
330
1F
100
AcDbEntity
  8
Layer 04
  6
Continuous
100
AcDbSpline
210
0.0
220
0.0
230
1.0
 70
    24
 71
     2
 72
     6
 73
     3
 74
     0
 42
0.0000000001
 43
0.0000000001
 40
0.0
 40
0.0
 40
0.0
 40
114.0
 40
114.0
 40
114.0
 10
60.0
 20
14.316
 30
0.0
 10
0.0
 20
14.316
 30
0.0
 10
-60.0
 20
14.316
 30
0.0
  0
SPLINE
  5
96
330
1F
100
AcDbEntity
  8
Layer 04
100
AcDbSpline
210
0.0
220
0.0
230
1.0
 70
    24
 71
     2
 72
     6
 73
     3
 74
     0
 42
0.0000000001
 43
0.0000000001
 40
0.0
 40
0.0
 40
0.0
 40
1.0
 40
1.0
 40
1.0
 10
-60.0
 20
14.816
 30
0.0
 10
0.0
 20
14.816
 30
0.0
 10
60.0
 20
14.816
 30
0.0
  0
ENDSEC
  0
SECTION
  2
OBJECTS
  0
DICTIONARY
  5
C
330
0
100
AcDbDictionary
281
     1
  3
ACAD_GROUP
350
D
  3
ACAD_LAYOUT
350
1A
  3
ACAD_MLEADERSTYLE
350
98
  3
ACAD_MLINESTYLE
350
17
  3
ACAD_PLOTSETTINGS
350
19
  3
ACAD_PLOTSTYLENAME
350
E
  3
ACAD_TABLESTYLE
350
97
  3
ACAD_VISUALSTYLE
350
2A
  0
DICTIONARY
  5
D
102
{ACAD_REACTORS
330
C
102
}
330
C
100
AcDbDictionary
281
     1
  0
DICTIONARY
  5
1A
102
{ACAD_REACTORS
330
C
102
}
330
C
100
AcDbDictionary
281
     1
  3
Layout1
350
1E
  3
Layout2
350
26
  3
Model
350
22
  0
DICTIONARY
  5
98
102
{ACAD_REACTORS
330
C
102
}
330
C
100
AcDbDictionary
281
     1
  0
DICTIONARY
  5
17
102
{ACAD_REACTORS
330
C
102
}
330
C
100
AcDbDictionary
281
     1
  3
Standard
350
18
  0
DICTIONARY
  5
19
102
{ACAD_REACTORS
330
C
102
}
330
C
100
AcDbDictionary
281
     1
  0
ACDBDICTIONARYWDFLT
  5
E
102
{ACAD_REACTORS
330
C
102
}
330
C
100
AcDbDictionary
281
     1
  3
Normal
350
F
100
AcDbDictionaryWithDefault
340
F
  0
DICTIONARY
  5
97
102
{ACAD_REACTORS
330
C
102
}
330
C
100
AcDbDictionary
281
     1
  0
DICTIONARY
  5
2A
102
{ACAD_REACTORS
330
C
102
}
330
C
100
AcDbDictionary
281
     1
  3
2dWireframe
350
2F
  3
3D Hidden
350
31
  3
3dWireframe
350
30
  3
Basic
350
32
  3
Brighten
350
36
  3
ColorChange
350
3A
  3
Conceptual
350
34
  3
Dim
350
35
  3
Facepattern
350
39
  3
Flat
350
2B
  3
FlatWithEdges
350
2C
  3
Gouraud
350
2D
  3
GouraudWithEdges
350
2E
  3
Linepattern
350
38
  3
Realistic
350
33
  3
Thicken
350
37
  0
LAYOUT
  5
1E
102
{ACAD_REACTORS
330
1A
102
}
330
1A
100
AcDbPlotSettings
  1

  2
none_device
  4

  6

 40
0.0
 41
0.0
 42
0.0
 43
0.0
 44
0.0
 45
0.0
 46
0.0
 47
0.0
 48
0.0
 49
0.0
140
0.0
141
0.0
142
1.0
143
1.0
 70
   688
 72
     0
 73
     0
 74
     5
  7

 75
    16
 76
     0
 77
     2
 78
   300
147
1.0
148
0.0
149
0.0
100
AcDbLayout
  1
Layout1
 70
     1
 71
     1
 10
0.0
 20
0.0
 11
12.0
 21
9.0
 12
0.0
 22
0.0
 32
0.0
 14
1.000000000000000E+20
 24
1.000000000000000E+20
 34
1.000000000000000E+20
 15
-1.000000000000000E+20
 25
-1.000000000000000E+20
 35
-1.000000000000000E+20
146
0.0
 13
0.0
 23
0.0
 33
0.0
 16
1.0
 26
0.0
 36
0.0
 17
0.0
 27
1.0
 37
0.0
 76
     0
330
1B
  0
LAYOUT
  5
26
102
{ACAD_REACTORS
330
1A
102
}
330
1A
100
AcDbPlotSettings
  1

  2
none_device
  4

  6

 40
0.0
 41
0.0
 42
0.0
 43
0.0
 44
0.0
 45
0.0
 46
0.0
 47
0.0
 48
0.0
 49
0.0
140
0.0
141
0.0
142
1.0
143
1.0
 70
   688
 72
     0
 73
     0
 74
     5
  7

 75
    16
 76
     0
 77
     2
 78
   300
147
1.0
148
0.0
149
0.0
100
AcDbLayout
  1
Layout2
 70
     1
 71
     2
 10
0.0
 20
0.0
 11
0.0
 21
0.0
 12
0.0
 22
0.0
 32
0.0
 14
0.0
 24
0.0
 34
0.0
 15
0.0
 25
0.0
 35
0.0
146
0.0
 13
0.0
 23
0.0
 33
0.0
 16
1.0
 26
0.0
 36
0.0
 17
0.0
 27
1.0
 37
0.0
 76
     0
330
23
  0
LAYOUT
  5
22
102
{ACAD_REACTORS
330
1A
102
}
330
1A
100
AcDbPlotSettings
  1

  2
none_device
  4

  6

 40
0.0
 41
0.0
 42
0.0
 43
0.0
 44
0.0
 45
0.0
 46
0.0
 47
0.0
 48
0.0
 49
0.0
140
0.0
141
0.0
142
1.0
143
1.0
 70
  1712
 72
     0
 73
     0
 74
     0
  7

 75
     0
 76
     0
 77
     2
 78
   300
147
1.0
148
0.0
149
0.0
100
AcDbLayout
  1
Model
 70
     1
 71
     0
 10
0.0
 20
0.0
 11
12.0
 21
9.0
 12
0.0
 22
0.0
 32
0.0
 14
-60.00000000000001
 24
-0.0000000000006858
 34
0.0
 15
112.9999999999979
 25
73.81600000000014
 35
0.0
146
0.0
 13
0.0
 23
0.0
 33
0.0
 16
1.0
 26
0.0
 36
0.0
 17
0.0
 27
1.0
 37
0.0
 76
     0
330
1F
331
29
  0
MLINESTYLE
  5
18
102
{ACAD_REACTORS
330
17
102
}
330
17
100
AcDbMlineStyle
  2
Standard
 70
     0
  3

 62
   256
 51
90.0
 52
90.0
 71
     2
 49
0.5
 62
   256
  6
BYLAYER
 49
-0.5
 62
   256
  6
BYLAYER
  0
ACDBPLACEHOLDER
  5
F
102
{ACAD_REACTORS
330
E
102
}
330
E
  0
VISUALSTYLE
  5
2F
102
{ACAD_REACTORS
330
2A
102
}
330
2A
100
AcDbVisualStyle
  2
2dWireframe
 70
     4
 71
     0
 72
     2
 73
     0
 90
        0
 40
-0.6
 41
-30.0
 62
     5
 63
     7
421
 16777215
 74
     1
 91
        4
 64
     7
 65
   257
 75
     1
175
     1
 42
1.0
 92
        0
 66
   257
 43
1.0
 76
     1
 77
     6
 78
     2
 67
     7
 79
     5
170
     0
171
     0
290
     0
174
     0
 93
        1
 44
0.0
173
     0
291
     0
 45
0.0
1001
ACAD
1000
AcDbSavedByObjectVersion
1070
     0
  0
VISUALSTYLE
  5
31
102
{ACAD_REACTORS
330
2A
102
}
330
2A
100
AcDbVisualStyle
  2
3D Hidden
 70
     6
 71
     1
 72
     2
 73
     2
 90
        0
 40
-0.6
 41
-30.0
 62
     5
 63
     7
421
 16777215
 74
     2
 91
        2
 64
     7
 65
   257
 75
     2
175
     1
 42
40.0
 92
        0
 66
   257
 43
1.0
 76
     1
 77
     6
 78
     2
 67
     7
 79
     3
170
     0
171
     0
290
     0
174
     0
 93
        1
 44
0.0
173
     0
291
     0
 45
0.0
1001
ACAD
1000
AcDbSavedByObjectVersion
1070
     0
  0
VISUALSTYLE
  5
30
102
{ACAD_REACTORS
330
2A
102
}
330
2A
100
AcDbVisualStyle
  2
3dWireframe
 70
     5
 71
     0
 72
     2
 73
     0
 90
        0
 40
-0.6
 41
-30.0
 62
     5
 63
     7
421
 16777215
 74
     1
 91
        4
 64
     7
 65
   257
 75
     1
175
     1
 42
1.0
 92
        0
 66
   257
 43
1.0
 76
     1
 77
     6
 78
     2
 67
     7
 79
     5
170
     0
171
     0
290
     0
174
     0
 93
        1
 44
0.0
173
     0
291
     0
 45
0.0
1001
ACAD
1000
AcDbSavedByObjectVersion
1070
     0
  0
VISUALSTYLE
  5
32
102
{ACAD_REACTORS
330
2A
102
}
330
2A
100
AcDbVisualStyle
  2
Basic
 70
     7
 71
     1
 72
     0
 73
     1
 90
        0
 40
-0.6
 41
-30.0
 62
     5
 63
     7
421
 16777215
 74
     0
 91
        4
 64
     7
 65
   257
 75
     1
175
     1
 42
1.0
 92
        8
 66
     7
 43
1.0
 76
     1
 77
     6
 78
     2
 67
     7
 79
     5
170
     0
171
     0
290
     0
174
     0
 93
        1
 44
0.0
173
     0
291
     1
 45
0.0
1001
ACAD
1000
AcDbSavedByObjectVersion
1070
     0
  0
VISUALSTYLE
  5
36
102
{ACAD_REACTORS
330
2A
102
}
330
2A
100
AcDbVisualStyle
  2
Brighten
 70
    12
 71
     2
 72
     2
 73
     0
 90
        0
 40
-0.6
 41
-30.0
 62
     5
 63
     7
421
 16777215
 74
     1
 91
        4
 64
     7
 65
   257
 75
     1
175
     1
 42
1.0
 92
        8
 66
     7
 43
1.0
 76
     1
 77
     6
 78
     2
 67
     7
 79
     5
170
     0
171
     0
290
     0
174
     0
 93
        1
 44
50.0
173
     0
291
     1
 45
0.0
1001
ACAD
1000
AcDbSavedByObjectVersion
1070
     0
  0
VISUALSTYLE
  5
3A
102
{ACAD_REACTORS
330
2A
102
}
330
2A
100
AcDbVisualStyle
  2
ColorChange
 70
    16
 71
     2
 72
     2
 73
     3
 90
        0
 40
-0.6
 41
-30.0
 62
     5
 63
     8
421
  8421504
 74
     1
 91
        4
 64
     7
 65
   257
 75
     1
175
     1
 42
1.0
 92
        8
 66
     8
424
  8421504
 43
1.0
 76
     1
 77
     6
 78
     2
 67
     7
 79
     5
170
     0
171
     0
290
     0
174
     0
 93
        1
 44
0.0
173
     0
291
     1
 45
0.0
1001
ACAD
1000
AcDbSavedByObjectVersion
1070
     0
  0
VISUALSTYLE
  5
34
102
{ACAD_REACTORS
330
2A
102
}
330
2A
100
AcDbVisualStyle
  2
Conceptual
 70
     9
 71
     3
 72
     2
 73
     0
 90
        0
 40
-0.6
 41
-30.0
 62
     5
 63
     7
421
 16777215
 74
     2
 91
        2
 64
     7
 65
   257
 75
     1
175
     1
 42
40.0
 92
        8
 66
     7
 43
1.0
 76
     1
 77
     6
 78
     2
 67
     7
 79
     3
170
     0
171
     0
290
     0
174
     0
 93
        1
 44
0.0
173
     0
291
     0
 45
0.0
1001
ACAD
1000
AcDbSavedByObjectVersion
1070
     0
  0
VISUALSTYLE
  5
35
102
{ACAD_REACTORS
330
2A
102
}
330
2A
100
AcDbVisualStyle
  2
Dim
 70
    11
 71
     2
 72
     2
 73
     0
 90
        0
 40
-0.6
 41
-30.0
 62
     5
 63
     7
421
 16777215
 74
     1
 91
        4
 64
     7
 65
   257
 75
     1
175
     1
 42
1.0
 92
        8
 66
     7
 43
1.0
 76
     1
 77
     6
 78
     2
 67
     7
 79
     5
170
     0
171
     0
290
     0
174
     0
 93
        1
 44
-50.0
173
     0
291
     1
 45
0.0
1001
ACAD
1000
AcDbSavedByObjectVersion
1070
     0
  0
VISUALSTYLE
  5
39
102
{ACAD_REACTORS
330
2A
102
}
330
2A
100
AcDbVisualStyle
  2
Facepattern
 70
    15
 71
     2
 72
     2
 73
     0
 90
        0
 40
-0.6
 41
-30.0
 62
     5
 63
     7
421
 16777215
 74
     1
 91
        4
 64
     7
 65
   257
 75
     1
175
     1
 42
1.0
 92
        8
 66
     7
 43
1.0
 76
     1
 77
     6
 78
     2
 67
     7
 79
     5
170
     0
171
     0
290
     0
174
     0
 93
        1
 44
0.0
173
     0
291
     1
 45
0.0
1001
ACAD
1000
AcDbSavedByObjectVersion
1070
     0
  0
VISUALSTYLE
  5
2B
102
{ACAD_REACTORS
330
2A
102
}
330
2A
100
AcDbVisualStyle
  2
Flat
 70
     0
 71
     2
 72
     1
 73
     1
 90
        2
 40
-0.6
 41
30.0
 62
     5
 63
     7
421
 16777215
 74
     0
 91
        4
 64
     7
 65
   257
 75
     1
175
     1
 42
1.0
 92
        8
 66
     7
 43
1.0
 76
     1
 77
     6
 78
     2
 67
     7
 79
     5
170
     0
171
     0
290
     0
174
     0
 93
       13
 44
0.0
173
     0
291
     1
 45
0.0
1001
ACAD
1000
AcDbSavedByObjectVersion
1070
     0
  0
VISUALSTYLE
  5
2C
102
{ACAD_REACTORS
330
2A
102
}
330
2A
100
AcDbVisualStyle
  2
FlatWithEdges
 70
     1
 71
     2
 72
     1
 73
     1
 90
        2
 40
-0.6
 41
30.0
 62
     5
 63
     7
421
 16777215
 74
     1
 91
        4
 64
     7
 65
   257
 75
     1
175
     1
 42
1.0
 92
        0
 66
   257
 43
1.0
 76
     1
 77
     6
 78
     2
 67
     7
 79
     5
170
     0
171
     0
290
     0
174
     0
 93
       13
 44
0.0
173
     0
291
     1
 45
0.0
1001
ACAD
1000
AcDbSavedByObjectVersion
1070
     0
  0
VISUALSTYLE
  5
2D
102
{ACAD_REACTORS
330
2A
102
}
330
2A
100
AcDbVisualStyle
  2
Gouraud
 70
     2
 71
     2
 72
     2
 73
     1
 90
        2
 40
-0.6
 41
30.0
 62
     5
 63
     7
421
 16777215
 74
     0
 91
        4
 64
     7
 65
   257
 75
     1
175
     1
 42
1.0
 92
        0
 66
     7
 43
1.0
 76
     1
 77
     6
 78
     2
 67
     7
 79
     5
170
     0
171
     0
290
     0
174
     0
 93
       13
 44
0.0
173
     0
291
     1
 45
0.0
1001
ACAD
1000
AcDbSavedByObjectVersion
1070
     0
  0
VISUALSTYLE
  5
2E
102
{ACAD_REACTORS
330
2A
102
}
330
2A
100
AcDbVisualStyle
  2
GouraudWithEdges
 70
     3
 71
     2
 72
     2
 73
     1
 90
        2
 40
-0.6
 41
30.0
 62
     5
 63
     7
421
 16777215
 74
     1
 91
        4
 64
     7
 65
   257
 75
     1
175
     1
 42
1.0
 92
        0
 66
   257
 43
1.0
 76
     1
 77
     6
 78
     2
 67
     7
 79
     5
170
     0
171
     0
290
     0
174
     0
 93
       13
 44
0.0
173
     0
291
     1
 45
0.0
1001
ACAD
1000
AcDbSavedByObjectVersion
1070
     0
  0
VISUALSTYLE
  5
38
102
{ACAD_REACTORS
330
2A
102
}
330
2A
100
AcDbVisualStyle
  2
Linepattern
 70
    14
 71
     2
 72
     2
 73
     0
 90
        0
 40
-0.6
 41
-30.0
 62
     5
 63
     7
421
 16777215
 74
     1
 91
        4
 64
     7
 65
   257
 75
     7
175
     7
 42
1.0
 92
        8
 66
     7
 43
1.0
 76
     1
 77
     6
 78
     2
 67
     7
 79
     5
170
     0
171
     0
290
     0
174
     0
 93
        1
 44
0.0
173
     0
291
     1
 45
0.0
1001
ACAD
1000
AcDbSavedByObjectVersion
1070
     0
  0
VISUALSTYLE
  5
33
102
{ACAD_REACTORS
330
2A
102
}
330
2A
100
AcDbVisualStyle
  2
Realistic
 70
     8
 71
     2
 72
     2
 73
     0
 90
        0
 40
-0.6
 41
-30.0
 62
     5
 63
     7
421
 16777215
 74
     1
 91
        0
 64
     7
 65
   257
 75
     1
175
     1
 42
1.0
 92
        8
 66
     8
424
  7895160
 43
1.0
 76
     1
 77
     6
 78
     2
 67
     7
 79
     5
170
     0
171
     0
290
     0
174
     0
 93
       13
 44
0.0
173
     0
291
     0
 45
0.0
1001
ACAD
1000
AcDbSavedByObjectVersion
1070
     0
  0
VISUALSTYLE
  5
37
102
{ACAD_REACTORS
330
2A
102
}
330
2A
100
AcDbVisualStyle
  2
Thicken
 70
    13
 71
     2
 72
     2
 73
     0
 90
        0
 40
-0.6
 41
-30.0
 62
     5
 63
     7
421
 16777215
 74
     1
 91
        4
 64
     7
 65
   257
 75
     1
175
     1
 42
1.0
 92
       12
 66
     7
 43
1.0
 76
     1
 77
     6
 78
     2
 67
     7
 79
     5
170
     0
171
     0
290
     0
174
     0
 93
        1
 44
0.0
173
     0
291
     1
 45
0.0
1001
ACAD
1000
AcDbSavedByObjectVersion
1070
     0
  0
ENDSEC
  0
EOF
