  0
SECTION
  2
HEADER
  9
$ACADVER
  1
AC1018
  9
$ACADMAINTVER
 70
     0
  9
$DWGCODEPAGE
  3
ANSI_1252
  9
$INSBASE
 10
0.0
 20
0.0
 30
0.0
  9
$EXTMIN
 10
-60.00000000000413
 20
-0.0050000000000009
 30
0.0
  9
$EXTMAX
 10
112.9999999999979
 20
87.81800000000013
 30
0.0
  9
$LIMMIN
 10
0.0
 20
0.0
  9
$LIMMAX
 10
12.0
 20
9.0
  9
$ORTHOMODE
 70
     0
  9
$REGENMODE
 70
     1
  9
$FILLMODE
 70
     1
  9
$QTEXTMODE
 70
     0
  9
$MIRRTEXT
 70
     1
  9
$LTSCALE
 40
0.0393700787401575
  9
$ATTMODE
 70
     1
  9
$TEXTSIZE
 40
0.2
  9
$TRACEWID
 40
0.05
  9
$TEXTSTYLE
  7
Standard
  9
$CLAYER
  8
Default
  9
$CELTYPE
  6
ByLayer
  9
$CECOLOR
 62
   256
  9
$CELTSCALE
 40
1.0
  9
$DISPSILH
 70
     0
  9
$DIMSCALE
 40
1.0
  9
$DIMASZ
 40
0.18
  9
$DIMEXO
 40
0.0625
  9
$DIMDLI
 40
0.38
  9
$DIMRND
 40
0.0
  9
$DIMDLE
 40
0.0
  9
$DIMEXE
 40
0.18
  9
$DIMTP
 40
0.0
  9
$DIMTM
 40
0.0
  9
$DIMTXT
 40
0.18
  9
$DIMCEN
 40
0.09
  9
$DIMTSZ
 40
0.0
  9
$DIMTOL
 70
     0
  9
$DIMLIM
 70
     0
  9
$DIMTIH
 70
     1
  9
$DIMTOH
 70
     1
  9
$DIMSE1
 70
     0
  9
$DIMSE2
 70
     0
  9
$DIMTAD
 70
     0
  9
$DIMZIN
 70
     0
  9
$DIMBLK
  1

  9
$DIMASO
 70
     1
  9
$DIMSHO
 70
     1
  9
$DIMPOST
  1

  9
$DIMAPOST
  1

  9
$DIMALT
 70
     0
  9
$DIMALTD
 70
     2
  9
$DIMALTF
 40
25.4
  9
$DIMLFAC
 40
1.0
  9
$DIMTOFL
 70
     0
  9
$DIMTVP
 40
0.0
  9
$DIMTIX
 70
     0
  9
$DIMSOXD
 70
     0
  9
$DIMSAH
 70
     0
  9
$DIMBLK1
  1

  9
$DIMBLK2
  1

  9
$DIMSTYLE
  2
Standard
  9
$DIMCLRD
 70
     0
  9
$DIMCLRE
 70
     0
  9
$DIMCLRT
 70
     0
  9
$DIMTFAC
 40
1.0
  9
$DIMGAP
 40
0.09
  9
$DIMJUST
 70
     0
  9
$DIMSD1
 70
     0
  9
$DIMSD2
 70
     0
  9
$DIMTOLJ
 70
     1
  9
$DIMTZIN
 70
     0
  9
$DIMALTZ
 70
     0
  9
$DIMALTTZ
 70
     0
  9
$DIMUPT
 70
     0
  9
$DIMDEC
 70
     4
  9
$DIMTDEC
 70
     4
  9
$DIMALTU
 70
     2
  9
$DIMALTTD
 70
     2
  9
$DIMTXSTY
  7
Standard
  9
$DIMAUNIT
 70
     0
  9
$DIMADEC
 70
     0
  9
$DIMALTRND
 40
0.0
  9
$DIMAZIN
 70
     0
  9
$DIMDSEP
 70
    46
  9
$DIMATFIT
 70
     3
  9
$DIMFRAC
 70
     0
  9
$DIMLDRBLK
  1

  9
$DIMLUNIT
 70
     2
  9
$DIMLWD
 70
    -2
  9
$DIMLWE
 70
    -2
  9
$DIMTMOVE
 70
     2
  9
$LUNITS
 70
     2
  9
$LUPREC
 70
     4
  9
$SKETCHINC
 40
0.1
  9
$FILLETRAD
 40
0.5
  9
$AUNITS
 70
     0
  9
$AUPREC
 70
     0
  9
$MENU
  1
.
  9
$ELEVATION
 40
0.0
  9
$PELEVATION
 40
0.0
  9
$THICKNESS
 40
0.0
  9
$LIMCHECK
 70
     0
  9
$CHAMFERA
 40
0.5
  9
$CHAMFERB
 40
0.5
  9
$CHAMFERC
 40
1.0
  9
$CHAMFERD
 40
0.0
  9
$SKPOLY
 70
     0
  9
$TDCREATE
 40
2456790.672676053
  9
$TDUCREATE
 40
2456790.83934272
  9
$TDUPDATE
 40
2456790.672676065
  9
$TDUUPDATE
 40
2456790.839342732
  9
$TDINDWG
 40
0.0000000116
  9
$TDUSRTIMER
 40
0.0000000116
  9
$USRTIMER
 70
     1
  9
$ANGBASE
 50
0.0
  9
$ANGDIR
 70
     0
  9
$PDMODE
 70
     0
  9
$PDSIZE
 40
0.0
  9
$PLINEWID
 40
0.0
  9
$SPLFRAME
 70
     0
  9
$SPLINETYPE
 70
     6
  9
$SPLINESEGS
 70
     8
  9
$HANDSEED
  5
9A
  9
$SURFTAB1
 70
     6
  9
$SURFTAB2
 70
     6
  9
$SURFTYPE
 70
     6
  9
$SURFU
 70
     6
  9
$SURFV
 70
     6
  9
$UCSBASE
  2

  9
$UCSNAME
  2

  9
$UCSORG
 10
0.0
 20
0.0
 30
0.0
  9
$UCSXDIR
 10
1.0
 20
0.0
 30
0.0
  9
$UCSYDIR
 10
0.0
 20
1.0
 30
0.0
  9
$UCSORTHOREF
  2

  9
$UCSORTHOVIEW
 70
     0
  9
$UCSORGTOP
 10
0.0
 20
0.0
 30
0.0
  9
$UCSORGBOTTOM
 10
0.0
 20
0.0
 30
0.0
  9
$UCSORGLEFT
 10
0.0
 20
0.0
 30
0.0
  9
$UCSORGRIGHT
 10
0.0
 20
0.0
 30
0.0
  9
$UCSORGFRONT
 10
0.0
 20
0.0
 30
0.0
  9
$UCSORGBACK
 10
0.0
 20
0.0
 30
0.0
  9
$PUCSBASE
  2

  9
$PUCSNAME
  2

  9
$PUCSORG
 10
0.0
 20
0.0
 30
0.0
  9
$PUCSXDIR
 10
1.0
 20
0.0
 30
0.0
  9
$PUCSYDIR
 10
0.0
 20
1.0
 30
0.0
  9
$PUCSORTHOREF
  2

  9
$PUCSORTHOVIEW
 70
     0
  9
$PUCSORGTOP
 10
0.0
 20
0.0
 30
0.0
  9
$PUCSORGBOTTOM
 10
0.0
 20
0.0
 30
0.0
  9
$PUCSORGLEFT
 10
0.0
 20
0.0
 30
0.0
  9
$PUCSORGRIGHT
 10
0.0
 20
0.0
 30
0.0
  9
$PUCSORGFRONT
 10
0.0
 20
0.0
 30
0.0
  9
$PUCSORGBACK
 10
0.0
 20
0.0
 30
0.0
  9
$USERI1
 70
     0
  9
$USERI2
 70
     0
  9
$USERI3
 70
     0
  9
$USERI4
 70
     0
  9
$USERI5
 70
     0
  9
$USERR1
 40
0.0
  9
$USERR2
 40
0.0
  9
$USERR3
 40
0.0
  9
$USERR4
 40
0.0
  9
$USERR5
 40
0.0
  9
$WORLDVIEW
 70
     1
  9
$SHADEDGE
 70
     3
  9
$SHADEDIF
 70
    70
  9
$TILEMODE
 70
     1
  9
$MAXACTVP
 70
    64
  9
$PINSBASE
 10
0.0
 20
0.0
 30
0.0
  9
$PLIMCHECK
 70
     0
  9
$PEXTMIN
 10
1.000000000000000E+20
 20
1.000000000000000E+20
 30
1.000000000000000E+20
  9
$PEXTMAX
 10
-1.000000000000000E+20
 20
-1.000000000000000E+20
 30
-1.000000000000000E+20
  9
$PLIMMIN
 10
0.0
 20
0.0
  9
$PLIMMAX
 10
12.0
 20
9.0
  9
$UNITMODE
 70
     0
  9
$VISRETAIN
 70
     1
  9
$PLINEGEN
 70
     0
  9
$PSLTSCALE
 70
     1
  9
$TREEDEPTH
 70
  3020
  9
$CMLSTYLE
  2
Standard
  9
$CMLJUST
 70
     0
  9
$CMLSCALE
 40
1.0
  9
$PROXYGRAPHICS
 70
     1
  9
$MEASUREMENT
 70
     0
  9
$CELWEIGHT
370
    -1
  9
$ENDCAPS
280
     0
  9
$JOINSTYLE
280
     0
  9
$LWDISPLAY
290
     0
  9
$INSUNITS
 70
     1
  9
$HYPERLINKBASE
  1

  9
$STYLESHEET
  1

  9
$XEDIT
290
     1
  9
$CEPSNTYPE
380
     0
  9
$PSTYLEMODE
290
     1
  9
$FINGERPRINTGUID
  2
{91CCF4C8-9D4B-4B65-9CB5-5FC796AF8217}
  9
$VERSIONGUID
  2
{FAEB1C32-E019-11D5-929B-00C0DF256EC4}
  9
$EXTNAMES
290
     1
  9
$PSVPSCALE
 40
0.0
  9
$OLESTARTUP
290
     0
  9
$SORTENTS
280
   127
  9
$INDEXCTL
280
     0
  9
$HIDETEXT
280
     1
  9
$XCLIPFRAME
290
     0
  9
$HALOGAP
280
     0
  9
$OBSCOLOR
 70
   257
  9
$OBSLTYPE
280
     0
  9
$INTERSECTIONDISPLAY
280
     0
  9
$INTERSECTIONCOLOR
 70
   257
  9
$DIMASSOC
280
     2
  9
$PROJECTNAME
  1

  0
ENDSEC
  0
SECTION
  2
CLASSES
  0
CLASS
  1
ACDBDICTIONARYWDFLT
  2
AcDbDictionaryWithDefault
  3
ObjectDBX Classes
 90
        0
 91
        4
280
     0
281
     0
  0
CLASS
  1
VISUALSTYLE
  2
AcDbVisualStyle
  3
ObjectDBX Classes
 90
     4095
 91
        4
280
     0
281
     0
  0
ENDSEC
  0
SECTION
  2
TABLES
  0
TABLE
  2
VPORT
  5
8
330
0
100
AcDbSymbolTable
 70
     1
  0
VPORT
  5
29
330
8
100
AcDbSymbolTableRecord
100
AcDbViewportTableRecord
  2
*Active
 70
     0
 10
0.0
 20
0.0
 11
1.0
 21
1.0
 12
26.49999999999689
 22
43.90650000000007
 13
0.0
 23
0.0
 14
0.5
 24
0.5
 15
0.5
 25
0.5
 16
0.0
 26
0.0
 36
1.0
 17
0.0
 27
0.0
 37
0.0
 40
89.57946000000013
 41
1.96987121824581
 42
50.0
 43
0.0
 44
0.0
 50
0.0
 51
0.0
 71
     0
 72
   100
 73
     1
 74
     3
 75
     0
 76
     0
 77
     0
 78
     0
281
     0
 65
     1
110
0.0
120
0.0
130
0.0
111
1.0
121
0.0
131
0.0
112
0.0
122
1.0
132
0.0
 79
     0
146
0.0
  0
ENDTAB
  0
TABLE
  2
LTYPE
  5
5
330
0
100
AcDbSymbolTable
 70
     1
  0
LTYPE
  5
14
330
5
100
AcDbSymbolTableRecord
100
AcDbLinetypeTableRecord
  2
ByBlock
 70
     0
  3

 72
    65
 73
     0
 40
0.0
  0
LTYPE
  5
15
330
5
100
AcDbSymbolTableRecord
100
AcDbLinetypeTableRecord
  2
ByLayer
 70
     0
  3

 72
    65
 73
     0
 40
0.0
  0
LTYPE
  5
16
330
5
100
AcDbSymbolTableRecord
100
AcDbLinetypeTableRecord
  2
Continuous
 70
     0
  3
Solid line
 72
    65
 73
     0
 40
0.0
  0
ENDTAB
  0
TABLE
  2
LAYER
  5
2
330
0
100
AcDbSymbolTable
 70
     3
  0
LAYER
  5
10
330
2
100
AcDbSymbolTableRecord
100
AcDbLayerTableRecord
  2
0
 70
     0
 62
     7
  6
Continuous
370
    -3
390
F
  0
LAYER
  5
3B
330
2
100
AcDbSymbolTableRecord
100
AcDbLayerTableRecord
  2
Layer 06
 70
     0
 62
     7
  6
Continuous
370
    -3
390
F
  0
LAYER
  5
82
330
2
100
AcDbSymbolTableRecord
100
AcDbLayerTableRecord
  2
Default
 70
     0
 62
     7
  6
Continuous
370
    -3
390
F
  0
ENDTAB
  0
TABLE
  2
STYLE
  5
3
330
0
100
AcDbSymbolTable
 70
     1
  0
STYLE
  5
11
330
3
100
AcDbSymbolTableRecord
100
AcDbTextStyleTableRecord
  2
Standard
 70
     0
 40
0.0
 41
1.0
 50
0.0
 71
     0
 42
0.2
  3
txt
  4

  0
ENDTAB
  0
TABLE
  2
VIEW
  5
6
330
0
100
AcDbSymbolTable
 70
     0
  0
ENDTAB
  0
TABLE
  2
UCS
  5
7
330
0
100
AcDbSymbolTable
 70
     0
  0
ENDTAB
  0
TABLE
  2
APPID
  5
9
330
0
100
AcDbSymbolTable
 70
     1
  0
APPID
  5
12
330
9
100
AcDbSymbolTableRecord
100
AcDbRegAppTableRecord
  2
ACAD
 70
     0
  0
ENDTAB
  0
TABLE
  2
DIMSTYLE
  5
A
330
0
100
AcDbSymbolTable
 70
     1
100
AcDbDimStyleTable
  0
DIMSTYLE
105
27
330
A
100
AcDbSymbolTableRecord
100
AcDbDimStyleTableRecord
  2
Standard
 70
     0
340
11
  0
ENDTAB
  0
TABLE
  2
BLOCK_RECORD
  5
1
330
0
100
AcDbSymbolTable
 70
     1
  0
BLOCK_RECORD
  5
1F
330
1
100
AcDbSymbolTableRecord
100
AcDbBlockTableRecord
  2
*Model_Space
340
22
  0
BLOCK_RECORD
  5
1B
330
1
100
AcDbSymbolTableRecord
100
AcDbBlockTableRecord
  2
*Paper_Space
340
1E
  0
BLOCK_RECORD
  5
23
330
1
100
AcDbSymbolTableRecord
100
AcDbBlockTableRecord
  2
*Paper_Space0
340
26
  0
ENDTAB
  0
ENDSEC
  0
SECTION
  2
BLOCKS
  0
BLOCK
  5
20
330
1F
100
AcDbEntity
  8
0
100
AcDbBlockBegin
  2
*Model_Space
 70
     0
 10
0.0
 20
0.0
 30
0.0
  3
*Model_Space
  1

  0
ENDBLK
  5
21
330
1F
100
AcDbEntity
  8
0
100
AcDbBlockEnd
  0
BLOCK
  5
1C
330
1B
100
AcDbEntity
 67
     1
  8
0
100
AcDbBlockBegin
  2
*Paper_Space
 70
     0
 10
0.0
 20
0.0
 30
0.0
  3
*Paper_Space
  1

  0
ENDBLK
  5
1D
330
1B
100
AcDbEntity
 67
     1
  8
0
100
AcDbBlockEnd
  0
BLOCK
  5
24
330
23
100
AcDbEntity
  8
0
100
AcDbBlockBegin
  2
*Paper_Space0
 70
     0
 10
0.0
 20
0.0
 30
0.0
  3
*Paper_Space0
  1

  0
ENDBLK
  5
25
330
23
100
AcDbEntity
  8
0
100
AcDbBlockEnd
  0
ENDSEC
  0
SECTION
  2
ENTITIES
  0
POLYLINE
  5
3C
330
1F
100
AcDbEntity
  8
Layer 06
100
AcDb2dPolyline
 66
     1
 10
0.0
 20
0.0
 30
0.0
  0
VERTEX
  5
3D
330
3C
100
AcDbEntity
  8
Layer 06
100
AcDbVertex
100
AcDb2dVertex
 10
102.8125280629979
 20
23.8048129297
 30
0.0
  0
VERTEX
  5
3E
330
3C
100
AcDbEntity
  8
Layer 06
100
AcDbVertex
100
AcDb2dVertex
 10
106.4914082593979
 20
0.2306492338999959
 30
0.0
  0
SEQEND
  5
3F
330
3C
100
AcDbEntity
  8
Layer 06
  0
SPLINE
  5
40
330
1F
100
AcDbEntity
  8
Layer 06
100
AcDbSpline
210
0.0
220
0.0
230
1.0
 70
     8
 71
     2
 72
     7
 73
     4
 74
     0
 42
0.0000000001
 43
0.0000000001
 40
-2.0
 40
-2.0
 40
-2.0
 40
-1.0
 40
0.0
 40
0.0
 40
0.0
 10
106.4914082593979
 20
0.2306492338999959
 30
0.0
 10
106.4955420280574
 20
0.2050313662559923
 30
0.0
 10
106.5347480722811
 20
0.171429538028279
 30
0.0
 10
106.5606405451979
 20
0.1709999999999994
 30
0.0
  0
SPLINE
  5
41
330
1F
100
AcDbEntity
  8
Layer 06
100
AcDbSpline
210
0.0
220
0.0
230
1.0
 70
     8
 71
     5
 72
    12
 73
     6
 74
     0
 42
0.0000000001
 43
0.0000000001
 40
-1.0
 40
-1.0
 40
-1.0
 40
-1.0
 40
-1.0
 40
-1.0
 40
0.0
 40
0.0
 40
0.0
 40
0.0
 40
0.0
 40
0.0
 10
101.5741216040979
 20
25.068
 30
0.0
 10
101.9279177110306
 20
25.068
 30
0.0
 10
102.2817138179633
 20
25.068
 30
0.0
 10
102.7034248602036
 20
24.50394326966742
 30
0.0
 10
102.7579764616008
 20
24.15437809968371
 30
0.0
 10
102.8125280629979
 20
23.8048129297
 30
0.0
  0
POLYLINE
  5
42
330
1F
100
AcDbEntity
  8
Layer 06
100
AcDb2dPolyline
 66
     1
 10
0.0
 20
0.0
 30
0.0
  0
VERTEX
  5
43
330
42
100
AcDbEntity
  8
Layer 06
100
AcDbVertex
100
AcDb2dVertex
 10
106.5606405451979
 20
0.1709999999999994
 30
0.0
  0
VERTEX
  5
44
330
42
100
AcDbEntity
  8
Layer 06
100
AcDbVertex
100
AcDb2dVertex
 10
107.9352118493018
 20
0.1709999999999994
 30
0.0
  0
SEQEND
  5
45
330
42
100
AcDbEntity
  8
Layer 06
  0
POLYLINE
  5
46
330
1F
100
AcDbEntity
  8
Layer 06
100
AcDb2dPolyline
 66
     1
 10
0.0
 20
0.0
 30
0.0
  0
VERTEX
  5
47
330
46
100
AcDbEntity
  8
Layer 06
100
AcDbVertex
100
AcDb2dVertex
 10
108.0175423744979
 20
0.2538448863000013
 30
0.0
  0
VERTEX
  5
48
330
46
100
AcDbEntity
  8
Layer 06
100
AcDbVertex
100
AcDb2dVertex
 10
104.6627135830369
 20
27.81206494770734
 30
0.0
  0
SEQEND
  5
49
330
46
100
AcDbEntity
  8
Layer 06
  0
LINE
  5
4A
330
1F
100
AcDbEntity
  8
Layer 06
  6
Continuous
100
AcDbLine
 10
107.8930408885979
 20
-0.0050000000000009
 30
0.0
 11
106.6831583012979
 21
-0.0050000000000009
 31
0.0
  0
SPLINE
  5
4B
330
1F
100
AcDbEntity
  8
Layer 06
100
AcDbSpline
210
0.0
220
0.0
230
1.0
 70
     8
 71
     5
 72
    12
 73
     6
 74
     0
 42
0.0000000001
 43
0.0000000001
 40
0.0
 40
0.0
 40
0.0
 40
0.0
 40
0.0
 40
0.0
 40
1.0
 40
1.0
 40
1.0
 40
1.0
 40
1.0
 40
1.0
 10
107.9352118493018
 20
0.1709999999999994
 30
0.0
 10
107.9585712932722
 20
0.1709999999999994
 30
0.0
 10
107.9819307372426
 20
0.1709999999999994
 30
0.0
 10
108.02318806748
 20
0.2074683767162384
 30
0.0
 10
108.020365220989
 20
0.2306566315081199
 30
0.0
 10
108.0175423744979
 20
0.2538448863000013
 30
0.0
  0
ARC
  5
4C
330
1F
100
AcDbEntity
  8
Layer 06
  6
Continuous
100
AcDbCircle
 10
107.8930408885979
 20
0.0887678608999991
 30
0.0
 40
0.0937678609
100
AcDbArc
 50
270.0
 51
61.2796732020979
  0
ARC
  5
4D
330
1F
100
AcDbEntity
  8
Layer 06
  6
Continuous
100
AcDbCircle
 10
106.6831583012979
 20
0.0887678608999991
 30
0.0
 40
0.0937678609
100
AcDbArc
 50
118.7203267979021
 51
270.0
  0
POLYLINE
  5
4E
330
1F
100
AcDbEntity
  8
Layer 06
100
AcDb2dPolyline
 66
     1
 10
0.0
 20
0.0
 30
0.0
  0
VERTEX
  5
4F
330
4E
100
AcDbEntity
  8
Layer 06
100
AcDbVertex
100
AcDb2dVertex
 10
100.9999999999979
 20
25.068
 30
0.0
  0
VERTEX
  5
50
330
4E
100
AcDbEntity
  8
Layer 06
100
AcDbVertex
100
AcDb2dVertex
 10
100.9999999999979
 20
27.818
 30
0.0
  0
SEQEND
  5
51
330
4E
100
AcDbEntity
  8
Layer 06
  0
LINE
  5
52
330
1F
100
AcDbEntity
  8
Layer 06
100
AcDbLine
 10
100.9999999999979
 20
25.068
 30
0.0
 11
101.5741216040979
 21
25.068
 31
0.0
  0
LINE
  5
53
330
1F
100
AcDbEntity
  8
Layer 06
100
AcDbLine
 10
80.9999999999979
 20
25.068
 30
0.0
 11
80.42587839589791
 21
25.068
 31
0.0
  0
SPLINE
  5
54
330
1F
100
AcDbEntity
  8
Layer 06
100
AcDbSpline
210
0.0
220
0.0
230
1.0
 70
     8
 71
     5
 72
    12
 73
     6
 74
     0
 42
0.0000000001
 43
0.0000000001
 40
-1.0
 40
-1.0
 40
-1.0
 40
-1.0
 40
-1.0
 40
-1.0
 40
0.0
 40
0.0
 40
0.0
 40
0.0
 40
0.0
 40
0.0
 10
80.42587839589791
 20
25.068
 30
0.0
 10
80.07208228896522
 20
25.068
 30
0.0
 10
79.71828618203251
 20
25.068
 30
0.0
 10
79.29657513979218
 20
24.50394326966742
 30
0.0
 10
79.24202353839505
 20
24.15437809968371
 30
0.0
 10
79.1874719369979
 20
23.8048129297
 30
0.0
  0
POLYLINE
  5
55
330
1F
100
AcDbEntity
  8
Layer 06
100
AcDb2dPolyline
 66
     1
 10
0.0
 20
0.0
 30
0.0
  0
VERTEX
  5
56
330
55
100
AcDbEntity
  8
Layer 06
100
AcDbVertex
100
AcDb2dVertex
 10
73.98245762549789
 20
0.2538448863000013
 30
0.0
  0
VERTEX
  5
57
330
55
100
AcDbEntity
  8
Layer 06
100
AcDbVertex
100
AcDb2dVertex
 10
77.33728641695893
 20
27.81206494770734
 30
0.0
  0
SEQEND
  5
58
330
55
100
AcDbEntity
  8
Layer 06
  0
POLYLINE
  5
59
330
1F
100
AcDbEntity
  8
Layer 06
100
AcDb2dPolyline
 66
     1
 10
0.0
 20
0.0
 30
0.0
  0
VERTEX
  5
5A
330
59
100
AcDbEntity
  8
Layer 06
100
AcDbVertex
100
AcDb2dVertex
 10
80.9999999999979
 20
25.068
 30
0.0
  0
VERTEX
  5
5B
330
59
100
AcDbEntity
  8
Layer 06
100
AcDbVertex
100
AcDb2dVertex
 10
80.9999999999979
 20
27.818
 30
0.0
  0
SEQEND
  5
5C
330
59
100
AcDbEntity
  8
Layer 06
  0
ARC
  5
5D
330
1F
100
AcDbEntity
  8
Layer 06
  6
Continuous
100
AcDbCircle
 10
75.31684169869789
 20
0.0887678608999991
 30
0.0
 40
0.0937678609
100
AcDbArc
 50
270.0
 51
61.27967320209792
  0
POLYLINE
  5
5E
330
1F
100
AcDbEntity
  8
Layer 06
100
AcDb2dPolyline
 66
     1
 10
0.0
 20
0.0
 30
0.0
  0
VERTEX
  5
5F
330
5E
100
AcDbEntity
  8
Layer 06
100
AcDbVertex
100
AcDb2dVertex
 10
75.43935945479791
 20
0.1709999999999994
 30
0.0
  0
VERTEX
  5
60
330
5E
100
AcDbEntity
  8
Layer 06
100
AcDbVertex
100
AcDb2dVertex
 10
74.064788150694
 20
0.1709999999999994
 30
0.0
  0
SEQEND
  5
61
330
5E
100
AcDbEntity
  8
Layer 06
  0
SPLINE
  5
62
330
1F
100
AcDbEntity
  8
Layer 06
100
AcDbSpline
210
0.0
220
0.0
230
1.0
 70
     8
 71
     2
 72
     7
 73
     4
 74
     0
 42
0.0000000001
 43
0.0000000001
 40
-2.0
 40
-2.0
 40
-2.0
 40
-1.0
 40
0.0
 40
0.0
 40
0.0
 10
75.5085917405979
 20
0.2306492338999959
 30
0.0
 10
75.50445797193845
 20
0.2050313662559923
 30
0.0
 10
75.46525192771475
 20
0.171429538028279
 30
0.0
 10
75.43935945479791
 20
0.1709999999999994
 30
0.0
  0
POLYLINE
  5
63
330
1F
100
AcDbEntity
  8
Layer 06
100
AcDb2dPolyline
 66
     1
 10
0.0
 20
0.0
 30
0.0
  0
VERTEX
  5
64
330
63
100
AcDbEntity
  8
Layer 06
100
AcDbVertex
100
AcDb2dVertex
 10
79.1874719369979
 20
23.8048129297
 30
0.0
  0
VERTEX
  5
65
330
63
100
AcDbEntity
  8
Layer 06
100
AcDbVertex
100
AcDb2dVertex
 10
75.5085917405979
 20
0.2306492338999959
 30
0.0
  0
SEQEND
  5
66
330
63
100
AcDbEntity
  8
Layer 06
  0
LINE
  5
67
330
1F
100
AcDbEntity
  8
Layer 06
  6
Continuous
100
AcDbLine
 10
74.10695911139791
 20
-0.0050000000000009
 30
0.0
 11
75.31684169869789
 21
-0.0050000000000009
 31
0.0
  0
ARC
  5
68
330
1F
100
AcDbEntity
  8
Layer 06
  6
Continuous
100
AcDbCircle
 10
74.10695911139791
 20
0.0887678608999991
 30
0.0
 40
0.0937678609
100
AcDbArc
 50
118.7203267979021
 51
270.0
  0
SPLINE
  5
69
330
1F
100
AcDbEntity
  8
Layer 06
100
AcDbSpline
210
0.0
220
0.0
230
1.0
 70
     8
 71
     5
 72
    12
 73
     6
 74
     0
 42
0.0000000001
 43
0.0000000001
 40
0.0
 40
0.0
 40
0.0
 40
0.0
 40
0.0
 40
0.0
 40
1.0
 40
1.0
 40
1.0
 40
1.0
 40
1.0
 40
1.0
 10
74.064788150694
 20
0.1709999999999994
 30
0.0
 10
74.04142870672362
 20
0.1709999999999994
 30
0.0
 10
74.01806926275324
 20
0.1709999999999994
 30
0.0
 10
73.97681193251582
 20
0.2074683767162384
 30
0.0
 10
73.97963477900686
 20
0.2306566315081199
 30
0.0
 10
73.98245762549789
 20
0.2538448863000013
 30
0.0
  0
SPLINE
  5
6A
330
1F
100
AcDbEntity
  8
Layer 06
  6
Continuous
100
AcDbSpline
210
0.0
220
0.0
230
1.0
 70
    24
 71
     2
 72
     6
 73
     3
 74
     0
 42
0.0000000001
 43
0.0000000001
 40
0.0
 40
0.0
 40
0.0
 40
2.73500000000022
 40
2.73500000000022
 40
2.73500000000022
 10
47.9999999999999
 20
27.803
 30
0.0
 10
47.99999999999988
 20
26.43549999999989
 30
0.0
 10
47.99999999999986
 20
25.06799999999978
 30
0.0
  0
SPLINE
  5
6B
330
1F
100
AcDbEntity
  8
Layer 06
  6
Continuous
100
AcDbSpline
210
0.0
220
0.0
230
1.0
 70
    12
 71
     2
 72
     8
 73
     5
 74
     0
 42
0.0000000001
 43
0.0000000001
 40
0.0
 40
0.0
 40
0.0
 40
0.1237889725417989
 40
0.1237889725417989
 40
0.2475779450835977
 40
0.2475779450835977
 40
0.2475779450835977
 10
53.65809959489681
 20
0.1760000000855945
 30
0.0
 41
1.0
 10
53.59426800955968
 20
0.1410237889419137
 30
0.0
 41
0.7899418936709716
 10
53.61232013881735
 20
0.0705118944709574
 30
0.0
 41
1.0
 10
53.63037226807502
 20
0.0
 30
0.0
 41
0.7899418936709716
 10
53.70315830129994
 20
0.0000000000000017
 30
0.0
 41
1.0
  0
SPLINE
  5
6C
330
1F
100
AcDbEntity
  8
Layer 06
  6
Continuous
100
AcDbSpline
210
0.0
220
0.0
230
1.0
 70
    24
 71
     2
 72
     6
 73
     3
 74
     0
 42
0.0000000001
 43
0.0000000001
 40
0.0
 40
0.0
 40
0.0
 40
1.209882587299958
 40
1.209882587299958
 40
1.209882587299958
 10
54.91304088859989
 20
0.0000000000000017
 30
0.0
 10
54.30809959494992
 20
0.0000000000000017
 30
0.0
 10
53.70315830129993
 20
0.0000000000000017
 30
0.0
  0
SPLINE
  5
6D
330
1F
100
AcDbEntity
  8
Layer 06
  6
Continuous
100
AcDbSpline
210
0.0
220
0.0
230
1.0
 70
    12
 71
     2
 72
     8
 73
     5
 74
     0
 42
0.0000000001
 43
0.0000000001
 40
0.0
 40
0.0
 40
0.0
 40
0.1237889725418018
 40
0.1237889725418018
 40
0.2475779450836037
 40
0.2475779450836037
 40
0.2475779450836037
 10
54.91304088859989
 20
0.0000000000000017
 30
0.0
 41
1.0
 10
54.9858269218248
 20
-0.0000000000000038
 30
0.0
 41
0.7899418936709618
 10
55.00387905108249
 20
0.070511894470954
 30
0.0
 41
1.0
 10
55.02193118034015
 20
0.1410237889419118
 30
0.0
 41
0.7899418936709618
 10
54.95809959500302
 20
0.1760000000855943
 30
0.0
 41
1.0
  0
SPLINE
  5
6E
330
1F
100
AcDbEntity
  8
Layer 06
100
AcDbSpline
210
0.0
220
0.0
230
1.0
 70
    24
 71
     2
 72
     6
 73
     3
 74
     0
 42
0.0000000001
 43
0.0000000001
 40
0.0
 40
0.0
 40
0.0
 40
1.0
 40
1.0
 40
1.0
 10
55.03754237449994
 20
0.2588448863000039
 30
0.0
 10
53.36012797876941
 20
14.03795491700367
 30
0.0
 10
51.68271358303888
 20
27.81706494770734
 30
0.0
  0
SPLINE
  5
6F
330
1F
100
AcDbEntity
  8
Layer 06
100
AcDbSpline
210
0.0
220
0.0
230
1.0
 70
     8
 71
     5
 72
    12
 73
     6
 74
     0
 42
0.0000000001
 43
0.0000000001
 40
0.0
 40
0.0
 40
0.0
 40
0.0
 40
0.0
 40
0.0
 40
1.0
 40
1.0
 40
1.0
 40
1.0
 40
1.0
 40
1.0
 10
54.95521184930382
 20
0.1760000000000019
 30
0.0
 10
54.97857129327418
 20
0.1760000000000019
 30
0.0
 10
55.00193073724456
 20
0.1760000000000019
 30
0.0
 10
55.043188067482
 20
0.2124683767162409
 30
0.0
 10
55.04036522099096
 20
0.2356566315081224
 30
0.0
 10
55.03754237449994
 20
0.2588448863000039
 30
0.0
  0
SPLINE
  5
70
330
1F
100
AcDbEntity
  8
Layer 06
100
AcDbSpline
210
0.0
220
0.0
230
1.0
 70
    24
 71
     2
 72
     6
 73
     3
 74
     0
 42
0.0000000001
 43
0.0000000001
 40
0.0
 40
0.0
 40
0.0
 40
1.0
 40
1.0
 40
1.0
 10
53.58064054519991
 20
0.1760000000000019
 30
0.0
 10
54.26792619725186
 20
0.1760000000000019
 30
0.0
 10
54.95521184930382
 20
0.1760000000000019
 30
0.0
  0
SPLINE
  5
71
330
1F
100
AcDbEntity
  8
Layer 06
100
AcDbSpline
210
0.0
220
0.0
230
1.0
 70
     8
 71
     2
 72
     7
 73
     4
 74
     0
 42
0.0000000001
 43
0.0000000001
 40
-2.0
 40
-2.0
 40
-2.0
 40
-1.0
 40
0.0
 40
0.0
 40
0.0
 10
53.51140825939992
 20
0.2356492338999985
 30
0.0
 10
53.51554202805935
 20
0.2100313662559949
 30
0.0
 10
53.55474807228308
 20
0.1764295380282815
 30
0.0
 10
53.58064054519991
 20
0.1760000000000019
 30
0.0
  0
SPLINE
  5
72
330
1F
100
AcDbEntity
  8
Layer 06
100
AcDbSpline
210
0.0
220
0.0
230
1.0
 70
    24
 71
     2
 72
     6
 73
     3
 74
     0
 42
0.0000000001
 43
0.0000000001
 40
0.0
 40
0.0
 40
0.0
 40
1.0
 40
1.0
 40
1.0
 10
49.83252806299992
 20
23.8098129297
 30
0.0
 10
51.67196816119992
 20
12.0227310818
 30
0.0
 10
53.51140825939992
 20
0.2356492338999985
 30
0.0
  0
SPLINE
  5
73
330
1F
100
AcDbEntity
  8
Layer 06
100
AcDbSpline
210
0.0
220
0.0
230
1.0
 70
     8
 71
     5
 72
    12
 73
     6
 74
     0
 42
0.0000000001
 43
0.0000000001
 40
-1.0
 40
-1.0
 40
-1.0
 40
-1.0
 40
-1.0
 40
-1.0
 40
0.0
 40
0.0
 40
0.0
 40
0.0
 40
0.0
 40
0.0
 10
48.5941216040999
 20
25.073
 30
0.0
 10
48.9479177110326
 20
25.073
 30
0.0
 10
49.3017138179653
 20
25.073
 30
0.0
 10
49.72342486020563
 20
24.50894326966743
 30
0.0
 10
49.77797646160277
 20
24.15937809968371
 30
0.0
 10
49.83252806299992
 20
23.8098129297
 30
0.0
  0
SPLINE
  5
74
330
1F
100
AcDbEntity
  8
Layer 06
100
AcDbSpline
210
0.0
220
0.0
230
1.0
 70
    24
 71
     2
 72
     6
 73
     3
 74
     0
 42
0.0000000001
 43
0.0000000001
 40
0.0
 40
0.0
 40
0.0
 40
0.5741216040999788
 40
0.5741216040999788
 40
0.5741216040999788
 10
48.01999999999992
 20
25.073
 30
0.0
 10
48.30706080204991
 20
25.073
 30
0.0
 10
48.5941216040999
 20
25.073
 30
0.0
  0
SPLINE
  5
75
330
1F
100
AcDbEntity
  8
Layer 06
100
AcDbSpline
210
0.0
220
0.0
230
1.0
 70
    24
 71
     2
 72
     6
 73
     3
 74
     0
 42
0.0000000001
 43
0.0000000001
 40
0.0
 40
0.0
 40
0.0
 40
1.0
 40
1.0
 40
1.0
 10
-60.00000000000413
 20
28.818
 30
0.0
 10
-0.0000000000020748
 20
28.818
 30
0.0
 10
59.99999999999998
 20
28.818
 30
0.0
  0
SPLINE
  5
76
330
1F
100
AcDbEntity
  8
Layer 06
  6
Continuous
100
AcDbSpline
210
0.0
220
0.0
230
1.0
 70
    24
 71
     2
 72
     6
 73
     3
 74
     0
 42
0.0000000001
 43
0.0000000001
 40
0.0
 40
0.0
 40
0.0
 40
2.73500000000022
 40
2.73500000000022
 40
2.73500000000022
 10
-48.00000000000014
 20
25.06799999999978
 30
0.0
 10
-48.00000000000002
 20
26.43549999999989
 30
0.0
 10
-47.9999999999999
 20
27.803
 30
0.0
  0
SPLINE
  5
77
330
1F
100
AcDbEntity
  8
Layer 06
  6
Continuous
100
AcDbSpline
210
0.0
220
0.0
230
1.0
 70
    12
 71
     2
 72
     8
 73
     5
 74
     0
 42
0.0000000001
 43
0.0000000001
 40
0.0
 40
0.0
 40
0.0
 40
0.1237889725417989
 40
0.1237889725417989
 40
0.2475779450835977
 40
0.2475779450835977
 40
0.2475779450835977
 10
-53.70315830129993
 20
0.0000000000000017
 30
0.0
 41
1.0
 10
-53.63037226807502
 20
0.0
 30
0.0
 41
0.7899418936709716
 10
-53.61232013881735
 20
0.070511894470958
 30
0.0
 41
1.0
 10
-53.59426800955968
 20
0.1410237889419143
 30
0.0
 41
0.7899418936709716
 10
-53.65809959489681
 20
0.1760000000855948
 30
0.0
 41
1.0
  0
SPLINE
  5
78
330
1F
100
AcDbEntity
  8
Layer 06
  6
Continuous
100
AcDbSpline
210
0.0
220
0.0
230
1.0
 70
    24
 71
     2
 72
     6
 73
     3
 74
     0
 42
0.0000000001
 43
0.0000000001
 40
0.0
 40
0.0
 40
0.0
 40
1.209882587299958
 40
1.209882587299958
 40
1.209882587299958
 10
-54.91304088859989
 20
0.0000000000000017
 30
0.0
 10
-54.30809959494992
 20
0.0000000000000017
 30
0.0
 10
-53.70315830129993
 20
0.0000000000000017
 30
0.0
  0
SPLINE
  5
79
330
1F
100
AcDbEntity
  8
Layer 06
  6
Continuous
100
AcDbSpline
210
0.0
220
0.0
230
1.0
 70
    12
 71
     2
 72
     8
 73
     5
 74
     0
 42
0.0000000001
 43
0.0000000001
 40
0.0
 40
0.0
 40
0.0
 40
0.1237889725418018
 40
0.1237889725418018
 40
0.2475779450836037
 40
0.2475779450836037
 40
0.2475779450836037
 10
-54.95809959500302
 20
0.1760000000855944
 30
0.0
 41
1.0
 10
-55.02193118034015
 20
0.1410237889419122
 30
0.0
 41
0.7899418936709618
 10
-55.00387905108249
 20
0.0705118944709543
 30
0.0
 41
1.0
 10
-54.9858269218248
 20
-0.0000000000000036
 30
0.0
 41
0.7899418936709618
 10
-54.91304088859989
 20
0.0000000000000017
 30
0.0
 41
1.0
  0
SPLINE
  5
7A
330
1F
100
AcDbEntity
  8
Layer 06
  6
Continuous
100
AcDbSpline
210
0.0
220
0.0
230
1.0
 70
    24
 71
     2
 72
     6
 73
     3
 74
     0
 42
0.0000000001
 43
0.0000000001
 40
0.0
 40
0.0
 40
0.0
 40
0.3532145758000027
 40
0.3532145758000027
 40
0.3532145758000027
 10
-48.62421457579993
 20
25.073
 30
0.0
 10
-48.44760728789992
 20
25.073
 30
0.0
 10
-48.27099999999992
 20
25.073
 30
0.0
  0
SPLINE
  5
7B
330
1F
100
AcDbEntity
  8
Layer 06
100
AcDbSpline
210
0.0
220
0.0
230
1.0
 70
    24
 71
     2
 72
     6
 73
     3
 74
     0
 42
0.0000000001
 43
0.0000000001
 40
0.0
 40
0.0
 40
0.0
 40
1.0
 40
1.0
 40
1.0
 10
-55.03754237449994
 20
0.2588448863000039
 30
0.0
 10
-53.36012797876941
 20
14.03795491700367
 30
0.0
 10
-51.68271358303888
 20
27.81706494770734
 30
0.0
  0
SPLINE
  5
7C
330
1F
100
AcDbEntity
  8
Layer 06
100
AcDbSpline
210
0.0
220
0.0
230
1.0
 70
     8
 71
     5
 72
    12
 73
     6
 74
     0
 42
0.0000000001
 43
0.0000000001
 40
0.0
 40
0.0
 40
0.0
 40
0.0
 40
0.0
 40
0.0
 40
1.0
 40
1.0
 40
1.0
 40
1.0
 40
1.0
 40
1.0
 10
-54.95521184930382
 20
0.1760000000000019
 30
0.0
 10
-54.97857129327418
 20
0.1760000000000019
 30
0.0
 10
-55.00193073724456
 20
0.1760000000000019
 30
0.0
 10
-55.043188067482
 20
0.2124683767162409
 30
0.0
 10
-55.04036522099096
 20
0.2356566315081224
 30
0.0
 10
-55.03754237449994
 20
0.2588448863000039
 30
0.0
  0
SPLINE
  5
7D
330
1F
100
AcDbEntity
  8
Layer 06
100
AcDbSpline
210
0.0
220
0.0
230
1.0
 70
    24
 71
     2
 72
     6
 73
     3
 74
     0
 42
0.0000000001
 43
0.0000000001
 40
0.0
 40
0.0
 40
0.0
 40
1.0
 40
1.0
 40
1.0
 10
-53.58064054519991
 20
0.1760000000000019
 30
0.0
 10
-54.26792619725186
 20
0.1760000000000019
 30
0.0
 10
-54.95521184930382
 20
0.1760000000000019
 30
0.0
  0
SPLINE
  5
7E
330
1F
100
AcDbEntity
  8
Layer 06
100
AcDbSpline
210
0.0
220
0.0
230
1.0
 70
     8
 71
     2
 72
     7
 73
     4
 74
     0
 42
0.0000000001
 43
0.0000000001
 40
-2.0
 40
-2.0
 40
-2.0
 40
-1.0
 40
0.0
 40
0.0
 40
0.0
 10
-53.51140825939992
 20
0.2356492338999985
 30
0.0
 10
-53.51554202805935
 20
0.2100313662559949
 30
0.0
 10
-53.55474807228308
 20
0.1764295380282815
 30
0.0
 10
-53.58064054519991
 20
0.1760000000000019
 30
0.0
  0
SPLINE
  5
7F
330
1F
100
AcDbEntity
  8
Layer 06
100
AcDbSpline
210
0.0
220
0.0
230
1.0
 70
    24
 71
     2
 72
     6
 73
     3
 74
     0
 42
0.0000000001
 43
0.0000000001
 40
0.0
 40
0.0
 40
0.0
 40
1.0
 40
1.0
 40
1.0
 10
-49.83252806299992
 20
23.8098129297
 30
0.0
 10
-51.67196816119992
 20
12.0227310818
 30
0.0
 10
-53.51140825939992
 20
0.2356492338999985
 30
0.0
  0
SPLINE
  5
80
330
1F
100
AcDbEntity
  8
Layer 06
100
AcDbSpline
210
0.0
220
0.0
230
1.0
 70
     8
 71
     5
 72
    12
 73
     6
 74
     0
 42
0.0000000001
 43
0.0000000001
 40
-1.0
 40
-1.0
 40
-1.0
 40
-1.0
 40
-1.0
 40
-1.0
 40
0.0
 40
0.0
 40
0.0
 40
0.0
 40
0.0
 40
0.0
 10
-48.5941216040999
 20
25.073
 30
0.0
 10
-48.9479177110326
 20
25.073
 30
0.0
 10
-49.3017138179653
 20
25.073
 30
0.0
 10
-49.72342486020563
 20
24.50894326966743
 30
0.0
 10
-49.77797646160277
 20
24.15937809968371
 30
0.0
 10
-49.83252806299992
 20
23.8098129297
 30
0.0
  0
SPLINE
  5
81
330
1F
100
AcDbEntity
  8
Layer 06
100
AcDbSpline
210
0.0
220
0.0
230
1.0
 70
    24
 71
     2
 72
     6
 73
     3
 74
     0
 42
0.0000000001
 43
0.0000000001
 40
0.0
 40
0.0
 40
0.0
 40
0.5741216040999788
 40
0.5741216040999788
 40
0.5741216040999788
 10
-48.01999999999992
 20
25.073
 30
0.0
 10
-48.30706080204991
 20
25.073
 30
0.0
 10
-48.5941216040999
 20
25.073
 30
0.0
  0
LINE
  5
83
330
1F
100
AcDbEntity
  8
Default
100
AcDbLine
 10
80.9999999999979
 20
25.068
 30
0.0
 11
100.9999999999979
 21
25.068
 31
0.0
  0
LINE
  5
84
330
1F
100
AcDbEntity
  8
Default
100
AcDbLine
 10
-48.00000000000014
 20
25.06799999999978
 30
0.0
 11
47.99999999999986
 21
25.06799999999978
 31
0.0
  0
LINE
  5
85
330
1F
100
AcDbEntity
  8
Layer 06
  6
Continuous
100
AcDbLine
 10
68.99999999999793
 20
28.318
 30
0.0
 11
68.99999999999793
 21
28.818
 31
0.0
  0
LINE
  5
86
330
1F
100
AcDbEntity
  8
Layer 06
  6
Continuous
100
AcDbLine
 10
68.99999999999793
 20
28.318
 30
0.0
 11
68.99999999999793
 21
28.818
 31
0.0
  0
LINE
  5
87
330
1F
100
AcDbEntity
  8
Layer 06
  6
Continuous
100
AcDbLine
 10
111.8359999999979
 20
27.818
 30
0.0
 11
112.9999999999979
 21
28.318
 31
0.0
  0
LINE
  5
88
330
1F
100
AcDbEntity
  8
Layer 06
  6
Continuous
100
AcDbLine
 10
70.16399999999793
 20
27.818
 30
0.0
 11
68.99999999999793
 21
28.318
 31
0.0
  0
LINE
  5
89
330
1F
100
AcDbEntity
  8
Layer 06
  6
Continuous
100
AcDbLine
 10
111.8359999999979
 20
27.818
 30
0.0
 11
70.16399999999793
 21
27.818
 31
0.0
  0
LINE
  5
8A
330
1F
100
AcDbEntity
  8
Layer 06
  6
Continuous
100
AcDbLine
 10
112.9999999999979
 20
28.318
 30
0.0
 11
68.99999999999793
 21
28.318
 31
0.0
  0
LINE
  5
8B
330
1F
100
AcDbEntity
  8
Layer 06
  6
Continuous
100
AcDbLine
 10
112.9999999999979
 20
28.318
 30
0.0
 11
112.9999999999979
 21
28.818
 31
0.0
  0
POLYLINE
  5
8C
330
1F
100
AcDbEntity
  8
Layer 06
100
AcDb2dPolyline
 66
     1
 10
0.0
 20
0.0
 30
0.0
  0
VERTEX
  5
8D
330
8C
100
AcDbEntity
  8
Layer 06
100
AcDbVertex
100
AcDb2dVertex
 10
68.99999999999793
 20
28.818
 30
0.0
  0
VERTEX
  5
8E
330
8C
100
AcDbEntity
  8
Layer 06
100
AcDbVertex
100
AcDb2dVertex
 10
112.9999999999979
 20
28.818
 30
0.0
  0
SEQEND
  5
8F
330
8C
100
AcDbEntity
  8
Layer 06
  0
SPLINE
  5
90
330
1F
100
AcDbEntity
  8
Layer 06
  6
Continuous
100
AcDbSpline
210
0.0
220
0.0
230
1.0
 70
    15
 71
     2
 72
    36
 73
    33
 74
     0
 42
0.0000000001
 43
0.0000000001
 40
203.9794021959924
 40
203.9794021959924
 40
203.9794021959924
 40
247.3402268336658
 40
247.3402268336658
 40
254.947174288261
 40
254.947174288261
 40
268.4042348350075
 40
268.4042348350075
 40
272.5371471157079
 40
272.5371471157079
 40
285.994207662405
 40
285.994207662405
 40
293.6011551171591
 40
293.6011551171591
 40
336.9619797546268
 40
336.9619797546268
 40
350.779979754631
 40
350.779979754631
 40
394.140804392049
 40
394.140804392049
 40
401.7477518467897
 40
401.7477518467897
 40
415.2048123934936
 40
415.2048123934936
 40
419.337724674194
 40
419.337724674194
 40
432.7947852209478
 40
432.7947852209478
 40
440.4017326757319
 40
440.4017326757319
 40
483.76255731315
 40
483.76255731315
 40
497.5805573131514
 40
497.5805573131514
 40
497.5805573131514
 10
-7.272631578947267
 20
87.81800000000013
 30
0.0
 41
1.0
 10
-30.10857507996607
 20
87.81800000000018
 30
0.0
 41
0.9990506589786532
 10
-52.85784335099211
 20
85.92964738066864
 30
0.0
 41
1.0
 10
-57.48310936482426
 20
85.54571708945306
 30
0.0
 41
0.8057164264668963
 10
-58.47736376890828
 20
81.23729471937223
 30
0.0
 41
1.0
 10
-60.00000000000002
 20
74.63922487678518
 30
0.0
 41
0.9941835188103065
 10
-60.00000000000001
 20
67.88445614030002
 30
0.0
 41
1.0
 10
-60.00000000000001
 20
65.81799999995003
 30
0.0
 41
1.0
 10
-60.0
 20
63.75154385960005
 30
0.0
 41
1.0
 10
-60.0
 20
56.99677512313958
 30
0.0
 41
0.994183518810264
 10
-58.4773637689083
 20
50.39870528057779
 30
0.0
 41
1.0
 10
-57.48310936474972
 20
46.0902829103913
 30
0.0
 41
0.8057164264600588
 10
-52.85784335077982
 20
45.70635261931329
 30
0.0
 41
1.0
 10
-30.10857507986186
 20
43.81800000000009
 30
0.0
 41
0.9990506589786627
 10
-7.272631578951563
 20
43.81800000000003
 30
0.0
 41
1.0
 10
-0.0000000000018109
 20
43.81800000000002
 30
0.0
 41
1.0
 10
7.272631578947941
 20
43.81800000000001
 30
0.0
 41
1.0
 10
30.10857507983219
 20
43.81800000000009
 30
0.0
 41
0.9990506589786606
 10
52.85784335072486
 20
45.70635261931314
 30
0.0
 41
1.0
 10
57.48310936466115
 20
46.09028291042779
 30
0.0
 41
0.805716426465464
 10
58.47736376885562
 20
50.39870528057749
 30
0.0
 41
1.0
 10
59.99999999999989
 20
56.99677512313361
 30
0.0
 41
0.9941835188098658
 10
60.00000000000001
 20
63.75154385959926
 30
0.0
 41
1.0
 10
60.00000000000001
 20
65.81799999994962
 30
0.0
 41
1.0
 10
60.00000000000001
 20
67.88445614029999
 30
0.0
 41
1.0
 10
60.0
 20
74.63922487679058
 30
0.0
 41
0.9941835188099082
 10
58.47736376885567
 20
81.23729471937222
 30
0.0
 41
1.0
 10
57.48310936470097
 20
85.54571708956814
 30
0.0
 41
0.8057164264623716
 10
52.85784335072591
 20
85.92964738068683
 30
0.0
 41
1.0
 10
30.10857507983328
 20
87.8179999999999
 30
0.0
 41
0.9990506589786607
 10
7.272631578949087
 20
87.81800000000007
 30
0.0
 41
1.0
 10
0.0000000000009101
 20
87.8180000000001
 30
0.0
 41
1.0
 10
-7.272631578947267
 20
87.81800000000013
 30
0.0
 41
1.0
  0
SPLINE
  5
91
330
1F
100
AcDbEntity
  8
Layer 06
  6
Continuous
100
AcDbSpline
210
0.0
220
0.0
230
1.0
 70
    24
 71
     2
 72
     6
 73
     3
 74
     0
 42
0.0000000001
 43
0.0000000001
 40
0.0
 40
0.0
 40
0.0
 40
0.5
 40
0.5
 40
0.5
 10
-60.00000000000413
 20
28.318
 30
0.0
 10
-60.00000000000413
 20
28.568
 30
0.0
 10
-60.00000000000413
 20
28.818
 30
0.0
  0
SPLINE
  5
92
330
1F
100
AcDbEntity
  8
Layer 06
  6
Continuous
100
AcDbSpline
210
0.0
220
0.0
230
1.0
 70
    24
 71
     2
 72
     6
 73
     3
 74
     0
 42
0.0000000001
 43
0.0000000001
 40
0.0
 40
0.0
 40
0.0
 40
0.5
 40
0.5
 40
0.5
 10
-60.00000000000413
 20
28.318
 30
0.0
 10
-60.00000000000413
 20
28.568
 30
0.0
 10
-60.00000000000413
 20
28.818
 30
0.0
  0
SPLINE
  5
93
330
1F
100
AcDbEntity
  8
Layer 06
  6
Continuous
100
AcDbSpline
210
0.0
220
0.0
230
1.0
 70
    24
 71
     2
 72
     6
 73
     3
 74
     0
 42
0.0000000001
 43
0.0000000001
 40
0.0
 40
0.0
 40
0.0
 40
1.266844899741067
 40
1.266844899741067
 40
1.266844899741067
 10
-58.83600000000415
 20
27.818
 30
0.0
 10
-59.41800000000414
 20
28.068
 30
0.0
 10
-60.00000000000413
 20
28.318
 30
0.0
  0
SPLINE
  5
94
330
1F
100
AcDbEntity
  8
Layer 06
  6
Continuous
100
AcDbSpline
210
0.0
220
0.0
230
1.0
 70
    24
 71
     2
 72
     6
 73
     3
 74
     0
 42
0.0000000001
 43
0.0000000001
 40
0.0
 40
0.0
 40
0.0
 40
1.266844899741087
 40
1.266844899741087
 40
1.266844899741087
 10
58.83599999999998
 20
27.818
 30
0.0
 10
59.41799999999998
 20
28.068
 30
0.0
 10
59.99999999999998
 20
28.318
 30
0.0
  0
SPLINE
  5
95
330
1F
100
AcDbEntity
  8
Layer 06
  6
Continuous
100
AcDbSpline
210
0.0
220
0.0
230
1.0
 70
    24
 71
     2
 72
     6
 73
     3
 74
     0
 42
0.0000000001
 43
0.0000000001
 40
0.0
 40
0.0
 40
0.0
 40
0.5
 40
0.5
 40
0.5
 10
59.99999999999998
 20
28.318
 30
0.0
 10
59.99999999999998
 20
28.568
 30
0.0
 10
59.99999999999998
 20
28.818
 30
0.0
  0
SPLINE
  5
96
330
1F
100
AcDbEntity
  8
Layer 06
  6
Continuous
100
AcDbSpline
210
0.0
220
0.0
230
1.0
 70
    24
 71
     2
 72
     6
 73
     3
 74
     0
 42
0.0000000001
 43
0.0000000001
 40
0.0
 40
0.0
 40
0.0
 40
111.672
 40
111.672
 40
111.672
 10
58.83599999999998
 20
27.818
 30
0.0
 10
-0.0000000000020854
 20
27.818
 30
0.0
 10
-58.83600000000415
 20
27.818
 30
0.0
  0
SPLINE
  5
97
330
1F
100
AcDbEntity
  8
Layer 06
  6
Continuous
100
AcDbSpline
210
0.0
220
0.0
230
1.0
 70
    24
 71
     2
 72
     6
 73
     3
 74
     0
 42
0.0000000001
 43
0.0000000001
 40
0.0
 40
0.0
 40
0.0
 40
114.0
 40
114.0
 40
114.0
 10
59.99999999999998
 20
28.318
 30
0.0
 10
-0.0000000000020748
 20
28.318
 30
0.0
 10
-60.00000000000413
 20
28.318
 30
0.0
  0
ENDSEC
  0
SECTION
  2
OBJECTS
  0
DICTIONARY
  5
C
330
0
100
AcDbDictionary
281
     1
  3
ACAD_GROUP
350
D
  3
ACAD_LAYOUT
350
1A
  3
ACAD_MLEADERSTYLE
350
99
  3
ACAD_MLINESTYLE
350
17
  3
ACAD_PLOTSETTINGS
350
19
  3
ACAD_PLOTSTYLENAME
350
E
  3
ACAD_TABLESTYLE
350
98
  3
ACAD_VISUALSTYLE
350
2A
  0
DICTIONARY
  5
D
102
{ACAD_REACTORS
330
C
102
}
330
C
100
AcDbDictionary
281
     1
  0
DICTIONARY
  5
1A
102
{ACAD_REACTORS
330
C
102
}
330
C
100
AcDbDictionary
281
     1
  3
Layout1
350
1E
  3
Layout2
350
26
  3
Model
350
22
  0
DICTIONARY
  5
99
102
{ACAD_REACTORS
330
C
102
}
330
C
100
AcDbDictionary
281
     1
  0
DICTIONARY
  5
17
102
{ACAD_REACTORS
330
C
102
}
330
C
100
AcDbDictionary
281
     1
  3
Standard
350
18
  0
DICTIONARY
  5
19
102
{ACAD_REACTORS
330
C
102
}
330
C
100
AcDbDictionary
281
     1
  0
ACDBDICTIONARYWDFLT
  5
E
102
{ACAD_REACTORS
330
C
102
}
330
C
100
AcDbDictionary
281
     1
  3
Normal
350
F
100
AcDbDictionaryWithDefault
340
F
  0
DICTIONARY
  5
98
102
{ACAD_REACTORS
330
C
102
}
330
C
100
AcDbDictionary
281
     1
  0
DICTIONARY
  5
2A
102
{ACAD_REACTORS
330
C
102
}
330
C
100
AcDbDictionary
281
     1
  3
2dWireframe
350
2F
  3
3D Hidden
350
31
  3
3dWireframe
350
30
  3
Basic
350
32
  3
Brighten
350
36
  3
ColorChange
350
3A
  3
Conceptual
350
34
  3
Dim
350
35
  3
Facepattern
350
39
  3
Flat
350
2B
  3
FlatWithEdges
350
2C
  3
Gouraud
350
2D
  3
GouraudWithEdges
350
2E
  3
Linepattern
350
38
  3
Realistic
350
33
  3
Thicken
350
37
  0
LAYOUT
  5
1E
102
{ACAD_REACTORS
330
1A
102
}
330
1A
100
AcDbPlotSettings
  1

  2
none_device
  4

  6

 40
0.0
 41
0.0
 42
0.0
 43
0.0
 44
0.0
 45
0.0
 46
0.0
 47
0.0
 48
0.0
 49
0.0
140
0.0
141
0.0
142
1.0
143
1.0
 70
   688
 72
     0
 73
     0
 74
     5
  7

 75
    16
 76
     0
 77
     2
 78
   300
147
1.0
148
0.0
149
0.0
100
AcDbLayout
  1
Layout1
 70
     1
 71
     1
 10
0.0
 20
0.0
 11
12.0
 21
9.0
 12
0.0
 22
0.0
 32
0.0
 14
1.000000000000000E+20
 24
1.000000000000000E+20
 34
1.000000000000000E+20
 15
-1.000000000000000E+20
 25
-1.000000000000000E+20
 35
-1.000000000000000E+20
146
0.0
 13
0.0
 23
0.0
 33
0.0
 16
1.0
 26
0.0
 36
0.0
 17
0.0
 27
1.0
 37
0.0
 76
     0
330
1B
  0
LAYOUT
  5
26
102
{ACAD_REACTORS
330
1A
102
}
330
1A
100
AcDbPlotSettings
  1

  2
none_device
  4

  6

 40
0.0
 41
0.0
 42
0.0
 43
0.0
 44
0.0
 45
0.0
 46
0.0
 47
0.0
 48
0.0
 49
0.0
140
0.0
141
0.0
142
1.0
143
1.0
 70
   688
 72
     0
 73
     0
 74
     5
  7

 75
    16
 76
     0
 77
     2
 78
   300
147
1.0
148
0.0
149
0.0
100
AcDbLayout
  1
Layout2
 70
     1
 71
     2
 10
0.0
 20
0.0
 11
0.0
 21
0.0
 12
0.0
 22
0.0
 32
0.0
 14
0.0
 24
0.0
 34
0.0
 15
0.0
 25
0.0
 35
0.0
146
0.0
 13
0.0
 23
0.0
 33
0.0
 16
1.0
 26
0.0
 36
0.0
 17
0.0
 27
1.0
 37
0.0
 76
     0
330
23
  0
LAYOUT
  5
22
102
{ACAD_REACTORS
330
1A
102
}
330
1A
100
AcDbPlotSettings
  1

  2
none_device
  4

  6

 40
0.0
 41
0.0
 42
0.0
 43
0.0
 44
0.0
 45
0.0
 46
0.0
 47
0.0
 48
0.0
 49
0.0
140
0.0
141
0.0
142
1.0
143
1.0
 70
  1712
 72
     0
 73
     0
 74
     0
  7

 75
     0
 76
     0
 77
     2
 78
   300
147
1.0
148
0.0
149
0.0
100
AcDbLayout
  1
Model
 70
     1
 71
     0
 10
0.0
 20
0.0
 11
12.0
 21
9.0
 12
0.0
 22
0.0
 32
0.0
 14
-60.00000000000413
 24
-0.0050000000000009
 34
0.0
 15
112.9999999999979
 25
87.81800000000013
 35
0.0
146
0.0
 13
0.0
 23
0.0
 33
0.0
 16
1.0
 26
0.0
 36
0.0
 17
0.0
 27
1.0
 37
0.0
 76
     0
330
1F
331
29
  0
MLINESTYLE
  5
18
102
{ACAD_REACTORS
330
17
102
}
330
17
100
AcDbMlineStyle
  2
Standard
 70
     0
  3

 62
   256
 51
90.0
 52
90.0
 71
     2
 49
0.5
 62
   256
  6
BYLAYER
 49
-0.5
 62
   256
  6
BYLAYER
  0
ACDBPLACEHOLDER
  5
F
102
{ACAD_REACTORS
330
E
102
}
330
E
  0
VISUALSTYLE
  5
2F
102
{ACAD_REACTORS
330
2A
102
}
330
2A
100
AcDbVisualStyle
  2
2dWireframe
 70
     4
 71
     0
 72
     2
 73
     0
 90
        0
 40
-0.6
 41
-30.0
 62
     5
 63
     7
421
 16777215
 74
     1
 91
        4
 64
     7
 65
   257
 75
     1
175
     1
 42
1.0
 92
        0
 66
   257
 43
1.0
 76
     1
 77
     6
 78
     2
 67
     7
 79
     5
170
     0
171
     0
290
     0
174
     0
 93
        1
 44
0.0
173
     0
291
     0
 45
0.0
1001
ACAD
1000
AcDbSavedByObjectVersion
1070
     0
  0
VISUALSTYLE
  5
31
102
{ACAD_REACTORS
330
2A
102
}
330
2A
100
AcDbVisualStyle
  2
3D Hidden
 70
     6
 71
     1
 72
     2
 73
     2
 90
        0
 40
-0.6
 41
-30.0
 62
     5
 63
     7
421
 16777215
 74
     2
 91
        2
 64
     7
 65
   257
 75
     2
175
     1
 42
40.0
 92
        0
 66
   257
 43
1.0
 76
     1
 77
     6
 78
     2
 67
     7
 79
     3
170
     0
171
     0
290
     0
174
     0
 93
        1
 44
0.0
173
     0
291
     0
 45
0.0
1001
ACAD
1000
AcDbSavedByObjectVersion
1070
     0
  0
VISUALSTYLE
  5
30
102
{ACAD_REACTORS
330
2A
102
}
330
2A
100
AcDbVisualStyle
  2
3dWireframe
 70
     5
 71
     0
 72
     2
 73
     0
 90
        0
 40
-0.6
 41
-30.0
 62
     5
 63
     7
421
 16777215
 74
     1
 91
        4
 64
     7
 65
   257
 75
     1
175
     1
 42
1.0
 92
        0
 66
   257
 43
1.0
 76
     1
 77
     6
 78
     2
 67
     7
 79
     5
170
     0
171
     0
290
     0
174
     0
 93
        1
 44
0.0
173
     0
291
     0
 45
0.0
1001
ACAD
1000
AcDbSavedByObjectVersion
1070
     0
  0
VISUALSTYLE
  5
32
102
{ACAD_REACTORS
330
2A
102
}
330
2A
100
AcDbVisualStyle
  2
Basic
 70
     7
 71
     1
 72
     0
 73
     1
 90
        0
 40
-0.6
 41
-30.0
 62
     5
 63
     7
421
 16777215
 74
     0
 91
        4
 64
     7
 65
   257
 75
     1
175
     1
 42
1.0
 92
        8
 66
     7
 43
1.0
 76
     1
 77
     6
 78
     2
 67
     7
 79
     5
170
     0
171
     0
290
     0
174
     0
 93
        1
 44
0.0
173
     0
291
     1
 45
0.0
1001
ACAD
1000
AcDbSavedByObjectVersion
1070
     0
  0
VISUALSTYLE
  5
36
102
{ACAD_REACTORS
330
2A
102
}
330
2A
100
AcDbVisualStyle
  2
Brighten
 70
    12
 71
     2
 72
     2
 73
     0
 90
        0
 40
-0.6
 41
-30.0
 62
     5
 63
     7
421
 16777215
 74
     1
 91
        4
 64
     7
 65
   257
 75
     1
175
     1
 42
1.0
 92
        8
 66
     7
 43
1.0
 76
     1
 77
     6
 78
     2
 67
     7
 79
     5
170
     0
171
     0
290
     0
174
     0
 93
        1
 44
50.0
173
     0
291
     1
 45
0.0
1001
ACAD
1000
AcDbSavedByObjectVersion
1070
     0
  0
VISUALSTYLE
  5
3A
102
{ACAD_REACTORS
330
2A
102
}
330
2A
100
AcDbVisualStyle
  2
ColorChange
 70
    16
 71
     2
 72
     2
 73
     3
 90
        0
 40
-0.6
 41
-30.0
 62
     5
 63
     8
421
  8421504
 74
     1
 91
        4
 64
     7
 65
   257
 75
     1
175
     1
 42
1.0
 92
        8
 66
     8
424
  8421504
 43
1.0
 76
     1
 77
     6
 78
     2
 67
     7
 79
     5
170
     0
171
     0
290
     0
174
     0
 93
        1
 44
0.0
173
     0
291
     1
 45
0.0
1001
ACAD
1000
AcDbSavedByObjectVersion
1070
     0
  0
VISUALSTYLE
  5
34
102
{ACAD_REACTORS
330
2A
102
}
330
2A
100
AcDbVisualStyle
  2
Conceptual
 70
     9
 71
     3
 72
     2
 73
     0
 90
        0
 40
-0.6
 41
-30.0
 62
     5
 63
     7
421
 16777215
 74
     2
 91
        2
 64
     7
 65
   257
 75
     1
175
     1
 42
40.0
 92
        8
 66
     7
 43
1.0
 76
     1
 77
     6
 78
     2
 67
     7
 79
     3
170
     0
171
     0
290
     0
174
     0
 93
        1
 44
0.0
173
     0
291
     0
 45
0.0
1001
ACAD
1000
AcDbSavedByObjectVersion
1070
     0
  0
VISUALSTYLE
  5
35
102
{ACAD_REACTORS
330
2A
102
}
330
2A
100
AcDbVisualStyle
  2
Dim
 70
    11
 71
     2
 72
     2
 73
     0
 90
        0
 40
-0.6
 41
-30.0
 62
     5
 63
     7
421
 16777215
 74
     1
 91
        4
 64
     7
 65
   257
 75
     1
175
     1
 42
1.0
 92
        8
 66
     7
 43
1.0
 76
     1
 77
     6
 78
     2
 67
     7
 79
     5
170
     0
171
     0
290
     0
174
     0
 93
        1
 44
-50.0
173
     0
291
     1
 45
0.0
1001
ACAD
1000
AcDbSavedByObjectVersion
1070
     0
  0
VISUALSTYLE
  5
39
102
{ACAD_REACTORS
330
2A
102
}
330
2A
100
AcDbVisualStyle
  2
Facepattern
 70
    15
 71
     2
 72
     2
 73
     0
 90
        0
 40
-0.6
 41
-30.0
 62
     5
 63
     7
421
 16777215
 74
     1
 91
        4
 64
     7
 65
   257
 75
     1
175
     1
 42
1.0
 92
        8
 66
     7
 43
1.0
 76
     1
 77
     6
 78
     2
 67
     7
 79
     5
170
     0
171
     0
290
     0
174
     0
 93
        1
 44
0.0
173
     0
291
     1
 45
0.0
1001
ACAD
1000
AcDbSavedByObjectVersion
1070
     0
  0
VISUALSTYLE
  5
2B
102
{ACAD_REACTORS
330
2A
102
}
330
2A
100
AcDbVisualStyle
  2
Flat
 70
     0
 71
     2
 72
     1
 73
     1
 90
        2
 40
-0.6
 41
30.0
 62
     5
 63
     7
421
 16777215
 74
     0
 91
        4
 64
     7
 65
   257
 75
     1
175
     1
 42
1.0
 92
        8
 66
     7
 43
1.0
 76
     1
 77
     6
 78
     2
 67
     7
 79
     5
170
     0
171
     0
290
     0
174
     0
 93
       13
 44
0.0
173
     0
291
     1
 45
0.0
1001
ACAD
1000
AcDbSavedByObjectVersion
1070
     0
  0
VISUALSTYLE
  5
2C
102
{ACAD_REACTORS
330
2A
102
}
330
2A
100
AcDbVisualStyle
  2
FlatWithEdges
 70
     1
 71
     2
 72
     1
 73
     1
 90
        2
 40
-0.6
 41
30.0
 62
     5
 63
     7
421
 16777215
 74
     1
 91
        4
 64
     7
 65
   257
 75
     1
175
     1
 42
1.0
 92
        0
 66
   257
 43
1.0
 76
     1
 77
     6
 78
     2
 67
     7
 79
     5
170
     0
171
     0
290
     0
174
     0
 93
       13
 44
0.0
173
     0
291
     1
 45
0.0
1001
ACAD
1000
AcDbSavedByObjectVersion
1070
     0
  0
VISUALSTYLE
  5
2D
102
{ACAD_REACTORS
330
2A
102
}
330
2A
100
AcDbVisualStyle
  2
Gouraud
 70
     2
 71
     2
 72
     2
 73
     1
 90
        2
 40
-0.6
 41
30.0
 62
     5
 63
     7
421
 16777215
 74
     0
 91
        4
 64
     7
 65
   257
 75
     1
175
     1
 42
1.0
 92
        0
 66
     7
 43
1.0
 76
     1
 77
     6
 78
     2
 67
     7
 79
     5
170
     0
171
     0
290
     0
174
     0
 93
       13
 44
0.0
173
     0
291
     1
 45
0.0
1001
ACAD
1000
AcDbSavedByObjectVersion
1070
     0
  0
VISUALSTYLE
  5
2E
102
{ACAD_REACTORS
330
2A
102
}
330
2A
100
AcDbVisualStyle
  2
GouraudWithEdges
 70
     3
 71
     2
 72
     2
 73
     1
 90
        2
 40
-0.6
 41
30.0
 62
     5
 63
     7
421
 16777215
 74
     1
 91
        4
 64
     7
 65
   257
 75
     1
175
     1
 42
1.0
 92
        0
 66
   257
 43
1.0
 76
     1
 77
     6
 78
     2
 67
     7
 79
     5
170
     0
171
     0
290
     0
174
     0
 93
       13
 44
0.0
173
     0
291
     1
 45
0.0
1001
ACAD
1000
AcDbSavedByObjectVersion
1070
     0
  0
VISUALSTYLE
  5
38
102
{ACAD_REACTORS
330
2A
102
}
330
2A
100
AcDbVisualStyle
  2
Linepattern
 70
    14
 71
     2
 72
     2
 73
     0
 90
        0
 40
-0.6
 41
-30.0
 62
     5
 63
     7
421
 16777215
 74
     1
 91
        4
 64
     7
 65
   257
 75
     7
175
     7
 42
1.0
 92
        8
 66
     7
 43
1.0
 76
     1
 77
     6
 78
     2
 67
     7
 79
     5
170
     0
171
     0
290
     0
174
     0
 93
        1
 44
0.0
173
     0
291
     1
 45
0.0
1001
ACAD
1000
AcDbSavedByObjectVersion
1070
     0
  0
VISUALSTYLE
  5
33
102
{ACAD_REACTORS
330
2A
102
}
330
2A
100
AcDbVisualStyle
  2
Realistic
 70
     8
 71
     2
 72
     2
 73
     0
 90
        0
 40
-0.6
 41
-30.0
 62
     5
 63
     7
421
 16777215
 74
     1
 91
        0
 64
     7
 65
   257
 75
     1
175
     1
 42
1.0
 92
        8
 66
     8
424
  7895160
 43
1.0
 76
     1
 77
     6
 78
     2
 67
     7
 79
     5
170
     0
171
     0
290
     0
174
     0
 93
       13
 44
0.0
173
     0
291
     0
 45
0.0
1001
ACAD
1000
AcDbSavedByObjectVersion
1070
     0
  0
VISUALSTYLE
  5
37
102
{ACAD_REACTORS
330
2A
102
}
330
2A
100
AcDbVisualStyle
  2
Thicken
 70
    13
 71
     2
 72
     2
 73
     0
 90
        0
 40
-0.6
 41
-30.0
 62
     5
 63
     7
421
 16777215
 74
     1
 91
        4
 64
     7
 65
   257
 75
     1
175
     1
 42
1.0
 92
       12
 66
     7
 43
1.0
 76
     1
 77
     6
 78
     2
 67
     7
 79
     5
170
     0
171
     0
290
     0
174
     0
 93
        1
 44
0.0
173
     0
291
     1
 45
0.0
1001
ACAD
1000
AcDbSavedByObjectVersion
1070
     0
  0
ENDSEC
  0
EOF
