  0
SECTION
  2
HEADER
  9
$ACADVER
  1
AC1018
  9
$ACADMAINTVER
 70
     0
  9
$DWGCODEPAGE
  3
ANSI_1252
  9
$INSBASE
 10
0.0
 20
0.0
 30
0.0
  9
$EXTMIN
 10
-45.00000000000031
 20
-0.0050000001000062
 30
0.0
  9
$EXTMAX
 10
107.0
 20
90.81000000000003
 30
0.0
  9
$LIMMIN
 10
0.0
 20
0.0
  9
$LIMMAX
 10
12.0
 20
9.0
  9
$ORTHOMODE
 70
     0
  9
$REGENMODE
 70
     1
  9
$FILLMODE
 70
     1
  9
$QTEXTMODE
 70
     0
  9
$MIRRTEXT
 70
     1
  9
$LTSCALE
 40
0.0393700787401575
  9
$ATTMODE
 70
     1
  9
$TEXTSIZE
 40
0.2
  9
$TRACEWID
 40
0.05
  9
$TEXTSTYLE
  7
Standard
  9
$CLAYER
  8
Default
  9
$CELTYPE
  6
ByLayer
  9
$CECOLOR
 62
   256
  9
$CELTSCALE
 40
1.0
  9
$DISPSILH
 70
     0
  9
$DIMSCALE
 40
1.0
  9
$DIMASZ
 40
0.18
  9
$DIMEXO
 40
0.0625
  9
$DIMDLI
 40
0.38
  9
$DIMRND
 40
0.0
  9
$DIMDLE
 40
0.0
  9
$DIMEXE
 40
0.18
  9
$DIMTP
 40
0.0
  9
$DIMTM
 40
0.0
  9
$DIMTXT
 40
0.18
  9
$DIMCEN
 40
0.09
  9
$DIMTSZ
 40
0.0
  9
$DIMTOL
 70
     0
  9
$DIMLIM
 70
     0
  9
$DIMTIH
 70
     1
  9
$DIMTOH
 70
     1
  9
$DIMSE1
 70
     0
  9
$DIMSE2
 70
     0
  9
$DIMTAD
 70
     0
  9
$DIMZIN
 70
     0
  9
$DIMBLK
  1

  9
$DIMASO
 70
     1
  9
$DIMSHO
 70
     1
  9
$DIMPOST
  1

  9
$DIMAPOST
  1

  9
$DIMALT
 70
     0
  9
$DIMALTD
 70
     2
  9
$DIMALTF
 40
25.4
  9
$DIMLFAC
 40
1.0
  9
$DIMTOFL
 70
     0
  9
$DIMTVP
 40
0.0
  9
$DIMTIX
 70
     0
  9
$DIMSOXD
 70
     0
  9
$DIMSAH
 70
     0
  9
$DIMBLK1
  1

  9
$DIMBLK2
  1

  9
$DIMSTYLE
  2
Standard
  9
$DIMCLRD
 70
     0
  9
$DIMCLRE
 70
     0
  9
$DIMCLRT
 70
     0
  9
$DIMTFAC
 40
1.0
  9
$DIMGAP
 40
0.09
  9
$DIMJUST
 70
     0
  9
$DIMSD1
 70
     0
  9
$DIMSD2
 70
     0
  9
$DIMTOLJ
 70
     1
  9
$DIMTZIN
 70
     0
  9
$DIMALTZ
 70
     0
  9
$DIMALTTZ
 70
     0
  9
$DIMUPT
 70
     0
  9
$DIMDEC
 70
     4
  9
$DIMTDEC
 70
     4
  9
$DIMALTU
 70
     2
  9
$DIMALTTD
 70
     2
  9
$DIMTXSTY
  7
Standard
  9
$DIMAUNIT
 70
     0
  9
$DIMADEC
 70
     0
  9
$DIMALTRND
 40
0.0
  9
$DIMAZIN
 70
     0
  9
$DIMDSEP
 70
    46
  9
$DIMATFIT
 70
     3
  9
$DIMFRAC
 70
     0
  9
$DIMLDRBLK
  1

  9
$DIMLUNIT
 70
     2
  9
$DIMLWD
 70
    -2
  9
$DIMLWE
 70
    -2
  9
$DIMTMOVE
 70
     2
  9
$LUNITS
 70
     2
  9
$LUPREC
 70
     4
  9
$SKETCHINC
 40
0.1
  9
$FILLETRAD
 40
0.5
  9
$AUNITS
 70
     0
  9
$AUPREC
 70
     0
  9
$MENU
  1
.
  9
$ELEVATION
 40
0.0
  9
$PELEVATION
 40
0.0
  9
$THICKNESS
 40
0.0
  9
$LIMCHECK
 70
     0
  9
$CHAMFERA
 40
0.5
  9
$CHAMFERB
 40
0.5
  9
$CHAMFERC
 40
1.0
  9
$CHAMFERD
 40
0.0
  9
$SKPOLY
 70
     0
  9
$TDCREATE
 40
2456791.420509259
  9
$TDUCREATE
 40
2456791.587175926
  9
$TDUPDATE
 40
2456791.420509271
  9
$TDUUPDATE
 40
2456791.587175937
  9
$TDINDWG
 40
0.0000000116
  9
$TDUSRTIMER
 40
0.0000000116
  9
$USRTIMER
 70
     1
  9
$ANGBASE
 50
0.0
  9
$ANGDIR
 70
     0
  9
$PDMODE
 70
     0
  9
$PDSIZE
 40
0.0
  9
$PLINEWID
 40
0.0
  9
$SPLFRAME
 70
     0
  9
$SPLINETYPE
 70
     6
  9
$SPLINESEGS
 70
     8
  9
$HANDSEED
  5
BC
  9
$SURFTAB1
 70
     6
  9
$SURFTAB2
 70
     6
  9
$SURFTYPE
 70
     6
  9
$SURFU
 70
     6
  9
$SURFV
 70
     6
  9
$UCSBASE
  2

  9
$UCSNAME
  2

  9
$UCSORG
 10
0.0
 20
0.0
 30
0.0
  9
$UCSXDIR
 10
1.0
 20
0.0
 30
0.0
  9
$UCSYDIR
 10
0.0
 20
1.0
 30
0.0
  9
$UCSORTHOREF
  2

  9
$UCSORTHOVIEW
 70
     0
  9
$UCSORGTOP
 10
0.0
 20
0.0
 30
0.0
  9
$UCSORGBOTTOM
 10
0.0
 20
0.0
 30
0.0
  9
$UCSORGLEFT
 10
0.0
 20
0.0
 30
0.0
  9
$UCSORGRIGHT
 10
0.0
 20
0.0
 30
0.0
  9
$UCSORGFRONT
 10
0.0
 20
0.0
 30
0.0
  9
$UCSORGBACK
 10
0.0
 20
0.0
 30
0.0
  9
$PUCSBASE
  2

  9
$PUCSNAME
  2

  9
$PUCSORG
 10
0.0
 20
0.0
 30
0.0
  9
$PUCSXDIR
 10
1.0
 20
0.0
 30
0.0
  9
$PUCSYDIR
 10
0.0
 20
1.0
 30
0.0
  9
$PUCSORTHOREF
  2

  9
$PUCSORTHOVIEW
 70
     0
  9
$PUCSORGTOP
 10
0.0
 20
0.0
 30
0.0
  9
$PUCSORGBOTTOM
 10
0.0
 20
0.0
 30
0.0
  9
$PUCSORGLEFT
 10
0.0
 20
0.0
 30
0.0
  9
$PUCSORGRIGHT
 10
0.0
 20
0.0
 30
0.0
  9
$PUCSORGFRONT
 10
0.0
 20
0.0
 30
0.0
  9
$PUCSORGBACK
 10
0.0
 20
0.0
 30
0.0
  9
$USERI1
 70
     0
  9
$USERI2
 70
     0
  9
$USERI3
 70
     0
  9
$USERI4
 70
     0
  9
$USERI5
 70
     0
  9
$USERR1
 40
0.0
  9
$USERR2
 40
0.0
  9
$USERR3
 40
0.0
  9
$USERR4
 40
0.0
  9
$USERR5
 40
0.0
  9
$WORLDVIEW
 70
     1
  9
$SHADEDGE
 70
     3
  9
$SHADEDIF
 70
    70
  9
$TILEMODE
 70
     1
  9
$MAXACTVP
 70
    64
  9
$PINSBASE
 10
0.0
 20
0.0
 30
0.0
  9
$PLIMCHECK
 70
     0
  9
$PEXTMIN
 10
1.000000000000000E+20
 20
1.000000000000000E+20
 30
1.000000000000000E+20
  9
$PEXTMAX
 10
-1.000000000000000E+20
 20
-1.000000000000000E+20
 30
-1.000000000000000E+20
  9
$PLIMMIN
 10
0.0
 20
0.0
  9
$PLIMMAX
 10
12.0
 20
9.0
  9
$UNITMODE
 70
     0
  9
$VISRETAIN
 70
     1
  9
$PLINEGEN
 70
     0
  9
$PSLTSCALE
 70
     1
  9
$TREEDEPTH
 70
  3020
  9
$CMLSTYLE
  2
Standard
  9
$CMLJUST
 70
     0
  9
$CMLSCALE
 40
1.0
  9
$PROXYGRAPHICS
 70
     1
  9
$MEASUREMENT
 70
     0
  9
$CELWEIGHT
370
    -1
  9
$ENDCAPS
280
     0
  9
$JOINSTYLE
280
     0
  9
$LWDISPLAY
290
     0
  9
$INSUNITS
 70
     1
  9
$HYPERLINKBASE
  1

  9
$STYLESHEET
  1

  9
$XEDIT
290
     1
  9
$CEPSNTYPE
380
     0
  9
$PSTYLEMODE
290
     1
  9
$FINGERPRINTGUID
  2
{D235A2A3-5ED8-4477-9745-A3EB9C8569C3}
  9
$VERSIONGUID
  2
{FAEB1C32-E019-11D5-929B-00C0DF256EC4}
  9
$EXTNAMES
290
     1
  9
$PSVPSCALE
 40
0.0
  9
$OLESTARTUP
290
     0
  9
$SORTENTS
280
   127
  9
$INDEXCTL
280
     0
  9
$HIDETEXT
280
     1
  9
$XCLIPFRAME
290
     0
  9
$HALOGAP
280
     0
  9
$OBSCOLOR
 70
   257
  9
$OBSLTYPE
280
     0
  9
$INTERSECTIONDISPLAY
280
     0
  9
$INTERSECTIONCOLOR
 70
   257
  9
$DIMASSOC
280
     2
  9
$PROJECTNAME
  1

  0
ENDSEC
  0
SECTION
  2
CLASSES
  0
CLASS
  1
ACDBDICTIONARYWDFLT
  2
AcDbDictionaryWithDefault
  3
ObjectDBX Classes
 90
        0
 91
        4
280
     0
281
     0
  0
CLASS
  1
VISUALSTYLE
  2
AcDbVisualStyle
  3
ObjectDBX Classes
 90
     4095
 91
        4
280
     0
281
     0
  0
ENDSEC
  0
SECTION
  2
TABLES
  0
TABLE
  2
VPORT
  5
8
330
0
100
AcDbSymbolTable
 70
     1
  0
VPORT
  5
29
330
8
100
AcDbSymbolTableRecord
100
AcDbViewportTableRecord
  2
*Active
 70
     0
 10
0.0
 20
0.0
 11
1.0
 21
1.0
 12
30.99999999999984
 22
45.40249999995001
 13
0.0
 23
0.0
 14
0.5
 24
0.5
 15
0.5
 25
0.5
 16
0.0
 26
0.0
 36
1.0
 17
0.0
 27
0.0
 37
0.0
 40
92.63130000010204
 41
1.673732312942057
 42
50.0
 43
0.0
 44
0.0
 50
0.0
 51
0.0
 71
     0
 72
   100
 73
     1
 74
     3
 75
     0
 76
     0
 77
     0
 78
     0
281
     0
 65
     1
110
0.0
120
0.0
130
0.0
111
1.0
121
0.0
131
0.0
112
0.0
122
1.0
132
0.0
 79
     0
146
0.0
  0
ENDTAB
  0
TABLE
  2
LTYPE
  5
5
330
0
100
AcDbSymbolTable
 70
     1
  0
LTYPE
  5
14
330
5
100
AcDbSymbolTableRecord
100
AcDbLinetypeTableRecord
  2
ByBlock
 70
     0
  3

 72
    65
 73
     0
 40
0.0
  0
LTYPE
  5
15
330
5
100
AcDbSymbolTableRecord
100
AcDbLinetypeTableRecord
  2
ByLayer
 70
     0
  3

 72
    65
 73
     0
 40
0.0
  0
LTYPE
  5
16
330
5
100
AcDbSymbolTableRecord
100
AcDbLinetypeTableRecord
  2
Continuous
 70
     0
  3
Solid line
 72
    65
 73
     0
 40
0.0
  0
ENDTAB
  0
TABLE
  2
LAYER
  5
2
330
0
100
AcDbSymbolTable
 70
     2
  0
LAYER
  5
10
330
2
100
AcDbSymbolTableRecord
100
AcDbLayerTableRecord
  2
0
 70
     0
 62
     7
  6
Continuous
370
    -3
390
F
  0
LAYER
  5
3B
330
2
100
AcDbSymbolTableRecord
100
AcDbLayerTableRecord
  2
Default
 70
     0
 62
     7
  6
Continuous
370
    -3
390
F
  0
ENDTAB
  0
TABLE
  2
STYLE
  5
3
330
0
100
AcDbSymbolTable
 70
     1
  0
STYLE
  5
11
330
3
100
AcDbSymbolTableRecord
100
AcDbTextStyleTableRecord
  2
Standard
 70
     0
 40
0.0
 41
1.0
 50
0.0
 71
     0
 42
0.2
  3
txt
  4

  0
ENDTAB
  0
TABLE
  2
VIEW
  5
6
330
0
100
AcDbSymbolTable
 70
     0
  0
ENDTAB
  0
TABLE
  2
UCS
  5
7
330
0
100
AcDbSymbolTable
 70
     0
  0
ENDTAB
  0
TABLE
  2
APPID
  5
9
330
0
100
AcDbSymbolTable
 70
     1
  0
APPID
  5
12
330
9
100
AcDbSymbolTableRecord
100
AcDbRegAppTableRecord
  2
ACAD
 70
     0
  0
ENDTAB
  0
TABLE
  2
DIMSTYLE
  5
A
330
0
100
AcDbSymbolTable
 70
     1
100
AcDbDimStyleTable
  0
DIMSTYLE
105
27
330
A
100
AcDbSymbolTableRecord
100
AcDbDimStyleTableRecord
  2
Standard
 70
     0
340
11
  0
ENDTAB
  0
TABLE
  2
BLOCK_RECORD
  5
1
330
0
100
AcDbSymbolTable
 70
     1
  0
BLOCK_RECORD
  5
1F
330
1
100
AcDbSymbolTableRecord
100
AcDbBlockTableRecord
  2
*Model_Space
340
22
  0
BLOCK_RECORD
  5
1B
330
1
100
AcDbSymbolTableRecord
100
AcDbBlockTableRecord
  2
*Paper_Space
340
1E
  0
BLOCK_RECORD
  5
23
330
1
100
AcDbSymbolTableRecord
100
AcDbBlockTableRecord
  2
*Paper_Space0
340
26
  0
ENDTAB
  0
ENDSEC
  0
SECTION
  2
BLOCKS
  0
BLOCK
  5
20
330
1F
100
AcDbEntity
  8
0
100
AcDbBlockBegin
  2
*Model_Space
 70
     0
 10
0.0
 20
0.0
 30
0.0
  3
*Model_Space
  1

  0
ENDBLK
  5
21
330
1F
100
AcDbEntity
  8
0
100
AcDbBlockEnd
  0
BLOCK
  5
1C
330
1B
100
AcDbEntity
 67
     1
  8
0
100
AcDbBlockBegin
  2
*Paper_Space
 70
     0
 10
0.0
 20
0.0
 30
0.0
  3
*Paper_Space
  1

  0
ENDBLK
  5
1D
330
1B
100
AcDbEntity
 67
     1
  8
0
100
AcDbBlockEnd
  0
BLOCK
  5
24
330
23
100
AcDbEntity
  8
0
100
AcDbBlockBegin
  2
*Paper_Space0
 70
     0
 10
0.0
 20
0.0
 30
0.0
  3
*Paper_Space0
  1

  0
ENDBLK
  5
25
330
23
100
AcDbEntity
  8
0
100
AcDbBlockEnd
  0
ENDSEC
  0
SECTION
  2
ENTITIES
  0
LINE
  5
3C
330
1F
100
AcDbEntity
  8
Default
100
AcDbLine
 10
95.0
 20
22.06
 30
0.0
 11
95.7429013627
 21
22.06
 31
0.0
  0
POLYLINE
  5
3D
330
1F
100
AcDbEntity
  8
Default
100
AcDb2dPolyline
 66
     1
 10
0.0
 20
0.0
 30
0.0
  0
VERTEX
  5
3E
330
3D
100
AcDbEntity
  8
Default
100
AcDbVertex
100
AcDb2dVertex
 10
96.88993787180002
 20
20.8130409487
 30
0.0
  0
VERTEX
  5
3F
330
3D
100
AcDbEntity
  8
Default
100
AcDbVertex
100
AcDb2dVertex
 10
100.1094436230911
 20
0.2306930506583396
 30
0.0
  0
SEQEND
  5
40
330
3D
100
AcDbEntity
  8
Default
  0
ARC
  5
41
330
1F
100
AcDbEntity
  8
Default
  6
Continuous
100
AcDbCircle
 10
100.3076846005
 20
0.0887678607999938
 30
0.0
 40
0.0937678609
100
AcDbArc
 50
118.7203267979021
 51
270.0
  0
LINE
  5
42
330
1F
100
AcDbEntity
  8
Default
  6
Continuous
100
AcDbLine
 10
101.5175671877
 20
-0.0050000001000062
 30
0.0
 11
100.2976846005
 21
-0.0050000000000061
 31
0.0
  0
SPLINE
  5
43
330
1F
100
AcDbEntity
  8
Default
100
AcDbSpline
210
0.0
220
0.0
230
1.0
 70
     8
 71
     5
 72
    12
 73
     6
 74
     0
 42
0.0000000001
 43
0.0000000001
 40
-1.0
 40
-1.0
 40
-1.0
 40
-1.0
 40
-1.0
 40
-1.0
 40
0.0
 40
0.0
 40
0.0
 40
0.0
 40
0.0
 40
0.0
 10
100.1094436230911
 20
0.2306930506583396
 30
0.0
 10
100.1120426990004
 20
0.2140771199184082
 30
0.0
 10
100.1146417749098
 20
0.1974611891784769
 30
0.0
 10
100.1350347613259
 20
0.1709999999999958
 30
0.0
 10
100.1518527383129
 20
0.1709999999999958
 30
0.0
 10
100.1686707153
 20
0.1709999999999958
 30
0.0
  0
SPLINE
  5
44
330
1F
100
AcDbEntity
  8
Default
100
AcDbSpline
210
0.0
220
0.0
230
1.0
 70
     8
 71
     5
 72
    12
 73
     6
 74
     0
 42
0.0000000001
 43
0.0000000001
 40
0.0
 40
0.0
 40
0.0
 40
0.0
 40
0.0
 40
0.0
 40
1.0
 40
1.0
 40
1.0
 40
1.0
 40
1.0
 40
1.0
 10
101.5549086091409
 20
0.1709999999999958
 30
0.0
 10
101.5785142981922
 20
0.1709999999999958
 30
0.0
 10
101.6021199872435
 20
0.1709999999999958
 30
0.0
 10
101.641272456625
 20
0.2102706395608941
 30
0.0
 10
101.6384348915625
 20
0.2337051606804444
 30
0.0
 10
101.6355973265
 20
0.2571396817999947
 30
0.0
  0
ARC
  5
45
330
1F
100
AcDbEntity
  8
Default
  6
Continuous
100
AcDbCircle
 10
101.5175671877
 20
0.0887678607999938
 30
0.0
 40
0.0937678609
100
AcDbArc
 50
270.0
 51
61.27967320209795
  0
POLYLINE
  5
46
330
1F
100
AcDbEntity
  8
Default
100
AcDb2dPolyline
 66
     1
 10
0.0
 20
0.0
 30
0.0
  0
VERTEX
  5
47
330
46
100
AcDbEntity
  8
Default
100
AcDbVertex
100
AcDb2dVertex
 10
94.98000000000023
 20
22.05499999999978
 30
0.0
  0
VERTEX
  5
48
330
46
100
AcDbEntity
  8
Default
100
AcDbVertex
100
AcDb2dVertex
 10
94.98000000000023
 20
24.80499999999978
 30
0.0
  0
SEQEND
  5
49
330
46
100
AcDbEntity
  8
Default
  0
POLYLINE
  5
4A
330
1F
100
AcDbEntity
  8
Default
100
AcDb2dPolyline
 66
     1
 10
0.0
 20
0.0
 30
0.0
  0
VERTEX
  5
4B
330
4A
100
AcDbEntity
  8
Default
100
AcDbVertex
100
AcDb2dVertex
 10
100.1686707153
 20
0.1709999999999958
 30
0.0
  0
VERTEX
  5
4C
330
4A
100
AcDbEntity
  8
Default
100
AcDbVertex
100
AcDb2dVertex
 10
101.5549086091409
 20
0.1709999999999958
 30
0.0
  0
SEQEND
  5
4D
330
4A
100
AcDbEntity
  8
Default
  0
POLYLINE
  5
4E
330
1F
100
AcDbEntity
  8
Default
100
AcDb2dPolyline
 66
     1
 10
0.0
 20
0.0
 30
0.0
  0
VERTEX
  5
4F
330
4E
100
AcDbEntity
  8
Default
100
AcDbVertex
100
AcDb2dVertex
 10
101.6355973265
 20
0.2571396817999947
 30
0.0
  0
VERTEX
  5
50
330
4E
100
AcDbEntity
  8
Default
100
AcDbVertex
100
AcDb2dVertex
 10
98.66370245743576
 20
24.80104670776897
 30
0.0
  0
SEQEND
  5
51
330
4E
100
AcDbEntity
  8
Default
  0
SPLINE
  5
52
330
1F
100
AcDbEntity
  8
Default
100
AcDbSpline
210
0.0
220
0.0
230
1.0
 70
     8
 71
     5
 72
    12
 73
     6
 74
     0
 42
0.0000000001
 43
0.0000000001
 40
-1.0
 40
-1.0
 40
-1.0
 40
-1.0
 40
-1.0
 40
-1.0
 40
0.0
 40
0.0
 40
0.0
 40
0.0
 40
0.0
 40
0.0
 10
95.7429013627
 20
22.06
 30
0.0
 10
96.08175824274392
 20
22.06
 30
0.0
 10
96.42061512278784
 20
22.06
 30
0.0
 10
96.7852029498379
 20
21.48261285427397
 30
0.0
 10
96.83757041081896
 20
21.14782690148698
 30
0.0
 10
96.88993787180002
 20
20.8130409487
 30
0.0
  0
POLYLINE
  5
53
330
1F
100
AcDbEntity
  8
Default
100
AcDb2dPolyline
 66
     1
 10
0.0
 20
0.0
 30
0.0
  0
VERTEX
  5
54
330
53
100
AcDbEntity
  8
Default
100
AcDbVertex
100
AcDb2dVertex
 10
63.8313292847
 20
0.1709999999999958
 30
0.0
  0
VERTEX
  5
55
330
53
100
AcDbEntity
  8
Default
100
AcDbVertex
100
AcDb2dVertex
 10
62.44509139085911
 20
0.1709999999999958
 30
0.0
  0
SEQEND
  5
56
330
53
100
AcDbEntity
  8
Default
  0
POLYLINE
  5
57
330
1F
100
AcDbEntity
  8
Default
100
AcDb2dPolyline
 66
     1
 10
0.0
 20
0.0
 30
0.0
  0
VERTEX
  5
58
330
57
100
AcDbEntity
  8
Default
100
AcDbVertex
100
AcDb2dVertex
 10
62.3644026735
 20
0.2571396817999947
 30
0.0
  0
VERTEX
  5
59
330
57
100
AcDbEntity
  8
Default
100
AcDbVertex
100
AcDb2dVertex
 10
65.33629754256424
 20
24.80104670776897
 30
0.0
  0
SEQEND
  5
5A
330
57
100
AcDbEntity
  8
Default
  0
ARC
  5
5B
330
1F
100
AcDbEntity
  8
Default
  6
Continuous
100
AcDbCircle
 10
62.48243281230001
 20
0.0887678607999938
 30
0.0
 40
0.0937678609
100
AcDbArc
 50
118.7203267979021
 51
270.0000000000043
  0
SPLINE
  5
5C
330
1F
100
AcDbEntity
  8
Default
100
AcDbSpline
210
0.0
220
0.0
230
1.0
 70
     8
 71
     5
 72
    12
 73
     6
 74
     0
 42
0.0000000001
 43
0.0000000001
 40
0.0
 40
0.0
 40
0.0
 40
0.0
 40
0.0
 40
0.0
 40
1.0
 40
1.0
 40
1.0
 40
1.0
 40
1.0
 40
1.0
 10
62.44509139085911
 20
0.1709999999999958
 30
0.0
 10
62.4214857018078
 20
0.1709999999999958
 30
0.0
 10
62.39788001275651
 20
0.1709999999999958
 30
0.0
 10
62.35872754337499
 20
0.2102706395608941
 30
0.0
 10
62.3615651084375
 20
0.2337051606804444
 30
0.0
 10
62.3644026735
 20
0.2571396817999947
 30
0.0
  0
ARC
  5
5D
330
1F
100
AcDbEntity
  8
Default
  6
Continuous
100
AcDbCircle
 10
63.6923153995
 20
0.0887678607999938
 30
0.0
 40
0.0937678609
100
AcDbArc
 50
270.0
 51
61.27967320209802
  0
LINE
  5
5E
330
1F
100
AcDbEntity
  8
Default
  6
Continuous
100
AcDbLine
 10
62.48243281230001
 20
-0.0050000001000062
 30
0.0
 11
63.70231539949999
 21
-0.0050000000000061
 31
0.0
  0
SPLINE
  5
5F
330
1F
100
AcDbEntity
  8
Default
100
AcDbSpline
210
0.0
220
0.0
230
1.0
 70
     8
 71
     5
 72
    12
 73
     6
 74
     0
 42
0.0000000001
 43
0.0000000001
 40
-1.0
 40
-1.0
 40
-1.0
 40
-1.0
 40
-1.0
 40
-1.0
 40
0.0
 40
0.0
 40
0.0
 40
0.0
 40
0.0
 40
0.0
 10
68.2570986373
 20
22.06
 30
0.0
 10
67.91824175725608
 20
22.06
 30
0.0
 10
67.57938487721216
 20
22.06
 30
0.0
 10
67.2147970501621
 20
21.48261285427397
 30
0.0
 10
67.16242958918104
 20
21.14782690148698
 30
0.0
 10
67.11006212819998
 20
20.8130409487
 30
0.0
  0
SPLINE
  5
60
330
1F
100
AcDbEntity
  8
Default
100
AcDbSpline
210
0.0
220
0.0
230
1.0
 70
     8
 71
     5
 72
    12
 73
     6
 74
     0
 42
0.0000000001
 43
0.0000000001
 40
-1.0
 40
-1.0
 40
-1.0
 40
-1.0
 40
-1.0
 40
-1.0
 40
0.0
 40
0.0
 40
0.0
 40
0.0
 40
0.0
 40
0.0
 10
63.89055637690891
 20
0.2306930506583396
 30
0.0
 10
63.88795730099954
 20
0.2140771199184082
 30
0.0
 10
63.88535822509017
 20
0.1974611891784769
 30
0.0
 10
63.86496523867411
 20
0.1709999999999958
 30
0.0
 10
63.84814726168705
 20
0.1709999999999958
 30
0.0
 10
63.8313292847
 20
0.1709999999999958
 30
0.0
  0
POLYLINE
  5
61
330
1F
100
AcDbEntity
  8
Default
100
AcDb2dPolyline
 66
     1
 10
0.0
 20
0.0
 30
0.0
  0
VERTEX
  5
62
330
61
100
AcDbEntity
  8
Default
100
AcDbVertex
100
AcDb2dVertex
 10
67.11006212819998
 20
20.8130409487
 30
0.0
  0
VERTEX
  5
63
330
61
100
AcDbEntity
  8
Default
100
AcDbVertex
100
AcDb2dVertex
 10
63.89055637690891
 20
0.2306930506583396
 30
0.0
  0
SEQEND
  5
64
330
61
100
AcDbEntity
  8
Default
  0
LINE
  5
65
330
1F
100
AcDbEntity
  8
Default
100
AcDbLine
 10
69.0
 20
22.06
 30
0.0
 11
68.2570986373
 21
22.06
 31
0.0
  0
POLYLINE
  5
66
330
1F
100
AcDbEntity
  8
Default
100
AcDb2dPolyline
 66
     1
 10
0.0
 20
0.0
 30
0.0
  0
VERTEX
  5
67
330
66
100
AcDbEntity
  8
Default
100
AcDbVertex
100
AcDb2dVertex
 10
69.01999999999978
 20
22.05499999999978
 30
0.0
  0
VERTEX
  5
68
330
66
100
AcDbEntity
  8
Default
100
AcDbVertex
100
AcDb2dVertex
 10
69.01999999999978
 20
24.80499999999978
 30
0.0
  0
SEQEND
  5
69
330
66
100
AcDbEntity
  8
Default
  0
POLYLINE
  5
6A
330
1F
100
AcDbEntity
  8
Default
100
AcDb2dPolyline
 66
     1
 10
0.0
 20
0.0
 30
0.0
  0
VERTEX
  5
6B
330
6A
100
AcDbEntity
  8
Default
100
AcDbVertex
100
AcDb2dVertex
 10
39.65559732649978
 20
0.2621396818000008
 30
0.0
  0
VERTEX
  5
6C
330
6A
100
AcDbEntity
  8
Default
100
AcDbVertex
100
AcDb2dVertex
 10
36.68370245743553
 20
24.80604670776897
 30
0.0
  0
SEQEND
  5
6D
330
6A
100
AcDbEntity
  8
Default
  0
SPLINE
  5
6E
330
1F
100
AcDbEntity
  8
Default
100
AcDbSpline
210
0.0
220
0.0
230
1.0
 70
     8
 71
     5
 72
    12
 73
     6
 74
     0
 42
0.0000000001
 43
0.0000000001
 40
-1.0
 40
-1.0
 40
-1.0
 40
-1.0
 40
-1.0
 40
-1.0
 40
0.0
 40
0.0
 40
0.0
 40
0.0
 40
0.0
 40
0.0
 10
38.12944362309086
 20
0.2356930506583457
 30
0.0
 10
38.13204269900024
 20
0.2190771199184143
 30
0.0
 10
38.13464177490962
 20
0.2024611891784829
 30
0.0
 10
38.15503476132567
 20
0.1760000000000019
 30
0.0
 10
38.17185273831272
 20
0.1760000000000019
 30
0.0
 10
38.18867071529977
 20
0.1760000000000019
 30
0.0
  0
ARC
  5
6F
330
1F
100
AcDbEntity
  8
Default
  6
Continuous
100
AcDbCircle
 10
38.32768460049977
 20
0.0937678607999999
 30
0.0
 40
0.0937678609
100
AcDbArc
 50
118.7203267979021
 51
270.0000000000043
  0
POLYLINE
  5
70
330
1F
100
AcDbEntity
  8
Default
100
AcDb2dPolyline
 66
     1
 10
0.0
 20
0.0
 30
0.0
  0
VERTEX
  5
71
330
70
100
AcDbEntity
  8
Default
100
AcDbVertex
100
AcDb2dVertex
 10
38.18867071529977
 20
0.1760000000000019
 30
0.0
  0
VERTEX
  5
72
330
70
100
AcDbEntity
  8
Default
100
AcDbVertex
100
AcDb2dVertex
 10
39.57490860914066
 20
0.1760000000000019
 30
0.0
  0
SEQEND
  5
73
330
70
100
AcDbEntity
  8
Default
  0
SPLINE
  5
74
330
1F
100
AcDbEntity
  8
Default
100
AcDbSpline
210
0.0
220
0.0
230
1.0
 70
     8
 71
     5
 72
    12
 73
     6
 74
     0
 42
0.0000000001
 43
0.0000000001
 40
0.0
 40
0.0
 40
0.0
 40
0.0
 40
0.0
 40
0.0
 40
1.0
 40
1.0
 40
1.0
 40
1.0
 40
1.0
 40
1.0
 10
39.57490860914066
 20
0.1760000000000019
 30
0.0
 10
39.59851429819197
 20
0.1760000000000019
 30
0.0
 10
39.62211998724327
 20
0.1760000000000019
 30
0.0
 10
39.66127245662478
 20
0.2152706395609002
 30
0.0
 10
39.65843489156228
 20
0.2387051606804505
 30
0.0
 10
39.65559732649978
 20
0.2621396818000008
 30
0.0
  0
ARC
  5
75
330
1F
100
AcDbEntity
  8
Default
  6
Continuous
100
AcDbCircle
 10
39.53756718769977
 20
0.0937678607999999
 30
0.0
 40
0.0937678609
100
AcDbArc
 50
270.0
 51
61.27967320209795
  0
LINE
  5
76
330
1F
100
AcDbEntity
  8
Default
  6
Continuous
100
AcDbLine
 10
39.53756718769977
 20
-0.0000000001000001
 30
0.0
 11
38.31768460049978
 21
0.0
 31
0.0
  0
LINE
  5
77
330
1F
100
AcDbEntity
  8
Default
  6
Continuous
100
AcDbLine
 10
33.0
 20
22.05999999999978
 30
0.0
 11
32.99999999999978
 21
24.7888606504
 31
0.0
  0
LINE
  5
78
330
1F
100
AcDbEntity
  8
Default
100
AcDbLine
 10
33.01999999999978
 20
22.065
 30
0.0
 11
33.76290136269977
 21
22.065
 31
0.0
  0
POLYLINE
  5
79
330
1F
100
AcDbEntity
  8
Default
100
AcDb2dPolyline
 66
     1
 10
0.0
 20
0.0
 30
0.0
  0
VERTEX
  5
7A
330
79
100
AcDbEntity
  8
Default
100
AcDbVertex
100
AcDb2dVertex
 10
34.90993787179978
 20
20.8180409487
 30
0.0
  0
VERTEX
  5
7B
330
79
100
AcDbEntity
  8
Default
100
AcDbVertex
100
AcDb2dVertex
 10
38.12944362309086
 20
0.2356930506583457
 30
0.0
  0
SEQEND
  5
7C
330
79
100
AcDbEntity
  8
Default
  0
SPLINE
  5
7D
330
1F
100
AcDbEntity
  8
Default
100
AcDbSpline
210
0.0
220
0.0
230
1.0
 70
     8
 71
     5
 72
    12
 73
     6
 74
     0
 42
0.0000000001
 43
0.0000000001
 40
-1.0
 40
-1.0
 40
-1.0
 40
-1.0
 40
-1.0
 40
-1.0
 40
0.0
 40
0.0
 40
0.0
 40
0.0
 40
0.0
 40
0.0
 10
33.76290136269977
 20
22.065
 30
0.0
 10
34.10175824274369
 20
22.065
 30
0.0
 10
34.4406151227876
 20
22.065
 30
0.0
 10
34.80520294983767
 20
21.48761285427397
 30
0.0
 10
34.85757041081872
 20
21.15282690148699
 30
0.0
 10
34.90993787179978
 20
20.8180409487
 30
0.0
  0
LINE
  5
7E
330
1F
100
AcDbEntity
  8
Default
100
AcDbLine
 10
-33.01999999999978
 20
22.065
 30
0.0
 11
-33.76290136269977
 21
22.065
 31
0.0
  0
SPLINE
  5
7F
330
1F
100
AcDbEntity
  8
Default
100
AcDbSpline
210
0.0
220
0.0
230
1.0
 70
     8
 71
     5
 72
    12
 73
     6
 74
     0
 42
0.0000000001
 43
0.0000000001
 40
-1.0
 40
-1.0
 40
-1.0
 40
-1.0
 40
-1.0
 40
-1.0
 40
0.0
 40
0.0
 40
0.0
 40
0.0
 40
0.0
 40
0.0
 10
-33.76290136269977
 20
22.065
 30
0.0
 10
-34.10175824274369
 20
22.065
 30
0.0
 10
-34.4406151227876
 20
22.065
 30
0.0
 10
-34.80520294983767
 20
21.48761285427397
 30
0.0
 10
-34.85757041081872
 20
21.15282690148699
 30
0.0
 10
-34.90993787179978
 20
20.8180409487
 30
0.0
  0
POLYLINE
  5
80
330
1F
100
AcDbEntity
  8
Default
100
AcDb2dPolyline
 66
     1
 10
0.0
 20
0.0
 30
0.0
  0
VERTEX
  5
81
330
80
100
AcDbEntity
  8
Default
100
AcDbVertex
100
AcDb2dVertex
 10
-39.65559732649978
 20
0.2621396818000008
 30
0.0
  0
VERTEX
  5
82
330
80
100
AcDbEntity
  8
Default
100
AcDbVertex
100
AcDb2dVertex
 10
-36.68370245743553
 20
24.80604670776897
 30
0.0
  0
SEQEND
  5
83
330
80
100
AcDbEntity
  8
Default
  0
SPLINE
  5
84
330
1F
100
AcDbEntity
  8
Default
100
AcDbSpline
210
0.0
220
0.0
230
1.0
 70
     8
 71
     5
 72
    12
 73
     6
 74
     0
 42
0.0000000001
 43
0.0000000001
 40
-1.0
 40
-1.0
 40
-1.0
 40
-1.0
 40
-1.0
 40
-1.0
 40
0.0
 40
0.0
 40
0.0
 40
0.0
 40
0.0
 40
0.0
 10
-38.12944362309086
 20
0.2356930506583457
 30
0.0
 10
-38.13204269900024
 20
0.2190771199184143
 30
0.0
 10
-38.13464177490962
 20
0.2024611891784829
 30
0.0
 10
-38.15503476132567
 20
0.1760000000000019
 30
0.0
 10
-38.17185273831272
 20
0.1760000000000019
 30
0.0
 10
-38.18867071529977
 20
0.1760000000000019
 30
0.0
  0
SPLINE
  5
85
330
1F
100
AcDbEntity
  8
Default
100
AcDbSpline
210
0.0
220
0.0
230
1.0
 70
     8
 71
     5
 72
    12
 73
     6
 74
     0
 42
0.0000000001
 43
0.0000000001
 40
0.0
 40
0.0
 40
0.0
 40
0.0
 40
0.0
 40
0.0
 40
1.0
 40
1.0
 40
1.0
 40
1.0
 40
1.0
 40
1.0
 10
-39.57490860914066
 20
0.1760000000000019
 30
0.0
 10
-39.59851429819197
 20
0.1760000000000019
 30
0.0
 10
-39.62211998724327
 20
0.1760000000000019
 30
0.0
 10
-39.66127245662478
 20
0.2152706395609002
 30
0.0
 10
-39.65843489156228
 20
0.2387051606804505
 30
0.0
 10
-39.65559732649978
 20
0.2621396818000008
 30
0.0
  0
POLYLINE
  5
86
330
1F
100
AcDbEntity
  8
Default
100
AcDb2dPolyline
 66
     1
 10
0.0
 20
0.0
 30
0.0
  0
VERTEX
  5
87
330
86
100
AcDbEntity
  8
Default
100
AcDbVertex
100
AcDb2dVertex
 10
-34.90993787179978
 20
20.8180409487
 30
0.0
  0
VERTEX
  5
88
330
86
100
AcDbEntity
  8
Default
100
AcDbVertex
100
AcDb2dVertex
 10
-38.12944362309086
 20
0.2356930506583457
 30
0.0
  0
SEQEND
  5
89
330
86
100
AcDbEntity
  8
Default
  0
POLYLINE
  5
8A
330
1F
100
AcDbEntity
  8
Default
100
AcDb2dPolyline
 66
     1
 10
0.0
 20
0.0
 30
0.0
  0
VERTEX
  5
8B
330
8A
100
AcDbEntity
  8
Default
100
AcDbVertex
100
AcDb2dVertex
 10
-38.18867071529977
 20
0.1760000000000019
 30
0.0
  0
VERTEX
  5
8C
330
8A
100
AcDbEntity
  8
Default
100
AcDbVertex
100
AcDb2dVertex
 10
-39.57490860914066
 20
0.1760000000000019
 30
0.0
  0
SEQEND
  5
8D
330
8A
100
AcDbEntity
  8
Default
  0
LINE
  5
8E
330
1F
100
AcDbEntity
  8
Default
  6
Continuous
100
AcDbLine
 10
-32.99999999999978
 20
24.7888606504
 30
0.0
 11
-33.0
 21
22.05999999999978
 31
0.0
  0
ARC
  5
8F
330
1F
100
AcDbEntity
  8
Default
  6
Continuous
100
AcDbCircle
 10
-38.32768460049977
 20
0.0937678607999999
 30
0.0
 40
0.0937678609
100
AcDbArc
 50
270.0
 51
61.27967320209802
  0
ARC
  5
90
330
1F
100
AcDbEntity
  8
Default
  6
Continuous
100
AcDbCircle
 10
-39.53756718769977
 20
0.0937678607999999
 30
0.0
 40
0.0937678609
100
AcDbArc
 50
118.7203267979021
 51
270.0000000000043
  0
LINE
  5
91
330
1F
100
AcDbEntity
  8
Default
  6
Continuous
100
AcDbLine
 10
-39.53756718769977
 20
-0.0000000001000001
 30
0.0
 11
-38.31768460049978
 21
0.0
 31
0.0
  0
LINE
  5
92
330
1F
100
AcDbEntity
  8
Default
100
AcDbLine
 10
95.0
 20
22.06
 30
0.0
 11
69.0
 21
22.06
 31
0.0
  0
LINE
  5
93
330
1F
100
AcDbEntity
  8
Default
100
AcDbLine
 10
33.0
 20
22.05999999999978
 30
0.0
 11
-33.0
 21
22.05999999999978
 31
0.0
  0
LINE
  5
94
330
1F
100
AcDbEntity
  8
Default
  6
Continuous
100
AcDbLine
 10
-45.0
 20
25.31
 30
0.0
 11
-45.0
 21
25.81
 31
0.0
  0
LINE
  5
95
330
1F
100
AcDbEntity
  8
Default
  6
Continuous
100
AcDbLine
 10
-45.0
 20
25.31
 30
0.0
 11
-45.0
 21
25.81
 31
0.0
  0
LINE
  5
96
330
1F
100
AcDbEntity
  8
Default
  6
Continuous
100
AcDbLine
 10
-43.836
 20
24.81
 30
0.0
 11
-45.0
 21
25.31
 31
0.0
  0
LINE
  5
97
330
1F
100
AcDbEntity
  8
Default
  6
Continuous
100
AcDbLine
 10
43.836
 20
24.81
 30
0.0
 11
45.0
 21
25.31
 31
0.0
  0
LINE
  5
98
330
1F
100
AcDbEntity
  8
Default
  6
Continuous
100
AcDbLine
 10
43.836
 20
24.81
 30
0.0
 11
-43.836
 21
24.81
 31
0.0
  0
LINE
  5
99
330
1F
100
AcDbEntity
  8
Default
  6
Continuous
100
AcDbLine
 10
45.0
 20
25.31
 30
0.0
 11
-45.0
 21
25.31
 31
0.0
  0
LINE
  5
9A
330
1F
100
AcDbEntity
  8
Default
  6
Continuous
100
AcDbLine
 10
45.0
 20
25.31
 30
0.0
 11
45.0
 21
25.81
 31
0.0
  0
ARC
  5
9B
330
1F
100
AcDbEntity
  8
Default
  6
Continuous
100
AcDbCircle
 10
-5.621000000343086
 20
68.93277777770007
 30
0.0
 40
50.62100000034279
100
AcDbArc
 50
0.0
 51
18.26526615035469
  0
LINE
  5
9C
330
1F
100
AcDbEntity
  8
Default
  6
Continuous
100
AcDbLine
 10
44.99999999999969
 20
62.68722222219976
 30
0.0
 11
44.9999999999997
 21
68.93277777770001
 31
0.0
  0
ARC
  5
9D
330
1F
100
AcDbEntity
  8
Default
  6
Continuous
100
AcDbCircle
 10
-5.62100000034394
 20
62.68722222220008
 30
0.0
 40
50.62100000034363
100
AcDbArc
 50
341.734733849645
 51
359.9999999999992
  0
ARC
  5
9E
330
1F
100
AcDbEntity
  8
Default
  6
Continuous
100
AcDbCircle
 10
36.75179999411765
 20
48.70224951346496
 30
0.0
 40
5.99999999995469
100
AcDbArc
 50
277.7202018259551
 51
341.7347338495628
  0
ARC
  5
9F
330
1F
100
AcDbEntity
  8
Default
  6
Continuous
100
AcDbCircle
 10
8.707499999999333
 20
255.5730000009058
 30
0.0
 40
214.7630000009057
100
AcDbArc
 50
270.0000000000001
 51
277.7202018268905
  0
LINE
  5
A0
330
1F
100
AcDbEntity
  8
Default
  6
Continuous
100
AcDbLine
 10
-8.707499999999689
 20
40.81
 30
0.0
 11
8.707499999999696
 21
40.81
 31
0.0
  0
ARC
  5
A1
330
1F
100
AcDbEntity
  8
Default
  6
Continuous
100
AcDbCircle
 10
-8.707500000000305
 20
255.5730000001578
 30
0.0
 40
214.7630000001578
100
AcDbArc
 50
262.2797981730961
 51
270.0000000000002
  0
ARC
  5
A2
330
1F
100
AcDbEntity
  8
Default
  6
Continuous
100
AcDbCircle
 10
-36.75179999399554
 20
48.70224951355245
 30
0.0
 40
6.000000000051162
100
AcDbArc
 50
198.2652661510122
 51
262.2797981734723
  0
ARC
  5
A3
330
1F
100
AcDbEntity
  8
Default
  6
Continuous
100
AcDbCircle
 10
5.62099999940011
 20
62.68722222219997
 30
0.0
 40
50.62099999940041
100
AcDbArc
 50
180.0
 51
198.2652661507067
  0
LINE
  5
A4
330
1F
100
AcDbEntity
  8
Default
  6
Continuous
100
AcDbLine
 10
-45.0000000000003
 20
68.93277777770027
 30
0.0
 11
-45.0000000000003
 21
62.68722222220001
 31
0.0
  0
ARC
  5
A5
330
1F
100
AcDbEntity
  8
Default
  6
Continuous
100
AcDbCircle
 10
5.620999999400858
 20
68.93277777769993
 30
0.0
 40
50.62099999940116
100
AcDbArc
 50
161.7347338492937
 51
180.0
  0
ARC
  5
A6
330
1F
100
AcDbEntity
  8
Default
  6
Continuous
100
AcDbCircle
 10
-36.75179999391177
 20
82.91775048631993
 30
0.0
 40
6.000000000139369
100
AcDbArc
 50
97.72020182722424
 51
161.734733848987
  0
ARC
  5
A7
330
1F
100
AcDbEntity
  8
Default
  6
Continuous
100
AcDbCircle
 10
-8.707500000000278
 20
-123.9529999946941
 30
0.0
 40
214.7629999946941
100
AcDbArc
 50
90.0
 51
97.72020182710163
  0
LINE
  5
A8
330
1F
100
AcDbEntity
  8
Default
  6
Continuous
100
AcDbLine
 10
8.707499999999788
 20
90.81
 30
0.0
 11
-8.707500000000303
 21
90.81000000000003
 31
0.0
  0
ARC
  5
A9
330
1F
100
AcDbEntity
  8
Default
  6
Continuous
100
AcDbCircle
 10
8.707499999999696
 20
-123.953
 30
0.0
 40
214.763
100
AcDbArc
 50
82.27979817309959
 51
89.99999999999957
  0
ARC
  5
AA
330
1F
100
AcDbEntity
  8
Default
  6
Continuous
100
AcDbCircle
 10
36.75179999410386
 20
82.91775048643052
 30
0.0
 40
5.999999999969225
100
AcDbArc
 50
18.26526615043609
 51
82.27979817310047
  0
LINE
  5
AB
330
1F
100
AcDbEntity
  8
Default
  6
Continuous
100
AcDbLine
 10
57.0
 20
25.31
 30
0.0
 11
57.0
 21
25.81
 31
0.0
  0
LINE
  5
AC
330
1F
100
AcDbEntity
  8
Default
  6
Continuous
100
AcDbLine
 10
57.0
 20
25.31
 30
0.0
 11
57.0
 21
25.81
 31
0.0
  0
LINE
  5
AD
330
1F
100
AcDbEntity
  8
Default
  6
Continuous
100
AcDbLine
 10
105.836
 20
24.81
 30
0.0
 11
107.0
 21
25.31
 31
0.0
  0
LINE
  5
AE
330
1F
100
AcDbEntity
  8
Default
  6
Continuous
100
AcDbLine
 10
58.164
 20
24.81
 30
0.0
 11
57.0
 21
25.31
 31
0.0
  0
LINE
  5
AF
330
1F
100
AcDbEntity
  8
Default
  6
Continuous
100
AcDbLine
 10
105.836
 20
24.81
 30
0.0
 11
58.164
 21
24.81
 31
0.0
  0
LINE
  5
B0
330
1F
100
AcDbEntity
  8
Default
  6
Continuous
100
AcDbLine
 10
107.0
 20
25.31
 30
0.0
 11
57.0
 21
25.31
 31
0.0
  0
LINE
  5
B1
330
1F
100
AcDbEntity
  8
Default
  6
Continuous
100
AcDbLine
 10
107.0
 20
25.31
 30
0.0
 11
107.0
 21
25.81
 31
0.0
  0
POLYLINE
  5
B2
330
1F
100
AcDbEntity
  8
Default
100
AcDb2dPolyline
 66
     1
 10
0.0
 20
0.0
 30
0.0
  0
VERTEX
  5
B3
330
B2
100
AcDbEntity
  8
Default
100
AcDbVertex
100
AcDb2dVertex
 10
-45.0
 20
25.81
 30
0.0
  0
VERTEX
  5
B4
330
B2
100
AcDbEntity
  8
Default
100
AcDbVertex
100
AcDb2dVertex
 10
45.0
 20
25.81
 30
0.0
  0
SEQEND
  5
B5
330
B2
100
AcDbEntity
  8
Default
  0
POLYLINE
  5
B6
330
1F
100
AcDbEntity
  8
Default
100
AcDb2dPolyline
 66
     1
 10
0.0
 20
0.0
 30
0.0
  0
VERTEX
  5
B7
330
B6
100
AcDbEntity
  8
Default
100
AcDbVertex
100
AcDb2dVertex
 10
57.0
 20
25.81
 30
0.0
  0
VERTEX
  5
B8
330
B6
100
AcDbEntity
  8
Default
100
AcDbVertex
100
AcDb2dVertex
 10
107.0
 20
25.81
 30
0.0
  0
SEQEND
  5
B9
330
B6
100
AcDbEntity
  8
Default
  0
ENDSEC
  0
SECTION
  2
OBJECTS
  0
DICTIONARY
  5
C
330
0
100
AcDbDictionary
281
     1
  3
ACAD_GROUP
350
D
  3
ACAD_LAYOUT
350
1A
  3
ACAD_MLEADERSTYLE
350
BB
  3
ACAD_MLINESTYLE
350
17
  3
ACAD_PLOTSETTINGS
350
19
  3
ACAD_PLOTSTYLENAME
350
E
  3
ACAD_TABLESTYLE
350
BA
  3
ACAD_VISUALSTYLE
350
2A
  0
DICTIONARY
  5
D
102
{ACAD_REACTORS
330
C
102
}
330
C
100
AcDbDictionary
281
     1
  0
DICTIONARY
  5
1A
102
{ACAD_REACTORS
330
C
102
}
330
C
100
AcDbDictionary
281
     1
  3
Layout1
350
1E
  3
Layout2
350
26
  3
Model
350
22
  0
DICTIONARY
  5
BB
102
{ACAD_REACTORS
330
C
102
}
330
C
100
AcDbDictionary
281
     1
  0
DICTIONARY
  5
17
102
{ACAD_REACTORS
330
C
102
}
330
C
100
AcDbDictionary
281
     1
  3
Standard
350
18
  0
DICTIONARY
  5
19
102
{ACAD_REACTORS
330
C
102
}
330
C
100
AcDbDictionary
281
     1
  0
ACDBDICTIONARYWDFLT
  5
E
102
{ACAD_REACTORS
330
C
102
}
330
C
100
AcDbDictionary
281
     1
  3
Normal
350
F
100
AcDbDictionaryWithDefault
340
F
  0
DICTIONARY
  5
BA
102
{ACAD_REACTORS
330
C
102
}
330
C
100
AcDbDictionary
281
     1
  0
DICTIONARY
  5
2A
102
{ACAD_REACTORS
330
C
102
}
330
C
100
AcDbDictionary
281
     1
  3
2dWireframe
350
2F
  3
3D Hidden
350
31
  3
3dWireframe
350
30
  3
Basic
350
32
  3
Brighten
350
36
  3
ColorChange
350
3A
  3
Conceptual
350
34
  3
Dim
350
35
  3
Facepattern
350
39
  3
Flat
350
2B
  3
FlatWithEdges
350
2C
  3
Gouraud
350
2D
  3
GouraudWithEdges
350
2E
  3
Linepattern
350
38
  3
Realistic
350
33
  3
Thicken
350
37
  0
LAYOUT
  5
1E
102
{ACAD_REACTORS
330
1A
102
}
330
1A
100
AcDbPlotSettings
  1

  2
none_device
  4

  6

 40
0.0
 41
0.0
 42
0.0
 43
0.0
 44
0.0
 45
0.0
 46
0.0
 47
0.0
 48
0.0
 49
0.0
140
0.0
141
0.0
142
1.0
143
1.0
 70
   688
 72
     0
 73
     0
 74
     5
  7

 75
    16
 76
     0
 77
     2
 78
   300
147
1.0
148
0.0
149
0.0
100
AcDbLayout
  1
Layout1
 70
     1
 71
     1
 10
0.0
 20
0.0
 11
12.0
 21
9.0
 12
0.0
 22
0.0
 32
0.0
 14
1.000000000000000E+20
 24
1.000000000000000E+20
 34
1.000000000000000E+20
 15
-1.000000000000000E+20
 25
-1.000000000000000E+20
 35
-1.000000000000000E+20
146
0.0
 13
0.0
 23
0.0
 33
0.0
 16
1.0
 26
0.0
 36
0.0
 17
0.0
 27
1.0
 37
0.0
 76
     0
330
1B
  0
LAYOUT
  5
26
102
{ACAD_REACTORS
330
1A
102
}
330
1A
100
AcDbPlotSettings
  1

  2
none_device
  4

  6

 40
0.0
 41
0.0
 42
0.0
 43
0.0
 44
0.0
 45
0.0
 46
0.0
 47
0.0
 48
0.0
 49
0.0
140
0.0
141
0.0
142
1.0
143
1.0
 70
   688
 72
     0
 73
     0
 74
     5
  7

 75
    16
 76
     0
 77
     2
 78
   300
147
1.0
148
0.0
149
0.0
100
AcDbLayout
  1
Layout2
 70
     1
 71
     2
 10
0.0
 20
0.0
 11
0.0
 21
0.0
 12
0.0
 22
0.0
 32
0.0
 14
0.0
 24
0.0
 34
0.0
 15
0.0
 25
0.0
 35
0.0
146
0.0
 13
0.0
 23
0.0
 33
0.0
 16
1.0
 26
0.0
 36
0.0
 17
0.0
 27
1.0
 37
0.0
 76
     0
330
23
  0
LAYOUT
  5
22
102
{ACAD_REACTORS
330
1A
102
}
330
1A
100
AcDbPlotSettings
  1

  2
none_device
  4

  6

 40
0.0
 41
0.0
 42
0.0
 43
0.0
 44
0.0
 45
0.0
 46
0.0
 47
0.0
 48
0.0
 49
0.0
140
0.0
141
0.0
142
1.0
143
1.0
 70
  1712
 72
     0
 73
     0
 74
     0
  7

 75
     0
 76
     0
 77
     2
 78
   300
147
1.0
148
0.0
149
0.0
100
AcDbLayout
  1
Model
 70
     1
 71
     0
 10
0.0
 20
0.0
 11
12.0
 21
9.0
 12
0.0
 22
0.0
 32
0.0
 14
-45.00000000000031
 24
-0.0050000001000062
 34
0.0
 15
107.0
 25
90.81000000000003
 35
0.0
146
0.0
 13
0.0
 23
0.0
 33
0.0
 16
1.0
 26
0.0
 36
0.0
 17
0.0
 27
1.0
 37
0.0
 76
     0
330
1F
331
29
  0
MLINESTYLE
  5
18
102
{ACAD_REACTORS
330
17
102
}
330
17
100
AcDbMlineStyle
  2
Standard
 70
     0
  3

 62
   256
 51
90.0
 52
90.0
 71
     2
 49
0.5
 62
   256
  6
BYLAYER
 49
-0.5
 62
   256
  6
BYLAYER
  0
ACDBPLACEHOLDER
  5
F
102
{ACAD_REACTORS
330
E
102
}
330
E
  0
VISUALSTYLE
  5
2F
102
{ACAD_REACTORS
330
2A
102
}
330
2A
100
AcDbVisualStyle
  2
2dWireframe
 70
     4
 71
     0
 72
     2
 73
     0
 90
        0
 40
-0.6
 41
-30.0
 62
     5
 63
     7
421
 16777215
 74
     1
 91
        4
 64
     7
 65
   257
 75
     1
175
     1
 42
1.0
 92
        0
 66
   257
 43
1.0
 76
     1
 77
     6
 78
     2
 67
     7
 79
     5
170
     0
171
     0
290
     0
174
     0
 93
        1
 44
0.0
173
     0
291
     0
 45
0.0
1001
ACAD
1000
AcDbSavedByObjectVersion
1070
     0
  0
VISUALSTYLE
  5
31
102
{ACAD_REACTORS
330
2A
102
}
330
2A
100
AcDbVisualStyle
  2
3D Hidden
 70
     6
 71
     1
 72
     2
 73
     2
 90
        0
 40
-0.6
 41
-30.0
 62
     5
 63
     7
421
 16777215
 74
     2
 91
        2
 64
     7
 65
   257
 75
     2
175
     1
 42
40.0
 92
        0
 66
   257
 43
1.0
 76
     1
 77
     6
 78
     2
 67
     7
 79
     3
170
     0
171
     0
290
     0
174
     0
 93
        1
 44
0.0
173
     0
291
     0
 45
0.0
1001
ACAD
1000
AcDbSavedByObjectVersion
1070
     0
  0
VISUALSTYLE
  5
30
102
{ACAD_REACTORS
330
2A
102
}
330
2A
100
AcDbVisualStyle
  2
3dWireframe
 70
     5
 71
     0
 72
     2
 73
     0
 90
        0
 40
-0.6
 41
-30.0
 62
     5
 63
     7
421
 16777215
 74
     1
 91
        4
 64
     7
 65
   257
 75
     1
175
     1
 42
1.0
 92
        0
 66
   257
 43
1.0
 76
     1
 77
     6
 78
     2
 67
     7
 79
     5
170
     0
171
     0
290
     0
174
     0
 93
        1
 44
0.0
173
     0
291
     0
 45
0.0
1001
ACAD
1000
AcDbSavedByObjectVersion
1070
     0
  0
VISUALSTYLE
  5
32
102
{ACAD_REACTORS
330
2A
102
}
330
2A
100
AcDbVisualStyle
  2
Basic
 70
     7
 71
     1
 72
     0
 73
     1
 90
        0
 40
-0.6
 41
-30.0
 62
     5
 63
     7
421
 16777215
 74
     0
 91
        4
 64
     7
 65
   257
 75
     1
175
     1
 42
1.0
 92
        8
 66
     7
 43
1.0
 76
     1
 77
     6
 78
     2
 67
     7
 79
     5
170
     0
171
     0
290
     0
174
     0
 93
        1
 44
0.0
173
     0
291
     1
 45
0.0
1001
ACAD
1000
AcDbSavedByObjectVersion
1070
     0
  0
VISUALSTYLE
  5
36
102
{ACAD_REACTORS
330
2A
102
}
330
2A
100
AcDbVisualStyle
  2
Brighten
 70
    12
 71
     2
 72
     2
 73
     0
 90
        0
 40
-0.6
 41
-30.0
 62
     5
 63
     7
421
 16777215
 74
     1
 91
        4
 64
     7
 65
   257
 75
     1
175
     1
 42
1.0
 92
        8
 66
     7
 43
1.0
 76
     1
 77
     6
 78
     2
 67
     7
 79
     5
170
     0
171
     0
290
     0
174
     0
 93
        1
 44
50.0
173
     0
291
     1
 45
0.0
1001
ACAD
1000
AcDbSavedByObjectVersion
1070
     0
  0
VISUALSTYLE
  5
3A
102
{ACAD_REACTORS
330
2A
102
}
330
2A
100
AcDbVisualStyle
  2
ColorChange
 70
    16
 71
     2
 72
     2
 73
     3
 90
        0
 40
-0.6
 41
-30.0
 62
     5
 63
     8
421
  8421504
 74
     1
 91
        4
 64
     7
 65
   257
 75
     1
175
     1
 42
1.0
 92
        8
 66
     8
424
  8421504
 43
1.0
 76
     1
 77
     6
 78
     2
 67
     7
 79
     5
170
     0
171
     0
290
     0
174
     0
 93
        1
 44
0.0
173
     0
291
     1
 45
0.0
1001
ACAD
1000
AcDbSavedByObjectVersion
1070
     0
  0
VISUALSTYLE
  5
34
102
{ACAD_REACTORS
330
2A
102
}
330
2A
100
AcDbVisualStyle
  2
Conceptual
 70
     9
 71
     3
 72
     2
 73
     0
 90
        0
 40
-0.6
 41
-30.0
 62
     5
 63
     7
421
 16777215
 74
     2
 91
        2
 64
     7
 65
   257
 75
     1
175
     1
 42
40.0
 92
        8
 66
     7
 43
1.0
 76
     1
 77
     6
 78
     2
 67
     7
 79
     3
170
     0
171
     0
290
     0
174
     0
 93
        1
 44
0.0
173
     0
291
     0
 45
0.0
1001
ACAD
1000
AcDbSavedByObjectVersion
1070
     0
  0
VISUALSTYLE
  5
35
102
{ACAD_REACTORS
330
2A
102
}
330
2A
100
AcDbVisualStyle
  2
Dim
 70
    11
 71
     2
 72
     2
 73
     0
 90
        0
 40
-0.6
 41
-30.0
 62
     5
 63
     7
421
 16777215
 74
     1
 91
        4
 64
     7
 65
   257
 75
     1
175
     1
 42
1.0
 92
        8
 66
     7
 43
1.0
 76
     1
 77
     6
 78
     2
 67
     7
 79
     5
170
     0
171
     0
290
     0
174
     0
 93
        1
 44
-50.0
173
     0
291
     1
 45
0.0
1001
ACAD
1000
AcDbSavedByObjectVersion
1070
     0
  0
VISUALSTYLE
  5
39
102
{ACAD_REACTORS
330
2A
102
}
330
2A
100
AcDbVisualStyle
  2
Facepattern
 70
    15
 71
     2
 72
     2
 73
     0
 90
        0
 40
-0.6
 41
-30.0
 62
     5
 63
     7
421
 16777215
 74
     1
 91
        4
 64
     7
 65
   257
 75
     1
175
     1
 42
1.0
 92
        8
 66
     7
 43
1.0
 76
     1
 77
     6
 78
     2
 67
     7
 79
     5
170
     0
171
     0
290
     0
174
     0
 93
        1
 44
0.0
173
     0
291
     1
 45
0.0
1001
ACAD
1000
AcDbSavedByObjectVersion
1070
     0
  0
VISUALSTYLE
  5
2B
102
{ACAD_REACTORS
330
2A
102
}
330
2A
100
AcDbVisualStyle
  2
Flat
 70
     0
 71
     2
 72
     1
 73
     1
 90
        2
 40
-0.6
 41
30.0
 62
     5
 63
     7
421
 16777215
 74
     0
 91
        4
 64
     7
 65
   257
 75
     1
175
     1
 42
1.0
 92
        8
 66
     7
 43
1.0
 76
     1
 77
     6
 78
     2
 67
     7
 79
     5
170
     0
171
     0
290
     0
174
     0
 93
       13
 44
0.0
173
     0
291
     1
 45
0.0
1001
ACAD
1000
AcDbSavedByObjectVersion
1070
     0
  0
VISUALSTYLE
  5
2C
102
{ACAD_REACTORS
330
2A
102
}
330
2A
100
AcDbVisualStyle
  2
FlatWithEdges
 70
     1
 71
     2
 72
     1
 73
     1
 90
        2
 40
-0.6
 41
30.0
 62
     5
 63
     7
421
 16777215
 74
     1
 91
        4
 64
     7
 65
   257
 75
     1
175
     1
 42
1.0
 92
        0
 66
   257
 43
1.0
 76
     1
 77
     6
 78
     2
 67
     7
 79
     5
170
     0
171
     0
290
     0
174
     0
 93
       13
 44
0.0
173
     0
291
     1
 45
0.0
1001
ACAD
1000
AcDbSavedByObjectVersion
1070
     0
  0
VISUALSTYLE
  5
2D
102
{ACAD_REACTORS
330
2A
102
}
330
2A
100
AcDbVisualStyle
  2
Gouraud
 70
     2
 71
     2
 72
     2
 73
     1
 90
        2
 40
-0.6
 41
30.0
 62
     5
 63
     7
421
 16777215
 74
     0
 91
        4
 64
     7
 65
   257
 75
     1
175
     1
 42
1.0
 92
        0
 66
     7
 43
1.0
 76
     1
 77
     6
 78
     2
 67
     7
 79
     5
170
     0
171
     0
290
     0
174
     0
 93
       13
 44
0.0
173
     0
291
     1
 45
0.0
1001
ACAD
1000
AcDbSavedByObjectVersion
1070
     0
  0
VISUALSTYLE
  5
2E
102
{ACAD_REACTORS
330
2A
102
}
330
2A
100
AcDbVisualStyle
  2
GouraudWithEdges
 70
     3
 71
     2
 72
     2
 73
     1
 90
        2
 40
-0.6
 41
30.0
 62
     5
 63
     7
421
 16777215
 74
     1
 91
        4
 64
     7
 65
   257
 75
     1
175
     1
 42
1.0
 92
        0
 66
   257
 43
1.0
 76
     1
 77
     6
 78
     2
 67
     7
 79
     5
170
     0
171
     0
290
     0
174
     0
 93
       13
 44
0.0
173
     0
291
     1
 45
0.0
1001
ACAD
1000
AcDbSavedByObjectVersion
1070
     0
  0
VISUALSTYLE
  5
38
102
{ACAD_REACTORS
330
2A
102
}
330
2A
100
AcDbVisualStyle
  2
Linepattern
 70
    14
 71
     2
 72
     2
 73
     0
 90
        0
 40
-0.6
 41
-30.0
 62
     5
 63
     7
421
 16777215
 74
     1
 91
        4
 64
     7
 65
   257
 75
     7
175
     7
 42
1.0
 92
        8
 66
     7
 43
1.0
 76
     1
 77
     6
 78
     2
 67
     7
 79
     5
170
     0
171
     0
290
     0
174
     0
 93
        1
 44
0.0
173
     0
291
     1
 45
0.0
1001
ACAD
1000
AcDbSavedByObjectVersion
1070
     0
  0
VISUALSTYLE
  5
33
102
{ACAD_REACTORS
330
2A
102
}
330
2A
100
AcDbVisualStyle
  2
Realistic
 70
     8
 71
     2
 72
     2
 73
     0
 90
        0
 40
-0.6
 41
-30.0
 62
     5
 63
     7
421
 16777215
 74
     1
 91
        0
 64
     7
 65
   257
 75
     1
175
     1
 42
1.0
 92
        8
 66
     8
424
  7895160
 43
1.0
 76
     1
 77
     6
 78
     2
 67
     7
 79
     5
170
     0
171
     0
290
     0
174
     0
 93
       13
 44
0.0
173
     0
291
     0
 45
0.0
1001
ACAD
1000
AcDbSavedByObjectVersion
1070
     0
  0
VISUALSTYLE
  5
37
102
{ACAD_REACTORS
330
2A
102
}
330
2A
100
AcDbVisualStyle
  2
Thicken
 70
    13
 71
     2
 72
     2
 73
     0
 90
        0
 40
-0.6
 41
-30.0
 62
     5
 63
     7
421
 16777215
 74
     1
 91
        4
 64
     7
 65
   257
 75
     1
175
     1
 42
1.0
 92
       12
 66
     7
 43
1.0
 76
     1
 77
     6
 78
     2
 67
     7
 79
     5
170
     0
171
     0
290
     0
174
     0
 93
        1
 44
0.0
173
     0
291
     1
 45
0.0
1001
ACAD
1000
AcDbSavedByObjectVersion
1070
     0
  0
ENDSEC
  0
EOF
