  0
SECTION
  2
HEADER
  9
$ACADVER
  1
AC1018
  9
$ACADMAINTVER
 70
     0
  9
$DWGCODEPAGE
  3
ANSI_1252
  9
$INSBASE
 10
0.0
 20
0.0
 30
0.0
  9
$EXTMIN
 10
-48.0
 20
-0.0000000000002238
 30
0.0
  9
$EXTMAX
 10
107.0
 20
79.816
 30
0.0
  9
$LIMMIN
 10
0.0
 20
0.0
  9
$LIMMAX
 10
12.0
 20
9.0
  9
$ORTHOMODE
 70
     0
  9
$REGENMODE
 70
     1
  9
$FILLMODE
 70
     1
  9
$QTEXTMODE
 70
     0
  9
$MIRRTEXT
 70
     1
  9
$LTSCALE
 40
0.0393700787401575
  9
$ATTMODE
 70
     1
  9
$TEXTSIZE
 40
0.2
  9
$TRACEWID
 40
0.05
  9
$TEXTSTYLE
  7
Standard
  9
$CLAYER
  8
Default
  9
$CELTYPE
  6
ByLayer
  9
$CECOLOR
 62
   256
  9
$CELTSCALE
 40
1.0
  9
$DISPSILH
 70
     0
  9
$DIMSCALE
 40
1.0
  9
$DIMASZ
 40
0.18
  9
$DIMEXO
 40
0.0625
  9
$DIMDLI
 40
0.38
  9
$DIMRND
 40
0.0
  9
$DIMDLE
 40
0.0
  9
$DIMEXE
 40
0.18
  9
$DIMTP
 40
0.0
  9
$DIMTM
 40
0.0
  9
$DIMTXT
 40
0.18
  9
$DIMCEN
 40
0.09
  9
$DIMTSZ
 40
0.0
  9
$DIMTOL
 70
     0
  9
$DIMLIM
 70
     0
  9
$DIMTIH
 70
     1
  9
$DIMTOH
 70
     1
  9
$DIMSE1
 70
     0
  9
$DIMSE2
 70
     0
  9
$DIMTAD
 70
     0
  9
$DIMZIN
 70
     0
  9
$DIMBLK
  1

  9
$DIMASO
 70
     1
  9
$DIMSHO
 70
     1
  9
$DIMPOST
  1

  9
$DIMAPOST
  1

  9
$DIMALT
 70
     0
  9
$DIMALTD
 70
     2
  9
$DIMALTF
 40
25.4
  9
$DIMLFAC
 40
1.0
  9
$DIMTOFL
 70
     0
  9
$DIMTVP
 40
0.0
  9
$DIMTIX
 70
     0
  9
$DIMSOXD
 70
     0
  9
$DIMSAH
 70
     0
  9
$DIMBLK1
  1

  9
$DIMBLK2
  1

  9
$DIMSTYLE
  2
Standard
  9
$DIMCLRD
 70
     0
  9
$DIMCLRE
 70
     0
  9
$DIMCLRT
 70
     0
  9
$DIMTFAC
 40
1.0
  9
$DIMGAP
 40
0.09
  9
$DIMJUST
 70
     0
  9
$DIMSD1
 70
     0
  9
$DIMSD2
 70
     0
  9
$DIMTOLJ
 70
     1
  9
$DIMTZIN
 70
     0
  9
$DIMALTZ
 70
     0
  9
$DIMALTTZ
 70
     0
  9
$DIMUPT
 70
     0
  9
$DIMDEC
 70
     4
  9
$DIMTDEC
 70
     4
  9
$DIMALTU
 70
     2
  9
$DIMALTTD
 70
     2
  9
$DIMTXSTY
  7
Standard
  9
$DIMAUNIT
 70
     0
  9
$DIMADEC
 70
     0
  9
$DIMALTRND
 40
0.0
  9
$DIMAZIN
 70
     0
  9
$DIMDSEP
 70
    46
  9
$DIMATFIT
 70
     3
  9
$DIMFRAC
 70
     0
  9
$DIMLDRBLK
  1

  9
$DIMLUNIT
 70
     2
  9
$DIMLWD
 70
    -2
  9
$DIMLWE
 70
    -2
  9
$DIMTMOVE
 70
     2
  9
$LUNITS
 70
     2
  9
$LUPREC
 70
     4
  9
$SKETCHINC
 40
0.1
  9
$FILLETRAD
 40
0.5
  9
$AUNITS
 70
     0
  9
$AUPREC
 70
     0
  9
$MENU
  1
.
  9
$ELEVATION
 40
0.0
  9
$PELEVATION
 40
0.0
  9
$THICKNESS
 40
0.0
  9
$LIMCHECK
 70
     0
  9
$CHAMFERA
 40
0.5
  9
$CHAMFERB
 40
0.5
  9
$CHAMFERC
 40
1.0
  9
$CHAMFERD
 40
0.0
  9
$SKPOLY
 70
     0
  9
$TDCREATE
 40
2456790.665393854
  9
$TDUCREATE
 40
2456790.832060521
  9
$TDUPDATE
 40
2456790.665393866
  9
$TDUUPDATE
 40
2456790.832060532
  9
$TDINDWG
 40
0.0000000116
  9
$TDUSRTIMER
 40
0.0000000116
  9
$USRTIMER
 70
     1
  9
$ANGBASE
 50
0.0
  9
$ANGDIR
 70
     0
  9
$PDMODE
 70
     0
  9
$PDSIZE
 40
0.0
  9
$PLINEWID
 40
0.0
  9
$SPLFRAME
 70
     0
  9
$SPLINETYPE
 70
     6
  9
$SPLINESEGS
 70
     8
  9
$HANDSEED
  5
9D
  9
$SURFTAB1
 70
     6
  9
$SURFTAB2
 70
     6
  9
$SURFTYPE
 70
     6
  9
$SURFU
 70
     6
  9
$SURFV
 70
     6
  9
$UCSBASE
  2

  9
$UCSNAME
  2

  9
$UCSORG
 10
0.0
 20
0.0
 30
0.0
  9
$UCSXDIR
 10
1.0
 20
0.0
 30
0.0
  9
$UCSYDIR
 10
0.0
 20
1.0
 30
0.0
  9
$UCSORTHOREF
  2

  9
$UCSORTHOVIEW
 70
     0
  9
$UCSORGTOP
 10
0.0
 20
0.0
 30
0.0
  9
$UCSORGBOTTOM
 10
0.0
 20
0.0
 30
0.0
  9
$UCSORGLEFT
 10
0.0
 20
0.0
 30
0.0
  9
$UCSORGRIGHT
 10
0.0
 20
0.0
 30
0.0
  9
$UCSORGFRONT
 10
0.0
 20
0.0
 30
0.0
  9
$UCSORGBACK
 10
0.0
 20
0.0
 30
0.0
  9
$PUCSBASE
  2

  9
$PUCSNAME
  2

  9
$PUCSORG
 10
0.0
 20
0.0
 30
0.0
  9
$PUCSXDIR
 10
1.0
 20
0.0
 30
0.0
  9
$PUCSYDIR
 10
0.0
 20
1.0
 30
0.0
  9
$PUCSORTHOREF
  2

  9
$PUCSORTHOVIEW
 70
     0
  9
$PUCSORGTOP
 10
0.0
 20
0.0
 30
0.0
  9
$PUCSORGBOTTOM
 10
0.0
 20
0.0
 30
0.0
  9
$PUCSORGLEFT
 10
0.0
 20
0.0
 30
0.0
  9
$PUCSORGRIGHT
 10
0.0
 20
0.0
 30
0.0
  9
$PUCSORGFRONT
 10
0.0
 20
0.0
 30
0.0
  9
$PUCSORGBACK
 10
0.0
 20
0.0
 30
0.0
  9
$USERI1
 70
     0
  9
$USERI2
 70
     0
  9
$USERI3
 70
     0
  9
$USERI4
 70
     0
  9
$USERI5
 70
     0
  9
$USERR1
 40
0.0
  9
$USERR2
 40
0.0
  9
$USERR3
 40
0.0
  9
$USERR4
 40
0.0
  9
$USERR5
 40
0.0
  9
$WORLDVIEW
 70
     1
  9
$SHADEDGE
 70
     3
  9
$SHADEDIF
 70
    70
  9
$TILEMODE
 70
     1
  9
$MAXACTVP
 70
    64
  9
$PINSBASE
 10
0.0
 20
0.0
 30
0.0
  9
$PLIMCHECK
 70
     0
  9
$PEXTMIN
 10
1.000000000000000E+20
 20
1.000000000000000E+20
 30
1.000000000000000E+20
  9
$PEXTMAX
 10
-1.000000000000000E+20
 20
-1.000000000000000E+20
 30
-1.000000000000000E+20
  9
$PLIMMIN
 10
0.0
 20
0.0
  9
$PLIMMAX
 10
12.0
 20
9.0
  9
$UNITMODE
 70
     0
  9
$VISRETAIN
 70
     1
  9
$PLINEGEN
 70
     0
  9
$PSLTSCALE
 70
     1
  9
$TREEDEPTH
 70
  3020
  9
$CMLSTYLE
  2
Standard
  9
$CMLJUST
 70
     0
  9
$CMLSCALE
 40
1.0
  9
$PROXYGRAPHICS
 70
     1
  9
$MEASUREMENT
 70
     0
  9
$CELWEIGHT
370
    -1
  9
$ENDCAPS
280
     0
  9
$JOINSTYLE
280
     0
  9
$LWDISPLAY
290
     0
  9
$INSUNITS
 70
     1
  9
$HYPERLINKBASE
  1

  9
$STYLESHEET
  1

  9
$XEDIT
290
     1
  9
$CEPSNTYPE
380
     0
  9
$PSTYLEMODE
290
     1
  9
$FINGERPRINTGUID
  2
{9F8154C6-99B0-48CF-B7A9-3D298D155E05}
  9
$VERSIONGUID
  2
{FAEB1C32-E019-11D5-929B-00C0DF256EC4}
  9
$EXTNAMES
290
     1
  9
$PSVPSCALE
 40
0.0
  9
$OLESTARTUP
290
     0
  9
$SORTENTS
280
   127
  9
$INDEXCTL
280
     0
  9
$HIDETEXT
280
     1
  9
$XCLIPFRAME
290
     0
  9
$HALOGAP
280
     0
  9
$OBSCOLOR
 70
   257
  9
$OBSLTYPE
280
     0
  9
$INTERSECTIONDISPLAY
280
     0
  9
$INTERSECTIONCOLOR
 70
   257
  9
$DIMASSOC
280
     2
  9
$PROJECTNAME
  1

  0
ENDSEC
  0
SECTION
  2
CLASSES
  0
CLASS
  1
ACDBDICTIONARYWDFLT
  2
AcDbDictionaryWithDefault
  3
ObjectDBX Classes
 90
        0
 91
        4
280
     0
281
     0
  0
CLASS
  1
VISUALSTYLE
  2
AcDbVisualStyle
  3
ObjectDBX Classes
 90
     4095
 91
        4
280
     0
281
     0
  0
ENDSEC
  0
SECTION
  2
TABLES
  0
TABLE
  2
VPORT
  5
8
330
0
100
AcDbSymbolTable
 70
     1
  0
VPORT
  5
29
330
8
100
AcDbSymbolTableRecord
100
AcDbViewportTableRecord
  2
*Active
 70
     0
 10
0.0
 20
0.0
 11
1.0
 21
1.0
 12
29.5
 22
39.90799999999989
 13
0.0
 23
0.0
 14
0.5
 24
0.5
 15
0.5
 25
0.5
 16
0.0
 26
0.0
 36
1.0
 17
0.0
 27
0.0
 37
0.0
 40
81.41232000000024
 41
1.941966523002901
 42
50.0
 43
0.0
 44
0.0
 50
0.0
 51
0.0
 71
     0
 72
   100
 73
     1
 74
     3
 75
     0
 76
     0
 77
     0
 78
     0
281
     0
 65
     1
110
0.0
120
0.0
130
0.0
111
1.0
121
0.0
131
0.0
112
0.0
122
1.0
132
0.0
 79
     0
146
0.0
  0
ENDTAB
  0
TABLE
  2
LTYPE
  5
5
330
0
100
AcDbSymbolTable
 70
     1
  0
LTYPE
  5
14
330
5
100
AcDbSymbolTableRecord
100
AcDbLinetypeTableRecord
  2
ByBlock
 70
     0
  3

 72
    65
 73
     0
 40
0.0
  0
LTYPE
  5
15
330
5
100
AcDbSymbolTableRecord
100
AcDbLinetypeTableRecord
  2
ByLayer
 70
     0
  3

 72
    65
 73
     0
 40
0.0
  0
LTYPE
  5
16
330
5
100
AcDbSymbolTableRecord
100
AcDbLinetypeTableRecord
  2
Continuous
 70
     0
  3
Solid line
 72
    65
 73
     0
 40
0.0
  0
ENDTAB
  0
TABLE
  2
LAYER
  5
2
330
0
100
AcDbSymbolTable
 70
     3
  0
LAYER
  5
10
330
2
100
AcDbSymbolTableRecord
100
AcDbLayerTableRecord
  2
0
 70
     0
 62
     7
  6
Continuous
370
    -3
390
F
  0
LAYER
  5
3B
330
2
100
AcDbSymbolTableRecord
100
AcDbLayerTableRecord
  2
Layer 04
 70
     0
 62
     7
  6
Continuous
370
    -3
390
F
  0
LAYER
  5
84
330
2
100
AcDbSymbolTableRecord
100
AcDbLayerTableRecord
  2
Default
 70
     0
 62
     7
  6
Continuous
370
    -3
390
F
  0
ENDTAB
  0
TABLE
  2
STYLE
  5
3
330
0
100
AcDbSymbolTable
 70
     1
  0
STYLE
  5
11
330
3
100
AcDbSymbolTableRecord
100
AcDbTextStyleTableRecord
  2
Standard
 70
     0
 40
0.0
 41
1.0
 50
0.0
 71
     0
 42
0.2
  3
txt
  4

  0
ENDTAB
  0
TABLE
  2
VIEW
  5
6
330
0
100
AcDbSymbolTable
 70
     0
  0
ENDTAB
  0
TABLE
  2
UCS
  5
7
330
0
100
AcDbSymbolTable
 70
     0
  0
ENDTAB
  0
TABLE
  2
APPID
  5
9
330
0
100
AcDbSymbolTable
 70
     1
  0
APPID
  5
12
330
9
100
AcDbSymbolTableRecord
100
AcDbRegAppTableRecord
  2
ACAD
 70
     0
  0
ENDTAB
  0
TABLE
  2
DIMSTYLE
  5
A
330
0
100
AcDbSymbolTable
 70
     1
100
AcDbDimStyleTable
  0
DIMSTYLE
105
27
330
A
100
AcDbSymbolTableRecord
100
AcDbDimStyleTableRecord
  2
Standard
 70
     0
340
11
  0
ENDTAB
  0
TABLE
  2
BLOCK_RECORD
  5
1
330
0
100
AcDbSymbolTable
 70
     1
  0
BLOCK_RECORD
  5
1F
330
1
100
AcDbSymbolTableRecord
100
AcDbBlockTableRecord
  2
*Model_Space
340
22
  0
BLOCK_RECORD
  5
1B
330
1
100
AcDbSymbolTableRecord
100
AcDbBlockTableRecord
  2
*Paper_Space
340
1E
  0
BLOCK_RECORD
  5
23
330
1
100
AcDbSymbolTableRecord
100
AcDbBlockTableRecord
  2
*Paper_Space0
340
26
  0
ENDTAB
  0
ENDSEC
  0
SECTION
  2
BLOCKS
  0
BLOCK
  5
20
330
1F
100
AcDbEntity
  8
0
100
AcDbBlockBegin
  2
*Model_Space
 70
     0
 10
0.0
 20
0.0
 30
0.0
  3
*Model_Space
  1

  0
ENDBLK
  5
21
330
1F
100
AcDbEntity
  8
0
100
AcDbBlockEnd
  0
BLOCK
  5
1C
330
1B
100
AcDbEntity
 67
     1
  8
0
100
AcDbBlockBegin
  2
*Paper_Space
 70
     0
 10
0.0
 20
0.0
 30
0.0
  3
*Paper_Space
  1

  0
ENDBLK
  5
1D
330
1B
100
AcDbEntity
 67
     1
  8
0
100
AcDbBlockEnd
  0
BLOCK
  5
24
330
23
100
AcDbEntity
  8
0
100
AcDbBlockBegin
  2
*Paper_Space0
 70
     0
 10
0.0
 20
0.0
 30
0.0
  3
*Paper_Space0
  1

  0
ENDBLK
  5
25
330
23
100
AcDbEntity
  8
0
100
AcDbBlockEnd
  0
ENDSEC
  0
SECTION
  2
ENTITIES
  0
POLYLINE
  5
3C
330
1F
100
AcDbEntity
  8
Layer 04
100
AcDb2dPolyline
 66
     1
 10
0.0
 20
0.0
 30
0.0
  0
VERTEX
  5
3D
330
3C
100
AcDbEntity
  8
Layer 04
100
AcDbVertex
100
AcDb2dVertex
 10
95.0
 20
11.066
 30
0.0
  0
VERTEX
  5
3E
330
3C
100
AcDbEntity
  8
Layer 04
100
AcDbVertex
100
AcDb2dVertex
 10
95.0
 20
13.816
 30
0.0
  0
SEQEND
  5
3F
330
3C
100
AcDbEntity
  8
Layer 04
  0
LINE
  5
40
330
1F
100
AcDbEntity
  8
Layer 04
100
AcDbLine
 10
95.84521504479979
 20
11.07100000000016
 30
0.0
 11
95.01999999999978
 21
11.07100000000016
 31
0.0
  0
SPLINE
  5
41
330
1F
100
AcDbEntity
  8
Layer 04
100
AcDbSpline
210
0.0
220
0.0
230
1.0
 70
     8
 71
     5
 72
    12
 73
     6
 74
     0
 42
0.0000000001
 43
0.0000000001
 40
0.0
 40
0.0
 40
0.0
 40
0.0
 40
0.0
 40
0.0
 40
1.0
 40
1.0
 40
1.0
 40
1.0
 40
1.0
 40
1.0
 10
96.99194038848327
 20
10.03074647451488
 30
0.0
 10
96.94398403219817
 20
10.33666222163667
 30
0.0
 10
96.89602767591306
 20
10.64257796875845
 30
0.0
 10
96.46451870681132
 20
11.07100000000015
 30
0.0
 10
96.15486687580555
 20
11.07100000000016
 30
0.0
 10
95.84521504479979
 20
11.07100000000016
 30
0.0
  0
POLYLINE
  5
42
330
1F
100
AcDbEntity
  8
Layer 04
100
AcDb2dPolyline
 66
     1
 10
0.0
 20
0.0
 30
0.0
  0
VERTEX
  5
43
330
42
100
AcDbEntity
  8
Layer 04
100
AcDbVertex
100
AcDb2dVertex
 10
98.5274023894998
 20
0.2359655194001503
 30
0.0
  0
VERTEX
  5
44
330
42
100
AcDbEntity
  8
Layer 04
100
AcDbVertex
100
AcDb2dVertex
 10
96.99194038848327
 20
10.03074647451488
 30
0.0
  0
SEQEND
  5
45
330
42
100
AcDbEntity
  8
Layer 04
  0
SPLINE
  5
46
330
1F
100
AcDbEntity
  8
Layer 04
100
AcDbSpline
210
0.0
220
0.0
230
1.0
 70
     8
 71
     5
 72
    12
 73
     6
 74
     0
 42
0.0000000001
 43
0.0000000001
 40
0.0
 40
0.0
 40
0.0
 40
0.0
 40
0.0
 40
0.0
 40
1.0
 40
1.0
 40
1.0
 40
1.0
 40
1.0
 40
1.0
 10
98.57760134719969
 20
0.1786505022001532
 30
0.0
 10
98.5623633072329
 20
0.1786505022001532
 30
0.0
 10
98.547125267266
 20
0.1786505022001532
 30
0.0
 10
98.53212227680909
 20
0.2058571466125783
 30
0.0
 10
98.5297623331544
 20
0.2209113330063643
 30
0.0
 10
98.5274023894998
 20
0.2359655194001503
 30
0.0
  0
POLYLINE
  5
47
330
1F
100
AcDbEntity
  8
Layer 04
100
AcDb2dPolyline
 66
     1
 10
0.0
 20
0.0
 30
0.0
  0
VERTEX
  5
48
330
47
100
AcDbEntity
  8
Layer 04
100
AcDbVertex
100
AcDb2dVertex
 10
99.8460033286288
 20
0.1786505022001511
 30
0.0
  0
VERTEX
  5
49
330
47
100
AcDbEntity
  8
Layer 04
100
AcDbVertex
100
AcDb2dVertex
 10
98.57760134719969
 20
0.1786505022001532
 30
0.0
  0
SEQEND
  5
4A
330
47
100
AcDbEntity
  8
Layer 04
  0
SPLINE
  5
4B
330
1F
100
AcDbEntity
  8
Layer 04
100
AcDbSpline
210
0.0
220
0.0
230
1.0
 70
     8
 71
     5
 72
    12
 73
     6
 74
     0
 42
0.0000000001
 43
0.0000000001
 40
0.0
 40
0.0
 40
0.0
 40
0.0
 40
0.0
 40
0.0
 40
1.0
 40
1.0
 40
1.0
 40
1.0
 40
1.0
 40
1.0
 10
99.8895021288152
 20
0.2546177197647614
 30
0.0
 10
99.8916201933714
 20
0.2372384115788218
 30
0.0
 10
99.8937382579277
 20
0.2198591033928821
 30
0.0
 10
99.8810191279478
 20
0.178650502200151
 30
0.0
 10
99.8635112282883
 20
0.1786505022001511
 30
0.0
 10
99.8460033286288
 20
0.1786505022001511
 30
0.0
  0
POLYLINE
  5
4C
330
1F
100
AcDbEntity
  8
Layer 04
100
AcDb2dPolyline
 66
     1
 10
0.0
 20
0.0
 30
0.0
  0
VERTEX
  5
4D
330
4C
100
AcDbEntity
  8
Layer 04
100
AcDbVertex
100
AcDb2dVertex
 10
98.23698905829879
 20
13.81394661222458
 30
0.0
  0
VERTEX
  5
4E
330
4C
100
AcDbEntity
  8
Layer 04
100
AcDbVertex
100
AcDb2dVertex
 10
99.8895021288152
 20
0.2546177197647614
 30
0.0
  0
SEQEND
  5
4F
330
4C
100
AcDbEntity
  8
Layer 04
  0
LINE
  5
50
330
1F
100
AcDbEntity
  8
Layer 04
  6
Continuous
100
AcDbLine
 10
99.83343984509979
 20
0.0000000000001528
 30
0.0
 11
98.6135572578998
 21
0.0000000000001531
 31
0.0
  0
ARC
  5
51
330
1F
100
AcDbEntity
  8
Layer 04
  6
Continuous
100
AcDbCircle
 10
99.83343984509979
 20
0.0937678609001528
 30
0.0
 40
0.0937678609
100
AcDbArc
 50
270.0
 51
61.2796732020979
  0
ARC
  5
52
330
1F
100
AcDbEntity
  8
Layer 04
  6
Continuous
100
AcDbCircle
 10
98.62355725789979
 20
0.0937678609001548
 30
0.0
 40
0.0937678609
100
AcDbArc
 50
118.7203267979021
 51
270.0
  0
POLYLINE
  5
53
330
1F
100
AcDbEntity
  8
Layer 04
100
AcDb2dPolyline
 66
     1
 10
0.0
 20
0.0
 30
0.0
  0
VERTEX
  5
54
330
53
100
AcDbEntity
  8
Layer 04
100
AcDbVertex
100
AcDb2dVertex
 10
69.0
 20
11.066
 30
0.0
  0
VERTEX
  5
55
330
53
100
AcDbEntity
  8
Layer 04
100
AcDbVertex
100
AcDb2dVertex
 10
69.0
 20
13.816
 30
0.0
  0
SEQEND
  5
56
330
53
100
AcDbEntity
  8
Layer 04
  0
POLYLINE
  5
57
330
1F
100
AcDbEntity
  8
Layer 04
100
AcDb2dPolyline
 66
     1
 10
0.0
 20
0.0
 30
0.0
  0
VERTEX
  5
58
330
57
100
AcDbEntity
  8
Layer 04
100
AcDbVertex
100
AcDb2dVertex
 10
68.99999999999999
 20
11.066
 30
0.0
  0
VERTEX
  5
59
330
57
100
AcDbEntity
  8
Layer 04
100
AcDbVertex
100
AcDb2dVertex
 10
68.99999999999999
 20
13.816
 30
0.0
  0
SEQEND
  5
5A
330
57
100
AcDbEntity
  8
Layer 04
  0
LINE
  5
5B
330
1F
100
AcDbEntity
  8
Layer 04
100
AcDbLine
 10
68.1547849552002
 20
11.07100000000016
 30
0.0
 11
68.9800000000002
 21
11.07100000000016
 31
0.0
  0
SPLINE
  5
5C
330
1F
100
AcDbEntity
  8
Layer 04
100
AcDbSpline
210
0.0
220
0.0
230
1.0
 70
     8
 71
     5
 72
    12
 73
     6
 74
     0
 42
0.0000000001
 43
0.0000000001
 40
0.0
 40
0.0
 40
0.0
 40
0.0
 40
0.0
 40
0.0
 40
1.0
 40
1.0
 40
1.0
 40
1.0
 40
1.0
 40
1.0
 10
67.00805961151671
 20
10.03074647451488
 30
0.0
 10
67.05601596780181
 20
10.33666222163667
 30
0.0
 10
67.10397232408693
 20
10.64257796875845
 30
0.0
 10
67.53548129318867
 20
11.07100000000015
 30
0.0
 10
67.84513312419443
 20
11.07100000000016
 30
0.0
 10
68.1547849552002
 20
11.07100000000016
 30
0.0
  0
POLYLINE
  5
5D
330
1F
100
AcDbEntity
  8
Layer 04
100
AcDb2dPolyline
 66
     1
 10
0.0
 20
0.0
 30
0.0
  0
VERTEX
  5
5E
330
5D
100
AcDbEntity
  8
Layer 04
100
AcDbVertex
100
AcDb2dVertex
 10
65.47259761050023
 20
0.2359655194001503
 30
0.0
  0
VERTEX
  5
5F
330
5D
100
AcDbEntity
  8
Layer 04
100
AcDbVertex
100
AcDb2dVertex
 10
67.00805961151671
 20
10.03074647451488
 30
0.0
  0
SEQEND
  5
60
330
5D
100
AcDbEntity
  8
Layer 04
  0
SPLINE
  5
61
330
1F
100
AcDbEntity
  8
Layer 04
100
AcDbSpline
210
0.0
220
0.0
230
1.0
 70
     8
 71
     5
 72
    12
 73
     6
 74
     0
 42
0.0000000001
 43
0.0000000001
 40
0.0
 40
0.0
 40
0.0
 40
0.0
 40
0.0
 40
0.0
 40
1.0
 40
1.0
 40
1.0
 40
1.0
 40
1.0
 40
1.0
 10
65.42239865280024
 20
0.1786505022001532
 30
0.0
 10
65.43763669276711
 20
0.1786505022001532
 30
0.0
 10
65.45287473273399
 20
0.1786505022001532
 30
0.0
 10
65.4678777231909
 20
0.2058571466125783
 30
0.0
 10
65.47023766684555
 20
0.2209113330063643
 30
0.0
 10
65.47259761050023
 20
0.2359655194001503
 30
0.0
  0
POLYLINE
  5
62
330
1F
100
AcDbEntity
  8
Layer 04
100
AcDb2dPolyline
 66
     1
 10
0.0
 20
0.0
 30
0.0
  0
VERTEX
  5
63
330
62
100
AcDbEntity
  8
Layer 04
100
AcDbVertex
100
AcDb2dVertex
 10
64.15399667137115
 20
0.1786505022001511
 30
0.0
  0
VERTEX
  5
64
330
62
100
AcDbEntity
  8
Layer 04
100
AcDbVertex
100
AcDb2dVertex
 10
65.42239865280024
 20
0.1786505022001532
 30
0.0
  0
SEQEND
  5
65
330
62
100
AcDbEntity
  8
Layer 04
  0
SPLINE
  5
66
330
1F
100
AcDbEntity
  8
Layer 04
100
AcDbSpline
210
0.0
220
0.0
230
1.0
 70
     8
 71
     5
 72
    12
 73
     6
 74
     0
 42
0.0000000001
 43
0.0000000001
 40
0.0
 40
0.0
 40
0.0
 40
0.0
 40
0.0
 40
0.0
 40
1.0
 40
1.0
 40
1.0
 40
1.0
 40
1.0
 40
1.0
 10
64.11049787118483
 20
0.2546177197647614
 30
0.0
 10
64.10837980662856
 20
0.2372384115788218
 30
0.0
 10
64.10626174207229
 20
0.2198591033928821
 30
0.0
 10
64.11898087205219
 20
0.178650502200151
 30
0.0
 10
64.13648877171167
 20
0.1786505022001511
 30
0.0
 10
64.15399667137115
 20
0.1786505022001511
 30
0.0
  0
POLYLINE
  5
67
330
1F
100
AcDbEntity
  8
Layer 04
100
AcDb2dPolyline
 66
     1
 10
0.0
 20
0.0
 30
0.0
  0
VERTEX
  5
68
330
67
100
AcDbEntity
  8
Layer 04
100
AcDbVertex
100
AcDb2dVertex
 10
65.76301094170124
 20
13.81394661222458
 30
0.0
  0
VERTEX
  5
69
330
67
100
AcDbEntity
  8
Layer 04
100
AcDbVertex
100
AcDb2dVertex
 10
64.11049787118483
 20
0.2546177197647614
 30
0.0
  0
SEQEND
  5
6A
330
67
100
AcDbEntity
  8
Layer 04
  0
LINE
  5
6B
330
1F
100
AcDbEntity
  8
Layer 04
  6
Continuous
100
AcDbLine
 10
64.16656015490024
 20
0.0000000000001528
 30
0.0
 11
65.38644274210023
 21
0.0000000000001531
 31
0.0
  0
ARC
  5
6C
330
1F
100
AcDbEntity
  8
Layer 04
  6
Continuous
100
AcDbCircle
 10
64.16656015490022
 20
0.0937678609001528
 30
0.0
 40
0.0937678609
100
AcDbArc
 50
118.7203267979022
 51
270.0
  0
ARC
  5
6D
330
1F
100
AcDbEntity
  8
Layer 04
  6
Continuous
100
AcDbCircle
 10
65.37644274210024
 20
0.0937678609001548
 30
0.0
 40
0.0937678609
100
AcDbArc
 50
270.0
 51
61.27967320209792
  0
SPLINE
  5
6E
330
1F
100
AcDbEntity
  8
Layer 04
  6
Continuous
100
AcDbSpline
210
0.0
220
0.0
230
1.0
 70
    24
 71
     2
 72
     6
 73
     3
 74
     0
 42
0.0000000001
 43
0.0000000001
 40
0.0
 40
0.0
 40
0.0
 40
2.73500000000022
 40
2.73500000000022
 40
2.73500000000022
 10
35.99999999999978
 20
13.80100000000023
 30
0.0
 10
35.99999999999989
 20
12.43350000000012
 30
0.0
 10
36.0
 20
11.06600000000001
 30
0.0
  0
SPLINE
  5
6F
330
1F
100
AcDbEntity
  8
Layer 04
100
AcDbSpline
210
0.0
220
0.0
230
1.0
 70
    24
 71
     2
 72
     6
 73
     3
 74
     0
 42
0.0000000001
 43
0.0000000001
 40
0.0
 40
0.0
 40
0.0
 40
0.8252150448000037
 40
0.8252150448000037
 40
0.8252150448000037
 10
36.84521504479979
 20
11.07100000000016
 30
0.0
 10
36.43260752239978
 20
11.07100000000016
 30
0.0
 10
36.01999999999978
 20
11.07100000000016
 30
0.0
  0
SPLINE
  5
70
330
1F
100
AcDbEntity
  8
Layer 04
100
AcDbSpline
210
0.0
220
0.0
230
1.0
 70
     8
 71
     5
 72
    12
 73
     6
 74
     0
 42
0.0000000001
 43
0.0000000001
 40
0.0
 40
0.0
 40
0.0
 40
0.0
 40
0.0
 40
0.0
 40
1.0
 40
1.0
 40
1.0
 40
1.0
 40
1.0
 40
1.0
 10
37.99194038848327
 20
10.0307464745149
 30
0.0
 10
37.94398403219817
 20
10.33666222163668
 30
0.0
 10
37.89602767591306
 20
10.64257796875846
 30
0.0
 10
37.46451870681132
 20
11.07100000000016
 30
0.0
 10
37.15486687580555
 20
11.07100000000016
 30
0.0
 10
36.84521504479979
 20
11.07100000000016
 30
0.0
  0
SPLINE
  5
71
330
1F
100
AcDbEntity
  8
Layer 04
100
AcDbSpline
210
0.0
220
0.0
230
1.0
 70
    24
 71
     2
 72
     6
 73
     3
 74
     0
 42
0.0000000001
 43
0.0000000001
 40
0.0
 40
0.0
 40
0.0
 40
1.0
 40
1.0
 40
1.0
 10
39.52740238949976
 20
0.2359655194001591
 30
0.0
 10
38.75967138899151
 20
5.133355996957526
 30
0.0
 10
37.99194038848327
 20
10.0307464745149
 30
0.0
  0
SPLINE
  5
72
330
1F
100
AcDbEntity
  8
Layer 04
100
AcDbSpline
210
0.0
220
0.0
230
1.0
 70
     8
 71
     5
 72
    12
 73
     6
 74
     0
 42
0.0000000001
 43
0.0000000001
 40
0.0
 40
0.0
 40
0.0
 40
0.0
 40
0.0
 40
0.0
 40
1.0
 40
1.0
 40
1.0
 40
1.0
 40
1.0
 40
1.0
 10
39.57760134719975
 20
0.1786505022001621
 30
0.0
 10
39.56236330723288
 20
0.1786505022001621
 30
0.0
 10
39.547125267266
 20
0.1786505022001621
 30
0.0
 10
39.5321222768091
 20
0.2058571466125872
 30
0.0
 10
39.52976233315443
 20
0.2209113330063732
 30
0.0
 10
39.52740238949976
 20
0.2359655194001591
 30
0.0
  0
SPLINE
  5
73
330
1F
100
AcDbEntity
  8
Layer 04
100
AcDbSpline
210
0.0
220
0.0
230
1.0
 70
    24
 71
     2
 72
     6
 73
     3
 74
     0
 42
0.0000000001
 43
0.0000000001
 40
0.0
 40
0.0
 40
0.0
 40
1.0
 40
1.0
 40
1.0
 10
40.84600332862883
 20
0.17865050220016
 30
0.0
 10
40.21180233791429
 20
0.178650502200161
 30
0.0
 10
39.57760134719975
 20
0.1786505022001621
 30
0.0
  0
SPLINE
  5
74
330
1F
100
AcDbEntity
  8
Layer 04
100
AcDbSpline
210
0.0
220
0.0
230
1.0
 70
     8
 71
     5
 72
    12
 73
     6
 74
     0
 42
0.0000000001
 43
0.0000000001
 40
0.0
 40
0.0
 40
0.0
 40
0.0
 40
0.0
 40
0.0
 40
1.0
 40
1.0
 40
1.0
 40
1.0
 40
1.0
 40
1.0
 10
40.88950212881516
 20
0.2546177197647703
 30
0.0
 10
40.89162019337142
 20
0.2372384115788306
 30
0.0
 10
40.89373825792769
 20
0.219859103392891
 30
0.0
 10
40.88101912794779
 20
0.1786505022001599
 30
0.0
 10
40.86351122828831
 20
0.1786505022001599
 30
0.0
 10
40.84600332862883
 20
0.17865050220016
 30
0.0
  0
SPLINE
  5
75
330
1F
100
AcDbEntity
  8
Layer 04
100
AcDbSpline
210
0.0
220
0.0
230
1.0
 70
    24
 71
     2
 72
     6
 73
     3
 74
     0
 42
0.0000000001
 43
0.0000000001
 40
0.0
 40
0.0
 40
0.0
 40
1.0
 40
1.0
 40
1.0
 10
39.23698905829875
 20
13.8139466122246
 30
0.0
 10
40.06324559355695
 20
7.034282165994683
 30
0.0
 10
40.88950212881516
 20
0.2546177197647703
 30
0.0
  0
SPLINE
  5
76
330
1F
100
AcDbEntity
  8
Layer 04
  6
Continuous
100
AcDbSpline
210
0.0
220
0.0
230
1.0
 70
    24
 71
     2
 72
     6
 73
     3
 74
     0
 42
0.0000000001
 43
0.0000000001
 40
0.0
 40
0.0
 40
0.0
 40
1.21988258719999
 40
1.21988258719999
 40
1.21988258719999
 10
40.83343984509975
 20
0.0000000000001616
 30
0.0
 10
40.22349855149975
 20
0.0000000000001618
 30
0.0
 10
39.61355725789976
 20
0.000000000000162
 30
0.0
  0
SPLINE
  5
77
330
1F
100
AcDbEntity
  8
Layer 04
  6
Continuous
100
AcDbSpline
210
0.0
220
0.0
230
1.0
 70
    12
 71
     2
 72
     8
 73
     5
 74
     0
 42
0.0000000001
 43
0.0000000001
 40
0.0
 40
0.0
 40
0.0
 40
0.1237889725418019
 40
0.1237889725418019
 40
0.2475779450836038
 40
0.2475779450836038
 40
0.2475779450836038
 10
40.83343984509974
 20
0.0000000000001616
 30
0.0
 41
1.0
 10
40.90622587832465
 20
0.0000000000001561
 30
0.0
 41
0.7899418936709616
 10
40.92427800758234
 20
0.070511894471114
 30
0.0
 41
1.0
 10
40.94233013684
 20
0.1410237889420719
 30
0.0
 41
0.7899418936709616
 10
40.87849855150287
 20
0.1760000000857542
 30
0.0
 41
1.0
  0
SPLINE
  5
78
330
1F
100
AcDbEntity
  8
Layer 04
  6
Continuous
100
AcDbSpline
210
0.0
220
0.0
230
1.0
 70
    12
 71
     2
 72
     8
 73
     5
 74
     0
 42
0.0000000001
 43
0.0000000001
 40
0.0
 40
0.0
 40
0.0
 40
0.1237889725417989
 40
0.1237889725417989
 40
0.2475779450835977
 40
0.2475779450835977
 40
0.2475779450835977
 10
39.57849855149664
 20
0.1760000000857565
 30
0.0
 41
1.0
 10
39.51466696615951
 20
0.1410237889420757
 30
0.0
 41
0.7899418936709716
 10
39.53271909541718
 20
0.0705118944711194
 30
0.0
 41
1.0
 10
39.55077122467485
 20
0.0000000000001633
 30
0.0
 41
0.7899418936709716
 10
39.62355725789977
 20
0.0000000000001637
 30
0.0
 41
1.0
  0
SPLINE
  5
79
330
1F
100
AcDbEntity
  8
Layer 04
100
AcDbSpline
210
0.0
220
0.0
230
1.0
 70
    24
 71
     2
 72
     6
 73
     3
 74
     0
 42
0.0000000001
 43
0.0000000001
 40
0.0
 40
0.0
 40
0.0
 40
0.8252150447999966
 40
0.8252150447999966
 40
0.8252150447999966
 10
-36.84521504479979
 20
11.07099999999978
 30
0.0
 10
-36.43260752239978
 20
11.07099999999978
 30
0.0
 10
-36.01999999999979
 20
11.07099999999978
 30
0.0
  0
SPLINE
  5
7A
330
1F
100
AcDbEntity
  8
Layer 04
100
AcDbSpline
210
0.0
220
0.0
230
1.0
 70
     8
 71
     5
 72
    12
 73
     6
 74
     0
 42
0.0000000001
 43
0.0000000001
 40
0.0
 40
0.0
 40
0.0
 40
0.0
 40
0.0
 40
0.0
 40
1.0
 40
1.0
 40
1.0
 40
1.0
 40
1.0
 40
1.0
 10
-37.99194038848326
 20
10.03074647451451
 30
0.0
 10
-37.94398403219817
 20
10.33666222163629
 30
0.0
 10
-37.89602767591305
 20
10.64257796875807
 30
0.0
 10
-37.46451870681132
 20
11.07099999999978
 30
0.0
 10
-37.15486687580556
 20
11.07099999999978
 30
0.0
 10
-36.84521504479979
 20
11.07099999999978
 30
0.0
  0
SPLINE
  5
7B
330
1F
100
AcDbEntity
  8
Layer 04
100
AcDbSpline
210
0.0
220
0.0
230
1.0
 70
    24
 71
     2
 72
     6
 73
     3
 74
     0
 42
0.0000000001
 43
0.0000000001
 40
0.0
 40
0.0
 40
0.0
 40
1.0
 40
1.0
 40
1.0
 10
-39.52740238949978
 20
0.2359655193997732
 30
0.0
 10
-38.75967138899151
 20
5.13335599695714
 30
0.0
 10
-37.99194038848326
 20
10.03074647451451
 30
0.0
  0
SPLINE
  5
7C
330
1F
100
AcDbEntity
  8
Layer 04
100
AcDbSpline
210
0.0
220
0.0
230
1.0
 70
     8
 71
     5
 72
    12
 73
     6
 74
     0
 42
0.0000000001
 43
0.0000000001
 40
0.0
 40
0.0
 40
0.0
 40
0.0
 40
0.0
 40
0.0
 40
1.0
 40
1.0
 40
1.0
 40
1.0
 40
1.0
 40
1.0
 10
-39.57760134719977
 20
0.1786505021997762
 30
0.0
 10
-39.5623633072329
 20
0.1786505021997762
 30
0.0
 10
-39.54712526726603
 20
0.1786505021997762
 30
0.0
 10
-39.53212227680912
 20
0.2058571466122012
 30
0.0
 10
-39.52976233315444
 20
0.2209113330059872
 30
0.0
 10
-39.52740238949978
 20
0.2359655193997732
 30
0.0
  0
SPLINE
  5
7D
330
1F
100
AcDbEntity
  8
Layer 04
100
AcDbSpline
210
0.0
220
0.0
230
1.0
 70
    24
 71
     2
 72
     6
 73
     3
 74
     0
 42
0.0000000001
 43
0.0000000001
 40
0.0
 40
0.0
 40
0.0
 40
1.0
 40
1.0
 40
1.0
 10
-40.84600332862885
 20
0.1786505021997762
 30
0.0
 10
-40.21180233791431
 20
0.1786505021997762
 30
0.0
 10
-39.57760134719977
 20
0.1786505021997762
 30
0.0
  0
SPLINE
  5
7E
330
1F
100
AcDbEntity
  8
Layer 04
100
AcDbSpline
210
0.0
220
0.0
230
1.0
 70
     8
 71
     5
 72
    12
 73
     6
 74
     0
 42
0.0000000001
 43
0.0000000001
 40
0.0
 40
0.0
 40
0.0
 40
0.0
 40
0.0
 40
0.0
 40
1.0
 40
1.0
 40
1.0
 40
1.0
 40
1.0
 40
1.0
 10
-40.88950212881517
 20
0.2546177197643866
 30
0.0
 10
-40.89162019337144
 20
0.237238411578447
 30
0.0
 10
-40.89373825792771
 20
0.2198591033925073
 30
0.0
 10
-40.88101912794781
 20
0.1786505021997762
 30
0.0
 10
-40.86351122828832
 20
0.1786505021997762
 30
0.0
 10
-40.84600332862885
 20
0.1786505021997762
 30
0.0
  0
SPLINE
  5
7F
330
1F
100
AcDbEntity
  8
Layer 04
100
AcDbSpline
210
0.0
220
0.0
230
1.0
 70
    24
 71
     2
 72
     6
 73
     3
 74
     0
 42
0.0000000001
 43
0.0000000001
 40
0.0
 40
0.0
 40
0.0
 40
1.0
 40
1.0
 40
1.0
 10
-39.23698905829874
 20
13.81394661222421
 30
0.0
 10
-40.06324559355696
 20
7.034282165994296
 30
0.0
 10
-40.88950212881517
 20
0.2546177197643866
 30
0.0
  0
SPLINE
  5
80
330
1F
100
AcDbEntity
  8
Layer 04
  6
Continuous
100
AcDbSpline
210
0.0
220
0.0
230
1.0
 70
    24
 71
     2
 72
     6
 73
     3
 74
     0
 42
0.0000000001
 43
0.0000000001
 40
0.0
 40
0.0
 40
0.0
 40
1.219882587199983
 40
1.219882587199983
 40
1.219882587199983
 10
-40.83343984509977
 20
-0.0000000000002221
 30
0.0
 10
-40.22349855149978
 20
-0.0000000000002229
 30
0.0
 10
-39.61355725789979
 20
-0.0000000000002238
 30
0.0
  0
SPLINE
  5
81
330
1F
100
AcDbEntity
  8
Layer 04
  6
Continuous
100
AcDbSpline
210
0.0
220
0.0
230
1.0
 70
    12
 71
     2
 72
     8
 73
     5
 74
     0
 42
0.0000000001
 43
0.0000000001
 40
0.0
 40
0.0
 40
0.0
 40
0.123788972541802
 40
0.123788972541802
 40
0.247577945083604
 40
0.247577945083604
 40
0.247577945083604
 10
-40.87849855150289
 20
0.1760000000853707
 30
0.0
 41
1.0
 10
-40.94233013684003
 20
0.1410237889416885
 30
0.0
 41
0.7899418936709612
 10
-40.92427800758236
 20
0.0705118944707304
 30
0.0
 41
1.0
 10
-40.90622587832469
 20
-0.0000000000002276
 30
0.0
 41
0.7899418936709612
 10
-40.83343984509977
 20
-0.0000000000002221
 30
0.0
 41
1.0
  0
SPLINE
  5
82
330
1F
100
AcDbEntity
  8
Layer 04
  6
Continuous
100
AcDbSpline
210
0.0
220
0.0
230
1.0
 70
    12
 71
     2
 72
     8
 73
     5
 74
     0
 42
0.0000000001
 43
0.0000000001
 40
0.0
 40
0.0
 40
0.0
 40
0.1237889725417989
 40
0.1237889725417989
 40
0.2475779450835977
 40
0.2475779450835977
 40
0.2475779450835977
 10
-39.62355725789978
 20
-0.0000000000002221
 30
0.0
 41
1.0
 10
-39.55077122467486
 20
-0.0000000000002238
 30
0.0
 41
0.7899418936709716
 10
-39.53271909541719
 20
0.0705118944707342
 30
0.0
 41
1.0
 10
-39.51466696615951
 20
0.1410237889416905
 30
0.0
 41
0.7899418936709716
 10
-39.57849855149664
 20
0.176000000085371
 30
0.0
 41
1.0
  0
SPLINE
  5
83
330
1F
100
AcDbEntity
  8
Layer 04
  6
Continuous
100
AcDbSpline
210
0.0
220
0.0
230
1.0
 70
    24
 71
     2
 72
     6
 73
     3
 74
     0
 42
0.0000000001
 43
0.0000000001
 40
0.0
 40
0.0
 40
0.0
 40
2.73499999999977
 40
2.73499999999977
 40
2.73499999999977
 10
-36.0
 20
11.06600000000001
 30
0.0
 10
-35.99999999999989
 20
12.4334999999999
 30
0.0
 10
-35.99999999999979
 20
13.80099999999978
 30
0.0
  0
LINE
  5
85
330
1F
100
AcDbEntity
  8
Default
100
AcDbLine
 10
95.0
 20
11.066
 30
0.0
 11
69.0
 21
11.066
 31
0.0
  0
LINE
  5
86
330
1F
100
AcDbEntity
  8
Default
100
AcDbLine
 10
36.0
 20
11.06600000000001
 30
0.0
 11
-36.0
 21
11.06600000000001
 31
0.0
  0
LINE
  5
87
330
1F
100
AcDbEntity
  8
Layer 04
  6
Continuous
100
AcDbLine
 10
57.00000000000001
 20
14.316
 30
0.0
 11
57.00000000000001
 21
14.816
 31
0.0
  0
LINE
  5
88
330
1F
100
AcDbEntity
  8
Layer 04
  6
Continuous
100
AcDbLine
 10
57.00000000000001
 20
14.316
 30
0.0
 11
57.00000000000001
 21
14.816
 31
0.0
  0
LINE
  5
89
330
1F
100
AcDbEntity
  8
Layer 04
  6
Continuous
100
AcDbLine
 10
58.16400000000001
 20
13.816
 30
0.0
 11
57.00000000000001
 21
14.316
 31
0.0
  0
LINE
  5
8A
330
1F
100
AcDbEntity
  8
Layer 04
  6
Continuous
100
AcDbLine
 10
105.836
 20
13.816
 30
0.0
 11
107.0
 21
14.316
 31
0.0
  0
LINE
  5
8B
330
1F
100
AcDbEntity
  8
Layer 04
  6
Continuous
100
AcDbLine
 10
105.836
 20
13.816
 30
0.0
 11
58.16400000000001
 21
13.816
 31
0.0
  0
LINE
  5
8C
330
1F
100
AcDbEntity
  8
Layer 04
  6
Continuous
100
AcDbLine
 10
107.0
 20
14.316
 30
0.0
 11
57.00000000000001
 21
14.316
 31
0.0
  0
LINE
  5
8D
330
1F
100
AcDbEntity
  8
Layer 04
  6
Continuous
100
AcDbLine
 10
107.0
 20
14.316
 30
0.0
 11
107.0
 21
14.816
 31
0.0
  0
POLYLINE
  5
8E
330
1F
100
AcDbEntity
  8
Layer 04
100
AcDb2dPolyline
 66
     1
 10
0.0
 20
0.0
 30
0.0
  0
VERTEX
  5
8F
330
8E
100
AcDbEntity
  8
Layer 04
100
AcDbVertex
100
AcDb2dVertex
 10
57.00000000000001
 20
14.816
 30
0.0
  0
VERTEX
  5
90
330
8E
100
AcDbEntity
  8
Layer 04
100
AcDbVertex
100
AcDb2dVertex
 10
107.0
 20
14.816
 30
0.0
  0
SEQEND
  5
91
330
8E
100
AcDbEntity
  8
Layer 04
  0
SPLINE
  5
92
330
1F
100
AcDbEntity
  8
Layer 04
  6
Continuous
100
AcDbSpline
210
0.0
220
0.0
230
1.0
 70
    15
 71
     2
 72
    36
 73
    33
 74
     0
 42
0.0000000001
 43
0.0000000001
 40
247.7327408161262
 40
247.7327408161262
 40
247.7327408161262
 40
254.4363269336048
 40
254.4363269336048
 40
283.3741251281813
 40
283.3741251281813
 40
300.7891251281814
 40
300.7891251281814
 40
329.7269233227987
 40
329.7269233227987
 40
336.430509440373
 40
336.430509440373
 40
352.5679290838714
 40
352.5679290838714
 40
358.8134846393716
 40
358.8134846393716
 40
374.9509042828701
 40
374.9509042828701
 40
381.6544904004189
 40
381.6544904004189
 40
410.592288595032
 40
410.592288595032
 40
428.0072885950314
 40
428.0072885950314
 40
456.945086789694
 40
456.945086789694
 40
463.6486729072551
 40
463.6486729072551
 40
479.7860925507429
 40
479.7860925507429
 40
486.0316481062431
 40
486.0316481062431
 40
502.169067749731
 40
502.169067749731
 40
502.169067749731
 10
45.27946016449674
 20
73.8042515117697
 30
0.0
 41
1.0
 10
44.02570114926757
 20
77.36557058124369
 30
0.0
 41
0.8479808871906633
 10
40.06166774575569
 20
77.86936586325818
 30
0.0
 41
1.0
 10
24.74488527952614
 20
79.8159999999999
 30
0.0
 41
0.9977314007645113
 10
9.28800000000054
 20
79.81599999999999
 30
0.0
 41
1.0
 10
0.0000000000001592
 20
79.816
 30
0.0
 41
1.0
 10
-9.288000000000222
 20
79.816
 30
0.0
 41
1.0
 10
-24.74488527954889
 20
79.81599999999999
 30
0.0
 41
0.9977314007643929
 10
-40.06166774561112
 20
77.8693658633116
 30
0.0
 41
1.0
 10
-44.02570114916311
 20
77.36557058127057
 30
0.0
 41
0.8479808871948237
 10
-45.27946016444407
 20
73.80425151176965
 30
0.0
 41
1.0
 10
-48.0
 20
66.0765221173738
 30
0.0
 41
0.9873235669446842
 10
-48.0
 20
57.93877777769992
 30
0.0
 41
1.0
 10
-48.0
 20
54.81599999994994
 30
0.0
 41
1.0
 10
-48.0
 20
51.69322222219996
 30
0.0
 41
1.0
 10
-47.99999999999999
 20
43.55547788252609
 30
0.0
 41
0.9873235669446838
 10
-45.27946016444404
 20
35.8277484881303
 30
0.0
 41
1.0
 10
-44.02570114916452
 20
32.26642941863363
 30
0.0
 41
0.847980887191609
 10
-40.06166774561071
 20
31.76263413663833
 30
0.0
 41
1.0
 10
-24.74488527954473
 20
29.81599999999987
 30
0.0
 41
0.9977314007645087
 10
-9.287999999999501
 20
29.81599999999995
 30
0.0
 41
1.0
 10
0.0000000000000455
 20
29.81600000000003
 30
0.0
 41
1.0
 10
9.287999999999593
 20
29.81600000000012
 30
0.0
 41
1.0
 10
24.74488527957116
 20
29.81600000000012
 30
0.0
 41
0.9977314007645169
 10
40.06166774566374
 20
31.76263413663845
 30
0.0
 41
1.0
 10
44.02570114924738
 20
32.26642941859962
 30
0.0
 41
0.8479808871863016
 10
45.27946016449664
 20
35.82774848813004
 30
0.0
 41
1.0
 10
47.99999999999923
 20
43.55547788253371
 30
0.0
 41
0.9873235669451722
 10
47.99999999999935
 20
51.69322222219935
 30
0.0
 41
1.0
 10
47.99999999999935
 20
54.8159999999497
 30
0.0
 41
1.0
 10
47.99999999999936
 20
57.93877777770005
 30
0.0
 41
1.0
 10
47.99999999999935
 20
66.07652211736587
 30
0.0
 41
0.9873235669451715
 10
45.27946016449674
 20
73.8042515117697
 30
0.0
 41
1.0
  0
SPLINE
  5
93
330
1F
100
AcDbEntity
  8
Layer 04
  6
Continuous
100
AcDbSpline
210
0.0
220
0.0
230
1.0
 70
    24
 71
     2
 72
     6
 73
     3
 74
     0
 42
0.0000000001
 43
0.0000000001
 40
0.0
 40
0.0
 40
0.0
 40
0.5
 40
0.5
 40
0.5
 10
-48.0
 20
14.316
 30
0.0
 10
-48.0
 20
14.566
 30
0.0
 10
-48.0
 20
14.816
 30
0.0
  0
SPLINE
  5
94
330
1F
100
AcDbEntity
  8
Layer 04
  6
Continuous
100
AcDbSpline
210
0.0
220
0.0
230
1.0
 70
    24
 71
     2
 72
     6
 73
     3
 74
     0
 42
0.0000000001
 43
0.0000000001
 40
0.0
 40
0.0
 40
0.0
 40
1.266844899741087
 40
1.266844899741087
 40
1.266844899741087
 10
-46.836
 20
13.816
 30
0.0
 10
-47.418
 20
14.066
 30
0.0
 10
-48.0
 20
14.316
 30
0.0
  0
SPLINE
  5
95
330
1F
100
AcDbEntity
  8
Layer 04
  6
Continuous
100
AcDbSpline
210
0.0
220
0.0
230
1.0
 70
    24
 71
     2
 72
     6
 73
     3
 74
     0
 42
0.0000000001
 43
0.0000000001
 40
0.0
 40
0.0
 40
0.0
 40
1.26684489974108
 40
1.26684489974108
 40
1.26684489974108
 10
46.83600000000001
 20
13.816
 30
0.0
 10
47.41800000000001
 20
14.066
 30
0.0
 10
48.00000000000001
 20
14.316
 30
0.0
  0
SPLINE
  5
96
330
1F
100
AcDbEntity
  8
Layer 04
  6
Continuous
100
AcDbSpline
210
0.0
220
0.0
230
1.0
 70
    24
 71
     2
 72
     6
 73
     3
 74
     0
 42
0.0000000001
 43
0.0000000001
 40
0.0
 40
0.0
 40
0.0
 40
0.5
 40
0.5
 40
0.5
 10
48.00000000000001
 20
14.316
 30
0.0
 10
48.00000000000001
 20
14.566
 30
0.0
 10
48.00000000000001
 20
14.816
 30
0.0
  0
SPLINE
  5
97
330
1F
100
AcDbEntity
  8
Layer 04
  6
Continuous
100
AcDbSpline
210
0.0
220
0.0
230
1.0
 70
    24
 71
     2
 72
     6
 73
     3
 74
     0
 42
0.0000000001
 43
0.0000000001
 40
0.0
 40
0.0
 40
0.0
 40
0.5
 40
0.5
 40
0.5
 10
48.00000000000001
 20
14.316
 30
0.0
 10
48.00000000000001
 20
14.566
 30
0.0
 10
48.00000000000001
 20
14.816
 30
0.0
  0
SPLINE
  5
98
330
1F
100
AcDbEntity
  8
Layer 04
  6
Continuous
100
AcDbSpline
210
0.0
220
0.0
230
1.0
 70
    24
 71
     2
 72
     6
 73
     3
 74
     0
 42
0.0000000001
 43
0.0000000001
 40
0.0
 40
0.0
 40
0.0
 40
87.67200000000001
 40
87.67200000000001
 40
87.67200000000001
 10
46.83600000000001
 20
13.816
 30
0.0
 10
0.0000000000000071
 20
13.816
 30
0.0
 10
-46.836
 20
13.816
 30
0.0
  0
SPLINE
  5
99
330
1F
100
AcDbEntity
  8
Layer 04
  6
Continuous
100
AcDbSpline
210
0.0
220
0.0
230
1.0
 70
    24
 71
     2
 72
     6
 73
     3
 74
     0
 42
0.0000000001
 43
0.0000000001
 40
0.0
 40
0.0
 40
0.0
 40
90.0
 40
90.0
 40
90.0
 10
48.00000000000001
 20
14.316
 30
0.0
 10
0.0000000000000036
 20
14.316
 30
0.0
 10
-48.0
 20
14.316
 30
0.0
  0
SPLINE
  5
9A
330
1F
100
AcDbEntity
  8
Layer 04
100
AcDbSpline
210
0.0
220
0.0
230
1.0
 70
    24
 71
     2
 72
     6
 73
     3
 74
     0
 42
0.0000000001
 43
0.0000000001
 40
0.0
 40
0.0
 40
0.0
 40
1.0
 40
1.0
 40
1.0
 10
-48.0
 20
14.816
 30
0.0
 10
0.0000000000000036
 20
14.816
 30
0.0
 10
48.00000000000001
 20
14.816
 30
0.0
  0
ENDSEC
  0
SECTION
  2
OBJECTS
  0
DICTIONARY
  5
C
330
0
100
AcDbDictionary
281
     1
  3
ACAD_GROUP
350
D
  3
ACAD_LAYOUT
350
1A
  3
ACAD_MLEADERSTYLE
350
9C
  3
ACAD_MLINESTYLE
350
17
  3
ACAD_PLOTSETTINGS
350
19
  3
ACAD_PLOTSTYLENAME
350
E
  3
ACAD_TABLESTYLE
350
9B
  3
ACAD_VISUALSTYLE
350
2A
  0
DICTIONARY
  5
D
102
{ACAD_REACTORS
330
C
102
}
330
C
100
AcDbDictionary
281
     1
  0
DICTIONARY
  5
1A
102
{ACAD_REACTORS
330
C
102
}
330
C
100
AcDbDictionary
281
     1
  3
Layout1
350
1E
  3
Layout2
350
26
  3
Model
350
22
  0
DICTIONARY
  5
9C
102
{ACAD_REACTORS
330
C
102
}
330
C
100
AcDbDictionary
281
     1
  0
DICTIONARY
  5
17
102
{ACAD_REACTORS
330
C
102
}
330
C
100
AcDbDictionary
281
     1
  3
Standard
350
18
  0
DICTIONARY
  5
19
102
{ACAD_REACTORS
330
C
102
}
330
C
100
AcDbDictionary
281
     1
  0
ACDBDICTIONARYWDFLT
  5
E
102
{ACAD_REACTORS
330
C
102
}
330
C
100
AcDbDictionary
281
     1
  3
Normal
350
F
100
AcDbDictionaryWithDefault
340
F
  0
DICTIONARY
  5
9B
102
{ACAD_REACTORS
330
C
102
}
330
C
100
AcDbDictionary
281
     1
  0
DICTIONARY
  5
2A
102
{ACAD_REACTORS
330
C
102
}
330
C
100
AcDbDictionary
281
     1
  3
2dWireframe
350
2F
  3
3D Hidden
350
31
  3
3dWireframe
350
30
  3
Basic
350
32
  3
Brighten
350
36
  3
ColorChange
350
3A
  3
Conceptual
350
34
  3
Dim
350
35
  3
Facepattern
350
39
  3
Flat
350
2B
  3
FlatWithEdges
350
2C
  3
Gouraud
350
2D
  3
GouraudWithEdges
350
2E
  3
Linepattern
350
38
  3
Realistic
350
33
  3
Thicken
350
37
  0
LAYOUT
  5
1E
102
{ACAD_REACTORS
330
1A
102
}
330
1A
100
AcDbPlotSettings
  1

  2
none_device
  4

  6

 40
0.0
 41
0.0
 42
0.0
 43
0.0
 44
0.0
 45
0.0
 46
0.0
 47
0.0
 48
0.0
 49
0.0
140
0.0
141
0.0
142
1.0
143
1.0
 70
   688
 72
     0
 73
     0
 74
     5
  7

 75
    16
 76
     0
 77
     2
 78
   300
147
1.0
148
0.0
149
0.0
100
AcDbLayout
  1
Layout1
 70
     1
 71
     1
 10
0.0
 20
0.0
 11
12.0
 21
9.0
 12
0.0
 22
0.0
 32
0.0
 14
1.000000000000000E+20
 24
1.000000000000000E+20
 34
1.000000000000000E+20
 15
-1.000000000000000E+20
 25
-1.000000000000000E+20
 35
-1.000000000000000E+20
146
0.0
 13
0.0
 23
0.0
 33
0.0
 16
1.0
 26
0.0
 36
0.0
 17
0.0
 27
1.0
 37
0.0
 76
     0
330
1B
  0
LAYOUT
  5
26
102
{ACAD_REACTORS
330
1A
102
}
330
1A
100
AcDbPlotSettings
  1

  2
none_device
  4

  6

 40
0.0
 41
0.0
 42
0.0
 43
0.0
 44
0.0
 45
0.0
 46
0.0
 47
0.0
 48
0.0
 49
0.0
140
0.0
141
0.0
142
1.0
143
1.0
 70
   688
 72
     0
 73
     0
 74
     5
  7

 75
    16
 76
     0
 77
     2
 78
   300
147
1.0
148
0.0
149
0.0
100
AcDbLayout
  1
Layout2
 70
     1
 71
     2
 10
0.0
 20
0.0
 11
0.0
 21
0.0
 12
0.0
 22
0.0
 32
0.0
 14
0.0
 24
0.0
 34
0.0
 15
0.0
 25
0.0
 35
0.0
146
0.0
 13
0.0
 23
0.0
 33
0.0
 16
1.0
 26
0.0
 36
0.0
 17
0.0
 27
1.0
 37
0.0
 76
     0
330
23
  0
LAYOUT
  5
22
102
{ACAD_REACTORS
330
1A
102
}
330
1A
100
AcDbPlotSettings
  1

  2
none_device
  4

  6

 40
0.0
 41
0.0
 42
0.0
 43
0.0
 44
0.0
 45
0.0
 46
0.0
 47
0.0
 48
0.0
 49
0.0
140
0.0
141
0.0
142
1.0
143
1.0
 70
  1712
 72
     0
 73
     0
 74
     0
  7

 75
     0
 76
     0
 77
     2
 78
   300
147
1.0
148
0.0
149
0.0
100
AcDbLayout
  1
Model
 70
     1
 71
     0
 10
0.0
 20
0.0
 11
12.0
 21
9.0
 12
0.0
 22
0.0
 32
0.0
 14
-48.0
 24
-0.0000000000002238
 34
0.0
 15
107.0
 25
79.816
 35
0.0
146
0.0
 13
0.0
 23
0.0
 33
0.0
 16
1.0
 26
0.0
 36
0.0
 17
0.0
 27
1.0
 37
0.0
 76
     0
330
1F
331
29
  0
MLINESTYLE
  5
18
102
{ACAD_REACTORS
330
17
102
}
330
17
100
AcDbMlineStyle
  2
Standard
 70
     0
  3

 62
   256
 51
90.0
 52
90.0
 71
     2
 49
0.5
 62
   256
  6
BYLAYER
 49
-0.5
 62
   256
  6
BYLAYER
  0
ACDBPLACEHOLDER
  5
F
102
{ACAD_REACTORS
330
E
102
}
330
E
  0
VISUALSTYLE
  5
2F
102
{ACAD_REACTORS
330
2A
102
}
330
2A
100
AcDbVisualStyle
  2
2dWireframe
 70
     4
 71
     0
 72
     2
 73
     0
 90
        0
 40
-0.6
 41
-30.0
 62
     5
 63
     7
421
 16777215
 74
     1
 91
        4
 64
     7
 65
   257
 75
     1
175
     1
 42
1.0
 92
        0
 66
   257
 43
1.0
 76
     1
 77
     6
 78
     2
 67
     7
 79
     5
170
     0
171
     0
290
     0
174
     0
 93
        1
 44
0.0
173
     0
291
     0
 45
0.0
1001
ACAD
1000
AcDbSavedByObjectVersion
1070
     0
  0
VISUALSTYLE
  5
31
102
{ACAD_REACTORS
330
2A
102
}
330
2A
100
AcDbVisualStyle
  2
3D Hidden
 70
     6
 71
     1
 72
     2
 73
     2
 90
        0
 40
-0.6
 41
-30.0
 62
     5
 63
     7
421
 16777215
 74
     2
 91
        2
 64
     7
 65
   257
 75
     2
175
     1
 42
40.0
 92
        0
 66
   257
 43
1.0
 76
     1
 77
     6
 78
     2
 67
     7
 79
     3
170
     0
171
     0
290
     0
174
     0
 93
        1
 44
0.0
173
     0
291
     0
 45
0.0
1001
ACAD
1000
AcDbSavedByObjectVersion
1070
     0
  0
VISUALSTYLE
  5
30
102
{ACAD_REACTORS
330
2A
102
}
330
2A
100
AcDbVisualStyle
  2
3dWireframe
 70
     5
 71
     0
 72
     2
 73
     0
 90
        0
 40
-0.6
 41
-30.0
 62
     5
 63
     7
421
 16777215
 74
     1
 91
        4
 64
     7
 65
   257
 75
     1
175
     1
 42
1.0
 92
        0
 66
   257
 43
1.0
 76
     1
 77
     6
 78
     2
 67
     7
 79
     5
170
     0
171
     0
290
     0
174
     0
 93
        1
 44
0.0
173
     0
291
     0
 45
0.0
1001
ACAD
1000
AcDbSavedByObjectVersion
1070
     0
  0
VISUALSTYLE
  5
32
102
{ACAD_REACTORS
330
2A
102
}
330
2A
100
AcDbVisualStyle
  2
Basic
 70
     7
 71
     1
 72
     0
 73
     1
 90
        0
 40
-0.6
 41
-30.0
 62
     5
 63
     7
421
 16777215
 74
     0
 91
        4
 64
     7
 65
   257
 75
     1
175
     1
 42
1.0
 92
        8
 66
     7
 43
1.0
 76
     1
 77
     6
 78
     2
 67
     7
 79
     5
170
     0
171
     0
290
     0
174
     0
 93
        1
 44
0.0
173
     0
291
     1
 45
0.0
1001
ACAD
1000
AcDbSavedByObjectVersion
1070
     0
  0
VISUALSTYLE
  5
36
102
{ACAD_REACTORS
330
2A
102
}
330
2A
100
AcDbVisualStyle
  2
Brighten
 70
    12
 71
     2
 72
     2
 73
     0
 90
        0
 40
-0.6
 41
-30.0
 62
     5
 63
     7
421
 16777215
 74
     1
 91
        4
 64
     7
 65
   257
 75
     1
175
     1
 42
1.0
 92
        8
 66
     7
 43
1.0
 76
     1
 77
     6
 78
     2
 67
     7
 79
     5
170
     0
171
     0
290
     0
174
     0
 93
        1
 44
50.0
173
     0
291
     1
 45
0.0
1001
ACAD
1000
AcDbSavedByObjectVersion
1070
     0
  0
VISUALSTYLE
  5
3A
102
{ACAD_REACTORS
330
2A
102
}
330
2A
100
AcDbVisualStyle
  2
ColorChange
 70
    16
 71
     2
 72
     2
 73
     3
 90
        0
 40
-0.6
 41
-30.0
 62
     5
 63
     8
421
  8421504
 74
     1
 91
        4
 64
     7
 65
   257
 75
     1
175
     1
 42
1.0
 92
        8
 66
     8
424
  8421504
 43
1.0
 76
     1
 77
     6
 78
     2
 67
     7
 79
     5
170
     0
171
     0
290
     0
174
     0
 93
        1
 44
0.0
173
     0
291
     1
 45
0.0
1001
ACAD
1000
AcDbSavedByObjectVersion
1070
     0
  0
VISUALSTYLE
  5
34
102
{ACAD_REACTORS
330
2A
102
}
330
2A
100
AcDbVisualStyle
  2
Conceptual
 70
     9
 71
     3
 72
     2
 73
     0
 90
        0
 40
-0.6
 41
-30.0
 62
     5
 63
     7
421
 16777215
 74
     2
 91
        2
 64
     7
 65
   257
 75
     1
175
     1
 42
40.0
 92
        8
 66
     7
 43
1.0
 76
     1
 77
     6
 78
     2
 67
     7
 79
     3
170
     0
171
     0
290
     0
174
     0
 93
        1
 44
0.0
173
     0
291
     0
 45
0.0
1001
ACAD
1000
AcDbSavedByObjectVersion
1070
     0
  0
VISUALSTYLE
  5
35
102
{ACAD_REACTORS
330
2A
102
}
330
2A
100
AcDbVisualStyle
  2
Dim
 70
    11
 71
     2
 72
     2
 73
     0
 90
        0
 40
-0.6
 41
-30.0
 62
     5
 63
     7
421
 16777215
 74
     1
 91
        4
 64
     7
 65
   257
 75
     1
175
     1
 42
1.0
 92
        8
 66
     7
 43
1.0
 76
     1
 77
     6
 78
     2
 67
     7
 79
     5
170
     0
171
     0
290
     0
174
     0
 93
        1
 44
-50.0
173
     0
291
     1
 45
0.0
1001
ACAD
1000
AcDbSavedByObjectVersion
1070
     0
  0
VISUALSTYLE
  5
39
102
{ACAD_REACTORS
330
2A
102
}
330
2A
100
AcDbVisualStyle
  2
Facepattern
 70
    15
 71
     2
 72
     2
 73
     0
 90
        0
 40
-0.6
 41
-30.0
 62
     5
 63
     7
421
 16777215
 74
     1
 91
        4
 64
     7
 65
   257
 75
     1
175
     1
 42
1.0
 92
        8
 66
     7
 43
1.0
 76
     1
 77
     6
 78
     2
 67
     7
 79
     5
170
     0
171
     0
290
     0
174
     0
 93
        1
 44
0.0
173
     0
291
     1
 45
0.0
1001
ACAD
1000
AcDbSavedByObjectVersion
1070
     0
  0
VISUALSTYLE
  5
2B
102
{ACAD_REACTORS
330
2A
102
}
330
2A
100
AcDbVisualStyle
  2
Flat
 70
     0
 71
     2
 72
     1
 73
     1
 90
        2
 40
-0.6
 41
30.0
 62
     5
 63
     7
421
 16777215
 74
     0
 91
        4
 64
     7
 65
   257
 75
     1
175
     1
 42
1.0
 92
        8
 66
     7
 43
1.0
 76
     1
 77
     6
 78
     2
 67
     7
 79
     5
170
     0
171
     0
290
     0
174
     0
 93
       13
 44
0.0
173
     0
291
     1
 45
0.0
1001
ACAD
1000
AcDbSavedByObjectVersion
1070
     0
  0
VISUALSTYLE
  5
2C
102
{ACAD_REACTORS
330
2A
102
}
330
2A
100
AcDbVisualStyle
  2
FlatWithEdges
 70
     1
 71
     2
 72
     1
 73
     1
 90
        2
 40
-0.6
 41
30.0
 62
     5
 63
     7
421
 16777215
 74
     1
 91
        4
 64
     7
 65
   257
 75
     1
175
     1
 42
1.0
 92
        0
 66
   257
 43
1.0
 76
     1
 77
     6
 78
     2
 67
     7
 79
     5
170
     0
171
     0
290
     0
174
     0
 93
       13
 44
0.0
173
     0
291
     1
 45
0.0
1001
ACAD
1000
AcDbSavedByObjectVersion
1070
     0
  0
VISUALSTYLE
  5
2D
102
{ACAD_REACTORS
330
2A
102
}
330
2A
100
AcDbVisualStyle
  2
Gouraud
 70
     2
 71
     2
 72
     2
 73
     1
 90
        2
 40
-0.6
 41
30.0
 62
     5
 63
     7
421
 16777215
 74
     0
 91
        4
 64
     7
 65
   257
 75
     1
175
     1
 42
1.0
 92
        0
 66
     7
 43
1.0
 76
     1
 77
     6
 78
     2
 67
     7
 79
     5
170
     0
171
     0
290
     0
174
     0
 93
       13
 44
0.0
173
     0
291
     1
 45
0.0
1001
ACAD
1000
AcDbSavedByObjectVersion
1070
     0
  0
VISUALSTYLE
  5
2E
102
{ACAD_REACTORS
330
2A
102
}
330
2A
100
AcDbVisualStyle
  2
GouraudWithEdges
 70
     3
 71
     2
 72
     2
 73
     1
 90
        2
 40
-0.6
 41
30.0
 62
     5
 63
     7
421
 16777215
 74
     1
 91
        4
 64
     7
 65
   257
 75
     1
175
     1
 42
1.0
 92
        0
 66
   257
 43
1.0
 76
     1
 77
     6
 78
     2
 67
     7
 79
     5
170
     0
171
     0
290
     0
174
     0
 93
       13
 44
0.0
173
     0
291
     1
 45
0.0
1001
ACAD
1000
AcDbSavedByObjectVersion
1070
     0
  0
VISUALSTYLE
  5
38
102
{ACAD_REACTORS
330
2A
102
}
330
2A
100
AcDbVisualStyle
  2
Linepattern
 70
    14
 71
     2
 72
     2
 73
     0
 90
        0
 40
-0.6
 41
-30.0
 62
     5
 63
     7
421
 16777215
 74
     1
 91
        4
 64
     7
 65
   257
 75
     7
175
     7
 42
1.0
 92
        8
 66
     7
 43
1.0
 76
     1
 77
     6
 78
     2
 67
     7
 79
     5
170
     0
171
     0
290
     0
174
     0
 93
        1
 44
0.0
173
     0
291
     1
 45
0.0
1001
ACAD
1000
AcDbSavedByObjectVersion
1070
     0
  0
VISUALSTYLE
  5
33
102
{ACAD_REACTORS
330
2A
102
}
330
2A
100
AcDbVisualStyle
  2
Realistic
 70
     8
 71
     2
 72
     2
 73
     0
 90
        0
 40
-0.6
 41
-30.0
 62
     5
 63
     7
421
 16777215
 74
     1
 91
        0
 64
     7
 65
   257
 75
     1
175
     1
 42
1.0
 92
        8
 66
     8
424
  7895160
 43
1.0
 76
     1
 77
     6
 78
     2
 67
     7
 79
     5
170
     0
171
     0
290
     0
174
     0
 93
       13
 44
0.0
173
     0
291
     0
 45
0.0
1001
ACAD
1000
AcDbSavedByObjectVersion
1070
     0
  0
VISUALSTYLE
  5
37
102
{ACAD_REACTORS
330
2A
102
}
330
2A
100
AcDbVisualStyle
  2
Thicken
 70
    13
 71
     2
 72
     2
 73
     0
 90
        0
 40
-0.6
 41
-30.0
 62
     5
 63
     7
421
 16777215
 74
     1
 91
        4
 64
     7
 65
   257
 75
     1
175
     1
 42
1.0
 92
       12
 66
     7
 43
1.0
 76
     1
 77
     6
 78
     2
 67
     7
 79
     5
170
     0
171
     0
290
     0
174
     0
 93
        1
 44
0.0
173
     0
291
     1
 45
0.0
1001
ACAD
1000
AcDbSavedByObjectVersion
1070
     0
  0
ENDSEC
  0
EOF
