  0
SECTION
  2
HEADER
  9
$ACADVER
  1
AC1018
  9
$ACADMAINTVER
 70
     0
  9
$DWGCODEPAGE
  3
ANSI_1252
  9
$INSBASE
 10
0.0
 20
0.0
 30
0.0
  9
$EXTMIN
 10
-51.00000000000075
 20
-0.0000000001002293
 30
0.0
  9
$EXTMAX
 10
113.0
 20
79.81600000000003
 30
0.0
  9
$LIMMIN
 10
0.0
 20
0.0
  9
$LIMMAX
 10
12.0
 20
9.0
  9
$ORTHOMODE
 70
     0
  9
$REGENMODE
 70
     1
  9
$FILLMODE
 70
     1
  9
$QTEXTMODE
 70
     0
  9
$MIRRTEXT
 70
     1
  9
$LTSCALE
 40
0.0393700787401575
  9
$ATTMODE
 70
     1
  9
$TEXTSIZE
 40
0.2
  9
$TRACEWID
 40
0.05
  9
$TEXTSTYLE
  7
Standard
  9
$CLAYER
  8
Default
  9
$CELTYPE
  6
ByLayer
  9
$CECOLOR
 62
   256
  9
$CELTSCALE
 40
1.0
  9
$DISPSILH
 70
     0
  9
$DIMSCALE
 40
1.0
  9
$DIMASZ
 40
0.18
  9
$DIMEXO
 40
0.0625
  9
$DIMDLI
 40
0.38
  9
$DIMRND
 40
0.0
  9
$DIMDLE
 40
0.0
  9
$DIMEXE
 40
0.18
  9
$DIMTP
 40
0.0
  9
$DIMTM
 40
0.0
  9
$DIMTXT
 40
0.18
  9
$DIMCEN
 40
0.09
  9
$DIMTSZ
 40
0.0
  9
$DIMTOL
 70
     0
  9
$DIMLIM
 70
     0
  9
$DIMTIH
 70
     1
  9
$DIMTOH
 70
     1
  9
$DIMSE1
 70
     0
  9
$DIMSE2
 70
     0
  9
$DIMTAD
 70
     0
  9
$DIMZIN
 70
     0
  9
$DIMBLK
  1

  9
$DIMASO
 70
     1
  9
$DIMSHO
 70
     1
  9
$DIMPOST
  1

  9
$DIMAPOST
  1

  9
$DIMALT
 70
     0
  9
$DIMALTD
 70
     2
  9
$DIMALTF
 40
25.4
  9
$DIMLFAC
 40
1.0
  9
$DIMTOFL
 70
     0
  9
$DIMTVP
 40
0.0
  9
$DIMTIX
 70
     0
  9
$DIMSOXD
 70
     0
  9
$DIMSAH
 70
     0
  9
$DIMBLK1
  1

  9
$DIMBLK2
  1

  9
$DIMSTYLE
  2
Standard
  9
$DIMCLRD
 70
     0
  9
$DIMCLRE
 70
     0
  9
$DIMCLRT
 70
     0
  9
$DIMTFAC
 40
1.0
  9
$DIMGAP
 40
0.09
  9
$DIMJUST
 70
     0
  9
$DIMSD1
 70
     0
  9
$DIMSD2
 70
     0
  9
$DIMTOLJ
 70
     1
  9
$DIMTZIN
 70
     0
  9
$DIMALTZ
 70
     0
  9
$DIMALTTZ
 70
     0
  9
$DIMUPT
 70
     0
  9
$DIMDEC
 70
     4
  9
$DIMTDEC
 70
     4
  9
$DIMALTU
 70
     2
  9
$DIMALTTD
 70
     2
  9
$DIMTXSTY
  7
Standard
  9
$DIMAUNIT
 70
     0
  9
$DIMADEC
 70
     0
  9
$DIMALTRND
 40
0.0
  9
$DIMAZIN
 70
     0
  9
$DIMDSEP
 70
    46
  9
$DIMATFIT
 70
     3
  9
$DIMFRAC
 70
     0
  9
$DIMLDRBLK
  1

  9
$DIMLUNIT
 70
     2
  9
$DIMLWD
 70
    -2
  9
$DIMLWE
 70
    -2
  9
$DIMTMOVE
 70
     2
  9
$LUNITS
 70
     2
  9
$LUPREC
 70
     4
  9
$SKETCHINC
 40
0.1
  9
$FILLETRAD
 40
0.5
  9
$AUNITS
 70
     0
  9
$AUPREC
 70
     0
  9
$MENU
  1
.
  9
$ELEVATION
 40
0.0
  9
$PELEVATION
 40
0.0
  9
$THICKNESS
 40
0.0
  9
$LIMCHECK
 70
     0
  9
$CHAMFERA
 40
0.5
  9
$CHAMFERB
 40
0.5
  9
$CHAMFERC
 40
1.0
  9
$CHAMFERD
 40
0.0
  9
$SKPOLY
 70
     0
  9
$TDCREATE
 40
2456791.423004202
  9
$TDUCREATE
 40
2456791.589670868
  9
$TDUPDATE
 40
2456791.423004213
  9
$TDUUPDATE
 40
2456791.58967088
  9
$TDINDWG
 40
0.0000000116
  9
$TDUSRTIMER
 40
0.0000000116
  9
$USRTIMER
 70
     1
  9
$ANGBASE
 50
0.0
  9
$ANGDIR
 70
     0
  9
$PDMODE
 70
     0
  9
$PDSIZE
 40
0.0
  9
$PLINEWID
 40
0.0
  9
$SPLFRAME
 70
     0
  9
$SPLINETYPE
 70
     6
  9
$SPLINESEGS
 70
     8
  9
$HANDSEED
  5
A0
  9
$SURFTAB1
 70
     6
  9
$SURFTAB2
 70
     6
  9
$SURFTYPE
 70
     6
  9
$SURFU
 70
     6
  9
$SURFV
 70
     6
  9
$UCSBASE
  2

  9
$UCSNAME
  2

  9
$UCSORG
 10
0.0
 20
0.0
 30
0.0
  9
$UCSXDIR
 10
1.0
 20
0.0
 30
0.0
  9
$UCSYDIR
 10
0.0
 20
1.0
 30
0.0
  9
$UCSORTHOREF
  2

  9
$UCSORTHOVIEW
 70
     0
  9
$UCSORGTOP
 10
0.0
 20
0.0
 30
0.0
  9
$UCSORGBOTTOM
 10
0.0
 20
0.0
 30
0.0
  9
$UCSORGLEFT
 10
0.0
 20
0.0
 30
0.0
  9
$UCSORGRIGHT
 10
0.0
 20
0.0
 30
0.0
  9
$UCSORGFRONT
 10
0.0
 20
0.0
 30
0.0
  9
$UCSORGBACK
 10
0.0
 20
0.0
 30
0.0
  9
$PUCSBASE
  2

  9
$PUCSNAME
  2

  9
$PUCSORG
 10
0.0
 20
0.0
 30
0.0
  9
$PUCSXDIR
 10
1.0
 20
0.0
 30
0.0
  9
$PUCSYDIR
 10
0.0
 20
1.0
 30
0.0
  9
$PUCSORTHOREF
  2

  9
$PUCSORTHOVIEW
 70
     0
  9
$PUCSORGTOP
 10
0.0
 20
0.0
 30
0.0
  9
$PUCSORGBOTTOM
 10
0.0
 20
0.0
 30
0.0
  9
$PUCSORGLEFT
 10
0.0
 20
0.0
 30
0.0
  9
$PUCSORGRIGHT
 10
0.0
 20
0.0
 30
0.0
  9
$PUCSORGFRONT
 10
0.0
 20
0.0
 30
0.0
  9
$PUCSORGBACK
 10
0.0
 20
0.0
 30
0.0
  9
$USERI1
 70
     0
  9
$USERI2
 70
     0
  9
$USERI3
 70
     0
  9
$USERI4
 70
     0
  9
$USERI5
 70
     0
  9
$USERR1
 40
0.0
  9
$USERR2
 40
0.0
  9
$USERR3
 40
0.0
  9
$USERR4
 40
0.0
  9
$USERR5
 40
0.0
  9
$WORLDVIEW
 70
     1
  9
$SHADEDGE
 70
     3
  9
$SHADEDIF
 70
    70
  9
$TILEMODE
 70
     1
  9
$MAXACTVP
 70
    64
  9
$PINSBASE
 10
0.0
 20
0.0
 30
0.0
  9
$PLIMCHECK
 70
     0
  9
$PEXTMIN
 10
1.000000000000000E+20
 20
1.000000000000000E+20
 30
1.000000000000000E+20
  9
$PEXTMAX
 10
-1.000000000000000E+20
 20
-1.000000000000000E+20
 30
-1.000000000000000E+20
  9
$PLIMMIN
 10
0.0
 20
0.0
  9
$PLIMMAX
 10
12.0
 20
9.0
  9
$UNITMODE
 70
     0
  9
$VISRETAIN
 70
     1
  9
$PLINEGEN
 70
     0
  9
$PSLTSCALE
 70
     1
  9
$TREEDEPTH
 70
  3020
  9
$CMLSTYLE
  2
Standard
  9
$CMLJUST
 70
     0
  9
$CMLSCALE
 40
1.0
  9
$PROXYGRAPHICS
 70
     1
  9
$MEASUREMENT
 70
     0
  9
$CELWEIGHT
370
    -1
  9
$ENDCAPS
280
     0
  9
$JOINSTYLE
280
     0
  9
$LWDISPLAY
290
     0
  9
$INSUNITS
 70
     1
  9
$HYPERLINKBASE
  1

  9
$STYLESHEET
  1

  9
$XEDIT
290
     1
  9
$CEPSNTYPE
380
     0
  9
$PSTYLEMODE
290
     1
  9
$FINGERPRINTGUID
  2
{C13853FD-6355-4E12-9124-F3687FAA183F}
  9
$VERSIONGUID
  2
{FAEB1C32-E019-11D5-929B-00C0DF256EC4}
  9
$EXTNAMES
290
     1
  9
$PSVPSCALE
 40
0.0
  9
$OLESTARTUP
290
     0
  9
$SORTENTS
280
   127
  9
$INDEXCTL
280
     0
  9
$HIDETEXT
280
     1
  9
$XCLIPFRAME
290
     0
  9
$HALOGAP
280
     0
  9
$OBSCOLOR
 70
   257
  9
$OBSLTYPE
280
     0
  9
$INTERSECTIONDISPLAY
280
     0
  9
$INTERSECTIONCOLOR
 70
   257
  9
$DIMASSOC
280
     2
  9
$PROJECTNAME
  1

  0
ENDSEC
  0
SECTION
  2
CLASSES
  0
CLASS
  1
ACDBDICTIONARYWDFLT
  2
AcDbDictionaryWithDefault
  3
ObjectDBX Classes
 90
        0
 91
        4
280
     0
281
     0
  0
CLASS
  1
VISUALSTYLE
  2
AcDbVisualStyle
  3
ObjectDBX Classes
 90
     4095
 91
        4
280
     0
281
     0
  0
ENDSEC
  0
SECTION
  2
TABLES
  0
TABLE
  2
VPORT
  5
8
330
0
100
AcDbSymbolTable
 70
     1
  0
VPORT
  5
29
330
8
100
AcDbSymbolTableRecord
100
AcDbViewportTableRecord
  2
*Active
 70
     0
 10
0.0
 20
0.0
 11
1.0
 21
1.0
 12
30.99999999999963
 22
39.9079999999499
 13
0.0
 23
0.0
 14
0.5
 24
0.5
 15
0.5
 25
0.5
 16
0.0
 26
0.0
 36
1.0
 17
0.0
 27
0.0
 37
0.0
 40
81.41232000010227
 41
2.054725869497278
 42
50.0
 43
0.0
 44
0.0
 50
0.0
 51
0.0
 71
     0
 72
   100
 73
     1
 74
     3
 75
     0
 76
     0
 77
     0
 78
     0
281
     0
 65
     1
110
0.0
120
0.0
130
0.0
111
1.0
121
0.0
131
0.0
112
0.0
122
1.0
132
0.0
 79
     0
146
0.0
  0
ENDTAB
  0
TABLE
  2
LTYPE
  5
5
330
0
100
AcDbSymbolTable
 70
     1
  0
LTYPE
  5
14
330
5
100
AcDbSymbolTableRecord
100
AcDbLinetypeTableRecord
  2
ByBlock
 70
     0
  3

 72
    65
 73
     0
 40
0.0
  0
LTYPE
  5
15
330
5
100
AcDbSymbolTableRecord
100
AcDbLinetypeTableRecord
  2
ByLayer
 70
     0
  3

 72
    65
 73
     0
 40
0.0
  0
LTYPE
  5
16
330
5
100
AcDbSymbolTableRecord
100
AcDbLinetypeTableRecord
  2
Continuous
 70
     0
  3
Solid line
 72
    65
 73
     0
 40
0.0
  0
ENDTAB
  0
TABLE
  2
LAYER
  5
2
330
0
100
AcDbSymbolTable
 70
     2
  0
LAYER
  5
10
330
2
100
AcDbSymbolTableRecord
100
AcDbLayerTableRecord
  2
0
 70
     0
 62
     7
  6
Continuous
370
    -3
390
F
  0
LAYER
  5
3B
330
2
100
AcDbSymbolTableRecord
100
AcDbLayerTableRecord
  2
Default
 70
     0
 62
     7
  6
Continuous
370
    -3
390
F
  0
ENDTAB
  0
TABLE
  2
STYLE
  5
3
330
0
100
AcDbSymbolTable
 70
     1
  0
STYLE
  5
11
330
3
100
AcDbSymbolTableRecord
100
AcDbTextStyleTableRecord
  2
Standard
 70
     0
 40
0.0
 41
1.0
 50
0.0
 71
     0
 42
0.2
  3
txt
  4

  0
ENDTAB
  0
TABLE
  2
VIEW
  5
6
330
0
100
AcDbSymbolTable
 70
     0
  0
ENDTAB
  0
TABLE
  2
UCS
  5
7
330
0
100
AcDbSymbolTable
 70
     0
  0
ENDTAB
  0
TABLE
  2
APPID
  5
9
330
0
100
AcDbSymbolTable
 70
     1
  0
APPID
  5
12
330
9
100
AcDbSymbolTableRecord
100
AcDbRegAppTableRecord
  2
ACAD
 70
     0
  0
ENDTAB
  0
TABLE
  2
DIMSTYLE
  5
A
330
0
100
AcDbSymbolTable
 70
     1
100
AcDbDimStyleTable
  0
DIMSTYLE
105
27
330
A
100
AcDbSymbolTableRecord
100
AcDbDimStyleTableRecord
  2
Standard
 70
     0
340
11
  0
ENDTAB
  0
TABLE
  2
BLOCK_RECORD
  5
1
330
0
100
AcDbSymbolTable
 70
     1
  0
BLOCK_RECORD
  5
1F
330
1
100
AcDbSymbolTableRecord
100
AcDbBlockTableRecord
  2
*Model_Space
340
22
  0
BLOCK_RECORD
  5
1B
330
1
100
AcDbSymbolTableRecord
100
AcDbBlockTableRecord
  2
*Paper_Space
340
1E
  0
BLOCK_RECORD
  5
23
330
1
100
AcDbSymbolTableRecord
100
AcDbBlockTableRecord
  2
*Paper_Space0
340
26
  0
ENDTAB
  0
ENDSEC
  0
SECTION
  2
BLOCKS
  0
BLOCK
  5
20
330
1F
100
AcDbEntity
  8
0
100
AcDbBlockBegin
  2
*Model_Space
 70
     0
 10
0.0
 20
0.0
 30
0.0
  3
*Model_Space
  1

  0
ENDBLK
  5
21
330
1F
100
AcDbEntity
  8
0
100
AcDbBlockEnd
  0
BLOCK
  5
1C
330
1B
100
AcDbEntity
 67
     1
  8
0
100
AcDbBlockBegin
  2
*Paper_Space
 70
     0
 10
0.0
 20
0.0
 30
0.0
  3
*Paper_Space
  1

  0
ENDBLK
  5
1D
330
1B
100
AcDbEntity
 67
     1
  8
0
100
AcDbBlockEnd
  0
BLOCK
  5
24
330
23
100
AcDbEntity
  8
0
100
AcDbBlockBegin
  2
*Paper_Space0
 70
     0
 10
0.0
 20
0.0
 30
0.0
  3
*Paper_Space0
  1

  0
ENDBLK
  5
25
330
23
100
AcDbEntity
  8
0
100
AcDbBlockEnd
  0
ENDSEC
  0
SECTION
  2
ENTITIES
  0
LINE
  5
3C
330
1F
100
AcDbEntity
  8
Default
  6
Continuous
100
AcDbLine
 10
101.0000000000001
 20
11.0659999999998
 30
0.0
 11
101.0000000000001
 21
13.80099999999996
 31
0.0
  0
ARC
  5
3D
330
1F
100
AcDbEntity
  8
Default
  6
Continuous
100
AcDbCircle
 10
104.6235572578998
 20
0.0937678608000035
 30
0.0
 40
0.0937678609
100
AcDbArc
 50
118.7203267979021
 51
270.0
  0
LINE
  5
3E
330
1F
100
AcDbEntity
  8
Default
  6
Continuous
100
AcDbLine
 10
105.8334398450998
 20
-0.0000000000999966
 30
0.0
 11
104.6235572578998
 21
-0.0000000000999965
 31
0.0
  0
ARC
  5
3F
330
1F
100
AcDbEntity
  8
Default
  6
Continuous
100
AcDbCircle
 10
105.8334398450998
 20
0.0937678608000035
 30
0.0
 40
0.0937678609
100
AcDbArc
 50
270.0
 51
61.27967320209791
  0
POLYLINE
  5
40
330
1F
100
AcDbEntity
  8
Default
100
AcDb2dPolyline
 66
     1
 10
0.0
 20
0.0
 30
0.0
  0
VERTEX
  5
41
330
40
100
AcDbEntity
  8
Default
100
AcDbVertex
100
AcDb2dVertex
 10
101.7522691588868
 20
11.06600000000026
 30
0.0
  0
VERTEX
  5
42
330
40
100
AcDbEntity
  8
Default
100
AcDbVertex
100
AcDb2dVertex
 10
100.9999999999996
 20
11.06600000000026
 30
0.0
  0
SEQEND
  5
43
330
40
100
AcDbEntity
  8
Default
  0
SPLINE
  5
44
330
1F
100
AcDbEntity
  8
Default
100
AcDbSpline
210
0.0
220
0.0
230
1.0
 70
     8
 71
     5
 72
    12
 73
     6
 74
     0
 42
0.0000000001
 43
0.0000000001
 40
0.0
 40
0.0
 40
0.0
 40
0.0
 40
0.0
 40
0.0
 40
1.0
 40
1.0
 40
1.0
 40
1.0
 40
1.0
 40
1.0
 10
103.0019406887775
 20
10.03074447885063
 30
0.0
 10
102.9519952745363
 20
10.35143556488807
 30
0.0
 10
102.9020498602951
 20
10.67212665092552
 30
0.0
 10
102.4013833770876
 20
11.06600000000026
 30
0.0
 10
102.0768262679872
 20
11.06600000000026
 30
0.0
 10
101.7522691588868
 20
11.06600000000026
 30
0.0
  0
LINE
  5
45
330
1F
100
AcDbEntity
  8
Default
100
AcDbLine
 10
104.5274112947998
 20
0.2359548511000078
 30
0.0
 11
103.0019406887775
 21
10.03074447885063
 31
0.0
  0
SPLINE
  5
46
330
1F
100
AcDbEntity
  8
Default
100
AcDbSpline
210
0.0
220
0.0
230
1.0
 70
     8
 71
     5
 72
    12
 73
     6
 74
     0
 42
0.0000000001
 43
0.0000000001
 40
0.0
 40
0.0
 40
0.0
 40
0.0
 40
0.0
 40
0.0
 40
1.0
 40
1.0
 40
1.0
 40
1.0
 40
1.0
 40
1.0
 10
104.5776013471998
 20
0.178650502100016
 30
0.0
 10
104.5623660857656
 20
0.178650502100016
 30
0.0
 10
104.5471308243314
 20
0.178650502100016
 30
0.0
 10
104.5321003397911
 20
0.2058472835970353
 30
0.0
 10
104.5297558172955
 20
0.2209010673485216
 30
0.0
 10
104.5274112947998
 20
0.2359548511000078
 30
0.0
  0
LINE
  5
47
330
1F
100
AcDbEntity
  8
Default
100
AcDbLine
 10
105.8463823404748
 20
0.178650502100016
 30
0.0
 11
104.5776013471998
 21
0.178650502100016
 31
0.0
  0
SPLINE
  5
48
330
1F
100
AcDbEntity
  8
Default
100
AcDbSpline
210
0.0
220
0.0
230
1.0
 70
     8
 71
     5
 72
    12
 73
     6
 74
     0
 42
0.0000000001
 43
0.0000000001
 40
-1.0
 40
-1.0
 40
-1.0
 40
-1.0
 40
-1.0
 40
-1.0
 40
0.0
 40
0.0
 40
0.0
 40
0.0
 40
0.0
 40
0.0
 10
105.8895021289153
 20
0.2546177197646282
 30
0.0
 10
105.8916163948674
 20
0.2372757691223933
 30
0.0
 10
105.8937306608195
 20
0.2199338184801583
 30
0.0
 10
105.8813230544111
 20
0.178650502100016
 30
0.0
 10
105.8638526974429
 20
0.178650502100016
 30
0.0
 10
105.8463823404748
 20
0.178650502100016
 30
0.0
  0
LINE
  5
49
330
1F
100
AcDbEntity
  8
Default
100
AcDbLine
 10
104.2440483011999
 20
13.75120694285001
 30
0.0
 11
105.8895021289153
 21
0.2546177197646282
 31
0.0
  0
LINE
  5
4A
330
1F
100
AcDbEntity
  8
Default
  6
Continuous
100
AcDbLine
 10
74.99999999999986
 20
13.8010000000003
 30
0.0
 11
75.00000000000011
 21
11.0659999999998
 31
0.0
  0
ARC
  5
4B
330
1F
100
AcDbEntity
  8
Default
  6
Continuous
100
AcDbCircle
 10
75.01999999999947
 20
13.80100000000023
 30
0.0
 40
0.02
100
AcDbArc
 50
169.9999798121961
 51
179.9999999997964
  0
ARC
  5
4C
330
1F
100
AcDbEntity
  8
Default
  6
Continuous
100
AcDbCircle
 10
71.37644274209946
 20
0.0937678607999981
 30
0.0
 40
0.0937678609
100
AcDbArc
 50
270.0
 51
61.27967320209802
  0
LINE
  5
4D
330
1F
100
AcDbEntity
  8
Default
  6
Continuous
100
AcDbLine
 10
70.16656015489946
 20
-0.0000000001000019
 30
0.0
 11
71.37644274209946
 21
-0.0000000001000019
 31
0.0
  0
ARC
  5
4E
330
1F
100
AcDbEntity
  8
Default
  6
Continuous
100
AcDbCircle
 10
70.16656015489946
 20
0.0937678607999981
 30
0.0
 40
0.0937678609
100
AcDbArc
 50
118.7203267979021
 51
270.0
  0
POLYLINE
  5
4F
330
1F
100
AcDbEntity
  8
Default
100
AcDb2dPolyline
 66
     1
 10
0.0
 20
0.0
 30
0.0
  0
VERTEX
  5
50
330
4F
100
AcDbEntity
  8
Default
100
AcDbVertex
100
AcDb2dVertex
 10
74.24773084111246
 20
11.06600000000025
 30
0.0
  0
VERTEX
  5
51
330
4F
100
AcDbEntity
  8
Default
100
AcDbVertex
100
AcDb2dVertex
 10
74.99999999999967
 20
11.06600000000025
 30
0.0
  0
SEQEND
  5
52
330
4F
100
AcDbEntity
  8
Default
  0
SPLINE
  5
53
330
1F
100
AcDbEntity
  8
Default
100
AcDbSpline
210
0.0
220
0.0
230
1.0
 70
     8
 71
     5
 72
    12
 73
     6
 74
     0
 42
0.0000000001
 43
0.0000000001
 40
0.0
 40
0.0
 40
0.0
 40
0.0
 40
0.0
 40
0.0
 40
1.0
 40
1.0
 40
1.0
 40
1.0
 40
1.0
 40
1.0
 10
72.99805931122181
 20
10.03074447885063
 30
0.0
 10
73.04800472546302
 20
10.35143556488807
 30
0.0
 10
73.09795013970422
 20
10.67212665092551
 30
0.0
 10
73.59861662291169
 20
11.06600000000025
 30
0.0
 10
73.92317373201206
 20
11.06600000000025
 30
0.0
 10
74.24773084111246
 20
11.06600000000025
 30
0.0
  0
LINE
  5
54
330
1F
100
AcDbEntity
  8
Default
100
AcDbLine
 10
71.47258870519946
 20
0.2359548511000025
 30
0.0
 11
72.99805931122181
 21
10.03074447885063
 31
0.0
  0
SPLINE
  5
55
330
1F
100
AcDbEntity
  8
Default
100
AcDbSpline
210
0.0
220
0.0
230
1.0
 70
     8
 71
     5
 72
    12
 73
     6
 74
     0
 42
0.0000000001
 43
0.0000000001
 40
0.0
 40
0.0
 40
0.0
 40
0.0
 40
0.0
 40
0.0
 40
1.0
 40
1.0
 40
1.0
 40
1.0
 40
1.0
 40
1.0
 10
71.42239865279946
 20
0.1786505021000107
 30
0.0
 10
71.43763391423369
 20
0.1786505021000107
 30
0.0
 10
71.4528691756679
 20
0.1786505021000107
 30
0.0
 10
71.46789966020816
 20
0.20584728359703
 30
0.0
 10
71.47024418270381
 20
0.2209010673485162
 30
0.0
 10
71.47258870519946
 20
0.2359548511000025
 30
0.0
  0
LINE
  5
56
330
1F
100
AcDbEntity
  8
Default
100
AcDbLine
 10
70.1536176595245
 20
0.1786505021000107
 30
0.0
 11
71.42239865279946
 21
0.1786505021000107
 31
0.0
  0
SPLINE
  5
57
330
1F
100
AcDbEntity
  8
Default
100
AcDbSpline
210
0.0
220
0.0
230
1.0
 70
     8
 71
     5
 72
    12
 73
     6
 74
     0
 42
0.0000000001
 43
0.0000000001
 40
-1.0
 40
-1.0
 40
-1.0
 40
-1.0
 40
-1.0
 40
-1.0
 40
0.0
 40
0.0
 40
0.0
 40
0.0
 40
0.0
 40
0.0
 10
70.11049787108405
 20
0.2546177197646228
 30
0.0
 10
70.1083836051319
 20
0.2372757691223879
 30
0.0
 10
70.10626933917978
 20
0.219933818480153
 30
0.0
 10
70.11867694558823
 20
0.1786505021000107
 30
0.0
 10
70.13614730255637
 20
0.1786505021000107
 30
0.0
 10
70.1536176595245
 20
0.1786505021000107
 30
0.0
  0
LINE
  5
58
330
1F
100
AcDbEntity
  8
Default
100
AcDbLine
 10
71.75595169879945
 20
13.75120694285001
 30
0.0
 11
70.11049787108405
 21
0.2546177197646228
 31
0.0
  0
LINE
  5
59
330
1F
100
AcDbEntity
  8
Default
  6
Continuous
100
AcDbLine
 10
39.0
 20
13.8010000000003
 30
0.0
 11
39.00000000000022
 21
11.06600000000002
 31
0.0
  0
ARC
  5
5A
330
1F
100
AcDbEntity
  8
Default
  6
Continuous
100
AcDbCircle
 10
42.6235572579
 20
0.0937678608002308
 30
0.0
 40
0.0937678609
100
AcDbArc
 50
118.7203267979021
 51
270.0000000000043
  0
LINE
  5
5B
330
1F
100
AcDbEntity
  8
Default
  6
Continuous
100
AcDbLine
 10
43.83343984509999
 20
-0.0000000000997692
 30
0.0
 11
42.6235572579
 21
-0.0000000000997692
 31
0.0
  0
ARC
  5
5C
330
1F
100
AcDbEntity
  8
Default
  6
Continuous
100
AcDbCircle
 10
43.8334398451
 20
0.0937678608002308
 30
0.0
 40
0.0937678609
100
AcDbArc
 50
269.9999999999957
 51
61.27967320209786
  0
POLYLINE
  5
5D
330
1F
100
AcDbEntity
  8
Default
100
AcDb2dPolyline
 66
     1
 10
0.0
 20
0.0
 30
0.0
  0
VERTEX
  5
5E
330
5D
100
AcDbEntity
  8
Default
100
AcDbVertex
100
AcDb2dVertex
 10
39.75226915888701
 20
11.06600000000048
 30
0.0
  0
VERTEX
  5
5F
330
5D
100
AcDbEntity
  8
Default
100
AcDbVertex
100
AcDb2dVertex
 10
38.99999999999978
 20
11.06600000000048
 30
0.0
  0
SEQEND
  5
60
330
5D
100
AcDbEntity
  8
Default
  0
SPLINE
  5
61
330
1F
100
AcDbEntity
  8
Default
100
AcDbSpline
210
0.0
220
0.0
230
1.0
 70
     8
 71
     5
 72
    12
 73
     6
 74
     0
 42
0.0000000001
 43
0.0000000001
 40
0.0
 40
0.0
 40
0.0
 40
0.0
 40
0.0
 40
0.0
 40
1.0
 40
1.0
 40
1.0
 40
1.0
 40
1.0
 40
1.0
 10
41.00194068877764
 20
10.03074447885086
 30
0.0
 10
40.95199527453644
 20
10.3514355648883
 30
0.0
 10
40.90204986029523
 20
10.67212665092574
 30
0.0
 10
40.40138337708777
 20
11.06600000000048
 30
0.0
 10
40.07682626798739
 20
11.06600000000048
 30
0.0
 10
39.75226915888701
 20
11.06600000000048
 30
0.0
  0
LINE
  5
62
330
1F
100
AcDbEntity
  8
Default
100
AcDbLine
 10
42.5274112948
 20
0.2359548511002351
 30
0.0
 11
41.00194068877764
 21
10.03074447885086
 31
0.0
  0
SPLINE
  5
63
330
1F
100
AcDbEntity
  8
Default
100
AcDbSpline
210
0.0
220
0.0
230
1.0
 70
     8
 71
     5
 72
    12
 73
     6
 74
     0
 42
0.0000000001
 43
0.0000000001
 40
0.0
 40
0.0
 40
0.0
 40
0.0
 40
0.0
 40
0.0
 40
1.0
 40
1.0
 40
1.0
 40
1.0
 40
1.0
 40
1.0
 10
42.57760134719999
 20
0.1786505021002433
 30
0.0
 10
42.56236608576577
 20
0.1786505021002433
 30
0.0
 10
42.54713082433156
 20
0.1786505021002433
 30
0.0
 10
42.53210033979128
 20
0.2058472835972626
 30
0.0
 10
42.52975581729564
 20
0.2209010673487489
 30
0.0
 10
42.5274112948
 20
0.2359548511002351
 30
0.0
  0
LINE
  5
64
330
1F
100
AcDbEntity
  8
Default
100
AcDbLine
 10
43.84638234047496
 20
0.1786505021002433
 30
0.0
 11
42.57760134719999
 21
0.1786505021002433
 31
0.0
  0
SPLINE
  5
65
330
1F
100
AcDbEntity
  8
Default
100
AcDbSpline
210
0.0
220
0.0
230
1.0
 70
     8
 71
     5
 72
    12
 73
     6
 74
     0
 42
0.0000000001
 43
0.0000000001
 40
-1.0
 40
-1.0
 40
-1.0
 40
-1.0
 40
-1.0
 40
-1.0
 40
0.0
 40
0.0
 40
0.0
 40
0.0
 40
0.0
 40
0.0
 10
43.88950212891541
 20
0.2546177197648555
 30
0.0
 10
43.89161639486754
 20
0.2372757691226206
 30
0.0
 10
43.89373066081968
 20
0.2199338184803857
 30
0.0
 10
43.88132305441122
 20
0.1786505021002433
 30
0.0
 10
43.86385269744309
 20
0.1786505021002433
 30
0.0
 10
43.84638234047496
 20
0.1786505021002433
 30
0.0
  0
LINE
  5
66
330
1F
100
AcDbEntity
  8
Default
100
AcDbLine
 10
42.24404830120001
 20
13.75120694285023
 30
0.0
 11
43.88950212891541
 21
0.2546177197648555
 31
0.0
  0
ARC
  5
67
330
1F
100
AcDbEntity
  8
Default
  6
Continuous
100
AcDbCircle
 10
-39.02000000000001
 20
13.80099999999977
 30
0.0
 40
0.02
100
AcDbArc
 50
0.0000000002035555
 51
10.0000405609027
  0
LINE
  5
68
330
1F
100
AcDbEntity
  8
Default
  6
Continuous
100
AcDbLine
 10
-38.99999999999978
 20
11.06600000000002
 30
0.0
 11
-39.0
 21
13.80099999999984
 31
0.0
  0
ARC
  5
69
330
1F
100
AcDbEntity
  8
Default
  6
Continuous
100
AcDbCircle
 10
-42.6235572579
 20
0.0937678607997707
 30
0.0
 40
0.0937678609
100
AcDbArc
 50
270.0
 51
61.27967320209802
  0
LINE
  5
6A
330
1F
100
AcDbEntity
  8
Default
  6
Continuous
100
AcDbLine
 10
-43.83343984509999
 20
-0.0000000001002293
 30
0.0
 11
-42.6235572579
 21
-0.0000000001002293
 31
0.0
  0
ARC
  5
6B
330
1F
100
AcDbEntity
  8
Default
  6
Continuous
100
AcDbCircle
 10
-43.8334398451
 20
0.0937678607997707
 30
0.0
 40
0.0937678609
100
AcDbArc
 50
118.7203267979021
 51
270.0000000000043
  0
POLYLINE
  5
6C
330
1F
100
AcDbEntity
  8
Default
100
AcDb2dPolyline
 66
     1
 10
0.0
 20
0.0
 30
0.0
  0
VERTEX
  5
6D
330
6C
100
AcDbEntity
  8
Default
100
AcDbVertex
100
AcDb2dVertex
 10
-39.75226915888701
 20
11.06600000000002
 30
0.0
  0
VERTEX
  5
6E
330
6C
100
AcDbEntity
  8
Default
100
AcDbVertex
100
AcDb2dVertex
 10
-38.99999999999978
 20
11.06600000000002
 30
0.0
  0
SEQEND
  5
6F
330
6C
100
AcDbEntity
  8
Default
  0
SPLINE
  5
70
330
1F
100
AcDbEntity
  8
Default
100
AcDbSpline
210
0.0
220
0.0
230
1.0
 70
     8
 71
     5
 72
    12
 73
     6
 74
     0
 42
0.0000000001
 43
0.0000000001
 40
0.0
 40
0.0
 40
0.0
 40
0.0
 40
0.0
 40
0.0
 40
1.0
 40
1.0
 40
1.0
 40
1.0
 40
1.0
 40
1.0
 10
-41.00194068877764
 20
10.0307444788504
 30
0.0
 10
-40.95199527453644
 20
10.35143556488784
 30
0.0
 10
-40.90204986029523
 20
10.67212665092528
 30
0.0
 10
-40.40138337708777
 20
11.06600000000002
 30
0.0
 10
-40.07682626798739
 20
11.06600000000002
 30
0.0
 10
-39.75226915888701
 20
11.06600000000002
 30
0.0
  0
LINE
  5
71
330
1F
100
AcDbEntity
  8
Default
100
AcDbLine
 10
-42.5274112948
 20
0.235954851099775
 30
0.0
 11
-41.00194068877764
 21
10.0307444788504
 31
0.0
  0
SPLINE
  5
72
330
1F
100
AcDbEntity
  8
Default
100
AcDbSpline
210
0.0
220
0.0
230
1.0
 70
     8
 71
     5
 72
    12
 73
     6
 74
     0
 42
0.0000000001
 43
0.0000000001
 40
0.0
 40
0.0
 40
0.0
 40
0.0
 40
0.0
 40
0.0
 40
1.0
 40
1.0
 40
1.0
 40
1.0
 40
1.0
 40
1.0
 10
-42.57760134719999
 20
0.1786505020997833
 30
0.0
 10
-42.56236608576577
 20
0.1786505020997833
 30
0.0
 10
-42.54713082433156
 20
0.1786505020997833
 30
0.0
 10
-42.53210033979128
 20
0.2058472835968025
 30
0.0
 10
-42.52975581729564
 20
0.2209010673482888
 30
0.0
 10
-42.5274112948
 20
0.235954851099775
 30
0.0
  0
LINE
  5
73
330
1F
100
AcDbEntity
  8
Default
100
AcDbLine
 10
-43.84638234047496
 20
0.1786505020997833
 30
0.0
 11
-42.57760134719999
 21
0.1786505020997833
 31
0.0
  0
SPLINE
  5
74
330
1F
100
AcDbEntity
  8
Default
100
AcDbSpline
210
0.0
220
0.0
230
1.0
 70
     8
 71
     5
 72
    12
 73
     6
 74
     0
 42
0.0000000001
 43
0.0000000001
 40
-1.0
 40
-1.0
 40
-1.0
 40
-1.0
 40
-1.0
 40
-1.0
 40
0.0
 40
0.0
 40
0.0
 40
0.0
 40
0.0
 40
0.0
 10
-43.88950212891541
 20
0.2546177197643955
 30
0.0
 10
-43.89161639486754
 20
0.2372757691221606
 30
0.0
 10
-43.89373066081968
 20
0.2199338184799257
 30
0.0
 10
-43.88132305441122
 20
0.1786505020997833
 30
0.0
 10
-43.86385269744309
 20
0.1786505020997833
 30
0.0
 10
-43.84638234047496
 20
0.1786505020997833
 30
0.0
  0
LINE
  5
75
330
1F
100
AcDbEntity
  8
Default
100
AcDbLine
 10
-42.24404830120001
 20
13.75120694284977
 30
0.0
 11
-43.88950212891541
 21
0.2546177197643955
 31
0.0
  0
LINE
  5
76
330
1F
100
AcDbEntity
  8
Default
100
AcDbLine
 10
101.0000000000001
 20
11.0659999999998
 30
0.0
 11
75.00000000000011
 21
11.0659999999998
 31
0.0
  0
LINE
  5
77
330
1F
100
AcDbEntity
  8
Default
100
AcDbLine
 10
39.00000000000022
 20
11.06600000000002
 30
0.0
 11
-38.99999999999978
 21
11.06600000000002
 31
0.0
  0
LINE
  5
78
330
1F
100
AcDbEntity
  8
Default
  6
Continuous
100
AcDbLine
 10
-51.0
 20
14.816
 30
0.0
 11
-51.0
 21
14.316
 31
0.0
  0
LINE
  5
79
330
1F
100
AcDbEntity
  8
Default
  6
Continuous
100
AcDbLine
 10
-51.0
 20
14.316
 30
0.0
 11
-51.0
 21
14.816
 31
0.0
  0
LINE
  5
7A
330
1F
100
AcDbEntity
  8
Default
  6
Continuous
100
AcDbLine
 10
-8.707999999999258
 20
29.81600000000003
 30
0.0
 11
8.707999999999265
 21
29.81599999999998
 31
0.0
  0
ARC
  5
7B
330
1F
100
AcDbEntity
  8
Default
  6
Continuous
100
AcDbCircle
 10
-8.70800000000074
 20
334.001
 30
0.0
 40
304.185
100
AcDbArc
 50
263.4336370842004
 51
270.0000000000005
  0
ARC
  5
7C
330
1F
100
AcDbEntity
  8
Default
  6
Continuous
100
AcDbCircle
 10
-42.80663065830333
 20
37.77207228997733
 30
0.0
 40
5.999999999977202
100
AcDbArc
 50
197.048135185649
 51
263.4336370841996
  0
ARC
  5
7D
330
1F
100
AcDbEntity
  8
Default
  6
Continuous
100
AcDbCircle
 10
4.916000000310025
 20
52.40619607839993
 30
0.0
 40
55.91600000031076
100
AcDbArc
 50
180.0
 51
197.0481351853692
  0
LINE
  5
7E
330
1F
100
AcDbEntity
  8
Default
  6
Continuous
100
AcDbLine
 10
-51.00000000000074
 20
57.22580392159971
 30
0.0
 11
-51.00000000000074
 21
52.40619607839996
 31
0.0
  0
ARC
  5
7F
330
1F
100
AcDbEntity
  8
Default
  6
Continuous
100
AcDbCircle
 10
4.916000000312009
 20
57.22580392159972
 30
0.0
 40
55.91600000031275
100
AcDbArc
 50
162.9518648146312
 51
180.0
  0
ARC
  5
80
330
1F
100
AcDbEntity
  8
Default
  6
Continuous
100
AcDbCircle
 10
-42.80663065828676
 20
71.85992771001763
 30
0.0
 40
5.999999999994509
100
AcDbArc
 50
96.56636291449436
 51
162.9518648143532
  0
ARC
  5
81
330
1F
100
AcDbEntity
  8
Default
  6
Continuous
100
AcDbCircle
 10
-8.708000000001055
 20
-224.3689999984062
 30
0.0
 40
304.1849999984062
100
AcDbArc
 50
89.9999999999999
 51
96.56636291586297
  0
LINE
  5
82
330
1F
100
AcDbEntity
  8
Default
  6
Continuous
100
AcDbLine
 10
8.707999999998465
 20
79.81599999999997
 30
0.0
 11
-8.70800000000074
 21
79.81599999999997
 31
0.0
  0
ARC
  5
83
330
1F
100
AcDbEntity
  8
Default
  6
Continuous
100
AcDbCircle
 10
8.707999999997885
 20
-224.3689999984292
 30
0.0
 40
304.1849999984292
100
AcDbArc
 50
83.43363708413725
 51
89.9999999999999
  0
ARC
  5
84
330
1F
100
AcDbEntity
  8
Default
  6
Continuous
100
AcDbCircle
 10
42.80663065828531
 20
71.85992771001757
 30
0.0
 40
5.999999999994506
100
AcDbArc
 50
17.04813518564883
 51
83.4336370855098
  0
ARC
  5
85
330
1F
100
AcDbEntity
  8
Default
  6
Continuous
100
AcDbCircle
 10
-4.916000000312048
 20
57.22580392159998
 30
0.0
 40
55.91600000031131
100
AcDbArc
 50
0.0
 51
17.04813518536908
  0
LINE
  5
86
330
1F
100
AcDbEntity
  8
Default
  6
Continuous
100
AcDbLine
 10
50.99999999999926
 20
52.40619607840017
 30
0.0
 11
50.99999999999926
 21
57.22580392159996
 31
0.0
  0
ARC
  5
87
330
1F
100
AcDbEntity
  8
Default
  6
Continuous
100
AcDbCircle
 10
-4.916000000313577
 20
52.40619607840021
 30
0.0
 40
55.91600000031284
100
AcDbArc
 50
342.9518648146313
 51
0.0
  0
ARC
  5
88
330
1F
100
AcDbEntity
  8
Default
  6
Continuous
100
AcDbCircle
 10
42.80663065828531
 20
37.77207228998236
 30
0.0
 40
5.9999999999945
100
AcDbArc
 50
276.5663629144948
 51
342.9518648143526
  0
ARC
  5
89
330
1F
100
AcDbEntity
  8
Default
  6
Continuous
100
AcDbCircle
 10
8.707999999999656
 20
334.0009999984019
 30
0.0
 40
304.184999998402
100
AcDbArc
 50
269.9999999999999
 51
276.5663629158631
  0
LINE
  5
8A
330
1F
100
AcDbEntity
  8
Default
  6
Continuous
100
AcDbLine
 10
51.0
 20
14.816
 30
0.0
 11
51.0
 21
14.316
 31
0.0
  0
LINE
  5
8B
330
1F
100
AcDbEntity
  8
Default
  6
Continuous
100
AcDbLine
 10
51.0
 20
14.316
 30
0.0
 11
-51.0
 21
14.316
 31
0.0
  0
LINE
  5
8C
330
1F
100
AcDbEntity
  8
Default
  6
Continuous
100
AcDbLine
 10
-51.0
 20
14.316
 30
0.0
 11
-49.836
 21
13.816
 31
0.0
  0
LINE
  5
8D
330
1F
100
AcDbEntity
  8
Default
  6
Continuous
100
AcDbLine
 10
-49.836
 20
13.816
 30
0.0
 11
49.836
 21
13.816
 31
0.0
  0
LINE
  5
8E
330
1F
100
AcDbEntity
  8
Default
  6
Continuous
100
AcDbLine
 10
49.836
 20
13.816
 30
0.0
 11
51.0
 21
14.316
 31
0.0
  0
LINE
  5
8F
330
1F
100
AcDbEntity
  8
Default
  6
Continuous
100
AcDbLine
 10
113.0
 20
14.816
 30
0.0
 11
113.0
 21
14.316
 31
0.0
  0
LINE
  5
90
330
1F
100
AcDbEntity
  8
Default
  6
Continuous
100
AcDbLine
 10
113.0
 20
14.316
 30
0.0
 11
62.99999999999999
 21
14.316
 31
0.0
  0
LINE
  5
91
330
1F
100
AcDbEntity
  8
Default
  6
Continuous
100
AcDbLine
 10
62.99999999999999
 20
14.316
 30
0.0
 11
62.99999999999999
 21
14.816
 31
0.0
  0
LINE
  5
92
330
1F
100
AcDbEntity
  8
Default
  6
Continuous
100
AcDbLine
 10
62.99999999999999
 20
14.816
 30
0.0
 11
62.99999999999999
 21
14.316
 31
0.0
  0
LINE
  5
93
330
1F
100
AcDbEntity
  8
Default
  6
Continuous
100
AcDbLine
 10
62.99999999999999
 20
14.316
 30
0.0
 11
64.16399999999999
 21
13.816
 31
0.0
  0
LINE
  5
94
330
1F
100
AcDbEntity
  8
Default
  6
Continuous
100
AcDbLine
 10
64.16399999999999
 20
13.816
 30
0.0
 11
111.836
 21
13.816
 31
0.0
  0
LINE
  5
95
330
1F
100
AcDbEntity
  8
Default
  6
Continuous
100
AcDbLine
 10
111.836
 20
13.816
 30
0.0
 11
113.0
 21
14.316
 31
0.0
  0
POLYLINE
  5
96
330
1F
100
AcDbEntity
  8
Default
100
AcDb2dPolyline
 66
     1
 10
0.0
 20
0.0
 30
0.0
  0
VERTEX
  5
97
330
96
100
AcDbEntity
  8
Default
100
AcDbVertex
100
AcDb2dVertex
 10
-51.0
 20
14.816
 30
0.0
  0
VERTEX
  5
98
330
96
100
AcDbEntity
  8
Default
100
AcDbVertex
100
AcDb2dVertex
 10
51.0
 20
14.816
 30
0.0
  0
SEQEND
  5
99
330
96
100
AcDbEntity
  8
Default
  0
POLYLINE
  5
9A
330
1F
100
AcDbEntity
  8
Default
100
AcDb2dPolyline
 66
     1
 10
0.0
 20
0.0
 30
0.0
  0
VERTEX
  5
9B
330
9A
100
AcDbEntity
  8
Default
100
AcDbVertex
100
AcDb2dVertex
 10
62.99999999999999
 20
14.816
 30
0.0
  0
VERTEX
  5
9C
330
9A
100
AcDbEntity
  8
Default
100
AcDbVertex
100
AcDb2dVertex
 10
113.0
 20
14.816
 30
0.0
  0
SEQEND
  5
9D
330
9A
100
AcDbEntity
  8
Default
  0
ENDSEC
  0
SECTION
  2
OBJECTS
  0
DICTIONARY
  5
C
330
0
100
AcDbDictionary
281
     1
  3
ACAD_GROUP
350
D
  3
ACAD_LAYOUT
350
1A
  3
ACAD_MLEADERSTYLE
350
9F
  3
ACAD_MLINESTYLE
350
17
  3
ACAD_PLOTSETTINGS
350
19
  3
ACAD_PLOTSTYLENAME
350
E
  3
ACAD_TABLESTYLE
350
9E
  3
ACAD_VISUALSTYLE
350
2A
  0
DICTIONARY
  5
D
102
{ACAD_REACTORS
330
C
102
}
330
C
100
AcDbDictionary
281
     1
  0
DICTIONARY
  5
1A
102
{ACAD_REACTORS
330
C
102
}
330
C
100
AcDbDictionary
281
     1
  3
Layout1
350
1E
  3
Layout2
350
26
  3
Model
350
22
  0
DICTIONARY
  5
9F
102
{ACAD_REACTORS
330
C
102
}
330
C
100
AcDbDictionary
281
     1
  0
DICTIONARY
  5
17
102
{ACAD_REACTORS
330
C
102
}
330
C
100
AcDbDictionary
281
     1
  3
Standard
350
18
  0
DICTIONARY
  5
19
102
{ACAD_REACTORS
330
C
102
}
330
C
100
AcDbDictionary
281
     1
  0
ACDBDICTIONARYWDFLT
  5
E
102
{ACAD_REACTORS
330
C
102
}
330
C
100
AcDbDictionary
281
     1
  3
Normal
350
F
100
AcDbDictionaryWithDefault
340
F
  0
DICTIONARY
  5
9E
102
{ACAD_REACTORS
330
C
102
}
330
C
100
AcDbDictionary
281
     1
  0
DICTIONARY
  5
2A
102
{ACAD_REACTORS
330
C
102
}
330
C
100
AcDbDictionary
281
     1
  3
2dWireframe
350
2F
  3
3D Hidden
350
31
  3
3dWireframe
350
30
  3
Basic
350
32
  3
Brighten
350
36
  3
ColorChange
350
3A
  3
Conceptual
350
34
  3
Dim
350
35
  3
Facepattern
350
39
  3
Flat
350
2B
  3
FlatWithEdges
350
2C
  3
Gouraud
350
2D
  3
GouraudWithEdges
350
2E
  3
Linepattern
350
38
  3
Realistic
350
33
  3
Thicken
350
37
  0
LAYOUT
  5
1E
102
{ACAD_REACTORS
330
1A
102
}
330
1A
100
AcDbPlotSettings
  1

  2
none_device
  4

  6

 40
0.0
 41
0.0
 42
0.0
 43
0.0
 44
0.0
 45
0.0
 46
0.0
 47
0.0
 48
0.0
 49
0.0
140
0.0
141
0.0
142
1.0
143
1.0
 70
   688
 72
     0
 73
     0
 74
     5
  7

 75
    16
 76
     0
 77
     2
 78
   300
147
1.0
148
0.0
149
0.0
100
AcDbLayout
  1
Layout1
 70
     1
 71
     1
 10
0.0
 20
0.0
 11
12.0
 21
9.0
 12
0.0
 22
0.0
 32
0.0
 14
1.000000000000000E+20
 24
1.000000000000000E+20
 34
1.000000000000000E+20
 15
-1.000000000000000E+20
 25
-1.000000000000000E+20
 35
-1.000000000000000E+20
146
0.0
 13
0.0
 23
0.0
 33
0.0
 16
1.0
 26
0.0
 36
0.0
 17
0.0
 27
1.0
 37
0.0
 76
     0
330
1B
  0
LAYOUT
  5
26
102
{ACAD_REACTORS
330
1A
102
}
330
1A
100
AcDbPlotSettings
  1

  2
none_device
  4

  6

 40
0.0
 41
0.0
 42
0.0
 43
0.0
 44
0.0
 45
0.0
 46
0.0
 47
0.0
 48
0.0
 49
0.0
140
0.0
141
0.0
142
1.0
143
1.0
 70
   688
 72
     0
 73
     0
 74
     5
  7

 75
    16
 76
     0
 77
     2
 78
   300
147
1.0
148
0.0
149
0.0
100
AcDbLayout
  1
Layout2
 70
     1
 71
     2
 10
0.0
 20
0.0
 11
0.0
 21
0.0
 12
0.0
 22
0.0
 32
0.0
 14
0.0
 24
0.0
 34
0.0
 15
0.0
 25
0.0
 35
0.0
146
0.0
 13
0.0
 23
0.0
 33
0.0
 16
1.0
 26
0.0
 36
0.0
 17
0.0
 27
1.0
 37
0.0
 76
     0
330
23
  0
LAYOUT
  5
22
102
{ACAD_REACTORS
330
1A
102
}
330
1A
100
AcDbPlotSettings
  1

  2
none_device
  4

  6

 40
0.0
 41
0.0
 42
0.0
 43
0.0
 44
0.0
 45
0.0
 46
0.0
 47
0.0
 48
0.0
 49
0.0
140
0.0
141
0.0
142
1.0
143
1.0
 70
  1712
 72
     0
 73
     0
 74
     0
  7

 75
     0
 76
     0
 77
     2
 78
   300
147
1.0
148
0.0
149
0.0
100
AcDbLayout
  1
Model
 70
     1
 71
     0
 10
0.0
 20
0.0
 11
12.0
 21
9.0
 12
0.0
 22
0.0
 32
0.0
 14
-51.00000000000075
 24
-0.0000000001002293
 34
0.0
 15
113.0
 25
79.81600000000003
 35
0.0
146
0.0
 13
0.0
 23
0.0
 33
0.0
 16
1.0
 26
0.0
 36
0.0
 17
0.0
 27
1.0
 37
0.0
 76
     0
330
1F
331
29
  0
MLINESTYLE
  5
18
102
{ACAD_REACTORS
330
17
102
}
330
17
100
AcDbMlineStyle
  2
Standard
 70
     0
  3

 62
   256
 51
90.0
 52
90.0
 71
     2
 49
0.5
 62
   256
  6
BYLAYER
 49
-0.5
 62
   256
  6
BYLAYER
  0
ACDBPLACEHOLDER
  5
F
102
{ACAD_REACTORS
330
E
102
}
330
E
  0
VISUALSTYLE
  5
2F
102
{ACAD_REACTORS
330
2A
102
}
330
2A
100
AcDbVisualStyle
  2
2dWireframe
 70
     4
 71
     0
 72
     2
 73
     0
 90
        0
 40
-0.6
 41
-30.0
 62
     5
 63
     7
421
 16777215
 74
     1
 91
        4
 64
     7
 65
   257
 75
     1
175
     1
 42
1.0
 92
        0
 66
   257
 43
1.0
 76
     1
 77
     6
 78
     2
 67
     7
 79
     5
170
     0
171
     0
290
     0
174
     0
 93
        1
 44
0.0
173
     0
291
     0
 45
0.0
1001
ACAD
1000
AcDbSavedByObjectVersion
1070
     0
  0
VISUALSTYLE
  5
31
102
{ACAD_REACTORS
330
2A
102
}
330
2A
100
AcDbVisualStyle
  2
3D Hidden
 70
     6
 71
     1
 72
     2
 73
     2
 90
        0
 40
-0.6
 41
-30.0
 62
     5
 63
     7
421
 16777215
 74
     2
 91
        2
 64
     7
 65
   257
 75
     2
175
     1
 42
40.0
 92
        0
 66
   257
 43
1.0
 76
     1
 77
     6
 78
     2
 67
     7
 79
     3
170
     0
171
     0
290
     0
174
     0
 93
        1
 44
0.0
173
     0
291
     0
 45
0.0
1001
ACAD
1000
AcDbSavedByObjectVersion
1070
     0
  0
VISUALSTYLE
  5
30
102
{ACAD_REACTORS
330
2A
102
}
330
2A
100
AcDbVisualStyle
  2
3dWireframe
 70
     5
 71
     0
 72
     2
 73
     0
 90
        0
 40
-0.6
 41
-30.0
 62
     5
 63
     7
421
 16777215
 74
     1
 91
        4
 64
     7
 65
   257
 75
     1
175
     1
 42
1.0
 92
        0
 66
   257
 43
1.0
 76
     1
 77
     6
 78
     2
 67
     7
 79
     5
170
     0
171
     0
290
     0
174
     0
 93
        1
 44
0.0
173
     0
291
     0
 45
0.0
1001
ACAD
1000
AcDbSavedByObjectVersion
1070
     0
  0
VISUALSTYLE
  5
32
102
{ACAD_REACTORS
330
2A
102
}
330
2A
100
AcDbVisualStyle
  2
Basic
 70
     7
 71
     1
 72
     0
 73
     1
 90
        0
 40
-0.6
 41
-30.0
 62
     5
 63
     7
421
 16777215
 74
     0
 91
        4
 64
     7
 65
   257
 75
     1
175
     1
 42
1.0
 92
        8
 66
     7
 43
1.0
 76
     1
 77
     6
 78
     2
 67
     7
 79
     5
170
     0
171
     0
290
     0
174
     0
 93
        1
 44
0.0
173
     0
291
     1
 45
0.0
1001
ACAD
1000
AcDbSavedByObjectVersion
1070
     0
  0
VISUALSTYLE
  5
36
102
{ACAD_REACTORS
330
2A
102
}
330
2A
100
AcDbVisualStyle
  2
Brighten
 70
    12
 71
     2
 72
     2
 73
     0
 90
        0
 40
-0.6
 41
-30.0
 62
     5
 63
     7
421
 16777215
 74
     1
 91
        4
 64
     7
 65
   257
 75
     1
175
     1
 42
1.0
 92
        8
 66
     7
 43
1.0
 76
     1
 77
     6
 78
     2
 67
     7
 79
     5
170
     0
171
     0
290
     0
174
     0
 93
        1
 44
50.0
173
     0
291
     1
 45
0.0
1001
ACAD
1000
AcDbSavedByObjectVersion
1070
     0
  0
VISUALSTYLE
  5
3A
102
{ACAD_REACTORS
330
2A
102
}
330
2A
100
AcDbVisualStyle
  2
ColorChange
 70
    16
 71
     2
 72
     2
 73
     3
 90
        0
 40
-0.6
 41
-30.0
 62
     5
 63
     8
421
  8421504
 74
     1
 91
        4
 64
     7
 65
   257
 75
     1
175
     1
 42
1.0
 92
        8
 66
     8
424
  8421504
 43
1.0
 76
     1
 77
     6
 78
     2
 67
     7
 79
     5
170
     0
171
     0
290
     0
174
     0
 93
        1
 44
0.0
173
     0
291
     1
 45
0.0
1001
ACAD
1000
AcDbSavedByObjectVersion
1070
     0
  0
VISUALSTYLE
  5
34
102
{ACAD_REACTORS
330
2A
102
}
330
2A
100
AcDbVisualStyle
  2
Conceptual
 70
     9
 71
     3
 72
     2
 73
     0
 90
        0
 40
-0.6
 41
-30.0
 62
     5
 63
     7
421
 16777215
 74
     2
 91
        2
 64
     7
 65
   257
 75
     1
175
     1
 42
40.0
 92
        8
 66
     7
 43
1.0
 76
     1
 77
     6
 78
     2
 67
     7
 79
     3
170
     0
171
     0
290
     0
174
     0
 93
        1
 44
0.0
173
     0
291
     0
 45
0.0
1001
ACAD
1000
AcDbSavedByObjectVersion
1070
     0
  0
VISUALSTYLE
  5
35
102
{ACAD_REACTORS
330
2A
102
}
330
2A
100
AcDbVisualStyle
  2
Dim
 70
    11
 71
     2
 72
     2
 73
     0
 90
        0
 40
-0.6
 41
-30.0
 62
     5
 63
     7
421
 16777215
 74
     1
 91
        4
 64
     7
 65
   257
 75
     1
175
     1
 42
1.0
 92
        8
 66
     7
 43
1.0
 76
     1
 77
     6
 78
     2
 67
     7
 79
     5
170
     0
171
     0
290
     0
174
     0
 93
        1
 44
-50.0
173
     0
291
     1
 45
0.0
1001
ACAD
1000
AcDbSavedByObjectVersion
1070
     0
  0
VISUALSTYLE
  5
39
102
{ACAD_REACTORS
330
2A
102
}
330
2A
100
AcDbVisualStyle
  2
Facepattern
 70
    15
 71
     2
 72
     2
 73
     0
 90
        0
 40
-0.6
 41
-30.0
 62
     5
 63
     7
421
 16777215
 74
     1
 91
        4
 64
     7
 65
   257
 75
     1
175
     1
 42
1.0
 92
        8
 66
     7
 43
1.0
 76
     1
 77
     6
 78
     2
 67
     7
 79
     5
170
     0
171
     0
290
     0
174
     0
 93
        1
 44
0.0
173
     0
291
     1
 45
0.0
1001
ACAD
1000
AcDbSavedByObjectVersion
1070
     0
  0
VISUALSTYLE
  5
2B
102
{ACAD_REACTORS
330
2A
102
}
330
2A
100
AcDbVisualStyle
  2
Flat
 70
     0
 71
     2
 72
     1
 73
     1
 90
        2
 40
-0.6
 41
30.0
 62
     5
 63
     7
421
 16777215
 74
     0
 91
        4
 64
     7
 65
   257
 75
     1
175
     1
 42
1.0
 92
        8
 66
     7
 43
1.0
 76
     1
 77
     6
 78
     2
 67
     7
 79
     5
170
     0
171
     0
290
     0
174
     0
 93
       13
 44
0.0
173
     0
291
     1
 45
0.0
1001
ACAD
1000
AcDbSavedByObjectVersion
1070
     0
  0
VISUALSTYLE
  5
2C
102
{ACAD_REACTORS
330
2A
102
}
330
2A
100
AcDbVisualStyle
  2
FlatWithEdges
 70
     1
 71
     2
 72
     1
 73
     1
 90
        2
 40
-0.6
 41
30.0
 62
     5
 63
     7
421
 16777215
 74
     1
 91
        4
 64
     7
 65
   257
 75
     1
175
     1
 42
1.0
 92
        0
 66
   257
 43
1.0
 76
     1
 77
     6
 78
     2
 67
     7
 79
     5
170
     0
171
     0
290
     0
174
     0
 93
       13
 44
0.0
173
     0
291
     1
 45
0.0
1001
ACAD
1000
AcDbSavedByObjectVersion
1070
     0
  0
VISUALSTYLE
  5
2D
102
{ACAD_REACTORS
330
2A
102
}
330
2A
100
AcDbVisualStyle
  2
Gouraud
 70
     2
 71
     2
 72
     2
 73
     1
 90
        2
 40
-0.6
 41
30.0
 62
     5
 63
     7
421
 16777215
 74
     0
 91
        4
 64
     7
 65
   257
 75
     1
175
     1
 42
1.0
 92
        0
 66
     7
 43
1.0
 76
     1
 77
     6
 78
     2
 67
     7
 79
     5
170
     0
171
     0
290
     0
174
     0
 93
       13
 44
0.0
173
     0
291
     1
 45
0.0
1001
ACAD
1000
AcDbSavedByObjectVersion
1070
     0
  0
VISUALSTYLE
  5
2E
102
{ACAD_REACTORS
330
2A
102
}
330
2A
100
AcDbVisualStyle
  2
GouraudWithEdges
 70
     3
 71
     2
 72
     2
 73
     1
 90
        2
 40
-0.6
 41
30.0
 62
     5
 63
     7
421
 16777215
 74
     1
 91
        4
 64
     7
 65
   257
 75
     1
175
     1
 42
1.0
 92
        0
 66
   257
 43
1.0
 76
     1
 77
     6
 78
     2
 67
     7
 79
     5
170
     0
171
     0
290
     0
174
     0
 93
       13
 44
0.0
173
     0
291
     1
 45
0.0
1001
ACAD
1000
AcDbSavedByObjectVersion
1070
     0
  0
VISUALSTYLE
  5
38
102
{ACAD_REACTORS
330
2A
102
}
330
2A
100
AcDbVisualStyle
  2
Linepattern
 70
    14
 71
     2
 72
     2
 73
     0
 90
        0
 40
-0.6
 41
-30.0
 62
     5
 63
     7
421
 16777215
 74
     1
 91
        4
 64
     7
 65
   257
 75
     7
175
     7
 42
1.0
 92
        8
 66
     7
 43
1.0
 76
     1
 77
     6
 78
     2
 67
     7
 79
     5
170
     0
171
     0
290
     0
174
     0
 93
        1
 44
0.0
173
     0
291
     1
 45
0.0
1001
ACAD
1000
AcDbSavedByObjectVersion
1070
     0
  0
VISUALSTYLE
  5
33
102
{ACAD_REACTORS
330
2A
102
}
330
2A
100
AcDbVisualStyle
  2
Realistic
 70
     8
 71
     2
 72
     2
 73
     0
 90
        0
 40
-0.6
 41
-30.0
 62
     5
 63
     7
421
 16777215
 74
     1
 91
        0
 64
     7
 65
   257
 75
     1
175
     1
 42
1.0
 92
        8
 66
     8
424
  7895160
 43
1.0
 76
     1
 77
     6
 78
     2
 67
     7
 79
     5
170
     0
171
     0
290
     0
174
     0
 93
       13
 44
0.0
173
     0
291
     0
 45
0.0
1001
ACAD
1000
AcDbSavedByObjectVersion
1070
     0
  0
VISUALSTYLE
  5
37
102
{ACAD_REACTORS
330
2A
102
}
330
2A
100
AcDbVisualStyle
  2
Thicken
 70
    13
 71
     2
 72
     2
 73
     0
 90
        0
 40
-0.6
 41
-30.0
 62
     5
 63
     7
421
 16777215
 74
     1
 91
        4
 64
     7
 65
   257
 75
     1
175
     1
 42
1.0
 92
       12
 66
     7
 43
1.0
 76
     1
 77
     6
 78
     2
 67
     7
 79
     5
170
     0
171
     0
290
     0
174
     0
 93
        1
 44
0.0
173
     0
291
     1
 45
0.0
1001
ACAD
1000
AcDbSavedByObjectVersion
1070
     0
  0
ENDSEC
  0
EOF
