  0
SECTION
  2
HEADER
  9
$ACADVER
  1
AC1018
  9
$ACADMAINTVER
 70
     0
  9
$DWGCODEPAGE
  3
ANSI_1252
  9
$INSBASE
 10
0.0
 20
0.0
 30
0.0
  9
$EXTMIN
 10
-53.99999999999999
 20
-0.0050000000002194
 30
0.0
  9
$EXTMAX
 10
119.0
 20
93.81800000000014
 30
0.0
  9
$LIMMIN
 10
0.0
 20
0.0
  9
$LIMMAX
 10
12.0
 20
9.0
  9
$ORTHOMODE
 70
     0
  9
$REGENMODE
 70
     1
  9
$FILLMODE
 70
     1
  9
$QTEXTMODE
 70
     0
  9
$MIRRTEXT
 70
     1
  9
$LTSCALE
 40
0.0393700787401575
  9
$ATTMODE
 70
     1
  9
$TEXTSIZE
 40
0.2
  9
$TRACEWID
 40
0.05
  9
$TEXTSTYLE
  7
Standard
  9
$CLAYER
  8
Default
  9
$CELTYPE
  6
ByLayer
  9
$CECOLOR
 62
   256
  9
$CELTSCALE
 40
1.0
  9
$DISPSILH
 70
     0
  9
$DIMSCALE
 40
1.0
  9
$DIMASZ
 40
0.18
  9
$DIMEXO
 40
0.0625
  9
$DIMDLI
 40
0.38
  9
$DIMRND
 40
0.0
  9
$DIMDLE
 40
0.0
  9
$DIMEXE
 40
0.18
  9
$DIMTP
 40
0.0
  9
$DIMTM
 40
0.0
  9
$DIMTXT
 40
0.18
  9
$DIMCEN
 40
0.09
  9
$DIMTSZ
 40
0.0
  9
$DIMTOL
 70
     0
  9
$DIMLIM
 70
     0
  9
$DIMTIH
 70
     1
  9
$DIMTOH
 70
     1
  9
$DIMSE1
 70
     0
  9
$DIMSE2
 70
     0
  9
$DIMTAD
 70
     0
  9
$DIMZIN
 70
     0
  9
$DIMBLK
  1

  9
$DIMASO
 70
     1
  9
$DIMSHO
 70
     1
  9
$DIMPOST
  1

  9
$DIMAPOST
  1

  9
$DIMALT
 70
     0
  9
$DIMALTD
 70
     2
  9
$DIMALTF
 40
25.4
  9
$DIMLFAC
 40
1.0
  9
$DIMTOFL
 70
     0
  9
$DIMTVP
 40
0.0
  9
$DIMTIX
 70
     0
  9
$DIMSOXD
 70
     0
  9
$DIMSAH
 70
     0
  9
$DIMBLK1
  1

  9
$DIMBLK2
  1

  9
$DIMSTYLE
  2
Standard
  9
$DIMCLRD
 70
     0
  9
$DIMCLRE
 70
     0
  9
$DIMCLRT
 70
     0
  9
$DIMTFAC
 40
1.0
  9
$DIMGAP
 40
0.09
  9
$DIMJUST
 70
     0
  9
$DIMSD1
 70
     0
  9
$DIMSD2
 70
     0
  9
$DIMTOLJ
 70
     1
  9
$DIMTZIN
 70
     0
  9
$DIMALTZ
 70
     0
  9
$DIMALTTZ
 70
     0
  9
$DIMUPT
 70
     0
  9
$DIMDEC
 70
     4
  9
$DIMTDEC
 70
     4
  9
$DIMALTU
 70
     2
  9
$DIMALTTD
 70
     2
  9
$DIMTXSTY
  7
Standard
  9
$DIMAUNIT
 70
     0
  9
$DIMADEC
 70
     0
  9
$DIMALTRND
 40
0.0
  9
$DIMAZIN
 70
     0
  9
$DIMDSEP
 70
    46
  9
$DIMATFIT
 70
     3
  9
$DIMFRAC
 70
     0
  9
$DIMLDRBLK
  1

  9
$DIMLUNIT
 70
     2
  9
$DIMLWD
 70
    -2
  9
$DIMLWE
 70
    -2
  9
$DIMTMOVE
 70
     2
  9
$LUNITS
 70
     2
  9
$LUPREC
 70
     4
  9
$SKETCHINC
 40
0.1
  9
$FILLETRAD
 40
0.5
  9
$AUNITS
 70
     0
  9
$AUPREC
 70
     0
  9
$MENU
  1
.
  9
$ELEVATION
 40
0.0
  9
$PELEVATION
 40
0.0
  9
$THICKNESS
 40
0.0
  9
$LIMCHECK
 70
     0
  9
$CHAMFERA
 40
0.5
  9
$CHAMFERB
 40
0.5
  9
$CHAMFERC
 40
1.0
  9
$CHAMFERD
 40
0.0
  9
$SKPOLY
 70
     0
  9
$TDCREATE
 40
2456790.669693854
  9
$TDUCREATE
 40
2456790.836360521
  9
$TDUPDATE
 40
2456790.669693866
  9
$TDUUPDATE
 40
2456790.836360532
  9
$TDINDWG
 40
0.0000000116
  9
$TDUSRTIMER
 40
0.0000000116
  9
$USRTIMER
 70
     1
  9
$ANGBASE
 50
0.0
  9
$ANGDIR
 70
     0
  9
$PDMODE
 70
     0
  9
$PDSIZE
 40
0.0
  9
$PLINEWID
 40
0.0
  9
$SPLFRAME
 70
     0
  9
$SPLINETYPE
 70
     6
  9
$SPLINESEGS
 70
     8
  9
$HANDSEED
  5
A5
  9
$SURFTAB1
 70
     6
  9
$SURFTAB2
 70
     6
  9
$SURFTYPE
 70
     6
  9
$SURFU
 70
     6
  9
$SURFV
 70
     6
  9
$UCSBASE
  2

  9
$UCSNAME
  2

  9
$UCSORG
 10
0.0
 20
0.0
 30
0.0
  9
$UCSXDIR
 10
1.0
 20
0.0
 30
0.0
  9
$UCSYDIR
 10
0.0
 20
1.0
 30
0.0
  9
$UCSORTHOREF
  2

  9
$UCSORTHOVIEW
 70
     0
  9
$UCSORGTOP
 10
0.0
 20
0.0
 30
0.0
  9
$UCSORGBOTTOM
 10
0.0
 20
0.0
 30
0.0
  9
$UCSORGLEFT
 10
0.0
 20
0.0
 30
0.0
  9
$UCSORGRIGHT
 10
0.0
 20
0.0
 30
0.0
  9
$UCSORGFRONT
 10
0.0
 20
0.0
 30
0.0
  9
$UCSORGBACK
 10
0.0
 20
0.0
 30
0.0
  9
$PUCSBASE
  2

  9
$PUCSNAME
  2

  9
$PUCSORG
 10
0.0
 20
0.0
 30
0.0
  9
$PUCSXDIR
 10
1.0
 20
0.0
 30
0.0
  9
$PUCSYDIR
 10
0.0
 20
1.0
 30
0.0
  9
$PUCSORTHOREF
  2

  9
$PUCSORTHOVIEW
 70
     0
  9
$PUCSORGTOP
 10
0.0
 20
0.0
 30
0.0
  9
$PUCSORGBOTTOM
 10
0.0
 20
0.0
 30
0.0
  9
$PUCSORGLEFT
 10
0.0
 20
0.0
 30
0.0
  9
$PUCSORGRIGHT
 10
0.0
 20
0.0
 30
0.0
  9
$PUCSORGFRONT
 10
0.0
 20
0.0
 30
0.0
  9
$PUCSORGBACK
 10
0.0
 20
0.0
 30
0.0
  9
$USERI1
 70
     0
  9
$USERI2
 70
     0
  9
$USERI3
 70
     0
  9
$USERI4
 70
     0
  9
$USERI5
 70
     0
  9
$USERR1
 40
0.0
  9
$USERR2
 40
0.0
  9
$USERR3
 40
0.0
  9
$USERR4
 40
0.0
  9
$USERR5
 40
0.0
  9
$WORLDVIEW
 70
     1
  9
$SHADEDGE
 70
     3
  9
$SHADEDIF
 70
    70
  9
$TILEMODE
 70
     1
  9
$MAXACTVP
 70
    64
  9
$PINSBASE
 10
0.0
 20
0.0
 30
0.0
  9
$PLIMCHECK
 70
     0
  9
$PEXTMIN
 10
1.000000000000000E+20
 20
1.000000000000000E+20
 30
1.000000000000000E+20
  9
$PEXTMAX
 10
-1.000000000000000E+20
 20
-1.000000000000000E+20
 30
-1.000000000000000E+20
  9
$PLIMMIN
 10
0.0
 20
0.0
  9
$PLIMMAX
 10
12.0
 20
9.0
  9
$UNITMODE
 70
     0
  9
$VISRETAIN
 70
     1
  9
$PLINEGEN
 70
     0
  9
$PSLTSCALE
 70
     1
  9
$TREEDEPTH
 70
  3020
  9
$CMLSTYLE
  2
Standard
  9
$CMLJUST
 70
     0
  9
$CMLSCALE
 40
1.0
  9
$PROXYGRAPHICS
 70
     1
  9
$MEASUREMENT
 70
     0
  9
$CELWEIGHT
370
    -1
  9
$ENDCAPS
280
     0
  9
$JOINSTYLE
280
     0
  9
$LWDISPLAY
290
     0
  9
$INSUNITS
 70
     1
  9
$HYPERLINKBASE
  1

  9
$STYLESHEET
  1

  9
$XEDIT
290
     1
  9
$CEPSNTYPE
380
     0
  9
$PSTYLEMODE
290
     1
  9
$FINGERPRINTGUID
  2
{C76E3D76-BD3E-4976-9BEB-23FE16CBED42}
  9
$VERSIONGUID
  2
{FAEB1C32-E019-11D5-929B-00C0DF256EC4}
  9
$EXTNAMES
290
     1
  9
$PSVPSCALE
 40
0.0
  9
$OLESTARTUP
290
     0
  9
$SORTENTS
280
   127
  9
$INDEXCTL
280
     0
  9
$HIDETEXT
280
     1
  9
$XCLIPFRAME
290
     0
  9
$HALOGAP
280
     0
  9
$OBSCOLOR
 70
   257
  9
$OBSLTYPE
280
     0
  9
$INTERSECTIONDISPLAY
280
     0
  9
$INTERSECTIONCOLOR
 70
   257
  9
$DIMASSOC
280
     2
  9
$PROJECTNAME
  1

  0
ENDSEC
  0
SECTION
  2
CLASSES
  0
CLASS
  1
ACDBDICTIONARYWDFLT
  2
AcDbDictionaryWithDefault
  3
ObjectDBX Classes
 90
        0
 91
        4
280
     0
281
     0
  0
CLASS
  1
VISUALSTYLE
  2
AcDbVisualStyle
  3
ObjectDBX Classes
 90
     4095
 91
        4
280
     0
281
     0
  0
ENDSEC
  0
SECTION
  2
TABLES
  0
TABLE
  2
VPORT
  5
8
330
0
100
AcDbSymbolTable
 70
     1
  0
VPORT
  5
29
330
8
100
AcDbSymbolTableRecord
100
AcDbViewportTableRecord
  2
*Active
 70
     0
 10
0.0
 20
0.0
 11
1.0
 21
1.0
 12
32.5
 22
46.90649999999996
 13
0.0
 23
0.0
 14
0.5
 24
0.5
 15
0.5
 25
0.5
 16
0.0
 26
0.0
 36
1.0
 17
0.0
 27
0.0
 37
0.0
 40
95.69946000000037
 41
1.843897551773012
 42
50.0
 43
0.0
 44
0.0
 50
0.0
 51
0.0
 71
     0
 72
   100
 73
     1
 74
     3
 75
     0
 76
     0
 77
     0
 78
     0
281
     0
 65
     1
110
0.0
120
0.0
130
0.0
111
1.0
121
0.0
131
0.0
112
0.0
122
1.0
132
0.0
 79
     0
146
0.0
  0
ENDTAB
  0
TABLE
  2
LTYPE
  5
5
330
0
100
AcDbSymbolTable
 70
     1
  0
LTYPE
  5
14
330
5
100
AcDbSymbolTableRecord
100
AcDbLinetypeTableRecord
  2
ByBlock
 70
     0
  3

 72
    65
 73
     0
 40
0.0
  0
LTYPE
  5
15
330
5
100
AcDbSymbolTableRecord
100
AcDbLinetypeTableRecord
  2
ByLayer
 70
     0
  3

 72
    65
 73
     0
 40
0.0
  0
LTYPE
  5
16
330
5
100
AcDbSymbolTableRecord
100
AcDbLinetypeTableRecord
  2
Continuous
 70
     0
  3
Solid line
 72
    65
 73
     0
 40
0.0
  0
ENDTAB
  0
TABLE
  2
LAYER
  5
2
330
0
100
AcDbSymbolTable
 70
     3
  0
LAYER
  5
10
330
2
100
AcDbSymbolTableRecord
100
AcDbLayerTableRecord
  2
0
 70
     0
 62
     7
  6
Continuous
370
    -3
390
F
  0
LAYER
  5
3B
330
2
100
AcDbSymbolTableRecord
100
AcDbLayerTableRecord
  2
Layer 03
 70
     0
 62
     7
  6
Continuous
370
    -3
390
F
  0
LAYER
  5
7D
330
2
100
AcDbSymbolTableRecord
100
AcDbLayerTableRecord
  2
Default
 70
     0
 62
     7
  6
Continuous
370
    -3
390
F
  0
ENDTAB
  0
TABLE
  2
STYLE
  5
3
330
0
100
AcDbSymbolTable
 70
     1
  0
STYLE
  5
11
330
3
100
AcDbSymbolTableRecord
100
AcDbTextStyleTableRecord
  2
Standard
 70
     0
 40
0.0
 41
1.0
 50
0.0
 71
     0
 42
0.2
  3
txt
  4

  0
ENDTAB
  0
TABLE
  2
VIEW
  5
6
330
0
100
AcDbSymbolTable
 70
     0
  0
ENDTAB
  0
TABLE
  2
UCS
  5
7
330
0
100
AcDbSymbolTable
 70
     0
  0
ENDTAB
  0
TABLE
  2
APPID
  5
9
330
0
100
AcDbSymbolTable
 70
     1
  0
APPID
  5
12
330
9
100
AcDbSymbolTableRecord
100
AcDbRegAppTableRecord
  2
ACAD
 70
     0
  0
ENDTAB
  0
TABLE
  2
DIMSTYLE
  5
A
330
0
100
AcDbSymbolTable
 70
     1
100
AcDbDimStyleTable
  0
DIMSTYLE
105
27
330
A
100
AcDbSymbolTableRecord
100
AcDbDimStyleTableRecord
  2
Standard
 70
     0
340
11
  0
ENDTAB
  0
TABLE
  2
BLOCK_RECORD
  5
1
330
0
100
AcDbSymbolTable
 70
     1
  0
BLOCK_RECORD
  5
1F
330
1
100
AcDbSymbolTableRecord
100
AcDbBlockTableRecord
  2
*Model_Space
340
22
  0
BLOCK_RECORD
  5
1B
330
1
100
AcDbSymbolTableRecord
100
AcDbBlockTableRecord
  2
*Paper_Space
340
1E
  0
BLOCK_RECORD
  5
23
330
1
100
AcDbSymbolTableRecord
100
AcDbBlockTableRecord
  2
*Paper_Space0
340
26
  0
ENDTAB
  0
ENDSEC
  0
SECTION
  2
BLOCKS
  0
BLOCK
  5
20
330
1F
100
AcDbEntity
  8
0
100
AcDbBlockBegin
  2
*Model_Space
 70
     0
 10
0.0
 20
0.0
 30
0.0
  3
*Model_Space
  1

  0
ENDBLK
  5
21
330
1F
100
AcDbEntity
  8
0
100
AcDbBlockEnd
  0
BLOCK
  5
1C
330
1B
100
AcDbEntity
 67
     1
  8
0
100
AcDbBlockBegin
  2
*Paper_Space
 70
     0
 10
0.0
 20
0.0
 30
0.0
  3
*Paper_Space
  1

  0
ENDBLK
  5
1D
330
1B
100
AcDbEntity
 67
     1
  8
0
100
AcDbBlockEnd
  0
BLOCK
  5
24
330
23
100
AcDbEntity
  8
0
100
AcDbBlockBegin
  2
*Paper_Space0
 70
     0
 10
0.0
 20
0.0
 30
0.0
  3
*Paper_Space0
  1

  0
ENDBLK
  5
25
330
23
100
AcDbEntity
  8
0
100
AcDbBlockEnd
  0
ENDSEC
  0
SECTION
  2
ENTITIES
  0
POLYLINE
  5
3C
330
1F
100
AcDbEntity
  8
Layer 03
100
AcDb2dPolyline
 66
     1
 10
0.0
 20
0.0
 30
0.0
  0
VERTEX
  5
3D
330
3C
100
AcDbEntity
  8
Layer 03
100
AcDbVertex
100
AcDb2dVertex
 10
108.8125280631
 20
23.80481292969997
 30
0.0
  0
VERTEX
  5
3E
330
3C
100
AcDbEntity
  8
Layer 03
100
AcDbVertex
100
AcDb2dVertex
 10
112.4914099581
 20
0.2306474563499652
 30
0.0
  0
SEQEND
  5
3F
330
3C
100
AcDbEntity
  8
Layer 03
  0
SPLINE
  5
40
330
1F
100
AcDbEntity
  8
Layer 03
100
AcDbSpline
210
0.0
220
0.0
230
1.0
 70
     8
 71
     5
 72
    12
 73
     6
 74
     0
 42
0.0000000001
 43
0.0000000001
 40
-1.0
 40
-1.0
 40
-1.0
 40
-1.0
 40
-1.0
 40
-1.0
 40
0.0
 40
0.0
 40
0.0
 40
0.0
 40
0.0
 40
0.0
 10
113.9459182550781
 20
0.1709999999999656
 30
0.0
 10
113.9678210308556
 20
0.1709999999999656
 30
0.0
 10
113.9897238066331
 20
0.1709999999999656
 30
0.0
 10
114.0228353997464
 20
0.2103602886729337
 30
0.0
 10
114.0201888871232
 20
0.2321025874864488
 30
0.0
 10
114.0175423745
 20
0.253844886299964
 30
0.0
  0
LINE
  5
41
330
1F
100
AcDbEntity
  8
Layer 03
  6
Continuous
100
AcDbLine
 10
106.9800000000002
 20
25.06299999999975
 30
0.0
 11
106.9800000000002
 21
27.79799999999982
 31
0.0
  0
ARC
  5
42
330
1F
100
AcDbEntity
  8
Layer 03
  6
Continuous
100
AcDbCircle
 10
112.6831583014
 20
0.0887678608999653
 30
0.0
 40
0.0937678609
100
AcDbArc
 50
118.7203267979021
 51
270.0
  0
LINE
  5
43
330
1F
100
AcDbEntity
  8
Layer 03
  6
Continuous
100
AcDbLine
 10
113.8930408886
 20
-0.0050000000000347
 30
0.0
 11
112.6831583014
 21
-0.0050000000000346
 31
0.0
  0
ARC
  5
44
330
1F
100
AcDbEntity
  8
Layer 03
  6
Continuous
100
AcDbCircle
 10
113.8930408886
 20
0.0887678608999653
 30
0.0
 40
0.0937678609
100
AcDbArc
 50
270.0
 51
61.27967320209792
  0
POLYLINE
  5
45
330
1F
100
AcDbEntity
  8
Layer 03
100
AcDb2dPolyline
 66
     1
 10
0.0
 20
0.0
 30
0.0
  0
VERTEX
  5
46
330
45
100
AcDbEntity
  8
Layer 03
100
AcDbVertex
100
AcDb2dVertex
 10
114.0175423745
 20
0.253844886299964
 30
0.0
  0
VERTEX
  5
47
330
45
100
AcDbEntity
  8
Layer 03
100
AcDbVertex
100
AcDb2dVertex
 10
110.6633801782778
 20
27.8098051714908
 30
0.0
  0
SEQEND
  5
48
330
45
100
AcDbEntity
  8
Layer 03
  0
POLYLINE
  5
49
330
1F
100
AcDbEntity
  8
Layer 03
100
AcDb2dPolyline
 66
     1
 10
0.0
 20
0.0
 30
0.0
  0
VERTEX
  5
4A
330
49
100
AcDbEntity
  8
Layer 03
100
AcDbVertex
100
AcDb2dVertex
 10
112.5606405453
 20
0.1709999999999656
 30
0.0
  0
VERTEX
  5
4B
330
49
100
AcDbEntity
  8
Layer 03
100
AcDbVertex
100
AcDb2dVertex
 10
113.9459182550781
 20
0.1709999999999656
 30
0.0
  0
SEQEND
  5
4C
330
49
100
AcDbEntity
  8
Layer 03
  0
SPLINE
  5
4D
330
1F
100
AcDbEntity
  8
Layer 03
100
AcDbSpline
210
0.0
220
0.0
230
1.0
 70
     8
 71
     2
 72
     7
 73
     4
 74
     0
 42
0.0000000001
 43
0.0000000001
 40
-2.0
 40
-2.0
 40
-2.0
 40
-1.000019514298015
 40
0.0
 40
0.0
 40
0.0
 10
112.4914099581
 20
0.2306474563499652
 30
0.0
 10
112.4955427932563
 20
0.2050307105526627
 30
0.0
 10
112.5347480722165
 20
0.1714295380282455
 30
0.0
 10
112.5606405453
 20
0.1709999999999656
 30
0.0
  0
LINE
  5
4E
330
1F
100
AcDbEntity
  8
Layer 03
100
AcDbLine
 10
107.0
 20
25.06799999999997
 30
0.0
 11
107.5741216041
 21
25.06799999999997
 31
0.0
  0
SPLINE
  5
4F
330
1F
100
AcDbEntity
  8
Layer 03
100
AcDbSpline
210
0.0
220
0.0
230
1.0
 70
     8
 71
     5
 72
    12
 73
     6
 74
     0
 42
0.0000000001
 43
0.0000000001
 40
-1.0
 40
-1.0
 40
-1.0
 40
-1.0
 40
-1.0
 40
-1.0
 40
0.0
 40
0.0
 40
0.0
 40
0.0
 40
0.0
 40
0.0
 10
107.5741216041
 20
25.06799999999997
 30
0.0
 10
107.9279177110467
 20
25.06799999999997
 30
0.0
 10
108.2817138179934
 20
25.06799999999997
 30
0.0
 10
108.7034248191553
 20
24.50394326327399
 30
0.0
 10
108.7579764411276
 20
24.15437809648698
 30
0.0
 10
108.8125280631
 20
23.80481292969997
 30
0.0
  0
LINE
  5
50
330
1F
100
AcDbEntity
  8
Layer 03
100
AcDbLine
 10
81.0
 20
25.06799999999997
 30
0.0
 11
80.42587839590001
 21
25.06799999999997
 31
0.0
  0
SPLINE
  5
51
330
1F
100
AcDbEntity
  8
Layer 03
100
AcDbSpline
210
0.0
220
0.0
230
1.0
 70
     8
 71
     5
 72
    12
 73
     6
 74
     0
 42
0.0000000001
 43
0.0000000001
 40
-1.0
 40
-1.0
 40
-1.0
 40
-1.0
 40
-1.0
 40
-1.0
 40
0.0
 40
0.0
 40
0.0
 40
0.0
 40
0.0
 40
0.0
 10
80.42587839590001
 20
25.06799999999997
 30
0.0
 10
80.07208228895331
 20
25.06799999999997
 30
0.0
 10
79.71828618200661
 20
25.06799999999997
 30
0.0
 10
79.29657518084466
 20
24.50394326327399
 30
0.0
 10
79.24202355887233
 20
24.15437809648698
 30
0.0
 10
79.18747193690001
 20
23.80481292969997
 30
0.0
  0
LINE
  5
52
330
1F
100
AcDbEntity
  8
Layer 03
  6
Continuous
100
AcDbLine
 10
81.01999999999978
 20
27.79799999999982
 30
0.0
 11
81.0199999999998
 21
25.06299999999983
 31
0.0
  0
LINE
  5
53
330
1F
100
AcDbEntity
  8
Layer 03
  6
Continuous
100
AcDbLine
 10
74.10695911139999
 20
-0.0050000000000347
 30
0.0
 11
75.3168416986
 21
-0.0050000000000346
 31
0.0
  0
ARC
  5
54
330
1F
100
AcDbEntity
  8
Layer 03
  6
Continuous
100
AcDbCircle
 10
75.3168416986
 20
0.0887678608999653
 30
0.0
 40
0.0937678609
100
AcDbArc
 50
270.0
 51
61.27967320209792
  0
ARC
  5
55
330
1F
100
AcDbEntity
  8
Layer 03
  6
Continuous
100
AcDbCircle
 10
74.10695911139999
 20
0.0887678608999653
 30
0.0
 40
0.0937678609
100
AcDbArc
 50
118.7203267979021
 51
270.0
  0
POLYLINE
  5
56
330
1F
100
AcDbEntity
  8
Layer 03
100
AcDb2dPolyline
 66
     1
 10
0.0
 20
0.0
 30
0.0
  0
VERTEX
  5
57
330
56
100
AcDbEntity
  8
Layer 03
100
AcDbVertex
100
AcDb2dVertex
 10
73.98245762549999
 20
0.253844886299964
 30
0.0
  0
VERTEX
  5
58
330
56
100
AcDbEntity
  8
Layer 03
100
AcDbVertex
100
AcDb2dVertex
 10
77.33661982172214
 20
27.8098051714908
 30
0.0
  0
SEQEND
  5
59
330
56
100
AcDbEntity
  8
Layer 03
  0
POLYLINE
  5
5A
330
1F
100
AcDbEntity
  8
Layer 03
100
AcDb2dPolyline
 66
     1
 10
0.0
 20
0.0
 30
0.0
  0
VERTEX
  5
5B
330
5A
100
AcDbEntity
  8
Layer 03
100
AcDbVertex
100
AcDb2dVertex
 10
75.4393594547
 20
0.1709999999999656
 30
0.0
  0
VERTEX
  5
5C
330
5A
100
AcDbEntity
  8
Layer 03
100
AcDbVertex
100
AcDb2dVertex
 10
74.05408174492192
 20
0.1709999999999656
 30
0.0
  0
SEQEND
  5
5D
330
5A
100
AcDbEntity
  8
Layer 03
  0
SPLINE
  5
5E
330
1F
100
AcDbEntity
  8
Layer 03
100
AcDbSpline
210
0.0
220
0.0
230
1.0
 70
     8
 71
     5
 72
    12
 73
     6
 74
     0
 42
0.0000000001
 43
0.0000000001
 40
-1.0
 40
-1.0
 40
-1.0
 40
-1.0
 40
-1.0
 40
-1.0
 40
0.0
 40
0.0
 40
0.0
 40
0.0
 40
0.0
 40
0.0
 10
74.05408174492192
 20
0.1709999999999656
 30
0.0
 10
74.03217896914438
 20
0.1709999999999656
 30
0.0
 10
74.01027619336685
 20
0.1709999999999656
 30
0.0
 10
73.97716460025359
 20
0.2103602886729337
 30
0.0
 10
73.9798111128768
 20
0.2321025874864488
 30
0.0
 10
73.98245762549999
 20
0.253844886299964
 30
0.0
  0
SPLINE
  5
5F
330
1F
100
AcDbEntity
  8
Layer 03
100
AcDbSpline
210
0.0
220
0.0
230
1.0
 70
     8
 71
     2
 72
     7
 73
     4
 74
     0
 42
0.0000000001
 43
0.0000000001
 40
-2.0
 40
-2.0
 40
-2.0
 40
-1.000019514298015
 40
0.0
 40
0.0
 40
0.0
 10
75.50859004190002
 20
0.2306474563499652
 30
0.0
 10
75.50445720674372
 20
0.2050307105526627
 30
0.0
 10
75.4652519277835
 20
0.1714295380282455
 30
0.0
 10
75.4393594547
 20
0.1709999999999656
 30
0.0
  0
POLYLINE
  5
60
330
1F
100
AcDbEntity
  8
Layer 03
100
AcDb2dPolyline
 66
     1
 10
0.0
 20
0.0
 30
0.0
  0
VERTEX
  5
61
330
60
100
AcDbEntity
  8
Layer 03
100
AcDbVertex
100
AcDb2dVertex
 10
79.18747193690001
 20
23.80481292969997
 30
0.0
  0
VERTEX
  5
62
330
60
100
AcDbEntity
  8
Layer 03
100
AcDbVertex
100
AcDb2dVertex
 10
75.50859004190002
 20
0.2306474563499652
 30
0.0
  0
SEQEND
  5
63
330
60
100
AcDbEntity
  8
Layer 03
  0
SPLINE
  5
64
330
1F
100
AcDbEntity
  8
Layer 03
  6
Continuous
100
AcDbSpline
210
0.0
220
0.0
230
1.0
 70
    12
 71
     2
 72
     8
 73
     5
 74
     0
 42
0.0000000001
 43
0.0000000001
 40
0.0
 40
0.0
 40
0.0
 40
0.1237889725417986
 40
0.1237889725417986
 40
0.2475779450835973
 40
0.2475779450835973
 40
0.2475779450835973
 10
48.89304088860001
 20
-0.0050000000002194
 30
0.0
 41
1.0
 10
48.96582692182492
 20
-0.0050000000002193
 30
0.0
 41
0.7899418936709723
 10
48.9838790510826
 20
0.0655118944707367
 30
0.0
 41
1.0
 10
49.00193118034026
 20
0.1360237889416928
 30
0.0
 41
0.7899418936709723
 10
48.93809959500312
 20
0.1710000000853735
 30
0.0
 41
1.0
  0
SPLINE
  5
65
330
1F
100
AcDbEntity
  8
Layer 03
100
AcDbSpline
210
0.0
220
0.0
230
1.0
 70
    24
 71
     2
 72
     6
 73
     3
 74
     0
 42
0.0000000001
 43
0.0000000001
 40
0.0
 40
0.0
 40
0.0
 40
1.0
 40
1.0
 40
1.0
 10
47.5606405453
 20
0.1709999999997809
 30
0.0
 10
48.25327940018904
 20
0.1709999999997809
 30
0.0
 10
48.94591825507808
 20
0.1709999999997809
 30
0.0
  0
SPLINE
  5
66
330
1F
100
AcDbEntity
  8
Layer 03
100
AcDbSpline
210
0.0
220
0.0
230
1.0
 70
    24
 71
     2
 72
     6
 73
     3
 74
     0
 42
0.0000000001
 43
0.0000000001
 40
0.0
 40
0.0
 40
0.0
 40
1.0
 40
1.0
 40
1.0
 10
43.8125280631
 20
23.80481292969978
 30
0.0
 10
45.65196901059998
 20
12.01773019302478
 30
0.0
 10
47.49140995809999
 20
0.2306474563497804
 30
0.0
  0
SPLINE
  5
67
330
1F
100
AcDbEntity
  8
Layer 03
100
AcDbSpline
210
0.0
220
0.0
230
1.0
 70
    24
 71
     2
 72
     6
 73
     3
 74
     0
 42
0.0000000001
 43
0.0000000001
 40
0.0
 40
0.0
 40
0.0
 40
1.0
 40
1.0
 40
1.0
 10
49.01754237450001
 20
0.2538448862997793
 30
0.0
 10
47.34046127638895
 20
14.0318250288952
 30
0.0
 10
45.66338017827787
 20
27.80980517149062
 30
0.0
  0
SPLINE
  5
68
330
1F
100
AcDbEntity
  8
Layer 03
100
AcDbSpline
210
0.0
220
0.0
230
1.0
 70
     8
 71
     5
 72
    12
 73
     6
 74
     0
 42
0.0000000001
 43
0.0000000001
 40
-1.0
 40
-1.0
 40
-1.0
 40
-1.0
 40
-1.0
 40
-1.0
 40
0.0
 40
0.0
 40
0.0
 40
0.0
 40
0.0
 40
0.0
 10
48.94591825507808
 20
0.1709999999997809
 30
0.0
 10
48.96782103085562
 20
0.1709999999997809
 30
0.0
 10
48.98972380663316
 20
0.1709999999997809
 30
0.0
 10
49.02283539974641
 20
0.2103602886727489
 30
0.0
 10
49.0201888871232
 20
0.2321025874862641
 30
0.0
 10
49.01754237450001
 20
0.2538448862997793
 30
0.0
  0
SPLINE
  5
69
330
1F
100
AcDbEntity
  8
Layer 03
100
AcDbSpline
210
0.0
220
0.0
230
1.0
 70
     8
 71
     2
 72
     7
 73
     4
 74
     0
 42
0.0000000001
 43
0.0000000001
 40
-2.0
 40
-2.0
 40
-2.0
 40
-1.000019514298015
 40
0.0
 40
0.0
 40
0.0
 10
47.49140995809999
 20
0.2306474563497804
 30
0.0
 10
47.49554279325628
 20
0.205030710552478
 30
0.0
 10
47.53474807221649
 20
0.1714295380280607
 30
0.0
 10
47.5606405453
 20
0.1709999999997809
 30
0.0
  0
SPLINE
  5
6A
330
1F
100
AcDbEntity
  8
Layer 03
100
AcDbSpline
210
0.0
220
0.0
230
1.0
 70
    24
 71
     2
 72
     6
 73
     3
 74
     0
 42
0.0000000001
 43
0.0000000001
 40
0.0
 40
0.0
 40
0.0
 40
0.5741216041000001
 40
0.5741216041000001
 40
0.5741216041000001
 10
42.0
 20
25.06799999999978
 30
0.0
 10
42.28706080205
 20
25.06799999999978
 30
0.0
 10
42.5741216041
 20
25.06799999999978
 30
0.0
  0
SPLINE
  5
6B
330
1F
100
AcDbEntity
  8
Layer 03
100
AcDbSpline
210
0.0
220
0.0
230
1.0
 70
     8
 71
     5
 72
    12
 73
     6
 74
     0
 42
0.0000000001
 43
0.0000000001
 40
-1.0
 40
-1.0
 40
-1.0
 40
-1.0
 40
-1.0
 40
-1.0
 40
0.0
 40
0.0
 40
0.0
 40
0.0
 40
0.0
 40
0.0
 10
42.5741216041
 20
25.06799999999978
 30
0.0
 10
42.9279177110467
 20
25.06799999999978
 30
0.0
 10
43.2817138179934
 20
25.06799999999978
 30
0.0
 10
43.70342481915534
 20
24.5039432632738
 30
0.0
 10
43.75797644112767
 20
24.15437809648679
 30
0.0
 10
43.8125280631
 20
23.80481292969978
 30
0.0
  0
SPLINE
  5
6C
330
1F
100
AcDbEntity
  8
Layer 03
  6
Continuous
100
AcDbSpline
210
0.0
220
0.0
230
1.0
 70
    24
 71
     2
 72
     6
 73
     3
 74
     0
 42
0.0000000001
 43
0.0000000001
 40
0.0
 40
0.0
 40
0.0
 40
2.730000000000217
 40
2.730000000000217
 40
2.730000000000217
 10
41.98000000000022
 20
25.06299999999956
 30
0.0
 10
41.9800000000001
 20
26.42799999999967
 30
0.0
 10
41.98
 20
27.79299999999978
 30
0.0
  0
SPLINE
  5
6D
330
1F
100
AcDbEntity
  8
Layer 03
  6
Continuous
100
AcDbSpline
210
0.0
220
0.0
230
1.0
 70
    24
 71
     2
 72
     6
 73
     3
 74
     0
 42
0.0000000001
 43
0.0000000001
 40
0.0
 40
0.0
 40
0.0
 40
1.209882587200021
 40
1.209882587200021
 40
1.209882587200021
 10
48.89304088860001
 20
-0.0050000000002194
 30
0.0
 10
48.288099595
 20
-0.0050000000002194
 30
0.0
 10
47.68315830139998
 20
-0.0050000000002194
 30
0.0
  0
SPLINE
  5
6E
330
1F
100
AcDbEntity
  8
Layer 03
  6
Continuous
100
AcDbSpline
210
0.0
220
0.0
230
1.0
 70
    12
 71
     2
 72
     8
 73
     5
 74
     0
 42
0.0000000001
 43
0.0000000001
 40
0.0
 40
0.0
 40
0.0
 40
0.1237889725417989
 40
0.1237889725417989
 40
0.2475779450835977
 40
0.2475779450835977
 40
0.2475779450835977
 10
47.63809959499686
 20
0.1710000000853734
 30
0.0
 41
1.0
 10
47.57426800965973
 20
0.1360237889416926
 30
0.0
 41
0.7899418936709716
 10
47.59232013891739
 20
0.0655118944707363
 30
0.0
 41
1.0
 10
47.61037226817507
 20
-0.0050000000002193
 30
0.0
 41
0.7899418936709716
 10
47.68315830139998
 20
-0.0050000000002194
 30
0.0
 41
1.0
  0
SPLINE
  5
6F
330
1F
100
AcDbEntity
  8
Layer 03
100
AcDbSpline
210
0.0
220
0.0
230
1.0
 70
    24
 71
     2
 72
     6
 73
     3
 74
     0
 42
0.0000000001
 43
0.0000000001
 40
0.0
 40
0.0
 40
0.0
 40
0.5741216041000001
 40
0.5741216041000001
 40
0.5741216041000001
 10
-42.03999999999997
 20
25.07299999999978
 30
0.0
 10
-42.32706080204997
 20
25.07299999999978
 30
0.0
 10
-42.61412160409997
 20
25.07299999999978
 30
0.0
  0
SPLINE
  5
70
330
1F
100
AcDbEntity
  8
Layer 03
  6
Continuous
100
AcDbSpline
210
0.0
220
0.0
230
1.0
 70
    12
 71
     2
 72
     6
 73
     3
 74
     0
 42
0.0000000001
 43
0.0000000001
 40
0.0
 40
0.0
 40
0.0
 40
0.0169989103856674
 40
0.0169989103856674
 40
0.0169989103856674
 10
-42.01999999999997
 20
27.80299999999978
 30
0.0
 41
1.0
 10
-42.01999999999998
 20
27.81205100665557
 30
0.0
 41
0.9110499643818554
 10
-42.02679951849597
 20
27.81802488895319
 30
0.0
 41
1.0
  0
SPLINE
  5
71
330
1F
100
AcDbEntity
  8
Layer 03
  6
Continuous
100
AcDbSpline
210
0.0
220
0.0
230
1.0
 70
    24
 71
     2
 72
     6
 73
     3
 74
     0
 42
0.0000000001
 43
0.0000000001
 40
0.0
 40
0.0
 40
0.0
 40
2.73500000000022
 40
2.73500000000022
 40
2.73500000000022
 10
-42.01999999999997
 20
27.80299999999978
 30
0.0
 10
-42.02000000000007
 20
26.43549999999967
 30
0.0
 10
-42.02000000000019
 20
25.06799999999956
 30
0.0
  0
SPLINE
  5
72
330
1F
100
AcDbEntity
  8
Layer 03
  6
Continuous
100
AcDbSpline
210
0.0
220
0.0
230
1.0
 70
    12
 71
     2
 72
     6
 73
     3
 74
     0
 42
0.0000000001
 43
0.0000000001
 40
0.0
 40
0.0
 40
0.0
 40
0.0314159265358624
 40
0.0314159265358624
 40
0.0314159265358624
 10
-42.01999999999997
 20
25.08799999999978
 30
0.0
 41
1.0
 10
-42.01999999999995
 20
25.06799999999982
 30
0.0
 41
0.707106781187175
 10
-42.0
 20
25.06799999999978
 30
0.0
 41
1.0
  0
SPLINE
  5
73
330
1F
100
AcDbEntity
  8
Layer 03
  6
Continuous
100
AcDbSpline
210
0.0
220
0.0
230
1.0
 70
    12
 71
     2
 72
     6
 73
     3
 74
     0
 42
0.0000000001
 43
0.0000000001
 40
0.0
 40
0.0
 40
0.0
 40
0.0314159265358979
 40
0.0314159265358979
 40
0.0314159265358979
 10
-42.03999999999997
 20
25.07299999999978
 30
0.0
 41
1.0
 10
-42.01999999999997
 20
25.07299999999978
 30
0.0
 41
0.7071067811865476
 10
-42.01999999999997
 20
25.09299999999978
 30
0.0
 41
1.0
  0
SPLINE
  5
74
330
1F
100
AcDbEntity
  8
Layer 03
100
AcDbSpline
210
0.0
220
0.0
230
1.0
 70
     8
 71
     2
 72
     7
 73
     4
 74
     0
 42
0.0000000001
 43
0.0000000001
 40
-2.0
 40
-2.0
 40
-2.0
 40
-1.000019514298015
 40
0.0
 40
0.0
 40
0.0
 10
-47.53140995809996
 20
0.2356474563497794
 30
0.0
 10
-47.53554279325625
 20
0.210030710552477
 30
0.0
 10
-47.57474807221647
 20
0.1764295380280597
 30
0.0
 10
-47.60064054529997
 20
0.1759999999997799
 30
0.0
  0
SPLINE
  5
75
330
1F
100
AcDbEntity
  8
Layer 03
100
AcDbSpline
210
0.0
220
0.0
230
1.0
 70
    24
 71
     2
 72
     6
 73
     3
 74
     0
 42
0.0000000001
 43
0.0000000001
 40
0.0
 40
0.0
 40
0.0
 40
1.0
 40
1.0
 40
1.0
 10
-47.60064054529997
 20
0.1759999999997799
 30
0.0
 10
-48.29327940018901
 20
0.1759999999997799
 30
0.0
 10
-48.98591825507805
 20
0.1759999999997799
 30
0.0
  0
SPLINE
  5
76
330
1F
100
AcDbEntity
  8
Layer 03
100
AcDbSpline
210
0.0
220
0.0
230
1.0
 70
     8
 71
     5
 72
    12
 73
     6
 74
     0
 42
0.0000000001
 43
0.0000000001
 40
-1.0
 40
-1.0
 40
-1.0
 40
-1.0
 40
-1.0
 40
-1.0
 40
0.0
 40
0.0
 40
0.0
 40
0.0
 40
0.0
 40
0.0
 10
-48.98591825507805
 20
0.1759999999997799
 30
0.0
 10
-49.0078210308556
 20
0.1759999999997799
 30
0.0
 10
-49.02972380663313
 20
0.1759999999997799
 30
0.0
 10
-49.06283539974638
 20
0.2153602886727479
 30
0.0
 10
-49.06018888712318
 20
0.2371025874862631
 30
0.0
 10
-49.05754237449998
 20
0.2588448862997783
 30
0.0
  0
SPLINE
  5
77
330
1F
100
AcDbEntity
  8
Layer 03
  6
Continuous
100
AcDbSpline
210
0.0
220
0.0
230
1.0
 70
    12
 71
     2
 72
     8
 73
     5
 74
     0
 42
0.0000000001
 43
0.0000000001
 40
0.0
 40
0.0
 40
0.0
 40
0.1237889725417986
 40
0.1237889725417986
 40
0.2475779450835973
 40
0.2475779450835973
 40
0.2475779450835973
 10
-48.97809959500309
 20
0.1760000000853724
 30
0.0
 41
1.0
 10
-49.04193118034023
 20
0.1410237889416915
 30
0.0
 41
0.7899418936709723
 10
-49.02387905108256
 20
0.0705118944707355
 30
0.0
 41
1.0
 10
-49.00582692182489
 20
-0.0000000000002203
 30
0.0
 41
0.7899418936709723
 10
-48.93304088859997
 20
-0.0000000000002204
 30
0.0
 41
1.0
  0
SPLINE
  5
78
330
1F
100
AcDbEntity
  8
Layer 03
100
AcDbSpline
210
0.0
220
0.0
230
1.0
 70
    24
 71
     2
 72
     6
 73
     3
 74
     0
 42
0.0000000001
 43
0.0000000001
 40
0.0
 40
0.0
 40
0.0
 40
1.0
 40
1.0
 40
1.0
 10
-49.05754237449998
 20
0.2588448862997783
 30
0.0
 10
-47.38046127638892
 20
14.0368250288952
 30
0.0
 10
-45.70338017827784
 20
27.81480517149062
 30
0.0
  0
SPLINE
  5
79
330
1F
100
AcDbEntity
  8
Layer 03
  6
Continuous
100
AcDbSpline
210
0.0
220
0.0
230
1.0
 70
    24
 71
     2
 72
     6
 73
     3
 74
     0
 42
0.0000000001
 43
0.0000000001
 40
0.0
 40
0.0
 40
0.0
 40
1.209882587200021
 40
1.209882587200021
 40
1.209882587200021
 10
-48.93304088859998
 20
-0.0000000000002204
 30
0.0
 10
-48.32809959499997
 20
-0.0000000000002204
 30
0.0
 10
-47.72315830139996
 20
-0.0000000000002204
 30
0.0
  0
SPLINE
  5
7A
330
1F
100
AcDbEntity
  8
Layer 03
  6
Continuous
100
AcDbSpline
210
0.0
220
0.0
230
1.0
 70
    12
 71
     2
 72
     8
 73
     5
 74
     0
 42
0.0000000001
 43
0.0000000001
 40
0.0
 40
0.0
 40
0.0
 40
0.1237889725417989
 40
0.1237889725417989
 40
0.2475779450835977
 40
0.2475779450835977
 40
0.2475779450835977
 10
-47.72315830139996
 20
-0.0000000000002204
 30
0.0
 41
1.0
 10
-47.65037226817505
 20
-0.0000000000002203
 30
0.0
 41
0.7899418936709716
 10
-47.63232013891736
 20
0.0705118944707359
 30
0.0
 41
1.0
 10
-47.61426800965971
 20
0.1410237889416922
 30
0.0
 41
0.7899418936709716
 10
-47.67809959499683
 20
0.1760000000853727
 30
0.0
 41
1.0
  0
SPLINE
  5
7B
330
1F
100
AcDbEntity
  8
Layer 03
100
AcDbSpline
210
0.0
220
0.0
230
1.0
 70
    24
 71
     2
 72
     6
 73
     3
 74
     0
 42
0.0000000001
 43
0.0000000001
 40
0.0
 40
0.0
 40
0.0
 40
1.0
 40
1.0
 40
1.0
 10
-43.85252806309997
 20
23.80981292969978
 30
0.0
 10
-45.69196901059995
 20
12.02273019302478
 30
0.0
 10
-47.53140995809996
 20
0.2356474563497794
 30
0.0
  0
SPLINE
  5
7C
330
1F
100
AcDbEntity
  8
Layer 03
100
AcDbSpline
210
0.0
220
0.0
230
1.0
 70
     8
 71
     5
 72
    12
 73
     6
 74
     0
 42
0.0000000001
 43
0.0000000001
 40
-1.0
 40
-1.0
 40
-1.0
 40
-1.0
 40
-1.0
 40
-1.0
 40
0.0
 40
0.0
 40
0.0
 40
0.0
 40
0.0
 40
0.0
 10
-42.61412160409997
 20
25.07299999999978
 30
0.0
 10
-42.96791771104667
 20
25.07299999999978
 30
0.0
 10
-43.32171381799337
 20
25.07299999999978
 30
0.0
 10
-43.74342481915531
 20
24.5089432632738
 30
0.0
 10
-43.79797644112764
 20
24.15937809648679
 30
0.0
 10
-43.85252806309997
 20
23.80981292969978
 30
0.0
  0
LINE
  5
7E
330
1F
100
AcDbEntity
  8
Default
100
AcDbLine
 10
81.0
 20
25.06799999999997
 30
0.0
 11
107.0
 21
25.06799999999997
 31
0.0
  0
LINE
  5
7F
330
1F
100
AcDbEntity
  8
Default
100
AcDbLine
 10
-42.0
 20
25.06799999999978
 30
0.0
 11
42.0
 21
25.06799999999978
 31
0.0
  0
POLYLINE
  5
80
330
1F
100
AcDbEntity
  8
Layer 03
100
AcDb2dPolyline
 66
     1
 10
0.0
 20
0.0
 30
0.0
  0
VERTEX
  5
81
330
80
100
AcDbEntity
  8
Layer 03
100
AcDbVertex
100
AcDb2dVertex
 10
69.0
 20
28.818
 30
0.0
  0
VERTEX
  5
82
330
80
100
AcDbEntity
  8
Layer 03
100
AcDbVertex
100
AcDb2dVertex
 10
119.0
 20
28.818
 30
0.0
  0
SEQEND
  5
83
330
80
100
AcDbEntity
  8
Layer 03
  0
LINE
  5
84
330
1F
100
AcDbEntity
  8
Layer 03
  6
Continuous
100
AcDbLine
 10
119.0
 20
28.318
 30
0.0
 11
119.0
 21
28.818
 31
0.0
  0
LINE
  5
85
330
1F
100
AcDbEntity
  8
Layer 03
  6
Continuous
100
AcDbLine
 10
119.0
 20
28.318
 30
0.0
 11
69.0
 21
28.318
 31
0.0
  0
LINE
  5
86
330
1F
100
AcDbEntity
  8
Layer 03
  6
Continuous
100
AcDbLine
 10
117.836
 20
27.818
 30
0.0
 11
70.164
 21
27.818
 31
0.0
  0
LINE
  5
87
330
1F
100
AcDbEntity
  8
Layer 03
  6
Continuous
100
AcDbLine
 10
70.164
 20
27.818
 30
0.0
 11
69.0
 21
28.318
 31
0.0
  0
LINE
  5
88
330
1F
100
AcDbEntity
  8
Layer 03
  6
Continuous
100
AcDbLine
 10
117.836
 20
27.818
 30
0.0
 11
119.0
 21
28.318
 31
0.0
  0
LINE
  5
89
330
1F
100
AcDbEntity
  8
Layer 03
  6
Continuous
100
AcDbLine
 10
69.0
 20
28.318
 30
0.0
 11
69.0
 21
28.818
 31
0.0
  0
LINE
  5
8A
330
1F
100
AcDbEntity
  8
Layer 03
  6
Continuous
100
AcDbLine
 10
69.0
 20
28.318
 30
0.0
 11
69.0
 21
28.818
 31
0.0
  0
LINE
  5
8B
330
1F
100
AcDbEntity
  8
Layer 03
  6
Continuous
100
AcDbLine
 10
10.00610526316158
 20
93.81800000000013
 30
0.0
 11
-10.00610526315694
 21
93.8180000000001
 31
0.0
  0
SPLINE
  5
8C
330
1F
100
AcDbEntity
  8
Layer 03
  6
Continuous
100
AcDbSpline
210
0.0
220
0.0
230
1.0
 70
    12
 71
     2
 72
     6
 73
     3
 74
     0
 42
0.0000000001
 43
0.0000000001
 40
0.0
 40
0.0
 40
0.0
 40
38.98740005894175
 40
38.98740005894175
 40
38.98740005894175
 10
46.88896518875928
 20
92.01743875829789
 30
0.0
 41
1.0
 10
28.4869808670005
 20
93.81799999999997
 30
0.0
 41
0.9989322283044119
 10
10.00610526316158
 20
93.81800000000013
 30
0.0
 41
1.0
  0
SPLINE
  5
8D
330
1F
100
AcDbEntity
  8
Layer 03
  6
Continuous
100
AcDbSpline
210
0.0
220
0.0
230
1.0
 70
    12
 71
     2
 72
     6
 73
     3
 74
     0
 42
0.0000000001
 43
0.0000000001
 40
0.0
 40
0.0
 40
0.0
 40
7.237327632849345
 40
7.237327632849345
 40
7.237327632849345
 10
51.83932451785444
 20
87.65582840389138
 30
0.0
 41
1.0
 10
50.78704401565654
 20
91.63602719259721
 30
0.0
 41
0.823575227503228
 10
46.88896518866203
 20
92.01743875834269
 30
0.0
 41
1.0
  0
SPLINE
  5
8E
330
1F
100
AcDbEntity
  8
Layer 03
  6
Continuous
100
AcDbSpline
210
0.0
220
0.0
230
1.0
 70
    12
 71
     2
 72
     6
 73
     3
 74
     0
 42
0.0000000001
 43
0.0000000001
 40
0.0
 40
0.0
 40
0.0
 40
16.86497068454867
 40
16.86497068454867
 40
16.86497068454867
 10
54.00000000000245
 20
70.99826315790013
 30
0.0
 41
1.0
 10
54.00000000000246
 20
79.48318059868893
 30
0.0
 41
0.9907565523487984
 10
51.83932451785444
 20
87.65582840389138
 30
0.0
 41
1.0
  0
LINE
  5
8F
330
1F
100
AcDbEntity
  8
Layer 03
  6
Continuous
100
AcDbLine
 10
54.00000000000243
 20
66.63773684210081
 30
0.0
 11
54.00000000000245
 21
70.99826315790013
 31
0.0
  0
SPLINE
  5
90
330
1F
100
AcDbEntity
  8
Layer 03
  6
Continuous
100
AcDbSpline
210
0.0
220
0.0
230
1.0
 70
    12
 71
     2
 72
     6
 73
     3
 74
     0
 42
0.0000000001
 43
0.0000000001
 40
0.0
 40
0.0
 40
0.0
 40
16.86497068454894
 40
16.86497068454894
 40
16.86497068454894
 10
51.83932451785453
 20
49.98017159610913
 30
0.0
 41
1.0
 10
54.00000000000254
 20
58.15281940131182
 30
0.0
 41
0.9907565523487981
 10
54.00000000000243
 20
66.63773684210081
 30
0.0
 41
1.0
  0
SPLINE
  5
91
330
1F
100
AcDbEntity
  8
Layer 03
  6
Continuous
100
AcDbSpline
210
0.0
220
0.0
230
1.0
 70
    12
 71
     2
 72
     6
 73
     3
 74
     0
 42
0.0000000001
 43
0.0000000001
 40
0.0
 40
0.0
 40
0.0
 40
7.237327632790245
 40
7.237327632790245
 40
7.237327632790245
 10
46.88896518870929
 20
45.6185612416797
 30
0.0
 41
1.0
 10
50.78704401566648
 20
45.99997280743968
 30
0.0
 41
0.8235752275044533
 10
51.83932451785453
 20
49.98017159610913
 30
0.0
 41
1.0
  0
SPLINE
  5
92
330
1F
100
AcDbEntity
  8
Layer 03
  6
Continuous
100
AcDbSpline
210
0.0
220
0.0
230
1.0
 70
    12
 71
     2
 72
     6
 73
     3
 74
     0
 42
0.0000000001
 43
0.0000000001
 40
0.0
 40
0.0
 40
0.0
 40
38.98740005889
 40
38.98740005889
 40
38.98740005889
 10
10.00610526315925
 20
43.81799999999998
 30
0.0
 41
1.0
 10
28.48698086697341
 20
43.818
 30
0.0
 41
0.9989322283044354
 10
46.88896518870929
 20
45.61856124167968
 30
0.0
 41
1.0
  0
LINE
  5
93
330
1F
100
AcDbEntity
  8
Layer 03
  6
Continuous
100
AcDbLine
 10
-10.00610526315929
 20
43.81799999999998
 30
0.0
 11
10.00610526315925
 21
43.81799999999998
 31
0.0
  0
SPLINE
  5
94
330
1F
100
AcDbEntity
  8
Layer 03
  6
Continuous
100
AcDbSpline
210
0.0
220
0.0
230
1.0
 70
    12
 71
     2
 72
     6
 73
     3
 74
     0
 42
0.0000000001
 43
0.0000000001
 40
0.0
 40
0.0
 40
0.0
 40
38.98740005888895
 40
38.98740005888895
 40
38.98740005888895
 10
-46.88896518870818
 20
45.61856124167982
 30
0.0
 41
1.0
 10
-28.48698086697287
 20
43.81800000000002
 30
0.0
 41
0.9989322283044353
 10
-10.00610526315929
 20
43.81799999999998
 30
0.0
 41
1.0
  0
SPLINE
  5
95
330
1F
100
AcDbEntity
  8
Layer 03
  6
Continuous
100
AcDbSpline
210
0.0
220
0.0
230
1.0
 70
    12
 71
     2
 72
     6
 73
     3
 74
     0
 42
0.0000000001
 43
0.0000000001
 40
0.0
 40
0.0
 40
0.0
 40
7.23732763278874
 40
7.23732763278874
 40
7.23732763278874
 10
-51.83932451785197
 20
49.98017159610881
 30
0.0
 41
1.0
 10
-50.78704401566408
 20
45.99997280744072
 30
0.0
 41
0.823575227504537
 10
-46.88896518870818
 20
45.61856124167984
 30
0.0
 41
1.0
  0
SPLINE
  5
96
330
1F
100
AcDbEntity
  8
Layer 03
  6
Continuous
100
AcDbSpline
210
0.0
220
0.0
230
1.0
 70
    12
 71
     2
 72
     6
 73
     3
 74
     0
 42
0.0000000001
 43
0.0000000001
 40
0.0
 40
0.0
 40
0.0
 40
16.86497068454871
 40
16.86497068454871
 40
16.86497068454871
 10
-53.99999999999999
 20
66.6377368421001
 30
0.0
 41
1.0
 10
-53.99999999999999
 20
58.1528194013113
 30
0.0
 41
0.9907565523487986
 10
-51.83932451785197
 20
49.9801715961088
 30
0.0
 41
1.0
  0
LINE
  5
97
330
1F
100
AcDbEntity
  8
Layer 03
  6
Continuous
100
AcDbLine
 10
-53.99999999999999
 20
70.99826315789977
 30
0.0
 11
-53.99999999999999
 21
66.6377368421001
 31
0.0
  0
SPLINE
  5
98
330
1F
100
AcDbEntity
  8
Layer 03
  6
Continuous
100
AcDbSpline
210
0.0
220
0.0
230
1.0
 70
    12
 71
     2
 72
     6
 73
     3
 74
     0
 42
0.0000000001
 43
0.0000000001
 40
0.0
 40
0.0
 40
0.0
 40
16.86497068454887
 40
16.86497068454887
 40
16.86497068454887
 10
-51.83932451785202
 20
87.6558284038912
 30
0.0
 41
1.0
 10
-53.99999999999999
 20
79.48318059868862
 30
0.0
 41
0.9907565523487991
 10
-53.99999999999999
 20
70.99826315789977
 30
0.0
 41
1.0
  0
SPLINE
  5
99
330
1F
100
AcDbEntity
  8
Layer 03
  6
Continuous
100
AcDbSpline
210
0.0
220
0.0
230
1.0
 70
    12
 71
     2
 72
     6
 73
     3
 74
     0
 42
0.0000000001
 43
0.0000000001
 40
0.0
 40
0.0
 40
0.0
 40
7.23732763279014
 40
7.23732763279014
 40
7.23732763279014
 10
-46.88896518870712
 20
92.01743875832047
 30
0.0
 41
1.0
 10
-50.78704401566398
 20
91.63602719256028
 30
0.0
 41
0.8235752275044743
 10
-51.83932451785202
 20
87.6558284038912
 30
0.0
 41
1.0
  0
SPLINE
  5
9A
330
1F
100
AcDbEntity
  8
Layer 03
  6
Continuous
100
AcDbSpline
210
0.0
220
0.0
230
1.0
 70
    12
 71
     2
 72
     6
 73
     3
 74
     0
 42
0.0000000001
 43
0.0000000001
 40
0.0
 40
0.0
 40
0.0
 40
38.98740005889032
 40
38.98740005889032
 40
38.98740005889032
 10
-10.00610526315694
 20
93.8180000000001
 30
0.0
 41
1.0
 10
-28.48698086697116
 20
93.81799999999991
 30
0.0
 41
0.9989322283044358
 10
-46.88896518870712
 20
92.01743875832042
 30
0.0
 41
1.0
  0
SPLINE
  5
9B
330
1F
100
AcDbEntity
  8
Layer 03
  6
Continuous
100
AcDbSpline
210
0.0
220
0.0
230
1.0
 70
    24
 71
     2
 72
     6
 73
     3
 74
     0
 42
0.0000000001
 43
0.0000000001
 40
0.0
 40
0.0
 40
0.0
 40
1.26684489974108
 40
1.26684489974108
 40
1.26684489974108
 10
-52.836
 20
27.818
 30
0.0
 10
-53.41799999999999
 20
28.068
 30
0.0
 10
-53.99999999999999
 20
28.318
 30
0.0
  0
SPLINE
  5
9C
330
1F
100
AcDbEntity
  8
Layer 03
  6
Continuous
100
AcDbSpline
210
0.0
220
0.0
230
1.0
 70
    24
 71
     2
 72
     6
 73
     3
 74
     0
 42
0.0000000001
 43
0.0000000001
 40
0.0
 40
0.0
 40
0.0
 40
0.5
 40
0.5
 40
0.5
 10
-53.99999999999999
 20
28.318
 30
0.0
 10
-53.99999999999999
 20
28.568
 30
0.0
 10
-53.99999999999999
 20
28.818
 30
0.0
  0
SPLINE
  5
9D
330
1F
100
AcDbEntity
  8
Layer 03
  6
Continuous
100
AcDbSpline
210
0.0
220
0.0
230
1.0
 70
    24
 71
     2
 72
     6
 73
     3
 74
     0
 42
0.0000000001
 43
0.0000000001
 40
0.0
 40
0.0
 40
0.0
 40
0.5
 40
0.5
 40
0.5
 10
54.0
 20
28.318
 30
0.0
 10
54.0
 20
28.568
 30
0.0
 10
54.0
 20
28.818
 30
0.0
  0
SPLINE
  5
9E
330
1F
100
AcDbEntity
  8
Layer 03
  6
Continuous
100
AcDbSpline
210
0.0
220
0.0
230
1.0
 70
    24
 71
     2
 72
     6
 73
     3
 74
     0
 42
0.0000000001
 43
0.0000000001
 40
0.0
 40
0.0
 40
0.0
 40
0.5
 40
0.5
 40
0.5
 10
54.0
 20
28.318
 30
0.0
 10
54.0
 20
28.568
 30
0.0
 10
54.0
 20
28.818
 30
0.0
  0
SPLINE
  5
9F
330
1F
100
AcDbEntity
  8
Layer 03
  6
Continuous
100
AcDbSpline
210
0.0
220
0.0
230
1.0
 70
    24
 71
     2
 72
     6
 73
     3
 74
     0
 42
0.0000000001
 43
0.0000000001
 40
0.0
 40
0.0
 40
0.0
 40
1.266844899741087
 40
1.266844899741087
 40
1.266844899741087
 10
52.836
 20
27.818
 30
0.0
 10
53.418
 20
28.068
 30
0.0
 10
54.0
 20
28.318
 30
0.0
  0
SPLINE
  5
A0
330
1F
100
AcDbEntity
  8
Layer 03
100
AcDbSpline
210
0.0
220
0.0
230
1.0
 70
    24
 71
     2
 72
     6
 73
     3
 74
     0
 42
0.0000000001
 43
0.0000000001
 40
0.0
 40
0.0
 40
0.0
 40
1.0
 40
1.0
 40
1.0
 10
-53.99999999999999
 20
28.818
 30
0.0
 10
0.0000000000000036
 20
28.818
 30
0.0
 10
54.0
 20
28.818
 30
0.0
  0
SPLINE
  5
A1
330
1F
100
AcDbEntity
  8
Layer 03
  6
Continuous
100
AcDbSpline
210
0.0
220
0.0
230
1.0
 70
    24
 71
     2
 72
     6
 73
     3
 74
     0
 42
0.0000000001
 43
0.0000000001
 40
0.0
 40
0.0
 40
0.0
 40
114.0
 40
114.0
 40
114.0
 10
54.0
 20
28.318
 30
0.0
 10
0.0000000000000036
 20
28.318
 30
0.0
 10
-53.99999999999999
 20
28.318
 30
0.0
  0
SPLINE
  5
A2
330
1F
100
AcDbEntity
  8
Layer 03
  6
Continuous
100
AcDbSpline
210
0.0
220
0.0
230
1.0
 70
    24
 71
     2
 72
     6
 73
     3
 74
     0
 42
0.0000000001
 43
0.0000000001
 40
0.0
 40
0.0
 40
0.0
 40
111.672
 40
111.672
 40
111.672
 10
52.836
 20
27.818
 30
0.0
 10
0.0
 20
27.818
 30
0.0
 10
-52.836
 20
27.818
 30
0.0
  0
ENDSEC
  0
SECTION
  2
OBJECTS
  0
DICTIONARY
  5
C
330
0
100
AcDbDictionary
281
     1
  3
ACAD_GROUP
350
D
  3
ACAD_LAYOUT
350
1A
  3
ACAD_MLEADERSTYLE
350
A4
  3
ACAD_MLINESTYLE
350
17
  3
ACAD_PLOTSETTINGS
350
19
  3
ACAD_PLOTSTYLENAME
350
E
  3
ACAD_TABLESTYLE
350
A3
  3
ACAD_VISUALSTYLE
350
2A
  0
DICTIONARY
  5
D
102
{ACAD_REACTORS
330
C
102
}
330
C
100
AcDbDictionary
281
     1
  0
DICTIONARY
  5
1A
102
{ACAD_REACTORS
330
C
102
}
330
C
100
AcDbDictionary
281
     1
  3
Layout1
350
1E
  3
Layout2
350
26
  3
Model
350
22
  0
DICTIONARY
  5
A4
102
{ACAD_REACTORS
330
C
102
}
330
C
100
AcDbDictionary
281
     1
  0
DICTIONARY
  5
17
102
{ACAD_REACTORS
330
C
102
}
330
C
100
AcDbDictionary
281
     1
  3
Standard
350
18
  0
DICTIONARY
  5
19
102
{ACAD_REACTORS
330
C
102
}
330
C
100
AcDbDictionary
281
     1
  0
ACDBDICTIONARYWDFLT
  5
E
102
{ACAD_REACTORS
330
C
102
}
330
C
100
AcDbDictionary
281
     1
  3
Normal
350
F
100
AcDbDictionaryWithDefault
340
F
  0
DICTIONARY
  5
A3
102
{ACAD_REACTORS
330
C
102
}
330
C
100
AcDbDictionary
281
     1
  0
DICTIONARY
  5
2A
102
{ACAD_REACTORS
330
C
102
}
330
C
100
AcDbDictionary
281
     1
  3
2dWireframe
350
2F
  3
3D Hidden
350
31
  3
3dWireframe
350
30
  3
Basic
350
32
  3
Brighten
350
36
  3
ColorChange
350
3A
  3
Conceptual
350
34
  3
Dim
350
35
  3
Facepattern
350
39
  3
Flat
350
2B
  3
FlatWithEdges
350
2C
  3
Gouraud
350
2D
  3
GouraudWithEdges
350
2E
  3
Linepattern
350
38
  3
Realistic
350
33
  3
Thicken
350
37
  0
LAYOUT
  5
1E
102
{ACAD_REACTORS
330
1A
102
}
330
1A
100
AcDbPlotSettings
  1

  2
none_device
  4

  6

 40
0.0
 41
0.0
 42
0.0
 43
0.0
 44
0.0
 45
0.0
 46
0.0
 47
0.0
 48
0.0
 49
0.0
140
0.0
141
0.0
142
1.0
143
1.0
 70
   688
 72
     0
 73
     0
 74
     5
  7

 75
    16
 76
     0
 77
     2
 78
   300
147
1.0
148
0.0
149
0.0
100
AcDbLayout
  1
Layout1
 70
     1
 71
     1
 10
0.0
 20
0.0
 11
12.0
 21
9.0
 12
0.0
 22
0.0
 32
0.0
 14
1.000000000000000E+20
 24
1.000000000000000E+20
 34
1.000000000000000E+20
 15
-1.000000000000000E+20
 25
-1.000000000000000E+20
 35
-1.000000000000000E+20
146
0.0
 13
0.0
 23
0.0
 33
0.0
 16
1.0
 26
0.0
 36
0.0
 17
0.0
 27
1.0
 37
0.0
 76
     0
330
1B
  0
LAYOUT
  5
26
102
{ACAD_REACTORS
330
1A
102
}
330
1A
100
AcDbPlotSettings
  1

  2
none_device
  4

  6

 40
0.0
 41
0.0
 42
0.0
 43
0.0
 44
0.0
 45
0.0
 46
0.0
 47
0.0
 48
0.0
 49
0.0
140
0.0
141
0.0
142
1.0
143
1.0
 70
   688
 72
     0
 73
     0
 74
     5
  7

 75
    16
 76
     0
 77
     2
 78
   300
147
1.0
148
0.0
149
0.0
100
AcDbLayout
  1
Layout2
 70
     1
 71
     2
 10
0.0
 20
0.0
 11
0.0
 21
0.0
 12
0.0
 22
0.0
 32
0.0
 14
0.0
 24
0.0
 34
0.0
 15
0.0
 25
0.0
 35
0.0
146
0.0
 13
0.0
 23
0.0
 33
0.0
 16
1.0
 26
0.0
 36
0.0
 17
0.0
 27
1.0
 37
0.0
 76
     0
330
23
  0
LAYOUT
  5
22
102
{ACAD_REACTORS
330
1A
102
}
330
1A
100
AcDbPlotSettings
  1

  2
none_device
  4

  6

 40
0.0
 41
0.0
 42
0.0
 43
0.0
 44
0.0
 45
0.0
 46
0.0
 47
0.0
 48
0.0
 49
0.0
140
0.0
141
0.0
142
1.0
143
1.0
 70
  1712
 72
     0
 73
     0
 74
     0
  7

 75
     0
 76
     0
 77
     2
 78
   300
147
1.0
148
0.0
149
0.0
100
AcDbLayout
  1
Model
 70
     1
 71
     0
 10
0.0
 20
0.0
 11
12.0
 21
9.0
 12
0.0
 22
0.0
 32
0.0
 14
-53.99999999999999
 24
-0.0050000000002194
 34
0.0
 15
119.0
 25
93.81800000000014
 35
0.0
146
0.0
 13
0.0
 23
0.0
 33
0.0
 16
1.0
 26
0.0
 36
0.0
 17
0.0
 27
1.0
 37
0.0
 76
     0
330
1F
331
29
  0
MLINESTYLE
  5
18
102
{ACAD_REACTORS
330
17
102
}
330
17
100
AcDbMlineStyle
  2
Standard
 70
     0
  3

 62
   256
 51
90.0
 52
90.0
 71
     2
 49
0.5
 62
   256
  6
BYLAYER
 49
-0.5
 62
   256
  6
BYLAYER
  0
ACDBPLACEHOLDER
  5
F
102
{ACAD_REACTORS
330
E
102
}
330
E
  0
VISUALSTYLE
  5
2F
102
{ACAD_REACTORS
330
2A
102
}
330
2A
100
AcDbVisualStyle
  2
2dWireframe
 70
     4
 71
     0
 72
     2
 73
     0
 90
        0
 40
-0.6
 41
-30.0
 62
     5
 63
     7
421
 16777215
 74
     1
 91
        4
 64
     7
 65
   257
 75
     1
175
     1
 42
1.0
 92
        0
 66
   257
 43
1.0
 76
     1
 77
     6
 78
     2
 67
     7
 79
     5
170
     0
171
     0
290
     0
174
     0
 93
        1
 44
0.0
173
     0
291
     0
 45
0.0
1001
ACAD
1000
AcDbSavedByObjectVersion
1070
     0
  0
VISUALSTYLE
  5
31
102
{ACAD_REACTORS
330
2A
102
}
330
2A
100
AcDbVisualStyle
  2
3D Hidden
 70
     6
 71
     1
 72
     2
 73
     2
 90
        0
 40
-0.6
 41
-30.0
 62
     5
 63
     7
421
 16777215
 74
     2
 91
        2
 64
     7
 65
   257
 75
     2
175
     1
 42
40.0
 92
        0
 66
   257
 43
1.0
 76
     1
 77
     6
 78
     2
 67
     7
 79
     3
170
     0
171
     0
290
     0
174
     0
 93
        1
 44
0.0
173
     0
291
     0
 45
0.0
1001
ACAD
1000
AcDbSavedByObjectVersion
1070
     0
  0
VISUALSTYLE
  5
30
102
{ACAD_REACTORS
330
2A
102
}
330
2A
100
AcDbVisualStyle
  2
3dWireframe
 70
     5
 71
     0
 72
     2
 73
     0
 90
        0
 40
-0.6
 41
-30.0
 62
     5
 63
     7
421
 16777215
 74
     1
 91
        4
 64
     7
 65
   257
 75
     1
175
     1
 42
1.0
 92
        0
 66
   257
 43
1.0
 76
     1
 77
     6
 78
     2
 67
     7
 79
     5
170
     0
171
     0
290
     0
174
     0
 93
        1
 44
0.0
173
     0
291
     0
 45
0.0
1001
ACAD
1000
AcDbSavedByObjectVersion
1070
     0
  0
VISUALSTYLE
  5
32
102
{ACAD_REACTORS
330
2A
102
}
330
2A
100
AcDbVisualStyle
  2
Basic
 70
     7
 71
     1
 72
     0
 73
     1
 90
        0
 40
-0.6
 41
-30.0
 62
     5
 63
     7
421
 16777215
 74
     0
 91
        4
 64
     7
 65
   257
 75
     1
175
     1
 42
1.0
 92
        8
 66
     7
 43
1.0
 76
     1
 77
     6
 78
     2
 67
     7
 79
     5
170
     0
171
     0
290
     0
174
     0
 93
        1
 44
0.0
173
     0
291
     1
 45
0.0
1001
ACAD
1000
AcDbSavedByObjectVersion
1070
     0
  0
VISUALSTYLE
  5
36
102
{ACAD_REACTORS
330
2A
102
}
330
2A
100
AcDbVisualStyle
  2
Brighten
 70
    12
 71
     2
 72
     2
 73
     0
 90
        0
 40
-0.6
 41
-30.0
 62
     5
 63
     7
421
 16777215
 74
     1
 91
        4
 64
     7
 65
   257
 75
     1
175
     1
 42
1.0
 92
        8
 66
     7
 43
1.0
 76
     1
 77
     6
 78
     2
 67
     7
 79
     5
170
     0
171
     0
290
     0
174
     0
 93
        1
 44
50.0
173
     0
291
     1
 45
0.0
1001
ACAD
1000
AcDbSavedByObjectVersion
1070
     0
  0
VISUALSTYLE
  5
3A
102
{ACAD_REACTORS
330
2A
102
}
330
2A
100
AcDbVisualStyle
  2
ColorChange
 70
    16
 71
     2
 72
     2
 73
     3
 90
        0
 40
-0.6
 41
-30.0
 62
     5
 63
     8
421
  8421504
 74
     1
 91
        4
 64
     7
 65
   257
 75
     1
175
     1
 42
1.0
 92
        8
 66
     8
424
  8421504
 43
1.0
 76
     1
 77
     6
 78
     2
 67
     7
 79
     5
170
     0
171
     0
290
     0
174
     0
 93
        1
 44
0.0
173
     0
291
     1
 45
0.0
1001
ACAD
1000
AcDbSavedByObjectVersion
1070
     0
  0
VISUALSTYLE
  5
34
102
{ACAD_REACTORS
330
2A
102
}
330
2A
100
AcDbVisualStyle
  2
Conceptual
 70
     9
 71
     3
 72
     2
 73
     0
 90
        0
 40
-0.6
 41
-30.0
 62
     5
 63
     7
421
 16777215
 74
     2
 91
        2
 64
     7
 65
   257
 75
     1
175
     1
 42
40.0
 92
        8
 66
     7
 43
1.0
 76
     1
 77
     6
 78
     2
 67
     7
 79
     3
170
     0
171
     0
290
     0
174
     0
 93
        1
 44
0.0
173
     0
291
     0
 45
0.0
1001
ACAD
1000
AcDbSavedByObjectVersion
1070
     0
  0
VISUALSTYLE
  5
35
102
{ACAD_REACTORS
330
2A
102
}
330
2A
100
AcDbVisualStyle
  2
Dim
 70
    11
 71
     2
 72
     2
 73
     0
 90
        0
 40
-0.6
 41
-30.0
 62
     5
 63
     7
421
 16777215
 74
     1
 91
        4
 64
     7
 65
   257
 75
     1
175
     1
 42
1.0
 92
        8
 66
     7
 43
1.0
 76
     1
 77
     6
 78
     2
 67
     7
 79
     5
170
     0
171
     0
290
     0
174
     0
 93
        1
 44
-50.0
173
     0
291
     1
 45
0.0
1001
ACAD
1000
AcDbSavedByObjectVersion
1070
     0
  0
VISUALSTYLE
  5
39
102
{ACAD_REACTORS
330
2A
102
}
330
2A
100
AcDbVisualStyle
  2
Facepattern
 70
    15
 71
     2
 72
     2
 73
     0
 90
        0
 40
-0.6
 41
-30.0
 62
     5
 63
     7
421
 16777215
 74
     1
 91
        4
 64
     7
 65
   257
 75
     1
175
     1
 42
1.0
 92
        8
 66
     7
 43
1.0
 76
     1
 77
     6
 78
     2
 67
     7
 79
     5
170
     0
171
     0
290
     0
174
     0
 93
        1
 44
0.0
173
     0
291
     1
 45
0.0
1001
ACAD
1000
AcDbSavedByObjectVersion
1070
     0
  0
VISUALSTYLE
  5
2B
102
{ACAD_REACTORS
330
2A
102
}
330
2A
100
AcDbVisualStyle
  2
Flat
 70
     0
 71
     2
 72
     1
 73
     1
 90
        2
 40
-0.6
 41
30.0
 62
     5
 63
     7
421
 16777215
 74
     0
 91
        4
 64
     7
 65
   257
 75
     1
175
     1
 42
1.0
 92
        8
 66
     7
 43
1.0
 76
     1
 77
     6
 78
     2
 67
     7
 79
     5
170
     0
171
     0
290
     0
174
     0
 93
       13
 44
0.0
173
     0
291
     1
 45
0.0
1001
ACAD
1000
AcDbSavedByObjectVersion
1070
     0
  0
VISUALSTYLE
  5
2C
102
{ACAD_REACTORS
330
2A
102
}
330
2A
100
AcDbVisualStyle
  2
FlatWithEdges
 70
     1
 71
     2
 72
     1
 73
     1
 90
        2
 40
-0.6
 41
30.0
 62
     5
 63
     7
421
 16777215
 74
     1
 91
        4
 64
     7
 65
   257
 75
     1
175
     1
 42
1.0
 92
        0
 66
   257
 43
1.0
 76
     1
 77
     6
 78
     2
 67
     7
 79
     5
170
     0
171
     0
290
     0
174
     0
 93
       13
 44
0.0
173
     0
291
     1
 45
0.0
1001
ACAD
1000
AcDbSavedByObjectVersion
1070
     0
  0
VISUALSTYLE
  5
2D
102
{ACAD_REACTORS
330
2A
102
}
330
2A
100
AcDbVisualStyle
  2
Gouraud
 70
     2
 71
     2
 72
     2
 73
     1
 90
        2
 40
-0.6
 41
30.0
 62
     5
 63
     7
421
 16777215
 74
     0
 91
        4
 64
     7
 65
   257
 75
     1
175
     1
 42
1.0
 92
        0
 66
     7
 43
1.0
 76
     1
 77
     6
 78
     2
 67
     7
 79
     5
170
     0
171
     0
290
     0
174
     0
 93
       13
 44
0.0
173
     0
291
     1
 45
0.0
1001
ACAD
1000
AcDbSavedByObjectVersion
1070
     0
  0
VISUALSTYLE
  5
2E
102
{ACAD_REACTORS
330
2A
102
}
330
2A
100
AcDbVisualStyle
  2
GouraudWithEdges
 70
     3
 71
     2
 72
     2
 73
     1
 90
        2
 40
-0.6
 41
30.0
 62
     5
 63
     7
421
 16777215
 74
     1
 91
        4
 64
     7
 65
   257
 75
     1
175
     1
 42
1.0
 92
        0
 66
   257
 43
1.0
 76
     1
 77
     6
 78
     2
 67
     7
 79
     5
170
     0
171
     0
290
     0
174
     0
 93
       13
 44
0.0
173
     0
291
     1
 45
0.0
1001
ACAD
1000
AcDbSavedByObjectVersion
1070
     0
  0
VISUALSTYLE
  5
38
102
{ACAD_REACTORS
330
2A
102
}
330
2A
100
AcDbVisualStyle
  2
Linepattern
 70
    14
 71
     2
 72
     2
 73
     0
 90
        0
 40
-0.6
 41
-30.0
 62
     5
 63
     7
421
 16777215
 74
     1
 91
        4
 64
     7
 65
   257
 75
     7
175
     7
 42
1.0
 92
        8
 66
     7
 43
1.0
 76
     1
 77
     6
 78
     2
 67
     7
 79
     5
170
     0
171
     0
290
     0
174
     0
 93
        1
 44
0.0
173
     0
291
     1
 45
0.0
1001
ACAD
1000
AcDbSavedByObjectVersion
1070
     0
  0
VISUALSTYLE
  5
33
102
{ACAD_REACTORS
330
2A
102
}
330
2A
100
AcDbVisualStyle
  2
Realistic
 70
     8
 71
     2
 72
     2
 73
     0
 90
        0
 40
-0.6
 41
-30.0
 62
     5
 63
     7
421
 16777215
 74
     1
 91
        0
 64
     7
 65
   257
 75
     1
175
     1
 42
1.0
 92
        8
 66
     8
424
  7895160
 43
1.0
 76
     1
 77
     6
 78
     2
 67
     7
 79
     5
170
     0
171
     0
290
     0
174
     0
 93
       13
 44
0.0
173
     0
291
     0
 45
0.0
1001
ACAD
1000
AcDbSavedByObjectVersion
1070
     0
  0
VISUALSTYLE
  5
37
102
{ACAD_REACTORS
330
2A
102
}
330
2A
100
AcDbVisualStyle
  2
Thicken
 70
    13
 71
     2
 72
     2
 73
     0
 90
        0
 40
-0.6
 41
-30.0
 62
     5
 63
     7
421
 16777215
 74
     1
 91
        4
 64
     7
 65
   257
 75
     1
175
     1
 42
1.0
 92
       12
 66
     7
 43
1.0
 76
     1
 77
     6
 78
     2
 67
     7
 79
     5
170
     0
171
     0
290
     0
174
     0
 93
        1
 44
0.0
173
     0
291
     1
 45
0.0
1001
ACAD
1000
AcDbSavedByObjectVersion
1070
     0
  0
ENDSEC
  0
EOF
