  0
SECTION
  2
HEADER
  9
$ACADVER
  1
AC1018
  9
$ACADMAINTVER
 70
     0
  9
$DWGCODEPAGE
  3
ANSI_1252
  9
$INSBASE
 10
0.0
 20
0.0
 30
0.0
  9
$EXTMIN
 10
-60.0
 20
-0.0050000001005498
 30
0.0
  9
$EXTMAX
 10
119.0
 20
79.81600000000019
 30
0.0
  9
$LIMMIN
 10
0.0
 20
0.0
  9
$LIMMAX
 10
12.0
 20
9.0
  9
$ORTHOMODE
 70
     0
  9
$REGENMODE
 70
     1
  9
$FILLMODE
 70
     1
  9
$QTEXTMODE
 70
     0
  9
$MIRRTEXT
 70
     1
  9
$LTSCALE
 40
0.0393700787401575
  9
$ATTMODE
 70
     1
  9
$TEXTSIZE
 40
0.2
  9
$TRACEWID
 40
0.05
  9
$TEXTSTYLE
  7
Standard
  9
$CLAYER
  8
Default
  9
$CELTYPE
  6
ByLayer
  9
$CECOLOR
 62
   256
  9
$CELTSCALE
 40
1.0
  9
$DISPSILH
 70
     0
  9
$DIMSCALE
 40
1.0
  9
$DIMASZ
 40
0.18
  9
$DIMEXO
 40
0.0625
  9
$DIMDLI
 40
0.38
  9
$DIMRND
 40
0.0
  9
$DIMDLE
 40
0.0
  9
$DIMEXE
 40
0.18
  9
$DIMTP
 40
0.0
  9
$DIMTM
 40
0.0
  9
$DIMTXT
 40
0.18
  9
$DIMCEN
 40
0.09
  9
$DIMTSZ
 40
0.0
  9
$DIMTOL
 70
     0
  9
$DIMLIM
 70
     0
  9
$DIMTIH
 70
     1
  9
$DIMTOH
 70
     1
  9
$DIMSE1
 70
     0
  9
$DIMSE2
 70
     0
  9
$DIMTAD
 70
     0
  9
$DIMZIN
 70
     0
  9
$DIMBLK
  1

  9
$DIMASO
 70
     1
  9
$DIMSHO
 70
     1
  9
$DIMPOST
  1

  9
$DIMAPOST
  1

  9
$DIMALT
 70
     0
  9
$DIMALTD
 70
     2
  9
$DIMALTF
 40
25.4
  9
$DIMLFAC
 40
1.0
  9
$DIMTOFL
 70
     0
  9
$DIMTVP
 40
0.0
  9
$DIMTIX
 70
     0
  9
$DIMSOXD
 70
     0
  9
$DIMSAH
 70
     0
  9
$DIMBLK1
  1

  9
$DIMBLK2
  1

  9
$DIMSTYLE
  2
Standard
  9
$DIMCLRD
 70
     0
  9
$DIMCLRE
 70
     0
  9
$DIMCLRT
 70
     0
  9
$DIMTFAC
 40
1.0
  9
$DIMGAP
 40
0.09
  9
$DIMJUST
 70
     0
  9
$DIMSD1
 70
     0
  9
$DIMSD2
 70
     0
  9
$DIMTOLJ
 70
     1
  9
$DIMTZIN
 70
     0
  9
$DIMALTZ
 70
     0
  9
$DIMALTTZ
 70
     0
  9
$DIMUPT
 70
     0
  9
$DIMDEC
 70
     4
  9
$DIMTDEC
 70
     4
  9
$DIMALTU
 70
     2
  9
$DIMALTTD
 70
     2
  9
$DIMTXSTY
  7
Standard
  9
$DIMAUNIT
 70
     0
  9
$DIMADEC
 70
     0
  9
$DIMALTRND
 40
0.0
  9
$DIMAZIN
 70
     0
  9
$DIMDSEP
 70
    46
  9
$DIMATFIT
 70
     3
  9
$DIMFRAC
 70
     0
  9
$DIMLDRBLK
  1

  9
$DIMLUNIT
 70
     2
  9
$DIMLWD
 70
    -2
  9
$DIMLWE
 70
    -2
  9
$DIMTMOVE
 70
     2
  9
$LUNITS
 70
     2
  9
$LUPREC
 70
     4
  9
$SKETCHINC
 40
0.1
  9
$FILLETRAD
 40
0.5
  9
$AUNITS
 70
     0
  9
$AUPREC
 70
     0
  9
$MENU
  1
.
  9
$ELEVATION
 40
0.0
  9
$PELEVATION
 40
0.0
  9
$THICKNESS
 40
0.0
  9
$LIMCHECK
 70
     0
  9
$CHAMFERA
 40
0.5
  9
$CHAMFERB
 40
0.5
  9
$CHAMFERC
 40
1.0
  9
$CHAMFERD
 40
0.0
  9
$SKPOLY
 70
     0
  9
$TDCREATE
 40
2456790.676399213
  9
$TDUCREATE
 40
2456790.84306588
  9
$TDUPDATE
 40
2456790.676399224
  9
$TDUUPDATE
 40
2456790.843065891
  9
$TDINDWG
 40
0.0000000116
  9
$TDUSRTIMER
 40
0.0000000116
  9
$USRTIMER
 70
     1
  9
$ANGBASE
 50
0.0
  9
$ANGDIR
 70
     0
  9
$PDMODE
 70
     0
  9
$PDSIZE
 40
0.0
  9
$PLINEWID
 40
0.0
  9
$SPLFRAME
 70
     0
  9
$SPLINETYPE
 70
     6
  9
$SPLINESEGS
 70
     8
  9
$HANDSEED
  5
A2
  9
$SURFTAB1
 70
     6
  9
$SURFTAB2
 70
     6
  9
$SURFTYPE
 70
     6
  9
$SURFU
 70
     6
  9
$SURFV
 70
     6
  9
$UCSBASE
  2

  9
$UCSNAME
  2

  9
$UCSORG
 10
0.0
 20
0.0
 30
0.0
  9
$UCSXDIR
 10
1.0
 20
0.0
 30
0.0
  9
$UCSYDIR
 10
0.0
 20
1.0
 30
0.0
  9
$UCSORTHOREF
  2

  9
$UCSORTHOVIEW
 70
     0
  9
$UCSORGTOP
 10
0.0
 20
0.0
 30
0.0
  9
$UCSORGBOTTOM
 10
0.0
 20
0.0
 30
0.0
  9
$UCSORGLEFT
 10
0.0
 20
0.0
 30
0.0
  9
$UCSORGRIGHT
 10
0.0
 20
0.0
 30
0.0
  9
$UCSORGFRONT
 10
0.0
 20
0.0
 30
0.0
  9
$UCSORGBACK
 10
0.0
 20
0.0
 30
0.0
  9
$PUCSBASE
  2

  9
$PUCSNAME
  2

  9
$PUCSORG
 10
0.0
 20
0.0
 30
0.0
  9
$PUCSXDIR
 10
1.0
 20
0.0
 30
0.0
  9
$PUCSYDIR
 10
0.0
 20
1.0
 30
0.0
  9
$PUCSORTHOREF
  2

  9
$PUCSORTHOVIEW
 70
     0
  9
$PUCSORGTOP
 10
0.0
 20
0.0
 30
0.0
  9
$PUCSORGBOTTOM
 10
0.0
 20
0.0
 30
0.0
  9
$PUCSORGLEFT
 10
0.0
 20
0.0
 30
0.0
  9
$PUCSORGRIGHT
 10
0.0
 20
0.0
 30
0.0
  9
$PUCSORGFRONT
 10
0.0
 20
0.0
 30
0.0
  9
$PUCSORGBACK
 10
0.0
 20
0.0
 30
0.0
  9
$USERI1
 70
     0
  9
$USERI2
 70
     0
  9
$USERI3
 70
     0
  9
$USERI4
 70
     0
  9
$USERI5
 70
     0
  9
$USERR1
 40
0.0
  9
$USERR2
 40
0.0
  9
$USERR3
 40
0.0
  9
$USERR4
 40
0.0
  9
$USERR5
 40
0.0
  9
$WORLDVIEW
 70
     1
  9
$SHADEDGE
 70
     3
  9
$SHADEDIF
 70
    70
  9
$TILEMODE
 70
     1
  9
$MAXACTVP
 70
    64
  9
$PINSBASE
 10
0.0
 20
0.0
 30
0.0
  9
$PLIMCHECK
 70
     0
  9
$PEXTMIN
 10
1.000000000000000E+20
 20
1.000000000000000E+20
 30
1.000000000000000E+20
  9
$PEXTMAX
 10
-1.000000000000000E+20
 20
-1.000000000000000E+20
 30
-1.000000000000000E+20
  9
$PLIMMIN
 10
0.0
 20
0.0
  9
$PLIMMAX
 10
12.0
 20
9.0
  9
$UNITMODE
 70
     0
  9
$VISRETAIN
 70
     1
  9
$PLINEGEN
 70
     0
  9
$PSLTSCALE
 70
     1
  9
$TREEDEPTH
 70
  3020
  9
$CMLSTYLE
  2
Standard
  9
$CMLJUST
 70
     0
  9
$CMLSCALE
 40
1.0
  9
$PROXYGRAPHICS
 70
     1
  9
$MEASUREMENT
 70
     0
  9
$CELWEIGHT
370
    -1
  9
$ENDCAPS
280
     0
  9
$JOINSTYLE
280
     0
  9
$LWDISPLAY
290
     0
  9
$INSUNITS
 70
     1
  9
$HYPERLINKBASE
  1

  9
$STYLESHEET
  1

  9
$XEDIT
290
     1
  9
$CEPSNTYPE
380
     0
  9
$PSTYLEMODE
290
     1
  9
$FINGERPRINTGUID
  2
{7AC54705-6010-4926-86A8-5BA76A1135FF}
  9
$VERSIONGUID
  2
{FAEB1C32-E019-11D5-929B-00C0DF256EC4}
  9
$EXTNAMES
290
     1
  9
$PSVPSCALE
 40
0.0
  9
$OLESTARTUP
290
     0
  9
$SORTENTS
280
   127
  9
$INDEXCTL
280
     0
  9
$HIDETEXT
280
     1
  9
$XCLIPFRAME
290
     0
  9
$HALOGAP
280
     0
  9
$OBSCOLOR
 70
   257
  9
$OBSLTYPE
280
     0
  9
$INTERSECTIONDISPLAY
280
     0
  9
$INTERSECTIONCOLOR
 70
   257
  9
$DIMASSOC
280
     2
  9
$PROJECTNAME
  1

  0
ENDSEC
  0
SECTION
  2
CLASSES
  0
CLASS
  1
ACDBDICTIONARYWDFLT
  2
AcDbDictionaryWithDefault
  3
ObjectDBX Classes
 90
        0
 91
        4
280
     0
281
     0
  0
CLASS
  1
VISUALSTYLE
  2
AcDbVisualStyle
  3
ObjectDBX Classes
 90
     4095
 91
        4
280
     0
281
     0
  0
ENDSEC
  0
SECTION
  2
TABLES
  0
TABLE
  2
VPORT
  5
8
330
0
100
AcDbSymbolTable
 70
     1
  0
VPORT
  5
29
330
8
100
AcDbSymbolTableRecord
100
AcDbViewportTableRecord
  2
*Active
 70
     0
 10
0.0
 20
0.0
 11
1.0
 21
1.0
 12
29.5
 22
39.90549999994982
 13
0.0
 23
0.0
 14
0.5
 24
0.5
 15
0.5
 25
0.5
 16
0.0
 26
0.0
 36
1.0
 17
0.0
 27
0.0
 37
0.0
 40
81.41742000010275
 41
2.242517633201464
 42
50.0
 43
0.0
 44
0.0
 50
0.0
 51
0.0
 71
     0
 72
   100
 73
     1
 74
     3
 75
     0
 76
     0
 77
     0
 78
     0
281
     0
 65
     1
110
0.0
120
0.0
130
0.0
111
1.0
121
0.0
131
0.0
112
0.0
122
1.0
132
0.0
 79
     0
146
0.0
  0
ENDTAB
  0
TABLE
  2
LTYPE
  5
5
330
0
100
AcDbSymbolTable
 70
     1
  0
LTYPE
  5
14
330
5
100
AcDbSymbolTableRecord
100
AcDbLinetypeTableRecord
  2
ByBlock
 70
     0
  3

 72
    65
 73
     0
 40
0.0
  0
LTYPE
  5
15
330
5
100
AcDbSymbolTableRecord
100
AcDbLinetypeTableRecord
  2
ByLayer
 70
     0
  3

 72
    65
 73
     0
 40
0.0
  0
LTYPE
  5
16
330
5
100
AcDbSymbolTableRecord
100
AcDbLinetypeTableRecord
  2
Continuous
 70
     0
  3
Solid line
 72
    65
 73
     0
 40
0.0
  0
ENDTAB
  0
TABLE
  2
LAYER
  5
2
330
0
100
AcDbSymbolTable
 70
     3
  0
LAYER
  5
10
330
2
100
AcDbSymbolTableRecord
100
AcDbLayerTableRecord
  2
0
 70
     0
 62
     7
  6
Continuous
370
    -3
390
F
  0
LAYER
  5
3B
330
2
100
AcDbSymbolTableRecord
100
AcDbLayerTableRecord
  2
Layer 04
 70
     0
 62
     7
  6
Continuous
370
    -3
390
F
  0
LAYER
  5
7A
330
2
100
AcDbSymbolTableRecord
100
AcDbLayerTableRecord
  2
Default
 70
     0
 62
     7
  6
Continuous
370
    -3
390
F
  0
ENDTAB
  0
TABLE
  2
STYLE
  5
3
330
0
100
AcDbSymbolTable
 70
     1
  0
STYLE
  5
11
330
3
100
AcDbSymbolTableRecord
100
AcDbTextStyleTableRecord
  2
Standard
 70
     0
 40
0.0
 41
1.0
 50
0.0
 71
     0
 42
0.2
  3
txt
  4

  0
ENDTAB
  0
TABLE
  2
VIEW
  5
6
330
0
100
AcDbSymbolTable
 70
     0
  0
ENDTAB
  0
TABLE
  2
UCS
  5
7
330
0
100
AcDbSymbolTable
 70
     0
  0
ENDTAB
  0
TABLE
  2
APPID
  5
9
330
0
100
AcDbSymbolTable
 70
     1
  0
APPID
  5
12
330
9
100
AcDbSymbolTableRecord
100
AcDbRegAppTableRecord
  2
ACAD
 70
     0
  0
ENDTAB
  0
TABLE
  2
DIMSTYLE
  5
A
330
0
100
AcDbSymbolTable
 70
     1
100
AcDbDimStyleTable
  0
DIMSTYLE
105
27
330
A
100
AcDbSymbolTableRecord
100
AcDbDimStyleTableRecord
  2
Standard
 70
     0
340
11
  0
ENDTAB
  0
TABLE
  2
BLOCK_RECORD
  5
1
330
0
100
AcDbSymbolTable
 70
     1
  0
BLOCK_RECORD
  5
1F
330
1
100
AcDbSymbolTableRecord
100
AcDbBlockTableRecord
  2
*Model_Space
340
22
  0
BLOCK_RECORD
  5
1B
330
1
100
AcDbSymbolTableRecord
100
AcDbBlockTableRecord
  2
*Paper_Space
340
1E
  0
BLOCK_RECORD
  5
23
330
1
100
AcDbSymbolTableRecord
100
AcDbBlockTableRecord
  2
*Paper_Space0
340
26
  0
ENDTAB
  0
ENDSEC
  0
SECTION
  2
BLOCKS
  0
BLOCK
  5
20
330
1F
100
AcDbEntity
  8
0
100
AcDbBlockBegin
  2
*Model_Space
 70
     0
 10
0.0
 20
0.0
 30
0.0
  3
*Model_Space
  1

  0
ENDBLK
  5
21
330
1F
100
AcDbEntity
  8
0
100
AcDbBlockEnd
  0
BLOCK
  5
1C
330
1B
100
AcDbEntity
 67
     1
  8
0
100
AcDbBlockBegin
  2
*Paper_Space
 70
     0
 10
0.0
 20
0.0
 30
0.0
  3
*Paper_Space
  1

  0
ENDBLK
  5
1D
330
1B
100
AcDbEntity
 67
     1
  8
0
100
AcDbBlockEnd
  0
BLOCK
  5
24
330
23
100
AcDbEntity
  8
0
100
AcDbBlockBegin
  2
*Paper_Space0
 70
     0
 10
0.0
 20
0.0
 30
0.0
  3
*Paper_Space0
  1

  0
ENDBLK
  5
25
330
23
100
AcDbEntity
  8
0
100
AcDbBlockEnd
  0
ENDSEC
  0
SECTION
  2
ENTITIES
  0
LINE
  5
3C
330
1F
100
AcDbEntity
  8
Layer 04
  6
Continuous
100
AcDbLine
 10
107.0
 20
11.06599999999968
 30
0.0
 11
107.0
 21
13.8009999999999
 31
0.0
  0
POLYLINE
  5
3D
330
1F
100
AcDbEntity
  8
Layer 04
100
AcDb2dPolyline
 66
     1
 10
0.0
 20
0.0
 30
0.0
  0
VERTEX
  5
3E
330
3D
100
AcDbEntity
  8
Layer 04
100
AcDbVertex
100
AcDb2dVertex
 10
111.8695019824
 20
0.2496163922994512
 30
0.0
  0
VERTEX
  5
3F
330
3D
100
AcDbEntity
  8
Layer 04
100
AcDbVertex
100
AcDb2dVertex
 10
110.2178433436857
 20
13.8019369936158
 30
0.0
  0
SEQEND
  5
40
330
3D
100
AcDbEntity
  8
Layer 04
  0
SPLINE
  5
41
330
1F
100
AcDbEntity
  8
Layer 04
100
AcDbSpline
210
0.0
220
0.0
230
1.0
 70
     8
 71
     5
 72
    12
 73
     6
 74
     0
 42
0.0000000001
 43
0.0000000001
 40
-1.0
 40
-1.0
 40
-1.0
 40
-1.0
 40
-1.0
 40
-1.0
 40
0.0
 40
0.0
 40
0.0
 40
0.0
 40
0.0
 40
0.0
 10
111.8084608866343
 20
0.1727797784994536
 30
0.0
 10
111.8280872776347
 20
0.1727797784994536
 30
0.0
 10
111.8477136686351
 20
0.1727797784994536
 30
0.0
 10
111.8742506908366
 20
0.2106519127958258
 30
0.0
 10
111.8718763366183
 20
0.2301341525476385
 30
0.0
 10
111.8695019824
 20
0.2496163922994512
 30
0.0
  0
POLYLINE
  5
42
330
1F
100
AcDbEntity
  8
Layer 04
100
AcDb2dPolyline
 66
     1
 10
0.0
 20
0.0
 30
0.0
  0
VERTEX
  5
43
330
42
100
AcDbEntity
  8
Layer 04
100
AcDbVertex
100
AcDb2dVertex
 10
110.5617466473
 20
0.1727797784994536
 30
0.0
  0
VERTEX
  5
44
330
42
100
AcDbEntity
  8
Layer 04
100
AcDbVertex
100
AcDb2dVertex
 10
111.8084608866343
 20
0.1727797784994536
 30
0.0
  0
SEQEND
  5
45
330
42
100
AcDbEntity
  8
Layer 04
  0
SPLINE
  5
46
330
1F
100
AcDbEntity
  8
Layer 04
100
AcDbSpline
210
0.0
220
0.0
230
1.0
 70
     8
 71
     5
 72
    12
 73
     6
 74
     0
 42
0.0000000001
 43
0.0000000001
 40
0.0
 40
0.0
 40
0.0
 40
0.0
 40
0.0
 40
0.0
 40
1.0
 40
1.0
 40
1.0
 40
1.0
 40
1.0
 40
1.0
 10
110.5074112936
 20
0.2309548677994542
 30
0.0
 10
110.5098612880014
 20
0.2152238667345675
 30
0.0
 10
110.5123112824029
 20
0.1994928656696809
 30
0.0
 10
110.5299053617059
 20
0.1727797784994536
 30
0.0
 10
110.5458260045029
 20
0.1727797784994536
 30
0.0
 10
110.5617466473
 20
0.1727797784994536
 30
0.0
  0
POLYLINE
  5
47
330
1F
100
AcDbEntity
  8
Layer 04
100
AcDb2dPolyline
 66
     1
 10
0.0
 20
0.0
 30
0.0
  0
VERTEX
  5
48
330
47
100
AcDbEntity
  8
Layer 04
100
AcDbVertex
100
AcDb2dVertex
 10
108.9819406886853
 20
10.02574447875487
 30
0.0
  0
VERTEX
  5
49
330
47
100
AcDbEntity
  8
Layer 04
100
AcDbVertex
100
AcDb2dVertex
 10
110.5074112936
 20
0.2309548677994542
 30
0.0
  0
SEQEND
  5
4A
330
47
100
AcDbEntity
  8
Layer 04
  0
SPLINE
  5
4B
330
1F
100
AcDbEntity
  8
Layer 04
100
AcDbSpline
210
0.0
220
0.0
230
1.0
 70
     8
 71
     5
 72
    12
 73
     6
 74
     0
 42
0.0000000001
 43
0.0000000001
 40
0.0
 40
0.0
 40
0.0
 40
0.0
 40
0.0
 40
0.0
 40
1.0
 40
1.0
 40
1.0
 40
1.0
 40
1.0
 40
1.0
 10
107.8252150448
 20
11.06599999999946
 30
0.0
 10
108.1363513984909
 20
11.06599999999946
 30
0.0
 10
108.4474877521818
 20
11.06599999999946
 30
0.0
 10
108.8861804440328
 20
10.64060486770213
 30
0.0
 10
108.934060566359
 20
10.3331746732285
 30
0.0
 10
108.9819406886853
 20
10.02574447875487
 30
0.0
  0
LINE
  5
4C
330
1F
100
AcDbEntity
  8
Layer 04
100
AcDbLine
 10
107.0
 20
11.06599999999946
 30
0.0
 11
107.8252150448
 21
11.06599999999946
 31
0.0
  0
ARC
  5
4D
330
1F
100
AcDbEntity
  8
Layer 04
  6
Continuous
100
AcDbCircle
 10
110.6035572579
 20
0.0887678607994502
 30
0.0
 40
0.0937678609
100
AcDbArc
 50
118.7203267979021
 51
270.0
  0
LINE
  5
4E
330
1F
100
AcDbEntity
  8
Layer 04
  6
Continuous
100
AcDbLine
 10
111.8134398451
 20
-0.0050000001005498
 30
0.0
 11
110.6035572579
 21
-0.0050000001005498
 31
0.0
  0
ARC
  5
4F
330
1F
100
AcDbEntity
  8
Layer 04
  6
Continuous
100
AcDbCircle
 10
111.8134398451
 20
0.0887678607994502
 30
0.0
 40
0.0937678609
100
AcDbArc
 50
270.0
 51
61.27967320209789
  0
LINE
  5
50
330
1F
100
AcDbEntity
  8
Layer 04
  6
Continuous
100
AcDbLine
 10
80.99999999999999
 20
13.80100000000012
 30
0.0
 11
81.0
 21
11.06599999999968
 31
0.0
  0
POLYLINE
  5
51
330
1F
100
AcDbEntity
  8
Layer 04
100
AcDb2dPolyline
 66
     1
 10
0.0
 20
0.0
 30
0.0
  0
VERTEX
  5
52
330
51
100
AcDbEntity
  8
Layer 04
100
AcDbVertex
100
AcDb2dVertex
 10
76.13049801759999
 20
0.2496163922996697
 30
0.0
  0
VERTEX
  5
53
330
51
100
AcDbEntity
  8
Layer 04
100
AcDbVertex
100
AcDb2dVertex
 10
77.7821566563143
 20
13.80193699361602
 30
0.0
  0
SEQEND
  5
54
330
51
100
AcDbEntity
  8
Layer 04
  0
SPLINE
  5
55
330
1F
100
AcDbEntity
  8
Layer 04
100
AcDbSpline
210
0.0
220
0.0
230
1.0
 70
     8
 71
     5
 72
    12
 73
     6
 74
     0
 42
0.0000000001
 43
0.0000000001
 40
-1.0
 40
-1.0
 40
-1.0
 40
-1.0
 40
-1.0
 40
-1.0
 40
0.0
 40
0.0
 40
0.0
 40
0.0
 40
0.0
 40
0.0
 10
76.19153911336569
 20
0.172779778499672
 30
0.0
 10
76.17191272236528
 20
0.172779778499672
 30
0.0
 10
76.15228633136486
 20
0.172779778499672
 30
0.0
 10
76.12574930916338
 20
0.2106519127960443
 30
0.0
 10
76.12812366338169
 20
0.230134152547857
 30
0.0
 10
76.13049801759999
 20
0.2496163922996697
 30
0.0
  0
POLYLINE
  5
56
330
1F
100
AcDbEntity
  8
Layer 04
100
AcDb2dPolyline
 66
     1
 10
0.0
 20
0.0
 30
0.0
  0
VERTEX
  5
57
330
56
100
AcDbEntity
  8
Layer 04
100
AcDbVertex
100
AcDb2dVertex
 10
77.4382533527
 20
0.172779778499672
 30
0.0
  0
VERTEX
  5
58
330
56
100
AcDbEntity
  8
Layer 04
100
AcDbVertex
100
AcDb2dVertex
 10
76.19153911336569
 20
0.172779778499672
 30
0.0
  0
SEQEND
  5
59
330
56
100
AcDbEntity
  8
Layer 04
  0
SPLINE
  5
5A
330
1F
100
AcDbEntity
  8
Layer 04
100
AcDbSpline
210
0.0
220
0.0
230
1.0
 70
     8
 71
     5
 72
    12
 73
     6
 74
     0
 42
0.0000000001
 43
0.0000000001
 40
0.0
 40
0.0
 40
0.0
 40
0.0
 40
0.0
 40
0.0
 40
1.0
 40
1.0
 40
1.0
 40
1.0
 40
1.0
 40
1.0
 10
77.4925887064
 20
0.2309548677996727
 30
0.0
 10
77.49013871199854
 20
0.215223866734786
 30
0.0
 10
77.48768871759707
 20
0.1994928656698993
 30
0.0
 10
77.47009463829407
 20
0.172779778499672
 30
0.0
 10
77.45417399549704
 20
0.172779778499672
 30
0.0
 10
77.4382533527
 20
0.172779778499672
 30
0.0
  0
POLYLINE
  5
5B
330
1F
100
AcDbEntity
  8
Layer 04
100
AcDb2dPolyline
 66
     1
 10
0.0
 20
0.0
 30
0.0
  0
VERTEX
  5
5C
330
5B
100
AcDbEntity
  8
Layer 04
100
AcDbVertex
100
AcDb2dVertex
 10
79.01805931131467
 20
10.02574447875509
 30
0.0
  0
VERTEX
  5
5D
330
5B
100
AcDbEntity
  8
Layer 04
100
AcDbVertex
100
AcDb2dVertex
 10
77.4925887064
 20
0.2309548677996727
 30
0.0
  0
SEQEND
  5
5E
330
5B
100
AcDbEntity
  8
Layer 04
  0
SPLINE
  5
5F
330
1F
100
AcDbEntity
  8
Layer 04
100
AcDbSpline
210
0.0
220
0.0
230
1.0
 70
     8
 71
     5
 72
    12
 73
     6
 74
     0
 42
0.0000000001
 43
0.0000000001
 40
0.0
 40
0.0
 40
0.0
 40
0.0
 40
0.0
 40
0.0
 40
1.0
 40
1.0
 40
1.0
 40
1.0
 40
1.0
 40
1.0
 10
80.17478495520001
 20
11.06599999999968
 30
0.0
 10
79.8636486015091
 20
11.06599999999968
 30
0.0
 10
79.5525122478182
 20
11.06599999999968
 30
0.0
 10
79.11381955596723
 20
10.64060486770235
 30
0.0
 10
79.06593943364095
 20
10.33317467322872
 30
0.0
 10
79.01805931131467
 20
10.02574447875509
 30
0.0
  0
LINE
  5
60
330
1F
100
AcDbEntity
  8
Layer 04
100
AcDbLine
 10
81.0
 20
11.06599999999968
 30
0.0
 11
80.17478495520001
 21
11.06599999999968
 31
0.0
  0
ARC
  5
61
330
1F
100
AcDbEntity
  8
Layer 04
  6
Continuous
100
AcDbCircle
 10
77.39644274209999
 20
0.0887678607996687
 30
0.0
 40
0.0937678609
100
AcDbArc
 50
270.0
 51
61.27967320209792
  0
LINE
  5
62
330
1F
100
AcDbEntity
  8
Layer 04
  6
Continuous
100
AcDbLine
 10
76.18656015490002
 20
-0.0050000001003313
 30
0.0
 11
77.39644274209999
 21
-0.0050000001003313
 31
0.0
  0
ARC
  5
63
330
1F
100
AcDbEntity
  8
Layer 04
  6
Continuous
100
AcDbCircle
 10
76.18656015490001
 20
0.0887678607996687
 30
0.0
 40
0.0937678609
100
AcDbArc
 50
118.7203267979021
 51
270.0
  0
SPLINE
  5
64
330
1F
100
AcDbEntity
  8
Layer 04
  6
Continuous
100
AcDbSpline
210
0.0
220
0.0
230
1.0
 70
    24
 71
     2
 72
     6
 73
     3
 74
     0
 42
0.0000000001
 43
0.0000000001
 40
0.0
 40
0.0
 40
0.0
 40
2.73499999999931
 40
2.73499999999931
 40
2.73499999999931
 10
48.00000000000001
 20
11.06600000000024
 30
0.0
 10
47.99999999999989
 20
12.4334999999999
 30
0.0
 10
47.99999999999979
 20
13.80099999999955
 30
0.0
  0
SPLINE
  5
65
330
1F
100
AcDbEntity
  8
Layer 04
100
AcDbSpline
210
0.0
220
0.0
230
1.0
 70
    24
 71
     2
 72
     6
 73
     3
 74
     0
 42
0.0000000001
 43
0.0000000001
 40
0.0
 40
0.0
 40
0.0
 40
1.0
 40
1.0
 40
1.0
 10
52.88950198239979
 20
0.2546163922995515
 30
0.0
 10
52.06367266304263
 20
7.030776692957723
 30
0.0
 10
51.23784334368548
 20
13.80693699361589
 30
0.0
  0
SPLINE
  5
66
330
1F
100
AcDbEntity
  8
Layer 04
100
AcDbSpline
210
0.0
220
0.0
230
1.0
 70
     8
 71
     5
 72
    12
 73
     6
 74
     0
 42
0.0000000001
 43
0.0000000001
 40
-1.0
 40
-1.0
 40
-1.0
 40
-1.0
 40
-1.0
 40
-1.0
 40
0.0
 40
0.0
 40
0.0
 40
0.0
 40
0.0
 40
0.0
 10
52.82846088663408
 20
0.1777797784995539
 30
0.0
 10
52.8480872776345
 20
0.1777797784995539
 30
0.0
 10
52.86771366863491
 20
0.1777797784995539
 30
0.0
 10
52.89425069083639
 20
0.215651912795926
 30
0.0
 10
52.89187633661809
 20
0.2351341525477388
 30
0.0
 10
52.88950198239979
 20
0.2546163922995515
 30
0.0
  0
SPLINE
  5
67
330
1F
100
AcDbEntity
  8
Layer 04
100
AcDbSpline
210
0.0
220
0.0
230
1.0
 70
    24
 71
     2
 72
     6
 73
     3
 74
     0
 42
0.0000000001
 43
0.0000000001
 40
0.0
 40
0.0
 40
0.0
 40
1.0
 40
1.0
 40
1.0
 10
51.58174664729977
 20
0.1777797784995539
 30
0.0
 10
52.20510376696692
 20
0.1777797784995539
 30
0.0
 10
52.82846088663408
 20
0.1777797784995539
 30
0.0
  0
SPLINE
  5
68
330
1F
100
AcDbEntity
  8
Layer 04
100
AcDbSpline
210
0.0
220
0.0
230
1.0
 70
     8
 71
     5
 72
    12
 73
     6
 74
     0
 42
0.0000000001
 43
0.0000000001
 40
0.0
 40
0.0
 40
0.0
 40
0.0
 40
0.0
 40
0.0
 40
1.0
 40
1.0
 40
1.0
 40
1.0
 40
1.0
 40
1.0
 10
51.52741129359978
 20
0.2359548677995545
 30
0.0
 10
51.52986128800124
 20
0.2202238667346678
 30
0.0
 10
51.53231128240271
 20
0.2044928656697811
 30
0.0
 10
51.5499053617057
 20
0.1777797784995539
 30
0.0
 10
51.56582600450274
 20
0.1777797784995539
 30
0.0
 10
51.58174664729977
 20
0.1777797784995539
 30
0.0
  0
SPLINE
  5
69
330
1F
100
AcDbEntity
  8
Layer 04
100
AcDbSpline
210
0.0
220
0.0
230
1.0
 70
    24
 71
     2
 72
     6
 73
     3
 74
     0
 42
0.0000000001
 43
0.0000000001
 40
0.0
 40
0.0
 40
0.0
 40
1.0
 40
1.0
 40
1.0
 10
50.0019406886851
 20
10.03074447875497
 30
0.0
 10
50.76467599114244
 20
5.133349673277264
 30
0.0
 10
51.52741129359978
 20
0.2359548677995545
 30
0.0
  0
SPLINE
  5
6A
330
1F
100
AcDbEntity
  8
Layer 04
100
AcDbSpline
210
0.0
220
0.0
230
1.0
 70
     8
 71
     5
 72
    12
 73
     6
 74
     0
 42
0.0000000001
 43
0.0000000001
 40
0.0
 40
0.0
 40
0.0
 40
0.0
 40
0.0
 40
0.0
 40
1.0
 40
1.0
 40
1.0
 40
1.0
 40
1.0
 40
1.0
 10
48.84521504479977
 20
11.07099999999955
 30
0.0
 10
49.15635139849067
 20
11.07099999999955
 30
0.0
 10
49.46748775218158
 20
11.07099999999955
 30
0.0
 10
49.90618044403255
 20
10.64560486770222
 30
0.0
 10
49.95406056635883
 20
10.3381746732286
 30
0.0
 10
50.0019406886851
 20
10.03074447875497
 30
0.0
  0
SPLINE
  5
6B
330
1F
100
AcDbEntity
  8
Layer 04
100
AcDbSpline
210
0.0
220
0.0
230
1.0
 70
    24
 71
     2
 72
     6
 73
     3
 74
     0
 42
0.0000000001
 43
0.0000000001
 40
0.0
 40
0.0
 40
0.0
 40
0.8252150447999895
 40
0.8252150447999895
 40
0.8252150447999895
 10
48.01999999999978
 20
11.07099999999955
 30
0.0
 10
48.43260752239978
 20
11.07099999999955
 30
0.0
 10
48.84521504479977
 20
11.07099999999955
 30
0.0
  0
SPLINE
  5
6C
330
1F
100
AcDbEntity
  8
Layer 04
  6
Continuous
100
AcDbSpline
210
0.0
220
0.0
230
1.0
 70
    12
 71
     2
 72
     8
 73
     5
 74
     0
 42
0.0000000001
 43
0.0000000001
 40
0.0
 40
0.0
 40
0.0
 40
0.1237889725417989
 40
0.1237889725417989
 40
0.2475779450835977
 40
0.2475779450835977
 40
0.2475779450835977
 10
51.57849855149666
 20
0.1759999999851433
 30
0.0
 41
1.0
 10
51.51466696615952
 20
0.1410237888414625
 30
0.0
 41
0.7899418936709716
 10
51.5327190954172
 20
0.0705118943705062
 30
0.0
 41
1.0
 10
51.55077122467486
 20
-0.0000000001004499
 30
0.0
 41
0.7899418936709716
 10
51.62355725789979
 20
-0.0000000001004495
 30
0.0
 41
1.0
  0
SPLINE
  5
6D
330
1F
100
AcDbEntity
  8
Layer 04
  6
Continuous
100
AcDbSpline
210
0.0
220
0.0
230
1.0
 70
    24
 71
     2
 72
     6
 73
     3
 74
     0
 42
0.0000000001
 43
0.0000000001
 40
0.0
 40
0.0
 40
0.0
 40
1.209882587199978
 40
1.209882587199978
 40
1.209882587199978
 10
52.83343984509976
 20
-0.0000000001004495
 30
0.0
 10
52.22849855149978
 20
-0.0000000001004495
 30
0.0
 10
51.62355725789978
 20
-0.0000000001004495
 30
0.0
  0
SPLINE
  5
6E
330
1F
100
AcDbEntity
  8
Layer 04
  6
Continuous
100
AcDbSpline
210
0.0
220
0.0
230
1.0
 70
    12
 71
     2
 72
     8
 73
     5
 74
     0
 42
0.0000000001
 43
0.0000000001
 40
0.0
 40
0.0
 40
0.0
 40
0.1237889725418018
 40
0.1237889725418018
 40
0.2475779450836037
 40
0.2475779450836037
 40
0.2475779450836037
 10
52.83343984509976
 20
-0.0000000001004495
 30
0.0
 41
1.0
 10
52.90622587832468
 20
-0.000000000100455
 30
0.0
 41
0.7899418936709618
 10
52.92427800758236
 20
0.0705118943705028
 30
0.0
 41
1.0
 10
52.94233013684002
 20
0.1410237888414606
 30
0.0
 41
0.7899418936709618
 10
52.87849855150289
 20
0.175999999985143
 30
0.0
 41
1.0
  0
SPLINE
  5
6F
330
1F
100
AcDbEntity
  8
Layer 04
  6
Continuous
100
AcDbSpline
210
0.0
220
0.0
230
1.0
 70
    24
 71
     2
 72
     6
 73
     3
 74
     0
 42
0.0000000001
 43
0.0000000001
 40
0.0
 40
0.0
 40
0.0
 40
2.735000000000221
 40
2.735000000000221
 40
2.735000000000221
 10
-47.99999999999978
 20
13.80100000000047
 30
0.0
 10
-47.99999999999989
 20
12.43350000000035
 30
0.0
 10
-47.99999999999999
 20
11.06600000000024
 30
0.0
  0
SPLINE
  5
70
330
1F
100
AcDbEntity
  8
Layer 04
100
AcDbSpline
210
0.0
220
0.0
230
1.0
 70
    24
 71
     2
 72
     6
 73
     3
 74
     0
 42
0.0000000001
 43
0.0000000001
 40
0.0
 40
0.0
 40
0.0
 40
1.0
 40
1.0
 40
1.0
 10
-52.88950198239979
 20
0.2546163923004627
 30
0.0
 10
-52.06367266304263
 20
7.030776692958634
 30
0.0
 10
-51.23784334368548
 20
13.80693699361681
 30
0.0
  0
SPLINE
  5
71
330
1F
100
AcDbEntity
  8
Layer 04
100
AcDbSpline
210
0.0
220
0.0
230
1.0
 70
     8
 71
     5
 72
    12
 73
     6
 74
     0
 42
0.0000000001
 43
0.0000000001
 40
-1.0
 40
-1.0
 40
-1.0
 40
-1.0
 40
-1.0
 40
-1.0
 40
0.0
 40
0.0
 40
0.0
 40
0.0
 40
0.0
 40
0.0
 10
-52.82846088663408
 20
0.1777797785004651
 30
0.0
 10
-52.8480872776345
 20
0.1777797785004651
 30
0.0
 10
-52.86771366863491
 20
0.1777797785004651
 30
0.0
 10
-52.89425069083639
 20
0.2156519127968372
 30
0.0
 10
-52.89187633661809
 20
0.2351341525486501
 30
0.0
 10
-52.88950198239979
 20
0.2546163923004627
 30
0.0
  0
SPLINE
  5
72
330
1F
100
AcDbEntity
  8
Layer 04
100
AcDbSpline
210
0.0
220
0.0
230
1.0
 70
    24
 71
     2
 72
     6
 73
     3
 74
     0
 42
0.0000000001
 43
0.0000000001
 40
0.0
 40
0.0
 40
0.0
 40
1.0
 40
1.0
 40
1.0
 10
-51.58174664729977
 20
0.1777797785004651
 30
0.0
 10
-52.20510376696692
 20
0.1777797785004651
 30
0.0
 10
-52.82846088663408
 20
0.1777797785004651
 30
0.0
  0
SPLINE
  5
73
330
1F
100
AcDbEntity
  8
Layer 04
100
AcDbSpline
210
0.0
220
0.0
230
1.0
 70
     8
 71
     5
 72
    12
 73
     6
 74
     0
 42
0.0000000001
 43
0.0000000001
 40
0.0
 40
0.0
 40
0.0
 40
0.0
 40
0.0
 40
0.0
 40
1.0
 40
1.0
 40
1.0
 40
1.0
 40
1.0
 40
1.0
 10
-51.52741129359978
 20
0.2359548678004657
 30
0.0
 10
-51.52986128800124
 20
0.2202238667355791
 30
0.0
 10
-51.53231128240271
 20
0.2044928656706924
 30
0.0
 10
-51.5499053617057
 20
0.1777797785004651
 30
0.0
 10
-51.56582600450274
 20
0.1777797785004651
 30
0.0
 10
-51.58174664729977
 20
0.1777797785004651
 30
0.0
  0
SPLINE
  5
74
330
1F
100
AcDbEntity
  8
Layer 04
100
AcDbSpline
210
0.0
220
0.0
230
1.0
 70
    24
 71
     2
 72
     6
 73
     3
 74
     0
 42
0.0000000001
 43
0.0000000001
 40
0.0
 40
0.0
 40
0.0
 40
1.0
 40
1.0
 40
1.0
 10
-50.0019406886851
 20
10.03074447875589
 30
0.0
 10
-50.76467599114244
 20
5.133349673278175
 30
0.0
 10
-51.52741129359978
 20
0.2359548678004657
 30
0.0
  0
SPLINE
  5
75
330
1F
100
AcDbEntity
  8
Layer 04
100
AcDbSpline
210
0.0
220
0.0
230
1.0
 70
     8
 71
     5
 72
    12
 73
     6
 74
     0
 42
0.0000000001
 43
0.0000000001
 40
0.0
 40
0.0
 40
0.0
 40
0.0
 40
0.0
 40
0.0
 40
1.0
 40
1.0
 40
1.0
 40
1.0
 40
1.0
 40
1.0
 10
-48.84521504479977
 20
11.07100000000047
 30
0.0
 10
-49.15635139849067
 20
11.07100000000047
 30
0.0
 10
-49.46748775218158
 20
11.07100000000047
 30
0.0
 10
-49.90618044403255
 20
10.64560486770313
 30
0.0
 10
-49.95406056635883
 20
10.33817467322952
 30
0.0
 10
-50.0019406886851
 20
10.03074447875589
 30
0.0
  0
SPLINE
  5
76
330
1F
100
AcDbEntity
  8
Layer 04
100
AcDbSpline
210
0.0
220
0.0
230
1.0
 70
    24
 71
     2
 72
     6
 73
     3
 74
     0
 42
0.0000000001
 43
0.0000000001
 40
0.0
 40
0.0
 40
0.0
 40
0.8252150447999895
 40
0.8252150447999895
 40
0.8252150447999895
 10
-48.01999999999978
 20
11.07100000000047
 30
0.0
 10
-48.43260752239978
 20
11.07100000000047
 30
0.0
 10
-48.84521504479977
 20
11.07100000000047
 30
0.0
  0
SPLINE
  5
77
330
1F
100
AcDbEntity
  8
Layer 04
  6
Continuous
100
AcDbSpline
210
0.0
220
0.0
230
1.0
 70
    12
 71
     2
 72
     8
 73
     5
 74
     0
 42
0.0000000001
 43
0.0000000001
 40
0.0
 40
0.0
 40
0.0
 40
0.1237889725417989
 40
0.1237889725417989
 40
0.2475779450835977
 40
0.2475779450835977
 40
0.2475779450835977
 10
-51.62355725789978
 20
-0.0000000000995383
 30
0.0
 41
1.0
 10
-51.55077122467486
 20
-0.0000000000995383
 30
0.0
 41
0.7899418936709716
 10
-51.53271909541719
 20
0.070511894371418
 30
0.0
 41
1.0
 10
-51.51466696615952
 20
0.1410237888423743
 30
0.0
 41
0.7899418936709716
 10
-51.57849855149666
 20
0.1759999999860548
 30
0.0
 41
1.0
  0
SPLINE
  5
78
330
1F
100
AcDbEntity
  8
Layer 04
  6
Continuous
100
AcDbSpline
210
0.0
220
0.0
230
1.0
 70
    24
 71
     2
 72
     6
 73
     3
 74
     0
 42
0.0000000001
 43
0.0000000001
 40
0.0
 40
0.0
 40
0.0
 40
1.209882587199978
 40
1.209882587199978
 40
1.209882587199978
 10
-52.83343984509976
 20
-0.0000000000995383
 30
0.0
 10
-52.22849855149978
 20
-0.0000000000995383
 30
0.0
 10
-51.62355725789978
 20
-0.0000000000995383
 30
0.0
  0
SPLINE
  5
79
330
1F
100
AcDbEntity
  8
Layer 04
  6
Continuous
100
AcDbSpline
210
0.0
220
0.0
230
1.0
 70
    12
 71
     2
 72
     8
 73
     5
 74
     0
 42
0.0000000001
 43
0.0000000001
 40
0.0
 40
0.0
 40
0.0
 40
0.1237889725418018
 40
0.1237889725418018
 40
0.2475779450836037
 40
0.2475779450836037
 40
0.2475779450836037
 10
-52.87849855150289
 20
0.1759999999860545
 30
0.0
 41
1.0
 10
-52.94233013684002
 20
0.1410237888423722
 30
0.0
 41
0.7899418936709618
 10
-52.92427800758235
 20
0.0705118943714143
 30
0.0
 41
1.0
 10
-52.90622587832468
 20
-0.0000000000995436
 30
0.0
 41
0.7899418936709618
 10
-52.83343984509976
 20
-0.0000000000995383
 30
0.0
 41
1.0
  0
LINE
  5
7B
330
1F
100
AcDbEntity
  8
Default
100
AcDbLine
 10
81.0
 20
11.06599999999968
 30
0.0
 11
107.0
 21
11.06599999999968
 31
0.0
  0
LINE
  5
7C
330
1F
100
AcDbEntity
  8
Default
100
AcDbLine
 10
-47.99999999999999
 20
11.06600000000024
 30
0.0
 11
48.00000000000001
 21
11.06600000000024
 31
0.0
  0
LINE
  5
7D
330
1F
100
AcDbEntity
  8
Layer 04
  6
Continuous
100
AcDbLine
 10
69.0
 20
14.31600000000001
 30
0.0
 11
69.0
 21
14.81600000000001
 31
0.0
  0
LINE
  5
7E
330
1F
100
AcDbEntity
  8
Layer 04
  6
Continuous
100
AcDbLine
 10
69.0
 20
14.31600000000001
 30
0.0
 11
69.0
 21
14.81600000000001
 31
0.0
  0
LINE
  5
7F
330
1F
100
AcDbEntity
  8
Layer 04
  6
Continuous
100
AcDbLine
 10
70.164
 20
13.81600000000001
 30
0.0
 11
69.0
 21
14.31600000000001
 31
0.0
  0
LINE
  5
80
330
1F
100
AcDbEntity
  8
Layer 04
  6
Continuous
100
AcDbLine
 10
117.836
 20
13.81600000000001
 30
0.0
 11
119.0
 21
14.31600000000001
 31
0.0
  0
LINE
  5
81
330
1F
100
AcDbEntity
  8
Layer 04
  6
Continuous
100
AcDbLine
 10
117.836
 20
13.81600000000001
 30
0.0
 11
70.164
 21
13.81600000000001
 31
0.0
  0
LINE
  5
82
330
1F
100
AcDbEntity
  8
Layer 04
  6
Continuous
100
AcDbLine
 10
119.0
 20
14.31600000000001
 30
0.0
 11
69.0
 21
14.31600000000001
 31
0.0
  0
LINE
  5
83
330
1F
100
AcDbEntity
  8
Layer 04
  6
Continuous
100
AcDbLine
 10
119.0
 20
14.31600000000001
 30
0.0
 11
119.0
 21
14.81600000000001
 31
0.0
  0
POLYLINE
  5
84
330
1F
100
AcDbEntity
  8
Layer 04
100
AcDb2dPolyline
 66
     1
 10
0.0
 20
0.0
 30
0.0
  0
VERTEX
  5
85
330
84
100
AcDbEntity
  8
Layer 04
100
AcDbVertex
100
AcDb2dVertex
 10
69.0
 20
14.81600000000001
 30
0.0
  0
VERTEX
  5
86
330
84
100
AcDbEntity
  8
Layer 04
100
AcDbVertex
100
AcDb2dVertex
 10
119.0
 20
14.81600000000001
 30
0.0
  0
SEQEND
  5
87
330
84
100
AcDbEntity
  8
Layer 04
  0
SPLINE
  5
88
330
1F
100
AcDbEntity
  8
Layer 04
  6
Continuous
100
AcDbSpline
210
0.0
220
0.0
230
1.0
 70
    12
 71
     2
 72
     6
 73
     3
 74
     0
 42
0.0000000001
 43
0.0000000001
 40
0.0
 40
0.0
 40
0.0
 40
38.98740005889032
 40
38.98740005889032
 40
38.98740005889032
 10
-11.11789473684104
 20
79.81600000000014
 30
0.0
 41
1.0
 10
-31.65220096330129
 20
79.81600000000002
 30
0.0
 41
0.9989322283044358
 10
-52.09885020967459
 20
78.01543875832049
 30
0.0
 41
1.0
  0
LINE
  5
89
330
1F
100
AcDbEntity
  8
Layer 04
  6
Continuous
100
AcDbLine
 10
11.11789473684621
 20
79.81600000000017
 30
0.0
 11
-11.11789473684104
 21
79.81600000000014
 31
0.0
  0
SPLINE
  5
8A
330
1F
100
AcDbEntity
  8
Layer 04
  6
Continuous
100
AcDbSpline
210
0.0
220
0.0
230
1.0
 70
    12
 71
     2
 72
     6
 73
     3
 74
     0
 42
0.0000000001
 43
0.0000000001
 40
0.0
 40
0.0
 40
0.0
 40
38.98740005894175
 40
38.98740005894175
 40
38.98740005894175
 10
52.09885020973254
 20
78.01543875829793
 30
0.0
 41
1.0
 10
31.65220096333389
 20
79.81599999999999
 30
0.0
 41
0.9989322283044119
 10
11.11789473684621
 20
79.81600000000017
 30
0.0
 41
1.0
  0
SPLINE
  5
8B
330
1F
100
AcDbEntity
  8
Layer 04
  6
Continuous
100
AcDbSpline
210
0.0
220
0.0
230
1.0
 70
    12
 71
     2
 72
     6
 73
     3
 74
     0
 42
0.0000000001
 43
0.0000000001
 40
0.0
 40
0.0
 40
0.0
 40
7.23732763284935
 40
7.23732763284935
 40
7.23732763284935
 10
57.59924946428273
 20
73.65382840389138
 30
0.0
 41
1.0
 10
56.43004890628506
 20
77.63402719259723
 30
0.0
 41
0.8235752275032283
 10
52.09885020962447
 20
78.01543875834271
 30
0.0
 41
1.0
  0
SPLINE
  5
8C
330
1F
100
AcDbEntity
  8
Layer 04
  6
Continuous
100
AcDbSpline
210
0.0
220
0.0
230
1.0
 70
    12
 71
     2
 72
     6
 73
     3
 74
     0
 42
0.0000000001
 43
0.0000000001
 40
0.0
 40
0.0
 40
0.0
 40
16.86497068454866
 40
16.86497068454866
 40
16.86497068454866
 10
60.00000000000274
 20
56.99626315790014
 30
0.0
 41
1.0
 10
60.00000000000274
 20
65.48118059868891
 30
0.0
 41
0.9907565523487986
 10
57.59924946428274
 20
73.65382840389138
 30
0.0
 41
1.0
  0
LINE
  5
8D
330
1F
100
AcDbEntity
  8
Layer 04
  6
Continuous
100
AcDbLine
 10
60.00000000000271
 20
52.63573684210039
 30
0.0
 11
60.00000000000274
 21
56.99626315790014
 31
0.0
  0
SPLINE
  5
8E
330
1F
100
AcDbEntity
  8
Layer 04
  6
Continuous
100
AcDbSpline
210
0.0
220
0.0
230
1.0
 70
    12
 71
     2
 72
     6
 73
     3
 74
     0
 42
0.0000000001
 43
0.0000000001
 40
0.0
 40
0.0
 40
0.0
 40
16.86497068454888
 40
16.86497068454888
 40
16.86497068454888
 10
57.59924946428276
 20
35.97817159610895
 30
0.0
 41
1.0
 10
60.00000000000279
 20
44.15081940131152
 30
0.0
 41
0.9907565523487979
 10
60.00000000000271
 20
52.63573684210039
 30
0.0
 41
1.0
  0
SPLINE
  5
8F
330
1F
100
AcDbEntity
  8
Layer 04
  6
Continuous
100
AcDbSpline
210
0.0
220
0.0
230
1.0
 70
    12
 71
     2
 72
     6
 73
     3
 74
     0
 42
0.0000000001
 43
0.0000000001
 40
0.0
 40
0.0
 40
0.0
 40
7.237327632790245
 40
7.237327632790245
 40
7.237327632790245
 10
52.098850209677
 20
31.6165612416797
 30
0.0
 41
1.0
 10
56.43004890629596
 20
31.99797280743971
 30
0.0
 41
0.823575227504465
 10
57.59924946428276
 20
35.97817159610896
 30
0.0
 41
1.0
  0
SPLINE
  5
90
330
1F
100
AcDbEntity
  8
Layer 04
  6
Continuous
100
AcDbSpline
210
0.0
220
0.0
230
1.0
 70
    12
 71
     2
 72
     6
 73
     3
 74
     0
 42
0.0000000001
 43
0.0000000001
 40
0.0
 40
0.0
 40
0.0
 40
38.98740005889
 40
38.98740005889
 40
38.98740005889
 10
11.11789473684361
 20
29.81599999999997
 30
0.0
 41
1.0
 10
31.65220096330379
 20
29.81599999999998
 30
0.0
 41
0.9989322283044354
 10
52.098850209677
 20
31.61656124167968
 30
0.0
 41
1.0
  0
LINE
  5
91
330
1F
100
AcDbEntity
  8
Layer 04
  6
Continuous
100
AcDbLine
 10
-11.11789473684366
 20
29.81599999999997
 30
0.0
 11
11.11789473684361
 21
29.81599999999997
 31
0.0
  0
SPLINE
  5
92
330
1F
100
AcDbEntity
  8
Layer 04
  6
Continuous
100
AcDbSpline
210
0.0
220
0.0
230
1.0
 70
    12
 71
     2
 72
     6
 73
     3
 74
     0
 42
0.0000000001
 43
0.0000000001
 40
0.0
 40
0.0
 40
0.0
 40
38.98740005888895
 40
38.98740005888895
 40
38.98740005888895
 10
-52.09885020967577
 20
31.61656124167983
 30
0.0
 41
1.0
 10
-31.65220096330322
 20
29.81599999999993
 30
0.0
 41
0.998932228304435
 10
-11.11789473684366
 20
29.81599999999997
 30
0.0
 41
1.0
  0
SPLINE
  5
93
330
1F
100
AcDbEntity
  8
Layer 04
  6
Continuous
100
AcDbSpline
210
0.0
220
0.0
230
1.0
 70
    12
 71
     2
 72
     6
 73
     3
 74
     0
 42
0.0000000001
 43
0.0000000001
 40
0.0
 40
0.0
 40
0.0
 40
7.23732763278874
 40
7.23732763278874
 40
7.23732763278874
 10
-57.59924946427998
 20
35.97817159610881
 30
0.0
 41
1.0
 10
-56.43004890629341
 20
31.9979728074407
 30
0.0
 41
0.8235752275045368
 10
-52.09885020967577
 20
31.61656124167985
 30
0.0
 41
1.0
  0
SPLINE
  5
94
330
1F
100
AcDbEntity
  8
Layer 04
  6
Continuous
100
AcDbSpline
210
0.0
220
0.0
230
1.0
 70
    12
 71
     2
 72
     6
 73
     3
 74
     0
 42
0.0000000001
 43
0.0000000001
 40
0.0
 40
0.0
 40
0.0
 40
16.86497068454871
 40
16.86497068454871
 40
16.86497068454871
 10
-59.99999999999999
 20
52.63573684210009
 30
0.0
 41
1.0
 10
-60.00000000000001
 20
44.15081940131132
 30
0.0
 41
0.9907565523487984
 10
-57.59924946427997
 20
35.97817159610881
 30
0.0
 41
1.0
  0
LINE
  5
95
330
1F
100
AcDbEntity
  8
Layer 04
  6
Continuous
100
AcDbLine
 10
-60.0
 20
56.99626315789978
 30
0.0
 11
-59.99999999999999
 21
52.63573684210009
 31
0.0
  0
SPLINE
  5
96
330
1F
100
AcDbEntity
  8
Layer 04
  6
Continuous
100
AcDbSpline
210
0.0
220
0.0
230
1.0
 70
    12
 71
     2
 72
     6
 73
     3
 74
     0
 42
0.0000000001
 43
0.0000000001
 40
0.0
 40
0.0
 40
0.0
 40
16.86497068454887
 40
16.86497068454887
 40
16.86497068454887
 10
-57.59924946428004
 20
73.6538284038912
 30
0.0
 41
1.0
 10
-59.99999999999999
 20
65.48118059868864
 30
0.0
 41
0.9907565523487992
 10
-60.0
 20
56.99626315789978
 30
0.0
 41
1.0
  0
SPLINE
  5
97
330
1F
100
AcDbEntity
  8
Layer 04
  6
Continuous
100
AcDbSpline
210
0.0
220
0.0
230
1.0
 70
    12
 71
     2
 72
     6
 73
     3
 74
     0
 42
0.0000000001
 43
0.0000000001
 40
0.0
 40
0.0
 40
0.0
 40
7.237327632790144
 40
7.237327632790144
 40
7.237327632790144
 10
-52.09885020967459
 20
78.0154387583205
 30
0.0
 41
1.0
 10
-56.43004890629334
 20
77.6340271925603
 30
0.0
 41
0.8235752275044766
 10
-57.59924946428004
 20
73.6538284038912
 30
0.0
 41
1.0
  0
SPLINE
  5
98
330
1F
100
AcDbEntity
  8
Layer 04
  6
Continuous
100
AcDbSpline
210
0.0
220
0.0
230
1.0
 70
    24
 71
     2
 72
     6
 73
     3
 74
     0
 42
0.0000000001
 43
0.0000000001
 40
0.0
 40
0.0
 40
0.0
 40
0.5
 40
0.5
 40
0.5
 10
-59.99999999999999
 20
14.31600000000001
 30
0.0
 10
-59.99999999999999
 20
14.56600000000001
 30
0.0
 10
-59.99999999999999
 20
14.81600000000001
 30
0.0
  0
SPLINE
  5
99
330
1F
100
AcDbEntity
  8
Layer 04
  6
Continuous
100
AcDbSpline
210
0.0
220
0.0
230
1.0
 70
    24
 71
     2
 72
     6
 73
     3
 74
     0
 42
0.0000000001
 43
0.0000000001
 40
0.0
 40
0.0
 40
0.0
 40
0.5
 40
0.5
 40
0.5
 10
-59.99999999999999
 20
14.31600000000001
 30
0.0
 10
-59.99999999999999
 20
14.56600000000001
 30
0.0
 10
-59.99999999999999
 20
14.81600000000001
 30
0.0
  0
SPLINE
  5
9A
330
1F
100
AcDbEntity
  8
Layer 04
  6
Continuous
100
AcDbSpline
210
0.0
220
0.0
230
1.0
 70
    24
 71
     2
 72
     6
 73
     3
 74
     0
 42
0.0000000001
 43
0.0000000001
 40
0.0
 40
0.0
 40
0.0
 40
1.26684489974108
 40
1.26684489974108
 40
1.26684489974108
 10
-58.836
 20
13.81600000000001
 30
0.0
 10
-59.41799999999999
 20
14.06600000000001
 30
0.0
 10
-59.99999999999999
 20
14.31600000000001
 30
0.0
  0
SPLINE
  5
9B
330
1F
100
AcDbEntity
  8
Layer 04
  6
Continuous
100
AcDbSpline
210
0.0
220
0.0
230
1.0
 70
    24
 71
     2
 72
     6
 73
     3
 74
     0
 42
0.0000000001
 43
0.0000000001
 40
0.0
 40
0.0
 40
0.0
 40
1.266844899741074
 40
1.266844899741074
 40
1.266844899741074
 10
58.83600000000001
 20
13.81600000000001
 30
0.0
 10
59.41800000000001
 20
14.06600000000001
 30
0.0
 10
60.0
 20
14.31600000000001
 30
0.0
  0
SPLINE
  5
9C
330
1F
100
AcDbEntity
  8
Layer 04
  6
Continuous
100
AcDbSpline
210
0.0
220
0.0
230
1.0
 70
    24
 71
     2
 72
     6
 73
     3
 74
     0
 42
0.0000000001
 43
0.0000000001
 40
0.0
 40
0.0
 40
0.0
 40
0.5
 40
0.5
 40
0.5
 10
60.0
 20
14.31600000000001
 30
0.0
 10
60.0
 20
14.56600000000001
 30
0.0
 10
60.0
 20
14.81600000000001
 30
0.0
  0
SPLINE
  5
9D
330
1F
100
AcDbEntity
  8
Layer 04
  6
Continuous
100
AcDbSpline
210
0.0
220
0.0
230
1.0
 70
    24
 71
     2
 72
     6
 73
     3
 74
     0
 42
0.0000000001
 43
0.0000000001
 40
0.0
 40
0.0
 40
0.0
 40
111.672
 40
111.672
 40
111.672
 10
58.83600000000001
 20
13.81600000000001
 30
0.0
 10
0.0000000000000071
 20
13.81600000000001
 30
0.0
 10
-58.836
 20
13.81600000000001
 30
0.0
  0
SPLINE
  5
9E
330
1F
100
AcDbEntity
  8
Layer 04
  6
Continuous
100
AcDbSpline
210
0.0
220
0.0
230
1.0
 70
    24
 71
     2
 72
     6
 73
     3
 74
     0
 42
0.0000000001
 43
0.0000000001
 40
0.0
 40
0.0
 40
0.0
 40
114.0
 40
114.0
 40
114.0
 10
60.0
 20
14.31600000000001
 30
0.0
 10
0.0000000000000036
 20
14.31600000000001
 30
0.0
 10
-59.99999999999999
 20
14.31600000000001
 30
0.0
  0
SPLINE
  5
9F
330
1F
100
AcDbEntity
  8
Layer 04
100
AcDbSpline
210
0.0
220
0.0
230
1.0
 70
    24
 71
     2
 72
     6
 73
     3
 74
     0
 42
0.0000000001
 43
0.0000000001
 40
0.0
 40
0.0
 40
0.0
 40
1.0
 40
1.0
 40
1.0
 10
-59.99999999999999
 20
14.81600000000001
 30
0.0
 10
0.0000000000000036
 20
14.81600000000001
 30
0.0
 10
60.0
 20
14.81600000000001
 30
0.0
  0
ENDSEC
  0
SECTION
  2
OBJECTS
  0
DICTIONARY
  5
C
330
0
100
AcDbDictionary
281
     1
  3
ACAD_GROUP
350
D
  3
ACAD_LAYOUT
350
1A
  3
ACAD_MLEADERSTYLE
350
A1
  3
ACAD_MLINESTYLE
350
17
  3
ACAD_PLOTSETTINGS
350
19
  3
ACAD_PLOTSTYLENAME
350
E
  3
ACAD_TABLESTYLE
350
A0
  3
ACAD_VISUALSTYLE
350
2A
  0
DICTIONARY
  5
D
102
{ACAD_REACTORS
330
C
102
}
330
C
100
AcDbDictionary
281
     1
  0
DICTIONARY
  5
1A
102
{ACAD_REACTORS
330
C
102
}
330
C
100
AcDbDictionary
281
     1
  3
Layout1
350
1E
  3
Layout2
350
26
  3
Model
350
22
  0
DICTIONARY
  5
A1
102
{ACAD_REACTORS
330
C
102
}
330
C
100
AcDbDictionary
281
     1
  0
DICTIONARY
  5
17
102
{ACAD_REACTORS
330
C
102
}
330
C
100
AcDbDictionary
281
     1
  3
Standard
350
18
  0
DICTIONARY
  5
19
102
{ACAD_REACTORS
330
C
102
}
330
C
100
AcDbDictionary
281
     1
  0
ACDBDICTIONARYWDFLT
  5
E
102
{ACAD_REACTORS
330
C
102
}
330
C
100
AcDbDictionary
281
     1
  3
Normal
350
F
100
AcDbDictionaryWithDefault
340
F
  0
DICTIONARY
  5
A0
102
{ACAD_REACTORS
330
C
102
}
330
C
100
AcDbDictionary
281
     1
  0
DICTIONARY
  5
2A
102
{ACAD_REACTORS
330
C
102
}
330
C
100
AcDbDictionary
281
     1
  3
2dWireframe
350
2F
  3
3D Hidden
350
31
  3
3dWireframe
350
30
  3
Basic
350
32
  3
Brighten
350
36
  3
ColorChange
350
3A
  3
Conceptual
350
34
  3
Dim
350
35
  3
Facepattern
350
39
  3
Flat
350
2B
  3
FlatWithEdges
350
2C
  3
Gouraud
350
2D
  3
GouraudWithEdges
350
2E
  3
Linepattern
350
38
  3
Realistic
350
33
  3
Thicken
350
37
  0
LAYOUT
  5
1E
102
{ACAD_REACTORS
330
1A
102
}
330
1A
100
AcDbPlotSettings
  1

  2
none_device
  4

  6

 40
0.0
 41
0.0
 42
0.0
 43
0.0
 44
0.0
 45
0.0
 46
0.0
 47
0.0
 48
0.0
 49
0.0
140
0.0
141
0.0
142
1.0
143
1.0
 70
   688
 72
     0
 73
     0
 74
     5
  7

 75
    16
 76
     0
 77
     2
 78
   300
147
1.0
148
0.0
149
0.0
100
AcDbLayout
  1
Layout1
 70
     1
 71
     1
 10
0.0
 20
0.0
 11
12.0
 21
9.0
 12
0.0
 22
0.0
 32
0.0
 14
1.000000000000000E+20
 24
1.000000000000000E+20
 34
1.000000000000000E+20
 15
-1.000000000000000E+20
 25
-1.000000000000000E+20
 35
-1.000000000000000E+20
146
0.0
 13
0.0
 23
0.0
 33
0.0
 16
1.0
 26
0.0
 36
0.0
 17
0.0
 27
1.0
 37
0.0
 76
     0
330
1B
  0
LAYOUT
  5
26
102
{ACAD_REACTORS
330
1A
102
}
330
1A
100
AcDbPlotSettings
  1

  2
none_device
  4

  6

 40
0.0
 41
0.0
 42
0.0
 43
0.0
 44
0.0
 45
0.0
 46
0.0
 47
0.0
 48
0.0
 49
0.0
140
0.0
141
0.0
142
1.0
143
1.0
 70
   688
 72
     0
 73
     0
 74
     5
  7

 75
    16
 76
     0
 77
     2
 78
   300
147
1.0
148
0.0
149
0.0
100
AcDbLayout
  1
Layout2
 70
     1
 71
     2
 10
0.0
 20
0.0
 11
0.0
 21
0.0
 12
0.0
 22
0.0
 32
0.0
 14
0.0
 24
0.0
 34
0.0
 15
0.0
 25
0.0
 35
0.0
146
0.0
 13
0.0
 23
0.0
 33
0.0
 16
1.0
 26
0.0
 36
0.0
 17
0.0
 27
1.0
 37
0.0
 76
     0
330
23
  0
LAYOUT
  5
22
102
{ACAD_REACTORS
330
1A
102
}
330
1A
100
AcDbPlotSettings
  1

  2
none_device
  4

  6

 40
0.0
 41
0.0
 42
0.0
 43
0.0
 44
0.0
 45
0.0
 46
0.0
 47
0.0
 48
0.0
 49
0.0
140
0.0
141
0.0
142
1.0
143
1.0
 70
  1712
 72
     0
 73
     0
 74
     0
  7

 75
     0
 76
     0
 77
     2
 78
   300
147
1.0
148
0.0
149
0.0
100
AcDbLayout
  1
Model
 70
     1
 71
     0
 10
0.0
 20
0.0
 11
12.0
 21
9.0
 12
0.0
 22
0.0
 32
0.0
 14
-60.0
 24
-0.0050000001005498
 34
0.0
 15
119.0
 25
79.81600000000019
 35
0.0
146
0.0
 13
0.0
 23
0.0
 33
0.0
 16
1.0
 26
0.0
 36
0.0
 17
0.0
 27
1.0
 37
0.0
 76
     0
330
1F
331
29
  0
MLINESTYLE
  5
18
102
{ACAD_REACTORS
330
17
102
}
330
17
100
AcDbMlineStyle
  2
Standard
 70
     0
  3

 62
   256
 51
90.0
 52
90.0
 71
     2
 49
0.5
 62
   256
  6
BYLAYER
 49
-0.5
 62
   256
  6
BYLAYER
  0
ACDBPLACEHOLDER
  5
F
102
{ACAD_REACTORS
330
E
102
}
330
E
  0
VISUALSTYLE
  5
2F
102
{ACAD_REACTORS
330
2A
102
}
330
2A
100
AcDbVisualStyle
  2
2dWireframe
 70
     4
 71
     0
 72
     2
 73
     0
 90
        0
 40
-0.6
 41
-30.0
 62
     5
 63
     7
421
 16777215
 74
     1
 91
        4
 64
     7
 65
   257
 75
     1
175
     1
 42
1.0
 92
        0
 66
   257
 43
1.0
 76
     1
 77
     6
 78
     2
 67
     7
 79
     5
170
     0
171
     0
290
     0
174
     0
 93
        1
 44
0.0
173
     0
291
     0
 45
0.0
1001
ACAD
1000
AcDbSavedByObjectVersion
1070
     0
  0
VISUALSTYLE
  5
31
102
{ACAD_REACTORS
330
2A
102
}
330
2A
100
AcDbVisualStyle
  2
3D Hidden
 70
     6
 71
     1
 72
     2
 73
     2
 90
        0
 40
-0.6
 41
-30.0
 62
     5
 63
     7
421
 16777215
 74
     2
 91
        2
 64
     7
 65
   257
 75
     2
175
     1
 42
40.0
 92
        0
 66
   257
 43
1.0
 76
     1
 77
     6
 78
     2
 67
     7
 79
     3
170
     0
171
     0
290
     0
174
     0
 93
        1
 44
0.0
173
     0
291
     0
 45
0.0
1001
ACAD
1000
AcDbSavedByObjectVersion
1070
     0
  0
VISUALSTYLE
  5
30
102
{ACAD_REACTORS
330
2A
102
}
330
2A
100
AcDbVisualStyle
  2
3dWireframe
 70
     5
 71
     0
 72
     2
 73
     0
 90
        0
 40
-0.6
 41
-30.0
 62
     5
 63
     7
421
 16777215
 74
     1
 91
        4
 64
     7
 65
   257
 75
     1
175
     1
 42
1.0
 92
        0
 66
   257
 43
1.0
 76
     1
 77
     6
 78
     2
 67
     7
 79
     5
170
     0
171
     0
290
     0
174
     0
 93
        1
 44
0.0
173
     0
291
     0
 45
0.0
1001
ACAD
1000
AcDbSavedByObjectVersion
1070
     0
  0
VISUALSTYLE
  5
32
102
{ACAD_REACTORS
330
2A
102
}
330
2A
100
AcDbVisualStyle
  2
Basic
 70
     7
 71
     1
 72
     0
 73
     1
 90
        0
 40
-0.6
 41
-30.0
 62
     5
 63
     7
421
 16777215
 74
     0
 91
        4
 64
     7
 65
   257
 75
     1
175
     1
 42
1.0
 92
        8
 66
     7
 43
1.0
 76
     1
 77
     6
 78
     2
 67
     7
 79
     5
170
     0
171
     0
290
     0
174
     0
 93
        1
 44
0.0
173
     0
291
     1
 45
0.0
1001
ACAD
1000
AcDbSavedByObjectVersion
1070
     0
  0
VISUALSTYLE
  5
36
102
{ACAD_REACTORS
330
2A
102
}
330
2A
100
AcDbVisualStyle
  2
Brighten
 70
    12
 71
     2
 72
     2
 73
     0
 90
        0
 40
-0.6
 41
-30.0
 62
     5
 63
     7
421
 16777215
 74
     1
 91
        4
 64
     7
 65
   257
 75
     1
175
     1
 42
1.0
 92
        8
 66
     7
 43
1.0
 76
     1
 77
     6
 78
     2
 67
     7
 79
     5
170
     0
171
     0
290
     0
174
     0
 93
        1
 44
50.0
173
     0
291
     1
 45
0.0
1001
ACAD
1000
AcDbSavedByObjectVersion
1070
     0
  0
VISUALSTYLE
  5
3A
102
{ACAD_REACTORS
330
2A
102
}
330
2A
100
AcDbVisualStyle
  2
ColorChange
 70
    16
 71
     2
 72
     2
 73
     3
 90
        0
 40
-0.6
 41
-30.0
 62
     5
 63
     8
421
  8421504
 74
     1
 91
        4
 64
     7
 65
   257
 75
     1
175
     1
 42
1.0
 92
        8
 66
     8
424
  8421504
 43
1.0
 76
     1
 77
     6
 78
     2
 67
     7
 79
     5
170
     0
171
     0
290
     0
174
     0
 93
        1
 44
0.0
173
     0
291
     1
 45
0.0
1001
ACAD
1000
AcDbSavedByObjectVersion
1070
     0
  0
VISUALSTYLE
  5
34
102
{ACAD_REACTORS
330
2A
102
}
330
2A
100
AcDbVisualStyle
  2
Conceptual
 70
     9
 71
     3
 72
     2
 73
     0
 90
        0
 40
-0.6
 41
-30.0
 62
     5
 63
     7
421
 16777215
 74
     2
 91
        2
 64
     7
 65
   257
 75
     1
175
     1
 42
40.0
 92
        8
 66
     7
 43
1.0
 76
     1
 77
     6
 78
     2
 67
     7
 79
     3
170
     0
171
     0
290
     0
174
     0
 93
        1
 44
0.0
173
     0
291
     0
 45
0.0
1001
ACAD
1000
AcDbSavedByObjectVersion
1070
     0
  0
VISUALSTYLE
  5
35
102
{ACAD_REACTORS
330
2A
102
}
330
2A
100
AcDbVisualStyle
  2
Dim
 70
    11
 71
     2
 72
     2
 73
     0
 90
        0
 40
-0.6
 41
-30.0
 62
     5
 63
     7
421
 16777215
 74
     1
 91
        4
 64
     7
 65
   257
 75
     1
175
     1
 42
1.0
 92
        8
 66
     7
 43
1.0
 76
     1
 77
     6
 78
     2
 67
     7
 79
     5
170
     0
171
     0
290
     0
174
     0
 93
        1
 44
-50.0
173
     0
291
     1
 45
0.0
1001
ACAD
1000
AcDbSavedByObjectVersion
1070
     0
  0
VISUALSTYLE
  5
39
102
{ACAD_REACTORS
330
2A
102
}
330
2A
100
AcDbVisualStyle
  2
Facepattern
 70
    15
 71
     2
 72
     2
 73
     0
 90
        0
 40
-0.6
 41
-30.0
 62
     5
 63
     7
421
 16777215
 74
     1
 91
        4
 64
     7
 65
   257
 75
     1
175
     1
 42
1.0
 92
        8
 66
     7
 43
1.0
 76
     1
 77
     6
 78
     2
 67
     7
 79
     5
170
     0
171
     0
290
     0
174
     0
 93
        1
 44
0.0
173
     0
291
     1
 45
0.0
1001
ACAD
1000
AcDbSavedByObjectVersion
1070
     0
  0
VISUALSTYLE
  5
2B
102
{ACAD_REACTORS
330
2A
102
}
330
2A
100
AcDbVisualStyle
  2
Flat
 70
     0
 71
     2
 72
     1
 73
     1
 90
        2
 40
-0.6
 41
30.0
 62
     5
 63
     7
421
 16777215
 74
     0
 91
        4
 64
     7
 65
   257
 75
     1
175
     1
 42
1.0
 92
        8
 66
     7
 43
1.0
 76
     1
 77
     6
 78
     2
 67
     7
 79
     5
170
     0
171
     0
290
     0
174
     0
 93
       13
 44
0.0
173
     0
291
     1
 45
0.0
1001
ACAD
1000
AcDbSavedByObjectVersion
1070
     0
  0
VISUALSTYLE
  5
2C
102
{ACAD_REACTORS
330
2A
102
}
330
2A
100
AcDbVisualStyle
  2
FlatWithEdges
 70
     1
 71
     2
 72
     1
 73
     1
 90
        2
 40
-0.6
 41
30.0
 62
     5
 63
     7
421
 16777215
 74
     1
 91
        4
 64
     7
 65
   257
 75
     1
175
     1
 42
1.0
 92
        0
 66
   257
 43
1.0
 76
     1
 77
     6
 78
     2
 67
     7
 79
     5
170
     0
171
     0
290
     0
174
     0
 93
       13
 44
0.0
173
     0
291
     1
 45
0.0
1001
ACAD
1000
AcDbSavedByObjectVersion
1070
     0
  0
VISUALSTYLE
  5
2D
102
{ACAD_REACTORS
330
2A
102
}
330
2A
100
AcDbVisualStyle
  2
Gouraud
 70
     2
 71
     2
 72
     2
 73
     1
 90
        2
 40
-0.6
 41
30.0
 62
     5
 63
     7
421
 16777215
 74
     0
 91
        4
 64
     7
 65
   257
 75
     1
175
     1
 42
1.0
 92
        0
 66
     7
 43
1.0
 76
     1
 77
     6
 78
     2
 67
     7
 79
     5
170
     0
171
     0
290
     0
174
     0
 93
       13
 44
0.0
173
     0
291
     1
 45
0.0
1001
ACAD
1000
AcDbSavedByObjectVersion
1070
     0
  0
VISUALSTYLE
  5
2E
102
{ACAD_REACTORS
330
2A
102
}
330
2A
100
AcDbVisualStyle
  2
GouraudWithEdges
 70
     3
 71
     2
 72
     2
 73
     1
 90
        2
 40
-0.6
 41
30.0
 62
     5
 63
     7
421
 16777215
 74
     1
 91
        4
 64
     7
 65
   257
 75
     1
175
     1
 42
1.0
 92
        0
 66
   257
 43
1.0
 76
     1
 77
     6
 78
     2
 67
     7
 79
     5
170
     0
171
     0
290
     0
174
     0
 93
       13
 44
0.0
173
     0
291
     1
 45
0.0
1001
ACAD
1000
AcDbSavedByObjectVersion
1070
     0
  0
VISUALSTYLE
  5
38
102
{ACAD_REACTORS
330
2A
102
}
330
2A
100
AcDbVisualStyle
  2
Linepattern
 70
    14
 71
     2
 72
     2
 73
     0
 90
        0
 40
-0.6
 41
-30.0
 62
     5
 63
     7
421
 16777215
 74
     1
 91
        4
 64
     7
 65
   257
 75
     7
175
     7
 42
1.0
 92
        8
 66
     7
 43
1.0
 76
     1
 77
     6
 78
     2
 67
     7
 79
     5
170
     0
171
     0
290
     0
174
     0
 93
        1
 44
0.0
173
     0
291
     1
 45
0.0
1001
ACAD
1000
AcDbSavedByObjectVersion
1070
     0
  0
VISUALSTYLE
  5
33
102
{ACAD_REACTORS
330
2A
102
}
330
2A
100
AcDbVisualStyle
  2
Realistic
 70
     8
 71
     2
 72
     2
 73
     0
 90
        0
 40
-0.6
 41
-30.0
 62
     5
 63
     7
421
 16777215
 74
     1
 91
        0
 64
     7
 65
   257
 75
     1
175
     1
 42
1.0
 92
        8
 66
     8
424
  7895160
 43
1.0
 76
     1
 77
     6
 78
     2
 67
     7
 79
     5
170
     0
171
     0
290
     0
174
     0
 93
       13
 44
0.0
173
     0
291
     0
 45
0.0
1001
ACAD
1000
AcDbSavedByObjectVersion
1070
     0
  0
VISUALSTYLE
  5
37
102
{ACAD_REACTORS
330
2A
102
}
330
2A
100
AcDbVisualStyle
  2
Thicken
 70
    13
 71
     2
 72
     2
 73
     0
 90
        0
 40
-0.6
 41
-30.0
 62
     5
 63
     7
421
 16777215
 74
     1
 91
        4
 64
     7
 65
   257
 75
     1
175
     1
 42
1.0
 92
       12
 66
     7
 43
1.0
 76
     1
 77
     6
 78
     2
 67
     7
 79
     5
170
     0
171
     0
290
     0
174
     0
 93
        1
 44
0.0
173
     0
291
     1
 45
0.0
1001
ACAD
1000
AcDbSavedByObjectVersion
1070
     0
  0
ENDSEC
  0
EOF
