  0
SECTION
  2
HEADER
  9
$ACADVER
  1
AC1018
  9
$ACADMAINTVER
 70
     0
  9
$DWGCODEPAGE
  3
ANSI_1252
  9
$INSBASE
 10
0.0
 20
0.0
 30
0.0
  9
$EXTMIN
 10
-60.0
 20
-0.0049999999962778
 30
0.0
  9
$EXTMAX
 10
119.0
 20
90.81000000000009
 30
0.0
  9
$LIMMIN
 10
0.0
 20
0.0
  9
$LIMMAX
 10
12.0
 20
9.0
  9
$ORTHOMODE
 70
     0
  9
$REGENMODE
 70
     1
  9
$FILLMODE
 70
     1
  9
$QTEXTMODE
 70
     0
  9
$MIRRTEXT
 70
     1
  9
$LTSCALE
 40
0.0393700787401575
  9
$ATTMODE
 70
     1
  9
$TEXTSIZE
 40
0.2
  9
$TRACEWID
 40
0.05
  9
$TEXTSTYLE
  7
Standard
  9
$CLAYER
  8
Default
  9
$CELTYPE
  6
ByLayer
  9
$CECOLOR
 62
   256
  9
$CELTSCALE
 40
1.0
  9
$DISPSILH
 70
     0
  9
$DIMSCALE
 40
1.0
  9
$DIMASZ
 40
0.18
  9
$DIMEXO
 40
0.0625
  9
$DIMDLI
 40
0.38
  9
$DIMRND
 40
0.0
  9
$DIMDLE
 40
0.0
  9
$DIMEXE
 40
0.18
  9
$DIMTP
 40
0.0
  9
$DIMTM
 40
0.0
  9
$DIMTXT
 40
0.18
  9
$DIMCEN
 40
0.09
  9
$DIMTSZ
 40
0.0
  9
$DIMTOL
 70
     0
  9
$DIMLIM
 70
     0
  9
$DIMTIH
 70
     1
  9
$DIMTOH
 70
     1
  9
$DIMSE1
 70
     0
  9
$DIMSE2
 70
     0
  9
$DIMTAD
 70
     0
  9
$DIMZIN
 70
     0
  9
$DIMBLK
  1

  9
$DIMASO
 70
     1
  9
$DIMSHO
 70
     1
  9
$DIMPOST
  1

  9
$DIMAPOST
  1

  9
$DIMALT
 70
     0
  9
$DIMALTD
 70
     2
  9
$DIMALTF
 40
25.4
  9
$DIMLFAC
 40
1.0
  9
$DIMTOFL
 70
     0
  9
$DIMTVP
 40
0.0
  9
$DIMTIX
 70
     0
  9
$DIMSOXD
 70
     0
  9
$DIMSAH
 70
     0
  9
$DIMBLK1
  1

  9
$DIMBLK2
  1

  9
$DIMSTYLE
  2
Standard
  9
$DIMCLRD
 70
     0
  9
$DIMCLRE
 70
     0
  9
$DIMCLRT
 70
     0
  9
$DIMTFAC
 40
1.0
  9
$DIMGAP
 40
0.09
  9
$DIMJUST
 70
     0
  9
$DIMSD1
 70
     0
  9
$DIMSD2
 70
     0
  9
$DIMTOLJ
 70
     1
  9
$DIMTZIN
 70
     0
  9
$DIMALTZ
 70
     0
  9
$DIMALTTZ
 70
     0
  9
$DIMUPT
 70
     0
  9
$DIMDEC
 70
     4
  9
$DIMTDEC
 70
     4
  9
$DIMALTU
 70
     2
  9
$DIMALTTD
 70
     2
  9
$DIMTXSTY
  7
Standard
  9
$DIMAUNIT
 70
     0
  9
$DIMADEC
 70
     0
  9
$DIMALTRND
 40
0.0
  9
$DIMAZIN
 70
     0
  9
$DIMDSEP
 70
    46
  9
$DIMATFIT
 70
     3
  9
$DIMFRAC
 70
     0
  9
$DIMLDRBLK
  1

  9
$DIMLUNIT
 70
     2
  9
$DIMLWD
 70
    -2
  9
$DIMLWE
 70
    -2
  9
$DIMTMOVE
 70
     2
  9
$LUNITS
 70
     2
  9
$LUPREC
 70
     4
  9
$SKETCHINC
 40
0.1
  9
$FILLETRAD
 40
0.5
  9
$AUNITS
 70
     0
  9
$AUPREC
 70
     0
  9
$MENU
  1
.
  9
$ELEVATION
 40
0.0
  9
$PELEVATION
 40
0.0
  9
$THICKNESS
 40
0.0
  9
$LIMCHECK
 70
     0
  9
$CHAMFERA
 40
0.5
  9
$CHAMFERB
 40
0.5
  9
$CHAMFERC
 40
1.0
  9
$CHAMFERD
 40
0.0
  9
$SKPOLY
 70
     0
  9
$TDCREATE
 40
2456790.675891285
  9
$TDUCREATE
 40
2456790.842557951
  9
$TDUPDATE
 40
2456790.675891296
  9
$TDUUPDATE
 40
2456790.842557963
  9
$TDINDWG
 40
0.0000000116
  9
$TDUSRTIMER
 40
0.0000000116
  9
$USRTIMER
 70
     1
  9
$ANGBASE
 50
0.0
  9
$ANGDIR
 70
     0
  9
$PDMODE
 70
     0
  9
$PDSIZE
 40
0.0
  9
$PLINEWID
 40
0.0
  9
$SPLFRAME
 70
     0
  9
$SPLINETYPE
 70
     6
  9
$SPLINESEGS
 70
     8
  9
$HANDSEED
  5
B2
  9
$SURFTAB1
 70
     6
  9
$SURFTAB2
 70
     6
  9
$SURFTYPE
 70
     6
  9
$SURFU
 70
     6
  9
$SURFV
 70
     6
  9
$UCSBASE
  2

  9
$UCSNAME
  2

  9
$UCSORG
 10
0.0
 20
0.0
 30
0.0
  9
$UCSXDIR
 10
1.0
 20
0.0
 30
0.0
  9
$UCSYDIR
 10
0.0
 20
1.0
 30
0.0
  9
$UCSORTHOREF
  2

  9
$UCSORTHOVIEW
 70
     0
  9
$UCSORGTOP
 10
0.0
 20
0.0
 30
0.0
  9
$UCSORGBOTTOM
 10
0.0
 20
0.0
 30
0.0
  9
$UCSORGLEFT
 10
0.0
 20
0.0
 30
0.0
  9
$UCSORGRIGHT
 10
0.0
 20
0.0
 30
0.0
  9
$UCSORGFRONT
 10
0.0
 20
0.0
 30
0.0
  9
$UCSORGBACK
 10
0.0
 20
0.0
 30
0.0
  9
$PUCSBASE
  2

  9
$PUCSNAME
  2

  9
$PUCSORG
 10
0.0
 20
0.0
 30
0.0
  9
$PUCSXDIR
 10
1.0
 20
0.0
 30
0.0
  9
$PUCSYDIR
 10
0.0
 20
1.0
 30
0.0
  9
$PUCSORTHOREF
  2

  9
$PUCSORTHOVIEW
 70
     0
  9
$PUCSORGTOP
 10
0.0
 20
0.0
 30
0.0
  9
$PUCSORGBOTTOM
 10
0.0
 20
0.0
 30
0.0
  9
$PUCSORGLEFT
 10
0.0
 20
0.0
 30
0.0
  9
$PUCSORGRIGHT
 10
0.0
 20
0.0
 30
0.0
  9
$PUCSORGFRONT
 10
0.0
 20
0.0
 30
0.0
  9
$PUCSORGBACK
 10
0.0
 20
0.0
 30
0.0
  9
$USERI1
 70
     0
  9
$USERI2
 70
     0
  9
$USERI3
 70
     0
  9
$USERI4
 70
     0
  9
$USERI5
 70
     0
  9
$USERR1
 40
0.0
  9
$USERR2
 40
0.0
  9
$USERR3
 40
0.0
  9
$USERR4
 40
0.0
  9
$USERR5
 40
0.0
  9
$WORLDVIEW
 70
     1
  9
$SHADEDGE
 70
     3
  9
$SHADEDIF
 70
    70
  9
$TILEMODE
 70
     1
  9
$MAXACTVP
 70
    64
  9
$PINSBASE
 10
0.0
 20
0.0
 30
0.0
  9
$PLIMCHECK
 70
     0
  9
$PEXTMIN
 10
1.000000000000000E+20
 20
1.000000000000000E+20
 30
1.000000000000000E+20
  9
$PEXTMAX
 10
-1.000000000000000E+20
 20
-1.000000000000000E+20
 30
-1.000000000000000E+20
  9
$PLIMMIN
 10
0.0
 20
0.0
  9
$PLIMMAX
 10
12.0
 20
9.0
  9
$UNITMODE
 70
     0
  9
$VISRETAIN
 70
     1
  9
$PLINEGEN
 70
     0
  9
$PSLTSCALE
 70
     1
  9
$TREEDEPTH
 70
  3020
  9
$CMLSTYLE
  2
Standard
  9
$CMLJUST
 70
     0
  9
$CMLSCALE
 40
1.0
  9
$PROXYGRAPHICS
 70
     1
  9
$MEASUREMENT
 70
     0
  9
$CELWEIGHT
370
    -1
  9
$ENDCAPS
280
     0
  9
$JOINSTYLE
280
     0
  9
$LWDISPLAY
290
     0
  9
$INSUNITS
 70
     1
  9
$HYPERLINKBASE
  1

  9
$STYLESHEET
  1

  9
$XEDIT
290
     1
  9
$CEPSNTYPE
380
     0
  9
$PSTYLEMODE
290
     1
  9
$FINGERPRINTGUID
  2
{A00ADF4B-C5E5-4B75-A854-6ED02E6401FF}
  9
$VERSIONGUID
  2
{FAEB1C32-E019-11D5-929B-00C0DF256EC4}
  9
$EXTNAMES
290
     1
  9
$PSVPSCALE
 40
0.0
  9
$OLESTARTUP
290
     0
  9
$SORTENTS
280
   127
  9
$INDEXCTL
280
     0
  9
$HIDETEXT
280
     1
  9
$XCLIPFRAME
290
     0
  9
$HALOGAP
280
     0
  9
$OBSCOLOR
 70
   257
  9
$OBSLTYPE
280
     0
  9
$INTERSECTIONDISPLAY
280
     0
  9
$INTERSECTIONCOLOR
 70
   257
  9
$DIMASSOC
280
     2
  9
$PROJECTNAME
  1

  0
ENDSEC
  0
SECTION
  2
CLASSES
  0
CLASS
  1
ACDBDICTIONARYWDFLT
  2
AcDbDictionaryWithDefault
  3
ObjectDBX Classes
 90
        0
 91
        4
280
     0
281
     0
  0
CLASS
  1
VISUALSTYLE
  2
AcDbVisualStyle
  3
ObjectDBX Classes
 90
     4095
 91
        4
280
     0
281
     0
  0
ENDSEC
  0
SECTION
  2
TABLES
  0
TABLE
  2
VPORT
  5
8
330
0
100
AcDbSymbolTable
 70
     1
  0
VPORT
  5
29
330
8
100
AcDbSymbolTableRecord
100
AcDbViewportTableRecord
  2
*Active
 70
     0
 10
0.0
 20
0.0
 11
1.0
 21
1.0
 12
29.5
 22
45.40250000000191
 13
0.0
 23
0.0
 14
0.5
 24
0.5
 15
0.5
 25
0.5
 16
0.0
 26
0.0
 36
1.0
 17
0.0
 27
0.0
 37
0.0
 40
92.63129999999629
 41
1.971040026427431
 42
50.0
 43
0.0
 44
0.0
 50
0.0
 51
0.0
 71
     0
 72
   100
 73
     1
 74
     3
 75
     0
 76
     0
 77
     0
 78
     0
281
     0
 65
     1
110
0.0
120
0.0
130
0.0
111
1.0
121
0.0
131
0.0
112
0.0
122
1.0
132
0.0
 79
     0
146
0.0
  0
ENDTAB
  0
TABLE
  2
LTYPE
  5
5
330
0
100
AcDbSymbolTable
 70
     1
  0
LTYPE
  5
14
330
5
100
AcDbSymbolTableRecord
100
AcDbLinetypeTableRecord
  2
ByBlock
 70
     0
  3

 72
    65
 73
     0
 40
0.0
  0
LTYPE
  5
15
330
5
100
AcDbSymbolTableRecord
100
AcDbLinetypeTableRecord
  2
ByLayer
 70
     0
  3

 72
    65
 73
     0
 40
0.0
  0
LTYPE
  5
16
330
5
100
AcDbSymbolTableRecord
100
AcDbLinetypeTableRecord
  2
Continuous
 70
     0
  3
Solid line
 72
    65
 73
     0
 40
0.0
  0
ENDTAB
  0
TABLE
  2
LAYER
  5
2
330
0
100
AcDbSymbolTable
 70
     3
  0
LAYER
  5
10
330
2
100
AcDbSymbolTableRecord
100
AcDbLayerTableRecord
  2
0
 70
     0
 62
     7
  6
Continuous
370
    -3
390
F
  0
LAYER
  5
3B
330
2
100
AcDbSymbolTableRecord
100
AcDbLayerTableRecord
  2
Layer 05
 70
     0
 62
     7
  6
Continuous
370
    -3
390
F
  0
LAYER
  5
8B
330
2
100
AcDbSymbolTableRecord
100
AcDbLayerTableRecord
  2
Default
 70
     0
 62
     7
  6
Continuous
370
    -3
390
F
  0
ENDTAB
  0
TABLE
  2
STYLE
  5
3
330
0
100
AcDbSymbolTable
 70
     1
  0
STYLE
  5
11
330
3
100
AcDbSymbolTableRecord
100
AcDbTextStyleTableRecord
  2
Standard
 70
     0
 40
0.0
 41
1.0
 50
0.0
 71
     0
 42
0.2
  3
txt
  4

  0
ENDTAB
  0
TABLE
  2
VIEW
  5
6
330
0
100
AcDbSymbolTable
 70
     0
  0
ENDTAB
  0
TABLE
  2
UCS
  5
7
330
0
100
AcDbSymbolTable
 70
     0
  0
ENDTAB
  0
TABLE
  2
APPID
  5
9
330
0
100
AcDbSymbolTable
 70
     1
  0
APPID
  5
12
330
9
100
AcDbSymbolTableRecord
100
AcDbRegAppTableRecord
  2
ACAD
 70
     0
  0
ENDTAB
  0
TABLE
  2
DIMSTYLE
  5
A
330
0
100
AcDbSymbolTable
 70
     1
100
AcDbDimStyleTable
  0
DIMSTYLE
105
27
330
A
100
AcDbSymbolTableRecord
100
AcDbDimStyleTableRecord
  2
Standard
 70
     0
340
11
  0
ENDTAB
  0
TABLE
  2
BLOCK_RECORD
  5
1
330
0
100
AcDbSymbolTable
 70
     1
  0
BLOCK_RECORD
  5
1F
330
1
100
AcDbSymbolTableRecord
100
AcDbBlockTableRecord
  2
*Model_Space
340
22
  0
BLOCK_RECORD
  5
1B
330
1
100
AcDbSymbolTableRecord
100
AcDbBlockTableRecord
  2
*Paper_Space
340
1E
  0
BLOCK_RECORD
  5
23
330
1
100
AcDbSymbolTableRecord
100
AcDbBlockTableRecord
  2
*Paper_Space0
340
26
  0
ENDTAB
  0
ENDSEC
  0
SECTION
  2
BLOCKS
  0
BLOCK
  5
20
330
1F
100
AcDbEntity
  8
0
100
AcDbBlockBegin
  2
*Model_Space
 70
     0
 10
0.0
 20
0.0
 30
0.0
  3
*Model_Space
  1

  0
ENDBLK
  5
21
330
1F
100
AcDbEntity
  8
0
100
AcDbBlockEnd
  0
BLOCK
  5
1C
330
1B
100
AcDbEntity
 67
     1
  8
0
100
AcDbBlockBegin
  2
*Paper_Space
 70
     0
 10
0.0
 20
0.0
 30
0.0
  3
*Paper_Space
  1

  0
ENDBLK
  5
1D
330
1B
100
AcDbEntity
 67
     1
  8
0
100
AcDbBlockEnd
  0
BLOCK
  5
24
330
23
100
AcDbEntity
  8
0
100
AcDbBlockBegin
  2
*Paper_Space0
 70
     0
 10
0.0
 20
0.0
 30
0.0
  3
*Paper_Space0
  1

  0
ENDBLK
  5
25
330
23
100
AcDbEntity
  8
0
100
AcDbBlockEnd
  0
ENDSEC
  0
SECTION
  2
ENTITIES
  0
LINE
  5
3C
330
1F
100
AcDbEntity
  8
Layer 05
100
AcDbLine
 10
107.0
 20
22.06499999999992
 30
0.0
 11
107.0
 21
24.80948553377515
 31
0.0
  0
SPLINE
  5
3D
330
1F
100
AcDbEntity
  8
Layer 05
100
AcDbSpline
210
0.0
220
0.0
230
1.0
 70
    24
 71
     2
 72
     6
 73
     3
 74
     0
 42
0.0000000001
 43
0.0000000001
 40
0.0
 40
0.0
 40
0.0
 40
0.6057130294484595
 40
0.6057130294484595
 40
0.6057130294484595
 10
107.0
 20
22.06499999999992
 30
0.0
 10
107.3028565147243
 20
22.06500000469431
 30
0.0
 10
107.6057130294485
 20
22.0650000093887
 30
0.0
  0
POLYLINE
  5
3E
330
1F
100
AcDbEntity
  8
Layer 05
100
AcDb2dPolyline
 66
     1
 10
0.0
 20
0.0
 30
0.0
  0
VERTEX
  5
3F
330
3E
100
AcDbEntity
  8
Layer 05
100
AcDbVertex
100
AcDb2dVertex
 10
108.9026102692338
 20
20.80114921195855
 30
0.0
  0
VERTEX
  5
40
330
3E
100
AcDbEntity
  8
Layer 05
100
AcDbVertex
100
AcDb2dVertex
 10
112.1094471704743
 20
0.2356747849655656
 30
0.0
  0
SEQEND
  5
41
330
3E
100
AcDbEntity
  8
Layer 05
  0
POLYLINE
  5
42
330
1F
100
AcDbEntity
  8
Layer 05
100
AcDb2dPolyline
 66
     1
 10
0.0
 20
0.0
 30
0.0
  0
VERTEX
  5
43
330
42
100
AcDbEntity
  8
Layer 05
100
AcDbVertex
100
AcDb2dVertex
 10
112.178679588706
 20
0.1760000000070204
 30
0.0
  0
VERTEX
  5
44
330
42
100
AcDbEntity
  8
Layer 05
100
AcDbVertex
100
AcDb2dVertex
 10
113.5556572982505
 20
0.1760000000070204
 30
0.0
  0
SEQEND
  5
45
330
42
100
AcDbEntity
  8
Layer 05
  0
SPLINE
  5
46
330
1F
100
AcDbEntity
  8
Layer 05
100
AcDbSpline
210
0.0
220
0.0
230
1.0
 70
     8
 71
     5
 72
    12
 73
     6
 74
     0
 42
0.0000000001
 43
0.0000000001
 40
-1.0
 40
-1.0
 40
-1.0
 40
-1.0
 40
-1.0
 40
-1.0
 40
0.0
 40
0.0
 40
0.0
 40
0.0
 40
0.0
 40
0.0
 10
107.6057130294485
 20
22.0650000093887
 30
0.0
 10
107.9678876441706
 20
22.06500001500255
 30
0.0
 10
108.3300622588927
 20
22.06500002061639
 30
0.0
 10
108.7910089439256
 20
21.51684953359174
 30
0.0
 10
108.8468096065797
 20
21.15899937277514
 30
0.0
 10
108.9026102692338
 20
20.80114921195855
 30
0.0
  0
SPLINE
  5
47
330
1F
100
AcDbEntity
  8
Layer 05
100
AcDbSpline
210
0.0
220
0.0
230
1.0
 70
    12
 71
     2
 72
     6
 73
     3
 74
     0
 42
0.0000000001
 43
0.0000000001
 40
0.0
 40
0.0
 40
0.0
 40
0.0995908677779346
 40
0.0995908677779346
 40
0.0995908677779346
 10
112.1094471704743
 20
0.2356747849655656
 30
0.0
 41
1.0
 10
112.1183463900222
 20
0.1760015182779892
 30
0.0
 41
0.757471482991449
 10
112.178679588706
 20
0.1760000000070204
 30
0.0
 41
1.0
  0
POLYLINE
  5
48
330
1F
100
AcDbEntity
  8
Layer 05
100
AcDb2dPolyline
 66
     1
 10
0.0
 20
0.0
 30
0.0
  0
VERTEX
  5
49
330
48
100
AcDbEntity
  8
Layer 05
100
AcDbVertex
100
AcDb2dVertex
 10
113.6355957245317
 20
0.262142344033289
 30
0.0
  0
VERTEX
  5
4A
330
48
100
AcDbEntity
  8
Layer 05
100
AcDbVertex
100
AcDb2dVertex
 10
110.6627143971608
 20
24.80948553377515
 30
0.0
  0
SEQEND
  5
4B
330
48
100
AcDbEntity
  8
Layer 05
  0
SPLINE
  5
4C
330
1F
100
AcDbEntity
  8
Layer 05
100
AcDbSpline
210
0.0
220
0.0
230
1.0
 70
    12
 71
     2
 72
     6
 73
     3
 74
     0
 42
0.0000000001
 43
0.0000000001
 40
0.0
 40
0.0
 40
0.0
 40
0.1472891899728603
 40
0.1472891899728603
 40
0.1472891899728603
 10
112.2139167396868
 20
0.0937678608543795
 30
0.0
 41
1.0
 10
112.2139171063395
 20
0.0000012307056285
 30
0.0
 41
0.7071128040928928
 10
112.3076837364809
 20
0.0000000000039806
 30
0.0
 41
1.0
  0
SPLINE
  5
4D
330
1F
100
AcDbEntity
  8
Layer 05
100
AcDbSpline
210
0.0
220
0.0
230
1.0
 70
     8
 71
     5
 72
    12
 73
     6
 74
     0
 42
0.0000000001
 43
0.0000000001
 40
-1.0
 40
-1.0
 40
-1.0
 40
-1.0
 40
-1.0
 40
-1.0
 40
0.0
 40
0.0
 40
0.0
 40
0.0
 40
0.0
 40
0.0
 10
113.5556572982505
 20
0.1760000000070204
 30
0.0
 10
113.5791610472541
 20
0.1760000000070204
 30
0.0
 10
113.6026647962578
 20
0.1760000000070204
 30
0.0
 10
113.6412474155666
 20
0.2154758329428655
 30
0.0
 10
113.6384215700491
 20
0.2388090884880773
 30
0.0
 10
113.6355957245317
 20
0.262142344033289
 30
0.0
  0
SPLINE
  5
4E
330
1F
100
AcDbEntity
  8
Layer 05
100
AcDbSpline
210
0.0
220
0.0
230
1.0
 70
    12
 71
     2
 72
     6
 73
     3
 74
     0
 42
0.0000000001
 43
0.0000000001
 40
0.0
 40
0.0
 40
0.0
 40
0.1002825627301402
 40
0.1002825627301402
 40
0.1002825627301402
 10
112.26262589416
 20
0.1759999999999753
 30
0.0
 41
1.0
 10
112.2139324984242
 20
0.1493007178571811
 30
0.0
 41
0.8605324802067481
 10
112.2139167396868
 20
0.0937678608543795
 30
0.0
 41
1.0
  0
POLYLINE
  5
4F
330
1F
100
AcDbEntity
  8
Layer 05
100
AcDb2dPolyline
 66
     1
 10
0.0
 20
0.0
 30
0.0
  0
VERTEX
  5
50
330
4F
100
AcDbEntity
  8
Layer 05
100
AcDbVertex
100
AcDb2dVertex
 10
112.3076837364809
 20
0.0000000000039806
 30
0.0
  0
VERTEX
  5
51
330
4F
100
AcDbEntity
  8
Layer 05
100
AcDbVertex
100
AcDb2dVertex
 10
113.5175680518391
 20
0.0000000000039808
 30
0.0
  0
SEQEND
  5
52
330
4F
100
AcDbEntity
  8
Layer 05
  0
SPLINE
  5
53
330
1F
100
AcDbEntity
  8
Layer 05
100
AcDbSpline
210
0.0
220
0.0
230
1.0
 70
    12
 71
     2
 72
     6
 73
     3
 74
     0
 42
0.0000000001
 43
0.0000000001
 40
0.0
 40
0.0
 40
0.0
 40
0.1472885836991793
 40
0.1472885836991793
 40
0.1472885836991793
 10
113.5175680518391
 20
0.0000000000039808
 30
0.0
 41
1.0
 10
113.611333269427
 20
0.0000026432461518
 30
0.0
 41
0.707123456380473
 10
113.6113350486332
 20
0.0937678608543795
 30
0.0
 41
1.0
  0
SPLINE
  5
54
330
1F
100
AcDbEntity
  8
Layer 05
100
AcDbSpline
210
0.0
220
0.0
230
1.0
 70
    12
 71
     2
 72
     6
 73
     3
 74
     0
 42
0.0000000001
 43
0.0000000001
 40
0.0
 40
0.0
 40
0.0
 40
0.1002851964369081
 40
0.1002851964369081
 40
0.1002851964369081
 10
113.6113350486332
 20
0.0937678608543795
 30
0.0
 41
1.0
 10
113.6113273169635
 20
0.1493054725878607
 30
0.0
 41
0.8604588339149576
 10
113.56262589416
 20
0.1759999999999755
 30
0.0
 41
1.0
  0
POLYLINE
  5
55
330
1F
100
AcDbEntity
  8
Layer 05
100
AcDb2dPolyline
 66
     1
 10
0.0
 20
0.0
 30
0.0
  0
VERTEX
  5
56
330
55
100
AcDbEntity
  8
Layer 05
100
AcDbVertex
100
AcDb2dVertex
 10
80.99999999999997
 20
22.06499999999992
 30
0.0
  0
VERTEX
  5
57
330
55
100
AcDbEntity
  8
Layer 05
100
AcDbVertex
100
AcDb2dVertex
 10
80.99999999999997
 20
24.80948553377515
 30
0.0
  0
SEQEND
  5
58
330
55
100
AcDbEntity
  8
Layer 05
  0
SPLINE
  5
59
330
1F
100
AcDbEntity
  8
Layer 05
100
AcDbSpline
210
0.0
220
0.0
230
1.0
 70
    24
 71
     2
 72
     6
 73
     3
 74
     0
 42
0.0000000001
 43
0.0000000001
 40
0.0
 40
0.0
 40
0.0
 40
0.6057130294484595
 40
0.6057130294484595
 40
0.6057130294484595
 10
80.99999999999997
 20
22.06499999999992
 30
0.0
 10
80.69714348527575
 20
22.06500000469431
 30
0.0
 10
80.39428697055152
 20
22.0650000093887
 30
0.0
  0
POLYLINE
  5
5A
330
1F
100
AcDbEntity
  8
Layer 05
100
AcDb2dPolyline
 66
     1
 10
0.0
 20
0.0
 30
0.0
  0
VERTEX
  5
5B
330
5A
100
AcDbEntity
  8
Layer 05
100
AcDbVertex
100
AcDb2dVertex
 10
79.09738973076625
 20
20.80114921195855
 30
0.0
  0
VERTEX
  5
5C
330
5A
100
AcDbEntity
  8
Layer 05
100
AcDbVertex
100
AcDb2dVertex
 10
75.89055282952567
 20
0.2356747849655656
 30
0.0
  0
SEQEND
  5
5D
330
5A
100
AcDbEntity
  8
Layer 05
  0
POLYLINE
  5
5E
330
1F
100
AcDbEntity
  8
Layer 05
100
AcDb2dPolyline
 66
     1
 10
0.0
 20
0.0
 30
0.0
  0
VERTEX
  5
5F
330
5E
100
AcDbEntity
  8
Layer 05
100
AcDbVertex
100
AcDb2dVertex
 10
75.821320411294
 20
0.1760000000070204
 30
0.0
  0
VERTEX
  5
60
330
5E
100
AcDbEntity
  8
Layer 05
100
AcDbVertex
100
AcDb2dVertex
 10
74.44434270174952
 20
0.1760000000070204
 30
0.0
  0
SEQEND
  5
61
330
5E
100
AcDbEntity
  8
Layer 05
  0
SPLINE
  5
62
330
1F
100
AcDbEntity
  8
Layer 05
100
AcDbSpline
210
0.0
220
0.0
230
1.0
 70
     8
 71
     5
 72
    12
 73
     6
 74
     0
 42
0.0000000001
 43
0.0000000001
 40
-1.0
 40
-1.0
 40
-1.0
 40
-1.0
 40
-1.0
 40
-1.0
 40
0.0
 40
0.0
 40
0.0
 40
0.0
 40
0.0
 40
0.0
 10
80.39428697055152
 20
22.0650000093887
 30
0.0
 10
80.03211235582943
 20
22.06500001500255
 30
0.0
 10
79.66993774110733
 20
22.06500002061639
 30
0.0
 10
79.20899105607441
 20
21.51684953359174
 30
0.0
 10
79.15319039342033
 20
21.15899937277514
 30
0.0
 10
79.09738973076625
 20
20.80114921195855
 30
0.0
  0
SPLINE
  5
63
330
1F
100
AcDbEntity
  8
Layer 05
100
AcDbSpline
210
0.0
220
0.0
230
1.0
 70
    12
 71
     2
 72
     6
 73
     3
 74
     0
 42
0.0000000001
 43
0.0000000001
 40
0.0
 40
0.0
 40
0.0
 40
0.0995908677779346
 40
0.0995908677779346
 40
0.0995908677779346
 10
75.89055282952567
 20
0.2356747849655656
 30
0.0
 41
1.0
 10
75.88165360997782
 20
0.1760015182779892
 30
0.0
 41
0.757471482991449
 10
75.821320411294
 20
0.1760000000070204
 30
0.0
 41
1.0
  0
POLYLINE
  5
64
330
1F
100
AcDbEntity
  8
Layer 05
100
AcDb2dPolyline
 66
     1
 10
0.0
 20
0.0
 30
0.0
  0
VERTEX
  5
65
330
64
100
AcDbEntity
  8
Layer 05
100
AcDbVertex
100
AcDb2dVertex
 10
74.36440427546827
 20
0.262142344033289
 30
0.0
  0
VERTEX
  5
66
330
64
100
AcDbEntity
  8
Layer 05
100
AcDbVertex
100
AcDb2dVertex
 10
77.33728560283919
 20
24.80948553377515
 30
0.0
  0
SEQEND
  5
67
330
64
100
AcDbEntity
  8
Layer 05
  0
SPLINE
  5
68
330
1F
100
AcDbEntity
  8
Layer 05
100
AcDbSpline
210
0.0
220
0.0
230
1.0
 70
    12
 71
     2
 72
     6
 73
     3
 74
     0
 42
0.0000000001
 43
0.0000000001
 40
0.0
 40
0.0
 40
0.0
 40
0.1472891899728603
 40
0.1472891899728603
 40
0.1472891899728603
 10
75.78608326031318
 20
0.0937678608543795
 30
0.0
 41
1.0
 10
75.78608289366049
 20
0.0000012307056285
 30
0.0
 41
0.7071128040928928
 10
75.6923162635191
 20
0.0000000000039806
 30
0.0
 41
1.0
  0
SPLINE
  5
69
330
1F
100
AcDbEntity
  8
Layer 05
100
AcDbSpline
210
0.0
220
0.0
230
1.0
 70
     8
 71
     5
 72
    12
 73
     6
 74
     0
 42
0.0000000001
 43
0.0000000001
 40
-1.0
 40
-1.0
 40
-1.0
 40
-1.0
 40
-1.0
 40
-1.0
 40
0.0
 40
0.0
 40
0.0
 40
0.0
 40
0.0
 40
0.0
 10
74.44434270174952
 20
0.1760000000070204
 30
0.0
 10
74.42083895274587
 20
0.1760000000070204
 30
0.0
 10
74.39733520374222
 20
0.1760000000070204
 30
0.0
 10
74.35875258443345
 20
0.2154758329428655
 30
0.0
 10
74.36157842995087
 20
0.2388090884880773
 30
0.0
 10
74.36440427546827
 20
0.262142344033289
 30
0.0
  0
SPLINE
  5
6A
330
1F
100
AcDbEntity
  8
Layer 05
100
AcDbSpline
210
0.0
220
0.0
230
1.0
 70
    12
 71
     2
 72
     6
 73
     3
 74
     0
 42
0.0000000001
 43
0.0000000001
 40
0.0
 40
0.0
 40
0.0
 40
0.1002825627301402
 40
0.1002825627301402
 40
0.1002825627301402
 10
75.73737410583998
 20
0.1759999999999753
 30
0.0
 41
1.0
 10
75.78606750157586
 20
0.1493007178571811
 30
0.0
 41
0.8605324802067481
 10
75.78608326031318
 20
0.0937678608543795
 30
0.0
 41
1.0
  0
POLYLINE
  5
6B
330
1F
100
AcDbEntity
  8
Layer 05
100
AcDb2dPolyline
 66
     1
 10
0.0
 20
0.0
 30
0.0
  0
VERTEX
  5
6C
330
6B
100
AcDbEntity
  8
Layer 05
100
AcDbVertex
100
AcDb2dVertex
 10
75.6923162635191
 20
0.0000000000039806
 30
0.0
  0
VERTEX
  5
6D
330
6B
100
AcDbEntity
  8
Layer 05
100
AcDbVertex
100
AcDb2dVertex
 10
74.4824319481609
 20
0.0000000000039808
 30
0.0
  0
SEQEND
  5
6E
330
6B
100
AcDbEntity
  8
Layer 05
  0
SPLINE
  5
6F
330
1F
100
AcDbEntity
  8
Layer 05
100
AcDbSpline
210
0.0
220
0.0
230
1.0
 70
    12
 71
     2
 72
     6
 73
     3
 74
     0
 42
0.0000000001
 43
0.0000000001
 40
0.0
 40
0.0
 40
0.0
 40
0.1472885836991793
 40
0.1472885836991793
 40
0.1472885836991793
 10
74.4824319481609
 20
0.0000000000039808
 30
0.0
 41
1.0
 10
74.38866673057304
 20
0.0000026432461518
 30
0.0
 41
0.707123456380473
 10
74.38866495136682
 20
0.0937678608543795
 30
0.0
 41
1.0
  0
SPLINE
  5
70
330
1F
100
AcDbEntity
  8
Layer 05
100
AcDbSpline
210
0.0
220
0.0
230
1.0
 70
    12
 71
     2
 72
     6
 73
     3
 74
     0
 42
0.0000000001
 43
0.0000000001
 40
0.0
 40
0.0
 40
0.0
 40
0.1002851964369081
 40
0.1002851964369081
 40
0.1002851964369081
 10
74.38866495136682
 20
0.0937678608543795
 30
0.0
 41
1.0
 10
74.38867268303655
 20
0.1493054725878607
 30
0.0
 41
0.8604588339149576
 10
74.43737410584001
 20
0.1759999999999755
 30
0.0
 41
1.0
  0
SPLINE
  5
71
330
1F
100
AcDbEntity
  8
Layer 05
100
AcDbSpline
210
0.0
220
0.0
230
1.0
 70
    24
 71
     2
 72
     6
 73
     3
 74
     0
 42
0.0000000001
 43
0.0000000001
 40
0.0
 40
0.0
 40
0.0
 40
0.6057130294484595
 40
0.6057130294484595
 40
0.6057130294484595
 10
48.00000000000001
 20
22.05999999999966
 30
0.0
 10
48.30285651472425
 20
22.06000000469405
 30
0.0
 10
48.60571302944847
 20
22.06000000938844
 30
0.0
  0
SPLINE
  5
72
330
1F
100
AcDbEntity
  8
Layer 05
100
AcDbSpline
210
0.0
220
0.0
230
1.0
 70
     8
 71
     5
 72
    12
 73
     6
 74
     0
 42
0.0000000001
 43
0.0000000001
 40
-1.0
 40
-1.0
 40
-1.0
 40
-1.0
 40
-1.0
 40
-1.0
 40
0.0
 40
0.0
 40
0.0
 40
0.0
 40
0.0
 40
0.0
 10
48.60571302944847
 20
22.06000000938844
 30
0.0
 10
48.96788764417057
 20
22.06000001500229
 30
0.0
 10
49.33006225889265
 20
22.06000002061613
 30
0.0
 10
49.79100894392558
 20
21.51184953359148
 30
0.0
 10
49.84680960657965
 20
21.15399937277488
 30
0.0
 10
49.90261026923373
 20
20.79614921195829
 30
0.0
  0
SPLINE
  5
73
330
1F
100
AcDbEntity
  8
Layer 05
100
AcDbSpline
210
0.0
220
0.0
230
1.0
 70
    24
 71
     2
 72
     6
 73
     3
 74
     0
 42
0.0000000001
 43
0.0000000001
 40
0.0
 40
0.0
 40
0.0
 40
1.0
 40
1.0
 40
1.0
 10
53.178679588706
 20
0.171000000006762
 30
0.0
 10
53.86716844347823
 20
0.171000000006762
 30
0.0
 10
54.55565729825047
 20
0.171000000006762
 30
0.0
  0
SPLINE
  5
74
330
1F
100
AcDbEntity
  8
Layer 05
100
AcDbSpline
210
0.0
220
0.0
230
1.0
 70
    12
 71
     2
 72
     6
 73
     3
 74
     0
 42
0.0000000001
 43
0.0000000001
 40
0.0
 40
0.0
 40
0.0
 40
0.0995908677779346
 40
0.0995908677779346
 40
0.0995908677779346
 10
53.10944717047431
 20
0.2306747849653072
 30
0.0
 41
1.0
 10
53.11834639002215
 20
0.1710015182777309
 30
0.0
 41
0.757471482991449
 10
53.178679588706
 20
0.171000000006762
 30
0.0
 41
1.0
  0
SPLINE
  5
75
330
1F
100
AcDbEntity
  8
Layer 05
100
AcDbSpline
210
0.0
220
0.0
230
1.0
 70
    12
 71
     2
 72
     6
 73
     3
 74
     0
 42
0.0000000001
 43
0.0000000001
 40
0.0
 40
0.0
 40
0.0
 40
0.1002825627301402
 40
0.1002825627301402
 40
0.1002825627301402
 10
53.26262589416002
 20
0.1709999999997169
 30
0.0
 41
1.0
 10
53.21393249842414
 20
0.1443007178569227
 30
0.0
 41
0.8605324802067481
 10
53.21391673968682
 20
0.0887678608541212
 30
0.0
 41
1.0
  0
SPLINE
  5
76
330
1F
100
AcDbEntity
  8
Layer 05
100
AcDbSpline
210
0.0
220
0.0
230
1.0
 70
     8
 71
     5
 72
    12
 73
     6
 74
     0
 42
0.0000000001
 43
0.0000000001
 40
-1.0
 40
-1.0
 40
-1.0
 40
-1.0
 40
-1.0
 40
-1.0
 40
0.0
 40
0.0
 40
0.0
 40
0.0
 40
0.0
 40
0.0
 10
54.55565729825047
 20
0.171000000006762
 30
0.0
 10
54.57916104725411
 20
0.171000000006762
 30
0.0
 10
54.60266479625776
 20
0.171000000006762
 30
0.0
 10
54.64124741556655
 20
0.2104758329426071
 30
0.0
 10
54.63842157004913
 20
0.233809088487819
 30
0.0
 10
54.63559572453171
 20
0.2571423440330307
 30
0.0
  0
SPLINE
  5
77
330
1F
100
AcDbEntity
  8
Layer 05
100
AcDbSpline
210
0.0
220
0.0
230
1.0
 70
    24
 71
     2
 72
     6
 73
     3
 74
     0
 42
0.0000000001
 43
0.0000000001
 40
0.0
 40
0.0
 40
0.0
 40
1.0
 40
1.0
 40
1.0
 10
49.90261026923373
 20
20.79614921195829
 30
0.0
 10
51.50602871985402
 20
10.5134119984618
 30
0.0
 10
53.10944717047431
 20
0.2306747849653072
 30
0.0
  0
SPLINE
  5
78
330
1F
100
AcDbEntity
  8
Layer 05
100
AcDbSpline
210
0.0
220
0.0
230
1.0
 70
    24
 71
     2
 72
     6
 73
     3
 74
     0
 42
0.0000000001
 43
0.0000000001
 40
0.0
 40
0.0
 40
0.0
 40
1.0
 40
1.0
 40
1.0
 10
54.63559572453171
 20
0.2571423440330307
 30
0.0
 10
53.14915506084625
 20
12.53081393890396
 30
0.0
 10
51.66271439716079
 20
24.80448553377489
 30
0.0
  0
SPLINE
  5
79
330
1F
100
AcDbEntity
  8
Layer 05
100
AcDbSpline
210
0.0
220
0.0
230
1.0
 70
    12
 71
     2
 72
     6
 73
     3
 74
     0
 42
0.0000000001
 43
0.0000000001
 40
0.0
 40
0.0
 40
0.0
 40
0.1472891899728603
 40
0.1472891899728603
 40
0.1472891899728603
 10
53.21391673968682
 20
0.0887678608541212
 30
0.0
 41
1.0
 10
53.21391710633949
 20
-0.0049987692946299
 30
0.0
 41
0.7071128040928928
 10
53.30768373648088
 20
-0.0049999999962778
 30
0.0
 41
1.0
  0
SPLINE
  5
7A
330
1F
100
AcDbEntity
  8
Layer 05
100
AcDbSpline
210
0.0
220
0.0
230
1.0
 70
    24
 71
     2
 72
     6
 73
     3
 74
     0
 42
0.0000000001
 43
0.0000000001
 40
0.0
 40
0.0
 40
0.0
 40
1.0
 40
1.0
 40
1.0
 10
53.30768373648088
 20
-0.0049999999962778
 30
0.0
 10
53.91262589415999
 20
-0.0049999999962777
 30
0.0
 10
54.51756805183911
 20
-0.0049999999962776
 30
0.0
  0
SPLINE
  5
7B
330
1F
100
AcDbEntity
  8
Layer 05
100
AcDbSpline
210
0.0
220
0.0
230
1.0
 70
    12
 71
     2
 72
     6
 73
     3
 74
     0
 42
0.0000000001
 43
0.0000000001
 40
0.0
 40
0.0
 40
0.0
 40
0.1472885836991793
 40
0.1472885836991793
 40
0.1472885836991793
 10
54.51756805183911
 20
-0.0049999999962776
 30
0.0
 41
1.0
 10
54.61133326942695
 20
-0.0049973567541066
 30
0.0
 41
0.707123456380473
 10
54.61133504863317
 20
0.0887678608541212
 30
0.0
 41
1.0
  0
SPLINE
  5
7C
330
1F
100
AcDbEntity
  8
Layer 05
100
AcDbSpline
210
0.0
220
0.0
230
1.0
 70
    12
 71
     2
 72
     6
 73
     3
 74
     0
 42
0.0000000001
 43
0.0000000001
 40
0.0
 40
0.0
 40
0.0
 40
0.1002851964369081
 40
0.1002851964369081
 40
0.1002851964369081
 10
54.61133504863317
 20
0.0887678608541212
 30
0.0
 41
1.0
 10
54.61132731696345
 20
0.1443054725876023
 30
0.0
 41
0.8604588339149576
 10
54.56262589415997
 20
0.1709999999997172
 30
0.0
 41
1.0
  0
SPLINE
  5
7D
330
1F
100
AcDbEntity
  8
Layer 05
100
AcDbSpline
210
0.0
220
0.0
230
1.0
 70
    24
 71
     2
 72
     6
 73
     3
 74
     0
 42
0.0000000001
 43
0.0000000001
 40
0.0
 40
0.0
 40
0.0
 40
2.750000000000338
 40
2.750000000000338
 40
2.750000000000338
 10
47.98000000000023
 20
22.0549999999994
 30
0.0
 10
47.98000000000011
 20
23.42999999999957
 30
0.0
 10
47.98
 20
24.80499999999974
 30
0.0
  0
SPLINE
  5
7E
330
1F
100
AcDbEntity
  8
Layer 05
100
AcDbSpline
210
0.0
220
0.0
230
1.0
 70
    24
 71
     2
 72
     6
 73
     3
 74
     0
 42
0.0000000001
 43
0.0000000001
 40
0.0
 40
0.0
 40
0.0
 40
0.6057130294484595
 40
0.6057130294484595
 40
0.6057130294484595
 10
-48.01999999999978
 20
22.06499999999992
 30
0.0
 10
-48.32285651472402
 20
22.06500000469431
 30
0.0
 10
-48.62571302944824
 20
22.0650000093887
 30
0.0
  0
SPLINE
  5
7F
330
1F
100
AcDbEntity
  8
Layer 05
100
AcDbSpline
210
0.0
220
0.0
230
1.0
 70
    24
 71
     2
 72
     6
 73
     3
 74
     0
 42
0.0000000001
 43
0.0000000001
 40
0.0
 40
0.0
 40
0.0
 40
1.0
 40
1.0
 40
1.0
 10
-49.9226102692335
 20
20.80114921195855
 30
0.0
 10
-51.52602871985379
 20
10.51841199846206
 30
0.0
 10
-53.12944717047409
 20
0.2356747849655656
 30
0.0
  0
SPLINE
  5
80
330
1F
100
AcDbEntity
  8
Layer 05
100
AcDbSpline
210
0.0
220
0.0
230
1.0
 70
    24
 71
     2
 72
     6
 73
     3
 74
     0
 42
0.0000000001
 43
0.0000000001
 40
0.0
 40
0.0
 40
0.0
 40
1.0
 40
1.0
 40
1.0
 10
-53.19867958870577
 20
0.1760000000070204
 30
0.0
 10
-53.88716844347801
 20
0.1760000000070204
 30
0.0
 10
-54.57565729825025
 20
0.1760000000070204
 30
0.0
  0
SPLINE
  5
81
330
1F
100
AcDbEntity
  8
Layer 05
100
AcDbSpline
210
0.0
220
0.0
230
1.0
 70
     8
 71
     5
 72
    12
 73
     6
 74
     0
 42
0.0000000001
 43
0.0000000001
 40
-1.0
 40
-1.0
 40
-1.0
 40
-1.0
 40
-1.0
 40
-1.0
 40
0.0
 40
0.0
 40
0.0
 40
0.0
 40
0.0
 40
0.0
 10
-48.62571302944824
 20
22.0650000093887
 30
0.0
 10
-48.98788764417034
 20
22.06500001500255
 30
0.0
 10
-49.35006225889243
 20
22.06500002061639
 30
0.0
 10
-49.81100894392536
 20
21.51684953359174
 30
0.0
 10
-49.86680960657943
 20
21.15899937277514
 30
0.0
 10
-49.9226102692335
 20
20.80114921195855
 30
0.0
  0
SPLINE
  5
82
330
1F
100
AcDbEntity
  8
Layer 05
100
AcDbSpline
210
0.0
220
0.0
230
1.0
 70
    12
 71
     2
 72
     6
 73
     3
 74
     0
 42
0.0000000001
 43
0.0000000001
 40
0.0
 40
0.0
 40
0.0
 40
0.0995908677779346
 40
0.0995908677779346
 40
0.0995908677779346
 10
-53.12944717047409
 20
0.2356747849655656
 30
0.0
 41
1.0
 10
-53.13834639002192
 20
0.1760015182779892
 30
0.0
 41
0.757471482991449
 10
-53.19867958870577
 20
0.1760000000070204
 30
0.0
 41
1.0
  0
SPLINE
  5
83
330
1F
100
AcDbEntity
  8
Layer 05
100
AcDbSpline
210
0.0
220
0.0
230
1.0
 70
    24
 71
     2
 72
     6
 73
     3
 74
     0
 42
0.0000000001
 43
0.0000000001
 40
0.0
 40
0.0
 40
0.0
 40
1.0
 40
1.0
 40
1.0
 10
-54.65559572453149
 20
0.262142344033289
 30
0.0
 10
-53.16915506084603
 20
12.53581393890422
 30
0.0
 10
-51.68271439716057
 20
24.80948553377515
 30
0.0
  0
SPLINE
  5
84
330
1F
100
AcDbEntity
  8
Layer 05
100
AcDbSpline
210
0.0
220
0.0
230
1.0
 70
     8
 71
     5
 72
    12
 73
     6
 74
     0
 42
0.0000000001
 43
0.0000000001
 40
-1.0
 40
-1.0
 40
-1.0
 40
-1.0
 40
-1.0
 40
-1.0
 40
0.0
 40
0.0
 40
0.0
 40
0.0
 40
0.0
 40
0.0
 10
-54.57565729825025
 20
0.1760000000070204
 30
0.0
 10
-54.59916104725389
 20
0.1760000000070204
 30
0.0
 10
-54.62266479625754
 20
0.1760000000070204
 30
0.0
 10
-54.66124741556632
 20
0.2154758329428655
 30
0.0
 10
-54.6584215700489
 20
0.2388090884880773
 30
0.0
 10
-54.65559572453149
 20
0.262142344033289
 30
0.0
  0
SPLINE
  5
85
330
1F
100
AcDbEntity
  8
Layer 05
100
AcDbSpline
210
0.0
220
0.0
230
1.0
 70
    12
 71
     2
 72
     6
 73
     3
 74
     0
 42
0.0000000001
 43
0.0000000001
 40
0.0
 40
0.0
 40
0.0
 40
0.1472891899728603
 40
0.1472891899728603
 40
0.1472891899728603
 10
-53.23391673968659
 20
0.0937678608543795
 30
0.0
 41
1.0
 10
-53.23391710633927
 20
0.0000012307056285
 30
0.0
 41
0.7071128040928928
 10
-53.32768373648066
 20
0.0000000000039806
 30
0.0
 41
1.0
  0
SPLINE
  5
86
330
1F
100
AcDbEntity
  8
Layer 05
100
AcDbSpline
210
0.0
220
0.0
230
1.0
 70
    24
 71
     2
 72
     6
 73
     3
 74
     0
 42
0.0000000001
 43
0.0000000001
 40
0.0
 40
0.0
 40
0.0
 40
1.0
 40
1.0
 40
1.0
 10
-53.32768373648066
 20
0.0000000000039806
 30
0.0
 10
-53.93262589415977
 20
0.0000000000039807
 30
0.0
 10
-54.53756805183888
 20
0.0000000000039808
 30
0.0
  0
SPLINE
  5
87
330
1F
100
AcDbEntity
  8
Layer 05
100
AcDbSpline
210
0.0
220
0.0
230
1.0
 70
    12
 71
     2
 72
     6
 73
     3
 74
     0
 42
0.0000000001
 43
0.0000000001
 40
0.0
 40
0.0
 40
0.0
 40
0.1472885836991793
 40
0.1472885836991793
 40
0.1472885836991793
 10
-54.53756805183888
 20
0.0000000000039808
 30
0.0
 41
1.0
 10
-54.63133326942674
 20
0.0000026432461518
 30
0.0
 41
0.707123456380473
 10
-54.63133504863294
 20
0.0937678608543795
 30
0.0
 41
1.0
  0
SPLINE
  5
88
330
1F
100
AcDbEntity
  8
Layer 05
100
AcDbSpline
210
0.0
220
0.0
230
1.0
 70
    12
 71
     2
 72
     6
 73
     3
 74
     0
 42
0.0000000001
 43
0.0000000001
 40
0.0
 40
0.0
 40
0.0
 40
0.1002851964369081
 40
0.1002851964369081
 40
0.1002851964369081
 10
-54.63133504863294
 20
0.0937678608543795
 30
0.0
 41
1.0
 10
-54.63132731696322
 20
0.1493054725878607
 30
0.0
 41
0.8604588339149576
 10
-54.58262589415975
 20
0.1759999999999755
 30
0.0
 41
1.0
  0
SPLINE
  5
89
330
1F
100
AcDbEntity
  8
Layer 05
100
AcDbSpline
210
0.0
220
0.0
230
1.0
 70
    24
 71
     2
 72
     6
 73
     3
 74
     0
 42
0.0000000001
 43
0.0000000001
 40
0.0
 40
0.0
 40
0.0
 40
2.750000000000338
 40
2.750000000000338
 40
2.750000000000338
 10
-47.99999999999977
 20
24.81
 30
0.0
 10
-47.99999999999988
 20
23.43499999999983
 30
0.0
 10
-47.99999999999999
 20
22.05999999999966
 30
0.0
  0
SPLINE
  5
8A
330
1F
100
AcDbEntity
  8
Layer 05
100
AcDbSpline
210
0.0
220
0.0
230
1.0
 70
    12
 71
     2
 72
     6
 73
     3
 74
     0
 42
0.0000000001
 43
0.0000000001
 40
0.0
 40
0.0
 40
0.0
 40
0.1002825627301402
 40
0.1002825627301402
 40
0.1002825627301402
 10
-53.28262589415979
 20
0.1759999999999753
 30
0.0
 41
1.0
 10
-53.23393249842391
 20
0.1493007178571811
 30
0.0
 41
0.8605324802067481
 10
-53.23391673968659
 20
0.0937678608543795
 30
0.0
 41
1.0
  0
LINE
  5
8C
330
1F
100
AcDbEntity
  8
Default
100
AcDbLine
 10
80.99999999999997
 20
22.06499999999992
 30
0.0
 11
107.0
 21
22.06499999999992
 31
0.0
  0
LINE
  5
8D
330
1F
100
AcDbEntity
  8
Default
100
AcDbLine
 10
-47.99999999999999
 20
22.05999999999966
 30
0.0
 11
48.00000000000001
 21
22.05999999999966
 31
0.0
  0
LINE
  5
8E
330
1F
100
AcDbEntity
  8
Layer 05
  6
Continuous
 62
     0
100
AcDbLine
 10
119.0
 20
25.31
 30
0.0
 11
119.0
 21
25.81
 31
0.0
  0
LINE
  5
8F
330
1F
100
AcDbEntity
  8
Layer 05
  6
Continuous
 62
     0
100
AcDbLine
 10
117.836
 20
24.81
 30
0.0
 11
119.0
 21
25.31
 31
0.0
  0
POLYLINE
  5
90
330
1F
100
AcDbEntity
  8
Layer 05
100
AcDb2dPolyline
 66
     1
 10
0.0
 20
0.0
 30
0.0
  0
VERTEX
  5
91
330
90
100
AcDbEntity
  8
Layer 05
100
AcDbVertex
100
AcDb2dVertex
 10
69.0
 20
25.81
 30
0.0
  0
VERTEX
  5
92
330
90
100
AcDbEntity
  8
Layer 05
100
AcDbVertex
100
AcDb2dVertex
 10
119.0
 20
25.81
 30
0.0
  0
SEQEND
  5
93
330
90
100
AcDbEntity
  8
Layer 05
  0
LINE
  5
94
330
1F
100
AcDbEntity
  8
Layer 05
  6
Continuous
 62
     0
100
AcDbLine
 10
119.0
 20
25.31
 30
0.0
 11
69.0
 21
25.31
 31
0.0
  0
LINE
  5
95
330
1F
100
AcDbEntity
  8
Layer 05
  6
Continuous
 62
     0
100
AcDbLine
 10
117.836
 20
24.81
 30
0.0
 11
70.164
 21
24.81
 31
0.0
  0
LINE
  5
96
330
1F
100
AcDbEntity
  8
Layer 05
  6
Continuous
 62
     0
100
AcDbLine
 10
70.164
 20
24.81
 30
0.0
 11
69.0
 21
25.31
 31
0.0
  0
LINE
  5
97
330
1F
100
AcDbEntity
  8
Layer 05
  6
Continuous
 62
     0
100
AcDbLine
 10
69.0
 20
25.31
 30
0.0
 11
69.0
 21
25.81
 31
0.0
  0
LINE
  5
98
330
1F
100
AcDbEntity
  8
Layer 05
  6
Continuous
 62
     0
100
AcDbLine
 10
69.0
 20
25.31
 30
0.0
 11
69.0
 21
25.81
 31
0.0
  0
LINE
  5
99
330
1F
100
AcDbEntity
  8
Layer 05
  6
Continuous
 62
     0
100
AcDbLine
 10
11.11789473684624
 20
90.81000000000009
 30
0.0
 11
-11.11789473684062
 21
90.81000000000006
 31
0.0
  0
SPLINE
  5
9A
330
1F
100
AcDbEntity
  8
Layer 05
  6
Continuous
 62
     0
100
AcDbSpline
210
0.0
220
0.0
230
1.0
 70
    12
 71
     2
 72
     6
 73
     3
 74
     0
 42
0.0000000001
 43
0.0000000001
 40
0.0
 40
0.0
 40
0.0
 40
38.98740005894175
 40
38.98740005894175
 40
38.98740005894175
 10
52.09885020973259
 20
89.00943875829785
 30
0.0
 41
1.0
 10
31.65220096333394
 20
90.80999999999993
 30
0.0
 41
0.9989322283044119
 10
11.11789473684624
 20
90.81000000000009
 30
0.0
 41
1.0
  0
SPLINE
  5
9B
330
1F
100
AcDbEntity
  8
Layer 05
  6
Continuous
 62
     0
100
AcDbSpline
210
0.0
220
0.0
230
1.0
 70
    12
 71
     2
 72
     6
 73
     3
 74
     0
 42
0.0000000001
 43
0.0000000001
 40
0.0
 40
0.0
 40
0.0
 40
7.237327632849306
 40
7.237327632849306
 40
7.237327632849306
 10
57.59924946428277
 20
84.64782840389141
 30
0.0
 41
1.0
 10
56.43004890628509
 20
88.62802719259722
 30
0.0
 41
0.8235752275032288
 10
52.09885020962454
 20
89.00943875834271
 30
0.0
 41
1.0
  0
SPLINE
  5
9C
330
1F
100
AcDbEntity
  8
Layer 05
  6
Continuous
 62
     0
100
AcDbSpline
210
0.0
220
0.0
230
1.0
 70
    12
 71
     2
 72
     6
 73
     3
 74
     0
 42
0.0000000001
 43
0.0000000001
 40
0.0
 40
0.0
 40
0.0
 40
16.86497068454866
 40
16.86497068454866
 40
16.86497068454866
 10
60.00000000000278
 20
67.99026315790017
 30
0.0
 41
1.0
 10
60.00000000000276
 20
76.47518059868894
 30
0.0
 41
0.9907565523487986
 10
57.59924946428277
 20
84.64782840389141
 30
0.0
 41
1.0
  0
LINE
  5
9D
330
1F
100
AcDbEntity
  8
Layer 05
  6
Continuous
 62
     0
100
AcDbLine
 10
60.00000000000276
 20
63.62973684210087
 30
0.0
 11
60.00000000000278
 21
67.99026315790017
 31
0.0
  0
SPLINE
  5
9E
330
1F
100
AcDbEntity
  8
Layer 05
  6
Continuous
 62
     0
100
AcDbSpline
210
0.0
220
0.0
230
1.0
 70
    12
 71
     2
 72
     6
 73
     3
 74
     0
 42
0.0000000001
 43
0.0000000001
 40
0.0
 40
0.0
 40
0.0
 40
16.86497068454911
 40
16.86497068454911
 40
16.86497068454911
 10
57.59924946428286
 20
46.97217159610915
 30
0.0
 41
1.0
 10
60.0000000000029
 20
55.14481940131189
 30
0.0
 41
0.990756552348798
 10
60.00000000000276
 20
63.62973684210087
 30
0.0
 41
1.0
  0
SPLINE
  5
9F
330
1F
100
AcDbEntity
  8
Layer 05
  6
Continuous
 62
     0
100
AcDbSpline
210
0.0
220
0.0
230
1.0
 70
    12
 71
     2
 72
     6
 73
     3
 74
     0
 42
0.0000000001
 43
0.0000000001
 40
0.0
 40
0.0
 40
0.0
 40
7.237327632790532
 40
7.237327632790532
 40
7.237327632790532
 10
52.09885020967703
 20
42.61056124167973
 30
0.0
 41
1.0
 10
56.43004890629617
 20
42.99197280743971
 30
0.0
 41
0.8235752275044513
 10
57.59924946428287
 20
46.97217159610915
 30
0.0
 41
1.0
  0
SPLINE
  5
A0
330
1F
100
AcDbEntity
  8
Layer 05
  6
Continuous
 62
     0
100
AcDbSpline
210
0.0
220
0.0
230
1.0
 70
    12
 71
     2
 72
     6
 73
     3
 74
     0
 42
0.0000000001
 43
0.0000000001
 40
0.0
 40
0.0
 40
0.0
 40
38.98740005889
 40
38.98740005889
 40
38.98740005889
 10
11.11789473684376
 20
40.81
 30
0.0
 41
1.0
 10
31.65220096330389
 20
40.80999999999991
 30
0.0
 41
0.9989322283044353
 10
52.09885020967703
 20
42.61056124167976
 30
0.0
 41
1.0
  0
LINE
  5
A1
330
1F
100
AcDbEntity
  8
Layer 05
  6
Continuous
 62
     0
100
AcDbLine
 10
-11.11789473684359
 20
40.81000000000006
 30
0.0
 11
11.11789473684376
 21
40.81
 31
0.0
  0
SPLINE
  5
A2
330
1F
100
AcDbEntity
  8
Layer 05
  6
Continuous
 62
     0
100
AcDbSpline
210
0.0
220
0.0
230
1.0
 70
    12
 71
     2
 72
     6
 73
     3
 74
     0
 42
0.0000000001
 43
0.0000000001
 40
0.0
 40
0.0
 40
0.0
 40
38.98740005888927
 40
38.98740005888927
 40
38.98740005888927
 10
-52.09885020967592
 20
42.61056124167992
 30
0.0
 41
1.0
 10
-31.65220096330325
 20
40.81
 30
0.0
 41
0.9989322283044351
 10
-11.11789473684359
 20
40.81000000000006
 30
0.0
 41
1.0
  0
SPLINE
  5
A3
330
1F
100
AcDbEntity
  8
Layer 05
  6
Continuous
 62
     0
100
AcDbSpline
210
0.0
220
0.0
230
1.0
 70
    12
 71
     2
 72
     6
 73
     3
 74
     0
 42
0.0000000001
 43
0.0000000001
 40
0.0
 40
0.0
 40
0.0
 40
7.237327632788757
 40
7.237327632788757
 40
7.237327632788757
 10
-57.59924946427997
 20
46.97217159610884
 30
0.0
 41
1.0
 10
-56.43004890629346
 20
42.99197280744083
 30
0.0
 41
0.8235752275045418
 10
-52.09885020967592
 20
42.61056124167987
 30
0.0
 41
1.0
  0
SPLINE
  5
A4
330
1F
100
AcDbEntity
  8
Layer 05
  6
Continuous
 62
     0
100
AcDbSpline
210
0.0
220
0.0
230
1.0
 70
    12
 71
     2
 72
     6
 73
     3
 74
     0
 42
0.0000000001
 43
0.0000000001
 40
0.0
 40
0.0
 40
0.0
 40
16.86497068454874
 40
16.86497068454874
 40
16.86497068454874
 10
-60.0
 20
63.62973684210014
 30
0.0
 41
1.0
 10
-60.00000000000001
 20
55.14481940131133
 30
0.0
 41
0.9907565523487983
 10
-57.59924946427996
 20
46.97217159610885
 30
0.0
 41
1.0
  0
LINE
  5
A5
330
1F
100
AcDbEntity
  8
Layer 05
  6
Continuous
 62
     0
100
AcDbLine
 10
-60.0
 20
67.99026315789978
 30
0.0
 11
-60.0
 21
63.62973684210014
 31
0.0
  0
SPLINE
  5
A6
330
1F
100
AcDbEntity
  8
Layer 05
  6
Continuous
 62
     0
100
AcDbSpline
210
0.0
220
0.0
230
1.0
 70
    12
 71
     2
 72
     6
 73
     3
 74
     0
 42
0.0000000001
 43
0.0000000001
 40
0.0
 40
0.0
 40
0.0
 40
16.86497068454882
 40
16.86497068454882
 40
16.86497068454882
 10
-57.59924946428002
 20
84.6478284038912
 30
0.0
 41
1.0
 10
-59.99999999999999
 20
76.47518059868861
 30
0.0
 41
0.990756552348799
 10
-60.0
 20
67.99026315789978
 30
0.0
 41
1.0
  0
SPLINE
  5
A7
330
1F
100
AcDbEntity
  8
Layer 05
  6
Continuous
 62
     0
100
AcDbSpline
210
0.0
220
0.0
230
1.0
 70
    12
 71
     2
 72
     6
 73
     3
 74
     0
 42
0.0000000001
 43
0.0000000001
 40
0.0
 40
0.0
 40
0.0
 40
7.237327632790073
 40
7.237327632790073
 40
7.237327632790073
 10
-52.0988502096744
 20
89.00943875832044
 30
0.0
 41
1.0
 10
-56.43004890629329
 20
88.62802719256041
 30
0.0
 41
0.8235752275044632
 10
-57.59924946428003
 20
84.6478284038912
 30
0.0
 41
1.0
  0
SPLINE
  5
A8
330
1F
100
AcDbEntity
  8
Layer 05
  6
Continuous
 62
     0
100
AcDbSpline
210
0.0
220
0.0
230
1.0
 70
    12
 71
     2
 72
     6
 73
     3
 74
     0
 42
0.0000000001
 43
0.0000000001
 40
0.0
 40
0.0
 40
0.0
 40
38.98740005889029
 40
38.98740005889029
 40
38.98740005889029
 10
-11.11789473684062
 20
90.81000000000006
 30
0.0
 41
1.0
 10
-31.65220096330099
 20
90.80999999999999
 30
0.0
 41
0.9989322283044358
 10
-52.0988502096744
 20
89.00943875832043
 30
0.0
 41
1.0
  0
SPLINE
  5
A9
330
1F
100
AcDbEntity
  8
Layer 05
  6
Continuous
 62
     0
100
AcDbSpline
210
0.0
220
0.0
230
1.0
 70
    24
 71
     2
 72
     6
 73
     3
 74
     0
 42
0.0000000001
 43
0.0000000001
 40
0.0
 40
0.0
 40
0.0
 40
0.5
 40
0.5
 40
0.5
 10
-59.99999999999999
 20
25.31
 30
0.0
 10
-59.99999999999999
 20
25.56
 30
0.0
 10
-59.99999999999999
 20
25.81
 30
0.0
  0
SPLINE
  5
AA
330
1F
100
AcDbEntity
  8
Layer 05
  6
Continuous
 62
     0
100
AcDbSpline
210
0.0
220
0.0
230
1.0
 70
    24
 71
     2
 72
     6
 73
     3
 74
     0
 42
0.0000000001
 43
0.0000000001
 40
0.0
 40
0.0
 40
0.0
 40
1.26684489974108
 40
1.26684489974108
 40
1.26684489974108
 10
-58.836
 20
24.81
 30
0.0
 10
-59.41799999999999
 20
25.06
 30
0.0
 10
-59.99999999999999
 20
25.31
 30
0.0
  0
SPLINE
  5
AB
330
1F
100
AcDbEntity
  8
Layer 05
  6
Continuous
 62
     0
100
AcDbSpline
210
0.0
220
0.0
230
1.0
 70
    24
 71
     2
 72
     6
 73
     3
 74
     0
 42
0.0000000001
 43
0.0000000001
 40
0.0
 40
0.0
 40
0.0
 40
0.5
 40
0.5
 40
0.5
 10
60.0
 20
25.31
 30
0.0
 10
60.0
 20
25.56
 30
0.0
 10
60.0
 20
25.81
 30
0.0
  0
SPLINE
  5
AC
330
1F
100
AcDbEntity
  8
Layer 05
  6
Continuous
 62
     0
100
AcDbSpline
210
0.0
220
0.0
230
1.0
 70
    24
 71
     2
 72
     6
 73
     3
 74
     0
 42
0.0000000001
 43
0.0000000001
 40
0.0
 40
0.0
 40
0.0
 40
1.266844899741087
 40
1.266844899741087
 40
1.266844899741087
 10
58.836
 20
24.81
 30
0.0
 10
59.418
 20
25.06
 30
0.0
 10
60.0
 20
25.31
 30
0.0
  0
SPLINE
  5
AD
330
1F
100
AcDbEntity
  8
Layer 05
100
AcDbSpline
210
0.0
220
0.0
230
1.0
 70
    24
 71
     2
 72
     6
 73
     3
 74
     0
 42
0.0000000001
 43
0.0000000001
 40
0.0
 40
0.0
 40
0.0
 40
1.0
 40
1.0
 40
1.0
 10
-59.99999999999999
 20
25.81
 30
0.0
 10
0.0000000000000036
 20
25.81
 30
0.0
 10
60.0
 20
25.81
 30
0.0
  0
SPLINE
  5
AE
330
1F
100
AcDbEntity
  8
Layer 05
  6
Continuous
 62
     0
100
AcDbSpline
210
0.0
220
0.0
230
1.0
 70
    24
 71
     2
 72
     6
 73
     3
 74
     0
 42
0.0000000001
 43
0.0000000001
 40
0.0
 40
0.0
 40
0.0
 40
114.0
 40
114.0
 40
114.0
 10
60.0
 20
25.31
 30
0.0
 10
0.0000000000000036
 20
25.31
 30
0.0
 10
-59.99999999999999
 20
25.31
 30
0.0
  0
SPLINE
  5
AF
330
1F
100
AcDbEntity
  8
Layer 05
  6
Continuous
 62
     0
100
AcDbSpline
210
0.0
220
0.0
230
1.0
 70
    24
 71
     2
 72
     6
 73
     3
 74
     0
 42
0.0000000001
 43
0.0000000001
 40
0.0
 40
0.0
 40
0.0
 40
111.672
 40
111.672
 40
111.672
 10
58.836
 20
24.81
 30
0.0
 10
0.0
 20
24.81
 30
0.0
 10
-58.836
 20
24.81
 30
0.0
  0
ENDSEC
  0
SECTION
  2
OBJECTS
  0
DICTIONARY
  5
C
330
0
100
AcDbDictionary
281
     1
  3
ACAD_GROUP
350
D
  3
ACAD_LAYOUT
350
1A
  3
ACAD_MLEADERSTYLE
350
B1
  3
ACAD_MLINESTYLE
350
17
  3
ACAD_PLOTSETTINGS
350
19
  3
ACAD_PLOTSTYLENAME
350
E
  3
ACAD_TABLESTYLE
350
B0
  3
ACAD_VISUALSTYLE
350
2A
  0
DICTIONARY
  5
D
102
{ACAD_REACTORS
330
C
102
}
330
C
100
AcDbDictionary
281
     1
  0
DICTIONARY
  5
1A
102
{ACAD_REACTORS
330
C
102
}
330
C
100
AcDbDictionary
281
     1
  3
Layout1
350
1E
  3
Layout2
350
26
  3
Model
350
22
  0
DICTIONARY
  5
B1
102
{ACAD_REACTORS
330
C
102
}
330
C
100
AcDbDictionary
281
     1
  0
DICTIONARY
  5
17
102
{ACAD_REACTORS
330
C
102
}
330
C
100
AcDbDictionary
281
     1
  3
Standard
350
18
  0
DICTIONARY
  5
19
102
{ACAD_REACTORS
330
C
102
}
330
C
100
AcDbDictionary
281
     1
  0
ACDBDICTIONARYWDFLT
  5
E
102
{ACAD_REACTORS
330
C
102
}
330
C
100
AcDbDictionary
281
     1
  3
Normal
350
F
100
AcDbDictionaryWithDefault
340
F
  0
DICTIONARY
  5
B0
102
{ACAD_REACTORS
330
C
102
}
330
C
100
AcDbDictionary
281
     1
  0
DICTIONARY
  5
2A
102
{ACAD_REACTORS
330
C
102
}
330
C
100
AcDbDictionary
281
     1
  3
2dWireframe
350
2F
  3
3D Hidden
350
31
  3
3dWireframe
350
30
  3
Basic
350
32
  3
Brighten
350
36
  3
ColorChange
350
3A
  3
Conceptual
350
34
  3
Dim
350
35
  3
Facepattern
350
39
  3
Flat
350
2B
  3
FlatWithEdges
350
2C
  3
Gouraud
350
2D
  3
GouraudWithEdges
350
2E
  3
Linepattern
350
38
  3
Realistic
350
33
  3
Thicken
350
37
  0
LAYOUT
  5
1E
102
{ACAD_REACTORS
330
1A
102
}
330
1A
100
AcDbPlotSettings
  1

  2
none_device
  4

  6

 40
0.0
 41
0.0
 42
0.0
 43
0.0
 44
0.0
 45
0.0
 46
0.0
 47
0.0
 48
0.0
 49
0.0
140
0.0
141
0.0
142
1.0
143
1.0
 70
   688
 72
     0
 73
     0
 74
     5
  7

 75
    16
 76
     0
 77
     2
 78
   300
147
1.0
148
0.0
149
0.0
100
AcDbLayout
  1
Layout1
 70
     1
 71
     1
 10
0.0
 20
0.0
 11
12.0
 21
9.0
 12
0.0
 22
0.0
 32
0.0
 14
1.000000000000000E+20
 24
1.000000000000000E+20
 34
1.000000000000000E+20
 15
-1.000000000000000E+20
 25
-1.000000000000000E+20
 35
-1.000000000000000E+20
146
0.0
 13
0.0
 23
0.0
 33
0.0
 16
1.0
 26
0.0
 36
0.0
 17
0.0
 27
1.0
 37
0.0
 76
     0
330
1B
  0
LAYOUT
  5
26
102
{ACAD_REACTORS
330
1A
102
}
330
1A
100
AcDbPlotSettings
  1

  2
none_device
  4

  6

 40
0.0
 41
0.0
 42
0.0
 43
0.0
 44
0.0
 45
0.0
 46
0.0
 47
0.0
 48
0.0
 49
0.0
140
0.0
141
0.0
142
1.0
143
1.0
 70
   688
 72
     0
 73
     0
 74
     5
  7

 75
    16
 76
     0
 77
     2
 78
   300
147
1.0
148
0.0
149
0.0
100
AcDbLayout
  1
Layout2
 70
     1
 71
     2
 10
0.0
 20
0.0
 11
0.0
 21
0.0
 12
0.0
 22
0.0
 32
0.0
 14
0.0
 24
0.0
 34
0.0
 15
0.0
 25
0.0
 35
0.0
146
0.0
 13
0.0
 23
0.0
 33
0.0
 16
1.0
 26
0.0
 36
0.0
 17
0.0
 27
1.0
 37
0.0
 76
     0
330
23
  0
LAYOUT
  5
22
102
{ACAD_REACTORS
330
1A
102
}
330
1A
100
AcDbPlotSettings
  1

  2
none_device
  4

  6

 40
0.0
 41
0.0
 42
0.0
 43
0.0
 44
0.0
 45
0.0
 46
0.0
 47
0.0
 48
0.0
 49
0.0
140
0.0
141
0.0
142
1.0
143
1.0
 70
  1712
 72
     0
 73
     0
 74
     0
  7

 75
     0
 76
     0
 77
     2
 78
   300
147
1.0
148
0.0
149
0.0
100
AcDbLayout
  1
Model
 70
     1
 71
     0
 10
0.0
 20
0.0
 11
12.0
 21
9.0
 12
0.0
 22
0.0
 32
0.0
 14
-60.0
 24
-0.0049999999962778
 34
0.0
 15
119.0
 25
90.81000000000009
 35
0.0
146
0.0
 13
0.0
 23
0.0
 33
0.0
 16
1.0
 26
0.0
 36
0.0
 17
0.0
 27
1.0
 37
0.0
 76
     0
330
1F
331
29
  0
MLINESTYLE
  5
18
102
{ACAD_REACTORS
330
17
102
}
330
17
100
AcDbMlineStyle
  2
Standard
 70
     0
  3

 62
   256
 51
90.0
 52
90.0
 71
     2
 49
0.5
 62
   256
  6
BYLAYER
 49
-0.5
 62
   256
  6
BYLAYER
  0
ACDBPLACEHOLDER
  5
F
102
{ACAD_REACTORS
330
E
102
}
330
E
  0
VISUALSTYLE
  5
2F
102
{ACAD_REACTORS
330
2A
102
}
330
2A
100
AcDbVisualStyle
  2
2dWireframe
 70
     4
 71
     0
 72
     2
 73
     0
 90
        0
 40
-0.6
 41
-30.0
 62
     5
 63
     7
421
 16777215
 74
     1
 91
        4
 64
     7
 65
   257
 75
     1
175
     1
 42
1.0
 92
        0
 66
   257
 43
1.0
 76
     1
 77
     6
 78
     2
 67
     7
 79
     5
170
     0
171
     0
290
     0
174
     0
 93
        1
 44
0.0
173
     0
291
     0
 45
0.0
1001
ACAD
1000
AcDbSavedByObjectVersion
1070
     0
  0
VISUALSTYLE
  5
31
102
{ACAD_REACTORS
330
2A
102
}
330
2A
100
AcDbVisualStyle
  2
3D Hidden
 70
     6
 71
     1
 72
     2
 73
     2
 90
        0
 40
-0.6
 41
-30.0
 62
     5
 63
     7
421
 16777215
 74
     2
 91
        2
 64
     7
 65
   257
 75
     2
175
     1
 42
40.0
 92
        0
 66
   257
 43
1.0
 76
     1
 77
     6
 78
     2
 67
     7
 79
     3
170
     0
171
     0
290
     0
174
     0
 93
        1
 44
0.0
173
     0
291
     0
 45
0.0
1001
ACAD
1000
AcDbSavedByObjectVersion
1070
     0
  0
VISUALSTYLE
  5
30
102
{ACAD_REACTORS
330
2A
102
}
330
2A
100
AcDbVisualStyle
  2
3dWireframe
 70
     5
 71
     0
 72
     2
 73
     0
 90
        0
 40
-0.6
 41
-30.0
 62
     5
 63
     7
421
 16777215
 74
     1
 91
        4
 64
     7
 65
   257
 75
     1
175
     1
 42
1.0
 92
        0
 66
   257
 43
1.0
 76
     1
 77
     6
 78
     2
 67
     7
 79
     5
170
     0
171
     0
290
     0
174
     0
 93
        1
 44
0.0
173
     0
291
     0
 45
0.0
1001
ACAD
1000
AcDbSavedByObjectVersion
1070
     0
  0
VISUALSTYLE
  5
32
102
{ACAD_REACTORS
330
2A
102
}
330
2A
100
AcDbVisualStyle
  2
Basic
 70
     7
 71
     1
 72
     0
 73
     1
 90
        0
 40
-0.6
 41
-30.0
 62
     5
 63
     7
421
 16777215
 74
     0
 91
        4
 64
     7
 65
   257
 75
     1
175
     1
 42
1.0
 92
        8
 66
     7
 43
1.0
 76
     1
 77
     6
 78
     2
 67
     7
 79
     5
170
     0
171
     0
290
     0
174
     0
 93
        1
 44
0.0
173
     0
291
     1
 45
0.0
1001
ACAD
1000
AcDbSavedByObjectVersion
1070
     0
  0
VISUALSTYLE
  5
36
102
{ACAD_REACTORS
330
2A
102
}
330
2A
100
AcDbVisualStyle
  2
Brighten
 70
    12
 71
     2
 72
     2
 73
     0
 90
        0
 40
-0.6
 41
-30.0
 62
     5
 63
     7
421
 16777215
 74
     1
 91
        4
 64
     7
 65
   257
 75
     1
175
     1
 42
1.0
 92
        8
 66
     7
 43
1.0
 76
     1
 77
     6
 78
     2
 67
     7
 79
     5
170
     0
171
     0
290
     0
174
     0
 93
        1
 44
50.0
173
     0
291
     1
 45
0.0
1001
ACAD
1000
AcDbSavedByObjectVersion
1070
     0
  0
VISUALSTYLE
  5
3A
102
{ACAD_REACTORS
330
2A
102
}
330
2A
100
AcDbVisualStyle
  2
ColorChange
 70
    16
 71
     2
 72
     2
 73
     3
 90
        0
 40
-0.6
 41
-30.0
 62
     5
 63
     8
421
  8421504
 74
     1
 91
        4
 64
     7
 65
   257
 75
     1
175
     1
 42
1.0
 92
        8
 66
     8
424
  8421504
 43
1.0
 76
     1
 77
     6
 78
     2
 67
     7
 79
     5
170
     0
171
     0
290
     0
174
     0
 93
        1
 44
0.0
173
     0
291
     1
 45
0.0
1001
ACAD
1000
AcDbSavedByObjectVersion
1070
     0
  0
VISUALSTYLE
  5
34
102
{ACAD_REACTORS
330
2A
102
}
330
2A
100
AcDbVisualStyle
  2
Conceptual
 70
     9
 71
     3
 72
     2
 73
     0
 90
        0
 40
-0.6
 41
-30.0
 62
     5
 63
     7
421
 16777215
 74
     2
 91
        2
 64
     7
 65
   257
 75
     1
175
     1
 42
40.0
 92
        8
 66
     7
 43
1.0
 76
     1
 77
     6
 78
     2
 67
     7
 79
     3
170
     0
171
     0
290
     0
174
     0
 93
        1
 44
0.0
173
     0
291
     0
 45
0.0
1001
ACAD
1000
AcDbSavedByObjectVersion
1070
     0
  0
VISUALSTYLE
  5
35
102
{ACAD_REACTORS
330
2A
102
}
330
2A
100
AcDbVisualStyle
  2
Dim
 70
    11
 71
     2
 72
     2
 73
     0
 90
        0
 40
-0.6
 41
-30.0
 62
     5
 63
     7
421
 16777215
 74
     1
 91
        4
 64
     7
 65
   257
 75
     1
175
     1
 42
1.0
 92
        8
 66
     7
 43
1.0
 76
     1
 77
     6
 78
     2
 67
     7
 79
     5
170
     0
171
     0
290
     0
174
     0
 93
        1
 44
-50.0
173
     0
291
     1
 45
0.0
1001
ACAD
1000
AcDbSavedByObjectVersion
1070
     0
  0
VISUALSTYLE
  5
39
102
{ACAD_REACTORS
330
2A
102
}
330
2A
100
AcDbVisualStyle
  2
Facepattern
 70
    15
 71
     2
 72
     2
 73
     0
 90
        0
 40
-0.6
 41
-30.0
 62
     5
 63
     7
421
 16777215
 74
     1
 91
        4
 64
     7
 65
   257
 75
     1
175
     1
 42
1.0
 92
        8
 66
     7
 43
1.0
 76
     1
 77
     6
 78
     2
 67
     7
 79
     5
170
     0
171
     0
290
     0
174
     0
 93
        1
 44
0.0
173
     0
291
     1
 45
0.0
1001
ACAD
1000
AcDbSavedByObjectVersion
1070
     0
  0
VISUALSTYLE
  5
2B
102
{ACAD_REACTORS
330
2A
102
}
330
2A
100
AcDbVisualStyle
  2
Flat
 70
     0
 71
     2
 72
     1
 73
     1
 90
        2
 40
-0.6
 41
30.0
 62
     5
 63
     7
421
 16777215
 74
     0
 91
        4
 64
     7
 65
   257
 75
     1
175
     1
 42
1.0
 92
        8
 66
     7
 43
1.0
 76
     1
 77
     6
 78
     2
 67
     7
 79
     5
170
     0
171
     0
290
     0
174
     0
 93
       13
 44
0.0
173
     0
291
     1
 45
0.0
1001
ACAD
1000
AcDbSavedByObjectVersion
1070
     0
  0
VISUALSTYLE
  5
2C
102
{ACAD_REACTORS
330
2A
102
}
330
2A
100
AcDbVisualStyle
  2
FlatWithEdges
 70
     1
 71
     2
 72
     1
 73
     1
 90
        2
 40
-0.6
 41
30.0
 62
     5
 63
     7
421
 16777215
 74
     1
 91
        4
 64
     7
 65
   257
 75
     1
175
     1
 42
1.0
 92
        0
 66
   257
 43
1.0
 76
     1
 77
     6
 78
     2
 67
     7
 79
     5
170
     0
171
     0
290
     0
174
     0
 93
       13
 44
0.0
173
     0
291
     1
 45
0.0
1001
ACAD
1000
AcDbSavedByObjectVersion
1070
     0
  0
VISUALSTYLE
  5
2D
102
{ACAD_REACTORS
330
2A
102
}
330
2A
100
AcDbVisualStyle
  2
Gouraud
 70
     2
 71
     2
 72
     2
 73
     1
 90
        2
 40
-0.6
 41
30.0
 62
     5
 63
     7
421
 16777215
 74
     0
 91
        4
 64
     7
 65
   257
 75
     1
175
     1
 42
1.0
 92
        0
 66
     7
 43
1.0
 76
     1
 77
     6
 78
     2
 67
     7
 79
     5
170
     0
171
     0
290
     0
174
     0
 93
       13
 44
0.0
173
     0
291
     1
 45
0.0
1001
ACAD
1000
AcDbSavedByObjectVersion
1070
     0
  0
VISUALSTYLE
  5
2E
102
{ACAD_REACTORS
330
2A
102
}
330
2A
100
AcDbVisualStyle
  2
GouraudWithEdges
 70
     3
 71
     2
 72
     2
 73
     1
 90
        2
 40
-0.6
 41
30.0
 62
     5
 63
     7
421
 16777215
 74
     1
 91
        4
 64
     7
 65
   257
 75
     1
175
     1
 42
1.0
 92
        0
 66
   257
 43
1.0
 76
     1
 77
     6
 78
     2
 67
     7
 79
     5
170
     0
171
     0
290
     0
174
     0
 93
       13
 44
0.0
173
     0
291
     1
 45
0.0
1001
ACAD
1000
AcDbSavedByObjectVersion
1070
     0
  0
VISUALSTYLE
  5
38
102
{ACAD_REACTORS
330
2A
102
}
330
2A
100
AcDbVisualStyle
  2
Linepattern
 70
    14
 71
     2
 72
     2
 73
     0
 90
        0
 40
-0.6
 41
-30.0
 62
     5
 63
     7
421
 16777215
 74
     1
 91
        4
 64
     7
 65
   257
 75
     7
175
     7
 42
1.0
 92
        8
 66
     7
 43
1.0
 76
     1
 77
     6
 78
     2
 67
     7
 79
     5
170
     0
171
     0
290
     0
174
     0
 93
        1
 44
0.0
173
     0
291
     1
 45
0.0
1001
ACAD
1000
AcDbSavedByObjectVersion
1070
     0
  0
VISUALSTYLE
  5
33
102
{ACAD_REACTORS
330
2A
102
}
330
2A
100
AcDbVisualStyle
  2
Realistic
 70
     8
 71
     2
 72
     2
 73
     0
 90
        0
 40
-0.6
 41
-30.0
 62
     5
 63
     7
421
 16777215
 74
     1
 91
        0
 64
     7
 65
   257
 75
     1
175
     1
 42
1.0
 92
        8
 66
     8
424
  7895160
 43
1.0
 76
     1
 77
     6
 78
     2
 67
     7
 79
     5
170
     0
171
     0
290
     0
174
     0
 93
       13
 44
0.0
173
     0
291
     0
 45
0.0
1001
ACAD
1000
AcDbSavedByObjectVersion
1070
     0
  0
VISUALSTYLE
  5
37
102
{ACAD_REACTORS
330
2A
102
}
330
2A
100
AcDbVisualStyle
  2
Thicken
 70
    13
 71
     2
 72
     2
 73
     0
 90
        0
 40
-0.6
 41
-30.0
 62
     5
 63
     7
421
 16777215
 74
     1
 91
        4
 64
     7
 65
   257
 75
     1
175
     1
 42
1.0
 92
       12
 66
     7
 43
1.0
 76
     1
 77
     6
 78
     2
 67
     7
 79
     5
170
     0
171
     0
290
     0
174
     0
 93
        1
 44
0.0
173
     0
291
     1
 45
0.0
1001
ACAD
1000
AcDbSavedByObjectVersion
1070
     0
  0
ENDSEC
  0
EOF
