  0
SECTION
  2
HEADER
  9
$ACADVER
  1
AC1018
  9
$ACADMAINTVER
 70
     0
  9
$DWGCODEPAGE
  3
ANSI_1252
  9
$INSBASE
 10
0.0
 20
0.0
 30
0.0
  9
$EXTMIN
 10
-33.61069246033817
 20
0.0000000000000004
 30
0.0
  9
$EXTMAX
 10
79.17891668481113
 20
82.61421080081887
 30
0.0
  9
$LIMMIN
 10
0.0
 20
0.0
  9
$LIMMAX
 10
12.0
 20
9.0
  9
$ORTHOMODE
 70
     0
  9
$REGENMODE
 70
     1
  9
$FILLMODE
 70
     1
  9
$QTEXTMODE
 70
     0
  9
$MIRRTEXT
 70
     1
  9
$LTSCALE
 40
0.0393700787401575
  9
$ATTMODE
 70
     1
  9
$TEXTSIZE
 40
0.2
  9
$TRACEWID
 40
0.05
  9
$TEXTSTYLE
  7
Standard
  9
$CLAYER
  8
DEFAULT
  9
$CELTYPE
  6
ByLayer
  9
$CECOLOR
 62
   256
  9
$CELTSCALE
 40
1.0
  9
$DISPSILH
 70
     0
  9
$DIMSCALE
 40
1.0
  9
$DIMASZ
 40
0.18
  9
$DIMEXO
 40
0.0625
  9
$DIMDLI
 40
0.38
  9
$DIMRND
 40
0.0
  9
$DIMDLE
 40
0.0
  9
$DIMEXE
 40
0.18
  9
$DIMTP
 40
0.0
  9
$DIMTM
 40
0.0
  9
$DIMTXT
 40
0.18
  9
$DIMCEN
 40
0.09
  9
$DIMTSZ
 40
0.0
  9
$DIMTOL
 70
     0
  9
$DIMLIM
 70
     0
  9
$DIMTIH
 70
     1
  9
$DIMTOH
 70
     1
  9
$DIMSE1
 70
     0
  9
$DIMSE2
 70
     0
  9
$DIMTAD
 70
     0
  9
$DIMZIN
 70
     0
  9
$DIMBLK
  1

  9
$DIMASO
 70
     1
  9
$DIMSHO
 70
     1
  9
$DIMPOST
  1

  9
$DIMAPOST
  1

  9
$DIMALT
 70
     0
  9
$DIMALTD
 70
     2
  9
$DIMALTF
 40
25.4
  9
$DIMLFAC
 40
1.0
  9
$DIMTOFL
 70
     0
  9
$DIMTVP
 40
0.0
  9
$DIMTIX
 70
     0
  9
$DIMSOXD
 70
     0
  9
$DIMSAH
 70
     0
  9
$DIMBLK1
  1

  9
$DIMBLK2
  1

  9
$DIMSTYLE
  2
Standard
  9
$DIMCLRD
 70
     0
  9
$DIMCLRE
 70
     0
  9
$DIMCLRT
 70
     0
  9
$DIMTFAC
 40
1.0
  9
$DIMGAP
 40
0.09
  9
$DIMJUST
 70
     0
  9
$DIMSD1
 70
     0
  9
$DIMSD2
 70
     0
  9
$DIMTOLJ
 70
     1
  9
$DIMTZIN
 70
     0
  9
$DIMALTZ
 70
     0
  9
$DIMALTTZ
 70
     0
  9
$DIMUPT
 70
     0
  9
$DIMDEC
 70
     4
  9
$DIMTDEC
 70
     4
  9
$DIMALTU
 70
     2
  9
$DIMALTTD
 70
     2
  9
$DIMTXSTY
  7
Standard
  9
$DIMAUNIT
 70
     0
  9
$DIMADEC
 70
     0
  9
$DIMALTRND
 40
0.0
  9
$DIMAZIN
 70
     0
  9
$DIMDSEP
 70
    46
  9
$DIMATFIT
 70
     3
  9
$DIMFRAC
 70
     0
  9
$DIMLDRBLK
  1

  9
$DIMLUNIT
 70
     2
  9
$DIMLWD
 70
    -2
  9
$DIMLWE
 70
    -2
  9
$DIMTMOVE
 70
     2
  9
$LUNITS
 70
     2
  9
$LUPREC
 70
     3
  9
$SKETCHINC
 40
0.1
  9
$FILLETRAD
 40
0.5
  9
$AUNITS
 70
     0
  9
$AUPREC
 70
     0
  9
$MENU
  1
.
  9
$ELEVATION
 40
0.0
  9
$PELEVATION
 40
0.0
  9
$THICKNESS
 40
0.0
  9
$LIMCHECK
 70
     0
  9
$CHAMFERA
 40
0.5
  9
$CHAMFERB
 40
0.5
  9
$CHAMFERC
 40
1.0
  9
$CHAMFERD
 40
0.0
  9
$SKPOLY
 70
     0
  9
$TDCREATE
 40
2455908.668996389
  9
$TDUCREATE
 40
2455908.877329722
  9
$TDUPDATE
 40
2455908.668996401
  9
$TDUUPDATE
 40
2455908.877329734
  9
$TDINDWG
 40
0.0000000116
  9
$TDUSRTIMER
 40
0.0000000116
  9
$USRTIMER
 70
     1
  9
$ANGBASE
 50
0.0
  9
$ANGDIR
 70
     0
  9
$PDMODE
 70
     0
  9
$PDSIZE
 40
0.0
  9
$PLINEWID
 40
0.0
  9
$SPLFRAME
 70
     0
  9
$SPLINETYPE
 70
     6
  9
$SPLINESEGS
 70
     8
  9
$HANDSEED
  5
137
  9
$SURFTAB1
 70
     6
  9
$SURFTAB2
 70
     6
  9
$SURFTYPE
 70
     6
  9
$SURFU
 70
     6
  9
$SURFV
 70
     6
  9
$UCSBASE
  2

  9
$UCSNAME
  2

  9
$UCSORG
 10
0.0
 20
0.0
 30
0.0
  9
$UCSXDIR
 10
1.0
 20
0.0
 30
0.0
  9
$UCSYDIR
 10
0.0
 20
1.0
 30
0.0
  9
$UCSORTHOREF
  2

  9
$UCSORTHOVIEW
 70
     0
  9
$UCSORGTOP
 10
0.0
 20
0.0
 30
0.0
  9
$UCSORGBOTTOM
 10
0.0
 20
0.0
 30
0.0
  9
$UCSORGLEFT
 10
0.0
 20
0.0
 30
0.0
  9
$UCSORGRIGHT
 10
0.0
 20
0.0
 30
0.0
  9
$UCSORGFRONT
 10
0.0
 20
0.0
 30
0.0
  9
$UCSORGBACK
 10
0.0
 20
0.0
 30
0.0
  9
$PUCSBASE
  2

  9
$PUCSNAME
  2

  9
$PUCSORG
 10
0.0
 20
0.0
 30
0.0
  9
$PUCSXDIR
 10
1.0
 20
0.0
 30
0.0
  9
$PUCSYDIR
 10
0.0
 20
1.0
 30
0.0
  9
$PUCSORTHOREF
  2

  9
$PUCSORTHOVIEW
 70
     0
  9
$PUCSORGTOP
 10
0.0
 20
0.0
 30
0.0
  9
$PUCSORGBOTTOM
 10
0.0
 20
0.0
 30
0.0
  9
$PUCSORGLEFT
 10
0.0
 20
0.0
 30
0.0
  9
$PUCSORGRIGHT
 10
0.0
 20
0.0
 30
0.0
  9
$PUCSORGFRONT
 10
0.0
 20
0.0
 30
0.0
  9
$PUCSORGBACK
 10
0.0
 20
0.0
 30
0.0
  9
$USERI1
 70
     0
  9
$USERI2
 70
     0
  9
$USERI3
 70
     0
  9
$USERI4
 70
     0
  9
$USERI5
 70
     0
  9
$USERR1
 40
0.0
  9
$USERR2
 40
0.0
  9
$USERR3
 40
0.0
  9
$USERR4
 40
0.0
  9
$USERR5
 40
0.0
  9
$WORLDVIEW
 70
     1
  9
$SHADEDGE
 70
     3
  9
$SHADEDIF
 70
    70
  9
$TILEMODE
 70
     1
  9
$MAXACTVP
 70
    64
  9
$PINSBASE
 10
0.0
 20
0.0
 30
0.0
  9
$PLIMCHECK
 70
     0
  9
$PEXTMIN
 10
1.000000000000000E+20
 20
1.000000000000000E+20
 30
1.000000000000000E+20
  9
$PEXTMAX
 10
-1.000000000000000E+20
 20
-1.000000000000000E+20
 30
-1.000000000000000E+20
  9
$PLIMMIN
 10
0.0
 20
0.0
  9
$PLIMMAX
 10
12.0
 20
9.0
  9
$UNITMODE
 70
     0
  9
$VISRETAIN
 70
     1
  9
$PLINEGEN
 70
     0
  9
$PSLTSCALE
 70
     1
  9
$TREEDEPTH
 70
  3020
  9
$CMLSTYLE
  2
Standard
  9
$CMLJUST
 70
     0
  9
$CMLSCALE
 40
1.0
  9
$PROXYGRAPHICS
 70
     1
  9
$MEASUREMENT
 70
     0
  9
$CELWEIGHT
370
    -1
  9
$ENDCAPS
280
     0
  9
$JOINSTYLE
280
     0
  9
$LWDISPLAY
290
     0
  9
$INSUNITS
 70
     1
  9
$HYPERLINKBASE
  1

  9
$STYLESHEET
  1

  9
$XEDIT
290
     1
  9
$CEPSNTYPE
380
     0
  9
$PSTYLEMODE
290
     1
  9
$FINGERPRINTGUID
  2
{2BDE1F71-DEA1-4149-90C3-21DCF2A23621}
  9
$VERSIONGUID
  2
{FAEB1C32-E019-11D5-929B-00C0DF256EC4}
  9
$EXTNAMES
290
     1
  9
$PSVPSCALE
 40
0.0
  9
$OLESTARTUP
290
     0
  9
$SORTENTS
280
   127
  9
$INDEXCTL
280
     0
  9
$HIDETEXT
280
     1
  9
$XCLIPFRAME
290
     0
  9
$HALOGAP
280
     0
  9
$OBSCOLOR
 70
   257
  9
$OBSLTYPE
280
     0
  9
$INTERSECTIONDISPLAY
280
     0
  9
$INTERSECTIONCOLOR
 70
   257
  9
$DIMASSOC
280
     2
  9
$PROJECTNAME
  1

  0
ENDSEC
  0
SECTION
  2
CLASSES
  0
CLASS
  1
ACDBDICTIONARYWDFLT
  2
AcDbDictionaryWithDefault
  3
ObjectDBX Classes
 90
        0
 91
        4
280
     0
281
     0
  0
CLASS
  1
VISUALSTYLE
  2
AcDbVisualStyle
  3
ObjectDBX Classes
 90
     4095
 91
        4
280
     0
281
     0
  0
ENDSEC
  0
SECTION
  2
TABLES
  0
TABLE
  2
VPORT
  5
8
330
0
100
AcDbSymbolTable
 70
     1
  0
VPORT
  5
29
330
8
100
AcDbSymbolTableRecord
100
AcDbViewportTableRecord
  2
*Active
 70
     0
 10
0.0
 20
0.0
 11
1.0
 21
1.0
 12
22.78411211223648
 22
41.30710540040943
 13
0.0
 23
0.0
 14
0.5
 24
0.5
 15
0.5
 25
0.5
 16
0.0
 26
0.0
 36
1.0
 17
0.0
 27
0.0
 37
0.0
 40
84.26649501683525
 41
1.365256752462148
 42
50.0
 43
0.0
 44
0.0
 50
0.0
 51
0.0
 71
     0
 72
   100
 73
     1
 74
     3
 75
     0
 76
     0
 77
     0
 78
     0
281
     0
 65
     1
110
0.0
120
0.0
130
0.0
111
1.0
121
0.0
131
0.0
112
0.0
122
1.0
132
0.0
 79
     0
146
0.0
  0
ENDTAB
  0
TABLE
  2
LTYPE
  5
5
330
0
100
AcDbSymbolTable
 70
     1
  0
LTYPE
  5
14
330
5
100
AcDbSymbolTableRecord
100
AcDbLinetypeTableRecord
  2
ByBlock
 70
     0
  3

 72
    65
 73
     0
 40
0.0
  0
LTYPE
  5
15
330
5
100
AcDbSymbolTableRecord
100
AcDbLinetypeTableRecord
  2
ByLayer
 70
     0
  3

 72
    65
 73
     0
 40
0.0
  0
LTYPE
  5
16
330
5
100
AcDbSymbolTableRecord
100
AcDbLinetypeTableRecord
  2
Continuous
 70
     0
  3
Solid line
 72
    65
 73
     0
 40
0.0
  0
ENDTAB
  0
TABLE
  2
LAYER
  5
2
330
0
100
AcDbSymbolTable
 70
     2
  0
LAYER
  5
10
330
2
100
AcDbSymbolTableRecord
100
AcDbLayerTableRecord
  2
0
 70
     0
 62
     7
  6
Continuous
370
    -3
390
F
  0
LAYER
  5
3B
330
2
100
AcDbSymbolTableRecord
100
AcDbLayerTableRecord
  2
DEFAULT
 70
     0
 62
     7
  6
Continuous
370
    -3
390
F
  0
ENDTAB
  0
TABLE
  2
STYLE
  5
3
330
0
100
AcDbSymbolTable
 70
     1
  0
STYLE
  5
11
330
3
100
AcDbSymbolTableRecord
100
AcDbTextStyleTableRecord
  2
Standard
 70
     0
 40
0.0
 41
1.0
 50
0.0
 71
     0
 42
0.2
  3
txt
  4

  0
ENDTAB
  0
TABLE
  2
VIEW
  5
6
330
0
100
AcDbSymbolTable
 70
     0
  0
ENDTAB
  0
TABLE
  2
UCS
  5
7
330
0
100
AcDbSymbolTable
 70
     0
  0
ENDTAB
  0
TABLE
  2
APPID
  5
9
330
0
100
AcDbSymbolTable
 70
     1
  0
APPID
  5
12
330
9
100
AcDbSymbolTableRecord
100
AcDbRegAppTableRecord
  2
ACAD
 70
     0
  0
ENDTAB
  0
TABLE
  2
DIMSTYLE
  5
A
330
0
100
AcDbSymbolTable
 70
     1
100
AcDbDimStyleTable
  0
DIMSTYLE
105
27
330
A
100
AcDbSymbolTableRecord
100
AcDbDimStyleTableRecord
  2
Standard
 70
     0
340
11
  0
ENDTAB
  0
TABLE
  2
BLOCK_RECORD
  5
1
330
0
100
AcDbSymbolTable
 70
     1
  0
BLOCK_RECORD
  5
1F
330
1
100
AcDbSymbolTableRecord
100
AcDbBlockTableRecord
  2
*Model_Space
340
22
  0
BLOCK_RECORD
  5
1B
330
1
100
AcDbSymbolTableRecord
100
AcDbBlockTableRecord
  2
*Paper_Space
340
1E
  0
BLOCK_RECORD
  5
23
330
1
100
AcDbSymbolTableRecord
100
AcDbBlockTableRecord
  2
*Paper_Space0
340
26
  0
ENDTAB
  0
ENDSEC
  0
SECTION
  2
BLOCKS
  0
BLOCK
  5
20
330
1F
100
AcDbEntity
  8
0
100
AcDbBlockBegin
  2
*Model_Space
 70
     0
 10
0.0
 20
0.0
 30
0.0
  3
*Model_Space
  1

  0
ENDBLK
  5
21
330
1F
100
AcDbEntity
  8
0
100
AcDbBlockEnd
  0
BLOCK
  5
1C
330
1B
100
AcDbEntity
 67
     1
  8
0
100
AcDbBlockBegin
  2
*Paper_Space
 70
     0
 10
0.0
 20
0.0
 30
0.0
  3
*Paper_Space
  1

  0
ENDBLK
  5
1D
330
1B
100
AcDbEntity
 67
     1
  8
0
100
AcDbBlockEnd
  0
BLOCK
  5
24
330
23
100
AcDbEntity
  8
0
100
AcDbBlockBegin
  2
*Paper_Space0
 70
     0
 10
0.0
 20
0.0
 30
0.0
  3
*Paper_Space0
  1

  0
ENDBLK
  5
25
330
23
100
AcDbEntity
  8
0
100
AcDbBlockEnd
  0
ENDSEC
  0
SECTION
  2
ENTITIES
  0
SPLINE
  5
3C
330
1F
100
AcDbEntity
  8
DEFAULT
100
AcDbSpline
210
0.0
220
0.0
230
1.0
 70
    24
 71
     2
 72
     6
 73
     3
 74
     0
 42
0.0000000001
 43
0.0000000001
 40
-0.125
 40
-0.125
 40
-0.125
 40
0.0
 40
0.0
 40
0.0
 10
-21.91122600696215
 20
0.0000000000000005
 30
0.0
 10
-21.91142981808034
 20
0.0625000000000005
 30
0.0
 10
-21.91163362919852
 20
0.1250000000000004
 30
0.0
  0
SPLINE
  5
3D
330
1F
100
AcDbEntity
  8
DEFAULT
100
AcDbSpline
210
0.0
220
0.0
230
1.0
 70
    24
 71
     2
 72
     6
 73
     3
 74
     0
 42
0.0000000001
 43
0.0000000001
 40
0.0
 40
0.0
 40
0.0
 40
0.0080251520404246
 40
0.0080251520404246
 40
0.0080251520404246
 10
-19.7474905843122
 20
0.1250000000000004
 30
0.0
 10
-19.75150316033242
 20
0.1250000000000004
 30
0.0
 10
-19.75551573635263
 20
0.1250000000000004
 30
0.0
  0
SPLINE
  5
3E
330
1F
100
AcDbEntity
  8
DEFAULT
100
AcDbSpline
210
0.0
220
0.0
230
1.0
 70
    24
 71
     2
 72
     6
 73
     3
 74
     0
 42
0.0000000001
 43
0.0000000001
 40
-0.125
 40
-0.125
 40
-0.125
 40
0.0
 40
0.0
 40
0.0
 10
-18.99153745644463
 20
0.1250000000000004
 30
0.0
 10
-18.99176363328335
 20
0.0625000000000005
 30
0.0
 10
-18.99198981012206
 20
0.0000000000000005
 30
0.0
  0
SPLINE
  5
3F
330
1F
100
AcDbEntity
  8
DEFAULT
100
AcDbSpline
210
0.0
220
0.0
230
1.0
 70
    28
 71
     2
 72
     8
 73
     5
 74
     0
 42
0.0000000001
 43
0.0000000001
 40
2.276272015520191
 40
2.276272015520191
 40
2.276272015520191
 40
2.566267521869333
 40
2.566267521869333
 40
3.570796326793997
 40
3.570796326793997
 40
3.570796326793997
 10
-20.51498754817982
 20
0.0000000000000005
 30
0.0
 41
0.8859415057259156
 10
-20.50553396221832
 20
0.0000000000000006
 30
0.0
 41
0.7846830076536525
 10
-20.6540995392578
 20
0.0000000000000004
 30
0.0
 41
1.0
 10
-21.10262639088529
 20
0.0000000000000004
 30
0.0
 41
1.0
 10
-21.55115324251278
 20
0.0000000000000004
 30
0.0
 41
1.0
  0
SPLINE
  5
40
330
1F
100
AcDbEntity
  8
DEFAULT
100
AcDbSpline
210
0.0
220
0.0
230
1.0
 70
    24
 71
     2
 72
     6
 73
     3
 74
     0
 42
0.0000000001
 43
0.0000000001
 40
0.0
 40
0.0
 40
0.0
 40
0.3596651422130037
 40
0.3596651422130037
 40
0.3596651422130037
 10
-21.55115324251278
 20
0.0000000000000004
 30
0.0
 10
-21.73118962473747
 20
0.0000000000000005
 30
0.0
 10
-21.91122600696215
 20
0.0000000000000005
 30
0.0
  0
SPLINE
  5
41
330
1F
100
AcDbEntity
  8
DEFAULT
100
AcDbSpline
210
0.0
220
0.0
230
1.0
 70
    24
 71
     2
 72
     6
 73
     3
 74
     0
 42
0.0000000001
 43
0.0000000001
 40
-0.125
 40
-0.125
 40
-0.125
 40
0.0
 40
0.0
 40
0.0
 10
-20.51457992594348
 20
0.1250000000000004
 30
0.0
 10
-20.51478373706166
 20
0.0625000000000005
 30
0.0
 10
-20.51498754817983
 20
0.0000000000000005
 30
0.0
  0
SPLINE
  5
42
330
1F
100
AcDbEntity
  8
DEFAULT
100
AcDbSpline
210
0.0
220
0.0
230
1.0
 70
    24
 71
     2
 72
     6
 73
     3
 74
     0
 42
0.0000000001
 43
0.0000000001
 40
0.0
 40
0.0
 40
0.0
 40
0.125
 40
0.125
 40
0.125
 10
-3.902797674041295
 20
0.0000000000000004
 30
0.0
 10
-3.902797674041295
 20
0.0625000000000004
 30
0.0
 10
-3.902797674041295
 20
0.1250000000000004
 30
0.0
  0
SPLINE
  5
43
330
1F
100
AcDbEntity
  8
DEFAULT
100
AcDbSpline
210
0.0
220
0.0
230
1.0
 70
    24
 71
     2
 72
     6
 73
     3
 74
     0
 42
0.0000000001
 43
0.0000000001
 40
0.0
 40
0.0
 40
0.0
 40
0.125
 40
0.125
 40
0.125
 10
-5.299851377296335
 20
0.1250000000000004
 30
0.0
 10
-5.299851377296335
 20
0.0625000000000004
 30
0.0
 10
-5.299851377296335
 20
0.0000000000000004
 30
0.0
  0
POLYLINE
  5
44
330
1F
100
AcDbEntity
  8
DEFAULT
100
AcDb2dPolyline
 66
     1
 10
0.0
 20
0.0
 30
0.0
  0
VERTEX
  5
45
330
44
100
AcDbEntity
  8
DEFAULT
100
AcDbVertex
100
AcDb2dVertex
 10
-5.299851377296335
 20
0.0000000000000004
 30
0.0
  0
VERTEX
  5
46
330
44
100
AcDbEntity
  8
DEFAULT
100
AcDbVertex
100
AcDb2dVertex
 10
-3.902797674041295
 20
0.0000000000000004
 30
0.0
  0
SEQEND
  5
47
330
44
100
AcDbEntity
  8
DEFAULT
  0
SPLINE
  5
48
330
1F
100
AcDbEntity
  8
DEFAULT
100
AcDbSpline
210
0.0
220
0.0
230
1.0
 70
    24
 71
     2
 72
     6
 73
     3
 74
     0
 42
0.0000000001
 43
0.0000000001
 40
-0.125
 40
-0.125
 40
-0.125
 40
0.0
 40
0.0
 40
0.0
 10
-19.7564204437075
 20
0.0000000000000004
 30
0.0
 10
-19.7564204437075
 20
0.0625000000000004
 30
0.0
 10
-19.7564204437075
 20
0.1250000000000004
 30
0.0
  0
SPLINE
  5
49
330
1F
100
AcDbEntity
  8
DEFAULT
100
AcDbSpline
210
0.0
220
0.0
230
1.0
 70
    28
 71
     2
 72
     6
 73
     3
 74
     0
 42
0.0000000001
 43
0.0000000001
 40
0.0
 40
0.0
 40
0.0
 40
0.3384144077064375
 40
0.3384144077064375
 40
0.3384144077064375
 10
-18.99198981012206
 20
0.0000000000000005
 30
0.0
 41
0.9288656988894769
 10
-18.97979787329217
 20
0.0000000000000004
 30
0.0
 41
0.7485332392099654
 10
-19.17531670962893
 20
0.0000000000000004
 30
0.0
 41
1.0
  0
LINE
  5
4A
330
1F
100
AcDbEntity
  8
DEFAULT
100
AcDbLine
 10
-19.17531670962893
 20
0.0000000000000004
 30
0.0
 11
-19.7564204437075
 21
0.0000000000000004
 31
0.0
  0
SPLINE
  5
4B
330
1F
100
AcDbEntity
  8
DEFAULT
100
AcDbSpline
210
0.0
220
0.0
230
1.0
 70
    24
 71
     2
 72
     6
 73
     3
 74
     0
 42
0.0000000001
 43
0.0000000001
 40
0.0
 40
0.0
 40
0.0
 40
3.645750219072646
 40
3.645750219072646
 40
3.645750219072646
 10
19.07373737673407
 20
1.250023220638198
 30
0.0
 10
20.8966124862704
 20
1.250023220638758
 30
0.0
 10
22.71948759580673
 20
1.250023220639319
 30
0.0
  0
SPLINE
  5
4C
330
1F
100
AcDbEntity
  8
DEFAULT
100
AcDbSpline
210
0.0
220
0.0
230
1.0
 70
    24
 71
     2
 72
     6
 73
     3
 74
     0
 42
0.0000000001
 43
0.0000000001
 40
0.0
 40
0.0
 40
0.0
 40
0.0106933643837064
 40
0.0106933643837064
 40
0.0106933643837064
 10
1.31183517289719
 20
16.57698376392842
 30
0.0
 10
1.306488490705348
 20
16.57698376640012
 30
0.0
 10
1.301141808513506
 20
16.57698376887181
 30
0.0
  0
SPLINE
  5
4D
330
1F
100
AcDbEntity
  8
DEFAULT
100
AcDbSpline
210
0.0
220
0.0
230
1.0
 70
    24
 71
     2
 72
     6
 73
     3
 74
     0
 42
0.0000000001
 43
0.0000000001
 40
0.0
 40
0.0
 40
0.0
 40
0.0080251520404246
 40
0.0080251520404246
 40
0.0080251520404246
 10
19.7474905843122
 20
0.1250000000000004
 30
0.0
 10
19.75150316033242
 20
0.1250000000000004
 30
0.0
 10
19.75551573635263
 20
0.1250000000000004
 30
0.0
  0
SPLINE
  5
4E
330
1F
100
AcDbEntity
  8
DEFAULT
100
AcDbSpline
210
0.0
220
0.0
230
1.0
 70
    24
 71
     2
 72
     6
 73
     3
 74
     0
 42
0.0000000001
 43
0.0000000001
 40
0.0
 40
0.0
 40
0.0
 40
0.2648829872628014
 40
0.2648829872628014
 40
0.2648829872628014
 10
22.96055773640848
 20
1.191414329909109
 30
0.0
 10
23.09299923003987
 20
1.191414329909109
 30
0.0
 10
23.22544072367126
 20
1.191414329909109
 30
0.0
  0
SPLINE
  5
4F
330
1F
100
AcDbEntity
  8
DEFAULT
100
AcDbSpline
210
0.0
220
0.0
230
1.0
 70
    24
 71
     2
 72
     6
 73
     3
 74
     0
 42
0.0000000001
 43
0.0000000001
 40
0.0
 40
0.0
 40
0.0
 40
0.5581088907313285
 40
0.5581088907313285
 40
0.5581088907313285
 10
23.22544072367126
 20
1.191414329909109
 30
0.0
 10
23.22544072367127
 20
1.470468775274774
 30
0.0
 10
23.22544072367128
 20
1.749523220640438
 30
0.0
  0
SPLINE
  5
50
330
1F
100
AcDbEntity
  8
DEFAULT
100
AcDbSpline
210
0.0
220
0.0
230
1.0
 70
    24
 71
     2
 72
     6
 73
     3
 74
     0
 42
0.0000000001
 43
0.0000000001
 40
0.0
 40
0.0
 40
0.0
 40
0.4995000000011933
 40
0.4995000000011933
 40
0.4995000000011933
 10
22.47841745519906
 20
1.749523220640438
 30
0.0
 10
22.47841745519906
 20
1.499773220639841
 30
0.0
 10
22.47841745519906
 20
1.250023220639245
 30
0.0
  0
SPLINE
  5
51
330
1F
100
AcDbEntity
  8
DEFAULT
100
AcDbSpline
210
0.0
220
0.0
230
1.0
 70
    12
 71
     2
 72
     6
 73
     3
 74
     0
 42
0.0000000001
 43
0.0000000001
 40
0.0
 40
0.0
 40
0.0
 40
0.250445900368507
 40
0.250445900368507
 40
0.250445900368507
 10
22.71948759580377
 20
1.250023220640434
 30
0.0
 41
1.0
 10
22.84712536046157
 20
1.249933583908369
 30
0.0
 41
0.9718608390215667
 10
22.96055773640848
 20
1.191414329909109
 30
0.0
 41
1.0
  0
SPLINE
  5
52
330
1F
100
AcDbEntity
  8
DEFAULT
100
AcDbSpline
210
0.0
220
0.0
230
1.0
 70
    24
 71
     2
 72
     6
 73
     3
 74
     0
 42
0.0000000001
 43
0.0000000001
 40
0.0
 40
0.0
 40
0.0
 40
0.5581088907313285
 40
0.5581088907313285
 40
0.5581088907313285
 10
22.96055773640848
 20
1.191414329909109
 30
0.0
 10
22.96055773640848
 20
1.470468775274774
 30
0.0
 10
22.96055773640848
 20
1.749523220640438
 30
0.0
  0
SPLINE
  5
53
330
1F
100
AcDbEntity
  8
DEFAULT
100
AcDbSpline
210
0.0
220
0.0
230
1.0
 70
    24
 71
     2
 72
     6
 73
     3
 74
     0
 42
0.0000000001
 43
0.0000000001
 40
-0.125
 40
-0.125
 40
-0.125
 40
0.0
 40
0.0
 40
0.0
 10
21.91122600696215
 20
0.0000000000000005
 30
0.0
 10
21.91142981808034
 20
0.0625000000000005
 30
0.0
 10
21.91163362919852
 20
0.1250000000000004
 30
0.0
  0
SPLINE
  5
54
330
1F
100
AcDbEntity
  8
DEFAULT
100
AcDbSpline
210
0.0
220
0.0
230
1.0
 70
    24
 71
     2
 72
     6
 73
     3
 74
     0
 42
0.0000000001
 43
0.0000000001
 40
0.0
 40
0.0
 40
0.0
 40
0.3596651422130037
 40
0.3596651422130037
 40
0.3596651422130037
 10
21.55115324251278
 20
0.0000000000000004
 30
0.0
 10
21.73118962473747
 20
0.0000000000000005
 30
0.0
 10
21.91122600696215
 20
0.0000000000000005
 30
0.0
  0
SPLINE
  5
55
330
1F
100
AcDbEntity
  8
DEFAULT
100
AcDbSpline
210
0.0
220
0.0
230
1.0
 70
    28
 71
     2
 72
     8
 73
     5
 74
     0
 42
0.0000000001
 43
0.0000000001
 40
2.276272015520191
 40
2.276272015520191
 40
2.276272015520191
 40
2.566267521869333
 40
2.566267521869333
 40
3.570796326793997
 40
3.570796326793997
 40
3.570796326793997
 10
20.51498754817982
 20
0.0000000000000005
 30
0.0
 41
0.8859415057259156
 10
20.50553396221832
 20
0.0000000000000006
 30
0.0
 41
0.7846830076536525
 10
20.6540995392578
 20
0.0000000000000004
 30
0.0
 41
1.0
 10
21.10262639088529
 20
0.0000000000000004
 30
0.0
 41
1.0
 10
21.55115324251278
 20
0.0000000000000004
 30
0.0
 41
1.0
  0
SPLINE
  5
56
330
1F
100
AcDbEntity
  8
DEFAULT
100
AcDbSpline
210
0.0
220
0.0
230
1.0
 70
    24
 71
     2
 72
     6
 73
     3
 74
     0
 42
0.0000000001
 43
0.0000000001
 40
-0.125
 40
-0.125
 40
-0.125
 40
0.0
 40
0.0
 40
0.0
 10
20.51457992594348
 20
0.1250000000000004
 30
0.0
 10
20.51478373706166
 20
0.0625000000000005
 30
0.0
 10
20.51498754817983
 20
0.0000000000000005
 30
0.0
  0
SPLINE
  5
57
330
1F
100
AcDbEntity
  8
DEFAULT
100
AcDbSpline
210
0.0
220
0.0
230
1.0
 70
    24
 71
     2
 72
     6
 73
     3
 74
     0
 42
0.0000000001
 43
0.0000000001
 40
-11.75142257772862
 40
-11.75142257772862
 40
-11.75142257772862
 40
0.0
 40
0.0
 40
0.0
 10
14.56762756802965
 20
11.96779585590738
 30
0.0
 10
16.97725836646262
 20
6.608909538272838
 30
0.0
 10
19.38688916489559
 20
1.250023220638294
 30
0.0
  0
SPLINE
  5
58
330
1F
100
AcDbEntity
  8
DEFAULT
100
AcDbSpline
210
0.0
220
0.0
230
1.0
 70
    12
 71
     3
 72
    10
 73
     6
 74
     0
 42
0.0000000001
 43
0.0000000001
 40
0.136164359695376
 40
0.136164359695376
 40
0.136164359695376
 40
0.136164359695376
 40
0.4552448487140268
 40
0.9104896976924667
 40
1.365734546670907
 40
1.365734546670907
 40
1.365734546670907
 40
1.365734546670907
 10
13.64469998598882
 20
12.69134901891729
 30
0.0
 41
1.0
 10
13.74747274896496
 20
12.67512399111955
 30
0.0
 41
1.0
 10
13.99228931730322
 20
12.59318681880629
 30
0.0
 41
1.0
 10
14.32309504790135
 20
12.35390150366054
 30
0.0
 41
1.0
 10
14.50569486542983
 20
12.10553077894706
 30
0.0
 41
1.0
 10
14.56762756802965
 20
11.96779585590738
 30
0.0
 41
1.0
  0
SPLINE
  5
59
330
1F
100
AcDbEntity
  8
DEFAULT
100
AcDbSpline
210
0.0
220
0.0
230
1.0
 70
    12
 71
     2
 72
     6
 73
     3
 74
     0
 42
0.0000000001
 43
0.0000000001
 40
0.0
 40
0.0
 40
0.0
 40
0.363901612670106
 40
0.363901612670106
 40
0.363901612670106
 10
13.28532253753821
 20
12.74855192151674
 30
0.0
 41
1.0
 10
13.46497763548736
 20
12.71973921301192
 30
0.0
 41
0.9999993088839729
 10
13.64469998598882
 20
12.69134901891729
 30
0.0
 41
0.9999999999999991
  0
SPLINE
  5
5A
330
1F
100
AcDbEntity
  8
DEFAULT
100
AcDbSpline
210
0.0
220
0.0
230
1.0
 70
    24
 71
     2
 72
     6
 73
     3
 74
     0
 42
0.0000000001
 43
0.0000000001
 40
0.0
 40
0.0
 40
0.0
 40
0.125
 40
0.125
 40
0.125
 10
3.902797674041295
 20
0.0000000000000004
 30
0.0
 10
3.902797674041295
 20
0.0625000000000004
 30
0.0
 10
3.902797674041295
 20
0.1250000000000004
 30
0.0
  0
POLYLINE
  5
5B
330
1F
100
AcDbEntity
  8
DEFAULT
100
AcDb2dPolyline
 66
     1
 10
0.0
 20
0.0
 30
0.0
  0
VERTEX
  5
5C
330
5B
100
AcDbEntity
  8
DEFAULT
100
AcDbVertex
100
AcDb2dVertex
 10
5.299851377296335
 20
0.0000000000000004
 30
0.0
  0
VERTEX
  5
5D
330
5B
100
AcDbEntity
  8
DEFAULT
100
AcDbVertex
100
AcDb2dVertex
 10
3.902797674041295
 20
0.0000000000000004
 30
0.0
  0
SEQEND
  5
5E
330
5B
100
AcDbEntity
  8
DEFAULT
  0
SPLINE
  5
5F
330
1F
100
AcDbEntity
  8
DEFAULT
100
AcDbSpline
210
0.0
220
0.0
230
1.0
 70
    24
 71
     2
 72
     6
 73
     3
 74
     0
 42
0.0000000001
 43
0.0000000001
 40
0.0
 40
0.0
 40
0.0
 40
0.125
 40
0.125
 40
0.125
 10
5.299851377296335
 20
0.1250000000000004
 30
0.0
 10
5.299851377296335
 20
0.0625000000000004
 30
0.0
 10
5.299851377296335
 20
0.0000000000000004
 30
0.0
  0
SPLINE
  5
60
330
1F
100
AcDbEntity
  8
DEFAULT
100
AcDbSpline
210
0.0
220
0.0
230
1.0
 70
    24
 71
     2
 72
     6
 73
     3
 74
     0
 42
0.0000000001
 43
0.0000000001
 40
-0.125
 40
-0.125
 40
-0.125
 40
0.0
 40
0.0
 40
0.0
 10
19.7564204437075
 20
0.0000000000000004
 30
0.0
 10
19.7564204437075
 20
0.0625000000000004
 30
0.0
 10
19.7564204437075
 20
0.1250000000000004
 30
0.0
  0
LINE
  5
61
330
1F
100
AcDbEntity
  8
DEFAULT
100
AcDbLine
 10
19.17531670962893
 20
0.0000000000000004
 30
0.0
 11
19.7564204437075
 21
0.0000000000000004
 31
0.0
  0
SPLINE
  5
62
330
1F
100
AcDbEntity
  8
DEFAULT
100
AcDbSpline
210
0.0
220
0.0
230
1.0
 70
    28
 71
     2
 72
     6
 73
     3
 74
     0
 42
0.0000000001
 43
0.0000000001
 40
0.0
 40
0.0
 40
0.0
 40
0.3384144077064375
 40
0.3384144077064375
 40
0.3384144077064375
 10
18.99198981012206
 20
0.0000000000000005
 30
0.0
 41
0.9288656988894769
 10
18.97979787329217
 20
0.0000000000000004
 30
0.0
 41
0.7485332392099654
 10
19.17531670962893
 20
0.0000000000000004
 30
0.0
 41
1.0
  0
SPLINE
  5
63
330
1F
100
AcDbEntity
  8
DEFAULT
100
AcDbSpline
210
0.0
220
0.0
230
1.0
 70
    24
 71
     2
 72
     6
 73
     3
 74
     0
 42
0.0000000001
 43
0.0000000001
 40
-0.125
 40
-0.125
 40
-0.125
 40
0.0
 40
0.0
 40
0.0
 10
18.99153745644463
 20
0.1250000000000004
 30
0.0
 10
18.99176363328335
 20
0.0625000000000005
 30
0.0
 10
18.99198981012206
 20
0.0000000000000005
 30
0.0
  0
SPLINE
  5
64
330
1F
100
AcDbEntity
  8
DEFAULT
100
AcDbSpline
210
0.0
220
0.0
230
1.0
 70
    24
 71
     2
 72
     6
 73
     3
 74
     0
 42
0.0000000001
 43
0.0000000001
 40
0.0
 40
0.0
 40
0.0
 40
3.645750219072646
 40
3.645750219072646
 40
3.645750219072646
 10
-19.07373737673407
 20
1.250023220638198
 30
0.0
 10
-20.8966124862704
 20
1.250023220638758
 30
0.0
 10
-22.71948759580673
 20
1.250023220639319
 30
0.0
  0
SPLINE
  5
65
330
1F
100
AcDbEntity
  8
DEFAULT
100
AcDbSpline
210
0.0
220
0.0
230
1.0
 70
    24
 71
     2
 72
     6
 73
     3
 74
     0
 42
0.0000000001
 43
0.0000000001
 40
0.0
 40
0.0
 40
0.0
 40
0.5581088907313285
 40
0.5581088907313285
 40
0.5581088907313285
 10
-22.96055773640848
 20
1.191414329909109
 30
0.0
 10
-22.96055773640848
 20
1.470468775274774
 30
0.0
 10
-22.96055773640848
 20
1.749523220640438
 30
0.0
  0
SPLINE
  5
66
330
1F
100
AcDbEntity
  8
DEFAULT
100
AcDbSpline
210
0.0
220
0.0
230
1.0
 70
    24
 71
     2
 72
     6
 73
     3
 74
     0
 42
0.0000000001
 43
0.0000000001
 40
-11.75142257772862
 40
-11.75142257772862
 40
-11.75142257772862
 40
0.0
 40
0.0
 40
0.0
 10
-14.56762756802965
 20
11.96779585590738
 30
0.0
 10
-16.97725836646262
 20
6.608909538272838
 30
0.0
 10
-19.38688916489559
 20
1.250023220638294
 30
0.0
  0
SPLINE
  5
67
330
1F
100
AcDbEntity
  8
DEFAULT
100
AcDbSpline
210
0.0
220
0.0
230
1.0
 70
    12
 71
     3
 72
    10
 73
     6
 74
     0
 42
0.0000000001
 43
0.0000000001
 40
0.136164359695376
 40
0.136164359695376
 40
0.136164359695376
 40
0.136164359695376
 40
0.4552448487140268
 40
0.9104896976924667
 40
1.365734546670907
 40
1.365734546670907
 40
1.365734546670907
 40
1.365734546670907
 10
-13.64469998598882
 20
12.69134901891729
 30
0.0
 41
1.0
 10
-13.74747274896496
 20
12.67512399111955
 30
0.0
 41
1.0
 10
-13.99228931730322
 20
12.59318681880629
 30
0.0
 41
1.0
 10
-14.32309504790135
 20
12.35390150366054
 30
0.0
 41
1.0
 10
-14.50569486542983
 20
12.10553077894706
 30
0.0
 41
1.0
 10
-14.56762756802965
 20
11.96779585590738
 30
0.0
 41
1.0
  0
SPLINE
  5
68
330
1F
100
AcDbEntity
  8
DEFAULT
100
AcDbSpline
210
0.0
220
0.0
230
1.0
 70
    12
 71
     2
 72
     6
 73
     3
 74
     0
 42
0.0000000001
 43
0.0000000001
 40
0.0
 40
0.0
 40
0.0
 40
0.363901612670106
 40
0.363901612670106
 40
0.363901612670106
 10
-13.28532253753821
 20
12.74855192151674
 30
0.0
 41
1.0
 10
-13.46497763548736
 20
12.71973921301192
 30
0.0
 41
0.9999993088839729
 10
-13.64469998598882
 20
12.69134901891729
 30
0.0
 41
0.9999999999999991
  0
SPLINE
  5
69
330
1F
100
AcDbEntity
  8
DEFAULT
100
AcDbSpline
210
0.0
220
0.0
230
1.0
 70
    12
 71
     2
 72
     6
 73
     3
 74
     0
 42
0.0000000001
 43
0.0000000001
 40
0.0
 40
0.0
 40
0.0
 40
0.250445900368507
 40
0.250445900368507
 40
0.250445900368507
 10
-22.71948759580377
 20
1.250023220640434
 30
0.0
 41
1.0
 10
-22.84712536046157
 20
1.249933583908369
 30
0.0
 41
0.9718608390215667
 10
-22.96055773640848
 20
1.191414329909109
 30
0.0
 41
1.0
  0
SPLINE
  5
6A
330
1F
100
AcDbEntity
  8
DEFAULT
100
AcDbSpline
210
0.0
220
0.0
230
1.0
 70
    24
 71
     2
 72
     6
 73
     3
 74
     0
 42
0.0000000001
 43
0.0000000001
 40
0.0
 40
0.0
 40
0.0
 40
0.4995000000011933
 40
0.4995000000011933
 40
0.4995000000011933
 10
-22.47841745519906
 20
1.749523220640438
 30
0.0
 10
-22.47841745519906
 20
1.499773220639841
 30
0.0
 10
-22.47841745519906
 20
1.250023220639245
 30
0.0
  0
SPLINE
  5
6B
330
1F
100
AcDbEntity
  8
DEFAULT
100
AcDbSpline
210
0.0
220
0.0
230
1.0
 70
    24
 71
     2
 72
     6
 73
     3
 74
     0
 42
0.0000000001
 43
0.0000000001
 40
0.0
 40
0.0
 40
0.0
 40
0.5581088907313285
 40
0.5581088907313285
 40
0.5581088907313285
 10
-23.22544072367126
 20
1.191414329909109
 30
0.0
 10
-23.22544072367127
 20
1.470468775274774
 30
0.0
 10
-23.22544072367128
 20
1.749523220640438
 30
0.0
  0
SPLINE
  5
6C
330
1F
100
AcDbEntity
  8
DEFAULT
100
AcDbSpline
210
0.0
220
0.0
230
1.0
 70
    24
 71
     2
 72
     6
 73
     3
 74
     0
 42
0.0000000001
 43
0.0000000001
 40
0.0
 40
0.0
 40
0.0
 40
0.2648829872628014
 40
0.2648829872628014
 40
0.2648829872628014
 10
-22.96055773640848
 20
1.191414329909109
 30
0.0
 10
-23.09299923003987
 20
1.191414329909109
 30
0.0
 10
-23.22544072367126
 20
1.191414329909109
 30
0.0
  0
LINE
  5
6D
330
1F
100
AcDbEntity
  8
DEFAULT
100
AcDbLine
 10
23.86926443717067
 20
1.250023220640425
 30
0.0
 11
23.22544072367126
 21
1.250023220639474
 31
0.0
  0
ARC
  5
6E
330
1F
100
AcDbEntity
  8
DEFAULT
100
AcDbCircle
 10
23.86926443717033
 20
0.6875232206404249
 30
0.0
 40
0.5625000000000002
100
AcDbArc
 50
270.0
 51
89.99999999996527
  0
LINE
  5
6F
330
1F
100
AcDbEntity
  8
DEFAULT
100
AcDbLine
 10
0.0
 20
0.1250232206404251
 30
0.0
 11
23.86926443717033
 21
0.1250232206404247
 31
0.0
  0
LINE
  5
70
330
1F
100
AcDbEntity
  8
DEFAULT
100
AcDbLine
 10
-23.86926443717033
 20
0.1250232206404247
 30
0.0
 11
0.0
 21
0.1250232206404251
 31
0.0
  0
ARC
  5
71
330
1F
100
AcDbEntity
  8
DEFAULT
100
AcDbCircle
 10
-23.86926443717033
 20
0.6875232206404249
 30
0.0
 40
0.5625000000000002
100
AcDbArc
 50
90.00000000003475
 51
270.0
  0
LINE
  5
72
330
1F
100
AcDbEntity
  8
DEFAULT
100
AcDbLine
 10
-23.22544072367126
 20
1.250023220639474
 30
0.0
 11
-23.86926443717067
 21
1.250023220640425
 31
0.0
  0
LINE
  5
73
330
1F
100
AcDbEntity
  8
DEFAULT
100
AcDbLine
 10
-18.5905774794755
 20
1.250023220640426
 30
0.0
 11
18.5905774794755
 21
1.250023220640424
 31
0.0
  0
LINE
  5
74
330
1F
100
AcDbEntity
  8
DEFAULT
100
AcDbLine
 10
-29.5674075632287
 20
1.749523220640433
 30
0.0
 11
-19.16228828469756
 21
1.749523220640216
 31
0.0
  0
SPLINE
  5
75
330
1F
100
AcDbEntity
  8
DEFAULT
100
AcDbSpline
210
0.0
220
0.0
230
1.0
 70
     8
 71
     3
 72
    12
 73
     8
 74
     0
 42
0.0000000001
 43
0.0000000001
 40
0.0
 40
0.0
 40
0.0
 40
0.0
 40
0.2207542989575683
 40
0.4460529494980088
 40
0.8864687798933937
 40
1.317588509892935
 40
1.740139954392424
 40
1.740139954392424
 40
1.740139954392424
 40
1.740139954392424
 10
-30.71153719111066
 20
2.854388636602848
 30
0.0
 10
-30.70478270917052
 20
2.781108428626021
 30
0.0
 10
-30.6775956460437
 20
2.634333163690716
 30
0.0
 10
-30.5725843243079
 20
2.356856446686644
 30
0.0
 10
-30.35577768722918
 20
2.05560217579746
 30
0.0
 10
-29.99204451979072
 20
1.81049107017408
 30
0.0
 10
-29.70835139946942
 20
1.749384625149656
 30
0.0
 10
-29.5674075632287
 20
1.749523220640433
 30
0.0
  0
SPLINE
  5
76
330
1F
100
AcDbEntity
  8
DEFAULT
100
AcDbSpline
210
0.0
220
0.0
230
1.0
 70
    24
 71
     2
 72
     6
 73
     3
 74
     0
 42
0.0000000001
 43
0.0000000001
 40
-31.57410537540795
 40
-31.57410537540795
 40
-31.57410537540795
 40
0.0
 40
0.0
 40
0.0
 10
-33.60836300792049
 20
34.29532581163676
 30
0.0
 10
-32.15995009951558
 20
18.5748572241198
 30
0.0
 10
-30.71153719111066
 20
2.854388636602848
 30
0.0
  0
SPLINE
  5
77
330
1F
100
AcDbEntity
  8
DEFAULT
100
AcDbSpline
210
0.0
220
0.0
230
1.0
 70
    12
 71
     3
 72
    13
 73
     9
 74
     0
 42
0.0000000001
 43
0.0000000001
 40
0.5997795601309572
 40
0.5997795601309572
 40
0.5997795601309572
 40
0.5997795601309572
 40
0.789029481915572
 40
0.9986620296053241
 40
1.20649285065478
 40
1.409101981127481
 40
1.603566895469339
 40
1.787668398750284
 40
1.787668398750284
 40
1.787668398750284
 40
1.787668398750284
 10
-33.15761589673525
 20
35.26384637330001
 30
0.0
 41
1.0
 10
-33.20663119704656
 20
35.23244346495122
 30
0.0
 41
1.0
 10
-33.3038668704738
 20
35.15680750743814
 30
0.0
 41
1.0
 10
-33.42785312363182
 20
35.01486303353196
 30
0.0
 41
1.0
 10
-33.52459973395034
 20
34.84604763258326
 30
0.0
 41
1.0
 10
-33.58705652849757
 20
34.66413085636081
 30
0.0
 41
1.0
 10
-33.61550023600644
 20
34.47896596251806
 30
0.0
 41
1.0
 10
-33.61388588588363
 20
34.35526874753377
 30
0.0
 41
1.0
 10
-33.60836300792049
 20
34.29532581163676
 30
0.0
 41
1.0
  0
SPLINE
  5
78
330
1F
100
AcDbEntity
  8
DEFAULT
100
AcDbSpline
210
0.0
220
0.0
230
1.0
 70
    24
 71
     2
 72
     6
 73
     3
 74
     0
 42
0.0000000001
 43
0.0000000001
 40
-0.9817754317354125
 40
-0.9817754317354125
 40
-0.9817754317354125
 40
0.0
 40
0.0
 40
0.0
 10
-32.33093165950844
 20
35.79344638688383
 30
0.0
 10
-32.74427377812184
 20
35.52864638009192
 30
0.0
 10
-33.15761589673525
 20
35.26384637330001
 30
0.0
  0
LINE
  5
79
330
1F
100
AcDbEntity
  8
DEFAULT
100
AcDbLine
 10
29.5674075632287
 20
1.749523220640433
 30
0.0
 11
19.16228828469756
 21
1.749523220640216
 31
0.0
  0
SPLINE
  5
7A
330
1F
100
AcDbEntity
  8
DEFAULT
100
AcDbSpline
210
0.0
220
0.0
230
1.0
 70
     8
 71
     3
 72
    12
 73
     8
 74
     0
 42
0.0000000001
 43
0.0000000001
 40
0.0
 40
0.0
 40
0.0
 40
0.0
 40
0.2207542989575683
 40
0.4460529494980088
 40
0.8864687798933937
 40
1.317588509892935
 40
1.740139954392424
 40
1.740139954392424
 40
1.740139954392424
 40
1.740139954392424
 10
30.71153719111066
 20
2.854388636602848
 30
0.0
 10
30.70478270917052
 20
2.781108428626021
 30
0.0
 10
30.6775956460437
 20
2.634333163690716
 30
0.0
 10
30.5725843243079
 20
2.356856446686644
 30
0.0
 10
30.35577768722918
 20
2.05560217579746
 30
0.0
 10
29.99204451979072
 20
1.81049107017408
 30
0.0
 10
29.70835139946942
 20
1.749384625149656
 30
0.0
 10
29.5674075632287
 20
1.749523220640433
 30
0.0
  0
SPLINE
  5
7B
330
1F
100
AcDbEntity
  8
DEFAULT
100
AcDbSpline
210
0.0
220
0.0
230
1.0
 70
    24
 71
     2
 72
     6
 73
     3
 74
     0
 42
0.0000000001
 43
0.0000000001
 40
-31.57410537540795
 40
-31.57410537540795
 40
-31.57410537540795
 40
0.0
 40
0.0
 40
0.0
 10
33.60836300792049
 20
34.29532581163676
 30
0.0
 10
32.15995009951558
 20
18.5748572241198
 30
0.0
 10
30.71153719111066
 20
2.854388636602848
 30
0.0
  0
SPLINE
  5
7C
330
1F
100
AcDbEntity
  8
DEFAULT
100
AcDbSpline
210
0.0
220
0.0
230
1.0
 70
    12
 71
     3
 72
    13
 73
     9
 74
     0
 42
0.0000000001
 43
0.0000000001
 40
0.5997795601309572
 40
0.5997795601309572
 40
0.5997795601309572
 40
0.5997795601309572
 40
0.789029481915572
 40
0.9986620296053241
 40
1.20649285065478
 40
1.409101981127481
 40
1.603566895469339
 40
1.787668398750284
 40
1.787668398750284
 40
1.787668398750284
 40
1.787668398750284
 10
33.15761589673525
 20
35.26384637330001
 30
0.0
 41
1.0
 10
33.20663119704656
 20
35.23244346495122
 30
0.0
 41
1.0
 10
33.3038668704738
 20
35.15680750743814
 30
0.0
 41
1.0
 10
33.42785312363182
 20
35.01486303353196
 30
0.0
 41
1.0
 10
33.52459973395034
 20
34.84604763258326
 30
0.0
 41
1.0
 10
33.58705652849757
 20
34.66413085636081
 30
0.0
 41
1.0
 10
33.61550023600644
 20
34.47896596251806
 30
0.0
 41
1.0
 10
33.61388588588363
 20
34.35526874753377
 30
0.0
 41
1.0
 10
33.60836300792049
 20
34.29532581163676
 30
0.0
 41
1.0
  0
SPLINE
  5
7D
330
1F
100
AcDbEntity
  8
DEFAULT
100
AcDbSpline
210
0.0
220
0.0
230
1.0
 70
    24
 71
     2
 72
     6
 73
     3
 74
     0
 42
0.0000000001
 43
0.0000000001
 40
-0.9817754317354125
 40
-0.9817754317354125
 40
-0.9817754317354125
 40
0.0
 40
0.0
 40
0.0
 10
32.33093165950844
 20
35.79344638688383
 30
0.0
 10
32.74427377812184
 20
35.52864638009192
 30
0.0
 10
33.15761589673525
 20
35.26384637330001
 30
0.0
  0
SPLINE
  5
7E
330
1F
100
AcDbEntity
  8
DEFAULT
100
AcDbSpline
210
0.0
220
0.0
230
1.0
 70
    24
 71
     2
 72
     6
 73
     3
 74
     0
 42
0.0000000001
 43
0.0000000001
 40
0.0
 40
0.0
 40
0.0
 40
13.17307101262907
 40
13.17307101262907
 40
13.17307101262907
 10
13.17304940506386
 20
12.38297506206445
 30
0.0
 10
6.586524702531932
 20
12.39490482910842
 30
0.0
 10
0.0
 20
12.40683459615239
 30
0.0
  0
SPLINE
  5
7F
330
1F
100
AcDbEntity
  8
DEFAULT
100
AcDbSpline
210
0.0
220
0.0
230
1.0
 70
    12
 71
     3
 72
    10
 73
     6
 74
     0
 42
0.0000000001
 43
0.0000000001
 40
-1.365734546670907
 40
-1.365734546670907
 40
-1.365734546670907
 40
-1.365734546670907
 40
-0.9104896977806043
 40
-0.4552448488903021
 40
0.0
 40
0.0
 40
0.0
 40
0.0
 10
13.84257747062853
 20
11.80931400338339
 30
0.0
 41
1.0
 10
13.80025101237715
 20
11.90344571771516
 30
0.0
 41
1.0
 10
13.69175803799254
 20
12.081567055589
 30
0.0
 41
1.0
 10
13.47286255218268
 20
12.30442384613756
 30
0.0
 41
1.0
 10
13.27315635948273
 20
12.38279374449568
 30
0.0
 41
1.0
 10
13.17304940506386
 20
12.38297506206445
 30
0.0
 41
1.0
  0
SPLINE
  5
80
330
1F
100
AcDbEntity
  8
DEFAULT
100
AcDbSpline
210
0.0
220
0.0
230
1.0
 70
    24
 71
     2
 72
     6
 73
     3
 74
     0
 42
0.0000000001
 43
0.0000000001
 40
0.0
 40
0.0
 40
0.0
 40
11.75429173708395
 40
11.75429173708395
 40
11.75429173708395
 10
18.6630157111307
 20
1.088924579020849
 30
0.0
 10
16.25279659087961
 20
6.449119291202119
 30
0.0
 10
13.84257747062853
 20
11.80931400338339
 30
0.0
  0
SPLINE
  5
81
330
1F
100
AcDbEntity
  8
DEFAULT
100
AcDbSpline
210
0.0
220
0.0
230
1.0
 70
     8
 71
     3
 72
    14
 73
    10
 74
     0
 42
0.0000000001
 43
0.0000000001
 40
0.0
 40
0.0
 40
0.0
 40
0.0
 40
1.0
 40
2.0
 40
3.0
 40
4.0
 40
5.0
 40
6.0
 40
7.0
 40
7.0
 40
7.0
 40
7.0
 10
18.99074133089175
 20
1.247406400079882
 30
0.0
 10
19.13806468233981
 20
1.263568890071546
 30
0.0
 10
19.4410552122686
 20
1.157345446977879
 30
0.0
 10
19.64259653664676
 20
0.7255723414685311
 30
0.0
 10
19.49480950200838
 20
0.2724126775921613
 30
0.0
 10
19.06180215032953
 20
0.0586314796460428
 30
0.0
 10
18.61600375927541
 20
0.2448712725738398
 30
0.0
 10
18.44257497559383
 20
0.6891627522409914
 30
0.0
 10
18.55901552708017
 20
0.9835139993497828
 30
0.0
 10
18.6630157111307
 20
1.088924579020849
 30
0.0
  0
SPLINE
  5
82
330
1F
100
AcDbEntity
  8
DEFAULT
100
AcDbSpline
210
0.0
220
0.0
230
1.0
 70
    24
 71
     2
 72
     6
 73
     3
 74
     0
 42
0.0000000001
 43
0.0000000001
 40
-11.75429176232053
 40
-11.75429176232053
 40
-11.75429176232053
 40
0.0
 40
0.0
 40
0.0
 10
14.17030308910233
 20
11.96779585153407
 30
0.0
 10
16.58052220999704
 20
6.607601125806976
 30
0.0
 10
18.99074133089175
 20
1.247406400079882
 30
0.0
  0
SPLINE
  5
83
330
1F
100
AcDbEntity
  8
DEFAULT
100
AcDbSpline
210
0.0
220
0.0
230
1.0
 70
    12
 71
     3
 72
    10
 73
     6
 74
     0
 42
0.0000000001
 43
0.0000000001
 40
0.0
 40
0.0
 40
0.0
 40
0.0
 40
0.4552448488903021
 40
0.9104896977806043
 40
1.365734546670907
 40
1.365734546670907
 40
1.365734546670907
 40
1.365734546670907
 10
13.17678563826735
 20
12.7577165050567
 30
0.0
 41
1.0
 10
13.32200883198098
 20
12.75745347121888
 30
0.0
 41
1.0
 10
13.61105883810086
 20
12.65703668633114
 30
0.0
 41
1.0
 10
13.94422862533088
 20
12.35701468408548
 30
0.0
 41
1.0
 10
14.10909115513059
 20
12.10392782508889
 30
0.0
 41
1.0
 10
14.17030308910233
 20
11.96779585153407
 30
0.0
 41
1.0
  0
SPLINE
  5
84
330
1F
100
AcDbEntity
  8
DEFAULT
100
AcDbSpline
210
0.0
220
0.0
230
1.0
 70
    24
 71
     2
 72
     6
 73
     3
 74
     0
 42
0.0000000001
 43
0.0000000001
 40
-13.17680725196104
 40
-13.17680725196104
 40
-13.17680725196104
 40
0.0
 40
0.0
 40
0.0
 10
0.0
 20
12.78158280635401
 30
0.0
 10
6.588392819133674
 20
12.76964965570535
 30
0.0
 10
13.17678563826735
 20
12.7577165050567
 30
0.0
  0
SPLINE
  5
85
330
1F
100
AcDbEntity
  8
DEFAULT
100
AcDbSpline
210
0.0
220
0.0
230
1.0
 70
    24
 71
     2
 72
     6
 73
     3
 74
     0
 42
0.0000000001
 43
0.0000000001
 40
0.0
 40
0.0
 40
0.0
 40
13.17680725196104
 40
13.17680725196104
 40
13.17680725196104
 10
-13.17678563826735
 20
12.7577165050567
 30
0.0
 10
-6.588392819133674
 20
12.76964965570535
 30
0.0
 10
0.0
 20
12.78158280635401
 30
0.0
  0
SPLINE
  5
86
330
1F
100
AcDbEntity
  8
DEFAULT
100
AcDbSpline
210
0.0
220
0.0
230
1.0
 70
    12
 71
     3
 72
    10
 73
     6
 74
     0
 42
0.0000000001
 43
0.0000000001
 40
-1.365734546670907
 40
-1.365734546670907
 40
-1.365734546670907
 40
-1.365734546670907
 40
-0.9104896977806043
 40
-0.4552448488903021
 40
0.0
 40
0.0
 40
0.0
 40
0.0
 10
-14.17030308910233
 20
11.96779585153407
 30
0.0
 41
1.0
 10
-14.10909115513059
 20
12.10392782508889
 30
0.0
 41
1.0
 10
-13.94422862533088
 20
12.35701468408548
 30
0.0
 41
1.0
 10
-13.61105883810086
 20
12.65703668633114
 30
0.0
 41
1.0
 10
-13.32200883198098
 20
12.75745347121888
 30
0.0
 41
1.0
 10
-13.17678563826735
 20
12.7577165050567
 30
0.0
 41
1.0
  0
SPLINE
  5
87
330
1F
100
AcDbEntity
  8
DEFAULT
100
AcDbSpline
210
0.0
220
0.0
230
1.0
 70
    24
 71
     2
 72
     6
 73
     3
 74
     0
 42
0.0000000001
 43
0.0000000001
 40
0.0
 40
0.0
 40
0.0
 40
11.75429176232053
 40
11.75429176232053
 40
11.75429176232053
 10
-18.99074133089175
 20
1.247406400079882
 30
0.0
 10
-16.58052220999704
 20
6.607601125806976
 30
0.0
 10
-14.17030308910233
 20
11.96779585153407
 30
0.0
  0
SPLINE
  5
88
330
1F
100
AcDbEntity
  8
DEFAULT
100
AcDbSpline
210
0.0
220
0.0
230
1.0
 70
     8
 71
     3
 72
    14
 73
    10
 74
     0
 42
0.0000000001
 43
0.0000000001
 40
-7.0
 40
-7.0
 40
-7.0
 40
-7.0
 40
-6.0
 40
-5.0
 40
-4.0
 40
-3.0
 40
-2.0
 40
-1.0
 40
0.0
 40
0.0
 40
0.0
 40
0.0
 10
-18.6630157111307
 20
1.088924579020849
 30
0.0
 10
-18.55901552708017
 20
0.9835139993497828
 30
0.0
 10
-18.44257497559383
 20
0.6891627522409914
 30
0.0
 10
-18.61600375927541
 20
0.2448712725738398
 30
0.0
 10
-19.06180215032953
 20
0.0586314796460428
 30
0.0
 10
-19.49480950200838
 20
0.2724126775921613
 30
0.0
 10
-19.64259653664676
 20
0.7255723414685311
 30
0.0
 10
-19.4410552122686
 20
1.157345446977879
 30
0.0
 10
-19.13806468233981
 20
1.263568890071546
 30
0.0
 10
-18.99074133089175
 20
1.247406400079882
 30
0.0
  0
SPLINE
  5
89
330
1F
100
AcDbEntity
  8
DEFAULT
100
AcDbSpline
210
0.0
220
0.0
230
1.0
 70
    24
 71
     2
 72
     6
 73
     3
 74
     0
 42
0.0000000001
 43
0.0000000001
 40
-11.75429173708395
 40
-11.75429173708395
 40
-11.75429173708395
 40
0.0
 40
0.0
 40
0.0
 10
-13.84257747062853
 20
11.80931400338339
 30
0.0
 10
-16.25279659087961
 20
6.449119291202119
 30
0.0
 10
-18.6630157111307
 20
1.088924579020849
 30
0.0
  0
SPLINE
  5
8A
330
1F
100
AcDbEntity
  8
DEFAULT
100
AcDbSpline
210
0.0
220
0.0
230
1.0
 70
    12
 71
     3
 72
    10
 73
     6
 74
     0
 42
0.0000000001
 43
0.0000000001
 40
0.0
 40
0.0
 40
0.0
 40
0.0
 40
0.4552448488903021
 40
0.9104896977806043
 40
1.365734546670907
 40
1.365734546670907
 40
1.365734546670907
 40
1.365734546670907
 10
-13.17304940506386
 20
12.38297506206445
 30
0.0
 41
1.0
 10
-13.27315635948273
 20
12.38279374449568
 30
0.0
 41
1.0
 10
-13.47286255218268
 20
12.30442384613756
 30
0.0
 41
1.0
 10
-13.69175803799254
 20
12.081567055589
 30
0.0
 41
1.0
 10
-13.80025101237715
 20
11.90344571771516
 30
0.0
 41
1.0
 10
-13.84257747062853
 20
11.80931400338339
 30
0.0
 41
1.0
  0
SPLINE
  5
8B
330
1F
100
AcDbEntity
  8
DEFAULT
100
AcDbSpline
210
0.0
220
0.0
230
1.0
 70
    24
 71
     2
 72
     6
 73
     3
 74
     0
 42
0.0000000001
 43
0.0000000001
 40
-13.17307101262907
 40
-13.17307101262907
 40
-13.17307101262907
 40
0.0
 40
0.0
 40
0.0
 10
0.0
 20
12.40683459615239
 30
0.0
 10
-6.586524702531932
 20
12.39490482910842
 30
0.0
 10
-13.17304940506386
 20
12.38297506206445
 30
0.0
  0
SPLINE
  5
8C
330
1F
100
AcDbEntity
  8
DEFAULT
100
AcDbSpline
210
0.0
220
0.0
230
1.0
 70
    24
 71
     2
 72
     6
 73
     3
 74
     0
 42
0.0000000001
 43
0.0000000001
 40
0.0
 40
0.0
 40
0.0
 40
13.38880854944149
 40
13.38880854944149
 40
13.38880854944149
 10
0.0
 20
12.35180882869306
 30
0.0
 10
-6.694393294002268
 20
12.33968368590456
 30
0.0
 10
-13.38878658800454
 20
12.32755854311606
 30
0.0
  0
SPLINE
  5
8D
330
1F
100
AcDbEntity
  8
DEFAULT
100
AcDbSpline
210
0.0
220
0.0
230
1.0
 70
    24
 71
     2
 72
     6
 73
     3
 74
     0
 42
0.0000000001
 43
0.0000000001
 40
-13.38880854944149
 40
-13.38880854944149
 40
-13.38880854944149
 40
0.0
 40
0.0
 40
0.0
 10
13.38878658800454
 20
12.32755854311606
 30
0.0
 10
6.694393294002268
 20
12.33968368590456
 30
0.0
 10
0.0
 20
12.35180882869306
 30
0.0
  0
POLYLINE
  5
8E
330
1F
100
AcDbEntity
  8
DEFAULT
100
AcDb2dPolyline
 66
     1
 10
0.0
 20
0.0
 30
0.0
  0
VERTEX
  5
8F
330
8E
100
AcDbEntity
  8
DEFAULT
100
AcDbVertex
100
AcDb2dVertex
 10
13.48123892184466
 20
12.27197877285842
 30
0.0
  0
VERTEX
  5
90
330
8E
100
AcDbEntity
  8
DEFAULT
100
AcDbVertex
100
AcDb2dVertex
 10
-13.48123892170403
 20
12.27197877285842
 30
0.0
  0
SEQEND
  5
91
330
8E
100
AcDbEntity
  8
DEFAULT
  0
SPLINE
  5
92
330
1F
100
AcDbEntity
  8
DEFAULT
100
AcDbSpline
210
0.0
220
0.0
230
1.0
 70
    12
 71
     2
 72
     6
 73
     3
 74
     0
 42
0.0000000001
 43
0.0000000001
 40
0.0
 40
0.0
 40
0.0
 40
3.729965710143867
 40
3.729965710143867
 40
3.729965710143867
 10
-27.80106843701199
 20
12.30217509912472
 30
0.0
 41
1.0
 10
-27.92136987732408
 20
14.16327386414894
 30
0.0
 41
0.9999999999947277
 10
-28.04165923083211
 20
16.02437341043596
 30
0.0
 41
1.0
  0
ARC
  5
93
330
1F
100
AcDbEntity
  8
DEFAULT
100
AcDbCircle
 10
-26.96957401450224
 20
23.7352075557133
 30
0.0
 40
11.46322878285488
100
AcDbArc
 50
265.8403519588171
 51
269.9999999999999
  0
LINE
  5
94
330
1F
100
AcDbEntity
  8
DEFAULT
100
AcDbLine
 10
-14.36805820992731
 20
12.27197877285842
 30
0.0
 11
-26.96957401450226
 21
12.27197877285842
 31
0.0
  0
ARC
  5
95
330
1F
100
AcDbEntity
  8
DEFAULT
100
AcDbCircle
 10
26.96957401450224
 20
23.7352075557133
 30
0.0
 40
11.46322878285488
100
AcDbArc
 50
270.0
 51
274.1596480411829
  0
LINE
  5
96
330
1F
100
AcDbEntity
  8
DEFAULT
100
AcDbLine
 10
14.36805820992731
 20
12.27197877285842
 30
0.0
 11
26.96957401450226
 21
12.27197877285842
 31
0.0
  0
SPLINE
  5
97
330
1F
100
AcDbEntity
  8
DEFAULT
100
AcDbSpline
210
0.0
220
0.0
230
1.0
 70
    12
 71
     2
 72
     6
 73
     3
 74
     0
 42
0.0000000001
 43
0.0000000001
 40
0.0
 40
0.0
 40
0.0
 40
3.729965710143867
 40
3.729965710143867
 40
3.729965710143867
 10
27.80106843701199
 20
12.30217509912472
 30
0.0
 41
1.0
 10
27.92136987732408
 20
14.16327386414894
 30
0.0
 41
0.9999999999947277
 10
28.04165923083211
 20
16.02437341043596
 30
0.0
 41
1.0
  0
ARC
  5
98
330
1F
100
AcDbEntity
  8
DEFAULT
100
AcDbCircle
 10
27.72221175629354
 20
12.05583825041277
 30
0.0
 40
0.2586507667246848
100
AcDbArc
 50
72.24923337461254
 51
82.60950856426389
  0
LINE
  5
99
330
1F
100
AcDbEntity
  8
DEFAULT
100
AcDbLine
 10
24.25073627712482
 20
12.76693588047291
 30
0.0
 11
27.75548226856952
 21
12.31234028186703
 31
0.0
  0
SPLINE
  5
9A
330
1F
100
AcDbEntity
  8
DEFAULT
100
AcDbSpline
210
0.0
220
0.0
230
1.0
 70
     8
 71
     3
 72
    11
 73
     7
 74
     0
 42
0.0000000001
 43
0.0000000001
 40
-1.920820597310594
 40
-1.920820597310594
 40
-1.920820597310594
 40
-1.920820597310594
 40
-0.7398656314955085
 40
-0.276261139829204
 40
-0.1092875901663001
 40
0.0
 40
0.0
 40
0.0
 40
0.0
 10
22.33122282911253
 20
12.8210733679782
 30
0.0
 10
22.72487206818236
 20
12.82081896876393
 30
0.0
 10
23.27306824885402
 20
12.81413236835064
 30
0.0
 10
23.87658687884695
 20
12.7935064012836
 30
0.0
 10
24.12282039853
 20
12.77934663406664
 30
0.0
 10
24.2145829783047
 20
12.77145888778624
 30
0.0
 10
24.25073627712482
 20
12.76693588047291
 30
0.0
  0
POLYLINE
  5
9B
330
1F
100
AcDbEntity
  8
DEFAULT
100
AcDb2dPolyline
 66
     1
 10
0.0
 20
0.0
 30
0.0
  0
VERTEX
  5
9C
330
9B
100
AcDbEntity
  8
DEFAULT
100
AcDbVertex
100
AcDb2dVertex
 10
-22.33122282911253
 20
12.8210733679782
 30
0.0
  0
VERTEX
  5
9D
330
9B
100
AcDbEntity
  8
DEFAULT
100
AcDbVertex
100
AcDb2dVertex
 10
22.33122282911253
 20
12.8210733679782
 30
0.0
  0
SEQEND
  5
9E
330
9B
100
AcDbEntity
  8
DEFAULT
  0
SPLINE
  5
9F
330
1F
100
AcDbEntity
  8
DEFAULT
100
AcDbSpline
210
0.0
220
0.0
230
1.0
 70
     8
 71
     3
 72
    11
 73
     7
 74
     0
 42
0.0000000001
 43
0.0000000001
 40
0.0
 40
0.0
 40
0.0
 40
0.0
 40
0.1092875901663001
 40
0.276261139829204
 40
0.7398656314955085
 40
1.920820597310594
 40
1.920820597310594
 40
1.920820597310594
 40
1.920820597310594
 10
-24.25073627712482
 20
12.76693588047291
 30
0.0
 10
-24.2145829783047
 20
12.77145888778624
 30
0.0
 10
-24.12282039853
 20
12.77934663406664
 30
0.0
 10
-23.87658687884695
 20
12.7935064012836
 30
0.0
 10
-23.27306824885402
 20
12.81413236835064
 30
0.0
 10
-22.72487206818236
 20
12.82081896876393
 30
0.0
 10
-22.33122282911253
 20
12.8210733679782
 30
0.0
  0
LINE
  5
A0
330
1F
100
AcDbEntity
  8
DEFAULT
100
AcDbLine
 10
-27.75548226856952
 20
12.31234028186703
 30
0.0
 11
-24.25073627712482
 21
12.76693588047291
 31
0.0
  0
ARC
  5
A1
330
1F
100
AcDbEntity
  8
DEFAULT
100
AcDbCircle
 10
-27.72221175629354
 20
12.05583825041277
 30
0.0
 40
0.2586507667246848
100
AcDbArc
 50
97.39049143573612
 51
107.7507666253875
  0
SPLINE
  5
A2
330
1F
100
AcDbEntity
  8
DEFAULT
100
AcDbSpline
210
0.0
220
0.0
230
1.0
 70
    12
 71
     2
 72
     6
 73
     3
 74
     0
 42
0.0000000001
 43
0.0000000001
 40
0.0
 40
0.0
 40
0.0
 40
3.472673466706939
 40
3.472673466706939
 40
3.472673466706939
 10
24.51890453336931
 20
16.48793720439922
 30
0.0
 41
1.0
 10
26.24077678903586
 20
16.26428303628784
 30
0.0
 41
0.9999999999999811
 10
28.04165923083211
 20
16.02437341043596
 30
0.0
 41
1.0
  0
SPLINE
  5
A3
330
1F
100
AcDbEntity
  8
DEFAULT
100
AcDbSpline
210
0.0
220
0.0
230
1.0
 70
     8
 71
     3
 72
    14
 73
    10
 74
     0
 42
0.0000000001
 43
0.0000000001
 40
0.0
 40
0.0
 40
0.0
 40
0.0
 40
1.0
 40
2.0
 40
3.0
 40
4.0
 40
5.0
 40
6.0
 40
7.0
 40
7.0
 40
7.0
 40
7.0
 10
22.57372752694276
 20
16.57626599148041
 30
0.0
 10
22.66652359973589
 20
16.57574497839784
 30
0.0
 10
22.85211224645704
 20
16.57412367577722
 30
0.0
 10
23.13047578259262
 20
16.56994281874234
 30
0.0
 10
23.40880336757117
 20
16.56403929935305
 30
0.0
 10
23.6870973701885
 20
16.55602180718439
 30
0.0
 10
23.96521499062734
 20
16.54467795913602
 30
0.0
 10
24.24334302254134
 20
16.52860594096878
 30
0.0
 10
24.42677661556107
 20
16.49892381932286
 30
0.0
 10
24.51890453336931
 20
16.48793720439922
 30
0.0
  0
POLYLINE
  5
A4
330
1F
100
AcDbEntity
  8
DEFAULT
100
AcDb2dPolyline
 66
     1
 10
0.0
 20
0.0
 30
0.0
  0
VERTEX
  5
A5
330
A4
100
AcDbEntity
  8
DEFAULT
100
AcDbVertex
100
AcDb2dVertex
 10
-22.57372752694276
 20
16.57626599148041
 30
0.0
  0
VERTEX
  5
A6
330
A4
100
AcDbEntity
  8
DEFAULT
100
AcDbVertex
100
AcDb2dVertex
 10
22.57372752694276
 20
16.57626599148041
 30
0.0
  0
SEQEND
  5
A7
330
A4
100
AcDbEntity
  8
DEFAULT
  0
SPLINE
  5
A8
330
1F
100
AcDbEntity
  8
DEFAULT
100
AcDbSpline
210
0.0
220
0.0
230
1.0
 70
     8
 71
     3
 72
    14
 73
    10
 74
     0
 42
0.0000000001
 43
0.0000000001
 40
-7.0
 40
-7.0
 40
-7.0
 40
-7.0
 40
-6.0
 40
-5.0
 40
-4.0
 40
-3.0
 40
-2.0
 40
-1.0
 40
0.0
 40
0.0
 40
0.0
 40
0.0
 10
-24.51890453336931
 20
16.48793720439922
 30
0.0
 10
-24.42677661556107
 20
16.49892381932286
 30
0.0
 10
-24.24334302254134
 20
16.52860594096878
 30
0.0
 10
-23.96521499062734
 20
16.54467795913602
 30
0.0
 10
-23.6870973701885
 20
16.55602180718439
 30
0.0
 10
-23.40880336757117
 20
16.56403929935305
 30
0.0
 10
-23.13047578259262
 20
16.56994281874234
 30
0.0
 10
-22.85211224645704
 20
16.57412367577722
 30
0.0
 10
-22.66652359973589
 20
16.57574497839784
 30
0.0
 10
-22.57372752694276
 20
16.57626599148041
 30
0.0
  0
SPLINE
  5
A9
330
1F
100
AcDbEntity
  8
DEFAULT
100
AcDbSpline
210
0.0
220
0.0
230
1.0
 70
    12
 71
     2
 72
     6
 73
     3
 74
     0
 42
0.0000000001
 43
0.0000000001
 40
-3.472673466706939
 40
-3.472673466706939
 40
-3.472673466706939
 40
0.0
 40
0.0
 40
0.0
 10
-28.04165923083211
 20
16.02437341043596
 30
0.0
 41
1.0
 10
-26.24077678903586
 20
16.26428303628784
 30
0.0
 41
0.9999999999999811
 10
-24.51890453336931
 20
16.48793720439922
 30
0.0
 41
1.0
  0
SPLINE
  5
AA
330
1F
100
AcDbEntity
  8
DEFAULT
100
AcDbSpline
210
0.0
220
0.0
230
1.0
 70
     8
 71
     3
 72
    28
 73
    24
 74
     0
 42
0.0000000001
 43
0.0000000001
 40
-28.24719475866781
 40
-28.24719475866781
 40
-28.24719475866781
 40
-28.24719475866781
 40
-28.08142215587261
 40
-24.94419984225856
 40
-23.16310989989192
 40
-22.60865836319629
 40
-21.38668921534731
 40
-13.75930936521629
 40
-10.491012818883
 40
-9.80349180685193
 40
-7.707140557467934
 40
-6.677166794705047
 40
-6.305736181101256
 40
-5.735175980266344
 40
-4.916950290129802
 40
-4.394931274790023
 40
-3.791081342971316
 40
-3.410913504868553
 40
-2.485832933499718
 40
-2.069197491998213
 40
-1.736137470146584
 40
-1.109333737775268
 40
0.0
 40
0.0
 40
0.0
 40
0.0
 10
0.0
 20
17.46183223310075
 30
0.0
 10
-0.0552575348148322
 20
17.46183531099143
 30
0.0
 10
-1.156255989172665
 20
17.46189699444567
 30
0.0
 10
-2.850955912193825
 20
17.46212877088788
 30
0.0
 10
-4.675198870897077
 20
17.45665578732606
 30
0.0
 10
-5.861041584228161
 20
17.45539757408139
 30
0.0
 10
-8.995609316071977
 20
17.45481989383453
 30
0.0
 10
-13.03490021427316
 20
17.45513298559271
 30
0.0
 10
-16.89588187317098
 20
17.45355244109468
 30
0.0
 10
-18.91335882865597
 20
17.45409911604168
 30
0.0
 10
-20.18446740665364
 20
17.44252696811898
 30
0.0
 10
-21.35041873807243
 20
17.42283251910445
 30
0.0
 10
-22.00677504947423
 20
17.38697349759005
 30
0.0
 10
-22.59227128323845
 20
17.34780001032118
 30
0.0
 10
-23.22620111567845
 20
17.28511943420176
 30
0.0
 10
-23.86876339781689
 20
17.20051038422059
 30
0.0
 10
-24.36660389593332
 20
17.1366057226081
 30
0.0
 10
-24.99752372573727
 20
17.05234169291593
 30
0.0
 10
-25.56166654427797
 20
16.94541062379212
 30
0.0
 10
-26.1067761305647
 20
16.82499497162402
 30
0.0
 10
-26.55152195221484
 20
16.71147347522034
 30
0.0
 10
-27.20888997268507
 20
16.50159041357476
 30
0.0
 10
-27.73118967019349
 20
16.24346161899398
 30
0.0
 10
-28.03386469518286
 20
16.03011924827962
 30
0.0
  0
SPLINE
  5
AB
330
1F
100
AcDbEntity
  8
DEFAULT
100
AcDbSpline
210
0.0
220
0.0
230
1.0
 70
     8
 71
     3
 72
    28
 73
    24
 74
     0
 42
0.0000000001
 43
0.0000000001
 40
0.0
 40
0.0
 40
0.0
 40
0.0
 40
1.109333737775268
 40
1.736137470146584
 40
2.069197491998213
 40
2.485832933499718
 40
3.410913504868553
 40
3.791081342971316
 40
4.394931274790023
 40
4.916950290129802
 40
5.735175980266344
 40
6.305736181101256
 40
6.677166794705047
 40
7.707140557467934
 40
9.80349180685193
 40
10.491012818883
 40
13.75930936521629
 40
21.38668921534731
 40
22.60865836319629
 40
23.16310989989192
 40
24.94419984225856
 40
28.08142215587261
 40
28.24719475866781
 40
28.24719475866781
 40
28.24719475866781
 40
28.24719475866781
 10
28.03386469518286
 20
16.03011924827962
 30
0.0
 10
27.73118967019349
 20
16.24346161899398
 30
0.0
 10
27.20888997268507
 20
16.50159041357476
 30
0.0
 10
26.55152195221484
 20
16.71147347522034
 30
0.0
 10
26.1067761305647
 20
16.82499497162402
 30
0.0
 10
25.56166654427797
 20
16.94541062379212
 30
0.0
 10
24.99752372573727
 20
17.05234169291593
 30
0.0
 10
24.36660389593332
 20
17.1366057226081
 30
0.0
 10
23.86876339781689
 20
17.20051038422059
 30
0.0
 10
23.22620111567845
 20
17.28511943420176
 30
0.0
 10
22.59227128323845
 20
17.34780001032118
 30
0.0
 10
22.00677504947423
 20
17.38697349759005
 30
0.0
 10
21.35041873807243
 20
17.42283251910445
 30
0.0
 10
20.18446740665364
 20
17.44252696811898
 30
0.0
 10
18.91335882865597
 20
17.45409911604168
 30
0.0
 10
16.89588187317098
 20
17.45355244109468
 30
0.0
 10
13.03490021427316
 20
17.45513298559271
 30
0.0
 10
8.995609316071977
 20
17.45481989383453
 30
0.0
 10
5.861041584228161
 20
17.45539757408139
 30
0.0
 10
4.675198870897077
 20
17.45665578732606
 30
0.0
 10
2.850955912193825
 20
17.46212877088788
 30
0.0
 10
1.156255989172665
 20
17.46189699444567
 30
0.0
 10
0.0552575348148322
 20
17.46183531099143
 30
0.0
 10
0.0
 20
17.46183223310075
 30
0.0
  0
ARC
  5
AC
330
1F
100
AcDbEntity
  8
DEFAULT
100
AcDbCircle
 10
28.64176274237291
 20
2.858542156246332
 30
0.0
 40
1.112083162046045
100
AcDbArc
 50
274.2543106299361
 51
291.0874374605832
  0
SPLINE
  5
AD
330
1F
100
AcDbEntity
  8
DEFAULT
100
AcDbSpline
210
0.0
220
0.0
230
1.0
 70
     8
 71
     3
 72
    11
 73
     7
 74
     0
 42
0.0000000001
 43
0.0000000001
 40
-1.209750443852605
 40
-1.209750443852605
 40
-1.209750443852605
 40
-1.209750443852605
 40
-0.60148525551554
 40
-0.2936175306985081
 40
-0.1463043536875255
 40
-0.0000000000000001
 40
-0.0000000000000001
 40
-0.0000000000000001
 40
-0.0000000000000001
 10
29.79540908925671
 20
2.711221753243639
 30
0.0
 10
29.77680200467457
 20
2.509268231828873
 30
0.0
 10
29.60708071082269
 20
2.231123780417569
 30
0.0
 10
29.34638313691576
 20
1.986766335595509
 30
0.0
 10
29.17637729254811
 20
1.879696788043515
 30
0.0
 10
29.08738568043394
 20
1.838479572556464
 30
0.0
 10
29.04188163680871
 20
1.820932485116673
 30
0.0
  0
LINE
  5
AE
330
1F
100
AcDbEntity
  8
DEFAULT
100
AcDbLine
 10
32.63109752828827
 20
33.48859922846032
 30
0.0
 11
29.79540908925671
 21
2.711221753243639
 31
0.0
  0
SPLINE
  5
AF
330
1F
100
AcDbEntity
  8
DEFAULT
100
AcDbSpline
210
0.0
220
0.0
230
1.0
 70
     8
 71
     3
 72
     8
 73
     4
 74
     0
 42
0.0000000001
 43
0.0000000001
 40
0.0
 40
0.0
 40
0.0
 40
0.0
 40
1.0
 40
1.0
 40
1.0
 40
1.0
 10
32.36676796212377
 20
35.76619110222502
 30
0.0
 10
32.9208155028538
 20
35.32036224117813
 30
0.0
 10
32.70121903566776
 20
34.24966877053129
 30
0.0
 10
32.63109752828827
 20
33.48859922846032
 30
0.0
  0
SPLINE
  5
B0
330
1F
100
AcDbEntity
  8
DEFAULT
100
AcDbSpline
210
0.0
220
0.0
230
1.0
 70
    12
 71
     3
 72
    10
 73
     6
 74
     0
 42
0.0000000001
 43
0.0000000001
 40
-57.87644582078334
 40
-57.87644582078334
 40
-57.87644582078334
 40
-57.87644582078334
 40
-56.78443740907048
 40
-55.69242899735759
 40
-54.66866982998609
 40
-54.66866982998609
 40
-54.66866982998609
 40
-54.66866982998609
 10
29.05736091890847
 20
35.96295699579083
 30
0.0
 41
1.0
 10
29.44023008360813
 20
35.9626453207818
 30
0.0
 41
1.0
 10
30.21270811518441
 20
35.96094229685667
 30
0.0
 41
1.0
 10
31.29199923906975
 20
35.97027734045853
 30
0.0
 41
1.0
 10
32.11331884837064
 20
35.94820899752476
 30
0.0
 41
1.0
 10
32.36676796212377
 20
35.76619110222502
 30
0.0
 41
1.0
  0
POLYLINE
  5
B1
330
1F
100
AcDbEntity
  8
DEFAULT
100
AcDb2dPolyline
 66
     1
 10
0.0
 20
0.0
 30
0.0
  0
VERTEX
  5
B2
330
B1
100
AcDbEntity
  8
DEFAULT
100
AcDbVertex
100
AcDb2dVertex
 10
-29.05736091890847
 20
35.96295699579083
 30
0.0
  0
VERTEX
  5
B3
330
B1
100
AcDbEntity
  8
DEFAULT
100
AcDbVertex
100
AcDb2dVertex
 10
29.05736091890847
 20
35.96295699579083
 30
0.0
  0
SEQEND
  5
B4
330
B1
100
AcDbEntity
  8
DEFAULT
  0
SPLINE
  5
B5
330
1F
100
AcDbEntity
  8
DEFAULT
100
AcDbSpline
210
0.0
220
0.0
230
1.0
 70
    12
 71
     3
 72
    10
 73
     6
 74
     0
 42
0.0000000001
 43
0.0000000001
 40
54.66866982998609
 40
54.66866982998609
 40
54.66866982998609
 40
54.66866982998609
 40
55.69242899735759
 40
56.78443740907048
 40
57.87644582078334
 40
57.87644582078334
 40
57.87644582078334
 40
57.87644582078334
 10
-32.36676796212377
 20
35.76619110222502
 30
0.0
 41
1.0
 10
-32.11331884837064
 20
35.94820899752476
 30
0.0
 41
1.0
 10
-31.29199923906975
 20
35.97027734045853
 30
0.0
 41
1.0
 10
-30.21270811518441
 20
35.96094229685667
 30
0.0
 41
1.0
 10
-29.44023008360813
 20
35.9626453207818
 30
0.0
 41
1.0
 10
-29.05736091890847
 20
35.96295699579083
 30
0.0
 41
1.0
  0
SPLINE
  5
B6
330
1F
100
AcDbEntity
  8
DEFAULT
100
AcDbSpline
210
0.0
220
0.0
230
1.0
 70
     8
 71
     3
 72
     8
 73
     4
 74
     0
 42
0.0000000001
 43
0.0000000001
 40
-1.0
 40
-1.0
 40
-1.0
 40
-1.0
 40
0.0
 40
0.0
 40
0.0
 40
0.0
 10
-32.63109752828827
 20
33.48859922846032
 30
0.0
 10
-32.70121903566776
 20
34.24966877053129
 30
0.0
 10
-32.9208155028538
 20
35.32036224117813
 30
0.0
 10
-32.36676796212377
 20
35.76619110222502
 30
0.0
  0
LINE
  5
B7
330
1F
100
AcDbEntity
  8
DEFAULT
100
AcDbLine
 10
-29.79540908925671
 20
2.711221753243639
 30
0.0
 11
-32.63109752828827
 21
33.48859922846032
 31
0.0
  0
SPLINE
  5
B8
330
1F
100
AcDbEntity
  8
DEFAULT
100
AcDbSpline
210
0.0
220
0.0
230
1.0
 70
     8
 71
     3
 72
    11
 73
     7
 74
     0
 42
0.0000000001
 43
0.0000000001
 40
0.0000000000000001
 40
0.0000000000000001
 40
0.0000000000000001
 40
0.0000000000000001
 40
0.1463043536875255
 40
0.2936175306985081
 40
0.60148525551554
 40
1.209750443852605
 40
1.209750443852605
 40
1.209750443852605
 40
1.209750443852605
 10
-29.04188163680871
 20
1.820932485116673
 30
0.0
 10
-29.08738568043394
 20
1.838479572556464
 30
0.0
 10
-29.17637729254811
 20
1.879696788043515
 30
0.0
 10
-29.34638313691576
 20
1.986766335595509
 30
0.0
 10
-29.60708071082269
 20
2.231123780417569
 30
0.0
 10
-29.77680200467457
 20
2.509268231828873
 30
0.0
 10
-29.79540908925671
 20
2.711221753243639
 30
0.0
  0
ARC
  5
B9
330
1F
100
AcDbEntity
  8
DEFAULT
100
AcDbCircle
 10
-28.64176274237291
 20
2.858542156246332
 30
0.0
 40
1.112083162046045
100
AcDbArc
 50
248.9125625394168
 51
265.7456893700639
  0
POLYLINE
  5
BA
330
1F
100
AcDbEntity
  8
DEFAULT
100
AcDb2dPolyline
 66
     1
 10
0.0
 20
0.0
 30
0.0
  0
VERTEX
  5
BB
330
BA
100
AcDbEntity
  8
DEFAULT
100
AcDbVertex
100
AcDb2dVertex
 10
-18.36597659924459
 20
1.749523220640216
 30
0.0
  0
VERTEX
  5
BC
330
BA
100
AcDbEntity
  8
DEFAULT
100
AcDbVertex
100
AcDb2dVertex
 10
18.36597659924459
 20
1.749523220640216
 30
0.0
  0
SEQEND
  5
BD
330
BA
100
AcDbEntity
  8
DEFAULT
  0
LINE
  5
BE
330
1F
100
AcDbEntity
  8
DEFAULT
100
AcDbLine
 10
18.5201952879104
 20
12.8210733679782
 30
0.0
 11
18.49088562093801
 21
16.57626599148041
 31
0.0
  0
LINE
  5
BF
330
1F
100
AcDbEntity
  8
DEFAULT
100
AcDbLine
 10
-18.5201952879104
 20
12.8210733679782
 30
0.0
 11
-18.49088562093801
 21
16.57626599148041
 31
0.0
  0
LINE
  5
C0
330
1F
100
AcDbEntity
  8
DEFAULT
100
AcDbLine
 10
31.77910769015877
 20
24.24193422093
 30
0.0
 11
32.63171750336681
 21
23.69570024540526
 31
0.0
  0
LINE
  5
C1
330
1F
100
AcDbEntity
  8
DEFAULT
100
AcDbLine
 10
-32.63171750336681
 20
23.69570024540526
 30
0.0
 11
-31.77910769015877
 21
24.24193422093
 31
0.0
  0
SPLINE
  5
C2
330
1F
100
AcDbEntity
  8
DEFAULT
100
AcDbSpline
210
0.0
220
0.0
230
1.0
 70
     8
 71
     3
 72
    14
 73
    10
 74
     0
 42
0.0000000001
 43
0.0000000001
 40
0.0
 40
0.0
 40
0.0
 40
0.0
 40
1.0
 40
2.0
 40
3.0
 40
4.0
 40
5.0
 40
6.0
 40
7.0
 40
7.0
 40
7.0
 40
7.0
 10
23.53748454633737
 20
21.34084052443182
 30
0.0
 10
23.92708365622215
 20
21.48735407245601
 30
0.0
 10
24.7063102448633
 20
21.78030711793149
 30
0.0
 10
25.87504314325529
 20
22.22001414968287
 30
0.0
 10
27.04411903323116
 20
22.65883353913578
 30
0.0
 10
28.21193019995043
 20
23.10092613145298
 30
0.0
 10
29.38697487119638
 20
23.52408517955633
 30
0.0
 10
30.57959706224268
 20
23.8948937915461
 30
0.0
 10
31.3801551068935
 20
24.12321040679242
 30
0.0
 10
31.77910769015877
 20
24.24193422093
 30
0.0
  0
SPLINE
  5
C3
330
1F
100
AcDbEntity
  8
DEFAULT
100
AcDbSpline
210
0.0
220
0.0
230
1.0
 70
     8
 71
     3
 72
    14
 73
    10
 74
     0
 42
0.0000000001
 43
0.0000000001
 40
0.0
 40
0.0
 40
0.0
 40
0.0
 40
1.0
 40
2.0
 40
3.0
 40
4.0
 40
5.0
 40
6.0
 40
7.0
 40
7.0
 40
7.0
 40
7.0
 10
-31.77910769015877
 20
24.24193422093
 30
0.0
 10
-31.38015518731693
 20
24.12321043058682
 30
0.0
 10
-30.57959716847563
 20
23.89489382105086
 30
0.0
 10
-29.38697500286159
 20
23.52408522625377
 30
0.0
 10
-28.21193007750054
 20
23.10092608674121
 30
0.0
 10
-27.04411904224689
 20
22.65883354216833
 30
0.0
 10
-25.87504313688665
 20
22.22001414738503
 30
0.0
 10
-24.70631054248547
 20
21.78030722981757
 30
0.0
 10
-23.92708347643907
 20
21.48735400485733
 30
0.0
 10
-23.53748454633737
 20
21.34084052443182
 30
0.0
  0
SPLINE
  5
C4
330
1F
100
AcDbEntity
  8
DEFAULT
100
AcDbSpline
210
0.0
220
0.0
230
1.0
 70
     8
 71
     3
 72
    14
 73
    10
 74
     0
 42
0.0000000001
 43
0.0000000001
 40
0.0
 40
0.0
 40
0.0
 40
0.0
 40
1.0
 40
2.0
 40
3.0
 40
4.0
 40
5.0
 40
6.0
 40
7.0
 40
7.0
 40
7.0
 40
7.0
 10
-13.22121605431058
 20
21.55545644451563
 30
0.0
 10
-13.27106900641226
 20
22.24270730158511
 30
0.0
 10
-13.37078698302325
 20
23.61720891783563
 30
0.0
 10
-13.52031884485093
 20
25.67896403125881
 30
0.0
 10
-13.66999490677651
 20
27.74070875060819
 30
0.0
 10
-13.81913929636375
 20
29.80249270134407
 30
0.0
 10
-13.97026611599924
 20
31.86412930442761
 30
0.0
 10
-14.11399497160673
 20
33.92631722229676
 30
0.0
 10
-14.30288253582809
 20
35.29363340733164
 30
0.0
 10
-14.46726621493734
 20
35.96343377507018
 30
0.0
  0
SPLINE
  5
C5
330
1F
100
AcDbEntity
  8
DEFAULT
100
AcDbSpline
210
0.0
220
0.0
230
1.0
 70
     8
 71
     3
 72
    14
 73
    10
 74
     0
 42
0.0000000001
 43
0.0000000001
 40
0.0
 40
0.0
 40
0.0
 40
0.0
 40
1.0
 40
2.0
 40
3.0
 40
4.0
 40
5.0
 40
6.0
 40
7.0
 40
7.0
 40
7.0
 40
7.0
 10
13.22121605431058
 20
21.55545644451563
 30
0.0
 10
13.27106900641226
 20
22.24270730158511
 30
0.0
 10
13.37078698302325
 20
23.61720891783563
 30
0.0
 10
13.52031884485093
 20
25.67896403125881
 30
0.0
 10
13.66999490677651
 20
27.74070875060819
 30
0.0
 10
13.81913929636375
 20
29.80249270134407
 30
0.0
 10
13.97026611599924
 20
31.86412930442761
 30
0.0
 10
14.11399497160673
 20
33.92631722229676
 30
0.0
 10
14.30288253582809
 20
35.29363340733164
 30
0.0
 10
14.46726621493734
 20
35.96343377507018
 30
0.0
  0
SPLINE
  5
C6
330
1F
100
AcDbEntity
  8
DEFAULT
100
AcDbSpline
210
0.0
220
0.0
230
1.0
 70
    24
 71
     2
 72
     6
 73
     3
 74
     0
 42
0.0000000001
 43
0.0000000001
 40
21.46194295735607
 40
21.46194295735607
 40
21.46194295735607
 40
25.19969608893
 40
25.19969608893
 40
25.19969608893
 10
-23.70708451014563
 20
20.82271184982026
 30
0.0
 10
-23.57767705719088
 20
19.03881168715579
 30
0.0
 10
-23.44826960423613
 20
17.25491152449132
 30
0.0
  0
SPLINE
  5
C7
330
1F
100
AcDbEntity
  8
DEFAULT
100
AcDbSpline
210
0.0
220
0.0
230
1.0
 70
    12
 71
     2
 72
     6
 73
     3
 74
     0
 42
0.0000000001
 43
0.0000000001
 40
20.2838457139172
 40
20.2838457139172
 40
20.2838457139172
 40
21.46194295735607
 40
21.46194295735607
 40
21.46194295735607
 10
-23.05286196765168
 20
21.55545644931993
 30
0.0
 41
1.0
 10
-23.76023917329822
 20
21.55545644770075
 30
0.0
 41
0.7071067819678039
 10
-23.70708451014563
 20
20.82271184982026
 30
0.0
 41
1.0
  0
SPLINE
  5
C8
330
1F
100
AcDbEntity
  8
DEFAULT
100
AcDbSpline
210
0.0
220
0.0
230
1.0
 70
    24
 71
     2
 72
     6
 73
     3
 74
     0
 42
0.0000000001
 43
0.0000000001
 40
0.991740588762975
 40
0.991740588762975
 40
0.991740588762975
 40
20.2838457139172
 40
20.2838457139172
 40
20.2838457139172
 10
-4.857151766761262
 20
21.55545646767622
 30
0.0
 10
-13.95500686720647
 20
21.55545645849807
 30
0.0
 10
-23.05286196765168
 20
21.55545644931993
 30
0.0
  0
SPLINE
  5
C9
330
1F
100
AcDbEntity
  8
DEFAULT
100
AcDbSpline
210
0.0
220
0.0
230
1.0
 70
     8
 71
     3
 72
    14
 73
    10
 74
     0
 42
0.0000000001
 43
0.0000000001
 40
0.0
 40
0.0
 40
0.0
 40
0.0
 40
2.474514288407708
 40
2.474514288407708
 40
4.950578323085037
 40
4.950578323085037
 40
7.426843675798778
 40
7.426843675798778
 40
9.901428151463568
 40
9.901428151463568
 40
9.901428151463568
 40
9.901428151463568
 10
4.857135222265252
 20
21.55545646767623
 30
0.0
 10
4.078534727068794
 20
21.55545644438264
 30
0.0
 10
3.278387238463683
 20
21.55545644438264
 30
0.0
 10
1.650545550867101
 20
21.55545644438264
 30
0.0
 10
0.8261127061730145
 20
21.55545644438264
 30
0.0
 10
-0.826084564724136
 20
21.55545644438264
 30
0.0
 10
-1.65035346254674
 20
21.55545644438264
 30
0.0
 10
-3.278293488233785
 20
21.55545644438264
 30
0.0
 10
-4.078541772171435
 20
21.55545644438264
 30
0.0
 10
-4.857151766761262
 20
21.55545646767622
 30
0.0
  0
SPLINE
  5
CA
330
1F
100
AcDbEntity
  8
DEFAULT
100
AcDbSpline
210
0.0
220
0.0
230
1.0
 70
    24
 71
     2
 72
     6
 73
     3
 74
     0
 42
0.0000000001
 43
0.0000000001
 40
-20.2838457139172
 40
-20.2838457139172
 40
-20.2838457139172
 40
-0.991740588762975
 40
-0.991740588762975
 40
-0.991740588762975
 10
23.05286196765168
 20
21.55545644931993
 30
0.0
 10
13.95499859495847
 20
21.55545645849808
 30
0.0
 10
4.857135222265252
 20
21.55545646767623
 30
0.0
  0
SPLINE
  5
CB
330
1F
100
AcDbEntity
  8
DEFAULT
100
AcDbSpline
210
0.0
220
0.0
230
1.0
 70
    12
 71
     2
 72
     6
 73
     3
 74
     0
 42
0.0000000001
 43
0.0000000001
 40
-21.46194295735607
 40
-21.46194295735607
 40
-21.46194295735607
 40
-20.2838457139172
 40
-20.2838457139172
 40
-20.2838457139172
 10
23.70708451014563
 20
20.82271184982026
 30
0.0
 41
1.0
 10
23.76023917329822
 20
21.55545644770075
 30
0.0
 41
0.7071067819678039
 10
23.05286196765168
 20
21.55545644931993
 30
0.0
 41
1.0
  0
SPLINE
  5
CC
330
1F
100
AcDbEntity
  8
DEFAULT
100
AcDbSpline
210
0.0
220
0.0
230
1.0
 70
    24
 71
     2
 72
     6
 73
     3
 74
     0
 42
0.0000000001
 43
0.0000000001
 40
-25.19969608893
 40
-25.19969608893
 40
-25.19969608893
 40
-21.46194295735607
 40
-21.46194295735607
 40
-21.46194295735607
 10
23.44826960423613
 20
17.25491152449132
 30
0.0
 10
23.57767705719088
 20
19.03881168715579
 30
0.0
 10
23.70708451014563
 20
20.82271184982026
 30
0.0
  0
SPLINE
  5
CD
330
1F
100
AcDbEntity
  8
DEFAULT
100
AcDbSpline
210
0.0
220
0.0
230
1.0
 70
     8
 71
     3
 72
    14
 73
    10
 74
     0
 42
0.0000000001
 43
0.0000000001
 40
0.0
 40
0.0
 40
0.0
 40
0.0
 40
1.0
 40
2.0
 40
3.0
 40
4.0
 40
5.0
 40
6.0
 40
7.0
 40
7.0
 40
7.0
 40
7.0
 10
22.52438535487798
 20
1.750033198078262
 30
0.0
 10
22.48508650826053
 20
2.25064869775576
 30
0.0
 10
22.46037526403318
 20
3.255597341372817
 30
0.0
 10
22.53875305525716
 20
4.760374098062292
 30
0.0
 10
22.6516937794451
 20
6.262403426987159
 30
0.0
 10
22.75961878805003
 20
7.764872070135562
 30
0.0
 10
22.86888887315125
 20
9.267222246148606
 30
0.0
 10
22.97779421829562
 20
10.76960491484669
 30
0.0
 10
23.05047376388251
 20
11.77118651781017
 30
0.0
 10
23.08679834641053
 20
12.27197877285842
 30
0.0
  0
SPLINE
  5
CE
330
1F
100
AcDbEntity
  8
DEFAULT
100
AcDbSpline
210
0.0
220
0.0
230
1.0
 70
     8
 71
     3
 72
    14
 73
    10
 74
     0
 42
0.0000000001
 43
0.0000000001
 40
0.0
 40
0.0
 40
0.0
 40
0.0
 40
1.0
 40
2.0
 40
3.0
 40
4.0
 40
5.0
 40
6.0
 40
7.0
 40
7.0
 40
7.0
 40
7.0
 10
-23.08679834641053
 20
12.27197877285842
 30
0.0
 10
-23.05047378131057
 20
11.77118675804745
 30
0.0
 10
-22.97779422175086
 20
10.76960496253182
 30
0.0
 10
-22.86888889223048
 20
9.267222508984434
 30
0.0
 10
-22.75961876722654
 20
7.764871783722697
 30
0.0
 10
-22.65169380032134
 20
6.262403712375495
 30
0.0
 10
-22.53875306008038
 20
4.760374173484031
 30
0.0
 10
-22.4603752632542
 20
3.255597366405736
 30
0.0
 10
-22.48508650829674
 20
2.250648693173977
 30
0.0
 10
-22.52438535487798
 20
1.750033198078262
 30
0.0
  0
LINE
  5
CF
330
1F
100
AcDbEntity
  8
DEFAULT
100
AcDbLine
 10
52.40566344025832
 20
35.96343377507018
 30
0.0
 11
50.0476603944597
 21
35.41722369131831
 31
0.0
  0
SPLINE
  5
D0
330
1F
100
AcDbEntity
  8
DEFAULT
100
AcDbSpline
210
0.0
220
0.0
230
1.0
 70
    24
 71
     2
 72
     6
 73
     3
 74
     0
 42
0.0000000001
 43
0.0000000001
 40
0.0
 40
0.0
 40
0.0
 40
0.9642805624188071
 40
0.9642805624188071
 40
0.9642805624188071
 10
62.49520720074285
 20
1.191414329909109
 30
0.0
 10
62.01306691953344
 20
1.191414329909109
 30
0.0
 10
61.53092663832403
 20
1.191414329909109
 30
0.0
  0
SPLINE
  5
D1
330
1F
100
AcDbEntity
  8
DEFAULT
100
AcDbSpline
210
0.0
220
0.0
230
1.0
 70
     8
 71
     3
 72
    18
 73
    14
 74
     0
 42
0.0000000001
 43
0.0000000001
 40
0.0
 40
0.0
 40
0.0
 40
0.0
 40
3.67936145562526
 40
3.67936145562526
 40
3.67936145562526
 40
4.360108324379536
 40
4.360108324379536
 40
5.042546232513257
 40
5.042546232513257
 40
6.410959352432036
 40
6.410959352432036
 40
6.410959352432036
 40
10.09039186318665
 40
10.09039186318665
 40
10.09039186318665
 40
10.09039186318665
 10
49.99036652946633
 20
19.89061428450738
 30
0.0
 10
49.61867830179405
 20
19.73130018155668
 30
0.0
 10
49.39346833296979
 20
19.56626797033433
 30
0.0
 10
49.31826752184672
 20
19.39944719031536
 30
0.0
 10
49.30432650721012
 20
19.36852131463408
 30
0.0
 10
49.29379401022622
 20
19.34531545020957
 30
0.0
 10
49.27964732773013
 20
19.31417623645967
 30
0.0
 10
49.27609206047903
 20
19.30638952946588
 30
0.0
 10
49.27608369432924
 20
19.30637134579861
 30
0.0
 10
49.29023681523596
 20
19.33727691391913
 30
0.0
 10
49.31825585733763
 20
19.39943818765208
 30
0.0
 10
49.39344583457522
 20
19.56626265514813
 30
0.0
 10
49.61865083840503
 20
19.73129866970253
 30
0.0
 10
49.9903663135626
 20
19.89061530584384
 30
0.0
  0
SPLINE
  5
D2
330
1F
100
AcDbEntity
  8
DEFAULT
100
AcDbSpline
210
0.0
220
0.0
230
1.0
 70
    24
 71
     2
 72
     6
 73
     3
 74
     0
 42
0.0000000001
 43
0.0000000001
 40
0.0
 40
0.0
 40
0.0
 40
21.55836503740742
 40
21.55836503740742
 40
21.55836503740742
 10
60.63101777360494
 20
1.750000000000013
 30
0.0
 10
57.47947655303324
 20
11.74989789633423
 30
0.0
 10
54.32793533246154
 20
21.74979579266845
 30
0.0
  0
LINE
  5
D3
330
1F
100
AcDbEntity
  8
DEFAULT
100
AcDbLine
 10
77.54700281392994
 20
16.50419670570005
 30
0.0
 11
62.86142864898075
 21
15.98394031370927
 31
0.0
  0
ARC
  5
D4
330
1F
100
AcDbEntity
  8
DEFAULT
100
AcDbCircle
 10
73.72226760149016
 20
124.4671808963588
 30
0.0
 40
108.0307111649169
100
AcDbArc
 50
272.0289322310228
 51
272.8952512857887
  0
LINE
  5
D5
330
1F
100
AcDbEntity
  8
DEFAULT
100
AcDbLine
 10
79.06217500184633
 20
12.80609957049581
 30
0.0
 11
79.17891668481113
 21
16.57436586412786
 31
0.0
  0
LINE
  5
D6
330
1F
100
AcDbEntity
  8
DEFAULT
100
AcDbLine
 10
63.60277984108764
 20
12.25877502558206
 30
0.0
 11
79.06217500184633
 21
12.80609957049581
 31
0.0
  0
SPLINE
  5
D7
330
1F
100
AcDbEntity
  8
DEFAULT
100
AcDbSpline
210
0.0
220
0.0
230
1.0
 70
    24
 71
     2
 72
     6
 73
     3
 74
     0
 42
0.0000000001
 43
0.0000000001
 40
0.0
 40
0.0
 40
0.0
 40
0.1229126297145663
 40
0.1229126297145663
 40
0.1229126297145663
 10
69.70443389905869
 20
12.35180882869306
 30
0.0
 10
69.70209637440207
 20
12.41322067294412
 30
0.0
 10
69.69975884974546
 20
12.47463251719519
 30
0.0
  0
SPLINE
  5
D8
330
1F
100
AcDbEntity
  8
DEFAULT
100
AcDbSpline
210
0.0
220
0.0
230
1.0
 70
    24
 71
     2
 72
     6
 73
     3
 74
     0
 42
0.0000000001
 43
0.0000000001
 40
-3.079544120408699
 40
-3.079544120408699
 40
-3.079544120408699
 40
0.0
 40
0.0
 40
0.0
 10
72.78388081897869
 20
12.32734136174025
 30
0.0
 10
71.24415735901869
 20
12.33957509521665
 30
0.0
 10
69.70443389905869
 20
12.35180882869306
 30
0.0
  0
SPLINE
  5
D9
330
1F
100
AcDbEntity
  8
DEFAULT
100
AcDbSpline
210
0.0
220
0.0
230
1.0
 70
    12
 71
     3
 72
    10
 73
     6
 74
     0
 42
0.0000000001
 43
0.0000000001
 40
-1.365734546670907
 40
-1.365734546670907
 40
-1.365734546670907
 40
-1.365734546670907
 40
-0.9104896977806043
 40
-0.4552448488903021
 40
0.0
 40
0.0
 40
0.0
 40
0.0
 10
72.93792879324069
 20
11.8093140077567
 30
0.0
 41
1.0
 10
72.92612426250382
 20
11.90488412655391
 30
0.0
 41
1.0
 10
72.89920477925877
 20
12.07829791798114
 30
0.0
 41
1.0
 10
72.84975059468279
 20
12.26776867620241
 30
0.0
 41
1.0
 10
72.80723158753658
 20
12.32715583032085
 30
0.0
 41
1.0
 10
72.78388081897869
 20
12.32734136174025
 30
0.0
 41
1.0
  0
SPLINE
  5
DA
330
1F
100
AcDbEntity
  8
DEFAULT
100
AcDbSpline
210
0.0
220
0.0
230
1.0
 70
    24
 71
     2
 72
     6
 73
     3
 74
     0
 42
0.0000000001
 43
0.0000000001
 40
0.0
 40
0.0
 40
0.0
 40
10.6395344800855
 40
10.6395344800855
 40
10.6395344800855
 10
74.24218031269739
 20
1.250023220638321
 30
0.0
 10
73.59005455296904
 20
6.529668614197512
 30
0.0
 10
72.93792879324069
 20
11.8093140077567
 30
0.0
  0
SPLINE
  5
DB
330
1F
100
AcDbEntity
  8
DEFAULT
100
AcDbSpline
210
0.0
220
0.0
230
1.0
 70
    12
 71
     2
 72
     6
 73
     3
 74
     0
 42
0.0000000001
 43
0.0000000001
 40
0.0
 40
0.0
 40
0.0
 40
0.2590616203207258
 40
0.2590616203207258
 40
0.2590616203207258
 10
61.53092663832403
 20
1.191414329909109
 30
0.0
 41
1.0
 10
61.49963601213677
 20
1.250023220640434
 30
0.0
 41
0.9479032082388155
 10
61.46470589150834
 20
1.250023220640434
 30
0.0
 41
0.9479032082388155
  0
LINE
  5
DC
330
1F
100
AcDbEntity
  8
DEFAULT
100
AcDbLine
 10
61.2181488784649
 20
24.24193422093
 30
0.0
 11
58.86783335250432
 21
23.69570024540526
 31
0.0
  0
SPLINE
  5
DD
330
1F
100
AcDbEntity
  8
DEFAULT
100
AcDbSpline
210
0.0
220
0.0
230
1.0
 70
    24
 71
     2
 72
     6
 73
     3
 74
     0
 42
0.0000000001
 43
0.0000000001
 40
0.0
 40
0.0
 40
0.0
 40
13.31766439353216
 40
13.31766439353216
 40
13.31766439353216
 10
75.81287146373465
 20
1.250032160466586
 30
0.0
 10
69.15403933223875
 20
1.25002769055295
 30
0.0
 10
62.49520720074285
 20
1.250023220639313
 30
0.0
  0
SPLINE
  5
DE
330
1F
100
AcDbEntity
  8
DEFAULT
100
AcDbSpline
210
0.0
220
0.0
230
1.0
 70
    12
 71
     3
 72
    12
 73
     8
 74
     0
 42
0.0000000001
 43
0.0000000001
 40
0.881898952060679
 40
0.881898952060679
 40
0.881898952060679
 40
0.881898952060679
 40
1.352336845815283
 40
1.352336845815283
 40
2.028586412644105
 40
2.028586412644105
 40
2.651549550078564
 40
2.651549550078564
 40
2.651549550078564
 40
2.651549550078564
 10
75.81288222292467
 20
0.125011620495448
 30
0.0
 41
1.0
 10
75.85409352002544
 20
0.1250418915952043
 30
0.0
 41
1.0
 10
75.89440237150292
 20
0.1896884646745839
 30
0.0
 41
1.0
 10
75.96459010945885
 20
0.4815663376640882
 30
0.0
 41
1.0
 10
75.9736703747164
 20
0.7321275590834708
 30
0.0
 41
1.0
 10
75.92058163474385
 20
1.131300595254747
 30
0.0
 41
1.0
 10
75.8687996392249
 20
1.250138612112081
 30
0.0
 41
1.0
 10
75.81287146373465
 20
1.250032160466586
 30
0.0
 41
1.0
  0
SPLINE
  5
DF
330
1F
100
AcDbEntity
  8
DEFAULT
100
AcDbSpline
210
0.0
220
0.0
230
1.0
 70
    24
 71
     2
 72
     6
 73
     3
 74
     0
 42
0.0000000001
 43
0.0000000001
 40
0.0
 40
0.0
 40
0.0
 40
0.4741494067238392
 40
0.4741494067238392
 40
0.4741494067238392
 10
45.30652267717524
 20
0.1250232206404336
 30
0.0
 10
60.55970245004995
 20
0.1250174205679408
 30
0.0
 10
75.81288222292467
 20
0.125011620495448
 30
0.0
  0
ARC
  5
E0
330
1F
100
AcDbEntity
  8
DEFAULT
100
AcDbCircle
 10
45.30652267717524
 20
0.6875232206404296
 30
0.0
 40
0.562499999999996
100
AcDbArc
 50
90.0
 51
270.0000000000014
  0
SPLINE
  5
E1
330
1F
100
AcDbEntity
  8
DEFAULT
100
AcDbSpline
210
0.0
220
0.0
230
1.0
 70
    24
 71
     2
 72
     6
 73
     3
 74
     0
 42
0.0000000001
 43
0.0000000001
 40
0.0
 40
0.0
 40
0.0
 40
2.85832638867052
 40
2.85832638867052
 40
2.85832638867052
 10
61.46470589150924
 20
1.2500232206394
 30
0.0
 10
53.38561428434224
 20
1.250023220639913
 30
0.0
 10
45.30652267717524
 20
1.250023220640426
 30
0.0
  0
SPLINE
  5
E2
330
1F
100
AcDbEntity
  8
DEFAULT
100
AcDbSpline
210
0.0
220
0.0
230
1.0
 70
    28
 71
     2
 72
    12
 73
     9
 74
     0
 42
0.0000000001
 43
0.0000000001
 40
0.098174770424681
 40
0.098174770424681
 40
0.098174770424681
 40
0.3926990816987241
 40
0.3926990816987241
 40
0.7853981633974483
 40
0.7853981633974483
 40
1.785398163396786
 40
1.785398163396786
 40
1.883572933821467
 40
1.883572933821467
 40
1.883572933821467
 10
55.32331099498803
 20
0.0000000000000005
 30
0.0
 41
0.8901650429449554
 10
55.33702115433713
 20
0.0000000000000006
 30
0.0
 41
0.7803300858899107
 10
55.18460662614662
 20
0.0000000000000004
 30
0.0
 41
1.0
 10
54.96034320033284
 20
0.0000000000000006
 30
0.0
 41
0.7071067811865476
 10
54.84986281364677
 20
0.0000000000000004
 30
0.0
 41
1.0
 10
54.62890204027501
 20
0.0000000000000004
 30
0.0
 41
1.0
 10
54.40794126690325
 20
0.0000000000000004
 30
0.0
 41
1.0
 10
54.38686784355052
 20
0.0000000000000005
 30
0.0
 41
0.9267766952966369
 10
54.38301993718978
 20
0.0000000000000005
 30
0.0
 41
0.8901650429449552
  0
SPLINE
  5
E3
330
1F
100
AcDbEntity
  8
DEFAULT
100
AcDbSpline
210
0.0
220
0.0
230
1.0
 70
    11
 71
     3
 72
    52
 73
    48
 74
     0
 42
0.0000000001
 43
0.0000000001
 40
0.0
 40
0.0
 40
0.0
 40
0.0
 40
34.4802438944222
 40
34.4802438944222
 40
34.4802438944222
 40
46.6485627554834
 40
46.6485627554834
 40
46.6485627554834
 40
46.71421517758923
 40
46.78999551626346
 40
46.88529742701952
 40
47.00750711779317
 40
47.31461879619166
 40
47.69905253728047
 40
47.69905253728047
 40
47.69905253728047
 40
48.0170098642698
 40
48.63499175364466
 40
48.90054302746339
 40
50.0660874076445
 40
50.69392038617676
 40
51.62247694987502
 40
52.76271181489704
 40
53.96736983455407
 40
73.13420599527888
 40
74.3002566815688
 40
75.4758221258996
 40
76.58845762494293
 40
77.15430446921096
 40
78.24426596389554
 40
79.14860905810373
 40
79.527732345067
 40
79.527732345067
 40
79.527732345067
 40
80.527732345067
 40
81.527732345067
 40
82.527732345067
 40
83.527732345067
 40
84.527732345067
 40
85.527732345067
 40
86.527732345067
 40
86.527732345067
 40
86.527732345067
 40
96.80899880611285
 40
96.80899880611285
 40
96.80899880611285
 40
99.3731245871504
 40
99.3731245871504
 40
99.3731245871504
 40
99.3731245871504
 10
45.69363890740878
 20
35.41757810791277
 30
0.0
 10
48.17134303111943
 20
24.19419793279661
 30
0.0
 10
50.6528188956102
 20
12.97186053237312
 30
0.0
 10
53.13429476010096
 20
1.749523131949623
 30
0.0
 10
57.19040104058426
 20
1.749523161513227
 30
0.0
 10
61.2465073210676
 20
1.74952319107683
 30
0.0
 10
65.30261360155093
 20
1.749523220640434
 30
0.0
 10
65.32443696694266
 20
1.749200065765822
 30
0.0
 10
65.37161588470728
 20
1.763715329909179
 30
0.0
 10
65.42588436009991
 20
1.823261008357366
 30
0.0
 10
65.46698836716176
 20
1.912604620578116
 30
0.0
 10
65.50726986849183
 20
2.083494464751165
 30
0.0
 10
65.51814109015827
 20
2.35573634693677
 30
0.0
 10
65.49519602484723
 20
2.585335982082523
 30
0.0
 10
65.47532883318424
 20
2.712003095920712
 30
0.0
 10
65.38457506058624
 20
3.262584445290263
 30
0.0
 10
65.32394311698299
 20
3.568628788303952
 30
0.0
 10
65.23876203221924
 20
3.959976889714703
 30
0.0
 10
65.10364111043593
 20
4.629521198145703
 30
0.0
 10
64.98566423423371
 20
5.305697538773991
 30
0.0
 10
64.8101118881007
 20
6.19587526517298
 30
0.0
 10
64.63310014318715
 20
7.077143053329677
 30
0.0
 10
64.42108066260731
 20
8.147500786853415
 30
0.0
 10
63.02123152077958
 20
15.1801082503339
 30
0.0
 10
61.62030432654568
 20
22.22127791906612
 30
0.0
 10
60.22098297022016
 20
29.25287757730992
 30
0.0
 10
59.99551152617032
 20
30.38200356609347
 30
0.0
 10
59.81143375183494
 20
31.31537453174171
 30
0.0
 10
59.63029239154416
 20
32.22023700035685
 30
0.0
 10
59.45070984508804
 20
33.05456234989836
 30
0.0
 10
59.30076843830825
 20
33.83139660091154
 30
0.0
 10
59.2130470622959
 20
34.2501378196155
 30
0.0
 10
59.08503804131327
 20
34.84153589466353
 30
0.0
 10
59.0726982300467
 20
34.90352303491949
 30
0.0
 10
59.04462235490776
 20
35.02682200887819
 30
0.0
 10
58.99243972193794
 20
35.20918324567818
 30
0.0
 10
58.92960360722209
 20
35.3881961780182
 30
0.0
 10
58.85465766751291
 20
35.56244355758376
 30
0.0
 10
58.763941963108
 20
35.72955507429015
 30
0.0
 10
58.65158992771482
 20
35.88193817777918
 30
0.0
 10
58.54555721912733
 20
35.96056520193621
 30
0.0
 10
58.48036017927343
 20
35.96295699570283
 30
0.0
 10
55.05327129877973
 20
35.96295699554768
 30
0.0
 10
51.62618241828604
 20
35.96295699539254
 30
0.0
 10
48.19909353779236
 20
35.96295699523739
 30
0.0
 10
47.36394199613575
 20
35.78116402720273
 30
0.0
 10
46.52879045267456
 20
35.59937106476119
 30
0.0
 10
45.69363890740878
 20
35.41757810791277
 30
0.0
  0
SPLINE
  5
E4
330
1F
100
AcDbEntity
  8
DEFAULT
100
AcDbSpline
210
0.0
220
0.0
230
1.0
 70
    24
 71
     2
 72
     6
 73
     3
 74
     0
 42
0.0000000001
 43
0.0000000001
 40
0.0
 40
0.0
 40
0.0
 40
0.125
 40
0.125
 40
0.125
 10
54.38220469271702
 20
0.1250000000000004
 30
0.0
 10
54.38220469271702
 20
0.0625000000000004
 30
0.0
 10
54.38220469271702
 20
0.0000000000000004
 30
0.0
  0
SPLINE
  5
E5
330
1F
100
AcDbEntity
  8
DEFAULT
100
AcDbSpline
210
0.0
220
0.0
230
1.0
 70
    24
 71
     2
 72
     6
 73
     3
 74
     0
 42
0.0000000001
 43
0.0000000001
 40
0.0
 40
0.0
 40
0.0
 40
0.5581088907313285
 40
0.5581088907313285
 40
0.5581088907313285
 10
61.53092663832403
 20
1.191414329909109
 30
0.0
 10
61.53092663832405
 20
1.470468775274774
 30
0.0
 10
61.53092663832406
 20
1.749523220640438
 30
0.0
  0
SPLINE
  5
E6
330
1F
100
AcDbEntity
  8
DEFAULT
100
AcDbSpline
210
0.0
220
0.0
230
1.0
 70
    24
 71
     2
 72
     6
 73
     3
 74
     0
 42
0.0000000001
 43
0.0000000001
 40
-10.79922068646632
 40
-10.79922068646632
 40
-10.79922068646632
 40
0.0
 40
0.0
 40
0.0
 10
73.0279533609931
 20
11.96779585590738
 30
0.0
 10
73.68986671893347
 20
6.608909538272847
 30
0.0
 10
74.35178007687385
 20
1.250023220638313
 30
0.0
  0
SPLINE
  5
E7
330
1F
100
AcDbEntity
  8
DEFAULT
100
AcDbSpline
210
0.0
220
0.0
230
1.0
 70
    12
 71
     3
 72
     9
 73
     5
 74
     0
 42
0.0000000001
 43
0.0000000001
 40
0.4756288287750752
 40
0.4756288287750752
 40
0.4756288287750752
 40
0.4756288287750752
 40
0.9104896977806043
 40
1.365734546670907
 40
1.365734546670907
 40
1.365734546670907
 40
1.365734546670907
 10
72.87559400969583
 20
12.58706980957059
 30
0.0
 41
1.0
 10
72.90632479839867
 20
12.52312142658523
 30
0.0
 41
1.0
 10
72.96479868137475
 20
12.34834099718928
 30
0.0
 41
1.0
 10
73.01094076173065
 20
12.10553077894706
 30
0.0
 41
1.0
 10
73.0279533609931
 20
11.96779585590738
 30
0.0
 41
1.0
  0
SPLINE
  5
E8
330
1F
100
AcDbEntity
  8
DEFAULT
100
AcDbSpline
210
0.0
220
0.0
230
1.0
 70
     8
 71
     3
 72
    14
 73
    10
 74
     0
 42
0.0000000001
 43
0.0000000001
 40
0.0
 40
0.0
 40
0.0
 40
0.0
 40
0.2198316364959003
 40
0.4313506558536249
 40
0.7870816767838048
 40
0.9244091788303984
 40
1.036501184990432
 40
1.122937712442817
 40
1.195118732685283
 40
1.195118732685283
 40
1.195118732685283
 40
1.195118732685283
 10
62.9910038367385
 20
2.854388636602856
 30
0.0
 10
63.00515323132241
 20
2.782565554338471
 30
0.0
 10
63.02936451407992
 20
2.640554412877204
 30
0.0
 10
63.0548938662498
 20
2.379602124195215
 30
0.0
 10
63.05509284120338
 20
2.143656961935555
 30
0.0
 10
63.01813763570679
 20
1.944648991308806
 30
0.0
 10
62.97755015148284
 20
1.839720849818743
 30
0.0
 10
62.92018310491842
 20
1.76749963932091
 30
0.0
 10
62.86767441137157
 20
1.749016668289155
 30
0.0
 10
62.84360552580567
 20
1.749523220640433
 30
0.0
  0
SPLINE
  5
E9
330
1F
100
AcDbEntity
  8
DEFAULT
100
AcDbSpline
210
0.0
220
0.0
230
1.0
 70
    24
 71
     2
 72
     6
 73
     3
 74
     0
 42
0.0000000001
 43
0.0000000001
 40
-32.05734931575117
 40
-32.05734931575117
 40
-32.05734931575117
 40
0.0
 40
0.0
 40
0.0
 10
56.73471782117112
 20
34.29532581162211
 30
0.0
 10
59.86286082895481
 20
18.57485722411248
 30
0.0
 10
62.9910038367385
 20
2.854388636602856
 30
0.0
  0
SPLINE
  5
EA
330
1F
100
AcDbEntity
  8
DEFAULT
100
AcDbSpline
210
0.0
220
0.0
230
1.0
 70
     8
 71
     3
 72
    13
 73
     9
 74
     0
 42
0.0000000001
 43
0.0000000001
 40
0.0
 40
0.0
 40
0.0
 40
0.0
 40
0.081870844827454
 40
0.1896291529786037
 40
0.3268017165152483
 40
0.48813449531621
 40
0.8821185394785773
 40
1.327274813646051
 40
1.327274813646051
 40
1.327274813646051
 40
1.327274813646051
 10
56.13003976904692
 20
35.4167469119532
 30
0.0
 10
56.15755011236551
 20
35.41682874767402
 30
0.0
 10
56.21884966229756
 20
35.39597702438575
 30
0.0
 10
56.30343623233829
 20
35.32578123434519
 30
0.0
 10
56.38837117367289
 20
35.21984987139565
 30
0.0
 10
56.50673834710152
 20
35.02110485079663
 30
0.0
 10
56.63375005663657
 20
34.71161740597902
 30
0.0
 10
56.70575613503273
 20
34.44091742876748
 30
0.0
 10
56.73471782117112
 20
34.29532581162211
 30
0.0
  0
SPLINE
  5
EB
330
1F
100
AcDbEntity
  8
DEFAULT
100
AcDbSpline
210
0.0
220
0.0
230
1.0
 70
    24
 71
     2
 72
     6
 73
     3
 74
     0
 42
0.0000000001
 43
0.0000000001
 40
0.0
 40
0.0
 40
0.0
 40
9.445744768659551
 40
9.445744768659551
 40
9.445744768659551
 10
45.69363890740878
 20
35.41757810791277
 30
0.0
 10
50.91183933822785
 20
35.41716250993299
 30
0.0
 10
56.13003976904692
 20
35.4167469119532
 30
0.0
  0
SPLINE
  5
EC
330
1F
100
AcDbEntity
  8
DEFAULT
100
AcDbSpline
210
0.0
220
0.0
230
1.0
 70
    24
 71
     2
 72
     6
 73
     3
 74
     0
 42
0.0000000001
 43
0.0000000001
 40
0.0
 40
0.0
 40
0.0
 40
0.5581088907313285
 40
0.5581088907313285
 40
0.5581088907313285
 10
62.49520720074285
 20
1.191414329909109
 30
0.0
 10
62.49520720074285
 20
1.470468775274774
 30
0.0
 10
62.49520720074285
 20
1.749523220640438
 30
0.0
  0
SPLINE
  5
ED
330
1F
100
AcDbEntity
  8
DEFAULT
100
AcDbSpline
210
0.0
220
0.0
230
1.0
 70
     8
 71
     3
 72
    14
 73
    10
 74
     0
 42
0.0000000001
 43
0.0000000001
 40
0.0
 40
0.0
 40
0.0
 40
0.0
 40
1.0
 40
2.0
 40
3.0
 40
4.0
 40
5.0
 40
6.0
 40
7.0
 40
7.0
 40
7.0
 40
7.0
 10
79.1773604297297
 20
16.57564640522468
 30
0.0
 10
78.48181806999682
 20
16.97151818493706
 30
0.0
 10
76.92002745419236
 20
17.36138796727566
 30
0.0
 10
74.53415527410071
 20
17.47373079650625
 30
0.0
 10
72.14795218397383
 20
17.44831533791456
 30
0.0
 10
69.76180096617095
 20
17.46127867555683
 30
0.0
 10
67.37569010205867
 20
17.4363929016506
 30
0.0
 10
64.99030512983386
 20
17.37293441733527
 30
0.0
 10
63.40093284452665
 20
17.30506097114951
 30
0.0
 10
62.60657177416014
 20
17.26472199431712
 30
0.0
  0
SPLINE
  5
EE
330
1F
100
AcDbEntity
  8
DEFAULT
100
AcDbSpline
210
0.0
220
0.0
230
1.0
 70
    24
 71
     2
 72
     6
 73
     3
 74
     0
 42
0.0000000001
 43
0.0000000001
 40
0.0
 40
0.0
 40
0.0
 40
0.125
 40
0.125
 40
0.125
 10
55.32412623946074
 20
0.0000000000000004
 30
0.0
 10
55.32412623946075
 20
0.0625000000000004
 30
0.0
 10
55.32412623946077
 20
0.1250000000000004
 30
0.0
  0
SPLINE
  5
EF
330
1F
100
AcDbEntity
  8
DEFAULT
100
AcDbSpline
210
0.0
220
0.0
230
1.0
 70
    24
 71
     2
 72
     6
 73
     3
 74
     0
 42
0.0000000001
 43
0.0000000001
 40
0.0
 40
0.0
 40
0.0
 40
0.4995000000010317
 40
0.4995000000010317
 40
0.4995000000010317
 10
61.39848514469266
 20
1.749523220640438
 30
0.0
 10
61.39848514469266
 20
1.499773220639922
 30
0.0
 10
61.39848514469266
 20
1.250023220639406
 30
0.0
  0
LINE
  5
F0
330
1F
100
AcDbEntity
  8
DEFAULT
100
AcDbLine
 10
49.9903663135626
 20
19.89061530584384
 30
0.0
 11
58.86783335250432
 21
23.69570024540526
 31
0.0
  0
SPLINE
  5
F1
330
1F
100
AcDbEntity
  8
DEFAULT
100
AcDbSpline
210
0.0
220
0.0
230
1.0
 70
    24
 71
     2
 72
     6
 73
     3
 74
     0
 42
0.0000000001
 43
0.0000000001
 40
0.0
 40
0.0
 40
0.0
 40
0.125
 40
0.125
 40
0.125
 10
47.14014557104944
 20
0.0000000000000005
 30
0.0
 10
47.14034938216763
 20
0.0625000000000005
 30
0.0
 10
47.14055319328581
 20
0.1250000000000004
 30
0.0
  0
SPLINE
  5
F2
330
1F
100
AcDbEntity
  8
DEFAULT
100
AcDbSpline
210
0.0
220
0.0
230
1.0
 70
    28
 71
     2
 72
    12
 73
     9
 74
     0
 42
0.0000000001
 43
0.0000000001
 40
-1.883572933821467
 40
-1.883572933821467
 40
-1.883572933821467
 40
-1.785076191315903
 40
-1.785076191315903
 40
-0.7817966106311127
 40
-0.7817966106311127
 40
-0.3878096406088539
 40
-0.3878096406088539
 40
-0.098174770424681
 40
-0.098174770424681
 40
-0.098174770424681
 10
46.19903926877843
 20
0.0000000000000005
 30
0.0
 41
0.8901650429449552
 10
46.20329479737558
 20
0.0000000000000005
 30
0.0
 41
0.9267766952966369
 10
46.22436822072829
 20
0.0000000000000004
 30
0.0
 41
1.0
 10
46.44532899410005
 20
0.0000000000000004
 30
0.0
 41
1.0
 10
46.66628976747184
 20
0.0000000000000004
 30
0.0
 41
1.0
 10
46.77677015415788
 20
0.0000000000000006
 30
0.0
 41
0.7071067811865476
 10
47.00103357997169
 20
0.0000000000000004
 30
0.0
 41
1.0
 10
47.149599157011
 20
0.0000000000000006
 30
0.0
 41
0.7846830076536132
 10
47.14014557104943
 20
0.0000000000000005
 30
0.0
 41
0.8859415057259526
  0
SPLINE
  5
F3
330
1F
100
AcDbEntity
  8
DEFAULT
100
AcDbSpline
210
0.0
220
0.0
230
1.0
 70
    24
 71
     2
 72
     6
 73
     3
 74
     0
 42
0.0000000001
 43
0.0000000001
 40
0.0
 40
0.0
 40
0.0
 40
0.125
 40
0.125
 40
0.125
 10
46.19863164654207
 20
0.1250000000000004
 30
0.0
 10
46.19883545766025
 20
0.0625000000000005
 30
0.0
 10
46.19903926877844
 20
0.0000000000000005
 30
0.0
  0
SPLINE
  5
F4
330
1F
100
AcDbEntity
  8
DEFAULT
100
AcDbSpline
210
0.0
220
0.0
230
1.0
 70
    12
 71
     3
 72
    10
 73
     6
 74
     0
 42
0.0000000001
 43
0.0000000001
 40
-1.365734546670907
 40
-1.365734546670907
 40
-1.365734546670907
 40
-1.365734546670907
 40
-0.9104896977806043
 40
-0.4552448488903021
 40
-0.44238969061182
 40
-0.44238969061182
 40
-0.44238969061182
 40
-0.44238969061182
 10
74.47437420516148
 20
11.96779585153407
 30
0.0
 41
1.0
 10
74.45755959738518
 20
12.10392782508889
 30
0.0
 41
1.0
 10
74.41467413615574
 20
12.35701468408548
 30
0.0
 41
1.0
 10
74.35908971771731
 20
12.5598533492956
 30
0.0
 41
1.0
 10
74.3274300851133
 20
12.63635913778269
 30
0.0
 41
1.0
 10
74.3265581041312
 20
12.6384397535056
 30
0.0
 41
1.0
  0
SPLINE
  5
F5
330
1F
100
AcDbEntity
  8
DEFAULT
100
AcDbSpline
210
0.0
220
0.0
230
1.0
 70
    24
 71
     2
 72
     6
 73
     3
 74
     0
 42
0.0000000001
 43
0.0000000001
 40
0.0
 40
0.0
 40
0.0
 40
10.79922068171757
 40
10.79922068171757
 40
10.79922068171757
 10
75.79820091770951
 20
1.25002322063819
 30
0.0
 10
75.1362875614355
 20
6.60890953608613
 30
0.0
 10
74.47437420516148
 20
11.96779585153407
 30
0.0
  0
SPLINE
  5
F6
330
1F
100
AcDbEntity
  8
DEFAULT
100
AcDbSpline
210
0.0
220
0.0
230
1.0
 70
    24
 71
     2
 72
     6
 73
     3
 74
     0
 42
0.0000000001
 43
0.0000000001
 40
-0.125
 40
-0.125
 40
-0.125
 40
0.0
 40
0.0
 40
0.0
 10
73.87580642310449
 20
0.0000000000000005
 30
0.0
 10
73.87558024626578
 20
0.0625000000000005
 30
0.0
 10
73.87535406942708
 20
0.1250000000000004
 30
0.0
  0
SPLINE
  5
F7
330
1F
100
AcDbEntity
  8
DEFAULT
100
AcDbSpline
210
0.0
220
0.0
230
1.0
 70
    24
 71
     2
 72
     6
 73
     3
 74
     0
 42
0.0000000001
 43
0.0000000001
 40
0.0
 40
0.0
 40
0.0
 40
0.3153160394606687
 40
0.3153160394606687
 40
0.3153160394606687
 10
74.1915748162426
 20
0.0000000000000004
 30
0.0
 10
74.03369061967355
 20
0.0000000000000005
 30
0.0
 10
73.87580642310449
 20
0.0000000000000005
 30
0.0
  0
SPLINE
  5
F8
330
1F
100
AcDbEntity
  8
DEFAULT
100
AcDbSpline
210
0.0
220
0.0
230
1.0
 70
    28
 71
     2
 72
     8
 73
     5
 74
     0
 42
0.0000000001
 43
0.0000000001
 40
2.227184630307851
 40
2.227184630307851
 40
2.227184630307851
 40
2.565968549938491
 40
2.565968549938491
 40
3.570796326793997
 40
3.570796326793997
 40
3.570796326793997
 10
75.33918227816841
 20
0.0000000000000005
 30
0.0
 41
0.9288656988897741
 10
75.35137421499849
 20
0.0000000000000006
 30
0.0
 41
0.7485332392097582
 10
75.15585537866129
 20
0.0000000000000004
 30
0.0
 41
1.0
 10
74.67371509745196
 20
0.0000000000000004
 30
0.0
 41
1.0
 10
74.1915748162426
 20
0.0000000000000004
 30
0.0
 41
1.0
  0
SPLINE
  5
F9
330
1F
100
AcDbEntity
  8
DEFAULT
100
AcDbSpline
210
0.0
220
0.0
230
1.0
 70
    24
 71
     2
 72
     6
 73
     3
 74
     0
 42
0.0000000001
 43
0.0000000001
 40
-0.125
 40
-0.125
 40
-0.125
 40
0.0
 40
0.0
 40
0.0
 10
75.33963463184584
 20
0.1250000000000004
 30
0.0
 10
75.33940845500713
 20
0.0625000000000005
 30
0.0
 10
75.33918227816842
 20
0.0000000000000005
 30
0.0
  0
SPLINE
  5
FA
330
1F
100
AcDbEntity
  8
DEFAULT
100
AcDbSpline
210
0.0
220
0.0
230
1.0
 70
    24
 71
     2
 72
     6
 73
     3
 74
     0
 42
0.0000000001
 43
0.0000000001
 40
21.46194295735607
 40
21.46194295735607
 40
21.46194295735607
 40
29.58832485975461
 40
29.58832485975461
 40
29.58832485975461
 10
-23.70708451014563
 20
67.57601374452426
 30
0.0
 10
-23.42573516825259
 20
66.7774859663259
 30
0.0
 10
-23.14438582635955
 20
65.97895818812754
 30
0.0
  0
SPLINE
  5
FB
330
1F
100
AcDbEntity
  8
DEFAULT
100
AcDbSpline
210
0.0
220
0.0
230
1.0
 70
    12
 71
     2
 72
     6
 73
     3
 74
     0
 42
0.0000000001
 43
0.0000000001
 40
20.2838457139172
 40
20.2838457139172
 40
20.2838457139172
 40
21.46194295735607
 40
21.46194295735607
 40
21.46194295735607
 10
-23.05286196765168
 20
67.97611150046757
 30
0.0
 41
1.0
 10
-23.76023917329822
 20
67.72687770170472
 30
0.0
 41
0.7071067819678039
 10
-23.70708451014563
 20
67.57601374452426
 30
0.0
 41
1.0
  0
SPLINE
  5
FC
330
1F
100
AcDbEntity
  8
DEFAULT
100
AcDbSpline
210
0.0
220
0.0
230
1.0
 70
    24
 71
     2
 72
     6
 73
     3
 74
     0
 42
0.0000000001
 43
0.0000000001
 40
0.991740588762975
 40
0.991740588762975
 40
0.991740588762975
 40
20.2838457139172
 40
20.2838457139172
 40
20.2838457139172
 10
-4.857151766761262
 20
74.3871059830204
 30
0.0
 10
-13.95500686720647
 20
71.18160874174399
 30
0.0
 10
-23.05286196765168
 20
67.97611150046757
 30
0.0
  0
SPLINE
  5
FD
330
1F
100
AcDbEntity
  8
DEFAULT
100
AcDbSpline
210
0.0
220
0.0
230
1.0
 70
     8
 71
     3
 72
    14
 73
    10
 74
     0
 42
0.0000000001
 43
0.0000000001
 40
0.0
 40
0.0
 40
0.0
 40
0.0
 40
2.474514288407708
 40
2.474514288407708
 40
4.950578323085037
 40
4.950578323085037
 40
7.426843675798778
 40
7.426843675798778
 40
9.901428151463568
 40
9.901428151463568
 40
9.901428151463568
 40
9.901428151463568
 10
4.857135222265252
 20
74.38710430859561
 30
0.0
 10
4.078534727068794
 20
74.6614328861956
 30
0.0
 10
3.278387238463683
 20
74.86961650237158
 30
0.0
 10
1.650545550867101
 20
75.14871452111463
 30
0.0
 10
0.8261127061730145
 20
75.21896322371805
 30
0.0
 10
-0.826084564724136
 20
75.2189661900489
 30
0.0
 10
-1.65035346254674
 20
75.14875032344378
 30
0.0
 10
-3.278293488233785
 20
74.86968225927895
 30
0.0
 10
-4.078541772171435
 20
74.66147545180905
 30
0.0
 10
-4.857151766761262
 20
74.3871059830204
 30
0.0
  0
SPLINE
  5
FE
330
1F
100
AcDbEntity
  8
DEFAULT
100
AcDbSpline
210
0.0
220
0.0
230
1.0
 70
    24
 71
     2
 72
     6
 73
     3
 74
     0
 42
0.0000000001
 43
0.0000000001
 40
-20.2838457139172
 40
-20.2838457139172
 40
-20.2838457139172
 40
-0.991740588762975
 40
-0.991740588762975
 40
-0.991740588762975
 10
23.05286196765168
 20
67.97611150046757
 30
0.0
 10
13.95499859495847
 20
71.18160790453159
 30
0.0
 10
4.857135222265252
 20
74.38710430859561
 30
0.0
  0
SPLINE
  5
FF
330
1F
100
AcDbEntity
  8
DEFAULT
100
AcDbSpline
210
0.0
220
0.0
230
1.0
 70
    12
 71
     2
 72
     6
 73
     3
 74
     0
 42
0.0000000001
 43
0.0000000001
 40
-21.46194295735607
 40
-21.46194295735607
 40
-21.46194295735607
 40
-20.2838457139172
 40
-20.2838457139172
 40
-20.2838457139172
 10
23.70708451014563
 20
67.57601374452426
 30
0.0
 41
1.0
 10
23.76023917329822
 20
67.72687770170472
 30
0.0
 41
0.7071067819678039
 10
23.05286196765168
 20
67.97611150046757
 30
0.0
 41
1.0
  0
SPLINE
  5
100
330
1F
100
AcDbEntity
  8
DEFAULT
100
AcDbSpline
210
0.0
220
0.0
230
1.0
 70
    24
 71
     2
 72
     6
 73
     3
 74
     0
 42
0.0000000001
 43
0.0000000001
 40
-29.58832485975449
 40
-29.58832485975449
 40
-29.58832485975449
 40
-21.46194295735607
 40
-21.46194295735607
 40
-21.46194295735607
 10
23.14438582635956
 20
65.97895818812755
 30
0.0
 10
23.42573516825259
 20
66.77748596632591
 30
0.0
 10
23.70708451014563
 20
67.57601374452426
 30
0.0
  0
POLYLINE
  5
101
330
1F
100
AcDbEntity
  8
DEFAULT
100
AcDb2dPolyline
 66
     1
 10
0.0
 20
0.0
 30
0.0
  0
VERTEX
  5
102
330
101
100
AcDbEntity
  8
DEFAULT
100
AcDbVertex
100
AcDb2dVertex
 10
-13.22121605431058
 20
71.44014530497682
 30
0.0
  0
VERTEX
  5
103
330
101
100
AcDbEntity
  8
DEFAULT
100
AcDbVertex
100
AcDb2dVertex
 10
-15.2980733868732
 20
77.33469711109669
 30
0.0
  0
SEQEND
  5
104
330
101
100
AcDbEntity
  8
DEFAULT
  0
SPLINE
  5
105
330
1F
100
AcDbEntity
  8
DEFAULT
100
AcDbSpline
210
0.0
220
0.0
230
1.0
 70
     8
 71
     3
 72
    14
 73
    10
 74
     0
 42
0.0000000001
 43
0.0000000001
 40
0.0
 40
0.0
 40
0.0
 40
0.0
 40
1.0
 40
2.0
 40
3.0
 40
4.0
 40
5.0
 40
6.0
 40
7.0
 40
7.0
 40
7.0
 40
7.0
 10
29.78690919142082
 20
61.88317397440423
 30
0.0
 10
29.69270940751665
 20
61.85561749189434
 30
0.0
 10
29.49534302578243
 20
61.85573200577397
 30
0.0
 10
29.20627865635922
 20
61.90008541216007
 30
0.0
 10
28.91832808794311
 20
61.95335561125168
 30
0.0
 10
28.63194966439039
 20
62.01397103785237
 30
0.0
 10
28.34717914856998
 20
62.08186387123556
 30
0.0
 10
28.06410513237594
 20
62.15646813438488
 30
0.0
 10
27.87651808870396
 20
62.21030639713869
 30
0.0
 10
27.78300386000564
 20
62.23815944996662
 30
0.0
  0
POLYLINE
  5
106
330
1F
100
AcDbEntity
  8
DEFAULT
100
AcDb2dPolyline
 66
     1
 10
0.0
 20
0.0
 30
0.0
  0
VERTEX
  5
107
330
106
100
AcDbEntity
  8
DEFAULT
100
AcDbVertex
100
AcDb2dVertex
 10
32.75575099745782
 20
68.27346909469729
 30
0.0
  0
VERTEX
  5
108
330
106
100
AcDbEntity
  8
DEFAULT
100
AcDbVertex
100
AcDb2dVertex
 10
29.78690919142082
 20
61.88317397440423
 30
0.0
  0
SEQEND
  5
109
330
106
100
AcDbEntity
  8
DEFAULT
  0
SPLINE
  5
10A
330
1F
100
AcDbEntity
  8
DEFAULT
100
AcDbSpline
210
0.0
220
0.0
230
1.0
 70
     8
 71
     3
 72
    14
 73
    10
 74
     0
 42
0.0000000001
 43
0.0000000001
 40
-7.0
 40
-7.0
 40
-7.0
 40
-7.0
 40
-6.0
 40
-5.0
 40
-4.0
 40
-3.0
 40
-2.0
 40
-1.0
 40
0.0
 40
0.0
 40
0.0
 40
0.0
 10
31.77620867028662
 20
68.87814677630183
 30
0.0
 10
31.82978590162179
 20
68.85926691191756
 30
0.0
 10
31.93634539131227
 20
68.81979013974525
 30
0.0
 10
32.09410069021388
 20
68.75531003264496
 30
0.0
 10
32.2494882527273
 20
68.68503256420973
 30
0.0
 10
32.40126791543042
 20
68.6081077980711
 30
0.0
 10
32.5496582169244
 20
68.52173586000836
 30
0.0
 10
32.68378918776952
 20
68.4230118349297
 30
0.0
 10
32.77022519065429
 20
68.33306011447822
 30
0.0
 10
32.75575099745782
 20
68.27346909469729
 30
0.0
  0
SPLINE
  5
10B
330
1F
100
AcDbEntity
  8
DEFAULT
100
AcDbSpline
210
0.0
220
0.0
230
1.0
 70
    24
 71
     2
 72
     6
 73
     3
 74
     0
 42
0.0000000001
 43
0.0000000001
 40
0.0
 40
0.0
 40
0.0
 40
26.67010215504935
 40
26.67010215504935
 40
26.67010215504935
 10
5.048866964742217
 20
78.29512633590804
 30
0.0
 10
18.41253781751442
 20
73.58663655610493
 30
0.0
 10
31.77620867028662
 20
68.87814677630183
 30
0.0
  0
SPLINE
  5
10C
330
1F
100
AcDbEntity
  8
DEFAULT
100
AcDbSpline
210
0.0
220
0.0
230
1.0
 70
    12
 71
     2
 72
     6
 73
     3
 74
     0
 42
0.0000000001
 43
0.0000000001
 40
0.0
 40
0.0
 40
0.0
 40
10.29389105034433
 40
10.29389105034433
 40
10.29389105034433
 10
-5.048896533284392
 20
78.29512633606703
 30
0.0
 41
1.0
 10
-0.0000147842286247
 20
80.07588405770964
 30
0.0
 41
0.9430606908160458
 10
5.048866964742217
 20
78.29512633590804
 30
0.0
 41
1.0
  0
SPLINE
  5
10D
330
1F
100
AcDbEntity
  8
DEFAULT
100
AcDbSpline
210
0.0
220
0.0
230
1.0
 70
    24
 71
     2
 72
     6
 73
     3
 74
     0
 42
0.0000000001
 43
0.0000000001
 40
-26.67010215504935
 40
-26.67010215504935
 40
-26.67010215504935
 40
0.0
 40
0.0
 40
0.0
 10
-31.77623823880157
 20
68.87814677630183
 30
0.0
 10
-18.41256738604298
 20
73.58663655618443
 30
0.0
 10
-5.048896533284392
 20
78.29512633606703
 30
0.0
  0
SPLINE
  5
10E
330
1F
100
AcDbEntity
  8
DEFAULT
100
AcDbSpline
210
0.0
220
0.0
230
1.0
 70
     8
 71
     3
 72
    14
 73
    10
 74
     0
 42
0.0000000001
 43
0.0000000001
 40
0.0
 40
0.0
 40
0.0
 40
0.0
 40
1.0
 40
2.0
 40
3.0
 40
4.0
 40
5.0
 40
6.0
 40
7.0
 40
7.0
 40
7.0
 40
7.0
 10
-32.75578056597277
 20
68.27346909469729
 30
0.0
 10
-32.77025475916923
 20
68.33306011447822
 30
0.0
 10
-32.68381875628447
 20
68.4230118349297
 30
0.0
 10
-32.54968778543935
 20
68.52173586000836
 30
0.0
 10
-32.40129748394537
 20
68.6081077980711
 30
0.0
 10
-32.24951782124225
 20
68.68503256420973
 30
0.0
 10
-32.09413025872882
 20
68.75531003264496
 30
0.0
 10
-31.93637495982722
 20
68.81979013974525
 30
0.0
 10
-31.82981547013674
 20
68.85926691191756
 30
0.0
 10
-31.77623823880157
 20
68.87814677630183
 30
0.0
  0
POLYLINE
  5
10F
330
1F
100
AcDbEntity
  8
DEFAULT
100
AcDb2dPolyline
 66
     1
 10
0.0
 20
0.0
 30
0.0
  0
VERTEX
  5
110
330
10F
100
AcDbEntity
  8
DEFAULT
100
AcDbVertex
100
AcDb2dVertex
 10
-29.78693875993577
 20
61.88317397440423
 30
0.0
  0
VERTEX
  5
111
330
10F
100
AcDbEntity
  8
DEFAULT
100
AcDbVertex
100
AcDb2dVertex
 10
-32.75578056597277
 20
68.27346909469729
 30
0.0
  0
SEQEND
  5
112
330
10F
100
AcDbEntity
  8
DEFAULT
  0
SPLINE
  5
113
330
1F
100
AcDbEntity
  8
DEFAULT
100
AcDbSpline
210
0.0
220
0.0
230
1.0
 70
     8
 71
     3
 72
    14
 73
    10
 74
     0
 42
0.0000000001
 43
0.0000000001
 40
-7.0
 40
-7.0
 40
-7.0
 40
-7.0
 40
-6.0
 40
-5.0
 40
-4.0
 40
-3.0
 40
-2.0
 40
-1.0
 40
0.0
 40
0.0
 40
0.0
 40
0.0
 10
-27.78303342852058
 20
62.23815944996662
 30
0.0
 10
-27.87654765721891
 20
62.21030639713869
 30
0.0
 10
-28.06413470089089
 20
62.15646813438488
 30
0.0
 10
-28.34720871708492
 20
62.08186387123556
 30
0.0
 10
-28.63197923290534
 20
62.01397103785237
 30
0.0
 10
-28.91835765645806
 20
61.95335561125168
 30
0.0
 10
-29.20630822487416
 20
61.90008541216007
 30
0.0
 10
-29.49537259429738
 20
61.85573200577397
 30
0.0
 10
-29.69273897603159
 20
61.85561749189434
 30
0.0
 10
-29.78693875993577
 20
61.88317397440423
 30
0.0
  0
SPLINE
  5
114
330
1F
100
AcDbEntity
  8
DEFAULT
100
AcDbSpline
210
0.0
220
0.0
230
1.0
 70
     8
 71
     3
 72
    14
 73
    10
 74
     0
 42
0.0000000001
 43
0.0000000001
 40
0.0
 40
0.0
 40
0.0
 40
0.0
 40
1.000000000035037
 40
2.000000000070074
 40
3.000000000105111
 40
4.000000000140148
 40
5.000000000175186
 40
6.000000000210223
 40
7.0
 40
7.0
 40
7.0
 40
7.0
 10
-27.98553812210241
 20
62.98175693937071
 30
0.0
 10
-28.00223874769281
 20
63.04865052913253
 30
0.0
 10
-28.03250677709465
 20
63.18353334453099
 30
0.0
 10
-28.04762340977669
 20
63.39060004201104
 30
0.0
 10
-28.02489885497852
 20
63.59712382027067
 30
0.0
 10
-27.97042974626675
 20
63.79739022304879
 30
0.0
 10
-27.88378125198682
 20
63.98613253933433
 30
0.0
 10
-27.76742363644749
 20
64.15809810174248
 30
0.0
 10
-27.67200255609384
 20
64.2583980454695
 30
0.0
 10
-27.62049213269484
 20
64.30427580700132
 30
0.0
  0
SPLINE
  5
115
330
1F
100
AcDbEntity
  8
DEFAULT
100
AcDbSpline
210
0.0
220
0.0
230
1.0
 70
    24
 71
     2
 72
     6
 73
     3
 74
     0
 42
0.0000000001
 43
0.0000000001
 40
0.0
 40
0.0
 40
0.0
 40
10.28863889967411
 40
10.28863889967411
 40
10.28863889967411
 10
-24.1960809707154
 20
49.12396355365662
 30
0.0
 10
-26.09080954640891
 20
56.05286024651367
 30
0.0
 10
-27.98553812210241
 20
62.98175693937071
 30
0.0
  0
SPLINE
  5
116
330
1F
100
AcDbEntity
  8
DEFAULT
100
AcDbSpline
210
0.0
220
0.0
230
1.0
 70
     8
 71
     3
 72
    14
 73
    10
 74
     0
 42
0.0000000001
 43
0.0000000001
 40
0.0
 40
0.0
 40
0.0
 40
0.0
 40
1.0
 40
2.0
 40
3.0
 40
4.0
 40
5.0
 40
6.0
 40
7.0
 40
7.0
 40
7.0
 40
7.0
 10
-22.39061200209358
 20
48.23749382826531
 30
0.0
 10
-22.49023554496677
 20
48.20441360865125
 30
0.0
 10
-22.69944334014943
 20
48.1719687511924
 30
0.0
 10
-23.01595505236733
 20
48.18318127247068
 30
0.0
 10
-23.32291147723302
 20
48.26105100385806
 30
0.0
 10
-23.60710751189427
 20
48.40065267917424
 30
0.0
 10
-23.8560965496896
 20
48.59633822203955
 30
0.0
 10
-24.05860292127238
 20
48.83979466075706
 30
0.0
 10
-24.16838888311307
 20
49.02269542656573
 30
0.0
 10
-24.1960809707154
 20
49.12396355365662
 30
0.0
  0
SPLINE
  5
117
330
1F
100
AcDbEntity
  8
DEFAULT
100
AcDbSpline
210
0.0
220
0.0
230
1.0
 70
    24
 71
     2
 72
     6
 73
     3
 74
     0
 42
0.0000000001
 43
0.0000000001
 40
0.0
 40
0.0
 40
0.0
 40
17.77837376646288
 40
17.77837376646288
 40
17.77837376646288
 10
-5.121955121540168
 20
53.97158835722898
 30
0.0
 10
-13.75628356181687
 20
51.10454109274714
 30
0.0
 10
-22.39061200209358
 20
48.23749382826531
 30
0.0
  0
SPLINE
  5
118
330
1F
100
AcDbEntity
  8
DEFAULT
100
AcDbSpline
210
0.0
220
0.0
230
1.0
 70
     8
 71
     3
 72
    14
 73
    10
 74
     0
 42
0.0000000001
 43
0.0000000001
 40
0.0
 40
0.0
 40
0.0
 40
0.0
 40
1.068449091607617
 40
2.136602432276738
 40
4.273265908943098
 40
8.550553853030669
 40
9.521901235368274
 40
9.971089478218564
 40
10.42158048974524
 40
10.42158048974524
 40
10.42158048974524
 40
10.42158048974524
 10
5.121959653051476
 20
53.97158835722898
 30
0.0
 10
4.783835568848133
 20
54.08348095728637
 30
0.0
 10
4.100754292228658
 20
54.28633788208421
 30
0.0
 10
2.71044684585695
 20
54.59983139358641
 30
0.0
 10
0.2300899943284094
 20
54.90809708761104
 30
0.0
 10
-2.246289995968965
 20
54.72513685929086
 30
0.0
 10
-4.093890509783193
 20
54.28118639311491
 30
0.0
 10
-4.693604407503386
 20
54.10983626480727
 30
0.0
 10
-4.979164933435442
 20
54.01811106095688
 30
0.0
 10
-5.121955121540168
 20
53.97158835722898
 30
0.0
  0
SPLINE
  5
119
330
1F
100
AcDbEntity
  8
DEFAULT
100
AcDbSpline
210
0.0
220
0.0
230
1.0
 70
    24
 71
     2
 72
     6
 73
     3
 74
     0
 42
0.0000000001
 43
0.0000000001
 40
-17.77837376646288
 40
-17.77837376646288
 40
-17.77837376646288
 40
0.0
 40
0.0
 40
0.0
 10
22.39061200209358
 20
48.23749382826531
 30
0.0
 10
13.75628582757253
 20
51.10454109274714
 30
0.0
 10
5.121959653051476
 20
53.97158835722898
 30
0.0
  0
SPLINE
  5
11A
330
1F
100
AcDbEntity
  8
DEFAULT
100
AcDbSpline
210
0.0
220
0.0
230
1.0
 70
     8
 71
     3
 72
    14
 73
    10
 74
     0
 42
0.0000000001
 43
0.0000000001
 40
-7.0
 40
-7.0
 40
-7.0
 40
-7.0
 40
-6.0
 40
-5.0
 40
-4.0
 40
-3.0
 40
-2.0
 40
-1.0
 40
0.0
 40
0.0
 40
0.0
 40
0.0
 10
24.1960809707154
 20
49.12396355365662
 30
0.0
 10
24.16838888311307
 20
49.02269542656573
 30
0.0
 10
24.05860292127238
 20
48.83979466075706
 30
0.0
 10
23.8560965496896
 20
48.59633822203955
 30
0.0
 10
23.60710751189427
 20
48.40065267917424
 30
0.0
 10
23.32291147723302
 20
48.26105100385806
 30
0.0
 10
23.01595505236733
 20
48.18318127247068
 30
0.0
 10
22.69944334014943
 20
48.1719687511924
 30
0.0
 10
22.49023554496677
 20
48.20441360865125
 30
0.0
 10
22.39061200209358
 20
48.23749382826531
 30
0.0
  0
SPLINE
  5
11B
330
1F
100
AcDbEntity
  8
DEFAULT
100
AcDbSpline
210
0.0
220
0.0
230
1.0
 70
    24
 71
     2
 72
     6
 73
     3
 74
     0
 42
0.0000000001
 43
0.0000000001
 40
-10.28863889967411
 40
-10.28863889967411
 40
-10.28863889967411
 40
0.0
 40
0.0
 40
0.0
 10
27.98553812210241
 20
62.98175693937071
 30
0.0
 10
26.09080954640891
 20
56.05286024651367
 30
0.0
 10
24.1960809707154
 20
49.12396355365662
 30
0.0
  0
SPLINE
  5
11C
330
1F
100
AcDbEntity
  8
DEFAULT
100
AcDbSpline
210
0.0
220
0.0
230
1.0
 70
     8
 71
     3
 72
    14
 73
    10
 74
     0
 42
0.0000000001
 43
0.0000000001
 40
-7.0
 40
-7.0
 40
-7.0
 40
-7.0
 40
-6.000000000210223
 40
-5.000000000175186
 40
-4.000000000140148
 40
-3.000000000105111
 40
-2.000000000070074
 40
-1.000000000035037
 40
0.0
 40
0.0
 40
0.0
 40
0.0
 10
27.62049213269484
 20
64.30427580700132
 30
0.0
 10
27.67200255609384
 20
64.2583980454695
 30
0.0
 10
27.76742363644749
 20
64.15809810174248
 30
0.0
 10
27.88378125198682
 20
63.98613253933433
 30
0.0
 10
27.97042974626675
 20
63.79739022304879
 30
0.0
 10
28.02489885497852
 20
63.59712382027067
 30
0.0
 10
28.04762340977669
 20
63.39060004201104
 30
0.0
 10
28.03250677709465
 20
63.18353334453099
 30
0.0
 10
28.00223874769281
 20
63.04865052913253
 30
0.0
 10
27.98553812210241
 20
62.98175693937071
 30
0.0
  0
SPLINE
  5
11D
330
1F
100
AcDbEntity
  8
DEFAULT
100
AcDbSpline
210
0.0
220
0.0
230
1.0
 70
     8
 71
     3
 72
    17
 73
    13
 74
     0
 42
0.0000000001
 43
0.0000000001
 40
0.0
 40
0.0
 40
0.0
 40
0.0
 40
0.9659880006727235
 40
2.115175632368876
 40
22.12597510020669
 40
22.40185129323872
 40
22.67813154445584
 40
22.84394313551857
 40
23.23073854313721
 40
23.47986555728095
 40
23.67348078600302
 40
23.97467773015215
 40
23.97467773015215
 40
23.97467773015215
 40
23.97467773015215
 10
5.049029074138986
 20
72.35561678284435
 30
0.0
 10
5.353031865459258
 20
72.2494812818054
 30
0.0
 10
6.017344994212067
 20
72.0132649050825
 30
0.0
 10
12.9736476416565
 20
69.56269981683764
 30
0.0
 10
19.71273850465246
 20
67.18787465734572
 30
0.0
 10
26.17760233739008
 20
64.91032806931615
 30
0.0
 10
26.40284715305239
 20
64.82945769208652
 30
0.0
 10
26.66380158389157
 20
64.73863939600325
 30
0.0
 10
26.91777825303444
 20
64.6554512199749
 30
0.0
 10
27.17702314418926
 20
64.55896869977536
 30
0.0
 10
27.40351568888178
 20
64.45765611641778
 30
0.0
 10
27.54407276804841
 20
64.36962378504116
 30
0.0
 10
27.62049213269484
 20
64.30427580700132
 30
0.0
  0
ARC
  5
11E
330
1F
100
AcDbEntity
  8
DEFAULT
100
AcDbCircle
 10
0.0013125983829809
 20
59.20054526281027
 30
0.0
 40
14.09025721258595
100
AcDbArc
 50
69.00775331727013
 51
111.0030068393882
  0
SPLINE
  5
11F
330
1F
100
AcDbEntity
  8
DEFAULT
100
AcDbSpline
210
0.0
220
0.0
230
1.0
 70
     8
 71
     3
 72
    17
 73
    13
 74
     0
 42
0.0000000001
 43
0.0000000001
 40
-23.97467773015215
 40
-23.97467773015215
 40
-23.97467773015215
 40
-23.97467773015215
 40
-23.67347869512761
 40
-23.47986212235034
 40
-23.2307333787948
 40
-22.84393528608582
 40
-22.67812254397763
 40
-22.40184037485399
 40
-22.12596226672036
 40
-2.115023886156828
 40
-0.9658282769290168
 40
0.0
 40
0.0
 40
0.0
 40
0.0
 10
-27.62049213269484
 20
64.30427580700132
 30
0.0
 10
-27.54407276804841
 20
64.36962378504116
 30
0.0
 10
-27.40351568888178
 20
64.45765611641778
 30
0.0
 10
-27.17702314418926
 20
64.55896869977536
 30
0.0
 10
-26.91777825303444
 20
64.6554512199749
 30
0.0
 10
-26.66380158389157
 20
64.73863939600325
 30
0.0
 10
-26.40284715305239
 20
64.82945769208652
 30
0.0
 10
-26.17760233739008
 20
64.91032806931615
 30
0.0
 10
-19.71273850465246
 20
67.18787465734572
 30
0.0
 10
-12.9736476416565
 20
69.56269981683764
 30
0.0
 10
-6.0173973185095
 20
72.01324647228809
 30
0.0
 10
-5.353136405766142
 20
72.24944410939014
 30
0.0
 10
-5.048874312903709
 20
72.354668588897
 30
0.0
  0
POLYLINE
  5
120
330
1F
100
AcDbEntity
  8
DEFAULT
100
AcDb2dPolyline
 66
     1
 10
0.0
 20
0.0
 30
0.0
  0
VERTEX
  5
121
330
120
100
AcDbEntity
  8
DEFAULT
100
AcDbVertex
100
AcDb2dVertex
 10
0.0015269049569753
 20
54.79991696449285
 30
0.0
  0
VERTEX
  5
122
330
120
100
AcDbEntity
  8
DEFAULT
100
AcDbVertex
100
AcDb2dVertex
 10
0.0013125983829536
 20
73.29080247539623
 30
0.0
  0
SEQEND
  5
123
330
120
100
AcDbEntity
  8
DEFAULT
  0
SPLINE
  5
124
330
1F
100
AcDbEntity
  8
DEFAULT
100
AcDbSpline
210
0.0
220
0.0
230
1.0
 70
     8
 71
     3
 72
    14
 73
    10
 74
     0
 42
0.0000000001
 43
0.0000000001
 40
0.0
 40
0.0
 40
0.0
 40
0.0
 40
1.0
 40
2.0
 40
3.0
 40
4.0
 40
5.0
 40
6.0
 40
7.0
 40
7.0
 40
7.0
 40
7.0
 10
23.53748454633737
 20
67.75568956122677
 30
0.0
 10
23.92627556880361
 20
67.65252676400675
 30
0.0
 10
24.70389075702971
 20
67.44631684672407
 30
0.0
 10
25.87018899303153
 20
67.1365682501695
 30
0.0
 10
27.03688655684245
 20
66.8282073528215
 30
0.0
 10
28.20211046978165
 20
66.51472961432876
 30
0.0
 10
29.37405837318137
 20
66.22498941592654
 30
0.0
 10
30.57382180961183
 20
66.06585611798646
 30
0.0
 10
31.38109797205063
 20
66.10624987615597
 30
0.0
 10
31.77910769015877
 20
66.16420862709148
 30
0.0
  0
SPLINE
  5
125
330
1F
100
AcDbEntity
  8
DEFAULT
100
AcDbSpline
210
0.0
220
0.0
230
1.0
 70
    24
 71
     2
 72
     6
 73
     3
 74
     0
 42
0.0000000001
 43
0.0000000001
 40
0.0
 40
0.0
 40
0.0
 40
2.494768879443327
 40
2.494768879443327
 40
2.494768879443327
 10
-33.61006931496382
 20
70.62785876580315
 30
0.0
 10
-33.18468789147465
 20
69.45524689312197
 30
0.0
 10
-32.75930646798548
 20
68.28263502044078
 30
0.0
  0
SPLINE
  5
126
330
1F
100
AcDbEntity
  8
DEFAULT
100
AcDbSpline
210
0.0
220
0.0
230
1.0
 70
     8
 71
     3
 72
    14
 73
    10
 74
     0
 42
0.0000000001
 43
0.0000000001
 40
0.0
 40
0.0
 40
0.0
 40
0.0
 40
0.2218679096999712
 40
0.4292860367055201
 40
0.8006212812559002
 40
0.9443145526805875
 40
1.058545910259188
 40
1.13555253532326
 40
1.188552983444567
 40
1.188552983444567
 40
1.188552983444567
 40
1.188552983444567
 10
-32.6288502547406
 20
71.22846700415582
 30
0.0
 10
-32.69855012182867
 20
71.20381471662033
 30
0.0
 10
-32.83267701687376
 20
71.15366455066024
 30
0.0
 10
-33.07803404400221
 20
71.04879009785746
 30
0.0
 10
-33.29356453948051
 20
70.94043582149285
 30
0.0
 10
-33.4691920681172
 20
70.82518405596359
 30
0.0
 10
-33.55469646604109
 20
70.75311208518141
 30
0.0
 10
-33.60641139431851
 20
70.68918702557903
 30
0.0
 10
-33.6165074361854
 20
70.64504946813973
 30
0.0
 10
-33.61006931496382
 20
70.62785876580315
 30
0.0
  0
SPLINE
  5
127
330
1F
100
AcDbEntity
  8
DEFAULT
100
AcDbSpline
210
0.0
220
0.0
230
1.0
 70
    24
 71
     2
 72
     6
 73
     3
 74
     0
 42
0.0000000001
 43
0.0000000001
 40
0.0
 40
0.0
 40
0.0
 40
28.42435155140689
 40
28.42435155140689
 40
28.42435155140689
 10
-5.819880725326584
 20
80.67421249843096
 30
0.0
 10
-19.22436549003359
 20
75.95133975129339
 30
0.0
 10
-32.6288502547406
 20
71.22846700415582
 30
0.0
  0
SPLINE
  5
128
330
1F
100
AcDbEntity
  8
DEFAULT
100
AcDbSpline
210
0.0
220
0.0
230
1.0
 70
    12
 71
     2
 72
     6
 73
     3
 74
     0
 42
0.0000000001
 43
0.0000000001
 40
0.0
 40
0.0
 40
0.0
 40
11.86500050184398
 40
11.86500050184398
 40
11.86500050184398
 10
5.819836125535033
 20
80.67421249843096
 30
0.0
 41
1.0
 10
-0.0000222998946843
 20
82.7229795096641
 30
0.0
 41
0.9432597220488567
 10
-5.819880725326571
 20
80.67421249843098
 30
0.0
 41
0.9999998617689214
  0
SPLINE
  5
129
330
1F
100
AcDbEntity
  8
DEFAULT
100
AcDbSpline
210
0.0
220
0.0
230
1.0
 70
    24
 71
     2
 72
     6
 73
     3
 74
     0
 42
0.0000000001
 43
0.0000000001
 40
-28.42435155140689
 40
-28.42435155140689
 40
-28.42435155140689
 40
0.0
 40
0.0
 40
0.0
 10
32.62882068622565
 20
71.22846700415582
 30
0.0
 10
19.22432840588034
 20
75.95133975129339
 30
0.0
 10
5.819836125535033
 20
80.67421249843096
 30
0.0
  0
SPLINE
  5
12A
330
1F
100
AcDbEntity
  8
DEFAULT
100
AcDbSpline
210
0.0
220
0.0
230
1.0
 70
     8
 71
     3
 72
    14
 73
    10
 74
     0
 42
0.0000000001
 43
0.0000000001
 40
-1.188552983444567
 40
-1.188552983444567
 40
-1.188552983444567
 40
-1.188552983444567
 40
-1.13555253532326
 40
-1.058545910259188
 40
-0.9443145526805875
 40
-0.8006212812559002
 40
-0.4292860367055201
 40
-0.2218679096999712
 40
0.0
 40
0.0
 40
0.0
 40
0.0
 10
33.61003974644888
 20
70.62785876580315
 30
0.0
 10
33.61647786767045
 20
70.64504946813973
 30
0.0
 10
33.60638182580357
 20
70.68918702557903
 30
0.0
 10
33.55466689752615
 20
70.75311208518141
 30
0.0
 10
33.46916249960225
 20
70.82518405596359
 30
0.0
 10
33.29353497096557
 20
70.94043582149285
 30
0.0
 10
33.07800447548726
 20
71.04879009785746
 30
0.0
 10
32.83264744835881
 20
71.15366455066024
 30
0.0
 10
32.69852055331373
 20
71.20381471662033
 30
0.0
 10
32.62882068622565
 20
71.22846700415582
 30
0.0
  0
SPLINE
  5
12B
330
1F
100
AcDbEntity
  8
DEFAULT
100
AcDbSpline
210
0.0
220
0.0
230
1.0
 70
    24
 71
     2
 72
     6
 73
     3
 74
     0
 42
0.0000000001
 43
0.0000000001
 40
-2.494768879443327
 40
-2.494768879443327
 40
-2.494768879443327
 40
0.0
 40
0.0
 40
0.0
 10
32.75927689947054
 20
68.28263502044078
 30
0.0
 10
33.18465832295971
 20
69.45524689312197
 30
0.0
 10
33.61003974644888
 20
70.62785876580315
 30
0.0
  0
SPLINE
  5
12C
330
1F
100
AcDbEntity
  8
DEFAULT
100
AcDbSpline
210
0.0
220
0.0
230
1.0
 70
    24
 71
     2
 72
     6
 73
     3
 74
     0
 42
0.0000000001
 43
0.0000000001
 40
0.0
 40
0.0
 40
0.0
 40
0.1262960173622969
 40
0.1262960173622969
 40
0.1262960173622969
 10
-5.048896533311591
 20
78.29512633622602
 30
0.0
 10
-5.108455809228758
 20
78.27414149282377
 30
0.0
 10
-5.168015085145925
 20
78.25315664942153
 30
0.0
  0
POLYLINE
  5
12D
330
1F
100
AcDbEntity
  8
DEFAULT
100
AcDb2dPolyline
 66
     1
 10
0.0
 20
0.0
 30
0.0
  0
VERTEX
  5
12E
330
12D
100
AcDbEntity
  8
DEFAULT
100
AcDbVertex
100
AcDb2dVertex
 10
13.22121605431058
 20
71.44014530497682
 30
0.0
  0
VERTEX
  5
12F
330
12D
100
AcDbEntity
  8
DEFAULT
100
AcDbVertex
100
AcDb2dVertex
 10
15.2980733868732
 20
77.33469711109669
 30
0.0
  0
SEQEND
  5
130
330
12D
100
AcDbEntity
  8
DEFAULT
  0
SPLINE
  5
131
330
1F
100
AcDbEntity
  8
DEFAULT
100
AcDbSpline
210
0.0
220
0.0
230
1.0
 70
     8
 71
     3
 72
    14
 73
    10
 74
     0
 42
0.0000000001
 43
0.0000000001
 40
0.0
 40
0.0
 40
0.0
 40
0.0
 40
1.0
 40
2.0
 40
3.0
 40
4.0
 40
5.0
 40
6.0
 40
7.0
 40
7.0
 40
7.0
 40
7.0
 10
-31.77910769015877
 20
66.16420862709148
 30
0.0
 10
-31.38109818369058
 20
66.10624989495619
 30
0.0
 10
-30.57382180281101
 20
66.06585611383878
 30
0.0
 10
-29.37405856959743
 20
66.22498938223723
 30
0.0
 10
-28.2021105242435
 20
66.51472959576769
 30
0.0
 10
-27.03688669173666
 20
66.82820731813653
 30
0.0
 10
-25.87018896496575
 20
67.13656825731637
 30
0.0
 10
-24.70389088804584
 20
67.44631681205858
 30
0.0
 10
-23.92627566118719
 20
67.65252673947846
 30
0.0
 10
-23.53748454633737
 20
67.75568956122677
 30
0.0
  0
SPLINE
  5
132
330
1F
100
AcDbEntity
  8
DEFAULT
100
AcDbSpline
210
0.0
220
0.0
230
1.0
 70
    24
 71
     2
 72
     6
 73
     3
 74
     0
 42
0.0000000001
 43
0.0000000001
 40
0.0
 40
0.0
 40
0.0
 40
2.660662176934946
 40
2.660662176934946
 40
2.660662176934946
 10
-3.728633859468061
 20
81.74571433052742
 30
0.0
 10
-4.922051884488752
 20
81.15789273299376
 30
0.0
 10
-6.115469909509443
 20
80.5700711354601
 30
0.0
  0
SPLINE
  5
133
330
1F
100
AcDbEntity
  8
DEFAULT
100
AcDbSpline
210
0.0
220
0.0
230
1.0
 70
    12
 71
     2
 72
     6
 73
     3
 74
     0
 42
0.0000000001
 43
0.0000000001
 40
0.0
 40
0.0
 40
0.0
 40
7.724027821810834
 40
7.724027821810834
 40
7.724027821810834
 10
3.72863385961006
 20
81.74571433052532
 30
0.0
 41
0.9999999999999705
 10
0.0000000000716301
 20
83.58237632662964
 30
0.0
 41
0.8970537032551316
 10
-3.728633859468061
 20
81.74571433052742
 30
0.0
 41
1.0
  0
SPLINE
  5
134
330
1F
100
AcDbEntity
  8
DEFAULT
100
AcDbSpline
210
0.0
220
0.0
230
1.0
 70
    24
 71
     2
 72
     6
 73
     3
 74
     0
 42
0.0000000001
 43
0.0000000001
 40
0.0
 40
0.0
 40
0.0
 40
2.660827343266089
 40
2.660827343266089
 40
2.660827343266089
 10
6.115618072718689
 20
80.56999814489689
 30
0.0
 10
4.922125966164373
 20
81.1578562377111
 30
0.0
 10
3.728633859610056
 20
81.74571433052532
 30
0.0
  0
ENDSEC
  0
SECTION
  2
OBJECTS
  0
DICTIONARY
  5
C
330
0
100
AcDbDictionary
281
     1
  3
ACAD_GROUP
350
D
  3
ACAD_LAYOUT
350
1A
  3
ACAD_MLEADERSTYLE
350
136
  3
ACAD_MLINESTYLE
350
17
  3
ACAD_PLOTSETTINGS
350
19
  3
ACAD_PLOTSTYLENAME
350
E
  3
ACAD_TABLESTYLE
350
135
  3
ACAD_VISUALSTYLE
350
2A
  0
DICTIONARY
  5
D
102
{ACAD_REACTORS
330
C
102
}
330
C
100
AcDbDictionary
281
     1
  0
DICTIONARY
  5
1A
102
{ACAD_REACTORS
330
C
102
}
330
C
100
AcDbDictionary
281
     1
  3
Layout1
350
1E
  3
Layout2
350
26
  3
Model
350
22
  0
DICTIONARY
  5
136
102
{ACAD_REACTORS
330
C
102
}
330
C
100
AcDbDictionary
281
     1
  0
DICTIONARY
  5
17
102
{ACAD_REACTORS
330
C
102
}
330
C
100
AcDbDictionary
281
     1
  3
Standard
350
18
  0
DICTIONARY
  5
19
102
{ACAD_REACTORS
330
C
102
}
330
C
100
AcDbDictionary
281
     1
  0
ACDBDICTIONARYWDFLT
  5
E
102
{ACAD_REACTORS
330
C
102
}
330
C
100
AcDbDictionary
281
     1
  3
Normal
350
F
100
AcDbDictionaryWithDefault
340
F
  0
DICTIONARY
  5
135
102
{ACAD_REACTORS
330
C
102
}
330
C
100
AcDbDictionary
281
     1
  0
DICTIONARY
  5
2A
102
{ACAD_REACTORS
330
C
102
}
330
C
100
AcDbDictionary
281
     1
  3
2dWireframe
350
2F
  3
3D Hidden
350
31
  3
3dWireframe
350
30
  3
Basic
350
32
  3
Brighten
350
36
  3
ColorChange
350
3A
  3
Conceptual
350
34
  3
Dim
350
35
  3
Facepattern
350
39
  3
Flat
350
2B
  3
FlatWithEdges
350
2C
  3
Gouraud
350
2D
  3
GouraudWithEdges
350
2E
  3
Linepattern
350
38
  3
Realistic
350
33
  3
Thicken
350
37
  0
LAYOUT
  5
1E
102
{ACAD_REACTORS
330
1A
102
}
330
1A
100
AcDbPlotSettings
  1

  2
none_device
  4

  6

 40
0.0
 41
0.0
 42
0.0
 43
0.0
 44
0.0
 45
0.0
 46
0.0
 47
0.0
 48
0.0
 49
0.0
140
0.0
141
0.0
142
1.0
143
1.0
 70
   688
 72
     0
 73
     0
 74
     5
  7

 75
    16
 76
     0
 77
     2
 78
   300
147
1.0
148
0.0
149
0.0
100
AcDbLayout
  1
Layout1
 70
     1
 71
     1
 10
0.0
 20
0.0
 11
12.0
 21
9.0
 12
0.0
 22
0.0
 32
0.0
 14
1.000000000000000E+20
 24
1.000000000000000E+20
 34
1.000000000000000E+20
 15
-1.000000000000000E+20
 25
-1.000000000000000E+20
 35
-1.000000000000000E+20
146
0.0
 13
0.0
 23
0.0
 33
0.0
 16
1.0
 26
0.0
 36
0.0
 17
0.0
 27
1.0
 37
0.0
 76
     0
330
1B
  0
LAYOUT
  5
26
102
{ACAD_REACTORS
330
1A
102
}
330
1A
100
AcDbPlotSettings
  1

  2
none_device
  4

  6

 40
0.0
 41
0.0
 42
0.0
 43
0.0
 44
0.0
 45
0.0
 46
0.0
 47
0.0
 48
0.0
 49
0.0
140
0.0
141
0.0
142
1.0
143
1.0
 70
   688
 72
     0
 73
     0
 74
     5
  7

 75
    16
 76
     0
 77
     2
 78
   300
147
1.0
148
0.0
149
0.0
100
AcDbLayout
  1
Layout2
 70
     1
 71
     2
 10
0.0
 20
0.0
 11
0.0
 21
0.0
 12
0.0
 22
0.0
 32
0.0
 14
0.0
 24
0.0
 34
0.0
 15
0.0
 25
0.0
 35
0.0
146
0.0
 13
0.0
 23
0.0
 33
0.0
 16
1.0
 26
0.0
 36
0.0
 17
0.0
 27
1.0
 37
0.0
 76
     0
330
23
  0
LAYOUT
  5
22
102
{ACAD_REACTORS
330
1A
102
}
330
1A
100
AcDbPlotSettings
  1

  2
none_device
  4

  6

 40
0.0
 41
0.0
 42
0.0
 43
0.0
 44
0.0
 45
0.0
 46
0.0
 47
0.0
 48
0.0
 49
0.0
140
0.0
141
0.0
142
1.0
143
1.0
 70
  1712
 72
     0
 73
     0
 74
     0
  7

 75
     0
 76
     0
 77
     2
 78
   300
147
1.0
148
0.0
149
0.0
100
AcDbLayout
  1
Model
 70
     1
 71
     0
 10
0.0
 20
0.0
 11
12.0
 21
9.0
 12
0.0
 22
0.0
 32
0.0
 14
-33.61069246033817
 24
0.0000000000000004
 34
0.0
 15
79.17891668481113
 25
82.61421080081887
 35
0.0
146
0.0
 13
0.0
 23
0.0
 33
0.0
 16
1.0
 26
0.0
 36
0.0
 17
0.0
 27
1.0
 37
0.0
 76
     0
330
1F
331
29
  0
MLINESTYLE
  5
18
102
{ACAD_REACTORS
330
17
102
}
330
17
100
AcDbMlineStyle
  2
Standard
 70
     0
  3

 62
   256
 51
90.0
 52
90.0
 71
     2
 49
0.5
 62
   256
  6
BYLAYER
 49
-0.5
 62
   256
  6
BYLAYER
  0
ACDBPLACEHOLDER
  5
F
102
{ACAD_REACTORS
330
E
102
}
330
E
  0
VISUALSTYLE
  5
2F
102
{ACAD_REACTORS
330
2A
102
}
330
2A
100
AcDbVisualStyle
  2
2dWireframe
 70
     4
 71
     0
 72
     2
 73
     0
 90
        0
 40
-0.6
 41
-30.0
 62
     5
 63
     7
421
 16777215
 74
     1
 91
        4
 64
     7
 65
   257
 75
     1
175
     1
 42
1.0
 92
        0
 66
   257
 43
1.0
 76
     1
 77
     6
 78
     2
 67
     7
 79
     5
170
     0
171
     0
290
     0
174
     0
 93
        1
 44
0.0
173
     0
291
     0
 45
0.0
1001
ACAD
1000
AcDbSavedByObjectVersion
1070
     0
  0
VISUALSTYLE
  5
31
102
{ACAD_REACTORS
330
2A
102
}
330
2A
100
AcDbVisualStyle
  2
3D Hidden
 70
     6
 71
     1
 72
     2
 73
     2
 90
        0
 40
-0.6
 41
-30.0
 62
     5
 63
     7
421
 16777215
 74
     2
 91
        2
 64
     7
 65
   257
 75
     2
175
     1
 42
40.0
 92
        0
 66
   257
 43
1.0
 76
     1
 77
     6
 78
     2
 67
     7
 79
     3
170
     0
171
     0
290
     0
174
     0
 93
        1
 44
0.0
173
     0
291
     0
 45
0.0
1001
ACAD
1000
AcDbSavedByObjectVersion
1070
     0
  0
VISUALSTYLE
  5
30
102
{ACAD_REACTORS
330
2A
102
}
330
2A
100
AcDbVisualStyle
  2
3dWireframe
 70
     5
 71
     0
 72
     2
 73
     0
 90
        0
 40
-0.6
 41
-30.0
 62
     5
 63
     7
421
 16777215
 74
     1
 91
        4
 64
     7
 65
   257
 75
     1
175
     1
 42
1.0
 92
        0
 66
   257
 43
1.0
 76
     1
 77
     6
 78
     2
 67
     7
 79
     5
170
     0
171
     0
290
     0
174
     0
 93
        1
 44
0.0
173
     0
291
     0
 45
0.0
1001
ACAD
1000
AcDbSavedByObjectVersion
1070
     0
  0
VISUALSTYLE
  5
32
102
{ACAD_REACTORS
330
2A
102
}
330
2A
100
AcDbVisualStyle
  2
Basic
 70
     7
 71
     1
 72
     0
 73
     1
 90
        0
 40
-0.6
 41
-30.0
 62
     5
 63
     7
421
 16777215
 74
     0
 91
        4
 64
     7
 65
   257
 75
     1
175
     1
 42
1.0
 92
        8
 66
     7
 43
1.0
 76
     1
 77
     6
 78
     2
 67
     7
 79
     5
170
     0
171
     0
290
     0
174
     0
 93
        1
 44
0.0
173
     0
291
     1
 45
0.0
1001
ACAD
1000
AcDbSavedByObjectVersion
1070
     0
  0
VISUALSTYLE
  5
36
102
{ACAD_REACTORS
330
2A
102
}
330
2A
100
AcDbVisualStyle
  2
Brighten
 70
    12
 71
     2
 72
     2
 73
     0
 90
        0
 40
-0.6
 41
-30.0
 62
     5
 63
     7
421
 16777215
 74
     1
 91
        4
 64
     7
 65
   257
 75
     1
175
     1
 42
1.0
 92
        8
 66
     7
 43
1.0
 76
     1
 77
     6
 78
     2
 67
     7
 79
     5
170
     0
171
     0
290
     0
174
     0
 93
        1
 44
50.0
173
     0
291
     1
 45
0.0
1001
ACAD
1000
AcDbSavedByObjectVersion
1070
     0
  0
VISUALSTYLE
  5
3A
102
{ACAD_REACTORS
330
2A
102
}
330
2A
100
AcDbVisualStyle
  2
ColorChange
 70
    16
 71
     2
 72
     2
 73
     3
 90
        0
 40
-0.6
 41
-30.0
 62
     5
 63
     8
421
  8421504
 74
     1
 91
        4
 64
     7
 65
   257
 75
     1
175
     1
 42
1.0
 92
        8
 66
     8
424
  8421504
 43
1.0
 76
     1
 77
     6
 78
     2
 67
     7
 79
     5
170
     0
171
     0
290
     0
174
     0
 93
        1
 44
0.0
173
     0
291
     1
 45
0.0
1001
ACAD
1000
AcDbSavedByObjectVersion
1070
     0
  0
VISUALSTYLE
  5
34
102
{ACAD_REACTORS
330
2A
102
}
330
2A
100
AcDbVisualStyle
  2
Conceptual
 70
     9
 71
     3
 72
     2
 73
     0
 90
        0
 40
-0.6
 41
-30.0
 62
     5
 63
     7
421
 16777215
 74
     2
 91
        2
 64
     7
 65
   257
 75
     1
175
     1
 42
40.0
 92
        8
 66
     7
 43
1.0
 76
     1
 77
     6
 78
     2
 67
     7
 79
     3
170
     0
171
     0
290
     0
174
     0
 93
        1
 44
0.0
173
     0
291
     0
 45
0.0
1001
ACAD
1000
AcDbSavedByObjectVersion
1070
     0
  0
VISUALSTYLE
  5
35
102
{ACAD_REACTORS
330
2A
102
}
330
2A
100
AcDbVisualStyle
  2
Dim
 70
    11
 71
     2
 72
     2
 73
     0
 90
        0
 40
-0.6
 41
-30.0
 62
     5
 63
     7
421
 16777215
 74
     1
 91
        4
 64
     7
 65
   257
 75
     1
175
     1
 42
1.0
 92
        8
 66
     7
 43
1.0
 76
     1
 77
     6
 78
     2
 67
     7
 79
     5
170
     0
171
     0
290
     0
174
     0
 93
        1
 44
-50.0
173
     0
291
     1
 45
0.0
1001
ACAD
1000
AcDbSavedByObjectVersion
1070
     0
  0
VISUALSTYLE
  5
39
102
{ACAD_REACTORS
330
2A
102
}
330
2A
100
AcDbVisualStyle
  2
Facepattern
 70
    15
 71
     2
 72
     2
 73
     0
 90
        0
 40
-0.6
 41
-30.0
 62
     5
 63
     7
421
 16777215
 74
     1
 91
        4
 64
     7
 65
   257
 75
     1
175
     1
 42
1.0
 92
        8
 66
     7
 43
1.0
 76
     1
 77
     6
 78
     2
 67
     7
 79
     5
170
     0
171
     0
290
     0
174
     0
 93
        1
 44
0.0
173
     0
291
     1
 45
0.0
1001
ACAD
1000
AcDbSavedByObjectVersion
1070
     0
  0
VISUALSTYLE
  5
2B
102
{ACAD_REACTORS
330
2A
102
}
330
2A
100
AcDbVisualStyle
  2
Flat
 70
     0
 71
     2
 72
     1
 73
     1
 90
        2
 40
-0.6
 41
30.0
 62
     5
 63
     7
421
 16777215
 74
     0
 91
        4
 64
     7
 65
   257
 75
     1
175
     1
 42
1.0
 92
        8
 66
     7
 43
1.0
 76
     1
 77
     6
 78
     2
 67
     7
 79
     5
170
     0
171
     0
290
     0
174
     0
 93
       13
 44
0.0
173
     0
291
     1
 45
0.0
1001
ACAD
1000
AcDbSavedByObjectVersion
1070
     0
  0
VISUALSTYLE
  5
2C
102
{ACAD_REACTORS
330
2A
102
}
330
2A
100
AcDbVisualStyle
  2
FlatWithEdges
 70
     1
 71
     2
 72
     1
 73
     1
 90
        2
 40
-0.6
 41
30.0
 62
     5
 63
     7
421
 16777215
 74
     1
 91
        4
 64
     7
 65
   257
 75
     1
175
     1
 42
1.0
 92
        0
 66
   257
 43
1.0
 76
     1
 77
     6
 78
     2
 67
     7
 79
     5
170
     0
171
     0
290
     0
174
     0
 93
       13
 44
0.0
173
     0
291
     1
 45
0.0
1001
ACAD
1000
AcDbSavedByObjectVersion
1070
     0
  0
VISUALSTYLE
  5
2D
102
{ACAD_REACTORS
330
2A
102
}
330
2A
100
AcDbVisualStyle
  2
Gouraud
 70
     2
 71
     2
 72
     2
 73
     1
 90
        2
 40
-0.6
 41
30.0
 62
     5
 63
     7
421
 16777215
 74
     0
 91
        4
 64
     7
 65
   257
 75
     1
175
     1
 42
1.0
 92
        0
 66
     7
 43
1.0
 76
     1
 77
     6
 78
     2
 67
     7
 79
     5
170
     0
171
     0
290
     0
174
     0
 93
       13
 44
0.0
173
     0
291
     1
 45
0.0
1001
ACAD
1000
AcDbSavedByObjectVersion
1070
     0
  0
VISUALSTYLE
  5
2E
102
{ACAD_REACTORS
330
2A
102
}
330
2A
100
AcDbVisualStyle
  2
GouraudWithEdges
 70
     3
 71
     2
 72
     2
 73
     1
 90
        2
 40
-0.6
 41
30.0
 62
     5
 63
     7
421
 16777215
 74
     1
 91
        4
 64
     7
 65
   257
 75
     1
175
     1
 42
1.0
 92
        0
 66
   257
 43
1.0
 76
     1
 77
     6
 78
     2
 67
     7
 79
     5
170
     0
171
     0
290
     0
174
     0
 93
       13
 44
0.0
173
     0
291
     1
 45
0.0
1001
ACAD
1000
AcDbSavedByObjectVersion
1070
     0
  0
VISUALSTYLE
  5
38
102
{ACAD_REACTORS
330
2A
102
}
330
2A
100
AcDbVisualStyle
  2
Linepattern
 70
    14
 71
     2
 72
     2
 73
     0
 90
        0
 40
-0.6
 41
-30.0
 62
     5
 63
     7
421
 16777215
 74
     1
 91
        4
 64
     7
 65
   257
 75
     7
175
     7
 42
1.0
 92
        8
 66
     7
 43
1.0
 76
     1
 77
     6
 78
     2
 67
     7
 79
     5
170
     0
171
     0
290
     0
174
     0
 93
        1
 44
0.0
173
     0
291
     1
 45
0.0
1001
ACAD
1000
AcDbSavedByObjectVersion
1070
     0
  0
VISUALSTYLE
  5
33
102
{ACAD_REACTORS
330
2A
102
}
330
2A
100
AcDbVisualStyle
  2
Realistic
 70
     8
 71
     2
 72
     2
 73
     0
 90
        0
 40
-0.6
 41
-30.0
 62
     5
 63
     7
421
 16777215
 74
     1
 91
        0
 64
     7
 65
   257
 75
     1
175
     1
 42
1.0
 92
        8
 66
     8
424
  7895160
 43
1.0
 76
     1
 77
     6
 78
     2
 67
     7
 79
     5
170
     0
171
     0
290
     0
174
     0
 93
       13
 44
0.0
173
     0
291
     0
 45
0.0
1001
ACAD
1000
AcDbSavedByObjectVersion
1070
     0
  0
VISUALSTYLE
  5
37
102
{ACAD_REACTORS
330
2A
102
}
330
2A
100
AcDbVisualStyle
  2
Thicken
 70
    13
 71
     2
 72
     2
 73
     0
 90
        0
 40
-0.6
 41
-30.0
 62
     5
 63
     7
421
 16777215
 74
     1
 91
        4
 64
     7
 65
   257
 75
     1
175
     1
 42
1.0
 92
       12
 66
     7
 43
1.0
 76
     1
 77
     6
 78
     2
 67
     7
 79
     5
170
     0
171
     0
290
     0
174
     0
 93
        1
 44
0.0
173
     0
291
     1
 45
0.0
1001
ACAD
1000
AcDbSavedByObjectVersion
1070
     0
  0
ENDSEC
  0
EOF
