  0
SECTION
  2
HEADER
  9
$ACADVER
  1
AC1018
  9
$ACADMAINTVER
 70
     0
  9
$DWGCODEPAGE
  3
ANSI_1252
  9
$INSBASE
 10
0.0
 20
0.0
 30
0.0
  9
$EXTMIN
 10
-18.3333086148243
 20
0.0
 30
0.0
  9
$EXTMAX
 10
58.98594288952327
 20
86.4054244976385
 30
0.0
  9
$LIMMIN
 10
0.0
 20
0.0
  9
$LIMMAX
 10
12.0
 20
9.0
  9
$ORTHOMODE
 70
     0
  9
$REGENMODE
 70
     1
  9
$FILLMODE
 70
     1
  9
$QTEXTMODE
 70
     0
  9
$MIRRTEXT
 70
     1
  9
$LTSCALE
 40
0.0393700787401575
  9
$ATTMODE
 70
     1
  9
$TEXTSIZE
 40
0.2
  9
$TRACEWID
 40
0.05
  9
$TEXTSTYLE
  7
Standard
  9
$CLAYER
  8
DEFAULT
  9
$CELTYPE
  6
ByLayer
  9
$CECOLOR
 62
   256
  9
$CELTSCALE
 40
1.0
  9
$DISPSILH
 70
     0
  9
$DIMSCALE
 40
1.0
  9
$DIMASZ
 40
0.18
  9
$DIMEXO
 40
0.0625
  9
$DIMDLI
 40
0.38
  9
$DIMRND
 40
0.0
  9
$DIMDLE
 40
0.0
  9
$DIMEXE
 40
0.18
  9
$DIMTP
 40
0.0
  9
$DIMTM
 40
0.0
  9
$DIMTXT
 40
0.18
  9
$DIMCEN
 40
0.09
  9
$DIMTSZ
 40
0.0
  9
$DIMTOL
 70
     0
  9
$DIMLIM
 70
     0
  9
$DIMTIH
 70
     1
  9
$DIMTOH
 70
     1
  9
$DIMSE1
 70
     0
  9
$DIMSE2
 70
     0
  9
$DIMTAD
 70
     0
  9
$DIMZIN
 70
     0
  9
$DIMBLK
  1

  9
$DIMASO
 70
     1
  9
$DIMSHO
 70
     1
  9
$DIMPOST
  1

  9
$DIMAPOST
  1

  9
$DIMALT
 70
     0
  9
$DIMALTD
 70
     2
  9
$DIMALTF
 40
25.4
  9
$DIMLFAC
 40
1.0
  9
$DIMTOFL
 70
     0
  9
$DIMTVP
 40
0.0
  9
$DIMTIX
 70
     0
  9
$DIMSOXD
 70
     0
  9
$DIMSAH
 70
     0
  9
$DIMBLK1
  1

  9
$DIMBLK2
  1

  9
$DIMSTYLE
  2
Standard
  9
$DIMCLRD
 70
     0
  9
$DIMCLRE
 70
     0
  9
$DIMCLRT
 70
     0
  9
$DIMTFAC
 40
1.0
  9
$DIMGAP
 40
0.09
  9
$DIMJUST
 70
     0
  9
$DIMSD1
 70
     0
  9
$DIMSD2
 70
     0
  9
$DIMTOLJ
 70
     1
  9
$DIMTZIN
 70
     0
  9
$DIMALTZ
 70
     0
  9
$DIMALTTZ
 70
     0
  9
$DIMUPT
 70
     0
  9
$DIMDEC
 70
     4
  9
$DIMTDEC
 70
     4
  9
$DIMALTU
 70
     2
  9
$DIMALTTD
 70
     2
  9
$DIMTXSTY
  7
Standard
  9
$DIMAUNIT
 70
     0
  9
$DIMADEC
 70
     0
  9
$DIMALTRND
 40
0.0
  9
$DIMAZIN
 70
     0
  9
$DIMDSEP
 70
    46
  9
$DIMATFIT
 70
     3
  9
$DIMFRAC
 70
     0
  9
$DIMLDRBLK
  1

  9
$DIMLUNIT
 70
     2
  9
$DIMLWD
 70
    -2
  9
$DIMLWE
 70
    -2
  9
$DIMTMOVE
 70
     2
  9
$LUNITS
 70
     2
  9
$LUPREC
 70
     3
  9
$SKETCHINC
 40
0.1
  9
$FILLETRAD
 40
0.5
  9
$AUNITS
 70
     0
  9
$AUPREC
 70
     0
  9
$MENU
  1
.
  9
$ELEVATION
 40
0.0
  9
$PELEVATION
 40
0.0
  9
$THICKNESS
 40
0.0
  9
$LIMCHECK
 70
     0
  9
$CHAMFERA
 40
0.5
  9
$CHAMFERB
 40
0.5
  9
$CHAMFERC
 40
1.0
  9
$CHAMFERD
 40
0.0
  9
$SKPOLY
 70
     0
  9
$TDCREATE
 40
2455909.469384491
  9
$TDUCREATE
 40
2455909.677717824
  9
$TDUPDATE
 40
2455909.469384502
  9
$TDUUPDATE
 40
2455909.677717836
  9
$TDINDWG
 40
0.0000000116
  9
$TDUSRTIMER
 40
0.0000000116
  9
$USRTIMER
 70
     1
  9
$ANGBASE
 50
0.0
  9
$ANGDIR
 70
     0
  9
$PDMODE
 70
     0
  9
$PDSIZE
 40
0.0
  9
$PLINEWID
 40
0.0
  9
$SPLFRAME
 70
     0
  9
$SPLINETYPE
 70
     6
  9
$SPLINESEGS
 70
     8
  9
$HANDSEED
  5
E4
  9
$SURFTAB1
 70
     6
  9
$SURFTAB2
 70
     6
  9
$SURFTYPE
 70
     6
  9
$SURFU
 70
     6
  9
$SURFV
 70
     6
  9
$UCSBASE
  2

  9
$UCSNAME
  2

  9
$UCSORG
 10
0.0
 20
0.0
 30
0.0
  9
$UCSXDIR
 10
1.0
 20
0.0
 30
0.0
  9
$UCSYDIR
 10
0.0
 20
1.0
 30
0.0
  9
$UCSORTHOREF
  2

  9
$UCSORTHOVIEW
 70
     0
  9
$UCSORGTOP
 10
0.0
 20
0.0
 30
0.0
  9
$UCSORGBOTTOM
 10
0.0
 20
0.0
 30
0.0
  9
$UCSORGLEFT
 10
0.0
 20
0.0
 30
0.0
  9
$UCSORGRIGHT
 10
0.0
 20
0.0
 30
0.0
  9
$UCSORGFRONT
 10
0.0
 20
0.0
 30
0.0
  9
$UCSORGBACK
 10
0.0
 20
0.0
 30
0.0
  9
$PUCSBASE
  2

  9
$PUCSNAME
  2

  9
$PUCSORG
 10
0.0
 20
0.0
 30
0.0
  9
$PUCSXDIR
 10
1.0
 20
0.0
 30
0.0
  9
$PUCSYDIR
 10
0.0
 20
1.0
 30
0.0
  9
$PUCSORTHOREF
  2

  9
$PUCSORTHOVIEW
 70
     0
  9
$PUCSORGTOP
 10
0.0
 20
0.0
 30
0.0
  9
$PUCSORGBOTTOM
 10
0.0
 20
0.0
 30
0.0
  9
$PUCSORGLEFT
 10
0.0
 20
0.0
 30
0.0
  9
$PUCSORGRIGHT
 10
0.0
 20
0.0
 30
0.0
  9
$PUCSORGFRONT
 10
0.0
 20
0.0
 30
0.0
  9
$PUCSORGBACK
 10
0.0
 20
0.0
 30
0.0
  9
$USERI1
 70
     0
  9
$USERI2
 70
     0
  9
$USERI3
 70
     0
  9
$USERI4
 70
     0
  9
$USERI5
 70
     0
  9
$USERR1
 40
0.0
  9
$USERR2
 40
0.0
  9
$USERR3
 40
0.0
  9
$USERR4
 40
0.0
  9
$USERR5
 40
0.0
  9
$WORLDVIEW
 70
     1
  9
$SHADEDGE
 70
     3
  9
$SHADEDIF
 70
    70
  9
$TILEMODE
 70
     1
  9
$MAXACTVP
 70
    64
  9
$PINSBASE
 10
0.0
 20
0.0
 30
0.0
  9
$PLIMCHECK
 70
     0
  9
$PEXTMIN
 10
1.000000000000000E+20
 20
1.000000000000000E+20
 30
1.000000000000000E+20
  9
$PEXTMAX
 10
-1.000000000000000E+20
 20
-1.000000000000000E+20
 30
-1.000000000000000E+20
  9
$PLIMMIN
 10
0.0
 20
0.0
  9
$PLIMMAX
 10
12.0
 20
9.0
  9
$UNITMODE
 70
     0
  9
$VISRETAIN
 70
     1
  9
$PLINEGEN
 70
     0
  9
$PSLTSCALE
 70
     1
  9
$TREEDEPTH
 70
  3020
  9
$CMLSTYLE
  2
Standard
  9
$CMLJUST
 70
     0
  9
$CMLSCALE
 40
1.0
  9
$PROXYGRAPHICS
 70
     1
  9
$MEASUREMENT
 70
     0
  9
$CELWEIGHT
370
    -1
  9
$ENDCAPS
280
     0
  9
$JOINSTYLE
280
     0
  9
$LWDISPLAY
290
     0
  9
$INSUNITS
 70
     1
  9
$HYPERLINKBASE
  1

  9
$STYLESHEET
  1

  9
$XEDIT
290
     1
  9
$CEPSNTYPE
380
     0
  9
$PSTYLEMODE
290
     1
  9
$FINGERPRINTGUID
  2
{6F95E4BF-11DB-4D03-8943-3BE0C2F27EBF}
  9
$VERSIONGUID
  2
{FAEB1C32-E019-11D5-929B-00C0DF256EC4}
  9
$EXTNAMES
290
     1
  9
$PSVPSCALE
 40
0.0
  9
$OLESTARTUP
290
     0
  9
$SORTENTS
280
   127
  9
$INDEXCTL
280
     0
  9
$HIDETEXT
280
     1
  9
$XCLIPFRAME
290
     0
  9
$HALOGAP
280
     0
  9
$OBSCOLOR
 70
   257
  9
$OBSLTYPE
280
     0
  9
$INTERSECTIONDISPLAY
280
     0
  9
$INTERSECTIONCOLOR
 70
   257
  9
$DIMASSOC
280
     2
  9
$PROJECTNAME
  1

  0
ENDSEC
  0
SECTION
  2
CLASSES
  0
CLASS
  1
ACDBDICTIONARYWDFLT
  2
AcDbDictionaryWithDefault
  3
ObjectDBX Classes
 90
        0
 91
        4
280
     0
281
     0
  0
CLASS
  1
VISUALSTYLE
  2
AcDbVisualStyle
  3
ObjectDBX Classes
 90
     4095
 91
        4
280
     0
281
     0
  0
ENDSEC
  0
SECTION
  2
TABLES
  0
TABLE
  2
VPORT
  5
8
330
0
100
AcDbSymbolTable
 70
     1
  0
VPORT
  5
29
330
8
100
AcDbSymbolTableRecord
100
AcDbViewportTableRecord
  2
*Active
 70
     0
 10
0.0
 20
0.0
 11
1.0
 21
1.0
 12
20.32631713734949
 22
43.20271224881925
 13
0.0
 23
0.0
 14
0.5
 24
0.5
 15
0.5
 25
0.5
 16
0.0
 26
0.0
 36
1.0
 17
0.0
 27
0.0
 37
0.0
 40
88.13353298759128
 41
0.8948425628816942
 42
50.0
 43
0.0
 44
0.0
 50
0.0
 51
0.0
 71
     0
 72
   100
 73
     1
 74
     3
 75
     0
 76
     0
 77
     0
 78
     0
281
     0
 65
     1
110
0.0
120
0.0
130
0.0
111
1.0
121
0.0
131
0.0
112
0.0
122
1.0
132
0.0
 79
     0
146
0.0
  0
ENDTAB
  0
TABLE
  2
LTYPE
  5
5
330
0
100
AcDbSymbolTable
 70
     1
  0
LTYPE
  5
14
330
5
100
AcDbSymbolTableRecord
100
AcDbLinetypeTableRecord
  2
ByBlock
 70
     0
  3

 72
    65
 73
     0
 40
0.0
  0
LTYPE
  5
15
330
5
100
AcDbSymbolTableRecord
100
AcDbLinetypeTableRecord
  2
ByLayer
 70
     0
  3

 72
    65
 73
     0
 40
0.0
  0
LTYPE
  5
16
330
5
100
AcDbSymbolTableRecord
100
AcDbLinetypeTableRecord
  2
Continuous
 70
     0
  3
Solid line
 72
    65
 73
     0
 40
0.0
  0
ENDTAB
  0
TABLE
  2
LAYER
  5
2
330
0
100
AcDbSymbolTable
 70
     4
  0
LAYER
  5
10
330
2
100
AcDbSymbolTableRecord
100
AcDbLayerTableRecord
  2
0
 70
     0
 62
     7
  6
Continuous
370
    -3
390
F
  0
LAYER
  5
3B
330
2
100
AcDbSymbolTableRecord
100
AcDbLayerTableRecord
  2
DEFAULT
 70
     0
 62
     7
  6
Continuous
370
    -3
390
F
  0
LAYER
  5
3D
330
2
100
AcDbSymbolTableRecord
100
AcDbLayerTableRecord
  2
MAKE2D VISIBLE LINES
 70
     0
 62
     7
  6
Continuous
370
    -3
390
F
  0
LAYER
  5
A7
330
2
100
AcDbSymbolTableRecord
100
AcDbLayerTableRecord
  2
MAKE2D VISIBLE LINES - TANGENT
 70
     0
 62
     7
  6
Continuous
370
    -3
390
F
  0
ENDTAB
  0
TABLE
  2
STYLE
  5
3
330
0
100
AcDbSymbolTable
 70
     1
  0
STYLE
  5
11
330
3
100
AcDbSymbolTableRecord
100
AcDbTextStyleTableRecord
  2
Standard
 70
     0
 40
0.0
 41
1.0
 50
0.0
 71
     0
 42
0.2
  3
txt
  4

  0
ENDTAB
  0
TABLE
  2
VIEW
  5
6
330
0
100
AcDbSymbolTable
 70
     0
  0
ENDTAB
  0
TABLE
  2
UCS
  5
7
330
0
100
AcDbSymbolTable
 70
     0
  0
ENDTAB
  0
TABLE
  2
APPID
  5
9
330
0
100
AcDbSymbolTable
 70
     1
  0
APPID
  5
12
330
9
100
AcDbSymbolTableRecord
100
AcDbRegAppTableRecord
  2
ACAD
 70
     0
  0
ENDTAB
  0
TABLE
  2
DIMSTYLE
  5
A
330
0
100
AcDbSymbolTable
 70
     1
100
AcDbDimStyleTable
  0
DIMSTYLE
105
27
330
A
100
AcDbSymbolTableRecord
100
AcDbDimStyleTableRecord
  2
Standard
 70
     0
340
11
  0
ENDTAB
  0
TABLE
  2
BLOCK_RECORD
  5
1
330
0
100
AcDbSymbolTable
 70
     1
  0
BLOCK_RECORD
  5
1F
330
1
100
AcDbSymbolTableRecord
100
AcDbBlockTableRecord
  2
*Model_Space
340
22
  0
BLOCK_RECORD
  5
1B
330
1
100
AcDbSymbolTableRecord
100
AcDbBlockTableRecord
  2
*Paper_Space
340
1E
  0
BLOCK_RECORD
  5
23
330
1
100
AcDbSymbolTableRecord
100
AcDbBlockTableRecord
  2
*Paper_Space0
340
26
  0
ENDTAB
  0
ENDSEC
  0
SECTION
  2
BLOCKS
  0
BLOCK
  5
20
330
1F
100
AcDbEntity
  8
0
100
AcDbBlockBegin
  2
*Model_Space
 70
     0
 10
0.0
 20
0.0
 30
0.0
  3
*Model_Space
  1

  0
ENDBLK
  5
21
330
1F
100
AcDbEntity
  8
0
100
AcDbBlockEnd
  0
BLOCK
  5
1C
330
1B
100
AcDbEntity
 67
     1
  8
0
100
AcDbBlockBegin
  2
*Paper_Space
 70
     0
 10
0.0
 20
0.0
 30
0.0
  3
*Paper_Space
  1

  0
ENDBLK
  5
1D
330
1B
100
AcDbEntity
 67
     1
  8
0
100
AcDbBlockEnd
  0
BLOCK
  5
24
330
23
100
AcDbEntity
  8
0
100
AcDbBlockBegin
  2
*Paper_Space0
 70
     0
 10
0.0
 20
0.0
 30
0.0
  3
*Paper_Space0
  1

  0
ENDBLK
  5
25
330
23
100
AcDbEntity
  8
0
100
AcDbBlockEnd
  0
ENDSEC
  0
SECTION
  2
ENTITIES
  0
ARC
  5
3C
330
1F
100
AcDbEntity
  8
DEFAULT
100
AcDbCircle
 10
34.60405852157552
 20
0.6135950575661233
 30
0.0
 40
0.4992052461831138
100
AcDbArc
 50
90.0
 51
269.9999999999992
  0
SPLINE
  5
3E
330
1F
100
AcDbEntity
  8
MAKE2D VISIBLE LINES
100
AcDbSpline
210
0.0
220
0.0
230
1.0
 70
    12
 71
     2
 72
     8
 73
     5
 74
     0
 42
0.0000000001
 43
0.0000000001
 40
0.0
 40
0.0
 40
0.0
 40
0.0249753120860518
 40
0.0249753120860518
 40
0.0267261546481809
 40
0.0267261546481809
 40
0.0267261546481809
 10
34.58017779536937
 20
0.1144001642782074
 30
0.0
 41
1.0
 10
34.59265246976344
 20
0.1137765277483882
 30
0.0
 41
0.9996881331046091
 10
34.60514272291377
 20
0.1137765277483889
 30
0.0
 41
1.0
 10
34.60601814508934
 20
0.1137765277483886
 30
0.0
 41
0.9999984672755529
 10
34.60689356189782
 20
0.1137795931949336
 30
0.0
 41
1.0
  0
POLYLINE
  5
3F
330
1F
100
AcDbEntity
  8
DEFAULT
100
AcDb2dPolyline
 66
     1
 10
0.0
 20
0.0
 30
0.0
  0
VERTEX
  5
40
330
3F
100
AcDbEntity
  8
DEFAULT
100
AcDbVertex
100
AcDb2dVertex
 10
34.60405852157558
 20
1.112800303749237
 30
0.0
  0
VERTEX
  5
41
330
3F
100
AcDbEntity
  8
DEFAULT
100
AcDbVertex
100
AcDb2dVertex
 10
58.04398345087412
 20
1.112800303749237
 30
0.0
  0
SEQEND
  5
42
330
3F
100
AcDbEntity
  8
DEFAULT
  0
SPLINE
  5
43
330
1F
100
AcDbEntity
  8
MAKE2D VISIBLE LINES
100
AcDbSpline
210
0.0
220
0.0
230
1.0
 70
    24
 71
     2
 72
     6
 73
     3
 74
     0
 42
0.0000000001
 43
0.0000000001
 40
0.0
 40
0.0
 40
0.0
 40
0.1344548490780301
 40
0.1344548490780301
 40
0.1344548490780301
 10
34.36756411252985
 20
0.1738249278181884
 30
0.0
 10
34.36756409313321
 20
0.1065975032791733
 30
0.0
 10
34.36756407373657
 20
0.0393700787401583
 30
0.0
  0
SPLINE
  5
44
330
1F
100
AcDbEntity
  8
MAKE2D VISIBLE LINES
100
AcDbSpline
210
0.0
220
0.0
230
1.0
 70
    12
 71
     2
 72
     6
 73
     3
 74
     0
 42
0.0000000001
 43
0.0000000001
 40
0.0
 40
0.0
 40
0.0
 40
0.061838951596999
 40
0.061838951596999
 40
0.061838951596999
 10
34.36756407373657
 20
0.0393700787401583
 30
0.0
 41
0.9999999999363602
 10
34.36757017501674
 20
0.0000069280181832
 30
0.0
 41
0.7072241468122047
 10
34.4069337584335
 20
0.0000000000040727
 30
0.0
 41
1.0
  0
SPLINE
  5
45
330
1F
100
AcDbEntity
  8
MAKE2D VISIBLE LINES
100
AcDbSpline
210
0.0
220
0.0
230
1.0
 70
    28
 71
     3
 72
    15
 73
    11
 74
     0
 42
0.0000000001
 43
0.0000000001
 40
-63.70783385453454
 40
-63.70783385453454
 40
-63.70783385453454
 40
-63.70783385453454
 40
-61.68567984495066
 40
-59.78387096978497
 40
-57.75772121517893
 40
-55.76589137401091
 40
-53.76759262847111
 40
-51.74791180249014
 40
-49.83963810038696
 40
-48.00001305772277
 40
-48.00001305772277
 40
-48.00001305772277
 40
-48.00001305772277
 10
34.4069337584335
 20
0.0000000000040727
 30
0.0
 41
1.0
 10
34.40693403610378
 20
0.0
 30
0.0
 41
1.0
 10
34.41755514290945
 20
0.0
 30
0.0
 41
1.0
 10
34.46211604076144
 20
0.0
 30
0.0
 41
1.0
 10
34.52830662770839
 20
0.0000000000000027
 30
0.0
 41
1.0
 10
34.60750837034755
 20
0.0
 30
0.0
 41
1.0
 10
34.6860489128231
 20
0.0000000000000027
 30
0.0
 41
1.0
 10
34.75066057705348
 20
0.0
 30
0.0
 41
1.0
 10
34.79149025029656
 20
0.0000000000000027
 30
0.0
 41
1.0
 10
34.80064603769567
 20
0.0
 30
0.0
 41
1.0
 10
34.80063498885187
 20
0.0
 30
0.0
 41
1.0
  0
SPLINE
  5
46
330
1F
100
AcDbEntity
  8
MAKE2D VISIBLE LINES
100
AcDbSpline
210
0.0
220
0.0
230
1.0
 70
    12
 71
     2
 72
     6
 73
     3
 74
     0
 42
0.0000000001
 43
0.0000000001
 40
0.0
 40
0.0
 40
0.0
 40
0.061840178436395
 40
0.061840178436395
 40
0.061840178436395
 10
34.80063498885187
 20
0.0
 30
0.0
 41
1.0
 10
34.83999995453931
 20
0.0000051232322625
 30
0.0
 41
0.7071988396217211
 10
34.84000506962828
 20
0.0393700787401583
 30
0.0
 41
0.999999999983264
  0
SPLINE
  5
47
330
1F
100
AcDbEntity
  8
MAKE2D VISIBLE LINES
100
AcDbSpline
210
0.0
220
0.0
230
1.0
 70
    24
 71
     2
 72
     6
 73
     3
 74
     0
 42
0.0000000001
 43
0.0000000001
 40
0.0
 40
0.0
 40
0.0
 40
0.074629246736086
 40
0.074629246736086
 40
0.074629246736086
 10
34.84000506962829
 20
0.0393700787401583
 30
0.0
 10
34.84000506352001
 20
0.0766847021082013
 30
0.0
 10
34.84000505741173
 20
0.1139993254762443
 30
0.0
  0
POLYLINE
  5
48
330
1F
100
AcDbEntity
  8
DEFAULT
100
AcDb2dPolyline
 66
     1
 10
0.0
 20
0.0
 30
0.0
  0
VERTEX
  5
49
330
48
100
AcDbEntity
  8
DEFAULT
100
AcDbVertex
100
AcDb2dVertex
 10
34.60405852157594
 20
0.1143898113830095
 30
0.0
  0
VERTEX
  5
4A
330
48
100
AcDbEntity
  8
DEFAULT
100
AcDbVertex
100
AcDb2dVertex
 10
58.04398334222185
 20
0.1143898113830095
 30
0.0
  0
SEQEND
  5
4B
330
48
100
AcDbEntity
  8
DEFAULT
  0
SPLINE
  5
4C
330
1F
100
AcDbEntity
  8
DEFAULT
100
AcDbSpline
210
0.0
220
0.0
230
1.0
 70
    15
 71
     2
 72
    12
 73
     9
 74
     0
 42
0.0000000001
 43
0.0000000001
 40
0.0
 40
0.0
 40
0.0
 40
1.570796326794897
 40
1.570796326794897
 40
3.141592653589793
 40
3.141592653589793
 40
4.71238898038469
 40
4.71238898038469
 40
6.283185307179586
 40
6.283185307179586
 40
6.283185307179586
 10
58.04398345087412
 20
1.112800303749237
 30
0.0
 41
1.0
 10
58.16188944991185
 20
1.112800290918087
 30
0.0
 41
0.7071067811865475
 10
58.16188939558572
 20
0.6135950447349664
 30
0.0
 41
1.0
 10
58.16188934125957
 20
0.1143897985518458
 30
0.0
 41
0.7071067811865475
 10
58.04398334222185
 20
0.1143898113829958
 30
0.0
 41
1.0
 10
57.92607734318411
 20
0.1143898242141458
 30
0.0
 41
0.7071067811865475
 10
57.92607739751026
 20
0.6135950703972665
 30
0.0
 41
1.0
 10
57.92607745183638
 20
1.112800316580387
 30
0.0
 41
0.7071067811865475
 10
58.04398345087412
 20
1.112800303749237
 30
0.0
 41
1.0
  0
SPLINE
  5
4D
330
1F
100
AcDbEntity
  8
MAKE2D VISIBLE LINES
100
AcDbSpline
210
0.0
220
0.0
230
1.0
 70
    24
 71
     2
 72
     6
 73
     3
 74
     0
 42
0.0000000001
 43
0.0000000001
 40
0.0
 40
0.0
 40
0.0
 40
0.0746812472369711
 40
0.0746812472369711
 40
0.0746812472369711
 10
55.45897175429349
 20
0.1140513259771285
 30
0.0
 10
55.45897431723766
 20
0.076710702358643
 30
0.0
 10
55.45897688018184
 20
0.0393700787401574
 30
0.0
  0
SPLINE
  5
4E
330
1F
100
AcDbEntity
  8
MAKE2D VISIBLE LINES
100
AcDbSpline
210
0.0
220
0.0
230
1.0
 70
    12
 71
     2
 72
     6
 73
     3
 74
     0
 42
0.0000000001
 43
0.0000000001
 40
0.0
 40
0.0
 40
0.0
 40
0.0618384024981011
 40
0.0618384024981011
 40
0.0618384024981011
 10
55.45897688018184
 20
0.0393700787401574
 30
0.0
 41
1.0
 10
55.4589872835472
 20
0.0000069846730848
 30
0.0
 41
0.7072169093961366
 10
55.498387585157
 20
0.0000000000000016
 30
0.0
 41
1.0
  0
SPLINE
  5
4F
330
1F
100
AcDbEntity
  8
MAKE2D VISIBLE LINES
100
AcDbSpline
210
0.0
220
0.0
230
1.0
 70
    28
 71
     3
 72
    21
 73
    17
 74
     0
 42
0.0000000001
 43
0.0000000001
 40
-118.5489192183888
 40
-118.5489192183888
 40
-118.5489192183888
 40
-118.5489192183888
 40
-117.5759049582056
 40
-115.6733737233529
 40
-113.6464543811563
 40
-111.7439214306306
 40
-111.7439214306306
 40
-111.7439214306306
 40
-63.71350449785529
 40
-63.71350449785529
 40
-63.71350449785529
 40
-61.68658556639627
 40
-59.78405471756876
 40
-57.75713578642937
 40
-55.76454979741551
 40
-54.76502112284469
 40
-54.76502112284469
 40
-54.76502112284469
 40
-54.76502112284469
 10
55.498387585157
 20
0.0000000000000016
 30
0.0
 41
1.0
 10
55.49814039410425
 20
0.0
 30
0.0
 41
1.0
 10
55.50104915697786
 20
0.0
 30
0.0
 41
1.0
 10
55.5244420654045
 20
0.0
 30
0.0
 41
1.0
 10
55.578102980952
 20
0.0
 30
0.0
 41
1.0
 10
55.62602999089225
 20
0.0
 30
0.0
 41
1.0
 10
55.6503212059599
 20
0.0
 30
0.0
 41
1.0
 10
56.26365864685926
 20
0.0
 30
0.0
 41
1.0
 10
56.87699608776104
 20
0.0
 30
0.0
 41
1.0
 10
57.4903335286584
 20
0.0
 30
0.0
 41
1.0
 10
57.51621470315314
 20
0.0
 30
0.0
 41
1.0
 10
57.56879195640485
 20
0.0
 30
0.0
 41
1.0
 10
57.64309814925527
 20
0.0
 30
0.0
 41
1.0
 10
57.70067188707034
 20
0.0000000000000027
 30
0.0
 41
1.0
 10
57.72750302334869
 20
0.0000000000000004
 30
0.0
 41
1.0
 10
57.7318750637811
 20
0.0000000000000011
 30
0.0
 41
1.0
 10
57.73204237514236
 20
0.0000000000000016
 30
0.0
 41
1.0
  0
SPLINE
  5
50
330
1F
100
AcDbEntity
  8
MAKE2D VISIBLE LINES
100
AcDbSpline
210
0.0
220
0.0
230
1.0
 70
    12
 71
     2
 72
     6
 73
     3
 74
     0
 42
0.0000000001
 43
0.0000000001
 40
0.0
 40
0.0
 40
0.0
 40
0.0618392427215485
 40
0.0618392427215485
 40
0.0618392427215485
 10
57.73204237514236
 20
0.0000000000000016
 30
0.0
 41
1.0
 10
57.77141410807328
 20
0.0000057207889207
 30
0.0
 41
0.7071988888351542
 10
57.77142219540795
 20
0.0393700787401583
 30
0.0
 41
1.0
  0
SPLINE
  5
51
330
1F
100
AcDbEntity
  8
MAKE2D VISIBLE LINES
100
AcDbSpline
210
0.0
220
0.0
230
1.0
 70
    24
 71
     2
 72
     6
 73
     3
 74
     0
 42
0.0000000001
 43
0.0000000001
 40
0.0
 40
0.0
 40
0.0
 40
0.0746809811894182
 40
0.0746809811894182
 40
0.0746809811894182
 10
57.77142219540795
 20
0.0393700787401583
 30
0.0
 10
57.77142397153893
 20
0.0767105693348669
 30
0.0
 10
57.77142574766991
 20
0.1140510599295756
 30
0.0
  0
ARC
  5
52
330
1F
100
AcDbEntity
  8
MAKE2D VISIBLE LINES
100
AcDbCircle
 10
55.96031724498556
 20
5.035171280232585
 30
0.0
 40
11.43217349358146
100
AcDbArc
 50
76.16383642507134
 51
85.24442378814278
  0
SPLINE
  5
53
330
1F
100
AcDbEntity
  8
MAKE2D VISIBLE LINES
100
AcDbSpline
210
0.0
220
0.0
230
1.0
 70
     8
 71
     3
 72
    11
 73
     7
 74
     0
 42
0.0000000001
 43
0.0000000001
 40
-0.0000000000000001
 40
-0.0000000000000001
 40
-0.0000000000000001
 40
-0.0000000000000001
 40
0.3782457492017267
 40
0.7677988542385669
 40
1.609904950623919
 40
3.443603562114705
 40
3.443603562114705
 40
3.443603562114705
 40
3.443603562114705
 10
56.90810383054986
 20
16.4279888147835
 30
0.0
 10
56.7824561260403
 20
16.43844164688407
 30
0.0
 10
56.52710487147348
 20
16.45604662348836
 30
0.0
 10
55.99095550603971
 20
16.47958470823491
 30
0.0
 10
54.96890423019147
 20
16.48800996008461
 30
0.0
 10
54.077673835441
 20
16.43879895469545
 30
0.0
 10
53.4686388692075
 20
16.38757995364043
 30
0.0
  0
SPLINE
  5
54
330
1F
100
AcDbEntity
  8
DEFAULT
100
AcDbSpline
210
0.0
220
0.0
230
1.0
 70
     8
 71
     3
 72
    21
 73
    17
 74
     0
 42
0.0000000001
 43
0.0000000001
 40
0.0
 40
0.0
 40
0.0
 40
0.0
 40
12.11154955602721
 40
21.35448037751152
 40
26.18928515066488
 40
27.00393366185001
 40
27.91771959140637
 40
28.91793343690563
 40
29.87613761040233
 40
30.73991352675718
 40
32.28854670891062
 40
33.88060766677117
 40
34.33572724275709
 40
34.79363388590901
 40
35.84463560696923
 40
46.45749025838899
 40
46.45749025838899
 40
46.45749025838899
 40
46.45749025838899
 10
42.15620689983503
 20
1.114052857348682
 30
0.0
 10
40.78826316639631
 20
4.912418033332449
 30
0.0
 10
38.3770277769684
 20
11.60974197534216
 30
0.0
 10
35.42130742223253
 20
19.82390396754707
 30
0.0
 10
33.7410988266938
 20
24.49503512122696
 30
0.0
 10
33.00052619152871
 20
26.55362353646009
 30
0.0
 10
32.69404318316987
 20
27.40998332392204
 30
0.0
 10
32.36559531791791
 20
28.30928076689809
 30
0.0
 10
32.05746929263942
 20
29.19826147701045
 30
0.0
 10
31.74500784717345
 20
30.27792942602385
 30
0.0
 10
31.45226630544218
 20
31.58112483020727
 30
0.0
 10
31.28188202228644
 20
32.76868424578821
 30
0.0
 10
31.2100708585888
 20
33.60066009559781
 30
0.0
 10
31.15895387427433
 20
34.25333386554861
 30
0.0
 10
30.84432843231857
 20
38.28165381161681
 30
0.0
 10
30.54141354767622
 20
42.15778777912904
 30
0.0
 10
30.26588369430203
 20
45.6846597475277
 30
0.0
  0
SPLINE
  5
55
330
1F
100
AcDbEntity
  8
DEFAULT
100
AcDbSpline
210
0.0
220
0.0
230
1.0
 70
    24
 71
     2
 72
     6
 73
     3
 74
     0
 42
0.0000000001
 43
0.0000000001
 40
0.0
 40
0.0
 40
0.0
 40
14.65458848172202
 40
14.65458848172202
 40
14.65458848172202
 10
30.26588369430203
 20
45.6846597475277
 30
0.0
 10
37.59317797427938
 20
45.68465974751263
 30
0.0
 10
44.92047225425672
 20
45.68465974749756
 30
0.0
  0
SPLINE
  5
56
330
1F
100
AcDbEntity
  8
DEFAULT
100
AcDbSpline
210
0.0
220
0.0
230
1.0
 70
    12
 71
     2
 72
     6
 73
     3
 74
     0
 42
0.0000000001
 43
0.0000000001
 40
0.0
 40
0.0
 40
0.0
 40
1.444463378851543
 40
1.444463378851543
 40
1.444463378851543
 10
44.92047225425672
 20
45.68465974749756
 30
0.0
 41
1.0
 10
45.80802981831523
 20
45.68465418336095
 30
0.0
 41
0.7426467909362716
 10
45.89948576218518
 20
44.80182118612572
 30
0.0
 41
1.0
  0
SPLINE
  5
57
330
1F
100
AcDbEntity
  8
DEFAULT
100
AcDbSpline
210
0.0
220
0.0
230
1.0
 70
     8
 71
     3
 72
    20
 73
    16
 74
     0
 42
0.0000000001
 43
0.0000000001
 40
62.55654211896256
 40
62.55654211896256
 40
62.55654211896256
 40
62.55654211896256
 40
70.82937714191625
 40
71.17606263276232
 40
71.358576342659
 40
71.52280856556354
 40
71.73269057104241
 40
72.39872547458101
 40
73.71256575783787
 40
73.89505907252112
 40
74.04103013435142
 40
74.23266117044696
 40
74.38775337181954
 40
77.28923255353155
 40
107.8243364393106
 40
107.8243364393106
 40
107.8243364393106
 40
107.8243364393106
 10
45.89948576218518
 20
44.80182118612572
 30
0.0
 10
46.18359745334534
 20
42.05888415430467
 30
0.0
 10
46.4796949661573
 20
39.2010090922284
 30
0.0
 10
46.78194820782224
 20
36.2826074251088
 30
0.0
 10
46.80589983458943
 20
36.05270882495805
 30
0.0
 10
46.82453845057653
 20
35.86810147460206
 30
0.0
 10
46.86317179378219
 20
35.52353808714185
 30
0.0
 10
46.97188100932972
 20
34.80143980858522
 30
0.0
 10
47.13863351122825
 20
34.0990951267987
 30
0.0
 10
47.29841171937093
 20
33.57545590037319
 30
0.0
 10
47.35180381913067
 20
33.41053628085317
 30
0.0
 10
47.40330703645422
 20
33.25455901407653
 30
0.0
 10
47.76952461601481
 20
32.23563907535088
 30
0.0
 10
51.55871956758602
 20
21.69904320409248
 30
0.0
 10
55.33010410272459
 20
11.21098118557395
 30
0.0
 10
58.77443532245402
 20
1.633102648523938
 30
0.0
  0
LINE
  5
58
330
1F
100
AcDbEntity
  8
DEFAULT
100
AcDbLine
 10
58.77443532245402
 20
1.633102648523938
 30
0.0
 11
58.78105342559405
 21
1.614699253502602
 31
0.0
  0
ARC
  5
59
330
1F
100
AcDbEntity
  8
DEFAULT
100
AcDbCircle
 10
58.42817716321376
 20
1.487800303749217
 30
0.0
 40
0.375
100
AcDbArc
 50
270.0000000000315
 51
19.77925284649518
  0
POLYLINE
  5
5A
330
1F
100
AcDbEntity
  8
DEFAULT
100
AcDb2dPolyline
 66
     1
 10
0.0
 20
0.0
 30
0.0
  0
VERTEX
  5
5B
330
5A
100
AcDbEntity
  8
DEFAULT
100
AcDbVertex
100
AcDb2dVertex
 10
58.42817716321397
 20
1.112800303749217
 30
0.0
  0
VERTEX
  5
5C
330
5A
100
AcDbEntity
  8
DEFAULT
100
AcDbVertex
100
AcDb2dVertex
 10
58.04398345087412
 20
1.112800303749237
 30
0.0
  0
SEQEND
  5
5D
330
5A
100
AcDbEntity
  8
DEFAULT
  0
POLYLINE
  5
5E
330
1F
100
AcDbEntity
  8
DEFAULT
100
AcDb2dPolyline
 66
     1
 10
0.0
 20
0.0
 30
0.0
  0
VERTEX
  5
5F
330
5E
100
AcDbEntity
  8
DEFAULT
100
AcDbVertex
100
AcDb2dVertex
 10
54.88702776090713
 20
12.44329243886592
 30
0.0
  0
VERTEX
  5
60
330
5E
100
AcDbEntity
  8
DEFAULT
100
AcDbVertex
100
AcDb2dVertex
 10
58.98594288952327
 20
12.80190104537224
 30
0.0
  0
VERTEX
  5
61
330
5E
100
AcDbEntity
  8
DEFAULT
100
AcDbVertex
100
AcDb2dVertex
 10
58.69427997087942
 20
16.13562346024622
 30
0.0
  0
VERTEX
  5
62
330
5E
100
AcDbEntity
  8
DEFAULT
100
AcDbVertex
100
AcDb2dVertex
 10
53.715871770177
 20
15.70006918028279
 30
0.0
  0
SEQEND
  5
63
330
5E
100
AcDbEntity
  8
DEFAULT
  0
ARC
  5
64
330
1F
100
AcDbEntity
  8
DEFAULT
100
AcDbCircle
 10
-5.372669489467024
 20
58.95682925874277
 30
0.0
 40
10.7327426990794
100
AcDbArc
 50
180.0
 51
181.633328683278
  0
LINE
  5
65
330
1F
100
AcDbEntity
  8
DEFAULT
100
AcDbLine
 10
-16.10541218854642
 20
58.95682925874277
 30
0.0
 11
-16.10541218854642
 21
62.43998113722951
 31
0.0
  0
SPLINE
  5
66
330
1F
100
AcDbEntity
  8
DEFAULT
100
AcDbSpline
210
0.0
220
0.0
230
1.0
 70
    12
 71
     2
 72
     6
 73
     3
 74
     0
 42
0.0000000001
 43
0.0000000001
 40
-1.024411573863588
 40
-1.024411573863588
 40
-1.024411573863588
 40
0.0
 40
0.0
 40
0.0
 10
-16.10541218854642
 20
62.43998113722951
 30
0.0
 41
1.0
 10
-16.10545797440862
 20
62.95477754287643
 30
0.0
 41
0.992468584207371
 10
-15.98032775404007
 20
63.45413489919974
 30
0.0
 41
1.0
  0
SPLINE
  5
67
330
1F
100
AcDbEntity
  8
DEFAULT
100
AcDbSpline
210
0.0
220
0.0
230
1.0
 70
    12
 71
     2
 72
     6
 73
     3
 74
     0
 42
0.0000000001
 43
0.0000000001
 40
0.0
 40
0.0
 40
0.0
 40
11.0750890944551
 40
11.0750890944551
 40
11.0750890944551
 10
-15.98032775404007
 20
63.45413489919974
 30
0.0
 41
1.0
 10
-14.63323302854091
 20
68.82532990764847
 30
0.0
 41
0.9999999900770334
 10
-13.28765169707241
 20
74.19690424843762
 30
0.0
 41
1.0
  0
SPLINE
  5
68
330
1F
100
AcDbEntity
  8
DEFAULT
100
AcDbSpline
210
0.0
220
0.0
230
1.0
 70
     8
 71
     3
 72
    12
 73
     8
 74
     0
 42
0.0000000001
 43
0.0000000001
 40
0.0
 40
0.0
 40
0.0
 40
0.0
 40
0.2698874007246493
 40
0.5371579000482907
 40
1.058139490529157
 40
1.593879655244019
 40
2.103029159325583
 40
2.103029159325583
 40
2.103029159325583
 40
2.103029159325583
 10
-13.28765169707241
 20
74.19690424843762
 30
0.0
 10
-13.26583688584987
 20
74.28417924895346
 30
0.0
 10
-13.20812611610458
 20
74.45431808827887
 30
0.0
 10
-13.0419239155863
 20
74.76670228266964
 30
0.0
 10
-12.74335193003598
 20
75.09960162333638
 30
0.0
 10
-12.27983014233365
 20
75.35608261941364
 30
0.0
 10
-11.93150891145715
 20
75.41450954190971
 30
0.0
 10
-11.76180406515397
 20
75.41432363839088
 30
0.0
  0
POLYLINE
  5
69
330
1F
100
AcDbEntity
  8
DEFAULT
100
AcDb2dPolyline
 66
     1
 10
0.0
 20
0.0
 30
0.0
  0
VERTEX
  5
6A
330
69
100
AcDbEntity
  8
DEFAULT
100
AcDbVertex
100
AcDb2dVertex
 10
-11.76180406515397
 20
75.41432363839088
 30
0.0
  0
VERTEX
  5
6B
330
69
100
AcDbEntity
  8
DEFAULT
100
AcDbVertex
100
AcDb2dVertex
 10
11.76180406515397
 20
75.41432363839088
 30
0.0
  0
SEQEND
  5
6C
330
69
100
AcDbEntity
  8
DEFAULT
  0
SPLINE
  5
6D
330
1F
100
AcDbEntity
  8
DEFAULT
100
AcDbSpline
210
0.0
220
0.0
230
1.0
 70
     8
 71
     3
 72
    12
 73
     8
 74
     0
 42
0.0000000001
 43
0.0000000001
 40
-2.103029159325583
 40
-2.103029159325583
 40
-2.103029159325583
 40
-2.103029159325583
 40
-1.593879655244019
 40
-1.058139490529157
 40
-0.5371579000482907
 40
-0.2698874007246493
 40
0.0
 40
0.0
 40
0.0
 40
0.0
 10
11.76180406515397
 20
75.41432363839088
 30
0.0
 10
11.93150891145715
 20
75.41450954190971
 30
0.0
 10
12.27983014233365
 20
75.35608261941364
 30
0.0
 10
12.74335193003598
 20
75.09960162333638
 30
0.0
 10
13.0419239155863
 20
74.76670228266964
 30
0.0
 10
13.20812611610458
 20
74.45431808827887
 30
0.0
 10
13.26583688584987
 20
74.28417924895346
 30
0.0
 10
13.28765169707241
 20
74.19690424843762
 30
0.0
  0
SPLINE
  5
6E
330
1F
100
AcDbEntity
  8
DEFAULT
100
AcDbSpline
210
0.0
220
0.0
230
1.0
 70
    12
 71
     2
 72
     6
 73
     3
 74
     0
 42
0.0000000001
 43
0.0000000001
 40
-11.0750890944551
 40
-11.0750890944551
 40
-11.0750890944551
 40
0.0
 40
0.0
 40
0.0
 10
13.28765169707241
 20
74.19690424843762
 30
0.0
 41
1.0
 10
14.63323302854091
 20
68.82532990764847
 30
0.0
 41
0.9999999900770334
 10
15.98032775404007
 20
63.45413489919974
 30
0.0
 41
1.0
  0
SPLINE
  5
6F
330
1F
100
AcDbEntity
  8
DEFAULT
100
AcDbSpline
210
0.0
220
0.0
230
1.0
 70
    12
 71
     2
 72
     6
 73
     3
 74
     0
 42
0.0000000001
 43
0.0000000001
 40
0.0
 40
0.0
 40
0.0
 40
1.024411573863588
 40
1.024411573863588
 40
1.024411573863588
 10
15.98032775404007
 20
63.45413489919974
 30
0.0
 41
1.0
 10
16.10545797440862
 20
62.95477754287643
 30
0.0
 41
0.992468584207371
 10
16.10541218854642
 20
62.43998113722951
 30
0.0
 41
1.0
  0
LINE
  5
70
330
1F
100
AcDbEntity
  8
DEFAULT
100
AcDbLine
 10
16.10541218854642
 20
62.43998113722951
 30
0.0
 11
16.10541218854642
 21
58.95682925874277
 31
0.0
  0
ARC
  5
71
330
1F
100
AcDbEntity
  8
DEFAULT
100
AcDbCircle
 10
5.372669489467024
 20
58.95682925874277
 30
0.0
 40
10.7327426990794
100
AcDbArc
 50
358.366671316722
 51
0.0
  0
SPLINE
  5
72
330
1F
100
AcDbEntity
  8
DEFAULT
100
AcDbSpline
210
0.0
220
0.0
230
1.0
 70
    12
 71
     2
 72
     6
 73
     3
 74
     0
 42
0.0000000001
 43
0.0000000001
 40
0.0
 40
0.0
 40
0.0
 40
1.528861405710775
 40
1.528861405710775
 40
1.528861405710775
 10
16.10105151852332
 20
58.65091279422334
 30
0.0
 41
1.0
 10
16.08508270347397
 20
57.68286285602395
 30
0.0
 41
0.7122632569174354
 10
15.11690273204152
 20
57.68465974749756
 30
0.0
 41
1.0
  0
SPLINE
  5
73
330
1F
100
AcDbEntity
  8
DEFAULT
100
AcDbSpline
210
0.0
220
0.0
230
1.0
 70
    24
 71
     2
 72
     6
 73
     3
 74
     0
 42
0.0000000001
 43
0.0000000001
 40
-30.23380546408303
 40
-30.23380546408303
 40
-30.23380546408303
 40
0.0
 40
0.0
 40
0.0
 10
15.11690273204152
 20
57.68465974749756
 30
0.0
 10
0.0000000000000098
 20
57.68465974749756
 30
0.0
 10
-15.1169027320415
 20
57.68465974749756
 30
0.0
  0
SPLINE
  5
74
330
1F
100
AcDbEntity
  8
DEFAULT
100
AcDbSpline
210
0.0
220
0.0
230
1.0
 70
    12
 71
     2
 72
     6
 73
     3
 74
     0
 42
0.0000000001
 43
0.0000000001
 40
-1.528861405710775
 40
-1.528861405710775
 40
-1.528861405710775
 40
0.0
 40
0.0
 40
0.0
 10
-15.1169027320415
 20
57.68465974749756
 30
0.0
 41
1.0
 10
-16.08508270347397
 20
57.68286285602395
 30
0.0
 41
0.7122632569174354
 10
-16.10105151852332
 20
58.65091279422334
 30
0.0
 41
1.0
  0
SPLINE
  5
75
330
1F
100
AcDbEntity
  8
MAKE2D VISIBLE LINES
100
AcDbSpline
210
0.0
220
0.0
230
1.0
 70
    24
 71
     2
 72
     6
 73
     3
 74
     0
 42
0.0000000001
 43
0.0000000001
 40
0.0
 40
0.0
 40
0.0
 40
22.8300511832188
 40
22.8300511832188
 40
22.8300511832188
 10
11.41502486455857
 20
84.63306535861173
 30
0.0
 10
-0.0000007270508267
 20
84.6330652264383
 30
0.0
 10
-11.41502631866022
 20
84.63306509426488
 30
0.0
  0
SPLINE
  5
76
330
1F
100
AcDbEntity
  8
DEFAULT
100
AcDbSpline
210
0.0
220
0.0
230
1.0
 70
    12
 71
     2
 72
     6
 73
     3
 74
     0
 42
0.0000000001
 43
0.0000000001
 40
-1.543116312573781
 40
-1.543116312573781
 40
-1.543116312573781
 40
0.0
 40
0.0
 40
0.0
 10
-16.10541218854642
 20
58.95682925874277
 30
0.0
 41
1.0
 10
-16.10352774693775
 20
57.9744609789817
 30
0.0
 41
0.7071149704430493
 10
-15.12115942379118
 20
57.97632266614141
 30
0.0
 41
1.0
  0
POLYLINE
  5
77
330
1F
100
AcDbEntity
  8
DEFAULT
100
AcDb2dPolyline
 66
     1
 10
0.0
 20
0.0
 30
0.0
  0
VERTEX
  5
78
330
77
100
AcDbEntity
  8
DEFAULT
100
AcDbVertex
100
AcDb2dVertex
 10
-15.12115942379118
 20
57.97632266614141
 30
0.0
  0
VERTEX
  5
79
330
77
100
AcDbEntity
  8
DEFAULT
100
AcDbVertex
100
AcDb2dVertex
 10
15.12115942379118
 20
57.97632266614141
 30
0.0
  0
SEQEND
  5
7A
330
77
100
AcDbEntity
  8
DEFAULT
  0
SPLINE
  5
7B
330
1F
100
AcDbEntity
  8
DEFAULT
100
AcDbSpline
210
0.0
220
0.0
230
1.0
 70
    12
 71
     2
 72
     6
 73
     3
 74
     0
 42
0.0000000001
 43
0.0000000001
 40
0.0
 40
0.0
 40
0.0
 40
1.543116312573781
 40
1.543116312573781
 40
1.543116312573781
 10
15.12115942379118
 20
57.97632266614141
 30
0.0
 41
1.0
 10
16.10352774693775
 20
57.9744609789817
 30
0.0
 41
0.7071149704430493
 10
16.10541218854642
 20
58.95682925874277
 30
0.0
 41
1.0
  0
SPLINE
  5
7C
330
1F
100
AcDbEntity
  8
DEFAULT
100
AcDbSpline
210
0.0
220
0.0
230
1.0
 70
     8
 71
     3
 72
    15
 73
    11
 74
     0
 42
0.0000000001
 43
0.0000000001
 40
0.0
 40
0.0
 40
0.0
 40
0.0
 40
0.252335153074794
 40
0.4689532036586647
 40
0.9168497069804533
 40
1.828589506460623
 40
2.56018097625214
 40
2.745314070979353
 40
2.817666828013099
 40
4.017719723112109
 40
4.017719723112109
 40
4.017719723112109
 40
4.017719723112109
 10
-11.41502631866022
 20
84.63306509426488
 30
0.0
 10
-11.49903511314423
 20
84.63312117928558
 30
0.0
 10
-11.65581238805421
 20
84.63493243661262
 30
0.0
 10
-11.95941764054073
 20
84.59777874727112
 30
0.0
 10
-12.4671757433247
 20
84.44873076321564
 30
0.0
 10
-13.04380648416292
 20
84.02489416639358
 30
0.0
 10
-13.35240207827037
 20
83.48666061812223
 30
0.0
 10
-13.44506034700436
 20
83.17001623060908
 30
0.0
 10
-13.5587218610511
 20
82.69759289971778
 30
0.0
 10
-13.65974772991843
 20
82.28571197533194
 30
0.0
 10
-13.75391999926649
 20
81.89692055219999
 30
0.0
  0
LINE
  5
7D
330
1F
100
AcDbEntity
  8
DEFAULT
100
AcDbLine
 10
-13.75391999926649
 20
81.89692055219999
 30
0.0
 11
-16.21998688082299
 21
71.75013046088225
 31
0.0
  0
SPLINE
  5
7E
330
1F
100
AcDbEntity
  8
DEFAULT
100
AcDbSpline
210
0.0
220
0.0
230
1.0
 70
     8
 71
     3
 72
     8
 73
     4
 74
     0
 42
0.0000000001
 43
0.0000000001
 40
0.0
 40
0.0
 40
0.0
 40
0.0
 40
1.0
 40
1.0
 40
1.0
 40
1.0
 10
-16.21998688082299
 20
71.75013046088225
 30
0.0
 10
-16.42527598528892
 20
70.90545574511758
 30
0.0
 10
-16.51008288871167
 20
70.02778916458225
 30
0.0
 10
-16.51008277449181
 20
69.15852568791678
 30
0.0
  0
LINE
  5
7F
330
1F
100
AcDbEntity
  8
DEFAULT
100
AcDbLine
 10
-16.51008277449181
 20
69.15852568791678
 30
0.0
 11
-16.51008034194948
 21
57.87294115590807
 31
0.0
  0
LINE
  5
80
330
1F
100
AcDbEntity
  8
MAKE2D VISIBLE LINES
100
AcDbLine
 10
-16.51008034194937
 20
57.87294115590821
 30
0.0
 11
-18.33330861482426
 21
57.87294115543304
 31
0.0
  0
SPLINE
  5
81
330
1F
100
AcDbEntity
  8
DEFAULT
100
AcDbSpline
210
0.0
220
0.0
230
1.0
 70
     8
 71
     3
 72
    15
 73
    11
 74
     0
 42
0.0000000001
 43
0.0000000001
 40
0.0
 40
0.0
 40
0.0
 40
0.0
 40
0.252335153074794
 40
0.4689532036586647
 40
0.9168497069804533
 40
1.828589506460623
 40
2.56018097625214
 40
2.745314070979353
 40
2.817666828013099
 40
4.017719723112109
 40
4.017719723112109
 40
4.017719723112109
 40
4.017719723112109
 10
11.41502631866022
 20
84.63306509426488
 30
0.0
 10
11.49903511314423
 20
84.63312117928558
 30
0.0
 10
11.65581238805421
 20
84.63493243661262
 30
0.0
 10
11.95941764054073
 20
84.59777874727112
 30
0.0
 10
12.4671757433247
 20
84.44873076321564
 30
0.0
 10
13.04380648416292
 20
84.02489416639358
 30
0.0
 10
13.35240207827037
 20
83.48666061812223
 30
0.0
 10
13.44506034700436
 20
83.17001623060908
 30
0.0
 10
13.5587218610511
 20
82.69759289971778
 30
0.0
 10
13.65974772991843
 20
82.28571197533194
 30
0.0
 10
13.75391999926649
 20
81.89692055219999
 30
0.0
  0
LINE
  5
82
330
1F
100
AcDbEntity
  8
DEFAULT
100
AcDbLine
 10
13.75391999926649
 20
81.89692055219999
 30
0.0
 11
16.21998688082299
 21
71.75013046088225
 31
0.0
  0
SPLINE
  5
83
330
1F
100
AcDbEntity
  8
DEFAULT
100
AcDbSpline
210
0.0
220
0.0
230
1.0
 70
     8
 71
     3
 72
     8
 73
     4
 74
     0
 42
0.0000000001
 43
0.0000000001
 40
0.0
 40
0.0
 40
0.0
 40
0.0
 40
1.0
 40
1.0
 40
1.0
 40
1.0
 10
16.21998688082299
 20
71.75013046088225
 30
0.0
 10
16.42527598528892
 20
70.90545574511758
 30
0.0
 10
16.51008288871167
 20
70.02778916458225
 30
0.0
 10
16.51008277449181
 20
69.15852568791678
 30
0.0
  0
LINE
  5
84
330
1F
100
AcDbEntity
  8
DEFAULT
100
AcDbLine
 10
16.51008277449181
 20
69.15852568791678
 30
0.0
 11
16.51008034194948
 21
57.87294115590807
 31
0.0
  0
LINE
  5
85
330
1F
100
AcDbEntity
  8
MAKE2D VISIBLE LINES
100
AcDbLine
 10
16.51008034194937
 20
57.87294115590821
 30
0.0
 11
18.33330861482426
 21
57.87294115543304
 31
0.0
  0
ARC
  5
86
330
1F
100
AcDbEntity
  8
DEFAULT
100
AcDbCircle
 10
-18.00658894527613
 20
59.22599353432817
 30
0.0
 40
2.017495660114024
100
AcDbArc
 50
317.8820239053262
 51
341.1771763160927
  0
ARC
  5
87
330
1F
100
AcDbEntity
  8
DEFAULT
100
AcDbCircle
 10
18.00658894527613
 20
59.22599353432817
 30
0.0
 40
2.017495660114024
100
AcDbArc
 50
198.8228236839073
 51
222.1179760946738
  0
LINE
  5
88
330
1F
100
AcDbEntity
  8
MAKE2D VISIBLE LINES
100
AcDbLine
 10
18.3333086148243
 20
57.87294115543351
 30
0.0
 11
18.33330824184015
 21
57.89616731456687
 31
0.0
  0
SPLINE
  5
89
330
1F
100
AcDbEntity
  8
MAKE2D VISIBLE LINES
100
AcDbSpline
210
0.0
220
0.0
230
1.0
 70
     8
 71
     3
 72
    15
 73
    11
 74
     0
 42
0.0000000001
 43
0.0000000001
 40
0.0
 40
0.0
 40
0.0
 40
0.0
 40
11.31464687681096
 40
11.5252394103658
 40
11.77346288576762
 40
11.92769600453519
 40
11.95123536365562
 40
11.96819481050687
 40
11.98703814080865
 40
12.87697370814421
 40
12.87697370814421
 40
12.87697370814421
 40
12.87697370814421
 10
18.33330824184015
 20
57.89616731456687
 30
0.0
 10
18.33324767530284
 20
61.66771647386111
 30
0.0
 10
18.33339342370543
 20
65.50946247343842
 30
0.0
 10
18.33327306957927
 20
69.43395047766938
 30
0.0
 10
18.33084175226667
 20
69.63829229213486
 30
0.0
 10
18.32762842511598
 20
69.78025943304104
 30
0.0
 10
18.32402819724192
 20
69.84508108018
 30
0.0
 10
18.32272702210917
 20
69.86481662025858
 30
0.0
 10
18.30304437344083
 20
70.17276864859416
 30
0.0
 10
18.28370104513875
 20
70.47507570315138
 30
0.0
 10
18.26477406651365
 20
70.77111687483566
 30
0.0
  0
SPLINE
  5
8A
330
1F
100
AcDbEntity
  8
MAKE2D VISIBLE LINES
100
AcDbSpline
210
0.0
220
0.0
230
1.0
 70
     8
 71
     3
 72
    12
 73
     8
 74
     0
 42
0.0000000001
 43
0.0000000001
 40
-1.003954812836238
 40
-1.003954812836238
 40
-1.003954812836238
 40
-1.003954812836238
 40
-0.968194420448081
 40
-0.9025388437811828
 40
-0.6771570439934284
 40
-0.3591947077625499
 40
0.0
 40
0.0
 40
0.0
 40
0.0
 10
18.26477406651365
 20
70.77111687483566
 30
0.0
 10
18.26364583144813
 20
70.78298760212627
 30
0.0
 10
18.25795131673027
 20
70.81632473719453
 30
0.0
 10
18.23634820271922
 20
70.92309549089161
 30
0.0
 10
18.19224871200253
 20
71.1212562515373
 30
0.0
 10
18.1241495996419
 20
71.41429226906448
 30
0.0
 10
18.07147649619582
 20
71.63378327383147
 30
0.0
 10
18.04321320774757
 20
71.75013030453144
 30
0.0
  0
SPLINE
  5
8B
330
1F
100
AcDbEntity
  8
MAKE2D VISIBLE LINES
100
AcDbSpline
210
0.0
220
0.0
230
1.0
 70
    12
 71
     2
 72
     8
 73
     5
 74
     0
 42
0.0000000001
 43
0.0000000001
 40
-313.3687988441389
 40
-313.3687988441389
 40
-313.3687988441389
 40
-4.983425109572571
 40
-4.983425109572571
 40
0.0
 40
0.0
 40
0.0
 10
18.04321320774757
 20
71.75013030453144
 30
0.0
 41
1.0
 10
16.6095609866889
 20
77.64925414901401
 30
0.0
 41
1.0
 10
15.17590876563024
 20
83.54837799349657
 30
0.0
 41
1.0
 10
14.48163873592802
 20
86.40532032710588
 30
0.0
 41
0.7861849179442999
 10
11.54154852738708
 20
86.40507172017864
 30
0.0
 41
0.9999999980078482
  0
SPLINE
  5
8C
330
1F
100
AcDbEntity
  8
MAKE2D VISIBLE LINES
100
AcDbSpline
210
0.0
220
0.0
230
1.0
 70
    24
 71
     2
 72
     6
 73
     3
 74
     0
 42
0.0000000001
 43
0.0000000001
 40
0.0
 40
0.0
 40
0.0
 40
23.08309706555711
 40
23.08309706555711
 40
23.08309706555711
 10
11.54154852738708
 20
86.40507172017865
 30
0.0
 10
0.0000000045184683
 20
86.40524810890858
 30
0.0
 10
-11.54154851835015
 20
86.4054244976385
 30
0.0
  0
SPLINE
  5
8D
330
1F
100
AcDbEntity
  8
MAKE2D VISIBLE LINES
100
AcDbSpline
210
0.0
220
0.0
230
1.0
 70
    12
 71
     2
 72
     8
 73
     5
 74
     0
 42
0.0000000001
 43
0.0000000001
 40
0.0
 40
0.0
 40
0.0
 40
4.98342513241909
 40
4.98342513241909
 40
313.3687988441389
 40
313.3687988441389
 40
313.3687988441389
 10
-11.54154851835015
 20
86.4054244976385
 30
0.0
 41
1.0
 10
-14.48163873181409
 20
86.40532034403486
 30
0.0
 41
0.786184916948224
 10
-15.17590876563024
 20
83.54837799349657
 30
0.0
 41
1.0
 10
-16.6095609866889
 20
77.64925414901401
 30
0.0
 41
1.0
 10
-18.04321320774757
 20
71.75013030453144
 30
0.0
 41
1.0
  0
SPLINE
  5
8E
330
1F
100
AcDbEntity
  8
MAKE2D VISIBLE LINES
100
AcDbSpline
210
0.0
220
0.0
230
1.0
 70
     8
 71
     3
 72
    12
 73
     8
 74
     0
 42
0.0000000001
 43
0.0000000001
 40
0.0
 40
0.0
 40
0.0
 40
0.0
 40
0.3591947077625499
 40
0.6771570439934284
 40
0.9025388437811828
 40
0.968194420448081
 40
1.003954812836238
 40
1.003954812836238
 40
1.003954812836238
 40
1.003954812836238
 10
-18.04321320774757
 20
71.75013030453144
 30
0.0
 10
-18.07147649619582
 20
71.63378327383147
 30
0.0
 10
-18.1241495996419
 20
71.41429226906448
 30
0.0
 10
-18.19224871200253
 20
71.1212562515373
 30
0.0
 10
-18.23634820271922
 20
70.92309549089161
 30
0.0
 10
-18.25795131673027
 20
70.81632473719453
 30
0.0
 10
-18.26364583144813
 20
70.78298760212627
 30
0.0
 10
-18.26477406651365
 20
70.77111687483566
 30
0.0
  0
SPLINE
  5
8F
330
1F
100
AcDbEntity
  8
MAKE2D VISIBLE LINES
100
AcDbSpline
210
0.0
220
0.0
230
1.0
 70
     8
 71
     3
 72
    15
 73
    11
 74
     0
 42
0.0000000001
 43
0.0000000001
 40
664.7055780876516
 40
664.7055780876516
 40
664.7055780876516
 40
664.7055780876516
 40
665.5955136549871
 40
665.614356985289
 40
665.6313164321401
 40
665.6548557912606
 40
665.8090889100282
 40
666.05731238543
 40
666.2679049189849
 40
677.5825517957958
 40
677.5825517957958
 40
677.5825517957958
 40
677.5825517957958
 10
-18.26477406651365
 20
70.77111687483566
 30
0.0
 10
-18.28370104513875
 20
70.47507570315138
 30
0.0
 10
-18.30304437344083
 20
70.17276864859416
 30
0.0
 10
-18.32272702210917
 20
69.86481662025858
 30
0.0
 10
-18.32402819724192
 20
69.84508108018
 30
0.0
 10
-18.32762842511598
 20
69.78025943304104
 30
0.0
 10
-18.33084175226667
 20
69.63829229213486
 30
0.0
 10
-18.33327306957927
 20
69.43395047766938
 30
0.0
 10
-18.33339342370543
 20
65.50946247343842
 30
0.0
 10
-18.33324767530295
 20
61.66771647386111
 30
0.0
 10
-18.33330824184015
 20
57.89616731456687
 30
0.0
  0
LINE
  5
90
330
1F
100
AcDbEntity
  8
MAKE2D VISIBLE LINES
100
AcDbLine
 10
-18.33330824184015
 20
57.89616731456687
 30
0.0
 11
-18.3333086148243
 21
57.8729411554326
 31
0.0
  0
SPLINE
  5
91
330
1F
100
AcDbEntity
  8
DEFAULT
100
AcDbSpline
210
0.0
220
0.0
230
1.0
 70
     8
 71
     3
 72
    12
 73
     8
 74
     0
 42
0.0000000001
 43
0.0000000001
 40
-4.238728791244198
 40
-4.238728791244198
 40
-4.238728791244198
 40
-4.238728791244198
 40
-3.357663490972111
 40
-2.361487199494501
 40
-1.248923902521105
 40
-0.6421229735298245
 40
0.0
 40
0.0
 40
0.0
 40
0.0
 10
16.01914634044893
 20
16.08536290363019
 30
0.0
 10
15.7327963223083
 20
16.15071163964815
 30
0.0
 10
15.11688409944651
 20
16.26339485393495
 30
0.0
 10
14.12665389914697
 20
16.37945964179647
 30
0.0
 10
13.22328070803051
 20
16.4398229227769
 30
0.0
 10
12.43661871162482
 20
16.46881332635377
 30
0.0
 10
12.02036762851402
 20
16.47659354392417
 30
0.0
 10
11.80633765981234
 20
16.4787834376064
 30
0.0
  0
POLYLINE
  5
92
330
1F
100
AcDbEntity
  8
DEFAULT
100
AcDb2dPolyline
 66
     1
 10
0.0
 20
0.0
 30
0.0
  0
VERTEX
  5
93
330
92
100
AcDbEntity
  8
DEFAULT
100
AcDbVertex
100
AcDb2dVertex
 10
11.80633765981234
 20
16.4787834376064
 30
0.0
  0
VERTEX
  5
94
330
92
100
AcDbEntity
  8
DEFAULT
100
AcDbVertex
100
AcDb2dVertex
 10
-11.80633765981234
 20
16.4787834376064
 30
0.0
  0
SEQEND
  5
95
330
92
100
AcDbEntity
  8
DEFAULT
  0
SPLINE
  5
96
330
1F
100
AcDbEntity
  8
DEFAULT
100
AcDbSpline
210
0.0
220
0.0
230
1.0
 70
     8
 71
     3
 72
    12
 73
     8
 74
     0
 42
0.0000000001
 43
0.0000000001
 40
0.0
 40
0.0
 40
0.0
 40
0.0
 40
0.6421229735298245
 40
1.248923902521105
 40
2.361487199494501
 40
3.357663490972111
 40
4.238728791244198
 40
4.238728791244198
 40
4.238728791244198
 40
4.238728791244198
 10
-11.80633765981234
 20
16.4787834376064
 30
0.0
 10
-12.02036762851402
 20
16.47659354392417
 30
0.0
 10
-12.43661871162482
 20
16.46881332635377
 30
0.0
 10
-13.22328070803051
 20
16.4398229227769
 30
0.0
 10
-14.12665389914697
 20
16.37945964179647
 30
0.0
 10
-15.11688409944651
 20
16.26339485393495
 30
0.0
 10
-15.7327963223083
 20
16.15071163964815
 30
0.0
 10
-16.01914634044893
 20
16.08536290363019
 30
0.0
  0
SPLINE
  5
97
330
1F
100
AcDbEntity
  8
DEFAULT
100
AcDbSpline
210
0.0
220
0.0
230
1.0
 70
    24
 71
     2
 72
     6
 73
     3
 74
     0
 42
0.0000000001
 43
0.0000000001
 40
0.0
 40
0.0
 40
0.0
 40
3.330253879577617
 40
3.330253879577617
 40
3.330253879577617
 10
-16.10116032684872
 20
12.71958908356135
 30
0.0
 10
-16.10328625769759
 20
14.38471466622125
 30
0.0
 10
-16.10541218854645
 20
16.04984024888115
 30
0.0
  0
SPLINE
  5
98
330
1F
100
AcDbEntity
  8
DEFAULT
100
AcDbSpline
210
0.0
220
0.0
230
1.0
 70
     8
 71
     3
 72
    15
 73
    11
 74
     0
 42
0.0000000001
 43
0.0000000001
 40
-0.9967123571925918
 40
-0.9967123571925918
 40
-0.9967123571925918
 40
-0.9967123571925918
 40
-0.986887873122101
 40
-0.9702863237342946
 40
-0.9108892876516979
 40
-0.8174920585163066
 40
-0.6966202966695829
 40
-0.3791127757956199
 40
-0.1919450370230348
 40
0.0
 40
0.0
 40
0.0
 40
0.0
 10
-16.10541218854645
 20
16.04984024888115
 30
0.0
 10
-16.10534727658951
 20
16.05325058263072
 30
0.0
 10
-16.09958986080622
 20
16.06050525864386
 30
0.0
 10
-16.07361640320591
 20
16.07296431796525
 30
0.0
 10
-16.01855059617477
 20
16.08614154570349
 30
0.0
 10
-15.9283591592834
 20
16.09986870891295
 30
0.0
 10
-15.75192428499256
 20
16.1175210282392
 30
0.0
 10
-15.54364017315425
 20
16.12841303982765
 30
0.0
 10
-15.31151763512966
 20
16.13462067510531
 30
0.0
 10
-15.18513837030919
 20
16.13559071805118
 30
0.0
 10
-15.1211594237912
 20
16.13562346024622
 30
0.0
  0
POLYLINE
  5
99
330
1F
100
AcDbEntity
  8
DEFAULT
100
AcDb2dPolyline
 66
     1
 10
0.0
 20
0.0
 30
0.0
  0
VERTEX
  5
9A
330
99
100
AcDbEntity
  8
DEFAULT
100
AcDbVertex
100
AcDb2dVertex
 10
-15.1211594237912
 20
16.13562346024622
 30
0.0
  0
VERTEX
  5
9B
330
99
100
AcDbEntity
  8
DEFAULT
100
AcDbVertex
100
AcDb2dVertex
 10
15.1211594237912
 20
16.13562346024622
 30
0.0
  0
SEQEND
  5
9C
330
99
100
AcDbEntity
  8
DEFAULT
  0
SPLINE
  5
9D
330
1F
100
AcDbEntity
  8
DEFAULT
100
AcDbSpline
210
0.0
220
0.0
230
1.0
 70
     8
 71
     3
 72
    15
 73
    11
 74
     0
 42
0.0000000001
 43
0.0000000001
 40
0.0
 40
0.0
 40
0.0
 40
0.0
 40
0.1919450370230348
 40
0.3791127757956199
 40
0.6966202966695829
 40
0.8174920585163066
 40
0.9108892876516979
 40
0.9702863237342946
 40
0.986887873122101
 40
0.9967123571925918
 40
0.9967123571925918
 40
0.9967123571925918
 40
0.9967123571925918
 10
15.1211594237912
 20
16.13562346024622
 30
0.0
 10
15.18513837030919
 20
16.13559071805118
 30
0.0
 10
15.31151763512966
 20
16.13462067510531
 30
0.0
 10
15.54364017315425
 20
16.12841303982765
 30
0.0
 10
15.75192428499256
 20
16.1175210282392
 30
0.0
 10
15.9283591592834
 20
16.09986870891295
 30
0.0
 10
16.01855059617477
 20
16.08614154570349
 30
0.0
 10
16.07361640320591
 20
16.07296431796525
 30
0.0
 10
16.09958986080622
 20
16.06050525864386
 30
0.0
 10
16.10534727658951
 20
16.05325058263072
 30
0.0
 10
16.10541218854645
 20
16.04984024888115
 30
0.0
  0
SPLINE
  5
9E
330
1F
100
AcDbEntity
  8
DEFAULT
100
AcDbSpline
210
0.0
220
0.0
230
1.0
 70
    24
 71
     2
 72
     6
 73
     3
 74
     0
 42
0.0000000001
 43
0.0000000001
 40
-3.330253879577617
 40
-3.330253879577617
 40
-3.330253879577617
 40
0.0
 40
0.0
 40
0.0
 10
16.10541218854645
 20
16.04984024888115
 30
0.0
 10
16.10328625769759
 20
14.38471466622125
 30
0.0
 10
16.10116032684872
 20
12.71958908356135
 30
0.0
  0
SPLINE
  5
9F
330
1F
100
AcDbEntity
  8
MAKE2D VISIBLE LINES
100
AcDbSpline
210
0.0
220
0.0
230
1.0
 70
     8
 71
     2
 72
    13
 73
    10
 74
     0
 42
0.0000000001
 43
0.0000000001
 40
-8.0
 40
-8.0
 40
-8.0
 40
-7.0
 40
-6.0
 40
-5.0
 40
-4.0
 40
-3.0
 40
-2.0
 40
-1.0
 40
0.0
 40
0.0
 40
0.0
 10
-16.10115589495664
 20
12.71611782440838
 30
0.0
 10
-16.05162522827163
 20
12.75083386035528
 30
0.0
 10
-15.92507585182364
 20
12.76521388850496
 30
0.0
 10
-15.80165101745329
 20
12.77825766239818
 30
0.0
 10
-15.67727211343043
 20
12.78696746943949
 30
0.0
 10
-15.55285442538517
 20
12.79326158624595
 30
0.0
 10
-15.42833851886261
 20
12.79767019559936
 30
0.0
 10
-15.30378146322898
 20
12.80054844094401
 30
0.0
 10
-15.17919784998832
 20
12.80188010626933
 30
0.0
 10
-15.11690273204152
 20
12.80190104537224
 30
0.0
  0
SPLINE
  5
A0
330
1F
100
AcDbEntity
  8
MAKE2D VISIBLE LINES
100
AcDbSpline
210
0.0
220
0.0
230
1.0
 70
    24
 71
     2
 72
     6
 73
     3
 74
     0
 42
0.0000000001
 43
0.0000000001
 40
0.0
 40
0.0
 40
0.0
 40
30.23380546408303
 40
30.23380546408303
 40
30.23380546408303
 10
-15.11690273204152
 20
12.80190104537224
 30
0.0
 10
0.0000000000000098
 20
12.80190104537224
 30
0.0
 10
15.11690273204153
 20
12.80190104537224
 30
0.0
  0
SPLINE
  5
A1
330
1F
100
AcDbEntity
  8
MAKE2D VISIBLE LINES
100
AcDbSpline
210
0.0
220
0.0
230
1.0
 70
     8
 71
     2
 72
    13
 73
    10
 74
     0
 42
0.0000000001
 43
0.0000000001
 40
0.0
 40
0.0
 40
0.0
 40
1.0
 40
2.0
 40
3.0
 40
4.0
 40
5.0
 40
6.0
 40
7.0
 40
8.0
 40
8.0
 40
8.0
 10
15.11690273204153
 20
12.80190104537224
 30
0.0
 10
15.17919784998832
 20
12.80188010626933
 30
0.0
 10
15.30378146322898
 20
12.80054844094401
 30
0.0
 10
15.42833851886261
 20
12.79767019559936
 30
0.0
 10
15.55285442538517
 20
12.79326158624595
 30
0.0
 10
15.67727211343043
 20
12.78696746943949
 30
0.0
 10
15.80165101745329
 20
12.77825766239818
 30
0.0
 10
15.92507585182364
 20
12.76521388850496
 30
0.0
 10
16.05162522827163
 20
12.75083386035528
 30
0.0
 10
16.10115589495664
 20
12.71611782440838
 30
0.0
  0
SPLINE
  5
A2
330
1F
100
AcDbEntity
  8
MAKE2D VISIBLE LINES
100
AcDbSpline
210
0.0
220
0.0
230
1.0
 70
    12
 71
     2
 72
     6
 73
     3
 74
     0
 42
0.0000000001
 43
0.0000000001
 40
0.0
 40
0.0
 40
0.0
 40
2.846176978379487
 40
2.846176978379487
 40
2.846176978379487
 10
16.10115589495664
 20
12.71611782440838
 30
0.0
 41
1.0
 10
14.63415248699667
 20
11.92912994807867
 30
0.0
 41
0.9999995484713745
 10
13.29026793201677
 20
11.46098854829889
 30
0.0
 41
1.0
  0
SPLINE
  5
A3
330
1F
100
AcDbEntity
  8
MAKE2D VISIBLE LINES
100
AcDbSpline
210
0.0
220
0.0
230
1.0
 70
     8
 71
     3
 72
    12
 73
     8
 74
     0
 42
0.0000000001
 43
0.0000000001
 40
0.0
 40
0.0
 40
0.0
 40
0.0
 40
0.0855566573980169
 40
0.2128366990330118
 40
0.5668501243882164
 40
1.024424558733517
 40
1.532030259689533
 40
1.532030259689533
 40
1.532030259689533
 40
1.532030259689533
 10
13.29026793201677
 20
11.46098854829889
 30
0.0
 10
13.26324312421688
 20
11.45182994961873
 30
0.0
 10
13.19417347726329
 20
11.43520218043444
 30
0.0
 10
13.00733875909397
 20
11.40637146138072
 30
0.0
 10
12.69543499248944
 20
11.37907319791964
 30
0.0
 10
12.25612915960701
 20
11.35892449835081
 30
0.0
 10
11.93437731096089
 20
11.35446532221923
 30
0.0
 10
11.76518249435355
 20
11.35442448925886
 30
0.0
  0
SPLINE
  5
A4
330
1F
100
AcDbEntity
  8
MAKE2D VISIBLE LINES
100
AcDbSpline
210
0.0
220
0.0
230
1.0
 70
    24
 71
     2
 72
     6
 73
     3
 74
     0
 42
0.0000000001
 43
0.0000000001
 40
0.0
 40
0.0
 40
0.0
 40
23.53036498870706
 40
23.53036498870706
 40
23.53036498870706
 10
11.76518249435355
 20
11.35442448925886
 30
0.0
 10
0.0000000000000107
 20
11.35442448925886
 30
0.0
 10
-11.76518249435353
 20
11.35442448925886
 30
0.0
  0
SPLINE
  5
A5
330
1F
100
AcDbEntity
  8
MAKE2D VISIBLE LINES
100
AcDbSpline
210
0.0
220
0.0
230
1.0
 70
     8
 71
     3
 72
    12
 73
     8
 74
     0
 42
0.0000000001
 43
0.0000000001
 40
-1.532030259689533
 40
-1.532030259689533
 40
-1.532030259689533
 40
-1.532030259689533
 40
-1.024424558733517
 40
-0.5668501243882164
 40
-0.2128366990330118
 40
-0.0855566573980169
 40
0.0
 40
0.0
 40
0.0
 40
0.0
 10
-11.76518249435353
 20
11.35442448925886
 30
0.0
 10
-11.93437731096089
 20
11.35446532221923
 30
0.0
 10
-12.25612915960701
 20
11.35892449835081
 30
0.0
 10
-12.69543499248944
 20
11.37907319791964
 30
0.0
 10
-13.00733875909397
 20
11.40637146138072
 30
0.0
 10
-13.19417347726329
 20
11.43520218043444
 30
0.0
 10
-13.26324312421688
 20
11.45182994961873
 30
0.0
 10
-13.29026793201677
 20
11.46098854829889
 30
0.0
  0
SPLINE
  5
A6
330
1F
100
AcDbEntity
  8
MAKE2D VISIBLE LINES
100
AcDbSpline
210
0.0
220
0.0
230
1.0
 70
    12
 71
     2
 72
     6
 73
     3
 74
     0
 42
0.0000000001
 43
0.0000000001
 40
-2.846176978379487
 40
-2.846176978379487
 40
-2.846176978379487
 40
0.0
 40
0.0
 40
0.0
 10
-13.29026793201677
 20
11.46098854829889
 30
0.0
 41
1.0
 10
-14.63415248699667
 20
11.92912994807867
 30
0.0
 41
0.9999995484713745
 10
-16.10115589495664
 20
12.71611782440838
 30
0.0
 41
1.0
  0
SPLINE
  5
A8
330
1F
100
AcDbEntity
  8
MAKE2D VISIBLE LINES - TANGENT
100
AcDbSpline
210
0.0
220
0.0
230
1.0
 70
     8
 71
     2
 72
    13
 73
    10
 74
     0
 42
0.0000000001
 43
0.0000000001
 40
0.0
 40
0.0
 40
0.0
 40
1.0
 40
2.0
 40
3.0
 40
4.0
 40
5.0
 40
6.0
 40
7.0
 40
8.0
 40
8.0
 40
8.0
 10
-13.1798163269667
 20
11.43404057017015
 30
0.0
 10
-13.17640159140126
 20
10.78328161727227
 30
0.0
 10
-13.16967846973545
 20
9.481762729973134
 30
0.0
 10
-13.16311511099187
 20
8.180247040759806
 30
0.0
 10
-13.1564088202179
 20
6.878707255474979
 30
0.0
 10
-13.15132236238047
 20
5.577304657385905
 30
0.0
 10
-13.15309934829949
 20
4.275060024567823
 30
0.0
 10
-13.14792949656911
 20
2.977643751240211
 30
0.0
 10
-13.179811101608
 20
1.65209983945813
 30
0.0
 10
-13.55665553619373
 20
1.106177493657512
 30
0.0
  0
SPLINE
  5
A9
330
1F
100
AcDbEntity
  8
MAKE2D VISIBLE LINES - TANGENT
100
AcDbSpline
210
0.0
220
0.0
230
1.0
 70
     8
 71
     2
 72
    13
 73
    10
 74
     0
 42
0.0000000001
 43
0.0000000001
 40
0.0
 40
0.0
 40
0.0
 40
1.0
 40
2.0
 40
3.0
 40
4.0
 40
5.0
 40
6.0
 40
7.0
 40
8.0
 40
8.0
 40
8.0
 10
-13.75391987887958
 20
45.68465945025408
 30
0.0
 10
-13.15358895223665
 20
43.97610378584108
 30
0.0
 10
-13.3595052842738
 20
40.26608425699337
 30
0.0
 10
-13.30236595208458
 20
36.60637076650868
 30
0.0
 10
-13.29047778596728
 20
32.93802510398736
 30
0.0
 10
-13.27013737699816
 20
29.2711691263078
 30
0.0
 10
-13.25182649950459
 20
25.60405219531083
 30
0.0
 10
-13.23327986714473
 20
21.9369766292511
 30
0.0
 10
-13.21457413452116
 20
18.2698964956588
 30
0.0
 10
-13.20524305460943
 20
16.43635598356652
 30
0.0
  0
SPLINE
  5
AA
330
1F
100
AcDbEntity
  8
MAKE2D VISIBLE LINES - TANGENT
100
AcDbSpline
210
0.0
220
0.0
230
1.0
 70
     8
 71
     2
 72
    13
 73
    10
 74
     0
 42
0.0000000001
 43
0.0000000001
 40
0.0
 40
0.0
 40
0.0
 40
1.0
 40
2.0
 40
3.0
 40
4.0
 40
5.0
 40
6.0
 40
7.0
 40
8.0
 40
8.0
 40
8.0
 10
13.75391987887958
 20
45.68465945025408
 30
0.0
 10
13.15358895223665
 20
43.97610378584108
 30
0.0
 10
13.3595052842738
 20
40.26608425699337
 30
0.0
 10
13.30236595208458
 20
36.60637076650868
 30
0.0
 10
13.29047778596728
 20
32.93802510398736
 30
0.0
 10
13.27013737699816
 20
29.2711691263078
 30
0.0
 10
13.25182649950459
 20
25.60405219531083
 30
0.0
 10
13.23327986714473
 20
21.9369766292511
 30
0.0
 10
13.21457413452116
 20
18.2698964956588
 30
0.0
 10
13.20524305460943
 20
16.43635598356652
 30
0.0
  0
SPLINE
  5
AB
330
1F
100
AcDbEntity
  8
MAKE2D VISIBLE LINES - TANGENT
100
AcDbSpline
210
0.0
220
0.0
230
1.0
 70
     8
 71
     2
 72
    13
 73
    10
 74
     0
 42
0.0000000001
 43
0.0000000001
 40
0.0
 40
0.0
 40
0.0
 40
1.0
 40
2.0
 40
3.0
 40
4.0
 40
5.0
 40
6.0
 40
7.0
 40
8.0
 40
8.0
 40
8.0
 10
13.1798163269667
 20
11.43404057017015
 30
0.0
 10
13.17640159140126
 20
10.78328161727227
 30
0.0
 10
13.16967846973545
 20
9.481762729973134
 30
0.0
 10
13.16311511099187
 20
8.180247040759806
 30
0.0
 10
13.1564088202179
 20
6.878707255474979
 30
0.0
 10
13.15132236238047
 20
5.577304657385905
 30
0.0
 10
13.15309934829949
 20
4.275060024567823
 30
0.0
 10
13.14792949656911
 20
2.977643751240211
 30
0.0
 10
13.179811101608
 20
1.65209983945813
 30
0.0
 10
13.55665553619373
 20
1.106177493657512
 30
0.0
  0
SPLINE
  5
AC
330
1F
100
AcDbEntity
  8
DEFAULT
100
AcDbSpline
210
0.0
220
0.0
230
1.0
 70
     8
 71
     3
 72
    13
 73
     9
 74
     0
 42
0.0000000001
 43
0.0000000001
 40
0.0
 40
0.0
 40
0.0
 40
0.0
 40
0.0476713682111638
 40
0.1099439116078903
 40
0.1980715939772281
 40
0.3130096728903806
 40
0.6058818917725538
 40
0.9474412580084094
 40
0.9474412580084094
 40
0.9474412580084094
 40
0.9474412580084094
 10
-16.21998607024838
 20
45.68465974765344
 30
0.0
 10
-16.23620723572741
 20
45.68491593412794
 30
0.0
 10
-16.27046178610516
 20
45.66794194282473
 30
0.0
 10
-16.31053388068228
 20
45.61446080190682
 30
0.0
 10
-16.3471141400726
 20
45.53369197713121
 30
0.0
 10
-16.39342001291053
 20
45.3746345389706
 30
0.0
 10
-16.43044306873408
 20
45.12704236253022
 30
0.0
 10
-16.44084655290238
 20
44.91570771230752
 30
0.0
 10
-16.44154638723392
 20
44.80182118610539
 30
0.0
  0
POLYLINE
  5
AD
330
1F
100
AcDbEntity
  8
DEFAULT
100
AcDb2dPolyline
 66
     1
 10
0.0
 20
0.0
 30
0.0
  0
VERTEX
  5
AE
330
AD
100
AcDbEntity
  8
DEFAULT
100
AcDbVertex
100
AcDb2dVertex
 10
-16.44154638723392
 20
44.80182118610539
 30
0.0
  0
VERTEX
  5
AF
330
AD
100
AcDbEntity
  8
DEFAULT
100
AcDbVertex
100
AcDb2dVertex
 10
-16.5100799731986
 20
1.633102650736633
 30
0.0
  0
SEQEND
  5
B0
330
AD
100
AcDbEntity
  8
DEFAULT
  0
SPLINE
  5
B1
330
1F
100
AcDbEntity
  8
DEFAULT
100
AcDbSpline
210
0.0
220
0.0
230
1.0
 70
     8
 71
     3
 72
    14
 73
    10
 74
     0
 42
0.0000000001
 43
0.0000000001
 40
0.0
 40
0.0
 40
0.0
 40
0.0
 40
0.0893842083575841
 40
0.1798710725972988
 40
0.3589751315244494
 40
0.4286330882630419
 40
0.4911193762944312
 40
0.5349701194282348
 40
0.5623513145734398
 40
0.5623513145734398
 40
0.5623513145734398
 40
0.5623513145734398
 10
-16.5100799731986
 20
1.633102650736633
 30
0.0
 10
-16.5100341285921
 20
1.603313261256337
 30
0.0
 10
-16.50817372283096
 20
1.543340325989898
 30
0.0
 10
-16.49748983109815
 20
1.424152377144241
 30
0.0
 10
-16.47867603883583
 20
1.312408922540439
 30
0.0
 10
-16.45000432460605
 20
1.212567641145461
 30
0.0
 10
-16.42770730899074
 20
1.15821050235927
 30
0.0
 10
-16.40391707915181
 20
1.120115603709977
 30
0.0
 10
-16.38344518259015
 20
1.106266567458239
 30
0.0
 10
-16.37398779218701
 20
1.106177014754725
 30
0.0
  0
SPLINE
  5
B2
330
1F
100
AcDbEntity
  8
DEFAULT
100
AcDbSpline
210
0.0
220
0.0
230
1.0
 70
     8
 71
     3
 72
    13
 73
     9
 74
     0
 42
0.0000000001
 43
0.0000000001
 40
0.0
 40
0.0
 40
0.0
 40
0.0
 40
0.0476713682111638
 40
0.1099439116078903
 40
0.1980715939772281
 40
0.3130096728903806
 40
0.6058818917725538
 40
0.9474412580084094
 40
0.9474412580084094
 40
0.9474412580084094
 40
0.9474412580084094
 10
16.21998607024838
 20
45.68465974765344
 30
0.0
 10
16.23620723572741
 20
45.68491593412794
 30
0.0
 10
16.27046178610516
 20
45.66794194282473
 30
0.0
 10
16.31053388068228
 20
45.61446080190682
 30
0.0
 10
16.3471141400726
 20
45.53369197713121
 30
0.0
 10
16.39342001291053
 20
45.3746345389706
 30
0.0
 10
16.43044306873408
 20
45.12704236253022
 30
0.0
 10
16.44084655290238
 20
44.91570771230752
 30
0.0
 10
16.44154638723392
 20
44.80182118610539
 30
0.0
  0
POLYLINE
  5
B3
330
1F
100
AcDbEntity
  8
DEFAULT
100
AcDb2dPolyline
 66
     1
 10
0.0
 20
0.0
 30
0.0
  0
VERTEX
  5
B4
330
B3
100
AcDbEntity
  8
DEFAULT
100
AcDbVertex
100
AcDb2dVertex
 10
16.44154638723392
 20
44.80182118610539
 30
0.0
  0
VERTEX
  5
B5
330
B3
100
AcDbEntity
  8
DEFAULT
100
AcDbVertex
100
AcDb2dVertex
 10
16.5100799731986
 20
1.633102650736633
 30
0.0
  0
SEQEND
  5
B6
330
B3
100
AcDbEntity
  8
DEFAULT
  0
SPLINE
  5
B7
330
1F
100
AcDbEntity
  8
DEFAULT
100
AcDbSpline
210
0.0
220
0.0
230
1.0
 70
     8
 71
     3
 72
    14
 73
    10
 74
     0
 42
0.0000000001
 43
0.0000000001
 40
0.0
 40
0.0
 40
0.0
 40
0.0
 40
0.0893842083575841
 40
0.1798710725972988
 40
0.3589751315244494
 40
0.4286330882630419
 40
0.4911193762944312
 40
0.5349701194282348
 40
0.5623513145734398
 40
0.5623513145734398
 40
0.5623513145734398
 40
0.5623513145734398
 10
16.5100799731986
 20
1.633102650736633
 30
0.0
 10
16.5100341285921
 20
1.603313261256337
 30
0.0
 10
16.50817372283096
 20
1.543340325989898
 30
0.0
 10
16.49748983109815
 20
1.424152377144241
 30
0.0
 10
16.47867603883583
 20
1.312408922540439
 30
0.0
 10
16.45000432460605
 20
1.212567641145461
 30
0.0
 10
16.42770730899074
 20
1.15821050235927
 30
0.0
 10
16.40391707915181
 20
1.120115603709977
 30
0.0
 10
16.38344518259015
 20
1.106266567458239
 30
0.0
 10
16.37398779218701
 20
1.106177014754725
 30
0.0
  0
POLYLINE
  5
B8
330
1F
100
AcDbEntity
  8
DEFAULT
100
AcDb2dPolyline
 66
     1
 10
0.0
 20
0.0
 30
0.0
  0
VERTEX
  5
B9
330
B8
100
AcDbEntity
  8
DEFAULT
100
AcDbVertex
100
AcDb2dVertex
 10
18.19721507043556
 20
1.106177014325002
 30
0.0
  0
VERTEX
  5
BA
330
B8
100
AcDbEntity
  8
DEFAULT
100
AcDbVertex
100
AcDb2dVertex
 10
-18.19721507043556
 20
1.106177014325002
 30
0.0
  0
SEQEND
  5
BB
330
B8
100
AcDbEntity
  8
DEFAULT
  0
SPLINE
  5
BC
330
1F
100
AcDbEntity
  8
DEFAULT
100
AcDbSpline
210
0.0
220
0.0
230
1.0
 70
     8
 71
     3
 72
    14
 73
    10
 74
     0
 42
0.0000000001
 43
0.0000000001
 40
-0.5623778491853058
 40
-0.5623778491853058
 40
-0.5623778491853058
 40
-0.5623778491853058
 40
-0.5352405276794131
 40
-0.4933615850928784
 40
-0.4365862593767729
 40
-0.3631900340023393
 40
-0.1881446293013154
 40
-0.0926451568663834
 40
0.0
 40
0.0
 40
0.0
 40
0.0
 10
-18.19721507043556
 20
1.106177014325002
 30
0.0
 10
-18.20663207174642
 20
1.106228675749426
 30
0.0
 10
-18.22644222234632
 20
1.119575298359736
 30
0.0
 10
-18.24925546118724
 20
1.155133626876147
 30
0.0
 10
-18.27168481000607
 20
1.208011120124647
 30
0.0
 10
-18.30046794214089
 20
1.305741604026713
 30
0.0
 10
-18.32002834607123
 20
1.418941807808063
 30
0.0
 10
-18.3312542646832
 20
1.539493631213635
 30
0.0
 10
-18.33327234089169
 20
1.602229329930291
 30
0.0
 10
-18.33330726857079
 20
1.633102648523938
 30
0.0
  0
SPLINE
  5
BD
330
1F
100
AcDbEntity
  8
DEFAULT
100
AcDbSpline
210
0.0
220
0.0
230
1.0
 70
     8
 71
     3
 72
    14
 73
    10
 74
     0
 42
0.0000000001
 43
0.0000000001
 40
0.0
 40
0.0
 40
0.0
 40
0.0
 40
31.46400885343605
 40
32.10541831951176
 40
34.04163180432669
 40
34.25019534433982
 40
34.41355672850061
 40
34.59510307431069
 40
43.16893533714026
 40
43.16893533714026
 40
43.16893533714026
 40
43.16893533714026
 10
-18.33330726857079
 20
1.633102648523938
 30
0.0
 10
-18.33314987171832
 20
12.12110560318516
 30
0.0
 10
-18.33351969100736
 20
22.82291170155838
 30
0.0
 10
-18.33321446519541
 20
34.17012230953192
 30
0.0
 10
-18.32844752176372
 20
35.09884618688869
 30
0.0
 10
-18.32406773612387
 20
35.86820986764712
 30
0.0
 10
-18.32271225588928
 20
36.0526961824276
 30
0.0
 10
-18.30307075576574
 20
39.02554430485254
 30
0.0
 10
-18.28368261971908
 20
41.94393979390448
 30
0.0
 10
-18.26477309324436
 20
44.80182118612572
 30
0.0
  0
SPLINE
  5
BE
330
1F
100
AcDbEntity
  8
DEFAULT
100
AcDbSpline
210
0.0
220
0.0
230
1.0
 70
     8
 71
     3
 72
    13
 73
     9
 74
     0
 42
0.0000000001
 43
0.0000000001
 40
-0.9474316949062707
 40
-0.9474316949062707
 40
-0.9474316949062707
 40
-0.9474316949062707
 40
-0.6058716158894669
 40
-0.312998109646951
 40
-0.1980608457454509
 40
-0.1099360319808809
 40
-0.0476680907784823
 40
0.0
 40
0.0
 40
0.0
 40
0.0
 10
-18.26477309324436
 20
44.80182118612572
 30
0.0
 10
-18.26407323898578
 20
44.91570794417675
 30
0.0
 10
-18.25365949288861
 20
45.12704307560249
 30
0.0
 10
-18.21662496893891
 20
45.37463348409045
 30
0.0
 10
-18.17032236769645
 20
45.53369074027151
 30
0.0
 10
-18.13374892684021
 20
45.61445935852873
 30
0.0
 10
-18.09368458079156
 20
45.6679418567285
 30
0.0
 10
-18.05943284950356
 20
45.68491630783434
 30
0.0
 10
-18.04321266704235
 20
45.68465974749756
 30
0.0
  0
POLYLINE
  5
BF
330
1F
100
AcDbEntity
  8
DEFAULT
100
AcDb2dPolyline
 66
     1
 10
0.0
 20
0.0
 30
0.0
  0
VERTEX
  5
C0
330
BF
100
AcDbEntity
  8
DEFAULT
100
AcDbVertex
100
AcDb2dVertex
 10
-18.04321266704235
 20
45.68465974749756
 30
0.0
  0
VERTEX
  5
C1
330
BF
100
AcDbEntity
  8
DEFAULT
100
AcDbVertex
100
AcDb2dVertex
 10
18.04321266704235
 20
45.68465974749756
 30
0.0
  0
SEQEND
  5
C2
330
BF
100
AcDbEntity
  8
DEFAULT
  0
SPLINE
  5
C3
330
1F
100
AcDbEntity
  8
DEFAULT
100
AcDbSpline
210
0.0
220
0.0
230
1.0
 70
     8
 71
     3
 72
    13
 73
     9
 74
     0
 42
0.0000000001
 43
0.0000000001
 40
0.0
 40
0.0
 40
0.0
 40
0.0
 40
0.0476680907784823
 40
0.1099360319808809
 40
0.1980608457454509
 40
0.312998109646951
 40
0.6058716158894669
 40
0.9474316949062707
 40
0.9474316949062707
 40
0.9474316949062707
 40
0.9474316949062707
 10
18.04321266704235
 20
45.68465974749756
 30
0.0
 10
18.05943284950356
 20
45.68491630783434
 30
0.0
 10
18.09368458079156
 20
45.6679418567285
 30
0.0
 10
18.13374892684021
 20
45.61445935852873
 30
0.0
 10
18.17032236769645
 20
45.53369074027151
 30
0.0
 10
18.21662496893891
 20
45.37463348409045
 30
0.0
 10
18.25365949288861
 20
45.12704307560249
 30
0.0
 10
18.26407323898578
 20
44.91570794417675
 30
0.0
 10
18.26477309324436
 20
44.80182118612572
 30
0.0
  0
SPLINE
  5
C4
330
1F
100
AcDbEntity
  8
DEFAULT
100
AcDbSpline
210
0.0
220
0.0
230
1.0
 70
     8
 71
     3
 72
    14
 73
    10
 74
     0
 42
0.0000000001
 43
0.0000000001
 40
-43.16893533714026
 40
-43.16893533714026
 40
-43.16893533714026
 40
-43.16893533714026
 40
-34.59510307431069
 40
-34.41355672850061
 40
-34.25019534433982
 40
-34.04163180432669
 40
-32.10541831951176
 40
-31.46400885343605
 40
0.0
 40
0.0
 40
0.0
 40
0.0
 10
18.26477309324436
 20
44.80182118612572
 30
0.0
 10
18.28368261971908
 20
41.94393979390448
 30
0.0
 10
18.30307075576574
 20
39.02554430485254
 30
0.0
 10
18.32271225588928
 20
36.0526961824276
 30
0.0
 10
18.32406773612387
 20
35.86820986764712
 30
0.0
 10
18.32844752176372
 20
35.09884618688869
 30
0.0
 10
18.33321446519541
 20
34.17012230953192
 30
0.0
 10
18.33351969100736
 20
22.82291170155838
 30
0.0
 10
18.33314987171832
 20
12.12110560318516
 30
0.0
 10
18.33330726857079
 20
1.633102648523938
 30
0.0
  0
SPLINE
  5
C5
330
1F
100
AcDbEntity
  8
DEFAULT
100
AcDbSpline
210
0.0
220
0.0
230
1.0
 70
     8
 71
     3
 72
    14
 73
    10
 74
     0
 42
0.0000000001
 43
0.0000000001
 40
0.0
 40
0.0
 40
0.0
 40
0.0
 40
0.0926451568663834
 40
0.1881446293013154
 40
0.3631900340023393
 40
0.4365862593767729
 40
0.4933615850928784
 40
0.5352405276794131
 40
0.5623778491853058
 40
0.5623778491853058
 40
0.5623778491853058
 40
0.5623778491853058
 10
18.33330726857079
 20
1.633102648523938
 30
0.0
 10
18.33327234089169
 20
1.602229329930291
 30
0.0
 10
18.3312542646832
 20
1.539493631213635
 30
0.0
 10
18.32002834607123
 20
1.418941807808063
 30
0.0
 10
18.30046794214089
 20
1.305741604026713
 30
0.0
 10
18.27168481000607
 20
1.208011120124647
 30
0.0
 10
18.24925546118724
 20
1.155133626876147
 30
0.0
 10
18.22644222234632
 20
1.119575298359736
 30
0.0
 10
18.20663207174642
 20
1.106228675749426
 30
0.0
 10
18.19721507043556
 20
1.106177014325002
 30
0.0
  0
POLYLINE
  5
C6
330
1F
100
AcDbEntity
  8
DEFAULT
100
AcDb2dPolyline
 66
     1
 10
0.0
 20
0.0
 30
0.0
  0
VERTEX
  5
C7
330
C6
100
AcDbEntity
  8
DEFAULT
100
AcDbVertex
100
AcDb2dVertex
 10
-17.20097818730364
 20
0.1140510285718861
 30
0.0
  0
VERTEX
  5
C8
330
C6
100
AcDbEntity
  8
DEFAULT
100
AcDbVertex
100
AcDb2dVertex
 10
17.20097818730364
 20
0.1140510285718861
 30
0.0
  0
SEQEND
  5
C9
330
C6
100
AcDbEntity
  8
DEFAULT
  0
SPLINE
  5
CA
330
1F
100
AcDbEntity
  8
MAKE2D VISIBLE LINES
100
AcDbSpline
210
0.0
220
0.0
230
1.0
 70
    24
 71
     2
 72
     6
 73
     3
 74
     0
 42
0.0000000001
 43
0.0000000001
 40
0.0
 40
0.0
 40
0.0
 40
0.0847463222021591
 40
0.0847463222021591
 40
0.0847463222021591
 10
-17.29798337605643
 20
0.1241164009423166
 30
0.0
 10
-17.29798239223442
 20
0.081743239841237
 30
0.0
 10
-17.2979814084124
 20
0.0393700787401574
 30
0.0
  0
SPLINE
  5
CB
330
1F
100
AcDbEntity
  8
MAKE2D VISIBLE LINES
100
AcDbSpline
210
0.0
220
0.0
230
1.0
 70
    12
 71
     2
 72
     6
 73
     3
 74
     0
 42
0.0000000001
 43
0.0000000001
 40
0.0
 40
0.0
 40
0.0
 40
0.0617543462156669
 40
0.0617543462156669
 40
0.0617543462156669
 10
-17.2979814084124
 20
0.0393700787401574
 30
0.0
 41
1.0
 10
-17.29797363511212
 20
0.0000912398456518
 30
0.0
 41
0.7079789373066855
 10
-17.25861562290566
 20
0.0000000457548012
 30
0.0
 41
1.0
  0
LINE
  5
CC
330
1F
100
AcDbEntity
  8
MAKE2D VISIBLE LINES
100
AcDbLine
 10
-17.25861562290566
 20
0.0000000457548012
 30
0.0
 11
-16.43356479257589
 21
0.0000021764418325
 31
0.0
  0
SPLINE
  5
CD
330
1F
100
AcDbEntity
  8
MAKE2D VISIBLE LINES
100
AcDbSpline
210
0.0
220
0.0
230
1.0
 70
    12
 71
     2
 72
     6
 73
     3
 74
     0
 42
0.0000000001
 43
0.0000000001
 40
0.0
 40
0.0
 40
0.0
 40
0.0612543556503315
 40
0.0612543556503315
 40
0.0612543556503315
 10
-16.43356479257589
 20
0.0000021764418325
 30
0.0
 41
1.0
 10
-16.39478530354245
 20
0.0005862248280456
 30
0.0
 41
0.7124322163948735
 10
-16.39477882181972
 20
0.0393700787401579
 30
0.0
 41
1.0
  0
SPLINE
  5
CE
330
1F
100
AcDbEntity
  8
MAKE2D VISIBLE LINES
100
AcDbSpline
210
0.0
220
0.0
230
1.0
 70
    24
 71
     2
 72
     6
 73
     3
 74
     0
 42
0.0000000001
 43
0.0000000001
 40
0.0
 40
0.0
 40
0.0
 40
0.0746813320751823
 40
0.0746813320751823
 40
0.0746813320751823
 10
-16.39477882181972
 20
0.0393700787401579
 30
0.0
 10
-16.39477783810794
 20
0.0767107447777488
 30
0.0
 10
-16.39477685439615
 20
0.1140514108153397
 30
0.0
  0
SPLINE
  5
CF
330
1F
100
AcDbEntity
  8
DEFAULT
100
AcDbSpline
210
0.0
220
0.0
230
1.0
 70
    15
 71
     2
 72
    12
 73
     9
 74
     0
 42
0.0000000001
 43
0.0000000001
 40
0.0
 40
0.0
 40
0.0
 40
1.570796326794897
 40
1.570796326794897
 40
3.141592653589793
 40
3.141592653589793
 40
4.71238898038469
 40
4.71238898038469
 40
6.283185307179586
 40
6.283185307179586
 40
6.283185307179586
 10
-17.68687765279008
 20
0.6140510285718532
 30
0.0
 41
1.0
 10
-17.68687753425781
 20
0.1140509133824066
 30
0.0
 41
0.7071067811865475
 10
-17.20097818730364
 20
0.114051028571883
 30
0.0
 41
1.0
 10
-16.71507884034947
 20
0.1140511437613594
 30
0.0
 41
0.7071067811865475
 10
-16.71507895888174
 20
0.614051258950806
 30
0.0
 41
1.0
 10
-16.71507907741401
 20
1.114051374140253
 30
0.0
 41
0.7071067811865475
 10
-17.20097842436818
 20
1.114051258950776
 30
0.0
 41
1.0
 10
-17.68687777132235
 20
1.1140511437613
 30
0.0
 41
0.7071067811865475
 10
-17.68687765279008
 20
0.6140510285718532
 30
0.0
 41
1.0
  0
SPLINE
  5
D0
330
1F
100
AcDbEntity
  8
MAKE2D VISIBLE LINES
100
AcDbSpline
210
0.0
220
0.0
230
1.0
 70
    24
 71
     2
 72
     6
 73
     3
 74
     0
 42
0.0000000001
 43
0.0000000001
 40
0.0
 40
0.0
 40
0.0
 40
0.0744064490082302
 40
0.0744064490082302
 40
0.0744064490082302
 10
-9.342754185559187
 20
0.1137765277483876
 30
0.0
 10
-9.342756244256941
 20
0.0765733032442727
 30
0.0
 10
-9.342758302954696
 20
0.0393700787401579
 30
0.0
  0
SPLINE
  5
D1
330
1F
100
AcDbEntity
  8
MAKE2D VISIBLE LINES
100
AcDbSpline
210
0.0
220
0.0
230
1.0
 70
    12
 71
     2
 72
     6
 73
     3
 74
     0
 42
0.0000000001
 43
0.0000000001
 40
0.0
 40
0.0
 40
0.0
 40
0.0618408205304301
 40
0.0618408205304301
 40
0.0618408205304301
 10
-9.342758302954696
 20
0.0393700787401579
 30
0.0
 41
0.9999999924940001
 10
-9.34275559688666
 20
0.0000054490486248
 30
0.0
 41
0.7072169954989027
 10
-9.30337520617396
 20
0.000000000000001
 30
0.0
 41
1.0
  0
LINE
  5
D2
330
1F
100
AcDbEntity
  8
MAKE2D VISIBLE LINES
100
AcDbLine
 10
-9.30337520617396
 20
0.000000000000001
 30
0.0
 11
-7.019910205055542
 21
0.000000000023741
 31
0.0
  0
SPLINE
  5
D3
330
1F
100
AcDbEntity
  8
MAKE2D VISIBLE LINES
100
AcDbSpline
210
0.0
220
0.0
230
1.0
 70
    12
 71
     2
 72
     6
 73
     3
 74
     0
 42
0.0000000001
 43
0.0000000001
 40
0.0
 40
0.0
 40
0.0
 40
0.0618394108989323
 40
0.0618394108989323
 40
0.0618394108989323
 10
-7.019910205055542
 20
0.000000000023741
 30
0.0
 41
1.0
 10
-6.980546438707558
 20
0.0000063116581986
 30
0.0
 41
0.707216141507152
 10
-6.98054503590923
 20
0.0393700787401583
 30
0.0
 41
0.9999999930062947
  0
SPLINE
  5
D4
330
1F
100
AcDbEntity
  8
MAKE2D VISIBLE LINES
100
AcDbSpline
210
0.0
220
0.0
230
1.0
 70
    24
 71
     2
 72
     6
 73
     3
 74
     0
 42
0.0000000001
 43
0.0000000001
 40
0.0
 40
0.0
 40
0.0
 40
0.0744064490082285
 40
0.0744064490082285
 40
0.0744064490082285
 10
-6.980545035909229
 20
0.0393700787401583
 30
0.0
 10
-6.980547267268155
 20
0.0765733032442725
 30
0.0
 10
-6.980549498627081
 20
0.1137765277483868
 30
0.0
  0
SPLINE
  5
D5
330
1F
100
AcDbEntity
  8
MAKE2D VISIBLE LINES
100
AcDbSpline
210
0.0
220
0.0
230
1.0
 70
    24
 71
     2
 72
     6
 73
     3
 74
     0
 42
0.0000000001
 43
0.0000000001
 40
0.0
 40
0.0
 40
0.0
 40
0.0081653459650042
 40
0.0081653459650042
 40
0.0081653459650042
 10
-9.350919531524198
 20
0.1137765277483878
 30
0.0
 10
-9.346836858541696
 20
0.1137765277483878
 30
0.0
 10
-9.342754185559194
 20
0.1137765277483878
 30
0.0
  0
SPLINE
  5
D6
330
1F
100
AcDbEntity
  8
MAKE2D VISIBLE LINES
100
AcDbSpline
210
0.0
220
0.0
230
1.0
 70
    24
 71
     2
 72
     6
 73
     3
 74
     0
 42
0.0000000001
 43
0.0000000001
 40
0.0
 40
0.0
 40
0.0
 40
0.0744064490082302
 40
0.0744064490082302
 40
0.0744064490082302
 10
9.342754185559187
 20
0.1137765277483876
 30
0.0
 10
9.342756244256941
 20
0.0765733032442727
 30
0.0
 10
9.342758302954696
 20
0.0393700787401579
 30
0.0
  0
SPLINE
  5
D7
330
1F
100
AcDbEntity
  8
MAKE2D VISIBLE LINES
100
AcDbSpline
210
0.0
220
0.0
230
1.0
 70
    12
 71
     2
 72
     6
 73
     3
 74
     0
 42
0.0000000001
 43
0.0000000001
 40
0.0
 40
0.0
 40
0.0
 40
0.0618408205304301
 40
0.0618408205304301
 40
0.0618408205304301
 10
9.342758302954696
 20
0.0393700787401579
 30
0.0
 41
0.9999999924940001
 10
9.34275559688666
 20
0.0000054490486248
 30
0.0
 41
0.7072169954989027
 10
9.30337520617396
 20
0.000000000000001
 30
0.0
 41
1.0
  0
LINE
  5
D8
330
1F
100
AcDbEntity
  8
MAKE2D VISIBLE LINES
100
AcDbLine
 10
9.30337520617396
 20
0.000000000000001
 30
0.0
 11
7.019910205055542
 21
0.000000000023741
 31
0.0
  0
SPLINE
  5
D9
330
1F
100
AcDbEntity
  8
MAKE2D VISIBLE LINES
100
AcDbSpline
210
0.0
220
0.0
230
1.0
 70
    12
 71
     2
 72
     6
 73
     3
 74
     0
 42
0.0000000001
 43
0.0000000001
 40
0.0
 40
0.0
 40
0.0
 40
0.0618394108989323
 40
0.0618394108989323
 40
0.0618394108989323
 10
7.019910205055542
 20
0.000000000023741
 30
0.0
 41
1.0
 10
6.980546438707558
 20
0.0000063116581986
 30
0.0
 41
0.707216141507152
 10
6.98054503590923
 20
0.0393700787401583
 30
0.0
 41
0.9999999930062947
  0
SPLINE
  5
DA
330
1F
100
AcDbEntity
  8
MAKE2D VISIBLE LINES
100
AcDbSpline
210
0.0
220
0.0
230
1.0
 70
    24
 71
     2
 72
     6
 73
     3
 74
     0
 42
0.0000000001
 43
0.0000000001
 40
0.0
 40
0.0
 40
0.0
 40
0.0744064490082285
 40
0.0744064490082285
 40
0.0744064490082285
 10
6.980545035909229
 20
0.0393700787401583
 30
0.0
 10
6.980547267268155
 20
0.0765733032442725
 30
0.0
 10
6.980549498627081
 20
0.1137765277483868
 30
0.0
  0
SPLINE
  5
DB
330
1F
100
AcDbEntity
  8
MAKE2D VISIBLE LINES
100
AcDbSpline
210
0.0
220
0.0
230
1.0
 70
    24
 71
     2
 72
     6
 73
     3
 74
     0
 42
0.0000000001
 43
0.0000000001
 40
0.0
 40
0.0
 40
0.0
 40
0.0081653459650042
 40
0.0081653459650042
 40
0.0081653459650042
 10
9.350919531524198
 20
0.1137765277483878
 30
0.0
 10
9.346836858541696
 20
0.1137765277483878
 30
0.0
 10
9.342754185559194
 20
0.1137765277483878
 30
0.0
  0
SPLINE
  5
DC
330
1F
100
AcDbEntity
  8
MAKE2D VISIBLE LINES
100
AcDbSpline
210
0.0
220
0.0
230
1.0
 70
    24
 71
     2
 72
     6
 73
     3
 74
     0
 42
0.0000000001
 43
0.0000000001
 40
0.0
 40
0.0
 40
0.0
 40
0.0847463222021591
 40
0.0847463222021591
 40
0.0847463222021591
 10
17.29798337605643
 20
0.1241164009423166
 30
0.0
 10
17.29798239223442
 20
0.081743239841237
 30
0.0
 10
17.2979814084124
 20
0.0393700787401574
 30
0.0
  0
SPLINE
  5
DD
330
1F
100
AcDbEntity
  8
MAKE2D VISIBLE LINES
100
AcDbSpline
210
0.0
220
0.0
230
1.0
 70
    12
 71
     2
 72
     6
 73
     3
 74
     0
 42
0.0000000001
 43
0.0000000001
 40
0.0
 40
0.0
 40
0.0
 40
0.0617543462156669
 40
0.0617543462156669
 40
0.0617543462156669
 10
17.2979814084124
 20
0.0393700787401574
 30
0.0
 41
1.0
 10
17.29797363511212
 20
0.0000912398456518
 30
0.0
 41
0.7079789373066855
 10
17.25861562290566
 20
0.0000000457548012
 30
0.0
 41
1.0
  0
LINE
  5
DE
330
1F
100
AcDbEntity
  8
MAKE2D VISIBLE LINES
100
AcDbLine
 10
17.25861562290566
 20
0.0000000457548012
 30
0.0
 11
16.43356479257589
 21
0.0000021764418325
 31
0.0
  0
SPLINE
  5
DF
330
1F
100
AcDbEntity
  8
MAKE2D VISIBLE LINES
100
AcDbSpline
210
0.0
220
0.0
230
1.0
 70
    12
 71
     2
 72
     6
 73
     3
 74
     0
 42
0.0000000001
 43
0.0000000001
 40
0.0
 40
0.0
 40
0.0
 40
0.0612543556503315
 40
0.0612543556503315
 40
0.0612543556503315
 10
16.43356479257589
 20
0.0000021764418325
 30
0.0
 41
1.0
 10
16.39478530354245
 20
0.0005862248280456
 30
0.0
 41
0.7124322163948735
 10
16.39477882181972
 20
0.0393700787401579
 30
0.0
 41
1.0
  0
SPLINE
  5
E0
330
1F
100
AcDbEntity
  8
MAKE2D VISIBLE LINES
100
AcDbSpline
210
0.0
220
0.0
230
1.0
 70
    24
 71
     2
 72
     6
 73
     3
 74
     0
 42
0.0000000001
 43
0.0000000001
 40
0.0
 40
0.0
 40
0.0
 40
0.0746813320751823
 40
0.0746813320751823
 40
0.0746813320751823
 10
16.39477882181972
 20
0.0393700787401579
 30
0.0
 10
16.39477783810794
 20
0.0767107447777488
 30
0.0
 10
16.39477685439615
 20
0.1140514108153397
 30
0.0
  0
SPLINE
  5
E1
330
1F
100
AcDbEntity
  8
DEFAULT
100
AcDbSpline
210
0.0
220
0.0
230
1.0
 70
    15
 71
     2
 72
    12
 73
     9
 74
     0
 42
0.0000000001
 43
0.0000000001
 40
0.0
 40
0.0
 40
0.0
 40
1.570796326794897
 40
1.570796326794897
 40
3.141592653589793
 40
3.141592653589793
 40
4.71238898038469
 40
4.71238898038469
 40
6.283185307179586
 40
6.283185307179586
 40
6.283185307179586
 10
17.68687765279008
 20
0.6140510285718532
 30
0.0
 41
1.0
 10
17.68687753425781
 20
0.1140509133824066
 30
0.0
 41
0.7071067811865475
 10
17.20097818730364
 20
0.114051028571883
 30
0.0
 41
1.0
 10
16.71507884034947
 20
0.1140511437613594
 30
0.0
 41
0.7071067811865475
 10
16.71507895888174
 20
0.614051258950806
 30
0.0
 41
1.0
 10
16.71507907741401
 20
1.114051374140253
 30
0.0
 41
0.7071067811865475
 10
17.20097842436818
 20
1.114051258950776
 30
0.0
 41
1.0
 10
17.68687777132235
 20
1.1140511437613
 30
0.0
 41
0.7071067811865475
 10
17.68687765279008
 20
0.6140510285718532
 30
0.0
 41
1.0
  0
ENDSEC
  0
SECTION
  2
OBJECTS
  0
DICTIONARY
  5
C
330
0
100
AcDbDictionary
281
     1
  3
ACAD_GROUP
350
D
  3
ACAD_LAYOUT
350
1A
  3
ACAD_MLEADERSTYLE
350
E3
  3
ACAD_MLINESTYLE
350
17
  3
ACAD_PLOTSETTINGS
350
19
  3
ACAD_PLOTSTYLENAME
350
E
  3
ACAD_TABLESTYLE
350
E2
  3
ACAD_VISUALSTYLE
350
2A
  0
DICTIONARY
  5
D
102
{ACAD_REACTORS
330
C
102
}
330
C
100
AcDbDictionary
281
     1
  0
DICTIONARY
  5
1A
102
{ACAD_REACTORS
330
C
102
}
330
C
100
AcDbDictionary
281
     1
  3
Layout1
350
1E
  3
Layout2
350
26
  3
Model
350
22
  0
DICTIONARY
  5
E3
102
{ACAD_REACTORS
330
C
102
}
330
C
100
AcDbDictionary
281
     1
  0
DICTIONARY
  5
17
102
{ACAD_REACTORS
330
C
102
}
330
C
100
AcDbDictionary
281
     1
  3
Standard
350
18
  0
DICTIONARY
  5
19
102
{ACAD_REACTORS
330
C
102
}
330
C
100
AcDbDictionary
281
     1
  0
ACDBDICTIONARYWDFLT
  5
E
102
{ACAD_REACTORS
330
C
102
}
330
C
100
AcDbDictionary
281
     1
  3
Normal
350
F
100
AcDbDictionaryWithDefault
340
F
  0
DICTIONARY
  5
E2
102
{ACAD_REACTORS
330
C
102
}
330
C
100
AcDbDictionary
281
     1
  0
DICTIONARY
  5
2A
102
{ACAD_REACTORS
330
C
102
}
330
C
100
AcDbDictionary
281
     1
  3
2dWireframe
350
2F
  3
3D Hidden
350
31
  3
3dWireframe
350
30
  3
Basic
350
32
  3
Brighten
350
36
  3
ColorChange
350
3A
  3
Conceptual
350
34
  3
Dim
350
35
  3
Facepattern
350
39
  3
Flat
350
2B
  3
FlatWithEdges
350
2C
  3
Gouraud
350
2D
  3
GouraudWithEdges
350
2E
  3
Linepattern
350
38
  3
Realistic
350
33
  3
Thicken
350
37
  0
LAYOUT
  5
1E
102
{ACAD_REACTORS
330
1A
102
}
330
1A
100
AcDbPlotSettings
  1

  2
none_device
  4

  6

 40
0.0
 41
0.0
 42
0.0
 43
0.0
 44
0.0
 45
0.0
 46
0.0
 47
0.0
 48
0.0
 49
0.0
140
0.0
141
0.0
142
1.0
143
1.0
 70
   688
 72
     0
 73
     0
 74
     5
  7

 75
    16
 76
     0
 77
     2
 78
   300
147
1.0
148
0.0
149
0.0
100
AcDbLayout
  1
Layout1
 70
     1
 71
     1
 10
0.0
 20
0.0
 11
12.0
 21
9.0
 12
0.0
 22
0.0
 32
0.0
 14
1.000000000000000E+20
 24
1.000000000000000E+20
 34
1.000000000000000E+20
 15
-1.000000000000000E+20
 25
-1.000000000000000E+20
 35
-1.000000000000000E+20
146
0.0
 13
0.0
 23
0.0
 33
0.0
 16
1.0
 26
0.0
 36
0.0
 17
0.0
 27
1.0
 37
0.0
 76
     0
330
1B
  0
LAYOUT
  5
26
102
{ACAD_REACTORS
330
1A
102
}
330
1A
100
AcDbPlotSettings
  1

  2
none_device
  4

  6

 40
0.0
 41
0.0
 42
0.0
 43
0.0
 44
0.0
 45
0.0
 46
0.0
 47
0.0
 48
0.0
 49
0.0
140
0.0
141
0.0
142
1.0
143
1.0
 70
   688
 72
     0
 73
     0
 74
     5
  7

 75
    16
 76
     0
 77
     2
 78
   300
147
1.0
148
0.0
149
0.0
100
AcDbLayout
  1
Layout2
 70
     1
 71
     2
 10
0.0
 20
0.0
 11
0.0
 21
0.0
 12
0.0
 22
0.0
 32
0.0
 14
0.0
 24
0.0
 34
0.0
 15
0.0
 25
0.0
 35
0.0
146
0.0
 13
0.0
 23
0.0
 33
0.0
 16
1.0
 26
0.0
 36
0.0
 17
0.0
 27
1.0
 37
0.0
 76
     0
330
23
  0
LAYOUT
  5
22
102
{ACAD_REACTORS
330
1A
102
}
330
1A
100
AcDbPlotSettings
  1

  2
none_device
  4

  6

 40
0.0
 41
0.0
 42
0.0
 43
0.0
 44
0.0
 45
0.0
 46
0.0
 47
0.0
 48
0.0
 49
0.0
140
0.0
141
0.0
142
1.0
143
1.0
 70
  1712
 72
     0
 73
     0
 74
     0
  7

 75
     0
 76
     0
 77
     2
 78
   300
147
1.0
148
0.0
149
0.0
100
AcDbLayout
  1
Model
 70
     1
 71
     0
 10
0.0
 20
0.0
 11
12.0
 21
9.0
 12
0.0
 22
0.0
 32
0.0
 14
-18.3333086148243
 24
0.0
 34
0.0
 15
58.98594288952327
 25
86.4054244976385
 35
0.0
146
0.0
 13
0.0
 23
0.0
 33
0.0
 16
1.0
 26
0.0
 36
0.0
 17
0.0
 27
1.0
 37
0.0
 76
     0
330
1F
331
29
  0
MLINESTYLE
  5
18
102
{ACAD_REACTORS
330
17
102
}
330
17
100
AcDbMlineStyle
  2
Standard
 70
     0
  3

 62
   256
 51
90.0
 52
90.0
 71
     2
 49
0.5
 62
   256
  6
BYLAYER
 49
-0.5
 62
   256
  6
BYLAYER
  0
ACDBPLACEHOLDER
  5
F
102
{ACAD_REACTORS
330
E
102
}
330
E
  0
VISUALSTYLE
  5
2F
102
{ACAD_REACTORS
330
2A
102
}
330
2A
100
AcDbVisualStyle
  2
2dWireframe
 70
     4
 71
     0
 72
     2
 73
     0
 90
        0
 40
-0.6
 41
-30.0
 62
     5
 63
     7
421
 16777215
 74
     1
 91
        4
 64
     7
 65
   257
 75
     1
175
     1
 42
1.0
 92
        0
 66
   257
 43
1.0
 76
     1
 77
     6
 78
     2
 67
     7
 79
     5
170
     0
171
     0
290
     0
174
     0
 93
        1
 44
0.0
173
     0
291
     0
 45
0.0
1001
ACAD
1000
AcDbSavedByObjectVersion
1070
     0
  0
VISUALSTYLE
  5
31
102
{ACAD_REACTORS
330
2A
102
}
330
2A
100
AcDbVisualStyle
  2
3D Hidden
 70
     6
 71
     1
 72
     2
 73
     2
 90
        0
 40
-0.6
 41
-30.0
 62
     5
 63
     7
421
 16777215
 74
     2
 91
        2
 64
     7
 65
   257
 75
     2
175
     1
 42
40.0
 92
        0
 66
   257
 43
1.0
 76
     1
 77
     6
 78
     2
 67
     7
 79
     3
170
     0
171
     0
290
     0
174
     0
 93
        1
 44
0.0
173
     0
291
     0
 45
0.0
1001
ACAD
1000
AcDbSavedByObjectVersion
1070
     0
  0
VISUALSTYLE
  5
30
102
{ACAD_REACTORS
330
2A
102
}
330
2A
100
AcDbVisualStyle
  2
3dWireframe
 70
     5
 71
     0
 72
     2
 73
     0
 90
        0
 40
-0.6
 41
-30.0
 62
     5
 63
     7
421
 16777215
 74
     1
 91
        4
 64
     7
 65
   257
 75
     1
175
     1
 42
1.0
 92
        0
 66
   257
 43
1.0
 76
     1
 77
     6
 78
     2
 67
     7
 79
     5
170
     0
171
     0
290
     0
174
     0
 93
        1
 44
0.0
173
     0
291
     0
 45
0.0
1001
ACAD
1000
AcDbSavedByObjectVersion
1070
     0
  0
VISUALSTYLE
  5
32
102
{ACAD_REACTORS
330
2A
102
}
330
2A
100
AcDbVisualStyle
  2
Basic
 70
     7
 71
     1
 72
     0
 73
     1
 90
        0
 40
-0.6
 41
-30.0
 62
     5
 63
     7
421
 16777215
 74
     0
 91
        4
 64
     7
 65
   257
 75
     1
175
     1
 42
1.0
 92
        8
 66
     7
 43
1.0
 76
     1
 77
     6
 78
     2
 67
     7
 79
     5
170
     0
171
     0
290
     0
174
     0
 93
        1
 44
0.0
173
     0
291
     1
 45
0.0
1001
ACAD
1000
AcDbSavedByObjectVersion
1070
     0
  0
VISUALSTYLE
  5
36
102
{ACAD_REACTORS
330
2A
102
}
330
2A
100
AcDbVisualStyle
  2
Brighten
 70
    12
 71
     2
 72
     2
 73
     0
 90
        0
 40
-0.6
 41
-30.0
 62
     5
 63
     7
421
 16777215
 74
     1
 91
        4
 64
     7
 65
   257
 75
     1
175
     1
 42
1.0
 92
        8
 66
     7
 43
1.0
 76
     1
 77
     6
 78
     2
 67
     7
 79
     5
170
     0
171
     0
290
     0
174
     0
 93
        1
 44
50.0
173
     0
291
     1
 45
0.0
1001
ACAD
1000
AcDbSavedByObjectVersion
1070
     0
  0
VISUALSTYLE
  5
3A
102
{ACAD_REACTORS
330
2A
102
}
330
2A
100
AcDbVisualStyle
  2
ColorChange
 70
    16
 71
     2
 72
     2
 73
     3
 90
        0
 40
-0.6
 41
-30.0
 62
     5
 63
     8
421
  8421504
 74
     1
 91
        4
 64
     7
 65
   257
 75
     1
175
     1
 42
1.0
 92
        8
 66
     8
424
  8421504
 43
1.0
 76
     1
 77
     6
 78
     2
 67
     7
 79
     5
170
     0
171
     0
290
     0
174
     0
 93
        1
 44
0.0
173
     0
291
     1
 45
0.0
1001
ACAD
1000
AcDbSavedByObjectVersion
1070
     0
  0
VISUALSTYLE
  5
34
102
{ACAD_REACTORS
330
2A
102
}
330
2A
100
AcDbVisualStyle
  2
Conceptual
 70
     9
 71
     3
 72
     2
 73
     0
 90
        0
 40
-0.6
 41
-30.0
 62
     5
 63
     7
421
 16777215
 74
     2
 91
        2
 64
     7
 65
   257
 75
     1
175
     1
 42
40.0
 92
        8
 66
     7
 43
1.0
 76
     1
 77
     6
 78
     2
 67
     7
 79
     3
170
     0
171
     0
290
     0
174
     0
 93
        1
 44
0.0
173
     0
291
     0
 45
0.0
1001
ACAD
1000
AcDbSavedByObjectVersion
1070
     0
  0
VISUALSTYLE
  5
35
102
{ACAD_REACTORS
330
2A
102
}
330
2A
100
AcDbVisualStyle
  2
Dim
 70
    11
 71
     2
 72
     2
 73
     0
 90
        0
 40
-0.6
 41
-30.0
 62
     5
 63
     7
421
 16777215
 74
     1
 91
        4
 64
     7
 65
   257
 75
     1
175
     1
 42
1.0
 92
        8
 66
     7
 43
1.0
 76
     1
 77
     6
 78
     2
 67
     7
 79
     5
170
     0
171
     0
290
     0
174
     0
 93
        1
 44
-50.0
173
     0
291
     1
 45
0.0
1001
ACAD
1000
AcDbSavedByObjectVersion
1070
     0
  0
VISUALSTYLE
  5
39
102
{ACAD_REACTORS
330
2A
102
}
330
2A
100
AcDbVisualStyle
  2
Facepattern
 70
    15
 71
     2
 72
     2
 73
     0
 90
        0
 40
-0.6
 41
-30.0
 62
     5
 63
     7
421
 16777215
 74
     1
 91
        4
 64
     7
 65
   257
 75
     1
175
     1
 42
1.0
 92
        8
 66
     7
 43
1.0
 76
     1
 77
     6
 78
     2
 67
     7
 79
     5
170
     0
171
     0
290
     0
174
     0
 93
        1
 44
0.0
173
     0
291
     1
 45
0.0
1001
ACAD
1000
AcDbSavedByObjectVersion
1070
     0
  0
VISUALSTYLE
  5
2B
102
{ACAD_REACTORS
330
2A
102
}
330
2A
100
AcDbVisualStyle
  2
Flat
 70
     0
 71
     2
 72
     1
 73
     1
 90
        2
 40
-0.6
 41
30.0
 62
     5
 63
     7
421
 16777215
 74
     0
 91
        4
 64
     7
 65
   257
 75
     1
175
     1
 42
1.0
 92
        8
 66
     7
 43
1.0
 76
     1
 77
     6
 78
     2
 67
     7
 79
     5
170
     0
171
     0
290
     0
174
     0
 93
       13
 44
0.0
173
     0
291
     1
 45
0.0
1001
ACAD
1000
AcDbSavedByObjectVersion
1070
     0
  0
VISUALSTYLE
  5
2C
102
{ACAD_REACTORS
330
2A
102
}
330
2A
100
AcDbVisualStyle
  2
FlatWithEdges
 70
     1
 71
     2
 72
     1
 73
     1
 90
        2
 40
-0.6
 41
30.0
 62
     5
 63
     7
421
 16777215
 74
     1
 91
        4
 64
     7
 65
   257
 75
     1
175
     1
 42
1.0
 92
        0
 66
   257
 43
1.0
 76
     1
 77
     6
 78
     2
 67
     7
 79
     5
170
     0
171
     0
290
     0
174
     0
 93
       13
 44
0.0
173
     0
291
     1
 45
0.0
1001
ACAD
1000
AcDbSavedByObjectVersion
1070
     0
  0
VISUALSTYLE
  5
2D
102
{ACAD_REACTORS
330
2A
102
}
330
2A
100
AcDbVisualStyle
  2
Gouraud
 70
     2
 71
     2
 72
     2
 73
     1
 90
        2
 40
-0.6
 41
30.0
 62
     5
 63
     7
421
 16777215
 74
     0
 91
        4
 64
     7
 65
   257
 75
     1
175
     1
 42
1.0
 92
        0
 66
     7
 43
1.0
 76
     1
 77
     6
 78
     2
 67
     7
 79
     5
170
     0
171
     0
290
     0
174
     0
 93
       13
 44
0.0
173
     0
291
     1
 45
0.0
1001
ACAD
1000
AcDbSavedByObjectVersion
1070
     0
  0
VISUALSTYLE
  5
2E
102
{ACAD_REACTORS
330
2A
102
}
330
2A
100
AcDbVisualStyle
  2
GouraudWithEdges
 70
     3
 71
     2
 72
     2
 73
     1
 90
        2
 40
-0.6
 41
30.0
 62
     5
 63
     7
421
 16777215
 74
     1
 91
        4
 64
     7
 65
   257
 75
     1
175
     1
 42
1.0
 92
        0
 66
   257
 43
1.0
 76
     1
 77
     6
 78
     2
 67
     7
 79
     5
170
     0
171
     0
290
     0
174
     0
 93
       13
 44
0.0
173
     0
291
     1
 45
0.0
1001
ACAD
1000
AcDbSavedByObjectVersion
1070
     0
  0
VISUALSTYLE
  5
38
102
{ACAD_REACTORS
330
2A
102
}
330
2A
100
AcDbVisualStyle
  2
Linepattern
 70
    14
 71
     2
 72
     2
 73
     0
 90
        0
 40
-0.6
 41
-30.0
 62
     5
 63
     7
421
 16777215
 74
     1
 91
        4
 64
     7
 65
   257
 75
     7
175
     7
 42
1.0
 92
        8
 66
     7
 43
1.0
 76
     1
 77
     6
 78
     2
 67
     7
 79
     5
170
     0
171
     0
290
     0
174
     0
 93
        1
 44
0.0
173
     0
291
     1
 45
0.0
1001
ACAD
1000
AcDbSavedByObjectVersion
1070
     0
  0
VISUALSTYLE
  5
33
102
{ACAD_REACTORS
330
2A
102
}
330
2A
100
AcDbVisualStyle
  2
Realistic
 70
     8
 71
     2
 72
     2
 73
     0
 90
        0
 40
-0.6
 41
-30.0
 62
     5
 63
     7
421
 16777215
 74
     1
 91
        0
 64
     7
 65
   257
 75
     1
175
     1
 42
1.0
 92
        8
 66
     8
424
  7895160
 43
1.0
 76
     1
 77
     6
 78
     2
 67
     7
 79
     5
170
     0
171
     0
290
     0
174
     0
 93
       13
 44
0.0
173
     0
291
     0
 45
0.0
1001
ACAD
1000
AcDbSavedByObjectVersion
1070
     0
  0
VISUALSTYLE
  5
37
102
{ACAD_REACTORS
330
2A
102
}
330
2A
100
AcDbVisualStyle
  2
Thicken
 70
    13
 71
     2
 72
     2
 73
     0
 90
        0
 40
-0.6
 41
-30.0
 62
     5
 63
     7
421
 16777215
 74
     1
 91
        4
 64
     7
 65
   257
 75
     1
175
     1
 42
1.0
 92
       12
 66
     7
 43
1.0
 76
     1
 77
     6
 78
     2
 67
     7
 79
     5
170
     0
171
     0
290
     0
174
     0
 93
        1
 44
0.0
173
     0
291
     1
 45
0.0
1001
ACAD
1000
AcDbSavedByObjectVersion
1070
     0
  0
ENDSEC
  0
EOF
