  0
SECTION
  2
HEADER
  9
$ACADVER
  1
AC1018
  9
$ACADMAINTVER
 70
     0
  9
$DWGCODEPAGE
  3
ANSI_1252
  9
$INSBASE
 10
0.0
 20
0.0
 30
0.0
  9
$EXTMIN
 10
-33.46158496690018
 20
0.0000000000000004
 30
0.0
  9
$EXTMAX
 10
79.09412951230627
 20
96.04813023441918
 30
0.0
  9
$LIMMIN
 10
0.0
 20
0.0
  9
$LIMMAX
 10
12.0
 20
9.0
  9
$ORTHOMODE
 70
     0
  9
$REGENMODE
 70
     1
  9
$FILLMODE
 70
     1
  9
$QTEXTMODE
 70
     0
  9
$MIRRTEXT
 70
     1
  9
$LTSCALE
 40
0.0393700787401575
  9
$ATTMODE
 70
     1
  9
$TEXTSIZE
 40
0.2
  9
$TRACEWID
 40
0.05
  9
$TEXTSTYLE
  7
Standard
  9
$CLAYER
  8
DEFAULT
  9
$CELTYPE
  6
ByLayer
  9
$CECOLOR
 62
   256
  9
$CELTSCALE
 40
1.0
  9
$DISPSILH
 70
     0
  9
$DIMSCALE
 40
1.0
  9
$DIMASZ
 40
0.18
  9
$DIMEXO
 40
0.0625
  9
$DIMDLI
 40
0.38
  9
$DIMRND
 40
0.0
  9
$DIMDLE
 40
0.0
  9
$DIMEXE
 40
0.18
  9
$DIMTP
 40
0.0
  9
$DIMTM
 40
0.0
  9
$DIMTXT
 40
0.18
  9
$DIMCEN
 40
0.09
  9
$DIMTSZ
 40
0.0
  9
$DIMTOL
 70
     0
  9
$DIMLIM
 70
     0
  9
$DIMTIH
 70
     1
  9
$DIMTOH
 70
     1
  9
$DIMSE1
 70
     0
  9
$DIMSE2
 70
     0
  9
$DIMTAD
 70
     0
  9
$DIMZIN
 70
     0
  9
$DIMBLK
  1

  9
$DIMASO
 70
     1
  9
$DIMSHO
 70
     1
  9
$DIMPOST
  1

  9
$DIMAPOST
  1

  9
$DIMALT
 70
     0
  9
$DIMALTD
 70
     2
  9
$DIMALTF
 40
25.4
  9
$DIMLFAC
 40
1.0
  9
$DIMTOFL
 70
     0
  9
$DIMTVP
 40
0.0
  9
$DIMTIX
 70
     0
  9
$DIMSOXD
 70
     0
  9
$DIMSAH
 70
     0
  9
$DIMBLK1
  1

  9
$DIMBLK2
  1

  9
$DIMSTYLE
  2
Standard
  9
$DIMCLRD
 70
     0
  9
$DIMCLRE
 70
     0
  9
$DIMCLRT
 70
     0
  9
$DIMTFAC
 40
1.0
  9
$DIMGAP
 40
0.09
  9
$DIMJUST
 70
     0
  9
$DIMSD1
 70
     0
  9
$DIMSD2
 70
     0
  9
$DIMTOLJ
 70
     1
  9
$DIMTZIN
 70
     0
  9
$DIMALTZ
 70
     0
  9
$DIMALTTZ
 70
     0
  9
$DIMUPT
 70
     0
  9
$DIMDEC
 70
     4
  9
$DIMTDEC
 70
     4
  9
$DIMALTU
 70
     2
  9
$DIMALTTD
 70
     2
  9
$DIMTXSTY
  7
Standard
  9
$DIMAUNIT
 70
     0
  9
$DIMADEC
 70
     0
  9
$DIMALTRND
 40
0.0
  9
$DIMAZIN
 70
     0
  9
$DIMDSEP
 70
    46
  9
$DIMATFIT
 70
     3
  9
$DIMFRAC
 70
     0
  9
$DIMLDRBLK
  1

  9
$DIMLUNIT
 70
     2
  9
$DIMLWD
 70
    -2
  9
$DIMLWE
 70
    -2
  9
$DIMTMOVE
 70
     2
  9
$LUNITS
 70
     2
  9
$LUPREC
 70
     3
  9
$SKETCHINC
 40
0.1
  9
$FILLETRAD
 40
0.5
  9
$AUNITS
 70
     0
  9
$AUPREC
 70
     0
  9
$MENU
  1
.
  9
$ELEVATION
 40
0.0
  9
$PELEVATION
 40
0.0
  9
$THICKNESS
 40
0.0
  9
$LIMCHECK
 70
     0
  9
$CHAMFERA
 40
0.5
  9
$CHAMFERB
 40
0.5
  9
$CHAMFERC
 40
1.0
  9
$CHAMFERD
 40
0.0
  9
$SKPOLY
 70
     0
  9
$TDCREATE
 40
2455908.649534734
  9
$TDUCREATE
 40
2455908.857868067
  9
$TDUPDATE
 40
2455908.649534745
  9
$TDUUPDATE
 40
2455908.857868079
  9
$TDINDWG
 40
0.0000000116
  9
$TDUSRTIMER
 40
0.0000000116
  9
$USRTIMER
 70
     1
  9
$ANGBASE
 50
0.0
  9
$ANGDIR
 70
     0
  9
$PDMODE
 70
     0
  9
$PDSIZE
 40
0.0
  9
$PLINEWID
 40
0.0
  9
$SPLFRAME
 70
     0
  9
$SPLINETYPE
 70
     6
  9
$SPLINESEGS
 70
     8
  9
$HANDSEED
  5
15B
  9
$SURFTAB1
 70
     6
  9
$SURFTAB2
 70
     6
  9
$SURFTYPE
 70
     6
  9
$SURFU
 70
     6
  9
$SURFV
 70
     6
  9
$UCSBASE
  2

  9
$UCSNAME
  2

  9
$UCSORG
 10
0.0
 20
0.0
 30
0.0
  9
$UCSXDIR
 10
1.0
 20
0.0
 30
0.0
  9
$UCSYDIR
 10
0.0
 20
1.0
 30
0.0
  9
$UCSORTHOREF
  2

  9
$UCSORTHOVIEW
 70
     0
  9
$UCSORGTOP
 10
0.0
 20
0.0
 30
0.0
  9
$UCSORGBOTTOM
 10
0.0
 20
0.0
 30
0.0
  9
$UCSORGLEFT
 10
0.0
 20
0.0
 30
0.0
  9
$UCSORGRIGHT
 10
0.0
 20
0.0
 30
0.0
  9
$UCSORGFRONT
 10
0.0
 20
0.0
 30
0.0
  9
$UCSORGBACK
 10
0.0
 20
0.0
 30
0.0
  9
$PUCSBASE
  2

  9
$PUCSNAME
  2

  9
$PUCSORG
 10
0.0
 20
0.0
 30
0.0
  9
$PUCSXDIR
 10
1.0
 20
0.0
 30
0.0
  9
$PUCSYDIR
 10
0.0
 20
1.0
 30
0.0
  9
$PUCSORTHOREF
  2

  9
$PUCSORTHOVIEW
 70
     0
  9
$PUCSORGTOP
 10
0.0
 20
0.0
 30
0.0
  9
$PUCSORGBOTTOM
 10
0.0
 20
0.0
 30
0.0
  9
$PUCSORGLEFT
 10
0.0
 20
0.0
 30
0.0
  9
$PUCSORGRIGHT
 10
0.0
 20
0.0
 30
0.0
  9
$PUCSORGFRONT
 10
0.0
 20
0.0
 30
0.0
  9
$PUCSORGBACK
 10
0.0
 20
0.0
 30
0.0
  9
$USERI1
 70
     0
  9
$USERI2
 70
     0
  9
$USERI3
 70
     0
  9
$USERI4
 70
     0
  9
$USERI5
 70
     0
  9
$USERR1
 40
0.0
  9
$USERR2
 40
0.0
  9
$USERR3
 40
0.0
  9
$USERR4
 40
0.0
  9
$USERR5
 40
0.0
  9
$WORLDVIEW
 70
     1
  9
$SHADEDGE
 70
     3
  9
$SHADEDIF
 70
    70
  9
$TILEMODE
 70
     1
  9
$MAXACTVP
 70
    64
  9
$PINSBASE
 10
0.0
 20
0.0
 30
0.0
  9
$PLIMCHECK
 70
     0
  9
$PEXTMIN
 10
1.000000000000000E+20
 20
1.000000000000000E+20
 30
1.000000000000000E+20
  9
$PEXTMAX
 10
-1.000000000000000E+20
 20
-1.000000000000000E+20
 30
-1.000000000000000E+20
  9
$PLIMMIN
 10
0.0
 20
0.0
  9
$PLIMMAX
 10
12.0
 20
9.0
  9
$UNITMODE
 70
     0
  9
$VISRETAIN
 70
     1
  9
$PLINEGEN
 70
     0
  9
$PSLTSCALE
 70
     1
  9
$TREEDEPTH
 70
  3020
  9
$CMLSTYLE
  2
Standard
  9
$CMLJUST
 70
     0
  9
$CMLSCALE
 40
1.0
  9
$PROXYGRAPHICS
 70
     1
  9
$MEASUREMENT
 70
     0
  9
$CELWEIGHT
370
    -1
  9
$ENDCAPS
280
     0
  9
$JOINSTYLE
280
     0
  9
$LWDISPLAY
290
     0
  9
$INSUNITS
 70
     1
  9
$HYPERLINKBASE
  1

  9
$STYLESHEET
  1

  9
$XEDIT
290
     1
  9
$CEPSNTYPE
380
     0
  9
$PSTYLEMODE
290
     1
  9
$FINGERPRINTGUID
  2
{FCD2CC8A-EB06-485A-8EAE-07268BDE9DEC}
  9
$VERSIONGUID
  2
{FAEB1C32-E019-11D5-929B-00C0DF256EC4}
  9
$EXTNAMES
290
     1
  9
$PSVPSCALE
 40
0.0
  9
$OLESTARTUP
290
     0
  9
$SORTENTS
280
   127
  9
$INDEXCTL
280
     0
  9
$HIDETEXT
280
     1
  9
$XCLIPFRAME
290
     0
  9
$HALOGAP
280
     0
  9
$OBSCOLOR
 70
   257
  9
$OBSLTYPE
280
     0
  9
$INTERSECTIONDISPLAY
280
     0
  9
$INTERSECTIONCOLOR
 70
   257
  9
$DIMASSOC
280
     2
  9
$PROJECTNAME
  1

  0
ENDSEC
  0
SECTION
  2
CLASSES
  0
CLASS
  1
ACDBDICTIONARYWDFLT
  2
AcDbDictionaryWithDefault
  3
ObjectDBX Classes
 90
        0
 91
        4
280
     0
281
     0
  0
CLASS
  1
VISUALSTYLE
  2
AcDbVisualStyle
  3
ObjectDBX Classes
 90
     4095
 91
        4
280
     0
281
     0
  0
ENDSEC
  0
SECTION
  2
TABLES
  0
TABLE
  2
VPORT
  5
8
330
0
100
AcDbSymbolTable
 70
     1
  0
VPORT
  5
29
330
8
100
AcDbSymbolTableRecord
100
AcDbViewportTableRecord
  2
*Active
 70
     0
 10
0.0
 20
0.0
 11
1.0
 21
1.0
 12
22.81627227270305
 22
48.02406511720959
 13
0.0
 23
0.0
 14
0.5
 24
0.5
 15
0.5
 25
0.5
 16
0.0
 26
0.0
 36
1.0
 17
0.0
 27
0.0
 37
0.0
 40
97.96909283910756
 41
1.171867835474758
 42
50.0
 43
0.0
 44
0.0
 50
0.0
 51
0.0
 71
     0
 72
   100
 73
     1
 74
     3
 75
     0
 76
     0
 77
     0
 78
     0
281
     0
 65
     1
110
0.0
120
0.0
130
0.0
111
1.0
121
0.0
131
0.0
112
0.0
122
1.0
132
0.0
 79
     0
146
0.0
  0
ENDTAB
  0
TABLE
  2
LTYPE
  5
5
330
0
100
AcDbSymbolTable
 70
     1
  0
LTYPE
  5
14
330
5
100
AcDbSymbolTableRecord
100
AcDbLinetypeTableRecord
  2
ByBlock
 70
     0
  3

 72
    65
 73
     0
 40
0.0
  0
LTYPE
  5
15
330
5
100
AcDbSymbolTableRecord
100
AcDbLinetypeTableRecord
  2
ByLayer
 70
     0
  3

 72
    65
 73
     0
 40
0.0
  0
LTYPE
  5
16
330
5
100
AcDbSymbolTableRecord
100
AcDbLinetypeTableRecord
  2
Continuous
 70
     0
  3
Solid line
 72
    65
 73
     0
 40
0.0
  0
ENDTAB
  0
TABLE
  2
LAYER
  5
2
330
0
100
AcDbSymbolTable
 70
     3
  0
LAYER
  5
10
330
2
100
AcDbSymbolTableRecord
100
AcDbLayerTableRecord
  2
0
 70
     0
 62
     7
  6
Continuous
370
    -3
390
F
  0
LAYER
  5
3B
330
2
100
AcDbSymbolTableRecord
100
AcDbLayerTableRecord
  2
DEFAULT
 70
     0
 62
     7
  6
Continuous
370
    -3
390
F
  0
LAYER
  5
43
330
2
100
AcDbSymbolTableRecord
100
AcDbLayerTableRecord
  2
MAKE2D VISIBLE LINES
 70
     0
 62
     7
  6
Continuous
370
    -3
390
F
  0
ENDTAB
  0
TABLE
  2
STYLE
  5
3
330
0
100
AcDbSymbolTable
 70
     1
  0
STYLE
  5
11
330
3
100
AcDbSymbolTableRecord
100
AcDbTextStyleTableRecord
  2
Standard
 70
     0
 40
0.0
 41
1.0
 50
0.0
 71
     0
 42
0.2
  3
txt
  4

  0
ENDTAB
  0
TABLE
  2
VIEW
  5
6
330
0
100
AcDbSymbolTable
 70
     0
  0
ENDTAB
  0
TABLE
  2
UCS
  5
7
330
0
100
AcDbSymbolTable
 70
     0
  0
ENDTAB
  0
TABLE
  2
APPID
  5
9
330
0
100
AcDbSymbolTable
 70
     1
  0
APPID
  5
12
330
9
100
AcDbSymbolTableRecord
100
AcDbRegAppTableRecord
  2
ACAD
 70
     0
  0
ENDTAB
  0
TABLE
  2
DIMSTYLE
  5
A
330
0
100
AcDbSymbolTable
 70
     1
100
AcDbDimStyleTable
  0
DIMSTYLE
105
27
330
A
100
AcDbSymbolTableRecord
100
AcDbDimStyleTableRecord
  2
Standard
 70
     0
340
11
  0
ENDTAB
  0
TABLE
  2
BLOCK_RECORD
  5
1
330
0
100
AcDbSymbolTable
 70
     1
  0
BLOCK_RECORD
  5
1F
330
1
100
AcDbSymbolTableRecord
100
AcDbBlockTableRecord
  2
*Model_Space
340
22
  0
BLOCK_RECORD
  5
1B
330
1
100
AcDbSymbolTableRecord
100
AcDbBlockTableRecord
  2
*Paper_Space
340
1E
  0
BLOCK_RECORD
  5
23
330
1
100
AcDbSymbolTableRecord
100
AcDbBlockTableRecord
  2
*Paper_Space0
340
26
  0
ENDTAB
  0
ENDSEC
  0
SECTION
  2
BLOCKS
  0
BLOCK
  5
20
330
1F
100
AcDbEntity
  8
0
100
AcDbBlockBegin
  2
*Model_Space
 70
     0
 10
0.0
 20
0.0
 30
0.0
  3
*Model_Space
  1

  0
ENDBLK
  5
21
330
1F
100
AcDbEntity
  8
0
100
AcDbBlockEnd
  0
BLOCK
  5
1C
330
1B
100
AcDbEntity
 67
     1
  8
0
100
AcDbBlockBegin
  2
*Paper_Space
 70
     0
 10
0.0
 20
0.0
 30
0.0
  3
*Paper_Space
  1

  0
ENDBLK
  5
1D
330
1B
100
AcDbEntity
 67
     1
  8
0
100
AcDbBlockEnd
  0
BLOCK
  5
24
330
23
100
AcDbEntity
  8
0
100
AcDbBlockBegin
  2
*Paper_Space0
 70
     0
 10
0.0
 20
0.0
 30
0.0
  3
*Paper_Space0
  1

  0
ENDBLK
  5
25
330
23
100
AcDbEntity
  8
0
100
AcDbBlockEnd
  0
ENDSEC
  0
SECTION
  2
ENTITIES
  0
SPLINE
  5
3C
330
1F
100
AcDbEntity
  8
DEFAULT
100
AcDbSpline
210
0.0
220
0.0
230
1.0
 70
    24
 71
     2
 72
     6
 73
     3
 74
     0
 42
0.0000000001
 43
0.0000000001
 40
0.0
 40
0.0
 40
0.0
 40
0.125
 40
0.125
 40
0.125
 10
46.19863164654207
 20
0.1250000000000004
 30
0.0
 10
46.19883545766025
 20
0.0625000000000005
 30
0.0
 10
46.19903926877844
 20
0.0000000000000005
 30
0.0
  0
SPLINE
  5
3D
330
1F
100
AcDbEntity
  8
DEFAULT
100
AcDbSpline
210
0.0
220
0.0
230
1.0
 70
    28
 71
     2
 72
    12
 73
     9
 74
     0
 42
0.0000000001
 43
0.0000000001
 40
-1.883572933821467
 40
-1.883572933821467
 40
-1.883572933821467
 40
-1.785076191315903
 40
-1.785076191315903
 40
-0.7817966106311127
 40
-0.7817966106311127
 40
-0.3878096406088539
 40
-0.3878096406088539
 40
-0.098174770424681
 40
-0.098174770424681
 40
-0.098174770424681
 10
46.19903926877843
 20
0.0000000000000005
 30
0.0
 41
0.8901650429449552
 10
46.20329479737558
 20
0.0000000000000005
 30
0.0
 41
0.9267766952966369
 10
46.22436822072829
 20
0.0000000000000004
 30
0.0
 41
1.0
 10
46.44532899410005
 20
0.0000000000000004
 30
0.0
 41
1.0
 10
46.66628976747184
 20
0.0000000000000004
 30
0.0
 41
1.0
 10
46.77677015415789
 20
0.0000000000000006
 30
0.0
 41
0.7071067811865476
 10
47.00103357997169
 20
0.0000000000000004
 30
0.0
 41
1.0
 10
47.149599157011
 20
0.0000000000000006
 30
0.0
 41
0.7846830076536132
 10
47.14014557104944
 20
0.0000000000000005
 30
0.0
 41
0.8859415057259526
  0
SPLINE
  5
3E
330
1F
100
AcDbEntity
  8
DEFAULT
100
AcDbSpline
210
0.0
220
0.0
230
1.0
 70
    24
 71
     2
 72
     6
 73
     3
 74
     0
 42
0.0000000001
 43
0.0000000001
 40
0.0
 40
0.0
 40
0.0
 40
0.125
 40
0.125
 40
0.125
 10
47.14014557104944
 20
0.0000000000000005
 30
0.0
 10
47.14034938216763
 20
0.0625000000000005
 30
0.0
 10
47.14055319328581
 20
0.1250000000000004
 30
0.0
  0
SPLINE
  5
3F
330
1F
100
AcDbEntity
  8
DEFAULT
100
AcDbSpline
210
0.0
220
0.0
230
1.0
 70
    24
 71
     2
 72
     6
 73
     3
 74
     0
 42
0.0000000001
 43
0.0000000001
 40
-0.125
 40
-0.125
 40
-0.125
 40
0.0
 40
0.0
 40
0.0
 10
75.33963463184584
 20
0.1250000000000004
 30
0.0
 10
75.33940845500713
 20
0.0625000000000005
 30
0.0
 10
75.33918227816842
 20
0.0000000000000005
 30
0.0
  0
SPLINE
  5
40
330
1F
100
AcDbEntity
  8
DEFAULT
100
AcDbSpline
210
0.0
220
0.0
230
1.0
 70
    28
 71
     2
 72
     8
 73
     5
 74
     0
 42
0.0000000001
 43
0.0000000001
 40
2.227184630307851
 40
2.227184630307851
 40
2.227184630307851
 40
2.565968549938491
 40
2.565968549938491
 40
3.570796326793997
 40
3.570796326793997
 40
3.570796326793997
 10
75.33918227816841
 20
0.0000000000000005
 30
0.0
 41
0.9288656988897741
 10
75.35137421499849
 20
0.0000000000000006
 30
0.0
 41
0.7485332392097582
 10
75.15585537866129
 20
0.0000000000000004
 30
0.0
 41
1.0
 10
74.67371509745196
 20
0.0000000000000004
 30
0.0
 41
1.0
 10
74.1915748162426
 20
0.0000000000000004
 30
0.0
 41
1.0
  0
SPLINE
  5
41
330
1F
100
AcDbEntity
  8
DEFAULT
100
AcDbSpline
210
0.0
220
0.0
230
1.0
 70
    24
 71
     2
 72
     6
 73
     3
 74
     0
 42
0.0000000001
 43
0.0000000001
 40
0.0
 40
0.0
 40
0.0
 40
0.3153160394606687
 40
0.3153160394606687
 40
0.3153160394606687
 10
74.1915748162426
 20
0.0000000000000004
 30
0.0
 10
74.03369061967355
 20
0.0000000000000005
 30
0.0
 10
73.87580642310449
 20
0.0000000000000005
 30
0.0
  0
SPLINE
  5
42
330
1F
100
AcDbEntity
  8
DEFAULT
100
AcDbSpline
210
0.0
220
0.0
230
1.0
 70
    24
 71
     2
 72
     6
 73
     3
 74
     0
 42
0.0000000001
 43
0.0000000001
 40
-0.125
 40
-0.125
 40
-0.125
 40
0.0
 40
0.0
 40
0.0
 10
73.87580642310449
 20
0.0000000000000005
 30
0.0
 10
73.87558024626578
 20
0.0625000000000005
 30
0.0
 10
73.87535406942708
 20
0.1250000000000004
 30
0.0
  0
SPLINE
  5
44
330
1F
100
AcDbEntity
  8
MAKE2D VISIBLE LINES
100
AcDbSpline
210
0.0
220
0.0
230
1.0
 70
    24
 71
     2
 72
     6
 73
     3
 74
     0
 42
0.0000000001
 43
0.0000000001
 40
0.0
 40
0.0
 40
0.0
 40
31.76609894056518
 40
31.76609894056518
 40
31.76609894056518
 10
63.21404463777753
 20
2.894507486669652
 30
0.0
 10
58.89605263747779
 20
16.92443907312054
 30
0.0
 10
54.57806063717804
 20
30.95437065957142
 30
0.0
  0
SPLINE
  5
45
330
1F
100
AcDbEntity
  8
MAKE2D VISIBLE LINES
100
AcDbSpline
210
0.0
220
0.0
230
1.0
 70
    12
 71
     2
 72
     6
 73
     3
 74
     0
 42
0.0000000001
 43
0.0000000001
 40
0.0
 40
0.0
 40
0.0
 40
4.792958690579819
 40
4.792958690579819
 40
4.792958690579819
 10
54.57806063717804
 20
30.95437065957142
 30
0.0
 41
1.0
 10
53.83760878775745
 20
33.24643240278566
 30
0.0
 41
0.9924095483403553
 10
53.67901476957736
 20
35.64990154413408
 30
0.0
 41
1.0
  0
SPLINE
  5
46
330
1F
100
AcDbEntity
  8
MAKE2D VISIBLE LINES
100
AcDbSpline
210
0.0
220
0.0
230
1.0
 70
    24
 71
     2
 72
     6
 73
     3
 74
     0
 42
0.0000000001
 43
0.0000000001
 40
0.0
 40
0.0
 40
0.0
 40
10.47356404981769
 40
10.47356404981769
 40
10.47356404981769
 10
53.67901476957736
 20
35.64990154413408
 30
0.0
 10
53.25909214716313
 20
40.86982021855739
 30
0.0
 10
52.8391695247489
 20
46.08973889298069
 30
0.0
  0
SPLINE
  5
47
330
1F
100
AcDbEntity
  8
MAKE2D VISIBLE LINES
100
AcDbSpline
210
0.0
220
0.0
230
1.0
 70
     8
 71
     3
 72
    14
 73
    10
 74
     0
 42
0.0000000001
 43
0.0000000001
 40
0.0
 40
0.0
 40
0.0
 40
0.0
 40
0.2053831619060891
 40
0.3945886379479012
 40
0.7406336328980695
 40
0.8813631492149034
 40
0.9944813011945947
 40
1.081374675333043
 40
1.155363091017738
 40
1.155363091017738
 40
1.155363091017738
 40
1.155363091017738
 10
52.8391695247489
 20
46.08973889298069
 30
0.0
 10
52.83357961880084
 20
46.15791279749702
 30
0.0
 10
52.81928711712548
 20
46.28889231471014
 30
0.0
 10
52.77571177521257
 20
46.53177014227161
 30
0.0
 10
52.71459777174657
 20
46.74966111367615
 30
0.0
 10
52.62798105915006
 20
46.93052635117942
 30
0.0
 10
52.56233571335777
 20
47.02378805089357
 30
0.0
 10
52.49268880593546
 20
47.08452208049896
 30
0.0
 10
52.44009876440286
 20
47.10132303969496
 30
0.0
 10
52.41531609324339
 20
47.10114728629243
 30
0.0
  0
LINE
  5
48
330
1F
100
AcDbEntity
  8
MAKE2D VISIBLE LINES
100
AcDbLine
 10
52.41531609324339
 20
47.10114728629243
 30
0.0
 11
42.19775928419112
 21
47.10114707173081
 31
0.0
  0
SPLINE
  5
49
330
1F
100
AcDbEntity
  8
MAKE2D VISIBLE LINES
100
AcDbSpline
210
0.0
220
0.0
230
1.0
 70
    24
 71
     2
 72
     6
 73
     3
 74
     0
 42
0.0000000001
 43
0.0000000001
 40
0.0
 40
0.0
 40
0.0
 40
12.03833059191399
 40
12.03833059191399
 40
12.03833059191399
 10
42.19775928419112
 20
47.10114707173081
 30
0.0
 10
42.51385293668513
 20
41.09028715377633
 30
0.0
 10
42.82994658917914
 20
35.07942723582186
 30
0.0
  0
SPLINE
  5
4A
330
1F
100
AcDbEntity
  8
MAKE2D VISIBLE LINES
100
AcDbSpline
210
0.0
220
0.0
230
1.0
 70
     8
 71
     3
 72
    12
 73
     8
 74
     0
 42
0.0000000001
 43
0.0000000001
 40
0.0
 40
0.0
 40
0.0
 40
0.0
 40
0.5842607364545118
 40
1.155334705491526
 40
2.34235337061909
 40
3.562470164664531
 40
4.819520268457928
 40
4.819520268457928
 40
4.819520268457928
 40
4.819520268457928
 10
42.82994658917914
 20
35.07942723582186
 30
0.0
 10
42.8408529790761
 20
34.88496988371521
 30
0.0
 10
42.86882885703945
 20
34.50084672183193
 30
0.0
 10
42.95110481291569
 20
33.72426282713599
 30
0.0
 10
43.10605795963043
 20
32.74319211936688
 30
0.0
 10
43.37010921195461
 20
31.55010924494192
 30
0.0
 10
43.59719052961132
 20
30.75583812932535
 30
0.0
 10
43.72309494626812
 20
30.35619742969967
 30
0.0
  0
SPLINE
  5
4B
330
1F
100
AcDbEntity
  8
MAKE2D VISIBLE LINES
100
AcDbSpline
210
0.0
220
0.0
230
1.0
 70
    24
 71
     2
 72
     6
 73
     3
 74
     0
 42
0.0000000001
 43
0.0000000001
 40
0.0
 40
0.0
 40
0.0
 40
34.29812959559077
 40
34.29812959559077
 40
34.29812959559077
 10
43.72309494626812
 20
30.35619742969967
 30
0.0
 10
48.45964320638986
 20
16.05309871485041
 30
0.0
 10
53.19619146651159
 20
1.750000000001151
 30
0.0
  0
SPLINE
  5
4C
330
1F
100
AcDbEntity
  8
MAKE2D VISIBLE LINES
100
AcDbSpline
210
0.0
220
0.0
230
1.0
 70
     8
 71
     3
 72
    15
 73
    11
 74
     0
 42
0.0000000001
 43
0.0000000001
 40
-1.236916117700144
 40
-1.236916117700144
 40
-1.236916117700144
 40
-1.236916117700144
 40
-1.163370540336203
 40
-1.077095988194418
 40
-0.963596546182174
 40
-0.8223157427221014
 40
-0.6520757545804183
 40
-0.4514399742970963
 40
-0.2299487503931745
 40
0.0
 40
0.0
 40
0.0
 40
0.0
 10
63.17590811083022
 20
1.750000000001296
 30
0.0
 10
63.20036469108757
 20
1.749352544849033
 30
0.0
 10
63.25377715830419
 20
1.768074904469512
 30
0.0
 10
63.3076738529856
 20
1.844712135638454
 30
0.0
 10
63.3387670170311
 20
1.954675734546443
 30
0.0
 10
63.35154755249062
 20
2.096228181139563
 30
0.0
 10
63.34550593595799
 20
2.267035315712302
 30
0.0
 10
63.32039490601065
 20
2.463073616253882
 30
0.0
 10
63.27650591283856
 20
2.676080304114959
 30
0.0
 10
63.23659201521633
 20
2.821250430246616
 30
0.0
 10
63.21404463777753
 20
2.894507486669652
 30
0.0
  0
LINE
  5
4D
330
1F
100
AcDbEntity
  8
MAKE2D VISIBLE LINES
100
AcDbLine
 10
53.19619146651159
 20
1.750000000001151
 30
0.0
 11
65.69927289709179
 21
1.750000000001311
 31
0.0
  0
SPLINE
  5
4E
330
1F
100
AcDbEntity
  8
MAKE2D VISIBLE LINES
100
AcDbSpline
210
0.0
220
0.0
230
1.0
 70
     8
 71
     3
 72
    14
 73
    10
 74
     0
 42
0.0000000001
 43
0.0000000001
 40
0.0
 40
0.0
 40
0.0
 40
0.0
 40
0.0735455755384312
 40
0.1598201264570822
 40
0.2733195678976602
 40
0.4146003711798611
 40
0.5848403593480705
 40
0.7854761397529678
 40
1.236916114429224
 40
1.236916114429224
 40
1.236916114429224
 40
1.236916114429224
 10
65.69927289709179
 20
1.750000000001311
 30
0.0
 10
65.72372729938462
 20
1.749352388819132
 30
0.0
 10
65.7771463092792
 20
1.768075217593029
 30
0.0
 10
65.83103195841451
 20
1.84471165776829
 30
0.0
 10
65.8621440625609
 20
1.954676613375033
 30
0.0
 10
65.87488966066934
 20
2.096226557205459
 30
0.0
 10
65.86891183406098
 20
2.267038261449358
 30
0.0
 10
65.83390089451419
 20
2.53916504487629
 30
0.0
 10
65.78149628705165
 20
2.750674978730673
 30
0.0
 10
65.73740941301122
 20
2.894507486729661
 30
0.0
  0
SPLINE
  5
4F
330
1F
100
AcDbEntity
  8
DEFAULT
100
AcDbSpline
210
0.0
220
0.0
230
1.0
 70
    24
 71
     2
 72
     6
 73
     3
 74
     0
 42
0.0000000001
 43
0.0000000001
 40
0.0
 40
0.0
 40
0.0
 40
0.125
 40
0.125
 40
0.125
 10
55.32412623946074
 20
0.0000000000000004
 30
0.0
 10
55.32412623946075
 20
0.0625000000000004
 30
0.0
 10
55.32412623946077
 20
0.1250000000000004
 30
0.0
  0
SPLINE
  5
50
330
1F
100
AcDbEntity
  8
MAKE2D VISIBLE LINES
100
AcDbSpline
210
0.0
220
0.0
230
1.0
 70
     8
 71
     3
 72
    10
 73
     6
 74
     0
 42
0.0000000001
 43
0.0000000001
 40
0.0
 40
0.0
 40
0.0
 40
0.0
 40
1.0
 40
2.0
 40
3.0
 40
3.0
 40
3.0
 40
3.0
 10
79.09412951230627
 20
15.95111377400953
 30
0.0
 10
77.21678952968237
 20
15.76443944561158
 30
0.0
 10
73.43877357723223
 20
15.49488658699756
 30
0.0
 10
67.78045221375775
 20
15.06193266572054
 30
0.0
 10
64.0083514907536
 20
14.74888546222673
 30
0.0
 10
62.11881082445842
 20
14.6519174811003
 30
0.0
  0
LINE
  5
51
330
1F
100
AcDbEntity
  8
DEFAULT
100
AcDbLine
 10
54.24526001703113
 20
32.27796879868575
 30
0.0
 11
45.22060625305492
 21
28.92064456120423
 31
0.0
  0
SPLINE
  5
52
330
1F
100
AcDbEntity
  8
DEFAULT
100
AcDbSpline
210
0.0
220
0.0
230
1.0
 70
    12
 71
     2
 72
     6
 73
     3
 74
     0
 42
0.0000000001
 43
0.0000000001
 40
29.49802750771852
 40
29.49802750771852
 40
29.49802750771852
 40
35.19045913932161
 40
35.19045913932161
 40
35.19045913932161
 10
45.22060625305492
 20
28.92064456120423
 30
0.0
 41
1.0
 10
44.34110007515464
 20
28.59345334863206
 30
0.0
 41
0.9851733909628767
 10
44.43727647084268
 20
28.19956177746437
 30
0.0
 41
1.0
  0
POLYLINE
  5
53
330
1F
100
AcDbEntity
  8
DEFAULT
100
AcDb2dPolyline
 66
     1
 10
0.0
 20
0.0
 30
0.0
  0
VERTEX
  5
54
330
53
100
AcDbEntity
  8
DEFAULT
100
AcDbVertex
100
AcDb2dVertex
 10
60.89594852124524
 20
1.750499999990052
 30
0.0
  0
VERTEX
  5
55
330
53
100
AcDbEntity
  8
DEFAULT
100
AcDbVertex
100
AcDb2dVertex
 10
49.47832706105167
 20
30.51479203344625
 30
0.0
  0
SEQEND
  5
56
330
53
100
AcDbEntity
  8
DEFAULT
  0
POLYLINE
  5
57
330
1F
100
AcDbEntity
  8
DEFAULT
100
AcDb2dPolyline
 66
     1
 10
0.0
 20
0.0
 30
0.0
  0
VERTEX
  5
58
330
57
100
AcDbEntity
  8
DEFAULT
100
AcDbVertex
100
AcDb2dVertex
 10
54.24526001703113
 20
32.27796879868575
 30
0.0
  0
VERTEX
  5
59
330
57
100
AcDbEntity
  8
DEFAULT
100
AcDbVertex
100
AcDb2dVertex
 10
56.58889829331173
 20
32.85143343995762
 30
0.0
  0
SEQEND
  5
5A
330
57
100
AcDbEntity
  8
DEFAULT
  0
SPLINE
  5
5B
330
1F
100
AcDbEntity
  8
MAKE2D VISIBLE LINES
100
AcDbSpline
210
0.0
220
0.0
230
1.0
 70
    24
 71
     2
 72
     6
 73
     3
 74
     0
 42
0.0000000001
 43
0.0000000001
 40
-2.573126263032784
 40
-2.573126263032784
 40
-2.573126263032784
 40
0.0
 40
0.0
 40
0.0
 10
42.21358151703309
 20
47.10192343314007
 30
0.0
 10
43.49859933487762
 20
47.16496230368293
 30
0.0
 10
44.78361715272216
 20
47.2280011742258
 30
0.0
  0
POLYLINE
  5
5C
330
1F
100
AcDbEntity
  8
MAKE2D VISIBLE LINES
100
AcDb2dPolyline
 66
     1
 10
0.0
 20
0.0
 30
0.0
  0
VERTEX
  5
5D
330
5C
100
AcDbEntity
  8
MAKE2D VISIBLE LINES
100
AcDbVertex
100
AcDb2dVertex
 10
44.78361715272216
 20
47.2280011742258
 30
0.0
  0
VERTEX
  5
5E
330
5C
100
AcDbEntity
  8
MAKE2D VISIBLE LINES
100
AcDbVertex
100
AcDb2dVertex
 10
54.82828847786341
 20
47.22802811413811
 30
0.0
  0
SEQEND
  5
5F
330
5C
100
AcDbEntity
  8
MAKE2D VISIBLE LINES
  0
SPLINE
  5
60
330
1F
100
AcDbEntity
  8
MAKE2D VISIBLE LINES
100
AcDbSpline
210
0.0
220
0.0
230
1.0
 70
     8
 71
     3
 72
    10
 73
     6
 74
     0
 42
0.0000000001
 43
0.0000000001
 40
-3.0
 40
-3.0
 40
-3.0
 40
-3.0
 40
-2.0
 40
-1.0
 40
0.0
 40
0.0
 40
0.0
 40
0.0
 10
54.82828847786341
 20
47.22802811413811
 30
0.0
 10
54.96347929526912
 20
47.20687129985028
 30
0.0
 10
55.10064243655015
 20
46.96495700162245
 30
0.0
 10
55.20677656345799
 20
46.6013001020981
 30
0.0
 10
55.24180163011793
 20
46.34418941015995
 30
0.0
 10
55.25214191124032
 20
46.21661972063848
 30
0.0
  0
SPLINE
  5
61
330
1F
100
AcDbEntity
  8
MAKE2D VISIBLE LINES
100
AcDbSpline
210
0.0
220
0.0
230
1.0
 70
     8
 71
     3
 72
    24
 73
    20
 74
     0
 42
0.0000000001
 43
0.0000000001
 40
-14.32748956430061
 40
-14.32748956430061
 40
-14.32748956430061
 40
-14.32748956430061
 40
-13.89887570227589
 40
-12.89986795840186
 40
-11.75955504328819
 40
-10.91967859506746
 40
-10.30298757821011
 40
-4.117355291766313
 40
-4.117355291766313
 40
-4.117355291766313
 40
-3.544237146981377
 40
-3.07823197096564
 40
-2.055865890364934
 40
-1.03329239839182
 40
-0.5741243676093801
 40
0.0
 40
0.0
 40
0.0
 40
32.58538058199515
 40
32.58538058199515
 40
32.58538058199515
 40
32.58538058199515
 10
55.25214191124032
 20
46.21661972063848
 30
0.0
 10
55.28728336063436
 20
45.81455969275726
 30
0.0
 10
55.33151199042997
 20
45.34074496209172
 30
0.0
 10
55.40470066572458
 20
44.48789164014083
 30
0.0
 10
55.49915317176662
 20
43.4993213234749
 30
0.0
 10
55.57441269878159
 20
42.63696211556955
 30
0.0
 10
55.77912904165491
 20
40.09780233779205
 30
0.0
 10
55.96136945607866
 20
37.83769579595729
 30
0.0
 10
56.12682745524505
 20
35.78246212051548
 30
0.0
 10
56.14175950122187
 20
35.59201433840043
 30
0.0
 10
56.1684773306083
 20
35.24661082028746
 30
0.0
 10
56.24660158378565
 20
34.56381940259983
 30
0.0
 10
56.37919603955429
 20
33.73701625415451
 30
0.0
 10
56.5612588904868
 20
32.92201428324304
 30
0.0
 10
56.74067066859395
 20
32.26054330170116
 30
0.0
 10
56.84289431744308
 20
31.93157037628428
 30
0.0
 10
56.89955138417271
 20
31.74878722302216
 30
0.0
 10
59.84550406045221
 20
22.13069397759132
 30
0.0
 10
62.79145673673171
 20
12.51260073216049
 30
0.0
 10
65.73740941301122
 20
2.894507486729661
 30
0.0
  0
SPLINE
  5
62
330
1F
100
AcDbEntity
  8
MAKE2D VISIBLE LINES
100
AcDbSpline
210
0.0
220
0.0
230
1.0
 70
    24
 71
     2
 72
     6
 73
     3
 74
     0
 42
0.0000000001
 43
0.0000000001
 40
0.0
 40
0.0
 40
0.0
 40
0.5586088907330957
 40
0.5586088907330957
 40
0.5586088907330957
 10
62.7151079070847
 20
1.191391110237926
 30
0.0
 10
62.71510790708464
 20
1.470695555604474
 30
0.0
 10
62.71510790708459
 20
1.750000000971021
 30
0.0
  0
SPLINE
  5
63
330
1F
100
AcDbEntity
  8
MAKE2D VISIBLE LINES
100
AcDbSpline
210
0.0
220
0.0
230
1.0
 70
    24
 71
     2
 72
     6
 73
     3
 74
     0
 42
0.0000000001
 43
0.0000000001
 40
0.0
 40
0.0
 40
0.0
 40
0.5000000009699119
 40
0.5000000009699119
 40
0.5000000009699119
 10
61.61838585103439
 20
1.750000000971021
 30
0.0
 10
61.61838585103426
 20
1.500000000486065
 30
0.0
 10
61.61838585103413
 20
1.25000000000111
 30
0.0
  0
SPLINE
  5
64
330
1F
100
AcDbEntity
  8
MAKE2D VISIBLE LINES
100
AcDbSpline
210
0.0
220
0.0
230
1.0
 70
    24
 71
     2
 72
     6
 73
     3
 74
     0
 42
0.0000000001
 43
0.0000000001
 40
0.0
 40
0.0
 40
0.0
 40
0.5586088907330051
 40
0.5586088907330051
 40
0.5586088907330051
 10
61.75082734466588
 20
1.191391110238016
 30
0.0
 10
61.75082734466582
 20
1.470695555604519
 30
0.0
 10
61.75082734466577
 20
1.750000000971021
 30
0.0
  0
SPLINE
  5
65
330
1F
100
AcDbEntity
  8
MAKE2D VISIBLE LINES
100
AcDbSpline
210
0.0
220
0.0
230
1.0
 70
     8
 71
     3
 72
    12
 73
     8
 74
     0
 42
0.0000000001
 43
0.0000000001
 40
-1.770511659580738
 40
-1.770511659580738
 40
-1.770511659580738
 40
-1.770511659580738
 40
-1.452218395962218
 40
-1.020473648985952
 40
-0.5116383396967275
 40
-0.2599688693999945
 40
0.0
 40
0.0
 40
0.0
 40
0.0
 10
63.24988322270306
 20
10.97688097344692
 30
0.0
 10
63.35595548637335
 20
10.97934548923864
 30
0.0
 10
63.60576469194066
 20
10.98970917423637
 30
0.0
 10
64.02475866923444
 20
11.01277917899581
 30
0.0
 10
64.42135409995137
 20
11.03838780811065
 30
0.0
 10
64.76066890265685
 20
11.06231937549644
 30
0.0
 10
64.93074106344159
 20
11.07503768866221
 30
0.0
 10
65.01714171541244
 20
11.08168648428067
 30
0.0
  0
SPLINE
  5
66
330
1F
100
AcDbEntity
  8
MAKE2D VISIBLE LINES
100
AcDbSpline
210
0.0
220
0.0
230
1.0
 70
    24
 71
     2
 72
     6
 73
     3
 74
     0
 42
0.0000000001
 43
0.0000000001
 40
-13.00441790721268
 40
-13.00441790721268
 40
-13.00441790721268
 40
0.0
 40
0.0
 40
0.0
 10
65.01714171541244
 20
11.08168648428067
 30
0.0
 10
71.50015903135653
 20
11.58089361316369
 30
0.0
 10
77.98317634730063
 20
12.08010074204671
 30
0.0
  0
SPLINE
  5
67
330
1F
100
AcDbEntity
  8
MAKE2D VISIBLE LINES
100
AcDbSpline
210
0.0
220
0.0
230
1.0
 70
     8
 71
     3
 72
    14
 73
    10
 74
     0
 42
0.0000000001
 43
0.0000000001
 40
-1.112160890905293
 40
-1.112160890905293
 40
-1.112160890905293
 40
-1.112160890905293
 40
-0.3225032418007261
 40
-0.0888794224473427
 40
-0.0265265501206394
 40
-0.0089359360822733
 40
-0.0043345487448206
 40
-0.0013137869951253
 40
0.0
 40
0.0
 40
0.0
 40
0.0
 10
77.98317634730063
 20
12.08010074204671
 30
0.0
 10
78.24557746058267
 20
12.10050214889612
 30
0.0
 10
78.58554688207425
 20
12.12806528399536
 30
0.0
 10
78.94545294830573
 20
12.16576029322153
 30
0.0
 10
79.0489617904204
 20
12.1803466616407
 30
0.0
 10
79.07657867200714
 20
12.18613390265261
 30
0.0
 10
79.08452838099086
 20
12.18876159473241
 30
0.0
 10
79.08735999683451
 20
12.19008253030749
 30
0.0
 10
79.08784879871506
 20
12.19155535609845
 30
0.0
 10
79.08753451012034
 20
12.19199269524956
 30
0.0
  0
SPLINE
  5
68
330
1F
100
AcDbEntity
  8
MAKE2D VISIBLE LINES
100
AcDbSpline
210
0.0
220
0.0
230
1.0
 70
    24
 71
     2
 72
     6
 73
     3
 74
     0
 42
0.0000000001
 43
0.0000000001
 40
0.0
 40
0.0
 40
0.0
 40
3.757665013335291
 40
3.757665013335291
 40
3.757665013335291
 10
79.08753451012034
 20
12.19199269524956
 30
0.0
 10
79.0907323895196
 20
14.07125487155115
 30
0.0
 10
79.09393026891887
 20
15.95051704785274
 30
0.0
  0
SPLINE
  5
69
330
1F
100
AcDbEntity
  8
MAKE2D VISIBLE LINES
100
AcDbSpline
210
0.0
220
0.0
230
1.0
 70
     8
 71
     3
 72
    10
 73
     6
 74
     0
 42
0.0000000001
 43
0.0000000001
 40
0.0
 40
0.0
 40
0.0
 40
0.0
 40
1.0
 40
2.0
 40
3.0
 40
3.0
 40
3.0
 40
3.0
 10
79.09393026891887
 20
15.95051704785274
 30
0.0
 10
77.2913998880885
 20
16.79820265295182
 30
0.0
 10
73.31777076202573
 20
16.66754644670205
 30
0.0
 10
67.48710206722549
 20
16.70876327149015
 30
0.0
 10
63.58485942561226
 20
16.32715265575194
 30
0.0
 10
61.636764079323
 20
16.21816504360633
 30
0.0
  0
SPLINE
  5
6A
330
1F
100
AcDbEntity
  8
DEFAULT
100
AcDbSpline
210
0.0
220
0.0
230
1.0
 70
    12
 71
     2
 72
     6
 73
     3
 74
     0
 42
0.0000000001
 43
0.0000000001
 40
0.0
 40
0.0
 40
0.0
 40
0.425710263301547
 40
0.425710263301547
 40
0.425710263301547
 10
73.02756133754093
 20
11.69850707658054
 30
0.0
 41
1.0
 10
73.08803801809222
 20
11.49387732284982
 30
0.0
 41
0.996318660303748
 10
73.11267034505664
 20
11.28192446613231
 30
0.0
 41
1.0
  0
SPLINE
  5
6B
330
1F
100
AcDbEntity
  8
DEFAULT
100
AcDbSpline
210
0.0
220
0.0
230
1.0
 70
    24
 71
     2
 72
     6
 73
     3
 74
     0
 42
0.0000000001
 43
0.0000000001
 40
-10.79922068646632
 40
-10.79922068646632
 40
-10.79922068646632
 40
0.0
 40
0.0
 40
0.0
 10
73.11267034505664
 20
11.28192446613231
 30
0.0
 10
73.73222521096525
 20
6.265973843385311
 30
0.0
 10
74.35178007687385
 20
1.250023220638313
 30
0.0
  0
SPLINE
  5
6C
330
1F
100
AcDbEntity
  8
DEFAULT
100
AcDbSpline
210
0.0
220
0.0
230
1.0
 70
    12
 71
     3
 72
    27
 73
    23
 74
     0
 42
0.0000000001
 43
0.0000000001
 40
0.0
 40
0.0
 40
0.0
 40
0.0
 40
2.85832638867052
 40
2.85832638867052
 40
2.85832638867052
 40
3.74189932249265
 40
3.74189932249265
 40
3.74189932249265
 40
4.625472256314779
 40
4.625472256314779
 40
4.625472256314779
 40
5.099621663038619
 40
5.099621663038619
 40
5.099621663038619
 40
5.570059556793223
 40
5.570059556793223
 40
6.246309123622045
 40
6.246309123622045
 40
6.869272261056503
 40
6.869272261056503
 40
6.869272261056503
 40
20.18693665458866
 40
20.18693665458866
 40
20.18693665458866
 40
20.18693665458866
 10
61.68460659785003
 20
1.249999944028499
 30
0.0
 41
1.0
 10
56.07864482006458
 20
1.250023220639742
 30
0.0
 41
1.0
 10
50.6925837486199
 20
1.250023220640084
 30
0.0
 41
1.0
 10
45.30652267717524
 20
1.250023220640426
 30
0.0
 41
1.0
 10
44.9770178060101
 20
1.250023220640426
 30
0.0
 41
0.804737854124362
 10
44.74402267717524
 20
1.017028091805558
 30
0.0
 41
0.804737854124362
 10
44.74402267717524
 20
0.6875232206404225
 30
0.0
 41
1.0
 10
44.74402267717524
 20
0.3580183494752874
 30
0.0
 41
0.804737854124362
 10
44.97701780601011
 20
0.1250232206404251
 30
0.0
 41
0.804737854124362
 10
45.30652267717525
 20
0.1250232206404336
 30
0.0
 41
1.0
 10
55.47530919242505
 20
0.1250193539254384
 30
0.0
 41
1.0
 10
65.64409570767486
 20
0.1250154872104432
 30
0.0
 41
1.0
 10
75.81288222292467
 20
0.125011620495448
 30
0.0
 41
1.0
 10
75.85409352002544
 20
0.1250418915952043
 30
0.0
 41
1.0
 10
75.89440237150292
 20
0.1896884646745839
 30
0.0
 41
1.0
 10
75.96459010945885
 20
0.4815663376640882
 30
0.0
 41
1.0
 10
75.9736703747164
 20
0.7321275590834708
 30
0.0
 41
1.0
 10
75.92058163474385
 20
1.131300595254747
 30
0.0
 41
1.0
 10
75.8687996392249
 20
1.250138612112081
 30
0.0
 41
1.0
 10
75.81287146373465
 20
1.250032160466586
 30
0.0
 41
1.0
 10
71.37365004273738
 20
1.250029180524162
 30
0.0
 41
1.0
 10
66.93442862174011
 20
1.250026200581738
 30
0.0
 41
1.0
 10
62.7151079070847
 20
1.250023220639313
 30
0.0
 41
1.0
  0
SPLINE
  5
6D
330
1F
100
AcDbEntity
  8
DEFAULT
100
AcDbSpline
210
0.0
220
0.0
230
1.0
 70
    24
 71
     2
 72
     6
 73
     3
 74
     0
 42
0.0000000001
 43
0.0000000001
 40
0.0
 40
0.0
 40
0.0
 40
10.6395344800855
 40
10.6395344800855
 40
10.6395344800855
 10
74.24218031269739
 20
1.250023220638321
 30
0.0
 10
73.63241304500028
 20
6.186732919309673
 30
0.0
 10
73.02264577730315
 20
11.12344261798102
 30
0.0
  0
SPLINE
  5
6E
330
1F
100
AcDbEntity
  8
DEFAULT
100
AcDbSpline
210
0.0
220
0.0
230
1.0
 70
    12
 71
     3
 72
    10
 73
     6
 74
     0
 42
0.0000000001
 43
0.0000000001
 40
-1.332293537863654
 40
-1.332293537863654
 40
-1.332293537863654
 40
-1.332293537863654
 40
-0.8881956919091023
 40
-0.4440978459545512
 40
0.0
 40
0.0
 40
0.0
 40
0.0
 10
73.02264577730315
 20
11.12344261798102
 30
0.0
 41
1.0
 10
73.01188320728176
 20
11.21057696410169
 30
0.0
 41
1.0
 10
72.98858754930177
 20
11.3721176111161
 30
0.0
 41
1.0
 10
72.94479665168876
 20
11.54381739212223
 30
0.0
 41
1.0
 10
72.90734720829695
 20
11.58959175055945
 30
0.0
 41
1.0
 10
72.88596929921664
 20
11.58990138024721
 30
0.0
 41
1.0
  0
SPLINE
  5
6F
330
1F
100
AcDbEntity
  8
DEFAULT
100
AcDbSpline
210
0.0
220
0.0
230
1.0
 70
    24
 71
     2
 72
     6
 73
     3
 74
     0
 42
0.0000000001
 43
0.0000000001
 40
0.0
 40
0.0
 40
0.0
 40
1.068066471124109
 40
1.068066471124109
 40
1.068066471124109
 10
72.88596929921664
 20
11.58990138024721
 30
0.0
 10
72.3519920683845
 20
11.59763530794958
 30
0.0
 10
71.81801483755237
 20
11.60536923565194
 30
0.0
  0
SPLINE
  5
70
330
1F
100
AcDbEntity
  8
DEFAULT
100
AcDbSpline
210
0.0
220
0.0
230
1.0
 70
    24
 71
     2
 72
     6
 73
     3
 74
     0
 42
0.0000000001
 43
0.0000000001
 40
0.0
 40
0.0
 40
0.0
 40
10.79922068171757
 40
10.79922068171757
 40
10.79922068171757
 10
75.79820091770951
 20
1.25002322063819
 30
0.0
 10
75.17864605319716
 20
6.265973843384958
 30
0.0
 10
74.55909118868482
 20
11.28192446613173
 30
0.0
  0
SPLINE
  5
71
330
1F
100
AcDbEntity
  8
DEFAULT
100
AcDbSpline
210
0.0
220
0.0
230
1.0
 70
    12
 71
     3
 72
     9
 73
     5
 74
     0
 42
0.0000000001
 43
0.0000000001
 40
-1.332293537863654
 40
-1.332293537863654
 40
-1.332293537863654
 40
-1.332293537863654
 40
-0.8881956919091023
 40
-0.6677841651681691
 40
-0.6677841651681691
 40
-0.6677841651681691
 40
-0.6677841651681691
 10
74.55909118868482
 20
11.28192446613173
 30
0.0
 41
1.0
 10
74.54251941262072
 20
11.41609045701805
 30
0.0
 41
1.0
 10
74.51102693370325
 20
11.60296970434036
 30
0.0
 41
1.0
 10
74.4729960795026
 20
11.76096942278244
 30
0.0
 41
1.0
 10
74.4596158736216
 20
11.80877854299213
 30
0.0
 41
1.0
  0
SPLINE
  5
72
330
1F
100
AcDbEntity
  8
DEFAULT
100
AcDbSpline
210
0.0
220
0.0
230
1.0
 70
    28
 71
     2
 72
    12
 73
     9
 74
     0
 42
0.0000000001
 43
0.0000000001
 40
0.098174770424681
 40
0.098174770424681
 40
0.098174770424681
 40
0.3926990816987241
 40
0.3926990816987241
 40
0.7853981633974483
 40
0.7853981633974483
 40
1.785398163396786
 40
1.785398163396786
 40
1.883572933821467
 40
1.883572933821467
 40
1.883572933821467
 10
55.32331099498803
 20
0.0000000000000005
 30
0.0
 41
0.8901650429449554
 10
55.33702115433714
 20
0.0000000000000006
 30
0.0
 41
0.7803300858899107
 10
55.18460662614662
 20
0.0000000000000004
 30
0.0
 41
1.0
 10
54.96034320033284
 20
0.0000000000000006
 30
0.0
 41
0.7071067811865476
 10
54.84986281364677
 20
0.0000000000000004
 30
0.0
 41
1.0
 10
54.62890204027501
 20
0.0000000000000004
 30
0.0
 41
1.0
 10
54.40794126690325
 20
0.0000000000000004
 30
0.0
 41
1.0
 10
54.38686784355052
 20
0.0000000000000005
 30
0.0
 41
0.9267766952966369
 10
54.38301993718978
 20
0.0000000000000005
 30
0.0
 41
0.8901650429449552
  0
SPLINE
  5
73
330
1F
100
AcDbEntity
  8
DEFAULT
100
AcDbSpline
210
0.0
220
0.0
230
1.0
 70
    24
 71
     2
 72
     6
 73
     3
 74
     0
 42
0.0000000001
 43
0.0000000001
 40
0.0
 40
0.0
 40
0.0
 40
0.125
 40
0.125
 40
0.125
 10
54.38220469271702
 20
0.1250000000000004
 30
0.0
 10
54.38220469271702
 20
0.0625000000000004
 30
0.0
 10
54.38220469271702
 20
0.0000000000000004
 30
0.0
  0
SPLINE
  5
74
330
1F
100
AcDbEntity
  8
DEFAULT
 62
    15
100
AcDbSpline
210
0.0
220
0.0
230
1.0
 70
    12
 71
     3
 72
     8
 73
     4
 74
     0
 42
0.0000000001
 43
0.0000000001
 40
-0.4949420945945104
 40
-0.4949420945945104
 40
-0.4949420945945104
 40
-0.4949420945945104
 40
0.0
 40
0.0
 40
0.0
 40
0.0
 10
56.12684430209798
 20
35.78246952909649
 30
0.0
 41
1.0
 10
56.12914905650037
 20
35.78251505597544
 30
0.0
 41
1.0
 10
56.11972901995703
 20
35.78192882941025
 30
0.0
 41
1.0
 10
56.0917009022247
 20
35.78034093681639
 30
0.0
 41
1.0
  0
SPLINE
  5
75
330
1F
100
AcDbEntity
  8
MAKE2D VISIBLE LINES
100
AcDbSpline
210
0.0
220
0.0
230
1.0
 70
    12
 71
     2
 72
     6
 73
     3
 74
     0
 42
0.0000000001
 43
0.0000000001
 40
0.0
 40
0.0
 40
0.0
 40
0.9642805624188232
 40
0.9642805624188232
 40
0.9642805624188232
 10
61.75082734466588
 20
1.191391110420227
 30
0.0
 41
1.0
 10
62.23296762587529
 20
1.191391058751233
 30
0.0
 41
0.9999999999999942
 10
62.7151079070847
 20
1.191391110975746
 30
0.0
 41
1.0
  0
SPLINE
  5
76
330
1F
100
AcDbEntity
  8
DEFAULT
 62
    15
100
AcDbSpline
210
0.0
220
0.0
230
1.0
 70
    24
 71
     2
 72
     6
 73
     3
 74
     0
 42
0.0000000001
 43
0.0000000001
 40
0.0
 40
0.0
 40
0.0
 40
0.0000074888117278
 40
0.0000074888117278
 40
0.0000074888117278
 10
42.19776765744426
 20
47.10114765584554
 30
0.0
 10
42.19776391753587
 20
47.10114747237761
 30
0.0
 10
42.19776017762747
 20
47.10114728890969
 30
0.0
  0
SPLINE
  5
77
330
1F
100
AcDbEntity
  8
DEFAULT
 62
    15
100
AcDbSpline
210
0.0
220
0.0
230
1.0
 70
    12
 71
     2
 72
     6
 73
     3
 74
     0
 42
0.0000000001
 43
0.0000000001
 40
0.0
 40
0.0
 40
0.0
 40
0.0044985659289753
 40
0.0044985659289753
 40
0.0044985659289753
 10
56.8719127432643
 20
31.70009712398327
 30
0.0
 41
1.0
 10
56.87257424552553
 20
31.69794731267143
 30
0.0
 41
0.9999999905400645
 10
56.87323633917283
 20
31.69579768341959
 30
0.0
 41
1.0
  0
SPLINE
  5
78
330
1F
100
AcDbEntity
  8
DEFAULT
 62
    15
100
AcDbSpline
210
0.0
220
0.0
230
1.0
 70
    12
 71
     3
 72
     8
 73
     4
 74
     0
 42
0.0000000001
 43
0.0000000001
 40
0.0
 40
0.0
 40
0.0
 40
0.0
 40
0.545408597543147
 40
0.545408597543147
 40
0.545408597543147
 40
0.545408597543147
 10
56.87323633917283
 20
31.69579768341959
 30
0.0
 41
1.0
 10
56.8978055405059
 20
31.71814824790983
 30
0.0
 41
1.0
 10
56.90446247121822
 20
31.73523152800672
 30
0.0
 41
1.0
 10
56.89986475374847
 20
31.74888365755598
 30
0.0
 41
1.0
  0
SPLINE
  5
79
330
1F
100
AcDbEntity
  8
MAKE2D VISIBLE LINES
100
AcDbSpline
210
0.0
220
0.0
230
1.0
 70
    12
 71
     3
 72
     8
 73
     4
 74
     0
 42
0.0000000001
 43
0.0000000001
 40
-0.2646348485950528
 40
-0.2646348485950528
 40
-0.2646348485950528
 40
-0.2646348485950528
 40
-0.0054948004504189
 40
-0.0054948004504189
 40
-0.0054948004504189
 40
-0.0054948004504189
 10
61.68460659785003
 20
1.249999944028499
 30
0.0
 41
1.0
 10
61.70728747964915
 20
1.249999944028314
 30
0.0
 41
1.0
 10
61.72996836144824
 20
1.230463666098148
 30
0.0
 41
1.0
 10
61.75082734466588
 20
1.191391110238016
 30
0.0
 41
1.0
  0
LINE
  5
7A
330
1F
100
AcDbEntity
  8
DEFAULT
100
AcDbLine
 10
-23.46212341923457
 20
77.450105750932
 30
0.0
 11
-24.35842885852768
 21
79.92070481344162
 31
0.0
  0
SPLINE
  5
7B
330
1F
100
AcDbEntity
  8
DEFAULT
100
AcDbSpline
210
0.0
220
0.0
230
1.0
 70
    12
 71
     2
 72
     6
 73
     3
 74
     0
 42
0.0000000001
 43
0.0000000001
 40
0.0
 40
0.0
 40
0.0
 40
1.178097244486115
 40
1.178097244486115
 40
1.178097244486115
 10
-24.35842885852768
 20
79.92070481344162
 30
0.0
 41
1.0
 10
-24.43672977709393
 20
80.1365354527781
 30
0.0
 41
0.7071067814741315
 10
-23.73169296907541
 20
80.39231484683475
 30
0.0
 41
1.0
  0
LINE
  5
7C
330
1F
100
AcDbEntity
  8
DEFAULT
100
AcDbLine
 10
-23.73169296907541
 20
80.39231484683474
 30
0.0
 11
-4.857210407775444
 21
87.23976404646356
 31
0.0
  0
SPLINE
  5
7D
330
1F
100
AcDbEntity
  8
DEFAULT
100
AcDbSpline
210
0.0
220
0.0
230
1.0
 70
     8
 71
     3
 72
    14
 73
    10
 74
     0
 42
0.0000000001
 43
0.0000000001
 40
-9.911537594766934
 40
-9.911537594766934
 40
-9.911537594766934
 40
-9.911537594766934
 40
-7.451173476122896
 40
-7.451173476122896
 40
-4.955511216804349
 40
-4.955511216804349
 40
-2.460699681732106
 40
-2.460699681732106
 40
0.0
 40
0.0
 40
0.0
 40
0.0
 10
-4.857210407775444
 20
87.23976404646356
 30
0.0
 10
-4.085447915107855
 20
87.51975098624291
 30
0.0
 10
-3.291597564099521
 20
87.73316296546187
 30
0.0
 10
-1.663315241827884
 20
88.02283749370258
 30
0.0
 10
-0.8325618272969131
 20
88.09632217032473
 30
0.0
 10
0.8328212668517742
 20
88.09629004050016
 30
0.0
 10
1.663220694169572
 20
88.02282591205322
 30
0.0
 10
3.291340781795903
 20
87.73322994925103
 30
0.0
 10
4.085343700033183
 20
87.51978887894626
 30
0.0
 10
4.857210427987644
 20
87.23976401911162
 30
0.0
  0
LINE
  5
7E
330
1F
100
AcDbEntity
  8
DEFAULT
100
AcDbLine
 10
4.857210427987644
 20
87.23976401911162
 30
0.0
 11
23.73169296907541
 21
80.39231484683474
 31
0.0
  0
SPLINE
  5
7F
330
1F
100
AcDbEntity
  8
DEFAULT
100
AcDbSpline
210
0.0
220
0.0
230
1.0
 70
    12
 71
     2
 72
     6
 73
     3
 74
     0
 42
0.0000000001
 43
0.0000000001
 40
-1.178097244486115
 40
-1.178097244486115
 40
-1.178097244486115
 40
0.0
 40
0.0
 40
0.0
 10
23.73169296907541
 20
80.39231484683475
 30
0.0
 41
1.0
 10
24.43672977709392
 20
80.1365354527781
 30
0.0
 41
0.7071067814741315
 10
24.35842885852768
 20
79.92070481344162
 30
0.0
 41
1.0
  0
LINE
  5
80
330
1F
100
AcDbEntity
  8
DEFAULT
100
AcDbLine
 10
24.35842885852768
 20
79.92070481344162
 30
0.0
 11
23.46212341923456
 21
77.45010575093198
 31
0.0
  0
SPLINE
  5
81
330
1F
100
AcDbEntity
  8
DEFAULT
100
AcDbSpline
210
0.0
220
0.0
230
1.0
 70
     8
 71
     3
 72
    10
 73
     6
 74
     0
 42
0.0000000001
 43
0.0000000001
 40
0.0
 40
0.0
 40
0.0
 40
0.0
 40
0.5856344820108912
 40
0.5856344820108912
 40
1.171090337407052
 40
1.171090337407052
 40
1.171090337407052
 40
1.171090337407052
 10
30.13032146904869
 20
81.97898173549217
 30
0.0
 10
30.05380853980077
 20
81.96026987326744
 30
0.0
 10
29.96229734343371
 20
81.93605443440798
 30
0.0
 10
29.77871108061744
 20
81.88171572168768
 30
0.0
 10
29.68567208814383
 20
81.8517806145282
 30
0.0
 10
29.60540359005979
 20
81.82459862891275
 30
0.0
  0
SPLINE
  5
82
330
1F
100
AcDbEntity
  8
DEFAULT
100
AcDbSpline
210
0.0
220
0.0
230
1.0
 70
     8
 71
     3
 72
     8
 73
     4
 74
     0
 42
0.0000000001
 43
0.0000000001
 40
1.171090248648429
 40
1.171090248648429
 40
1.171090248648429
 40
1.171090248648429
 40
3.757258774044366
 40
3.757258774044366
 40
3.757258774044366
 40
3.757258774044366
 10
29.60540359005979
 20
81.82459862891275
 30
0.0
 10
29.19882061145847
 20
81.68702072823235
 30
0.0
 10
28.80713506294694
 20
81.5622064071903
 30
0.0
 10
28.43459932497504
 20
81.44774559432915
 30
0.0
  0
SPLINE
  5
83
330
1F
100
AcDbEntity
  8
DEFAULT
100
AcDbSpline
210
0.0
220
0.0
230
1.0
 70
     8
 71
     3
 72
     8
 73
     4
 74
     0
 42
0.0000000001
 43
0.0000000001
 40
3.757258624342521
 40
3.757258624342521
 40
3.757258624342521
 40
3.757258624342521
 40
13.1463237581607
 40
13.1463237581607
 40
13.1463237581607
 40
13.1463237581607
 10
28.43459932497504
 20
81.44774559432915
 30
0.0
 10
27.02549800293075
 20
81.01457573508384
 30
0.0
 10
25.61639672544867
 20
80.58140592465452
 30
0.0
 10
24.2072954479666
 20
80.1482361142252
 30
0.0
  0
SPLINE
  5
84
330
1F
100
AcDbEntity
  8
DEFAULT
100
AcDbSpline
210
0.0
220
0.0
230
1.0
 70
     8
 71
     3
 72
     8
 73
     4
 74
     0
 42
0.0000000001
 43
0.0000000001
 40
0.0
 40
0.0
 40
0.0
 40
0.0
 40
1.618314260285481
 40
1.618314260285481
 40
1.618314260285481
 40
1.618314260285481
 10
0.0002673427410396
 20
91.88217041629122
 30
0.0
 10
0.0002562945872534
 20
91.76726495058986
 30
0.0
 10
0.000246026508388
 20
91.62693247429132
 30
0.0
 10
0.0002331916006109
 20
91.45587246815732
 30
0.0
  0
SPLINE
  5
85
330
1F
100
AcDbEntity
  8
DEFAULT
100
AcDbSpline
210
0.0
220
0.0
230
1.0
 70
     8
 71
     3
 72
     8
 73
     4
 74
     0
 42
0.0000000001
 43
0.0000000001
 40
1.616547911218369
 40
1.616547911218369
 40
1.616547911218369
 40
1.616547911218369
 40
11.99664636161004
 40
11.99664636161004
 40
11.99664636161004
 40
11.99664636161004
 10
0.0002331916006109
 20
91.45587246815732
 30
0.0
 10
0.0001546787253466
 20
90.33597117850536
 30
0.0
 10
0.0000771237368979
 20
89.21613863796418
 30
0.0
 10
0.000000025035564
 20
88.09630609685564
 30
0.0
  0
SPLINE
  5
86
330
1F
100
AcDbEntity
  8
DEFAULT
100
AcDbSpline
210
0.0
220
0.0
230
1.0
 70
     8
 71
     3
 72
     8
 73
     4
 74
     0
 42
0.0000000001
 43
0.0000000001
 40
0.0231532660660589
 40
0.0231532660660589
 40
0.0231532660660589
 40
0.0231532660660589
 40
25.32036654659924
 40
25.32036654659924
 40
25.32036654659924
 40
25.32036654659924
 10
-28.69323861590087
 20
82.443100566164
 30
0.0
 10
-20.76247732870801
 20
85.30814328132796
 30
0.0
 10
-12.8309108209786
 20
88.1709669294248
 30
0.0
 10
-4.89856357889868
 20
91.03161646886284
 30
0.0
  0
SPLINE
  5
87
330
1F
100
AcDbEntity
  8
DEFAULT
100
AcDbSpline
210
0.0
220
0.0
230
1.0
 70
     8
 71
     3
 72
    28
 73
    24
 74
     0
 42
0.0000000001
 43
0.0000000001
 40
-9.99554186166347
 40
-9.99554186166347
 40
-9.99554186166347
 40
-9.99554186166347
 40
-9.370743138083974
 40
-9.370743138083974
 40
-8.7472348843218
 40
-8.7472348843218
 40
-7.496635617210464
 40
-7.496635617210464
 40
-6.247106089247434
 40
-6.247106089247434
 40
-5.625403173824634
 40
-5.625403173824634
 40
-4.999478084830014
 40
-4.999478084830014
 40
-3.749167612751977
 40
-3.749167612751977
 40
-3.125585224574899
 40
-3.125585224574899
 40
-2.500736313399429
 40
-2.500736313399429
 40
-1.25053961971923
 40
-1.25053961971923
 40
0.0
 40
0.0
 40
0.0
 40
0.0
 10
-4.89856357889868
 20
91.03161646886284
 30
0.0
 10
-4.702470964432383
 20
91.1023250784327
 30
0.0
 10
-4.504973135166901
 20
91.16831646499305
 30
0.0
 10
-4.107154755930569
 20
91.29153025301038
 30
0.0
 10
-3.907334438662958
 20
91.34864184815373
 30
0.0
 10
-3.302673468030047
 20
91.50771793096968
 30
0.0
 10
-2.896518206457643
 20
91.59635922857734
 30
0.0
 10
-2.074731685007229
 20
91.73914546018604
 30
0.0
 10
-1.66280528943063
 20
91.7922579113376
 30
0.0
 10
-1.040883683312082
 20
91.84612535969427
 30
0.0
 10
-0.8341055825662315
 20
91.85951381421883
 30
0.0
 10
-0.4182901284717052
 20
91.87762528699403
 30
0.0
 10
-0.2097279576192034
 20
91.8821630378302
 30
0.0
 10
0.4161854314849466
 20
91.88217043638814
 30
0.0
 10
0.8313502256134007
 20
91.86423318492967
 30
0.0
 10
1.45414974450525
 20
91.810270504999
 30
0.0
 10
1.660804997341946
 20
91.7880925580202
 30
0.0
 10
2.073832195915998
 20
91.73451512223272
 30
0.0
 10
2.279770373943121
 20
91.70346510921436
 30
0.0
 10
2.89609614753681
 20
91.59645779494251
 30
0.0
 10
3.3021118541393
 20
91.50784520606217
 30
0.0
 10
4.108955741104238
 20
91.29569200203096
 30
0.0
 10
4.506053727441903
 20
91.17315057620442
 30
0.0
 10
4.898563575979122
 20
91.03161645852866
 30
0.0
  0
SPLINE
  5
88
330
1F
100
AcDbEntity
  8
DEFAULT
100
AcDbSpline
210
0.0
220
0.0
230
1.0
 70
     8
 71
     3
 72
     8
 73
     4
 74
     0
 42
0.0000000001
 43
0.0000000001
 40
-25.32036654659926
 40
-25.32036654659926
 40
-25.32036654659926
 40
-25.32036654659926
 40
-0.023153266066059
 40
-0.023153266066059
 40
-0.023153266066059
 40
-0.023153266066059
 10
4.898563575979122
 20
91.03161645852866
 30
0.0
 10
12.8309108209786
 20
88.1709669294248
 30
0.0
 10
20.76247732870801
 20
85.30814328132796
 30
0.0
 10
28.69323861590088
 20
82.443100566164
 30
0.0
  0
SPLINE
  5
89
330
1F
100
AcDbEntity
  8
DEFAULT
100
AcDbSpline
210
0.0
220
0.0
230
1.0
 70
     8
 71
     3
 72
    10
 73
     6
 74
     0
 42
0.0000000001
 43
0.0000000001
 40
0.0
 40
0.0
 40
0.0
 40
0.0
 40
0.5856344820108912
 40
0.5856344820108912
 40
1.171090337407052
 40
1.171090337407052
 40
1.171090337407052
 40
1.171090337407052
 10
-30.13032146904869
 20
81.97898173549217
 30
0.0
 10
-30.05380853980077
 20
81.96026987326744
 30
0.0
 10
-29.96229734343371
 20
81.93605443440798
 30
0.0
 10
-29.77871108061744
 20
81.88171572168768
 30
0.0
 10
-29.68567208814383
 20
81.8517806145282
 30
0.0
 10
-29.60540359005979
 20
81.82459862891275
 30
0.0
  0
SPLINE
  5
8A
330
1F
100
AcDbEntity
  8
DEFAULT
100
AcDbSpline
210
0.0
220
0.0
230
1.0
 70
     8
 71
     3
 72
     8
 73
     4
 74
     0
 42
0.0000000001
 43
0.0000000001
 40
1.171090248648429
 40
1.171090248648429
 40
1.171090248648429
 40
1.171090248648429
 40
3.757258774044366
 40
3.757258774044366
 40
3.757258774044366
 40
3.757258774044366
 10
-29.60540359005979
 20
81.82459862891275
 30
0.0
 10
-29.19882061145847
 20
81.68702072823235
 30
0.0
 10
-28.80713506294694
 20
81.5622064071903
 30
0.0
 10
-28.43459932497504
 20
81.44774559432915
 30
0.0
  0
SPLINE
  5
8B
330
1F
100
AcDbEntity
  8
DEFAULT
100
AcDbSpline
210
0.0
220
0.0
230
1.0
 70
     8
 71
     3
 72
     8
 73
     4
 74
     0
 42
0.0000000001
 43
0.0000000001
 40
3.757258624342521
 40
3.757258624342521
 40
3.757258624342521
 40
3.757258624342521
 40
13.1463237581607
 40
13.1463237581607
 40
13.1463237581607
 40
13.1463237581607
 10
-28.43459932497504
 20
81.44774559432915
 30
0.0
 10
-27.02549800293075
 20
81.01457573508384
 30
0.0
 10
-25.61639672544867
 20
80.58140592465452
 30
0.0
 10
-24.2072954479666
 20
80.1482361142252
 30
0.0
  0
POLYLINE
  5
8C
330
1F
100
AcDbEntity
  8
DEFAULT
100
AcDb2dPolyline
 66
     1
 10
0.0
 20
0.0
 30
0.0
  0
VERTEX
  5
8D
330
8C
100
AcDbEntity
  8
DEFAULT
100
AcDbVertex
100
AcDb2dVertex
 10
-12.1674498631767
 20
92.74890820158444
 30
0.0
  0
VERTEX
  5
8E
330
8C
100
AcDbEntity
  8
DEFAULT
100
AcDbVertex
100
AcDb2dVertex
 10
-11.08293576202251
 20
88.80084087487334
 30
0.0
  0
SEQEND
  5
8F
330
8C
100
AcDbEntity
  8
DEFAULT
  0
SPLINE
  5
90
330
1F
100
AcDbEntity
  8
DEFAULT
100
AcDbSpline
210
0.0
220
0.0
230
1.0
 70
     8
 71
     3
 72
    14
 73
    10
 74
     0
 42
0.0000000001
 43
0.0000000001
 40
0.0
 40
0.0
 40
0.0
 40
0.0
 40
1.977823253248682
 40
1.977823253248682
 40
2.980256632984718
 40
2.980256632984718
 40
3.489840867667748
 40
3.489840867667748
 40
4.000094681242619
 40
4.000094681242619
 40
4.000094681242619
 40
4.000094681242619
 10
28.69323861590088
 20
82.443100566164
 30
0.0
 10
29.29998767435788
 20
82.2239525533605
 30
0.0
 10
29.97657044160481
 20
82.00592316652175
 30
0.0
 10
30.9236502130848
 20
81.77975208746787
 30
0.0
 10
31.26186032957923
 20
81.71327368479673
 30
0.0
 10
31.75354113743116
 20
81.65744427440411
 30
0.0
 10
31.91898636993404
 20
81.64551173224834
 30
0.0
 10
32.25306140206125
 20
81.64398312602442
 30
0.0
 10
32.4173491563532
 20
81.65381151530235
 30
0.0
 10
32.58231510131868
 20
81.68414956280569
 30
0.0
  0
SPLINE
  5
91
330
1F
100
AcDbEntity
  8
DEFAULT
100
AcDbSpline
210
0.0
220
0.0
230
1.0
 70
     8
 71
     3
 72
     8
 73
     4
 74
     0
 42
0.0000000001
 43
0.0000000001
 40
14.9874970592017
 40
14.9874970592017
 40
14.9874970592017
 40
14.9874970592017
 40
80.0795584037072
 40
80.0795584037072
 40
80.0795584037072
 40
80.0795584037072
 10
32.58231510131868
 20
81.68414956280569
 30
0.0
 10
32.87004932625401
 20
82.46536232690096
 30
0.0
 10
33.15778354771809
 20
83.24657508157331
 30
0.0
 10
33.44551777020271
 20
84.0277878396069
 30
0.0
  0
POLYLINE
  5
92
330
1F
100
AcDbEntity
  8
DEFAULT
100
AcDb2dPolyline
 66
     1
 10
0.0
 20
0.0
 30
0.0
  0
VERTEX
  5
93
330
92
100
AcDbEntity
  8
DEFAULT
100
AcDbVertex
100
AcDb2dVertex
 10
12.1674498631767
 20
92.74890820158444
 30
0.0
  0
VERTEX
  5
94
330
92
100
AcDbEntity
  8
DEFAULT
100
AcDbVertex
100
AcDb2dVertex
 10
11.08293576202251
 20
88.80084087487334
 30
0.0
  0
SEQEND
  5
95
330
92
100
AcDbEntity
  8
DEFAULT
  0
SPLINE
  5
96
330
1F
100
AcDbEntity
  8
DEFAULT
100
AcDbSpline
210
0.0
220
0.0
230
1.0
 70
     8
 71
     3
 72
    14
 73
    10
 74
     0
 42
0.0000000001
 43
0.0000000001
 40
-4.000094681242611
 40
-4.000094681242611
 40
-4.000094681242611
 40
-4.000094681242611
 40
-3.490025546311884
 40
-3.490025546311884
 40
-2.980269110057205
 40
-2.980269110057205
 40
-1.978518309256577
 40
-1.978518309256577
 40
0.0
 40
0.0
 40
0.0
 40
0.0
 10
-32.58231510131868
 20
81.68414956280569
 30
0.0
 10
-32.41741166501235
 20
81.6538230104603
 30
0.0
 10
-32.25318482295793
 20
81.6439910182756
 30
0.0
 10
-31.91911843714911
 20
81.64550268557679
 30
0.0
 10
-31.75362028853647
 20
81.65743602709284
 30
0.0
 10
-31.26211254254033
 20
81.7132435921697
 30
0.0
 10
-30.92413168070689
 20
81.77965801443999
 30
0.0
 10
-29.97704570131611
 20
82.00576844827276
 30
0.0
 10
-29.30019167134864
 20
82.22387887284766
 30
0.0
 10
-28.69323861590087
 20
82.443100566164
 30
0.0
  0
SPLINE
  5
97
330
1F
100
AcDbEntity
  8
DEFAULT
100
AcDbSpline
210
0.0
220
0.0
230
1.0
 70
    24
 71
     3
 72
     8
 73
     4
 74
     0
 42
0.0000000001
 43
0.0000000001
 40
-80.0795584037072
 40
-80.0795584037072
 40
-80.0795584037072
 40
-80.0795584037072
 40
-14.9874970592017
 40
-14.9874970592017
 40
-14.9874970592017
 40
-14.9874970592017
 10
-33.44551777011324
 20
84.02778783908629
 30
0.0
 10
-33.15778354771809
 20
83.24657508157331
 30
0.0
 10
-32.87004932625401
 20
82.46536232690096
 30
0.0
 10
-32.58231510131868
 20
81.68414956280569
 30
0.0
  0
LINE
  5
98
330
1F
100
AcDbEntity
  8
DEFAULT
100
AcDbLine
 10
-23.86380832602656
 20
16.24358448458342
 30
0.0
 11
-24.35842885852768
 21
20.75382247766391
 31
0.0
  0
SPLINE
  5
99
330
1F
100
AcDbEntity
  8
DEFAULT
100
AcDbSpline
210
0.0
220
0.0
230
1.0
 70
    12
 71
     2
 72
     6
 73
     3
 74
     0
 42
0.0000000001
 43
0.0000000001
 40
0.0
 40
0.0
 40
0.0
 40
1.178097244486115
 40
1.178097244486115
 40
1.178097244486115
 10
-24.35842885852768
 20
20.75382247766391
 30
0.0
 41
1.0
 10
-24.43672977709392
 20
21.46781554510937
 30
0.0
 41
0.7071067814741315
 10
-23.73169296907541
 20
21.46781554510947
 30
0.0
 41
1.0
  0
LINE
  5
9A
330
1F
100
AcDbEntity
  8
DEFAULT
100
AcDbLine
 10
-23.73169296907541
 20
21.46781554510947
 30
0.0
 11
-4.857210407775444
 21
21.46781554510927
 31
0.0
  0
SPLINE
  5
9B
330
1F
100
AcDbEntity
  8
DEFAULT
100
AcDbSpline
210
0.0
220
0.0
230
1.0
 70
    24
 71
     3
 72
    14
 73
    10
 74
     0
 42
0.0000000001
 43
0.0000000001
 40
-9.911537594766934
 40
-9.911537594766934
 40
-9.911537594766934
 40
-9.911537594766934
 40
-7.451173476122896
 40
-7.451173476122896
 40
-4.955511216804349
 40
-4.955511216804349
 40
-2.460699681732106
 40
-2.460699681732106
 40
0.0
 40
0.0
 40
0.0
 40
0.0
 10
-4.857210407775444
 20
21.46781554510927
 30
0.0
 10
-4.085447915107855
 20
21.46781554510927
 30
0.0
 10
-3.291597564099521
 20
21.46781554510927
 30
0.0
 10
-1.663315241827884
 20
21.46781554510927
 30
0.0
 10
-0.8325618272969131
 20
21.46781554510927
 30
0.0
 10
0.8328212668517742
 20
21.46781554510927
 30
0.0
 10
1.663220694169572
 20
21.46781554510927
 30
0.0
 10
3.291340781795903
 20
21.46781554510927
 30
0.0
 10
4.085343700033183
 20
21.46781554510927
 30
0.0
 10
4.857210427987644
 20
21.46781554510927
 30
0.0
  0
LINE
  5
9C
330
1F
100
AcDbEntity
  8
DEFAULT
100
AcDbLine
 10
4.857210427987644
 20
21.46781554510927
 30
0.0
 11
23.73169296907541
 21
21.46781554510947
 31
0.0
  0
SPLINE
  5
9D
330
1F
100
AcDbEntity
  8
DEFAULT
100
AcDbSpline
210
0.0
220
0.0
230
1.0
 70
    12
 71
     2
 72
     6
 73
     3
 74
     0
 42
0.0000000001
 43
0.0000000001
 40
-1.178097244486115
 40
-1.178097244486115
 40
-1.178097244486115
 40
0.0
 40
0.0
 40
0.0
 10
23.73169296907541
 20
21.46781554510947
 30
0.0
 41
1.0
 10
24.43672977709392
 20
21.46781554510937
 30
0.0
 41
0.7071067814741315
 10
24.35842885852768
 20
20.75382247766391
 30
0.0
 41
1.0
  0
LINE
  5
9E
330
1F
100
AcDbEntity
  8
DEFAULT
100
AcDbLine
 10
24.35842885852768
 20
20.75382247766391
 30
0.0
 11
23.86382418687457
 21
16.2437291130301
 31
0.0
  0
SPLINE
  5
9F
330
1F
100
AcDbEntity
  8
DEFAULT
100
AcDbSpline
210
0.0
220
0.0
230
1.0
 70
     8
 71
     3
 72
    10
 73
     6
 74
     0
 42
0.0000000001
 43
0.0000000001
 40
0.0
 40
0.0
 40
0.0
 40
0.0
 40
1.0
 40
2.0
 40
3.0
 40
3.0
 40
3.0
 40
3.0
 10
-11.48698528394911
 20
47.2283688577429
 30
0.0
 10
-11.27296662476228
 20
45.64149867367774
 30
0.0
 10
-11.2863042185775
 20
42.43926975407489
 30
0.0
 10
-11.19021425830795
 20
37.64620582360994
 30
0.0
 10
-11.18080996198085
 20
34.44756650686927
 30
0.0
 10
-11.08293576202251
 20
32.85143367351847
 30
0.0
  0
SPLINE
  5
A0
330
1F
100
AcDbEntity
  8
DEFAULT
100
AcDbSpline
210
0.0
220
0.0
230
1.0
 70
     8
 71
     3
 72
    10
 73
     6
 74
     0
 42
0.0000000001
 43
0.0000000001
 40
0.0
 40
0.0
 40
0.0
 40
0.0
 40
1.0
 40
2.0
 40
3.0
 40
3.0
 40
3.0
 40
3.0
 10
11.48698528394911
 20
47.2283688577429
 30
0.0
 10
11.27296662476228
 20
45.64149867367774
 30
0.0
 10
11.2863042185775
 20
42.43926975407489
 30
0.0
 10
11.19021425830795
 20
37.64620582360994
 30
0.0
 10
11.18080996198085
 20
34.44756650686927
 30
0.0
 10
11.08293576202251
 20
32.85143367351847
 30
0.0
  0
POLYLINE
  5
A1
330
1F
100
AcDbEntity
  8
DEFAULT
100
AcDb2dPolyline
 66
     1
 10
0.0
 20
0.0
 30
0.0
  0
VERTEX
  5
A2
330
A1
100
AcDbEntity
  8
DEFAULT
100
AcDbVertex
100
AcDb2dVertex
 10
0.0002673427410396
 20
32.85143339150975
 30
0.0
  0
VERTEX
  5
A3
330
A1
100
AcDbEntity
  8
DEFAULT
100
AcDbVertex
100
AcDb2dVertex
 10
0.000000025035564
 20
21.46781554800016
 30
0.0
  0
SEQEND
  5
A4
330
A1
100
AcDbEntity
  8
DEFAULT
  0
LINE
  5
A5
330
1F
100
AcDbEntity
  8
DEFAULT
100
AcDbLine
 10
-32.58225807344959
 20
32.85143339150974
 30
0.0
 11
-4.89856357889868
 21
32.85143339150974
 31
0.0
  0
SPLINE
  5
A6
330
1F
100
AcDbEntity
  8
DEFAULT
100
AcDbSpline
210
0.0
220
0.0
230
1.0
 70
    24
 71
     3
 72
    28
 73
    24
 74
     0
 42
0.0000000001
 43
0.0000000001
 40
-9.99554186166347
 40
-9.99554186166347
 40
-9.99554186166347
 40
-9.99554186166347
 40
-9.370743138083974
 40
-9.370743138083974
 40
-8.7472348843218
 40
-8.7472348843218
 40
-7.496635617210464
 40
-7.496635617210464
 40
-6.247106089247434
 40
-6.247106089247434
 40
-5.625403173824634
 40
-5.625403173824634
 40
-4.999478084830014
 40
-4.999478084830014
 40
-3.749167612751977
 40
-3.749167612751977
 40
-3.125585224574899
 40
-3.125585224574899
 40
-2.500736313399429
 40
-2.500736313399429
 40
-1.25053961971923
 40
-1.25053961971923
 40
0.0
 40
0.0
 40
0.0
 40
0.0
 10
-4.89856357889868
 20
32.85143339150974
 30
0.0
 10
-4.702470964432383
 20
32.85143339150974
 30
0.0
 10
-4.504973135166901
 20
32.85143339150974
 30
0.0
 10
-4.107154755930569
 20
32.85143339150974
 30
0.0
 10
-3.907334438662958
 20
32.85143339150974
 30
0.0
 10
-3.302673468030047
 20
32.85143339150974
 30
0.0
 10
-2.896518206457643
 20
32.85143339150974
 30
0.0
 10
-2.074731685007229
 20
32.85143339150974
 30
0.0
 10
-1.66280528943063
 20
32.85143339150974
 30
0.0
 10
-1.040883683312082
 20
32.85143339150974
 30
0.0
 10
-0.8341055825662315
 20
32.85143339150974
 30
0.0
 10
-0.4182901284717052
 20
32.85143339150974
 30
0.0
 10
-0.2097279576192034
 20
32.85143339150974
 30
0.0
 10
0.4161854314849466
 20
32.85143339150974
 30
0.0
 10
0.8313502256134007
 20
32.85143339150974
 30
0.0
 10
1.45414974450525
 20
32.85143339150974
 30
0.0
 10
1.660804997341946
 20
32.85143339150974
 30
0.0
 10
2.073832195915998
 20
32.85143339150974
 30
0.0
 10
2.279770373943121
 20
32.85143339150974
 30
0.0
 10
2.89609614753681
 20
32.85143339150974
 30
0.0
 10
3.3021118541393
 20
32.85143339150974
 30
0.0
 10
4.108955741104238
 20
32.85143339150974
 30
0.0
 10
4.506053727441903
 20
32.85143339150974
 30
0.0
 10
4.898563575979122
 20
32.85143339150974
 30
0.0
  0
LINE
  5
A7
330
1F
100
AcDbEntity
  8
DEFAULT
100
AcDbLine
 10
4.898563575979122
 20
32.85143339150974
 30
0.0
 11
32.58225807345331
 21
32.85143339150974
 31
0.0
  0
SPLINE
  5
A8
330
1F
100
AcDbEntity
  8
DEFAULT
100
AcDbSpline
210
0.0
220
0.0
230
1.0
 70
     8
 71
     3
 72
    10
 73
     6
 74
     0
 42
0.0000000001
 43
0.0000000001
 40
0.0
 40
0.0
 40
0.0
 40
0.0
 40
0.5856344820108912
 40
0.5856344820108912
 40
1.171090337407052
 40
1.171090337407052
 40
1.171090337407052
 40
1.171090337407052
 10
30.13032146904869
 20
32.85144653917815
 30
0.0
 10
30.05380853980077
 20
32.69734512945499
 30
0.0
 10
29.96229734343371
 20
32.51477017099567
 30
0.0
 10
29.77871108061744
 20
32.15141174816284
 30
0.0
 10
29.68567208814383
 20
31.97057907070756
 30
0.0
 10
29.60540359005979
 20
31.81581535337371
 30
0.0
  0
SPLINE
  5
A9
330
1F
100
AcDbEntity
  8
DEFAULT
100
AcDbSpline
210
0.0
220
0.0
230
1.0
 70
     8
 71
     3
 72
     8
 73
     4
 74
     0
 42
0.0000000001
 43
0.0000000001
 40
1.171090248648429
 40
1.171090248648429
 40
1.171090248648429
 40
1.171090248648429
 40
3.757258774044366
 40
3.757258774044366
 40
3.757258774044366
 40
3.757258774044366
 10
29.60540359005979
 20
31.81581535337371
 30
0.0
 10
29.19882061145847
 20
31.03208141754881
 30
0.0
 10
28.80713506294694
 20
30.27064009597153
 30
0.0
 10
28.43459932497504
 20
29.54094032190506
 30
0.0
  0
SPLINE
  5
AA
330
1F
100
AcDbEntity
  8
DEFAULT
100
AcDbSpline
210
0.0
220
0.0
230
1.0
 70
     8
 71
     3
 72
     8
 73
     4
 74
     0
 42
0.0000000001
 43
0.0000000001
 40
3.757258624342521
 40
3.757258624342521
 40
3.757258624342521
 40
3.757258624342521
 40
13.1463237581607
 40
13.1463237581607
 40
13.1463237581607
 40
13.1463237581607
 10
28.43459932497504
 20
29.54094032190506
 30
0.0
 10
27.02549800293075
 20
26.78019084727913
 30
0.0
 10
25.61639672544867
 20
24.01944134224903
 30
0.0
 10
24.2072954479666
 20
21.25869183721894
 30
0.0
  0
SPLINE
  5
AB
330
1F
100
AcDbEntity
  8
DEFAULT
100
AcDbSpline
210
0.0
220
0.0
230
1.0
 70
     8
 71
     3
 72
     8
 73
     4
 74
     0
 42
0.0000000001
 43
0.0000000001
 40
-80.0795584037072
 40
-80.0795584037072
 40
-80.0795584037072
 40
-80.0795584037072
 40
-14.9874970592017
 40
-14.9874970592017
 40
-14.9874970592017
 40
-14.9874970592017
 10
-33.44551777011324
 20
32.27796879868575
 30
0.0
 10
-33.15778354771809
 20
32.46912367862032
 30
0.0
 10
-32.87004932625401
 20
32.66027855775906
 30
0.0
 10
-32.58231510131868
 20
32.85143343995762
 30
0.0
  0
SPLINE
  5
AC
330
1F
100
AcDbEntity
  8
DEFAULT
100
AcDbSpline
210
0.0
220
0.0
230
1.0
 70
     8
 71
     3
 72
     8
 73
     4
 74
     0
 42
0.0000000001
 43
0.0000000001
 40
14.9874970592017
 40
14.9874970592017
 40
14.9874970592017
 40
14.9874970592017
 40
80.0795584037072
 40
80.0795584037072
 40
80.0795584037072
 40
80.0795584037072
 10
32.58231510131868
 20
32.85143343995761
 30
0.0
 10
32.87004932625401
 20
32.66027855775906
 30
0.0
 10
33.15778354771809
 20
32.46912367862032
 30
0.0
 10
33.44551777020271
 20
32.27796879868348
 30
0.0
  0
SPLINE
  5
AD
330
1F
100
AcDbEntity
  8
DEFAULT
100
AcDbSpline
210
0.0
220
0.0
230
1.0
 70
     8
 71
     3
 72
    10
 73
     6
 74
     0
 42
0.0000000001
 43
0.0000000001
 40
0.0
 40
0.0
 40
0.0
 40
0.0
 40
0.5856344820108912
 40
0.5856344820108912
 40
1.171090337407052
 40
1.171090337407052
 40
1.171090337407052
 40
1.171090337407052
 10
-30.13032146904869
 20
32.85144653917815
 30
0.0
 10
-30.05380853980077
 20
32.69734512945499
 30
0.0
 10
-29.96229734343371
 20
32.51477017099567
 30
0.0
 10
-29.77871108061744
 20
32.15141174816284
 30
0.0
 10
-29.68567208814383
 20
31.97057907070756
 30
0.0
 10
-29.60540359005979
 20
31.81581535337371
 30
0.0
  0
SPLINE
  5
AE
330
1F
100
AcDbEntity
  8
DEFAULT
100
AcDbSpline
210
0.0
220
0.0
230
1.0
 70
     8
 71
     3
 72
     8
 73
     4
 74
     0
 42
0.0000000001
 43
0.0000000001
 40
1.171090248648429
 40
1.171090248648429
 40
1.171090248648429
 40
1.171090248648429
 40
3.757258774044366
 40
3.757258774044366
 40
3.757258774044366
 40
3.757258774044366
 10
-29.60540359005979
 20
31.81581535337371
 30
0.0
 10
-29.19882061145847
 20
31.03208141754881
 30
0.0
 10
-28.80713506294694
 20
30.27064009597153
 30
0.0
 10
-28.43459932497504
 20
29.54094032190506
 30
0.0
  0
SPLINE
  5
AF
330
1F
100
AcDbEntity
  8
DEFAULT
100
AcDbSpline
210
0.0
220
0.0
230
1.0
 70
     8
 71
     3
 72
     8
 73
     4
 74
     0
 42
0.0000000001
 43
0.0000000001
 40
3.757258624342521
 40
3.757258624342521
 40
3.757258624342521
 40
3.757258624342521
 40
13.1463237581607
 40
13.1463237581607
 40
13.1463237581607
 40
13.1463237581607
 10
-28.43459932497504
 20
29.54094032190506
 30
0.0
 10
-27.02549800293075
 20
26.78019084727913
 30
0.0
 10
-25.61639672544867
 20
24.01944134224903
 30
0.0
 10
-24.2072954479666
 20
21.25869183721894
 30
0.0
  0
SPLINE
  5
B0
330
1F
100
AcDbEntity
  8
DEFAULT
100
AcDbSpline
210
0.0
220
0.0
230
1.0
 70
     8
 71
     3
 72
    11
 73
     7
 74
     0
 42
0.0000000001
 43
0.0000000001
 40
0.0
 40
0.0
 40
0.0
 40
0.0
 40
0.2121903328577312
 40
0.4332965266784943
 40
0.8816949602234152
 40
1.798683161940253
 40
1.798683161940253
 40
1.798683161940253
 40
1.798683161940253
 10
-28.63062637958211
 20
1.75000000000129
 30
0.0
 10
-28.70141414217451
 20
1.750050233478707
 30
0.0
 10
-28.84563216374266
 20
1.765376914537242
 30
0.0
 10
-29.12728203110873
 20
1.85539852225865
 30
0.0
 10
-29.57182151739886
 20
2.156962155944002
 30
0.0
 10
-29.78611907822889
 20
2.589625053359625
 30
0.0
 10
-29.81489918318243
 20
2.894507486729661
 30
0.0
  0
SPLINE
  5
B1
330
1F
100
AcDbEntity
  8
DEFAULT
100
AcDbSpline
210
0.0
220
0.0
230
1.0
 70
    24
 71
     2
 72
     6
 73
     3
 74
     0
 42
0.0000000001
 43
0.0000000001
 40
-31.2826160908539
 40
-31.2826160908539
 40
-31.2826160908539
 40
0.0
 40
0.0
 40
0.0
 10
-29.81489918318243
 20
2.894507486729661
 30
0.0
 10
-31.17663012184281
 20
17.29747267715904
 30
0.0
 10
-32.53836106050318
 20
31.70043786758841
 30
0.0
  0
SPLINE
  5
B2
330
1F
100
AcDbEntity
  8
DEFAULT
100
AcDbSpline
210
0.0
220
0.0
230
1.0
 70
     8
 71
     3
 72
    15
 73
    11
 74
     0
 42
0.0000000001
 43
0.0000000001
 40
-4.081917080816238
 40
-4.081917080816238
 40
-4.081917080816238
 40
-4.081917080816238
 40
-3.784797022139668
 40
-3.650370966756737
 40
-3.114225974731822
 40
-2.05592862735163
 40
-0.9652824086408249
 40
-0.4493002405814938
 40
-0.3090621573332505
 40
0.0
 40
0.0
 40
0.0
 40
0.0
 10
-32.53836106050318
 20
31.70043786758841
 30
0.0
 10
-32.5471752772727
 20
31.79907435383785
 30
0.0
 10
-32.55634225175989
 20
31.94269299284551
 30
0.0
 10
-32.56526267988581
 20
32.26513875804727
 30
0.0
 10
-32.58380262166122
 20
32.84112031098653
 30
0.0
 10
-32.60094499501089
 20
33.73605514808586
 30
0.0
 10
-32.59458994989363
 20
34.62440842009917
 30
0.0
 10
-32.5835176325803
 20
35.20658100298391
 30
0.0
 10
-32.57868616648484
 20
35.52831108531987
 30
0.0
 10
-32.57125521014908
 20
35.67795245712923
 30
0.0
 10
-32.56364238812914
 20
35.78068168042152
 30
0.0
  0
SPLINE
  5
B3
330
1F
100
AcDbEntity
  8
DEFAULT
100
AcDbSpline
210
0.0
220
0.0
230
1.0
 70
     8
 71
     3
 72
    20
 73
    16
 74
     0
 42
0.0000000001
 43
0.0000000001
 40
0.0
 40
0.0
 40
0.0
 40
0.0
 40
4.161764109008754
 40
5.294686197574646
 40
6.36394831083336
 40
7.486762771436666
 40
7.825820401684422
 40
8.619210503699588
 40
8.956687252555536
 40
9.625190109528837
 40
10.02207268320831
 40
10.41286657731489
 40
10.73552562503972
 40
10.98745748133753
 40
11.17637953902365
 40
11.17637953902365
 40
11.17637953902365
 40
11.17637953902365
 10
-32.56364238812914
 20
35.78068168042152
 30
0.0
 10
-32.45586573521841
 20
37.16374345546917
 30
0.0
 10
-32.31849751870992
 20
38.92328473854033
 30
0.0
 10
-32.15384293314918
 20
41.0382011290545
 30
0.0
 10
-32.06720148748562
 20
42.14314224168367
 30
0.0
 10
-32.00247670805625
 20
42.98436808471151
 30
0.0
 10
-31.94378525880687
 20
43.73382646057483
 30
0.0
 10
-31.90316671340402
 20
44.22212034195194
 30
0.0
 10
-31.85801061605376
 20
44.82020718296932
 30
0.0
 10
-31.83020006378197
 20
45.28704133559045
 30
0.0
 10
-31.78965402597905
 20
45.77074441540443
 30
0.0
 10
-31.74849487210292
 20
46.1386735771833
 30
0.0
 10
-31.68659928582073
 20
46.45496024195074
 30
0.0
 10
-31.59916991072043
 20
46.69521919152206
 30
0.0
 10
-31.52163408630106
 20
46.82100364990823
 30
0.0
 10
-31.48168275095751
 20
46.86978454763454
 30
0.0
  0
SPLINE
  5
B4
330
1F
100
AcDbEntity
  8
DEFAULT
100
AcDbSpline
210
0.0
220
0.0
230
1.0
 70
     8
 71
     3
 72
     8
 73
     4
 74
     0
 42
0.0000000001
 43
0.0000000001
 40
-1.0
 40
-1.0
 40
-1.0
 40
-1.0
 40
0.0
 40
0.0
 40
0.0
 40
0.0
 10
-31.48168275095751
 20
46.86978454763454
 30
0.0
 10
-31.16847491108473
 20
47.25221380742638
 30
0.0
 10
-30.53980640500535
 20
47.23924968708853
 30
0.0
 10
-30.04548738887833
 20
47.23924968708853
 30
0.0
  0
POLYLINE
  5
B5
330
1F
100
AcDbEntity
  8
DEFAULT
100
AcDb2dPolyline
 66
     1
 10
0.0
 20
0.0
 30
0.0
  0
VERTEX
  5
B6
330
B5
100
AcDbEntity
  8
DEFAULT
100
AcDbVertex
100
AcDb2dVertex
 10
-30.04548738887833
 20
47.23924968708853
 30
0.0
  0
VERTEX
  5
B7
330
B5
100
AcDbEntity
  8
DEFAULT
100
AcDbVertex
100
AcDb2dVertex
 10
30.04548738888028
 20
47.23924968708853
 30
0.0
  0
SEQEND
  5
B8
330
B5
100
AcDbEntity
  8
DEFAULT
  0
SPLINE
  5
B9
330
1F
100
AcDbEntity
  8
DEFAULT
100
AcDbSpline
210
0.0
220
0.0
230
1.0
 70
     8
 71
     3
 72
     8
 73
     4
 74
     0
 42
0.0000000001
 43
0.0000000001
 40
0.0
 40
0.0
 40
0.0
 40
0.0
 40
1.0
 40
1.0
 40
1.0
 40
1.0
 10
30.04548738888028
 20
47.23924968708853
 30
0.0
 10
30.53980640500576
 20
47.23924968708853
 30
0.0
 10
31.16847491108575
 20
47.25221380742639
 30
0.0
 10
31.48168275095941
 20
46.86978454763454
 30
0.0
  0
SPLINE
  5
BA
330
1F
100
AcDbEntity
  8
DEFAULT
100
AcDbSpline
210
0.0
220
0.0
230
1.0
 70
     8
 71
     3
 72
    20
 73
    16
 74
     0
 42
0.0000000001
 43
0.0000000001
 40
-11.17637953902365
 40
-11.17637953902365
 40
-11.17637953902365
 40
-11.17637953902365
 40
-10.98745748133635
 40
-10.73552562503857
 40
-10.41286657731377
 40
-10.02207268320723
 40
-9.625190109527802
 40
-8.956687252554573
 40
-8.619210503698662
 40
-7.825820401683577
 40
-7.48676277143586
 40
-6.363948310832674
 40
-5.294686197574076
 40
-4.161764109008304
 40
0.0
 40
0.0
 40
0.0
 40
0.0
 10
31.48168275095941
 20
46.86978454763454
 30
0.0
 10
31.52163408630454
 20
46.82100364990893
 30
0.0
 10
31.59916991072413
 20
46.69521919152243
 30
0.0
 10
31.68659928582463
 20
46.45496024195079
 30
0.0
 10
31.74849487210673
 20
46.13867357718325
 30
0.0
 10
31.78965402598291
 20
45.77074441540442
 30
0.0
 10
31.83020006378587
 20
45.28704133559052
 30
0.0
 10
31.85801061605761
 20
44.82020718296933
 30
0.0
 10
31.90316671340787
 20
44.22212034195194
 30
0.0
 10
31.94378525881081
 20
43.73382646057485
 30
0.0
 10
32.00247670806007
 20
42.9843680847115
 30
0.0
 10
32.06720148748951
 20
42.14314224168366
 30
0.0
 10
32.15384293315293
 20
41.03820112905447
 30
0.0
 10
32.3184975187138
 20
38.9232847385404
 30
0.0
 10
32.45586573522232
 20
37.16374345546919
 30
0.0
 10
32.56364238813296
 20
35.78068168042152
 30
0.0
  0
SPLINE
  5
BB
330
1F
100
AcDbEntity
  8
DEFAULT
100
AcDbSpline
210
0.0
220
0.0
230
1.0
 70
     8
 71
     3
 72
    15
 73
    11
 74
     0
 42
0.0000000001
 43
0.0000000001
 40
0.0
 40
0.0
 40
0.0
 40
0.0
 40
0.3090621573332512
 40
0.449300240581494
 40
0.9652824086408254
 40
2.055928627351631
 40
3.11422597473182
 40
3.650370966756734
 40
3.784797022139666
 40
4.081917080816238
 40
4.081917080816238
 40
4.081917080816238
 40
4.081917080816238
 10
32.56364238813296
 20
35.78068168042152
 30
0.0
 10
32.57125521015291
 20
35.67795245712917
 30
0.0
 10
32.57868616648838
 20
35.52831108531976
 30
0.0
 10
32.58351763258406
 20
35.2065810029839
 30
0.0
 10
32.59458994989723
 20
34.62440842009914
 30
0.0
 10
32.6009449950144
 20
33.73605514808587
 30
0.0
 10
32.58380262166497
 20
32.84112031098658
 30
0.0
 10
32.56526267988957
 20
32.26513875804728
 30
0.0
 10
32.55634225176357
 20
31.94269299284553
 30
0.0
 10
32.54717527727655
 20
31.79907435383783
 30
0.0
 10
32.53836106050699
 20
31.70043786758841
 30
0.0
  0
SPLINE
  5
BC
330
1F
100
AcDbEntity
  8
DEFAULT
100
AcDbSpline
210
0.0
220
0.0
230
1.0
 70
    24
 71
     2
 72
     6
 73
     3
 74
     0
 42
0.0000000001
 43
0.0000000001
 40
0.0
 40
0.0
 40
0.0
 40
31.2826160908539
 40
31.2826160908539
 40
31.2826160908539
 10
32.53836106050699
 20
31.70043786758841
 30
0.0
 10
31.17663012184471
 20
17.29747267715904
 30
0.0
 10
29.81489918318243
 20
2.894507486729661
 30
0.0
  0
SPLINE
  5
BD
330
1F
100
AcDbEntity
  8
DEFAULT
100
AcDbSpline
210
0.0
220
0.0
230
1.0
 70
     8
 71
     3
 72
    11
 73
     7
 74
     0
 42
0.0000000001
 43
0.0000000001
 40
-1.798683161940253
 40
-1.798683161940253
 40
-1.798683161940253
 40
-1.798683161940253
 40
-0.8816949602234152
 40
-0.4332965266784943
 40
-0.2121903328577312
 40
0.0
 40
0.0
 40
0.0
 40
0.0
 10
29.81489918318243
 20
2.894507486729661
 30
0.0
 10
29.78611907822889
 20
2.589625053359625
 30
0.0
 10
29.57182151739886
 20
2.156962155944002
 30
0.0
 10
29.12728203110873
 20
1.85539852225865
 30
0.0
 10
28.84563216374266
 20
1.765376914537242
 30
0.0
 10
28.70141414217451
 20
1.750050233478707
 30
0.0
 10
28.63062637958211
 20
1.75000000000129
 30
0.0
  0
SPLINE
  5
BE
330
1F
100
AcDbEntity
  8
DEFAULT
100
AcDbSpline
210
0.0
220
0.0
230
1.0
 70
    24
 71
     2
 72
     6
 73
     3
 74
     0
 42
0.0000000001
 43
0.0000000001
 40
0.0
 40
0.0
 40
0.0
 40
0.8531866725435908
 40
0.8531866725435908
 40
0.8531866725435908
 10
-30.71051052271339
 20
47.21534132011533
 30
0.0
 10
-31.21435587383417
 20
47.15308378027525
 30
0.0
 10
-31.71820122495494
 20
47.09082624043518
 30
0.0
  0
SPLINE
  5
BF
330
1F
100
AcDbEntity
  8
DEFAULT
100
AcDbSpline
210
0.0
220
0.0
230
1.0
 70
     8
 71
     3
 72
    12
 73
     8
 74
     0
 42
0.0000000001
 43
0.0000000001
 40
-1.447663178439027
 40
-1.447663178439027
 40
-1.447663178439027
 40
-1.447663178439027
 40
-1.093642462314709
 40
-0.7368466569107538
 40
-0.368199245026446
 40
-0.1803234997467016
 40
0.0
 40
0.0
 40
0.0
 40
0.0
 10
-31.71820122495494
 20
47.09082624043518
 30
0.0
 10
-31.83495185823398
 20
47.07368193019303
 30
0.0
 10
-32.06302974870974
 20
46.99673876905246
 30
0.0
 10
-32.34799847492047
 20
46.76836449794367
 30
0.0
 10
-32.51096154177102
 20
46.50617304450475
 30
0.0
 10
-32.58645518885641
 20
46.27166064076449
 30
0.0
 10
-32.60536598354633
 20
46.14999659044881
 30
0.0
 10
-32.61002483571382
 20
46.09007963644309
 30
0.0
  0
SPLINE
  5
C0
330
1F
100
AcDbEntity
  8
DEFAULT
100
AcDbSpline
210
0.0
220
0.0
230
1.0
 70
    24
 71
     2
 72
     6
 73
     3
 74
     0
 42
0.0000000001
 43
0.0000000001
 40
-10.47152225161413
 40
-10.47152225161413
 40
-10.47152225161413
 40
0.0
 40
0.0
 40
0.0
 10
-32.61002483571382
 20
46.09007963644309
 30
0.0
 10
-33.01701820226094
 20
40.87016096209116
 30
0.0
 10
-33.42401156880806
 20
35.65024228773922
 30
0.0
  0
SPLINE
  5
C1
330
1F
100
AcDbEntity
  8
DEFAULT
100
AcDbSpline
210
0.0
220
0.0
230
1.0
 70
    12
 71
     2
 72
     6
 73
     3
 74
     0
 42
0.0000000001
 43
0.0000000001
 40
-4.697178621185726
 40
-4.697178621185726
 40
-4.697178621185726
 40
0.0
 40
0.0
 40
0.0
 10
-33.42401156880806
 20
35.65024228773922
 30
0.0
 41
1.0
 10
-33.51396577881444
 20
33.30181875944023
 30
0.0
 41
0.99900691522108
 10
-33.39450077833656
 20
30.95471140317656
 30
0.0
 41
1.0
  0
SPLINE
  5
C2
330
1F
100
AcDbEntity
  8
DEFAULT
100
AcDbSpline
210
0.0
220
0.0
230
1.0
 70
    24
 71
     2
 72
     6
 73
     3
 74
     0
 42
0.0000000001
 43
0.0000000001
 40
-30.49608936161319
 40
-30.49608936161319
 40
-30.49608936161319
 40
0.0
 40
0.0
 40
0.0
 10
-33.39450077833656
 20
30.95471140317656
 30
0.0
 10
-32.06802271810594
 20
16.92460944492311
 30
0.0
 10
-30.74154465787532
 20
2.894507486669651
 30
0.0
  0
SPLINE
  5
C3
330
1F
100
AcDbEntity
  8
DEFAULT
100
AcDbSpline
210
0.0
220
0.0
230
1.0
 70
     8
 71
     3
 72
    12
 73
     8
 74
     0
 42
0.0000000001
 43
0.0000000001
 40
0.0
 40
0.0
 40
0.0
 40
0.0
 40
0.2259264872022256
 40
0.4585747729753158
 40
0.9169882009825127
 40
1.365386633501961
 40
1.798683158781027
 40
1.798683158781027
 40
1.798683158781027
 40
1.798683158781027
 10
-30.74154465787532
 20
2.894507486669651
 30
0.0
 10
-30.73444156535959
 20
2.819520061086982
 30
0.0
 10
-30.70590193237143
 20
2.668747512366488
 30
0.0
 10
-30.59595211473274
 20
2.3821837856332
 30
0.0
 10
-30.36999403966848
 20
2.069982661801954
 30
0.0
 10
-29.99445996400638
 20
1.814858248468778
 30
0.0
 10
-29.70185199255732
 20
1.749867170234999
 30
0.0
 10
-29.55727185832586
 20
1.750000000001292
 30
0.0
  0
LINE
  5
C4
330
1F
100
AcDbEntity
  8
DEFAULT
100
AcDbLine
 10
-29.55727185832586
 20
1.750000000001292
 30
0.0
 11
-19.1620634598992
 21
1.750000000001288
 31
0.0
  0
SPLINE
  5
C5
330
1F
100
AcDbEntity
  8
DEFAULT
100
AcDbSpline
210
0.0
220
0.0
230
1.0
 70
    24
 71
     2
 72
     6
 73
     3
 74
     0
 42
0.0000000001
 43
0.0000000001
 40
0.0
 40
0.0
 40
0.0
 40
0.8531866725435908
 40
0.8531866725435908
 40
0.8531866725435908
 10
30.71051052271339
 20
47.21534132011533
 30
0.0
 10
31.21435587383417
 20
47.15308378027525
 30
0.0
 10
31.71820122495494
 20
47.09082624043518
 30
0.0
  0
SPLINE
  5
C6
330
1F
100
AcDbEntity
  8
DEFAULT
100
AcDbSpline
210
0.0
220
0.0
230
1.0
 70
     8
 71
     3
 72
    12
 73
     8
 74
     0
 42
0.0000000001
 43
0.0000000001
 40
-1.447663178439027
 40
-1.447663178439027
 40
-1.447663178439027
 40
-1.447663178439027
 40
-1.093642462314709
 40
-0.7368466569107538
 40
-0.368199245026446
 40
-0.1803234997467016
 40
0.0
 40
0.0
 40
0.0
 40
0.0
 10
31.71820122495494
 20
47.09082624043518
 30
0.0
 10
31.83495185823398
 20
47.07368193019303
 30
0.0
 10
32.06302974870974
 20
46.99673876905246
 30
0.0
 10
32.34799847492047
 20
46.76836449794367
 30
0.0
 10
32.51096154177102
 20
46.50617304450475
 30
0.0
 10
32.58645518885641
 20
46.27166064076449
 30
0.0
 10
32.60536598354633
 20
46.14999659044881
 30
0.0
 10
32.61002483570459
 20
46.09007963658583
 30
0.0
  0
SPLINE
  5
C7
330
1F
100
AcDbEntity
  8
DEFAULT
100
AcDbSpline
210
0.0
220
0.0
230
1.0
 70
    24
 71
     2
 72
     6
 73
     3
 74
     0
 42
0.0000000001
 43
0.0000000001
 40
-10.4715222519005
 40
-10.4715222519005
 40
-10.4715222519005
 40
0.0
 40
0.0
 40
0.0
 10
32.61002483570459
 20
46.09007963658583
 30
0.0
 10
33.01701820225823
 20
40.87016096216253
 30
0.0
 10
33.42401156881186
 20
35.65024228773922
 30
0.0
  0
SPLINE
  5
C8
330
1F
100
AcDbEntity
  8
DEFAULT
100
AcDbSpline
210
0.0
220
0.0
230
1.0
 70
    12
 71
     2
 72
     6
 73
     3
 74
     0
 42
0.0000000001
 43
0.0000000001
 40
-4.697178621185724
 40
-4.697178621185724
 40
-4.697178621185724
 40
0.0
 40
0.0
 40
0.0
 10
33.42401156881186
 20
35.65024228773922
 30
0.0
 41
1.0
 10
33.51396577881819
 20
33.30181875944022
 30
0.0
 41
0.9990069152210808
 10
33.39450077834039
 20
30.95471140317656
 30
0.0
 41
1.0
  0
SPLINE
  5
C9
330
1F
100
AcDbEntity
  8
DEFAULT
100
AcDbSpline
210
0.0
220
0.0
230
1.0
 70
    24
 71
     2
 72
     6
 73
     3
 74
     0
 42
0.0000000001
 43
0.0000000001
 40
-30.49608936161319
 40
-30.49608936161319
 40
-30.49608936161319
 40
0.0
 40
0.0
 40
0.0
 10
33.39450077834039
 20
30.95471140317656
 30
0.0
 10
32.06802271810785
 20
16.92460944492311
 30
0.0
 10
30.74154465787532
 20
2.894507486669651
 30
0.0
  0
SPLINE
  5
CA
330
1F
100
AcDbEntity
  8
DEFAULT
100
AcDbSpline
210
0.0
220
0.0
230
1.0
 70
     8
 71
     3
 72
    12
 73
     8
 74
     0
 42
0.0000000001
 43
0.0000000001
 40
0.0
 40
0.0
 40
0.0
 40
0.0
 40
0.2259264872022256
 40
0.4585747729753158
 40
0.9169882009825127
 40
1.365386633501961
 40
1.798683158781027
 40
1.798683158781027
 40
1.798683158781027
 40
1.798683158781027
 10
30.74154465787532
 20
2.894507486669651
 30
0.0
 10
30.73444156535959
 20
2.819520061086982
 30
0.0
 10
30.70590193237143
 20
2.668747512366488
 30
0.0
 10
30.59595211473274
 20
2.3821837856332
 30
0.0
 10
30.36999403966848
 20
2.069982661801954
 30
0.0
 10
29.99445996400638
 20
1.814858248468778
 30
0.0
 10
29.70185199255732
 20
1.749867170234999
 30
0.0
 10
29.55727185832586
 20
1.750000000001292
 30
0.0
  0
LINE
  5
CB
330
1F
100
AcDbEntity
  8
DEFAULT
100
AcDbLine
 10
29.55727185832586
 20
1.750000000001292
 30
0.0
 11
19.1620634598992
 21
1.750000000001288
 31
0.0
  0
SPLINE
  5
CC
330
1F
100
AcDbEntity
  8
DEFAULT
100
AcDbSpline
210
0.0
220
0.0
230
1.0
 70
     8
 71
     3
 72
    14
 73
    10
 74
     0
 42
0.0000000001
 43
0.0000000001
 40
-1.246997996431116
 40
-1.246997996431116
 40
-1.246997996431116
 40
-1.246997996431116
 40
-1.171514501802694
 40
-1.079245203686047
 40
-0.9550508141212759
 40
-0.8055461884389601
 40
-0.4294721835324228
 40
-0.2216870155022086
 40
0.0
 40
0.0
 40
0.0
 40
0.0
 10
29.81287128776816
 20
72.47623559110279
 30
0.0
 10
29.80437816489882
 20
72.4523363321259
 30
0.0
 10
29.76674171316355
 20
72.4082992521343
 30
0.0
 10
29.67653887684355
 20
72.36843030818338
 30
0.0
 10
29.55586031778299
 20
72.34764890822598
 30
0.0
 10
29.33870818165437
 20
72.34560787328049
 30
0.0
 10
29.09627797660673
 20
72.38386875921402
 30
0.0
 10
28.83623658517465
 20
72.4503517760001
 30
0.0
 10
28.70007681999377
 20
72.49531052899485
 30
0.0
 10
28.63062637958211
 20
72.52038359261476
 30
0.0
  0
SPLINE
  5
CD
330
1F
100
AcDbEntity
  8
DEFAULT
100
AcDbSpline
210
0.0
220
0.0
230
1.0
 70
    24
 71
     2
 72
     6
 73
     3
 74
     0
 42
0.0000000001
 43
0.0000000001
 40
0.0
 40
0.0
 40
0.0
 40
1.232364348758116
 40
1.232364348758116
 40
1.232364348758116
 10
28.63062637958211
 20
72.52038359261476
 30
0.0
 10
28.05138489206499
 20
72.73052585671569
 30
0.0
 10
27.47214340454786
 20
72.94066812081661
 30
0.0
  0
SPLINE
  5
CE
330
1F
100
AcDbEntity
  8
DEFAULT
100
AcDbSpline
210
0.0
220
0.0
230
1.0
 70
    24
 71
     2
 72
     6
 73
     3
 74
     0
 42
0.0000000001
 43
0.0000000001
 40
-1.232260207474195
 40
-1.232260207474195
 40
-1.232260207474195
 40
0.0
 40
0.0
 40
0.0
 10
-27.47224130233846
 20
72.94063260421669
 30
0.0
 10
-28.05143384092568
 20
72.7305080983256
 30
0.0
 10
-28.6306263795129
 20
72.52038359243453
 30
0.0
  0
SPLINE
  5
CF
330
1F
100
AcDbEntity
  8
DEFAULT
100
AcDbSpline
210
0.0
220
0.0
230
1.0
 70
     8
 71
     3
 72
    14
 73
    10
 74
     0
 42
0.0000000001
 43
0.0000000001
 40
0.0
 40
0.0
 40
0.0
 40
0.0
 40
0.2216870155027675
 40
0.4389173390770472
 40
0.813310390347714
 40
0.9614442035598296
 40
1.084113650978497
 40
1.178667142963169
 40
1.25334266318243
 40
1.25334266318243
 40
1.25334266318243
 40
1.25334266318243
 10
-28.6306263795129
 20
72.52038359243453
 30
0.0
 10
-28.7000773194454
 20
72.49531257661062
 30
0.0
 10
-28.83922944005499
 20
72.44936489752673
 30
0.0
 10
-29.10188686459591
 20
72.38261378559083
 30
0.0
 10
-29.34656938796894
 20
72.34488890568447
 30
0.0
 10
-29.56221836088307
 20
72.34819967432952
 30
0.0
 10
-29.6824792594978
 20
72.37003553972752
 30
0.0
 10
-29.77211158091964
 20
72.41167812462744
 30
0.0
 10
-29.80789941802354
 20
72.45816980761056
 30
0.0
 10
-29.81489918317862
 20
72.48224707669542
 30
0.0
  0
SPLINE
  5
D0
330
1F
100
AcDbEntity
  8
DEFAULT
100
AcDbSpline
210
0.0
220
0.0
230
1.0
 70
    24
 71
     2
 72
     6
 73
     3
 74
     0
 42
0.0000000001
 43
0.0000000001
 40
-10.02724283665628
 40
-10.02724283665628
 40
-10.02724283665628
 40
0.0
 40
0.0
 40
0.0
 10
-29.81489918317862
 20
72.48224707669542
 30
0.0
 10
-31.17642680839101
 20
76.92735871435279
 30
0.0
 10
-32.53795443360339
 20
81.37247035201017
 30
0.0
  0
SPLINE
  5
D1
330
1F
100
AcDbEntity
  8
DEFAULT
100
AcDbSpline
210
0.0
220
0.0
230
1.0
 70
     8
 71
     3
 72
     8
 73
     4
 74
     0
 42
0.0000000001
 43
0.0000000001
 40
-1.0
 40
-1.0
 40
-1.0
 40
-1.0
 40
0.0
 40
0.0
 40
0.0
 40
0.0
 10
-32.53795443360339
 20
81.37247035201017
 30
0.0
 10
-32.69755646984482
 20
81.8935386399782
 30
0.0
 10
-32.3607572220651
 20
82.66900279269294
 30
0.0
 10
-31.84846499608926
 20
82.8548566221023
 30
0.0
  0
SPLINE
  5
D2
330
1F
100
AcDbEntity
  8
DEFAULT
100
AcDbSpline
210
0.0
220
0.0
230
1.0
 70
    24
 71
     2
 72
     6
 73
     3
 74
     0
 42
0.0000000001
 43
0.0000000001
 40
-38.78147884049313
 40
-38.78147884049313
 40
-38.78147884049313
 40
-10.30564836702255
 40
-10.30564836702255
 40
-10.30564836702255
 10
-31.84846499608926
 20
82.8548566221023
 30
0.0
 10
-18.46412693787001
 20
87.71054319217515
 30
0.0
 10
-5.079788879650764
 20
92.566229762248
 30
0.0
  0
SPLINE
  5
D3
330
1F
100
AcDbEntity
  8
DEFAULT
100
AcDbSpline
210
0.0
220
0.0
230
1.0
 70
     8
 71
     3
 72
    11
 73
     7
 74
     0
 42
0.0000000001
 43
0.0000000001
 40
-10.36860872649074
 40
-10.36860872649074
 40
-10.36860872649074
 40
-10.36860872649074
 40
-6.724199387538618
 40
-4.698663398615342
 40
-2.187561809747211
 40
0.0
 40
0.0
 40
0.0
 40
0.0
 10
-5.079788879650764
 20
92.566229762248
 30
0.0
 10
-3.937835540806379
 20
92.98058368731434
 30
0.0
 10
-2.082574885137697
 20
93.40886009669128
 30
0.0
 10
0.6492660374788531
 20
93.5059578503366
 30
0.0
 10
2.883084963204269
 20
93.2420822291288
 30
0.0
 10
4.394340673857321
 20
92.81497163393037
 30
0.0
 10
5.079790355979257
 20
92.56622918100747
 30
0.0
  0
SPLINE
  5
D4
330
1F
100
AcDbEntity
  8
DEFAULT
100
AcDbSpline
210
0.0
220
0.0
230
1.0
 70
    24
 71
     2
 72
     6
 73
     3
 74
     0
 42
0.0000000001
 43
0.0000000001
 40
0.0
 40
0.0
 40
0.0
 40
28.47583059798591
 40
28.47583059798591
 40
28.47583059798591
 10
5.079790355979256
 20
92.56622918100746
 30
0.0
 10
18.46412767586784
 20
87.71054290118941
 30
0.0
 10
31.84846499575641
 20
82.85485662137137
 30
0.0
  0
SPLINE
  5
D5
330
1F
100
AcDbEntity
  8
DEFAULT
100
AcDbSpline
210
0.0
220
0.0
230
1.0
 70
     8
 71
     3
 72
     8
 73
     4
 74
     0
 42
0.0000000001
 43
0.0000000001
 40
0.0
 40
0.0
 40
0.0
 40
0.0
 40
1.0
 40
1.0
 40
1.0
 40
1.0
 10
31.84846499575641
 20
82.85485662137137
 30
0.0
 10
32.36075722203889
 20
82.66900279275328
 30
0.0
 10
32.69755646985103
 20
81.89353863999848
 30
0.0
 10
32.53795443360339
 20
81.37247035201017
 30
0.0
  0
SPLINE
  5
D6
330
1F
100
AcDbEntity
  8
DEFAULT
100
AcDbSpline
210
0.0
220
0.0
230
1.0
 70
    24
 71
     2
 72
     6
 73
     3
 74
     0
 42
0.0000000001
 43
0.0000000001
 40
0.0
 40
0.0
 40
0.0
 40
10.02724283665628
 40
10.02724283665628
 40
10.02724283665628
 10
32.53795443360339
 20
81.37247035201017
 30
0.0
 10
31.17642680839101
 20
76.92735871435279
 30
0.0
 10
29.81489918317862
 20
72.48224707669542
 30
0.0
  0
SPLINE
  5
D7
330
1F
100
AcDbEntity
  8
DEFAULT
100
AcDbSpline
210
0.0
220
0.0
230
1.0
 70
    24
 71
     2
 72
     6
 73
     3
 74
     0
 42
0.0000000001
 43
0.0000000001
 40
0.0
 40
0.0
 40
0.0
 40
2.688129763359455
 40
2.688129763359455
 40
2.688129763359455
 10
-29.81489918317862
 20
72.48224707669542
 30
0.0
 10
-30.27822192052507
 20
73.74392946431226
 30
0.0
 10
-30.74154465787151
 20
75.0056118519291
 30
0.0
  0
SPLINE
  5
D8
330
1F
100
AcDbEntity
  8
DEFAULT
100
AcDbSpline
210
0.0
220
0.0
230
1.0
 70
    24
 71
     2
 72
     6
 73
     3
 74
     0
 42
0.0000000001
 43
0.0000000001
 40
0.0
 40
0.0
 40
0.0
 40
9.775131712123208
 40
9.775131712123208
 40
9.775131712123208
 10
-30.74154465787151
 20
75.0056118519291
 30
0.0
 10
-32.06802271810404
 20
79.33662895296705
 30
0.0
 10
-33.39450077833656
 20
83.66764605400499
 30
0.0
  0
SPLINE
  5
D9
330
1F
100
AcDbEntity
  8
DEFAULT
100
AcDbSpline
210
0.0
220
0.0
230
1.0
 70
     8
 71
     3
 72
     8
 73
     4
 74
     0
 42
0.0000000001
 43
0.0000000001
 40
0.0
 40
0.0
 40
0.0
 40
0.0
 40
1.0
 40
1.0
 40
1.0
 40
1.0
 10
-33.39450077833656
 20
83.66764605400499
 30
0.0
 10
-33.56394740455796
 20
84.22089774951316
 30
0.0
 10
-33.29704405461342
 20
85.08333005136348
 30
0.0
 10
-32.75311408016182
 20
85.28066170268566
 30
0.0
  0
SPLINE
  5
DA
330
1F
100
AcDbEntity
  8
DEFAULT
100
AcDbSpline
210
0.0
220
0.0
230
1.0
 70
    24
 71
     2
 72
     6
 73
     3
 74
     0
 42
0.0000000001
 43
0.0000000001
 40
0.0
 40
0.0
 40
0.0
 40
28.50033339901135
 40
28.50033339901135
 40
28.50033339901135
 10
-32.75311408016182
 20
85.28066170268566
 30
0.0
 10
-19.35725404966162
 20
90.14052842241287
 30
0.0
 10
-5.961394019161428
 20
95.00039514214009
 30
0.0
  0
SPLINE
  5
DB
330
1F
100
AcDbEntity
  8
DEFAULT
100
AcDbSpline
210
0.0
220
0.0
230
1.0
 70
    12
 71
     2
 72
     6
 73
     3
 74
     0
 42
0.0000000001
 43
0.0000000001
 40
28.50033339901135
 40
28.50033339901135
 40
28.50033339901135
 40
40.49800774977193
 40
40.49800774977193
 40
40.49800774977193
 10
-5.961394019161428
 20
95.00039514214009
 30
0.0
 41
1.0
 10
0.0000000469347
 20
97.16265593450969
 30
0.0
 41
0.9400726180712413
 10
5.961394112772659
 20
95.00039514111468
 30
0.0
 41
1.0
  0
SPLINE
  5
DC
330
1F
100
AcDbEntity
  8
DEFAULT
100
AcDbSpline
210
0.0
220
0.0
230
1.0
 70
    24
 71
     2
 72
     6
 73
     3
 74
     0
 42
0.0000000001
 43
0.0000000001
 40
40.49800774977193
 40
40.49800774977193
 40
40.49800774977193
 40
68.99834106058525
 40
68.99834106058525
 40
68.99834106058525
 10
5.961394112772659
 20
95.00039514111468
 30
0.0
 10
19.35725409662669
 20
90.14052842215077
 30
0.0
 10
32.75311408048073
 20
85.28066170318687
 30
0.0
  0
SPLINE
  5
DD
330
1F
100
AcDbEntity
  8
DEFAULT
100
AcDbSpline
210
0.0
220
0.0
230
1.0
 70
     8
 71
     3
 72
     8
 73
     4
 74
     0
 42
0.0000000001
 43
0.0000000001
 40
-1.0
 40
-1.0
 40
-1.0
 40
-1.0
 40
0.0
 40
0.0
 40
0.0
 40
0.0
 10
32.75311408048073
 20
85.28066170318687
 30
0.0
 10
33.29704405465306
 20
85.08333005123544
 30
0.0
 10
33.56394740454538
 20
84.22089774947209
 30
0.0
 10
33.39450077833656
 20
83.66764605400499
 30
0.0
  0
SPLINE
  5
DE
330
1F
100
AcDbEntity
  8
DEFAULT
100
AcDbSpline
210
0.0
220
0.0
230
1.0
 70
    24
 71
     2
 72
     6
 73
     3
 74
     0
 42
0.0000000001
 43
0.0000000001
 40
-9.775131712123208
 40
-9.775131712123208
 40
-9.775131712123208
 40
0.0
 40
0.0
 40
0.0
 10
33.39450077833656
 20
83.66764605400499
 30
0.0
 10
32.06802271810499
 20
79.33662895296705
 30
0.0
 10
30.74154465787342
 20
75.0056118519291
 30
0.0
  0
SPLINE
  5
DF
330
1F
100
AcDbEntity
  8
DEFAULT
100
AcDbSpline
210
0.0
220
0.0
230
1.0
 70
    24
 71
     2
 72
     6
 73
     3
 74
     0
 42
0.0000000001
 43
0.0000000001
 40
-2.688129763359452
 40
-2.688129763359452
 40
-2.688129763359452
 40
0.0
 40
0.0
 40
0.0
 10
30.74154465787342
 20
75.0056118519291
 30
0.0
 10
30.27822192052793
 20
73.74392946431226
 30
0.0
 10
29.81489918318243
 20
72.48224707669542
 30
0.0
  0
SPLINE
  5
E0
330
1F
100
AcDbEntity
  8
DEFAULT
100
AcDbSpline
210
0.0
220
0.0
230
1.0
 70
    24
 71
     2
 72
     6
 73
     3
 74
     0
 42
0.0000000001
 43
0.0000000001
 40
0.0
 40
0.0
 40
0.0
 40
0.0013846485347368
 40
0.0013846485347368
 40
0.0013846485347368
 10
-32.53836106050318
 20
81.37379394791873
 30
0.0
 10
-32.53815774705328
 20
81.37313214996445
 30
0.0
 10
-32.53795443360339
 20
81.37247035201017
 30
0.0
  0
SPLINE
  5
E1
330
1F
100
AcDbEntity
  8
DEFAULT
100
AcDbSpline
210
0.0
220
0.0
230
1.0
 70
    24
 71
     2
 72
     6
 73
     3
 74
     0
 42
0.0000000001
 43
0.0000000001
 40
0.0
 40
0.0
 40
0.0
 40
0.0013846485347368
 40
0.0013846485347368
 40
0.0013846485347368
 10
32.53836106050699
 20
81.37379394791873
 30
0.0
 10
32.53815774705708
 20
81.37313214996445
 30
0.0
 10
32.53795443360718
 20
81.37247035201017
 30
0.0
  0
LINE
  5
E2
330
1F
100
AcDbEntity
  8
DEFAULT
100
AcDbLine
 10
4.646710987346318
 20
84.27621138345293
 30
0.0
 11
26.93190572111649
 21
76.19129196727255
 31
0.0
  0
ARC
  5
E3
330
1F
100
AcDbEntity
  8
DEFAULT
100
AcDbCircle
 10
26.42034120874818
 20
74.78122042664585
 30
0.0
 40
1.5
100
AcDbArc
 50
344.7074881413891
 51
70.05956749517983
  0
LINE
  5
E4
330
1F
100
AcDbEntity
  8
DEFAULT
100
AcDbLine
 10
27.8672290535091
 20
74.38559994602954
 30
0.0
 11
23.99676435483891
 21
60.23029555592744
 31
0.0
  0
ARC
  5
E5
330
1F
100
AcDbEntity
  8
DEFAULT
100
AcDbCircle
 10
22.54987651007797
 20
60.62591603654369
 30
0.0
 40
1.5
100
AcDbArc
 50
251.6594379654988
 51
344.7074881413919
  0
LINE
  5
E6
330
1F
100
AcDbEntity
  8
DEFAULT
100
AcDbLine
 10
22.07787973832717
 20
59.20211160915317
 30
0.0
 11
5.191964489258945
 21
64.79985897690437
 31
0.0
  0
ARC
  5
E7
330
1F
100
AcDbEntity
  8
DEFAULT
100
AcDbCircle
 10
-0.0000000000001377
 20
49.13801027560884
 30
0.0
 40
16.5
100
AcDbArc
 50
71.65943796549773
 51
108.3405620345013
  0
LINE
  5
E8
330
1F
100
AcDbEntity
  8
DEFAULT
100
AcDbLine
 10
-5.191964489258975
 20
64.79985897690446
 30
0.0
 11
-22.07787973832717
 21
59.20211160915317
 31
0.0
  0
ARC
  5
E9
330
1F
100
AcDbEntity
  8
DEFAULT
100
AcDbCircle
 10
-22.54987651007797
 20
60.62591603654369
 30
0.0
 40
1.5
100
AcDbArc
 50
195.2925118586081
 51
288.3405620345013
  0
LINE
  5
EA
330
1F
100
AcDbEntity
  8
DEFAULT
100
AcDbLine
 10
-23.99676435483891
 20
60.23029555592744
 30
0.0
 11
-27.8672290535091
 21
74.38559994602954
 31
0.0
  0
ARC
  5
EB
330
1F
100
AcDbEntity
  8
DEFAULT
100
AcDbCircle
 10
-26.42034120874818
 20
74.78122042664585
 30
0.0
 40
1.5
100
AcDbArc
 50
109.9404325048202
 51
195.2925118586109
  0
LINE
  5
EC
330
1F
100
AcDbEntity
  8
DEFAULT
100
AcDbLine
 10
-26.93190572111649
 20
76.19129196727255
 30
0.0
 11
-4.646710987346326
 21
84.27621138345293
 31
0.0
  0
ARC
  5
ED
330
1F
100
AcDbEntity
  8
DEFAULT
100
AcDbCircle
 10
-0.0000000000000098
 20
71.468061556094
 30
0.0
 40
13.625
100
AcDbArc
 50
70.05956749517615
 51
109.9404325048239
  0
POLYLINE
  5
EE
330
1F
100
AcDbEntity
  8
DEFAULT
100
AcDb2dPolyline
 66
     1
 10
0.0
 20
0.0
 30
0.0
  0
VERTEX
  5
EF
330
EE
100
AcDbEntity
  8
DEFAULT
100
AcDbVertex
100
AcDb2dVertex
 10
-0.0000000000001452
 20
65.63801027560885
 30
0.0
  0
VERTEX
  5
F0
330
EE
100
AcDbEntity
  8
DEFAULT
100
AcDbVertex
100
AcDb2dVertex
 10
0.000000000000031
 20
85.093061556094
 30
0.0
  0
SEQEND
  5
F1
330
EE
100
AcDbEntity
  8
DEFAULT
  0
LINE
  5
F2
330
1F
100
AcDbEntity
  8
DEFAULT
100
AcDbLine
 10
23.28611866958065
 20
10.97587385490784
 30
0.0
 11
22.77686951685716
 21
6.332243585571334
 31
0.0
  0
SPLINE
  5
F3
330
1F
100
AcDbEntity
  8
DEFAULT
100
AcDbSpline
210
0.0
220
0.0
230
1.0
 70
    12
 71
     2
 72
     6
 73
     3
 74
     0
 42
0.0000000001
 43
0.0000000001
 40
-4.856010430358229
 40
-4.856010430358229
 40
-4.856010430358229
 40
-0.1830027042428091
 40
-0.1830027042428091
 40
-0.1830027042428091
 10
22.77686951685715
 20
6.332243585571323
 30
0.0
 41
1.0
 10
22.53161455882841
 20
4.095866086038294
 30
0.0
 41
0.9919390769265711
 10
22.48596774574527
 20
1.750523468860696
 30
0.0
 41
1.0
  0
LINE
  5
F4
330
1F
100
AcDbEntity
  8
DEFAULT
100
AcDbLine
 10
-23.28611866958067
 20
10.97587385490784
 30
0.0
 11
-22.77686951685716
 21
6.332243585571334
 31
0.0
  0
SPLINE
  5
F5
330
1F
100
AcDbEntity
  8
DEFAULT
100
AcDbSpline
210
0.0
220
0.0
230
1.0
 70
    12
 71
     2
 72
     6
 73
     3
 74
     0
 42
0.0000000001
 43
0.0000000001
 40
-4.856010430358229
 40
-4.856010430358229
 40
-4.856010430358229
 40
-0.1830027042428091
 40
-0.1830027042428091
 40
-0.1830027042428091
 10
-22.77686951685715
 20
6.332243585571312
 30
0.0
 41
1.0
 10
-22.53161455882841
 20
4.095866086038283
 30
0.0
 41
0.9919390769265711
 10
-22.48596774574527
 20
1.750523468860687
 30
0.0
 41
1.0
  0
LINE
  5
F6
330
1F
100
AcDbEntity
  8
DEFAULT
100
AcDbLine
 10
-18.49102862922809
 20
12.19485494958033
 30
0.0
 11
-18.48938542642995
 21
15.95355010884662
 31
0.0
  0
LINE
  5
F7
330
1F
100
AcDbEntity
  8
DEFAULT
100
AcDbLine
 10
18.49102862922809
 20
12.19485494958033
 30
0.0
 11
18.48938542642995
 21
15.95355010884662
 31
0.0
  0
LINE
  5
F8
330
1F
100
AcDbEntity
  8
MAKE2D VISIBLE LINES
100
AcDbLine
 10
18.36575177393885
 20
1.750000000001288
 30
0.0
 11
-18.3657615274806
 21
1.750000000001283
 31
0.0
  0
SPLINE
  5
F9
330
1F
100
AcDbEntity
  8
DEFAULT
100
AcDbSpline
210
0.0
220
0.0
230
1.0
 70
     8
 71
     3
 72
    30
 73
    26
 74
     0
 42
0.0000000001
 43
0.0000000001
 40
-3.683187270271507
 40
-3.683187270271507
 40
-3.683187270271507
 40
-3.683187270271507
 40
0.0
 40
0.0
 40
0.0
 40
0.1111229606088482
 40
0.2792162910013882
 40
0.7438936175037509
 40
1.321851507537554
 40
1.629820460915922
 40
1.925029624908582
 40
1.925029624908582
 40
1.925029624908582
 40
46.08048554825417
 40
46.08048554825417
 40
46.08048554825417
 40
46.37569470746985
 40
46.68366365962286
 40
47.26162155419173
 40
47.72629888656081
 40
47.89439221814064
 40
48.00551517837636
 40
48.00551517837636
 40
48.00551517837636
 40
51.68870296248648
 40
51.68870296248648
 40
51.68870296248648
 40
51.68870296248648
 10
-27.59785112921008
 20
11.05070902293525
 30
0.0
 10
-26.3601954337514
 20
11.41449126156085
 30
0.0
 10
-25.17843415218728
 20
11.74729599717973
 30
0.0
 10
-23.99667287062314
 20
12.0801007327986
 30
0.0
 10
-23.96090603572395
 20
12.08980113882357
 30
0.0
 10
-23.86935710343104
 20
12.10701272555978
 30
0.0
 10
-23.62321146160991
 20
12.1375220121827
 30
0.0
 10
-23.2206460180503
 20
12.16754482685013
 30
0.0
 10
-22.77083170491463
 20
12.18672234941293
 30
0.0
 10
-22.3771863683759
 20
12.19522138570999
 30
0.0
 10
-22.17613689845399
 20
12.19672908996989
 30
0.0
 10
-22.07773024623705
 20
12.19665752985533
 30
0.0
 10
-7.359244938455191
 20
12.19665752971587
 30
0.0
 10
7.35924036932667
 20
12.19665752957641
 30
0.0
 10
22.07772567710853
 20
12.19665752943695
 30
0.0
 10
22.17613232773252
 20
12.196729089577
 30
0.0
 10
22.37718179565556
 20
12.19522138544973
 30
0.0
 10
22.77082713171441
 20
12.1867223497642
 30
0.0
 10
23.22064144796417
 20
12.1675448285284
 30
0.0
 10
23.62320689555534
 20
12.13752201626937
 30
0.0
 10
23.86935253993536
 20
12.10701273229488
 30
0.0
 10
23.96090147279097
 20
12.08980114716232
 30
0.0
 10
23.99666830780487
 20
12.08010074204671
 30
0.0
 10
25.17842976253192
 20
11.74729598945803
 30
0.0
 10
26.36019121725897
 20
11.41449123686935
 30
0.0
 10
27.59784708042744
 20
11.05070899113314
 30
0.0
  0
SPLINE
  5
FA
330
1F
100
AcDbEntity
  8
DEFAULT
100
AcDbSpline
210
0.0
220
0.0
230
1.0
 70
     8
 71
     3
 72
     8
 73
     4
 74
     0
 42
0.0000000001
 43
0.0000000001
 40
0.0
 40
0.0
 40
0.0
 40
0.0
 40
1.0
 40
1.0
 40
1.0
 40
1.0
 10
26.61224845539974
 20
10.97587385490783
 30
0.0
 10
26.94172833726673
 20
10.97587385490783
 30
0.0
 10
27.59159514716805
 20
10.97756775513919
 30
0.0
 10
27.59785112921008
 20
11.05070902293525
 30
0.0
  0
SPLINE
  5
FB
330
1F
100
AcDbEntity
  8
DEFAULT
100
AcDbSpline
210
0.0
220
0.0
230
1.0
 70
     8
 71
     3
 72
     8
 73
     4
 74
     0
 42
0.0000000001
 43
0.0000000001
 40
0.0
 40
0.0
 40
0.0
 40
0.0
 40
1.0
 40
1.0
 40
1.0
 40
1.0
 10
-26.61224845539974
 20
10.97587385490783
 30
0.0
 10
-26.94172833726673
 20
10.97587385490783
 30
0.0
 10
-27.59159514716805
 20
10.97756775513919
 30
0.0
 10
-27.59785112921008
 20
11.05070902293525
 30
0.0
  0
LINE
  5
FC
330
1F
100
AcDbEntity
  8
DEFAULT
100
AcDbLine
 10
-27.88570756409025
 20
14.74782509137872
 30
0.0
 11
-24.04484611255029
 21
15.82568918663333
 31
0.0
  0
SPLINE
  5
FD
330
1F
100
AcDbEntity
  8
DEFAULT
100
AcDbSpline
210
0.0
220
0.0
230
1.0
 70
     8
 71
     3
 72
    10
 73
     6
 74
     0
 42
0.0000000001
 43
0.0000000001
 40
-3.0
 40
-3.0
 40
-3.0
 40
-3.0
 40
-2.0
 40
-1.0
 40
0.0
 40
0.0
 40
0.0
 40
0.0
 10
-24.04484611255029
 20
15.82568918663333
 30
0.0
 10
-23.87260753512578
 20
15.87402463969925
 30
0.0
 10
-23.4033150649334
 20
15.91490388112176
 30
0.0
 10
-22.8677392212074
 20
15.94284128109557
 30
0.0
 10
-22.5102193600499
 20
15.95169262494644
 30
0.0
 10
-22.33044481203409
 20
15.95382714128444
 30
0.0
  0
POLYLINE
  5
FE
330
1F
100
AcDbEntity
  8
DEFAULT
100
AcDb2dPolyline
 66
     1
 10
0.0
 20
0.0
 30
0.0
  0
VERTEX
  5
FF
330
FE
100
AcDbEntity
  8
DEFAULT
100
AcDbVertex
100
AcDb2dVertex
 10
-22.33044481203409
 20
15.95382714128444
 30
0.0
  0
VERTEX
  5
100
330
FE
100
AcDbEntity
  8
DEFAULT
100
AcDbVertex
100
AcDb2dVertex
 10
22.33145294605757
 20
15.95381163084555
 30
0.0
  0
SEQEND
  5
101
330
FE
100
AcDbEntity
  8
DEFAULT
  0
SPLINE
  5
102
330
1F
100
AcDbEntity
  8
DEFAULT
100
AcDbSpline
210
0.0
220
0.0
230
1.0
 70
     8
 71
     3
 72
    10
 73
     6
 74
     0
 42
0.0000000001
 43
0.0000000001
 40
0.0
 40
0.0
 40
0.0
 40
0.0
 40
1.0
 40
2.0
 40
3.0
 40
3.0
 40
3.0
 40
3.0
 10
22.33145294605757
 20
15.95381163084555
 30
0.0
 10
22.5102193600499
 20
15.95169262494644
 30
0.0
 10
22.8677392212074
 20
15.94284128109557
 30
0.0
 10
23.4033150649334
 20
15.91490388112176
 30
0.0
 10
23.87260753512578
 20
15.87402463969925
 30
0.0
 10
24.04484611255029
 20
15.82568918663333
 30
0.0
  0
LINE
  5
103
330
1F
100
AcDbEntity
  8
DEFAULT
100
AcDbLine
 10
24.04484611255029
 20
15.82568918663333
 30
0.0
 11
27.88574810238836
 21
14.74781371508291
 31
0.0
  0
SPLINE
  5
104
330
1F
100
AcDbEntity
  8
MAKE2D VISIBLE LINES
100
AcDbSpline
210
0.0
220
0.0
230
1.0
 70
     8
 71
     3
 72
    13
 73
     9
 74
     0
 42
0.0000000001
 43
0.0000000001
 40
0.0
 40
0.0
 40
0.0
 40
0.0
 40
0.3900565612460932
 40
0.8122802304708467
 40
1.01455645736829
 40
1.329073515064581
 40
1.655628875460486
 40
2.716494277281453
 40
2.716494277281453
 40
2.716494277281453
 40
2.716494277281453
 10
25.40776201048075
 20
15.814090299446
 30
0.0
 10
25.53263552008193
 20
15.77782448672216
 30
0.0
 10
25.7913230042858
 20
15.6979392298765
 30
0.0
 10
26.11191808400488
 20
15.58999665231799
 30
0.0
 10
26.40619710277375
 20
15.48354500468397
 30
0.0
 10
26.67061608195237
 20
15.3878068288701
 30
0.0
 10
27.19768087539276
 20
15.17828283068313
 30
0.0
 10
27.60676216303994
 20
14.95653844092457
 30
0.0
 10
27.89023884041293
 20
14.74445941632838
 30
0.0
  0
LINE
  5
105
330
1F
100
AcDbEntity
  8
MAKE2D VISIBLE LINES
100
AcDbLine
 10
27.89023884041293
 20
14.74445941632838
 30
0.0
 11
27.91237198620216
 21
14.72790081964341
 31
0.0
  0
LINE
  5
106
330
1F
100
AcDbEntity
  8
MAKE2D VISIBLE LINES
100
AcDbLine
 10
27.91237198620216
 20
14.72790081964341
 30
0.0
 11
27.59784708042744
 21
11.05070899113314
 31
0.0
  0
SPLINE
  5
107
330
1F
100
AcDbEntity
  8
MAKE2D VISIBLE LINES
100
AcDbSpline
210
0.0
220
0.0
230
1.0
 70
     8
 71
     3
 72
    68
 73
    64
 74
     0
 42
0.0000000001
 43
0.0000000001
 40
-53.72555833804417
 40
-53.72555833804417
 40
-53.72555833804417
 40
-53.72555833804417
 40
-53.48702735201231
 40
-52.78504352890245
 40
-52.39783964223519
 40
-52.26050922056476
 40
-52.18585529804861
 40
-51.97735672157773
 40
-51.12069200839922
 40
-50.95245083036456
 40
-50.72419229927905
 40
-50.60362745864557
 40
-50.30174658496622
 40
-50.08853921423797
 40
-49.78861012804334
 40
-49.53396321526019
 40
-49.19615424500449
 40
-48.47587264291329
 40
-47.34416992276128
 40
-46.22771345458918
 40
-45.20914930992411
 40
-41.7465959334056
 40
-37.58458964108167
 40
-34.90499388773905
 40
-33.96659606780479
 40
-33.06944816143723
 40
-32.03904486635408
 40
-27.99909375557247
 40
-26.25134852458412
 40
-24.53580641537551
 40
-23.52543815238598
 40
-22.78028658211003
 40
-22.6299602535666
 40
-21.56499984114081
 40
-14.45193810988715
 40
-11.08560381510028
 40
-10.54822296646803
 40
-10.17381757827395
 40
-7.846008310021055
 40
-7.649315487305003
 40
-7.345160877088074
 40
-6.689724665354629
 40
-6.181683735359971
 40
-5.936121718010908
 40
-5.640468022276242
 40
-5.517826998637724
 40
-5.408360595779388
 40
-5.335340727710191
 40
-5.088624352006631
 40
-4.261763056955429
 40
-3.808961767832908
 40
-3.574851282833067
 40
-3.319398823021756
 40
-2.971918846044651
 40
-2.833973398174474
 40
-2.658987994059133
 40
-2.537042168976788
 40
-1.609577604182214
 40
-1.429958908414806
 40
-1.12535613283787
 40
-0.6714041336690557
 40
-0.3103918753505459
 40
0.0
 40
0.0
 40
0.0
 40
0.0
 10
25.40776201048055
 20
15.81409029944605
 30
0.0
 10
25.33145666955841
 20
15.8364376859483
 30
0.0
 10
25.03017733169187
 20
15.92313619950282
 30
0.0
 10
24.60412344843851
 20
16.04293144237942
 30
0.0
 10
24.20981113699017
 20
16.15096598506263
 30
0.0
 10
24.01702167702715
 20
16.203139229886
 30
0.0
 10
23.88163943300447
 20
16.23946796033717
 30
0.0
 10
23.51339096749385
 20
16.33289118175693
 30
0.0
 10
23.11172821096861
 20
16.42144713306956
 30
0.0
 10
22.70115994916858
 20
16.49835966353518
 30
0.0
 10
22.53194533358229
 20
16.53118702089089
 30
0.0
 10
22.3176307050191
 20
16.56477389762281
 30
0.0
 10
22.10732285124885
 20
16.59086804585549
 30
0.0
 10
21.83686644378605
 20
16.61665933113299
 30
0.0
 10
21.58161024987311
 20
16.63545027462488
 30
0.0
 10
21.28463655816518
 20
16.65243631864002
 30
0.0
 10
20.84740342779597
 20
16.67078046396422
 30
0.0
 10
20.11757999145163
 20
16.68380959367713
 30
0.0
 10
19.12824036559928
 20
16.70104287461416
 30
0.0
 10
18.03933982835011
 20
16.70731209112745
 30
0.0
 10
16.17347988643311
 20
16.70677613252457
 30
0.0
 10
13.29244036166301
 20
16.70767621466763
 30
0.0
 10
9.857719404669695
 20
16.70575962490085
 30
0.0
 10
7.264389927685841
 20
16.70680562608397
 30
0.0
 10
5.759337933351389
 20
16.70437767548458
 30
0.0
 10
4.80402994755093
 20
16.70879980355746
 30
0.0
 10
2.814871918797394
 20
16.71410074435464
 30
0.0
 10
0.5421690178514211
 20
16.71768073870648
 30
0.0
 10
-1.958906358645606
 20
16.71472667449095
 30
0.0
 10
-3.450129062032232
 20
16.71391001670535
 30
0.0
 10
-4.607136442941822
 20
16.70858467528047
 30
0.0
 10
-5.24241211701198
 20
16.70549676267552
 30
0.0
 10
-5.89589186547974
 20
16.70554947386897
 30
0.0
 10
-8.672008890769945
 20
16.70612426066806
 30
0.0
 10
-12.52012523789361
 20
16.70720838949207
 30
0.0
 10
-16.19238701239638
 20
16.70714653777655
 30
0.0
 10
-17.61842415286762
 20
16.7067546732619
 30
0.0
 10
-18.69830066097344
 20
16.7066127495689
 30
0.0
 10
-19.66454567554882
 20
16.69281784397256
 30
0.0
 10
-20.60724679939949
 20
16.67473895450984
 30
0.0
 10
-20.99258966786422
 20
16.66577582786543
 30
0.0
 10
-21.48134563805488
 20
16.64407230946494
 30
0.0
 10
-21.94978107121744
 20
16.60830422757254
 30
0.0
 10
-22.29721697649254
 20
16.5679944453184
 30
0.0
 10
-22.51604003564114
 20
16.53450094917009
 30
0.0
 10
-22.68866699506586
 20
16.50058312080575
 30
0.0
 10
-22.78874565174155
 20
16.48241781924796
 30
0.0
 10
-22.92916744234569
 20
16.45506439937557
 30
0.0
 10
-23.30410982398689
 20
16.38078950772616
 30
0.0
 10
-23.79960965057691
 20
16.26452650517916
 30
0.0
 10
-24.2859159348148
 20
16.12977151707784
 30
0.0
 10
-24.58882281889024
 20
16.0466377588147
 30
0.0
 10
-24.85761746562946
 20
15.97176118152431
 30
0.0
 10
-25.09511840239267
 20
15.90413964711842
 30
0.0
 10
-25.30680839922846
 20
15.84365912538583
 30
0.0
 10
-25.44591263507303
 20
15.80297603326783
 30
0.0
 10
-25.83716286699135
 20
15.68645454975375
 30
0.0
 10
-26.22386508097495
 20
15.55087498153993
 30
0.0
 10
-26.66561473319118
 20
15.38876682558308
 30
0.0
 10
-26.95704529184164
 20
15.27522655280394
 30
0.0
 10
-27.29617357264456
 20
15.11866642395452
 30
0.0
 10
-27.62243959583779
 20
14.93290445656374
 30
0.0
 10
-27.80733894898557
 20
14.80648470374522
 30
0.0
 10
-27.89017295828785
 20
14.74448835752214
 30
0.0
  0
LINE
  5
108
330
1F
100
AcDbEntity
  8
MAKE2D VISIBLE LINES
100
AcDbLine
 10
-27.89017295828785
 20
14.74448835752214
 30
0.0
 11
-27.91236969849111
 21
14.72787541312565
 31
0.0
  0
LINE
  5
109
330
1F
100
AcDbEntity
  8
MAKE2D VISIBLE LINES
100
AcDbLine
 10
-27.91236969849111
 20
14.72787541312565
 30
0.0
 11
-27.59785112921008
 21
11.05070902293525
 31
0.0
  0
POLYLINE
  5
10A
330
1F
100
AcDbEntity
  8
DEFAULT
100
AcDb2dPolyline
 66
     1
 10
0.0
 20
0.0
 30
0.0
  0
VERTEX
  5
10B
330
10A
100
AcDbEntity
  8
DEFAULT
100
AcDbVertex
100
AcDb2dVertex
 10
-14.21732457811217
 20
10.97587385490784
 30
0.0
  0
VERTEX
  5
10C
330
10A
100
AcDbEntity
  8
DEFAULT
100
AcDbVertex
100
AcDb2dVertex
 10
14.21732457811598
 20
10.97587385490783
 30
0.0
  0
SEQEND
  5
10D
330
10A
100
AcDbEntity
  8
DEFAULT
  0
SPLINE
  5
10E
330
1F
100
AcDbEntity
  8
MAKE2D VISIBLE LINES
100
AcDbSpline
210
0.0
220
0.0
230
1.0
 70
    24
 71
     2
 72
     6
 73
     3
 74
     0
 42
0.0000000001
 43
0.0000000001
 40
-13.50203609032457
 40
-13.50203609032457
 40
-13.50203609032457
 40
0.0
 40
0.0
 40
0.0
 10
-13.50196242721091
 20
12.06375336950861
 30
0.0
 10
-6.750981213604504
 20
12.08605358565247
 30
0.0
 10
0.0000000000019043
 20
12.10835380179632
 30
0.0
  0
SPLINE
  5
10F
330
1F
100
AcDbEntity
  8
MAKE2D VISIBLE LINES
100
AcDbSpline
210
0.0
220
0.0
230
1.0
 70
    24
 71
     2
 72
     6
 73
     3
 74
     0
 42
0.0000000001
 43
0.0000000001
 40
0.0
 40
0.0
 40
0.0
 40
13.50203609032456
 40
13.50203609032456
 40
13.50203609032456
 10
0.0000000000019043
 20
12.10835380179632
 30
0.0
 10
6.750981213608327
 20
12.08605358565247
 30
0.0
 10
13.50196242721475
 20
12.06375336950861
 30
0.0
  0
SPLINE
  5
110
330
1F
100
AcDbEntity
  8
MAKE2D VISIBLE LINES
100
AcDbSpline
210
0.0
220
0.0
230
1.0
 70
    12
 71
     3
 72
    10
 73
     6
 74
     0
 42
0.0000000001
 43
0.0000000001
 40
0.0
 40
0.0
 40
0.0
 40
0.0
 40
0.4440978459545512
 40
0.8881956919091023
 40
1.332293537863654
 40
1.332293537863654
 40
1.332293537863654
 40
1.332293537863654
 10
13.50196242721475
 20
12.06375336950861
 30
0.0
 41
1.0
 10
13.64508448041059
 20
12.06328060079244
 30
0.0
 41
1.0
 10
13.92979167826539
 20
11.96316415471288
 30
0.0
 41
1.0
 10
14.25658442184434
 20
11.66587676432865
 30
0.0
 41
1.0
 10
14.41836776698716
 20
11.41609045701805
 30
0.0
 41
1.0
 10
14.47869569407894
 20
11.28192446613173
 30
0.0
 41
1.0
  0
SPLINE
  5
111
330
1F
100
AcDbEntity
  8
MAKE2D VISIBLE LINES
100
AcDbSpline
210
0.0
220
0.0
230
1.0
 70
    24
 71
     2
 72
     6
 73
     3
 74
     0
 42
0.0000000001
 43
0.0000000001
 40
-11.75429176232053
 40
-11.75429176232053
 40
-11.75429176232053
 40
0.0
 40
0.0
 40
0.0
 10
14.47869569407894
 20
11.28192446613173
 30
0.0
 10
16.73471851248534
 20
6.264665433105804
 30
0.0
 10
18.99074133089175
 20
1.247406400079882
 30
0.0
  0
SPLINE
  5
112
330
1F
100
AcDbEntity
  8
MAKE2D VISIBLE LINES
100
AcDbSpline
210
0.0
220
0.0
230
1.0
 70
     8
 71
     3
 72
    14
 73
    10
 74
     0
 42
0.0000000001
 43
0.0000000001
 40
0.0
 40
0.0
 40
0.0
 40
0.0
 40
1.0
 40
2.0
 40
3.0
 40
4.0
 40
5.0
 40
6.0
 40
7.0
 40
7.0
 40
7.0
 40
7.0
 10
18.99074133089175
 20
1.247406400079882
 30
0.0
 10
19.13806468233981
 20
1.263568890071546
 30
0.0
 10
19.4410552122686
 20
1.157345446977879
 30
0.0
 10
19.64259653664676
 20
0.7255723414685311
 30
0.0
 10
19.49480950200838
 20
0.2724126775921613
 30
0.0
 10
19.06180215032953
 20
0.0586314796460428
 30
0.0
 10
18.61600375927541
 20
0.2448712725738398
 30
0.0
 10
18.44257497559383
 20
0.6891627522409914
 30
0.0
 10
18.55901552708017
 20
0.9835139993497828
 30
0.0
 10
18.6630157111307
 20
1.088924579020849
 30
0.0
  0
SPLINE
  5
113
330
1F
100
AcDbEntity
  8
MAKE2D VISIBLE LINES
100
AcDbSpline
210
0.0
220
0.0
230
1.0
 70
    24
 71
     2
 72
     6
 73
     3
 74
     0
 42
0.0000000001
 43
0.0000000001
 40
0.0
 40
0.0
 40
0.0
 40
11.75429173708395
 40
11.75429173708395
 40
11.75429173708395
 10
18.6630157111307
 20
1.088924579020849
 30
0.0
 10
16.40699289336594
 20
6.106183598500644
 30
0.0
 10
14.15097007560118
 20
11.12344261798044
 30
0.0
  0
SPLINE
  5
114
330
1F
100
AcDbEntity
  8
MAKE2D VISIBLE LINES
100
AcDbSpline
210
0.0
220
0.0
230
1.0
 70
    12
 71
     3
 72
    10
 73
     6
 74
     0
 42
0.0000000001
 43
0.0000000001
 40
-1.332293537863654
 40
-1.332293537863654
 40
-1.332293537863654
 40
-1.332293537863654
 40
-0.8881956919091023
 40
-0.4440978459545512
 40
0.0
 40
0.0
 40
0.0
 40
0.0
 10
14.15097007560118
 20
11.12344261798044
 30
0.0
 41
1.0
 10
14.10944317972294
 20
11.21579614979429
 30
0.0
 41
1.0
 10
14.00323375853145
 20
11.39103281963594
 30
0.0
 41
1.0
 10
13.78948072419135
 20
11.61112939033418
 30
0.0
 41
1.0
 10
13.59335038836664
 20
11.6892599766433
 30
0.0
 41
1.0
 10
13.49524704598645
 20
11.68958403705324
 30
0.0
 41
1.0
  0
SPLINE
  5
115
330
1F
100
AcDbEntity
  8
MAKE2D VISIBLE LINES
100
AcDbSpline
210
0.0
220
0.0
230
1.0
 70
    24
 71
     2
 72
     6
 73
     3
 74
     0
 42
0.0000000001
 43
0.0000000001
 40
-13.49532067245894
 40
-13.49532067245894
 40
-13.49532067245894
 40
0.0
 40
0.0
 40
0.0
 10
13.49524704598645
 20
11.68958403705324
 30
0.0
 10
6.747623522994175
 20
11.71187316188694
 30
0.0
 10
0.0000000000019043
 20
11.73416228672065
 30
0.0
  0
SPLINE
  5
116
330
1F
100
AcDbEntity
  8
MAKE2D VISIBLE LINES
100
AcDbSpline
210
0.0
220
0.0
230
1.0
 70
    24
 71
     2
 72
     6
 73
     3
 74
     0
 42
0.0000000001
 43
0.0000000001
 40
0.0
 40
0.0
 40
0.0
 40
13.49532067245894
 40
13.49532067245894
 40
13.49532067245894
 10
0.0000000000019043
 20
11.73416228672065
 30
0.0
 10
-6.747623522990352
 20
11.71187316188694
 30
0.0
 10
-13.49524704598261
 20
11.68958403705324
 30
0.0
  0
SPLINE
  5
117
330
1F
100
AcDbEntity
  8
MAKE2D VISIBLE LINES
100
AcDbSpline
210
0.0
220
0.0
230
1.0
 70
    12
 71
     3
 72
    10
 73
     6
 74
     0
 42
0.0000000001
 43
0.0000000001
 40
0.0
 40
0.0
 40
0.0
 40
0.0
 40
0.4440978459545512
 40
0.8881956919091023
 40
1.332293537863654
 40
1.332293537863654
 40
1.332293537863654
 40
1.332293537863654
 10
-13.49524704598261
 20
11.68958403705324
 30
0.0
 41
1.0
 10
-13.59335038836284
 20
11.6892599766433
 30
0.0
 41
1.0
 10
-13.78948072418754
 20
11.61112939033418
 30
0.0
 41
1.0
 10
-14.00323375852761
 20
11.39103281963594
 30
0.0
 41
1.0
 10
-14.10944317971914
 20
11.21579614979429
 30
0.0
 41
1.0
 10
-14.15097007559734
 20
11.12344261798044
 30
0.0
 41
1.0
  0
SPLINE
  5
118
330
1F
100
AcDbEntity
  8
MAKE2D VISIBLE LINES
100
AcDbSpline
210
0.0
220
0.0
230
1.0
 70
    24
 71
     2
 72
     6
 73
     3
 74
     0
 42
0.0000000001
 43
0.0000000001
 40
-11.75429173708395
 40
-11.75429173708395
 40
-11.75429173708395
 40
0.0
 40
0.0
 40
0.0
 10
-14.15097007559734
 20
11.12344261798044
 30
0.0
 10
-16.40699289336402
 20
6.106183598500644
 30
0.0
 10
-18.6630157111307
 20
1.088924579020849
 30
0.0
  0
SPLINE
  5
119
330
1F
100
AcDbEntity
  8
MAKE2D VISIBLE LINES
100
AcDbSpline
210
0.0
220
0.0
230
1.0
 70
     8
 71
     3
 72
    14
 73
    10
 74
     0
 42
0.0000000001
 43
0.0000000001
 40
-7.0
 40
-7.0
 40
-7.0
 40
-7.0
 40
-6.0
 40
-5.0
 40
-4.0
 40
-3.0
 40
-2.0
 40
-1.0
 40
0.0
 40
0.0
 40
0.0
 40
0.0
 10
-18.6630157111307
 20
1.088924579020849
 30
0.0
 10
-18.55901552708017
 20
0.9835139993497828
 30
0.0
 10
-18.44257497559383
 20
0.6891627522409914
 30
0.0
 10
-18.61600375927541
 20
0.2448712725738398
 30
0.0
 10
-19.06180215032953
 20
0.0586314796460428
 30
0.0
 10
-19.49480950200838
 20
0.2724126775921613
 30
0.0
 10
-19.64259653664676
 20
0.7255723414685311
 30
0.0
 10
-19.4410552122686
 20
1.157345446977879
 30
0.0
 10
-19.13806468233981
 20
1.263568890071546
 30
0.0
 10
-18.99074133089175
 20
1.247406400079882
 30
0.0
  0
SPLINE
  5
11A
330
1F
100
AcDbEntity
  8
MAKE2D VISIBLE LINES
100
AcDbSpline
210
0.0
220
0.0
230
1.0
 70
    24
 71
     2
 72
     6
 73
     3
 74
     0
 42
0.0000000001
 43
0.0000000001
 40
0.0
 40
0.0
 40
0.0
 40
11.75429176232053
 40
11.75429176232053
 40
11.75429176232053
 10
-18.99074133089175
 20
1.247406400079882
 30
0.0
 10
-16.73471851248344
 20
6.264665433105804
 30
0.0
 10
-14.47869569407513
 20
11.28192446613173
 30
0.0
  0
SPLINE
  5
11B
330
1F
100
AcDbEntity
  8
MAKE2D VISIBLE LINES
100
AcDbSpline
210
0.0
220
0.0
230
1.0
 70
    12
 71
     3
 72
    10
 73
     6
 74
     0
 42
0.0000000001
 43
0.0000000001
 40
-1.332293537863654
 40
-1.332293537863654
 40
-1.332293537863654
 40
-1.332293537863654
 40
-0.8881956919091023
 40
-0.4440978459545512
 40
0.0
 40
0.0
 40
0.0
 40
0.0
 10
-14.47869569407513
 20
11.28192446613173
 30
0.0
 41
1.0
 10
-14.41836776698335
 20
11.41609045701805
 30
0.0
 41
1.0
 10
-14.25658442184053
 20
11.66587676432865
 30
0.0
 41
1.0
 10
-13.92979167826158
 20
11.96316415471288
 30
0.0
 41
1.0
 10
-13.64508448040678
 20
12.06328060079244
 30
0.0
 41
1.0
 10
-13.50196242721091
 20
12.06375336950861
 30
0.0
 41
1.0
  0
SPLINE
  5
11C
330
1F
100
AcDbEntity
  8
MAKE2D VISIBLE LINES
100
AcDbSpline
210
0.0
220
0.0
230
1.0
 70
    24
 71
     2
 72
     6
 73
     3
 74
     0
 42
0.0000000001
 43
0.0000000001
 40
0.0
 40
0.0
 40
0.0
 40
13.7819763690669
 40
13.7819763690669
 40
13.7819763690669
 10
13.78190117868579
 20
11.59006833257402
 30
0.0
 10
6.890950589343845
 20
11.61283090333473
 30
0.0
 10
0.0000000000019043
 20
11.63559347409544
 30
0.0
  0
SPLINE
  5
11D
330
1F
100
AcDbEntity
  8
MAKE2D VISIBLE LINES
100
AcDbSpline
210
0.0
220
0.0
230
1.0
 70
    24
 71
     2
 72
     6
 73
     3
 74
     0
 42
0.0000000001
 43
0.0000000001
 40
-13.78197636906691
 40
-13.78197636906691
 40
-13.78197636906691
 40
0.0
 40
0.0
 40
0.0
 10
0.0000000000019043
 20
11.63559347409544
 30
0.0
 10
-6.890950589340036
 20
11.61283090333473
 30
0.0
 10
-13.78190117868198
 20
11.59006833257402
 30
0.0
  0
LINE
  5
11E
330
1F
100
AcDbEntity
  8
DEFAULT
100
AcDbLine
 10
-23.16503597465059
 20
1.250023220639385
 30
0.0
 11
-23.86926443717067
 21
1.250023220640425
 31
0.0
  0
ARC
  5
11F
330
1F
100
AcDbEntity
  8
DEFAULT
100
AcDbCircle
 10
-23.86926443717033
 20
0.6875232206404249
 30
0.0
 40
0.5625000000000002
100
AcDbArc
 50
90.00000000003475
 51
270.0
  0
LINE
  5
120
330
1F
100
AcDbEntity
  8
DEFAULT
100
AcDbLine
 10
-23.86926443717033
 20
0.1250232206404247
 30
0.0
 11
0.0
 21
0.1250232206404251
 31
0.0
  0
LINE
  5
121
330
1F
100
AcDbEntity
  8
DEFAULT
100
AcDbLine
 10
0.0
 20
0.1250232206404251
 30
0.0
 11
23.86926443717033
 21
0.1250232206404247
 31
0.0
  0
ARC
  5
122
330
1F
100
AcDbEntity
  8
DEFAULT
100
AcDbCircle
 10
23.86926443717033
 20
0.6875232206404249
 30
0.0
 40
0.5625000000000002
100
AcDbArc
 50
270.0
 51
89.99999999996527
  0
LINE
  5
123
330
1F
100
AcDbEntity
  8
DEFAULT
100
AcDbLine
 10
23.86926443717067
 20
1.250023220640425
 30
0.0
 11
23.1650359746544
 21
1.250023220639385
 31
0.0
  0
SPLINE
  5
124
330
1F
100
AcDbEntity
  8
DEFAULT
100
AcDbSpline
210
0.0
220
0.0
230
1.0
 70
    24
 71
     2
 72
     6
 73
     3
 74
     0
 42
0.0000000001
 43
0.0000000001
 40
0.0
 40
0.0
 40
0.0
 40
3.585345470048502
 40
3.585345470048502
 40
3.585345470048502
 10
-19.07373737673407
 20
1.250023220638198
 30
0.0
 10
-20.86641011175833
 20
1.250023220638749
 30
0.0
 10
-22.65908284678258
 20
1.2500232206393
 30
0.0
  0
SPLINE
  5
125
330
1F
100
AcDbEntity
  8
DEFAULT
100
AcDbSpline
210
0.0
220
0.0
230
1.0
 70
    24
 71
     2
 72
     6
 73
     3
 74
     0
 42
0.0000000001
 43
0.0000000001
 40
0.0
 40
0.0
 40
0.0
 40
3.58534547005231
 40
3.58534547005231
 40
3.58534547005231
 10
19.07373737673407
 20
1.250023220638198
 30
0.0
 10
20.86641011176023
 20
1.250023220638749
 30
0.0
 10
22.65908284678639
 20
1.2500232206393
 30
0.0
  0
SPLINE
  5
126
330
1F
100
AcDbEntity
  8
DEFAULT
100
AcDbSpline
210
0.0
220
0.0
230
1.0
 70
    24
 71
     2
 72
     6
 73
     3
 74
     0
 42
0.0000000001
 43
0.0000000001
 40
-11.75142257772862
 40
-11.75142257772862
 40
-11.75142257772862
 40
0.0
 40
0.0
 40
0.0
 10
14.87602017497241
 20
11.2819244661323
 30
0.0
 10
17.131454669934
 20
6.265973843385299
 30
0.0
 10
19.38688916489559
 20
1.250023220638294
 30
0.0
  0
SPLINE
  5
127
330
1F
100
AcDbEntity
  8
DEFAULT
100
AcDbSpline
210
0.0
220
0.0
230
1.0
 70
    24
 71
     2
 72
     6
 73
     3
 74
     0
 42
0.0000000001
 43
0.0000000001
 40
-11.75142257772862
 40
-11.75142257772862
 40
-11.75142257772862
 40
0.0
 40
0.0
 40
0.0
 10
-14.8760201749686
 20
11.2819244661323
 30
0.0
 10
-17.1314546699321
 20
6.265973843385299
 30
0.0
 10
-19.38688916489559
 20
1.250023220638294
 30
0.0
  0
SPLINE
  5
128
330
1F
100
AcDbEntity
  8
MAKE2D VISIBLE LINES
100
AcDbSpline
210
0.0
220
0.0
230
1.0
 70
    24
 71
     2
 72
     6
 73
     3
 74
     0
 42
0.0000000001
 43
0.0000000001
 40
0.0
 40
0.0
 40
0.0
 40
4.703855277709671
 40
4.703855277709671
 40
4.703855277709671
 10
23.77103598375331
 20
0.1250000000013429
 30
0.0
 10
21.41910834489848
 20
0.1250000000006749
 30
0.0
 10
19.06718070604364
 20
0.1250000000000069
 30
0.0
  0
SPLINE
  5
129
330
1F
100
AcDbEntity
  8
MAKE2D VISIBLE LINES
100
AcDbSpline
210
0.0
220
0.0
230
1.0
 70
    12
 71
     3
 72
    10
 73
     6
 74
     0
 42
0.0000000001
 43
0.0000000001
 40
0.2513968546388512
 40
0.2513968546388512
 40
0.2513968546388512
 40
0.2513968546388512
 40
0.4440978459545512
 40
0.8881956919091023
 40
1.332293537863654
 40
1.332293537863654
 40
1.332293537863654
 40
1.332293537863654
 10
14.07998192340199
 20
11.93155357222846
 30
0.0
 41
1.0
 10
14.14054335605763
 20
11.91576496521882
 30
0.0
 41
1.0
 10
14.33697069597565
 20
11.84622098683425
 30
0.0
 41
1.0
 10
14.63355244114334
 20
11.65111555752809
 30
0.0
 41
1.0
 10
14.8162780500426
 20
11.41478766523873
 30
0.0
 41
1.0
 10
14.87602017497241
 20
11.2819244661323
 30
0.0
 41
1.0
  0
SPLINE
  5
12A
330
1F
100
AcDbEntity
  8
MAKE2D VISIBLE LINES
100
AcDbSpline
210
0.0
220
0.0
230
1.0
 70
    24
 71
     2
 72
     6
 73
     3
 74
     0
 42
0.0000000001
 43
0.0000000001
 40
0.0
 40
0.0
 40
0.0
 40
0.5000000009700616
 40
0.5000000009700616
 40
0.5000000009700616
 10
22.41801270618188
 20
1.750000000971021
 30
0.0
 10
22.41801270618146
 20
1.50000000048599
 30
0.0
 10
22.41801270618103
 20
1.250000000000959
 30
0.0
  0
SPLINE
  5
12B
330
1F
100
AcDbEntity
  8
MAKE2D VISIBLE LINES
100
AcDbSpline
210
0.0
220
0.0
230
1.0
 70
    12
 71
     2
 72
     6
 73
     3
 74
     0
 42
0.0000000001
 43
0.0000000001
 40
0.0
 40
0.0
 40
0.0
 40
0.3786544260606589
 40
0.3786544260606589
 40
0.3786544260606589
 10
-14.07998167957447
 20
11.93155363579424
 30
0.0
 41
1.0
 10
-13.89680076536495
 20
11.97941275753237
 30
0.0
 41
0.999980138415875
 10
-13.714237665936
 20
12.0295770634788
 30
0.0
 41
1.0
  0
SPLINE
  5
12C
330
1F
100
AcDbEntity
  8
MAKE2D VISIBLE LINES
100
AcDbSpline
210
0.0
220
0.0
230
1.0
 70
    24
 71
     2
 72
     6
 73
     3
 74
     0
 42
0.0000000001
 43
0.0000000001
 40
0.0
 40
0.0
 40
0.0
 40
11.59860843721064
 40
11.59860843721064
 40
11.59860843721064
 10
26.61224470131526
 20
10.97587385490783
 30
0.0
 10
20.81294048270993
 20
10.97587385490783
 30
0.0
 10
15.0136362641046
 20
10.97587385490783
 30
0.0
  0
SPLINE
  5
12D
330
1F
100
AcDbEntity
  8
MAKE2D VISIBLE LINES
100
AcDbSpline
210
0.0
220
0.0
230
1.0
 70
    12
 71
     2
 72
     6
 73
     3
 74
     0
 42
0.0000000001
 43
0.0000000001
 40
0.0
 40
0.0
 40
0.0
 40
0.2648829872627513
 40
0.2648829872627513
 40
0.2648829872627513
 10
23.16503597465444
 20
1.191391110245604
 30
0.0
 41
1.0
 10
23.03259448102309
 20
1.191391058390048
 30
0.0
 41
0.9999999999999233
 10
22.90015298739169
 20
1.191391110277254
 30
0.0
 41
1.0
  0
SPLINE
  5
12E
330
1F
100
AcDbEntity
  8
MAKE2D VISIBLE LINES
100
AcDbSpline
210
0.0
220
0.0
230
1.0
 70
    24
 71
     2
 72
     6
 73
     3
 74
     0
 42
0.0000000001
 43
0.0000000001
 40
0.0
 40
0.0
 40
0.0
 40
11.59861219129897
 40
11.59861219129897
 40
11.59861219129897
 10
-26.61224845539974
 20
10.97587385490783
 30
0.0
 10
-20.81294235975025
 20
10.97587385490784
 30
0.0
 10
-15.01363626410077
 20
10.97587385490784
 30
0.0
  0
SPLINE
  5
12F
330
1F
100
AcDbEntity
  8
MAKE2D VISIBLE LINES
100
AcDbSpline
210
0.0
220
0.0
230
1.0
 70
    12
 71
     3
 72
    10
 73
     6
 74
     0
 42
0.0000000001
 43
0.0000000001
 40
0.2513968546388469
 40
0.2513968546388469
 40
0.2513968546388469
 40
0.2513968546388469
 40
0.4440978459545512
 40
0.8881956919091023
 40
1.332293537863654
 40
1.332293537863654
 40
1.332293537863654
 40
1.332293537863654
 10
-14.07998192339818
 20
11.93155357222846
 30
0.0
 41
1.0
 10
-14.14054335605383
 20
11.91576496521882
 30
0.0
 41
1.0
 10
-14.33697069597184
 20
11.84622098683425
 30
0.0
 41
1.0
 10
-14.63355244113953
 20
11.65111555752809
 30
0.0
 41
1.0
 10
-14.81627805003879
 20
11.41478766523873
 30
0.0
 41
1.0
 10
-14.8760201749686
 20
11.2819244661323
 30
0.0
 41
1.0
  0
SPLINE
  5
130
330
1F
100
AcDbEntity
  8
MAKE2D VISIBLE LINES
100
AcDbSpline
210
0.0
220
0.0
230
1.0
 70
    24
 71
     2
 72
     6
 73
     3
 74
     0
 42
0.0000000001
 43
0.0000000001
 40
0.0
 40
0.0
 40
0.0
 40
0.5586088907330957
 40
0.5586088907330957
 40
0.5586088907330957
 10
22.90015298739169
 20
1.191391110237925
 30
0.0
 10
22.90015298739148
 20
1.470695555604473
 30
0.0
 10
22.90015298739127
 20
1.750000000971021
 30
0.0
  0
SPLINE
  5
131
330
1F
100
AcDbEntity
  8
MAKE2D VISIBLE LINES
100
AcDbSpline
210
0.0
220
0.0
230
1.0
 70
    12
 71
     2
 72
     6
 73
     3
 74
     0
 42
0.0000000001
 43
0.0000000001
 40
0.0
 40
0.0
 40
0.0
 40
0.3786544260606654
 40
0.3786544260606654
 40
0.3786544260606654
 10
13.71423766593981
 20
12.0295770634788
 30
0.0
 41
1.0
 10
13.89680076536876
 20
11.97941275753238
 30
0.0
 41
0.9999801384158752
 10
14.07998167957831
 20
11.93155363579424
 30
0.0
 41
1.0
  0
SPLINE
  5
132
330
1F
100
AcDbEntity
  8
MAKE2D VISIBLE LINES
100
AcDbSpline
210
0.0
220
0.0
230
1.0
 70
    24
 71
     2
 72
     6
 73
     3
 74
     0
 42
0.0000000001
 43
0.0000000001
 40
0.0
 40
0.0
 40
0.0
 40
15.53868714979249
 40
15.53868714979249
 40
15.53868714979249
 10
3.480132180607001
 20
0.1250000000025642
 30
0.0
 10
11.24947575550324
 20
0.1250000000026013
 30
0.0
 10
19.01881933039948
 20
0.1250000000026384
 30
0.0
  0
SPLINE
  5
133
330
1F
100
AcDbEntity
  8
MAKE2D VISIBLE LINES
100
AcDbSpline
210
0.0
220
0.0
230
1.0
 70
    24
 71
     2
 72
     6
 73
     3
 74
     0
 42
0.0000000001
 43
0.0000000001
 40
0.0
 40
0.0
 40
0.0
 40
0.5586088907330051
 40
0.5586088907330051
 40
0.5586088907330051
 10
23.16503597465444
 20
1.191391110238015
 30
0.0
 10
23.16503597465426
 20
1.470695555604518
 30
0.0
 10
23.16503597465407
 20
1.750000000971021
 30
0.0
  0
SPLINE
  5
134
330
1F
100
AcDbEntity
  8
MAKE2D VISIBLE LINES
100
AcDbSpline
210
0.0
220
0.0
230
1.0
 70
    24
 71
     2
 72
     6
 73
     3
 74
     0
 42
0.0000000001
 43
0.0000000001
 40
0.0
 40
0.0
 40
0.0
 40
0.5000000009700609
 40
0.5000000009700609
 40
0.5000000009700609
 10
-22.41801270617805
 20
1.750000000971021
 30
0.0
 10
-22.41801270617763
 20
1.50000000048599
 30
0.0
 10
-22.41801270617722
 20
1.25000000000096
 30
0.0
  0
SPLINE
  5
135
330
1F
100
AcDbEntity
  8
MAKE2D VISIBLE LINES
100
AcDbSpline
210
0.0
220
0.0
230
1.0
 70
    12
 71
     2
 72
     6
 73
     3
 74
     0
 42
0.0000000001
 43
0.0000000001
 40
0.0
 40
0.0
 40
0.0
 40
0.2504483256433829
 40
0.2504483256433829
 40
0.2504483256433829
 10
22.90015298739169
 20
1.191391110237925
 30
0.0
 41
1.0
 10
22.78672440128303
 20
1.249925952530984
 30
0.0
 41
0.971832005900578
 10
22.65908284678639
 20
1.249999942919208
 30
0.0
 41
1.0
  0
SPLINE
  5
136
330
1F
100
AcDbEntity
  8
MAKE2D VISIBLE LINES
100
AcDbSpline
210
0.0
220
0.0
230
1.0
 70
    24
 71
     2
 72
     6
 73
     3
 74
     0
 42
0.0000000001
 43
0.0000000001
 40
0.0
 40
0.0
 40
0.0
 40
0.5586088907330957
 40
0.5586088907330957
 40
0.5586088907330957
 10
-22.90015298738788
 20
1.191391110237925
 30
0.0
 10
-22.90015298738766
 20
1.470695555604473
 30
0.0
 10
-22.90015298738743
 20
1.750000000971021
 30
0.0
  0
SPLINE
  5
137
330
1F
100
AcDbEntity
  8
MAKE2D VISIBLE LINES
100
AcDbSpline
210
0.0
220
0.0
230
1.0
 70
    12
 71
     2
 72
     6
 73
     3
 74
     0
 42
0.0000000001
 43
0.0000000001
 40
0.0
 40
0.0
 40
0.0
 40
0.2648829872627512
 40
0.2648829872627512
 40
0.2648829872627512
 10
-22.90015298738788
 20
1.191391110245604
 30
0.0
 41
1.0
 10
-23.03259448101925
 20
1.191391058390139
 30
0.0
 41
0.9999999999999233
 10
-23.16503597465064
 20
1.191391110277435
 30
0.0
 41
1.0
  0
SPLINE
  5
138
330
1F
100
AcDbEntity
  8
MAKE2D VISIBLE LINES
100
AcDbSpline
210
0.0
220
0.0
230
1.0
 70
    24
 71
     2
 72
     6
 73
     3
 74
     0
 42
0.0000000001
 43
0.0000000001
 40
0.0
 40
0.0
 40
0.0
 40
0.5586088907330051
 40
0.5586088907330051
 40
0.5586088907330051
 10
-23.16503597465064
 20
1.191391110238015
 30
0.0
 10
-23.16503597465044
 20
1.470695555604518
 30
0.0
 10
-23.16503597465024
 20
1.750000000971021
 30
0.0
  0
SPLINE
  5
139
330
1F
100
AcDbEntity
  8
MAKE2D VISIBLE LINES
100
AcDbSpline
210
0.0
220
0.0
230
1.0
 70
    12
 71
     2
 72
     6
 73
     3
 74
     0
 42
0.0000000001
 43
0.0000000001
 40
0.0
 40
0.0
 40
0.0
 40
0.2504483256433782
 40
0.2504483256433782
 40
0.2504483256433782
 10
-22.65908284678258
 20
1.249999942919211
 30
0.0
 41
1.0
 10
-22.78672440127919
 20
1.249925952530985
 30
0.0
 41
0.9718320059005783
 10
-22.90015298738788
 20
1.191391110237925
 30
0.0
 41
1.0
  0
SPLINE
  5
13A
330
1F
100
AcDbEntity
  8
DEFAULT
100
AcDbSpline
210
0.0
220
0.0
230
1.0
 70
    24
 71
     2
 72
     6
 73
     3
 74
     0
 42
0.0000000001
 43
0.0000000001
 40
0.0
 40
0.0
 40
0.0
 40
0.125
 40
0.125
 40
0.125
 10
-5.299851377296335
 20
0.1250000000000004
 30
0.0
 10
-5.299851377296335
 20
0.0625000000000004
 30
0.0
 10
-5.299851377296335
 20
0.0000000000000004
 30
0.0
  0
POLYLINE
  5
13B
330
1F
100
AcDbEntity
  8
DEFAULT
100
AcDb2dPolyline
 66
     1
 10
0.0
 20
0.0
 30
0.0
  0
VERTEX
  5
13C
330
13B
100
AcDbEntity
  8
DEFAULT
100
AcDbVertex
100
AcDb2dVertex
 10
-5.299851377296335
 20
0.0000000000000004
 30
0.0
  0
VERTEX
  5
13D
330
13B
100
AcDbEntity
  8
DEFAULT
100
AcDbVertex
100
AcDb2dVertex
 10
-3.902797674041295
 20
0.0000000000000004
 30
0.0
  0
SEQEND
  5
13E
330
13B
100
AcDbEntity
  8
DEFAULT
  0
SPLINE
  5
13F
330
1F
100
AcDbEntity
  8
DEFAULT
100
AcDbSpline
210
0.0
220
0.0
230
1.0
 70
    24
 71
     2
 72
     6
 73
     3
 74
     0
 42
0.0000000001
 43
0.0000000001
 40
0.0
 40
0.0
 40
0.0
 40
0.125
 40
0.125
 40
0.125
 10
-3.902797674041295
 20
0.0000000000000004
 30
0.0
 10
-3.902797674041295
 20
0.0625000000000004
 30
0.0
 10
-3.902797674041295
 20
0.1250000000000004
 30
0.0
  0
SPLINE
  5
140
330
1F
100
AcDbEntity
  8
DEFAULT
100
AcDbSpline
210
0.0
220
0.0
230
1.0
 70
    24
 71
     2
 72
     6
 73
     3
 74
     0
 42
0.0000000001
 43
0.0000000001
 40
-0.125
 40
-0.125
 40
-0.125
 40
0.0
 40
0.0
 40
0.0
 10
-20.51457992594348
 20
0.1250000000000004
 30
0.0
 10
-20.51478373706166
 20
0.0625000000000005
 30
0.0
 10
-20.51498754817983
 20
0.0000000000000005
 30
0.0
  0
SPLINE
  5
141
330
1F
100
AcDbEntity
  8
DEFAULT
100
AcDbSpline
210
0.0
220
0.0
230
1.0
 70
    28
 71
     2
 72
     8
 73
     5
 74
     0
 42
0.0000000001
 43
0.0000000001
 40
2.276272015520191
 40
2.276272015520191
 40
2.276272015520191
 40
2.566267521869333
 40
2.566267521869333
 40
3.570796326793997
 40
3.570796326793997
 40
3.570796326793997
 10
-20.51498754817983
 20
0.0000000000000005
 30
0.0
 41
0.8859415057259156
 10
-20.50553396221832
 20
0.0000000000000006
 30
0.0
 41
0.7846830076536525
 10
-20.6540995392578
 20
0.0000000000000004
 30
0.0
 41
1.0
 10
-21.10262639088529
 20
0.0000000000000004
 30
0.0
 41
1.0
 10
-21.55115324251278
 20
0.0000000000000004
 30
0.0
 41
1.0
  0
SPLINE
  5
142
330
1F
100
AcDbEntity
  8
DEFAULT
100
AcDbSpline
210
0.0
220
0.0
230
1.0
 70
    24
 71
     2
 72
     6
 73
     3
 74
     0
 42
0.0000000001
 43
0.0000000001
 40
0.0
 40
0.0
 40
0.0
 40
0.3596651422130037
 40
0.3596651422130037
 40
0.3596651422130037
 10
-21.55115324251278
 20
0.0000000000000004
 30
0.0
 10
-21.73118962473747
 20
0.0000000000000005
 30
0.0
 10
-21.91122600696215
 20
0.0000000000000005
 30
0.0
  0
SPLINE
  5
143
330
1F
100
AcDbEntity
  8
DEFAULT
100
AcDbSpline
210
0.0
220
0.0
230
1.0
 70
    24
 71
     2
 72
     6
 73
     3
 74
     0
 42
0.0000000001
 43
0.0000000001
 40
-0.125
 40
-0.125
 40
-0.125
 40
0.0
 40
0.0
 40
0.0
 10
-21.91122600696215
 20
0.0000000000000005
 30
0.0
 10
-21.91142981808034
 20
0.0625000000000005
 30
0.0
 10
-21.91163362919852
 20
0.1250000000000004
 30
0.0
  0
SPLINE
  5
144
330
1F
100
AcDbEntity
  8
DEFAULT
100
AcDbSpline
210
0.0
220
0.0
230
1.0
 70
    24
 71
     2
 72
     6
 73
     3
 74
     0
 42
0.0000000001
 43
0.0000000001
 40
-0.125
 40
-0.125
 40
-0.125
 40
0.0
 40
0.0
 40
0.0
 10
-18.99153745644463
 20
0.1250000000000004
 30
0.0
 10
-18.99176363328335
 20
0.0625000000000005
 30
0.0
 10
-18.99198981012206
 20
0.0000000000000005
 30
0.0
  0
SPLINE
  5
145
330
1F
100
AcDbEntity
  8
DEFAULT
100
AcDbSpline
210
0.0
220
0.0
230
1.0
 70
    28
 71
     2
 72
     6
 73
     3
 74
     0
 42
0.0000000001
 43
0.0000000001
 40
0.0
 40
0.0
 40
0.0
 40
0.3384144077064375
 40
0.3384144077064375
 40
0.3384144077064375
 10
-18.99198981012206
 20
0.0000000000000005
 30
0.0
 41
0.9288656988894769
 10
-18.97979787329217
 20
0.0000000000000004
 30
0.0
 41
0.7485332392099654
 10
-19.17531670962893
 20
0.0000000000000004
 30
0.0
 41
1.0
  0
LINE
  5
146
330
1F
100
AcDbEntity
  8
DEFAULT
100
AcDbLine
 10
-19.17531670962893
 20
0.0000000000000004
 30
0.0
 11
-19.7564204437075
 21
0.0000000000000004
 31
0.0
  0
SPLINE
  5
147
330
1F
100
AcDbEntity
  8
DEFAULT
100
AcDbSpline
210
0.0
220
0.0
230
1.0
 70
    24
 71
     2
 72
     6
 73
     3
 74
     0
 42
0.0000000001
 43
0.0000000001
 40
-0.125
 40
-0.125
 40
-0.125
 40
0.0
 40
0.0
 40
0.0
 10
-19.7564204437075
 20
0.0000000000000004
 30
0.0
 10
-19.7564204437075
 20
0.0625000000000004
 30
0.0
 10
-19.7564204437075
 20
0.1250000000000004
 30
0.0
  0
SPLINE
  5
148
330
1F
100
AcDbEntity
  8
DEFAULT
100
AcDbSpline
210
0.0
220
0.0
230
1.0
 70
    24
 71
     2
 72
     6
 73
     3
 74
     0
 42
0.0000000001
 43
0.0000000001
 40
0.0
 40
0.0
 40
0.0
 40
0.0080251520404246
 40
0.0080251520404246
 40
0.0080251520404246
 10
-19.7474905843122
 20
0.1250000000000004
 30
0.0
 10
-19.75150316033242
 20
0.1250000000000004
 30
0.0
 10
-19.75551573635263
 20
0.1250000000000004
 30
0.0
  0
SPLINE
  5
149
330
1F
100
AcDbEntity
  8
DEFAULT
100
AcDbSpline
210
0.0
220
0.0
230
1.0
 70
    24
 71
     2
 72
     6
 73
     3
 74
     0
 42
0.0000000001
 43
0.0000000001
 40
0.0
 40
0.0
 40
0.0
 40
0.0080251520404246
 40
0.0080251520404246
 40
0.0080251520404246
 10
19.7474905843122
 20
0.1250000000000004
 30
0.0
 10
19.75150316033242
 20
0.1250000000000004
 30
0.0
 10
19.75551573635263
 20
0.1250000000000004
 30
0.0
  0
LINE
  5
14A
330
1F
100
AcDbEntity
  8
DEFAULT
100
AcDbLine
 10
-18.5905774794755
 20
1.250023220640426
 30
0.0
 11
18.5905774794755
 21
1.250023220640424
 31
0.0
  0
SPLINE
  5
14B
330
1F
100
AcDbEntity
  8
DEFAULT
100
AcDbSpline
210
0.0
220
0.0
230
1.0
 70
    24
 71
     2
 72
     6
 73
     3
 74
     0
 42
0.0000000001
 43
0.0000000001
 40
-0.125
 40
-0.125
 40
-0.125
 40
0.0
 40
0.0
 40
0.0
 10
18.99153745644463
 20
0.1250000000000004
 30
0.0
 10
18.99176363328335
 20
0.0625000000000005
 30
0.0
 10
18.99198981012206
 20
0.0000000000000005
 30
0.0
  0
SPLINE
  5
14C
330
1F
100
AcDbEntity
  8
DEFAULT
100
AcDbSpline
210
0.0
220
0.0
230
1.0
 70
    28
 71
     2
 72
     6
 73
     3
 74
     0
 42
0.0000000001
 43
0.0000000001
 40
0.0
 40
0.0
 40
0.0
 40
0.3384144077064375
 40
0.3384144077064375
 40
0.3384144077064375
 10
18.99198981012206
 20
0.0000000000000005
 30
0.0
 41
0.9288656988894769
 10
18.97979787329217
 20
0.0000000000000004
 30
0.0
 41
0.7485332392099654
 10
19.17531670962893
 20
0.0000000000000004
 30
0.0
 41
1.0
  0
LINE
  5
14D
330
1F
100
AcDbEntity
  8
DEFAULT
100
AcDbLine
 10
19.17531670962893
 20
0.0000000000000004
 30
0.0
 11
19.7564204437075
 21
0.0000000000000004
 31
0.0
  0
SPLINE
  5
14E
330
1F
100
AcDbEntity
  8
DEFAULT
100
AcDbSpline
210
0.0
220
0.0
230
1.0
 70
    24
 71
     2
 72
     6
 73
     3
 74
     0
 42
0.0000000001
 43
0.0000000001
 40
-0.125
 40
-0.125
 40
-0.125
 40
0.0
 40
0.0
 40
0.0
 10
19.7564204437075
 20
0.0000000000000004
 30
0.0
 10
19.7564204437075
 20
0.0625000000000004
 30
0.0
 10
19.7564204437075
 20
0.1250000000000004
 30
0.0
  0
SPLINE
  5
14F
330
1F
100
AcDbEntity
  8
DEFAULT
100
AcDbSpline
210
0.0
220
0.0
230
1.0
 70
    24
 71
     2
 72
     6
 73
     3
 74
     0
 42
0.0000000001
 43
0.0000000001
 40
-0.125
 40
-0.125
 40
-0.125
 40
0.0
 40
0.0
 40
0.0
 10
20.51457992594348
 20
0.1250000000000004
 30
0.0
 10
20.51478373706166
 20
0.0625000000000005
 30
0.0
 10
20.51498754817983
 20
0.0000000000000005
 30
0.0
  0
SPLINE
  5
150
330
1F
100
AcDbEntity
  8
DEFAULT
100
AcDbSpline
210
0.0
220
0.0
230
1.0
 70
    28
 71
     2
 72
     8
 73
     5
 74
     0
 42
0.0000000001
 43
0.0000000001
 40
2.276272015520191
 40
2.276272015520191
 40
2.276272015520191
 40
2.566267521869333
 40
2.566267521869333
 40
3.570796326793997
 40
3.570796326793997
 40
3.570796326793997
 10
20.51498754817983
 20
0.0000000000000005
 30
0.0
 41
0.8859415057259156
 10
20.50553396221832
 20
0.0000000000000006
 30
0.0
 41
0.7846830076536525
 10
20.6540995392578
 20
0.0000000000000004
 30
0.0
 41
1.0
 10
21.10262639088529
 20
0.0000000000000004
 30
0.0
 41
1.0
 10
21.55115324251278
 20
0.0000000000000004
 30
0.0
 41
1.0
  0
SPLINE
  5
151
330
1F
100
AcDbEntity
  8
DEFAULT
100
AcDbSpline
210
0.0
220
0.0
230
1.0
 70
    24
 71
     2
 72
     6
 73
     3
 74
     0
 42
0.0000000001
 43
0.0000000001
 40
0.0
 40
0.0
 40
0.0
 40
0.3596651422130037
 40
0.3596651422130037
 40
0.3596651422130037
 10
21.55115324251278
 20
0.0000000000000004
 30
0.0
 10
21.73118962473747
 20
0.0000000000000005
 30
0.0
 10
21.91122600696215
 20
0.0000000000000005
 30
0.0
  0
SPLINE
  5
152
330
1F
100
AcDbEntity
  8
DEFAULT
100
AcDbSpline
210
0.0
220
0.0
230
1.0
 70
    24
 71
     2
 72
     6
 73
     3
 74
     0
 42
0.0000000001
 43
0.0000000001
 40
-0.125
 40
-0.125
 40
-0.125
 40
0.0
 40
0.0
 40
0.0
 10
21.91122600696215
 20
0.0000000000000005
 30
0.0
 10
21.91142981808034
 20
0.0625000000000005
 30
0.0
 10
21.91163362919852
 20
0.1250000000000004
 30
0.0
  0
SPLINE
  5
153
330
1F
100
AcDbEntity
  8
DEFAULT
100
AcDbSpline
210
0.0
220
0.0
230
1.0
 70
    24
 71
     2
 72
     6
 73
     3
 74
     0
 42
0.0000000001
 43
0.0000000001
 40
0.0
 40
0.0
 40
0.0
 40
0.125
 40
0.125
 40
0.125
 10
5.299851377296335
 20
0.1250000000000004
 30
0.0
 10
5.299851377296335
 20
0.0625000000000004
 30
0.0
 10
5.299851377296335
 20
0.0000000000000004
 30
0.0
  0
POLYLINE
  5
154
330
1F
100
AcDbEntity
  8
DEFAULT
100
AcDb2dPolyline
 66
     1
 10
0.0
 20
0.0
 30
0.0
  0
VERTEX
  5
155
330
154
100
AcDbEntity
  8
DEFAULT
100
AcDbVertex
100
AcDb2dVertex
 10
5.299851377296335
 20
0.0000000000000004
 30
0.0
  0
VERTEX
  5
156
330
154
100
AcDbEntity
  8
DEFAULT
100
AcDbVertex
100
AcDb2dVertex
 10
3.902797674041295
 20
0.0000000000000004
 30
0.0
  0
SEQEND
  5
157
330
154
100
AcDbEntity
  8
DEFAULT
  0
SPLINE
  5
158
330
1F
100
AcDbEntity
  8
DEFAULT
100
AcDbSpline
210
0.0
220
0.0
230
1.0
 70
    24
 71
     2
 72
     6
 73
     3
 74
     0
 42
0.0000000001
 43
0.0000000001
 40
0.0
 40
0.0
 40
0.0
 40
0.125
 40
0.125
 40
0.125
 10
3.902797674041295
 20
0.0000000000000004
 30
0.0
 10
3.902797674041295
 20
0.0625000000000004
 30
0.0
 10
3.902797674041295
 20
0.1250000000000004
 30
0.0
  0
ENDSEC
  0
SECTION
  2
OBJECTS
  0
DICTIONARY
  5
C
330
0
100
AcDbDictionary
281
     1
  3
ACAD_GROUP
350
D
  3
ACAD_LAYOUT
350
1A
  3
ACAD_MLEADERSTYLE
350
15A
  3
ACAD_MLINESTYLE
350
17
  3
ACAD_PLOTSETTINGS
350
19
  3
ACAD_PLOTSTYLENAME
350
E
  3
ACAD_TABLESTYLE
350
159
  3
ACAD_VISUALSTYLE
350
2A
  0
DICTIONARY
  5
D
102
{ACAD_REACTORS
330
C
102
}
330
C
100
AcDbDictionary
281
     1
  0
DICTIONARY
  5
1A
102
{ACAD_REACTORS
330
C
102
}
330
C
100
AcDbDictionary
281
     1
  3
Layout1
350
1E
  3
Layout2
350
26
  3
Model
350
22
  0
DICTIONARY
  5
15A
102
{ACAD_REACTORS
330
C
102
}
330
C
100
AcDbDictionary
281
     1
  0
DICTIONARY
  5
17
102
{ACAD_REACTORS
330
C
102
}
330
C
100
AcDbDictionary
281
     1
  3
Standard
350
18
  0
DICTIONARY
  5
19
102
{ACAD_REACTORS
330
C
102
}
330
C
100
AcDbDictionary
281
     1
  0
ACDBDICTIONARYWDFLT
  5
E
102
{ACAD_REACTORS
330
C
102
}
330
C
100
AcDbDictionary
281
     1
  3
Normal
350
F
100
AcDbDictionaryWithDefault
340
F
  0
DICTIONARY
  5
159
102
{ACAD_REACTORS
330
C
102
}
330
C
100
AcDbDictionary
281
     1
  0
DICTIONARY
  5
2A
102
{ACAD_REACTORS
330
C
102
}
330
C
100
AcDbDictionary
281
     1
  3
2dWireframe
350
2F
  3
3D Hidden
350
31
  3
3dWireframe
350
30
  3
Basic
350
32
  3
Brighten
350
36
  3
ColorChange
350
3A
  3
Conceptual
350
34
  3
Dim
350
35
  3
Facepattern
350
39
  3
Flat
350
2B
  3
FlatWithEdges
350
2C
  3
Gouraud
350
2D
  3
GouraudWithEdges
350
2E
  3
Linepattern
350
38
  3
Realistic
350
33
  3
Thicken
350
37
  0
LAYOUT
  5
1E
102
{ACAD_REACTORS
330
1A
102
}
330
1A
100
AcDbPlotSettings
  1

  2
none_device
  4

  6

 40
0.0
 41
0.0
 42
0.0
 43
0.0
 44
0.0
 45
0.0
 46
0.0
 47
0.0
 48
0.0
 49
0.0
140
0.0
141
0.0
142
1.0
143
1.0
 70
   688
 72
     0
 73
     0
 74
     5
  7

 75
    16
 76
     0
 77
     2
 78
   300
147
1.0
148
0.0
149
0.0
100
AcDbLayout
  1
Layout1
 70
     1
 71
     1
 10
0.0
 20
0.0
 11
12.0
 21
9.0
 12
0.0
 22
0.0
 32
0.0
 14
1.000000000000000E+20
 24
1.000000000000000E+20
 34
1.000000000000000E+20
 15
-1.000000000000000E+20
 25
-1.000000000000000E+20
 35
-1.000000000000000E+20
146
0.0
 13
0.0
 23
0.0
 33
0.0
 16
1.0
 26
0.0
 36
0.0
 17
0.0
 27
1.0
 37
0.0
 76
     0
330
1B
  0
LAYOUT
  5
26
102
{ACAD_REACTORS
330
1A
102
}
330
1A
100
AcDbPlotSettings
  1

  2
none_device
  4

  6

 40
0.0
 41
0.0
 42
0.0
 43
0.0
 44
0.0
 45
0.0
 46
0.0
 47
0.0
 48
0.0
 49
0.0
140
0.0
141
0.0
142
1.0
143
1.0
 70
   688
 72
     0
 73
     0
 74
     5
  7

 75
    16
 76
     0
 77
     2
 78
   300
147
1.0
148
0.0
149
0.0
100
AcDbLayout
  1
Layout2
 70
     1
 71
     2
 10
0.0
 20
0.0
 11
0.0
 21
0.0
 12
0.0
 22
0.0
 32
0.0
 14
0.0
 24
0.0
 34
0.0
 15
0.0
 25
0.0
 35
0.0
146
0.0
 13
0.0
 23
0.0
 33
0.0
 16
1.0
 26
0.0
 36
0.0
 17
0.0
 27
1.0
 37
0.0
 76
     0
330
23
  0
LAYOUT
  5
22
102
{ACAD_REACTORS
330
1A
102
}
330
1A
100
AcDbPlotSettings
  1

  2
none_device
  4

  6

 40
0.0
 41
0.0
 42
0.0
 43
0.0
 44
0.0
 45
0.0
 46
0.0
 47
0.0
 48
0.0
 49
0.0
140
0.0
141
0.0
142
1.0
143
1.0
 70
  1712
 72
     0
 73
     0
 74
     0
  7

 75
     0
 76
     0
 77
     2
 78
   300
147
1.0
148
0.0
149
0.0
100
AcDbLayout
  1
Model
 70
     1
 71
     0
 10
0.0
 20
0.0
 11
12.0
 21
9.0
 12
0.0
 22
0.0
 32
0.0
 14
-33.46158496690018
 24
0.0000000000000004
 34
0.0
 15
79.09412951230627
 25
96.04813023441918
 35
0.0
146
0.0
 13
0.0
 23
0.0
 33
0.0
 16
1.0
 26
0.0
 36
0.0
 17
0.0
 27
1.0
 37
0.0
 76
     0
330
1F
331
29
  0
MLINESTYLE
  5
18
102
{ACAD_REACTORS
330
17
102
}
330
17
100
AcDbMlineStyle
  2
Standard
 70
     0
  3

 62
   256
 51
90.0
 52
90.0
 71
     2
 49
0.5
 62
   256
  6
BYLAYER
 49
-0.5
 62
   256
  6
BYLAYER
  0
ACDBPLACEHOLDER
  5
F
102
{ACAD_REACTORS
330
E
102
}
330
E
  0
VISUALSTYLE
  5
2F
102
{ACAD_REACTORS
330
2A
102
}
330
2A
100
AcDbVisualStyle
  2
2dWireframe
 70
     4
 71
     0
 72
     2
 73
     0
 90
        0
 40
-0.6
 41
-30.0
 62
     5
 63
     7
421
 16777215
 74
     1
 91
        4
 64
     7
 65
   257
 75
     1
175
     1
 42
1.0
 92
        0
 66
   257
 43
1.0
 76
     1
 77
     6
 78
     2
 67
     7
 79
     5
170
     0
171
     0
290
     0
174
     0
 93
        1
 44
0.0
173
     0
291
     0
 45
0.0
1001
ACAD
1000
AcDbSavedByObjectVersion
1070
     0
  0
VISUALSTYLE
  5
31
102
{ACAD_REACTORS
330
2A
102
}
330
2A
100
AcDbVisualStyle
  2
3D Hidden
 70
     6
 71
     1
 72
     2
 73
     2
 90
        0
 40
-0.6
 41
-30.0
 62
     5
 63
     7
421
 16777215
 74
     2
 91
        2
 64
     7
 65
   257
 75
     2
175
     1
 42
40.0
 92
        0
 66
   257
 43
1.0
 76
     1
 77
     6
 78
     2
 67
     7
 79
     3
170
     0
171
     0
290
     0
174
     0
 93
        1
 44
0.0
173
     0
291
     0
 45
0.0
1001
ACAD
1000
AcDbSavedByObjectVersion
1070
     0
  0
VISUALSTYLE
  5
30
102
{ACAD_REACTORS
330
2A
102
}
330
2A
100
AcDbVisualStyle
  2
3dWireframe
 70
     5
 71
     0
 72
     2
 73
     0
 90
        0
 40
-0.6
 41
-30.0
 62
     5
 63
     7
421
 16777215
 74
     1
 91
        4
 64
     7
 65
   257
 75
     1
175
     1
 42
1.0
 92
        0
 66
   257
 43
1.0
 76
     1
 77
     6
 78
     2
 67
     7
 79
     5
170
     0
171
     0
290
     0
174
     0
 93
        1
 44
0.0
173
     0
291
     0
 45
0.0
1001
ACAD
1000
AcDbSavedByObjectVersion
1070
     0
  0
VISUALSTYLE
  5
32
102
{ACAD_REACTORS
330
2A
102
}
330
2A
100
AcDbVisualStyle
  2
Basic
 70
     7
 71
     1
 72
     0
 73
     1
 90
        0
 40
-0.6
 41
-30.0
 62
     5
 63
     7
421
 16777215
 74
     0
 91
        4
 64
     7
 65
   257
 75
     1
175
     1
 42
1.0
 92
        8
 66
     7
 43
1.0
 76
     1
 77
     6
 78
     2
 67
     7
 79
     5
170
     0
171
     0
290
     0
174
     0
 93
        1
 44
0.0
173
     0
291
     1
 45
0.0
1001
ACAD
1000
AcDbSavedByObjectVersion
1070
     0
  0
VISUALSTYLE
  5
36
102
{ACAD_REACTORS
330
2A
102
}
330
2A
100
AcDbVisualStyle
  2
Brighten
 70
    12
 71
     2
 72
     2
 73
     0
 90
        0
 40
-0.6
 41
-30.0
 62
     5
 63
     7
421
 16777215
 74
     1
 91
        4
 64
     7
 65
   257
 75
     1
175
     1
 42
1.0
 92
        8
 66
     7
 43
1.0
 76
     1
 77
     6
 78
     2
 67
     7
 79
     5
170
     0
171
     0
290
     0
174
     0
 93
        1
 44
50.0
173
     0
291
     1
 45
0.0
1001
ACAD
1000
AcDbSavedByObjectVersion
1070
     0
  0
VISUALSTYLE
  5
3A
102
{ACAD_REACTORS
330
2A
102
}
330
2A
100
AcDbVisualStyle
  2
ColorChange
 70
    16
 71
     2
 72
     2
 73
     3
 90
        0
 40
-0.6
 41
-30.0
 62
     5
 63
     8
421
  8421504
 74
     1
 91
        4
 64
     7
 65
   257
 75
     1
175
     1
 42
1.0
 92
        8
 66
     8
424
  8421504
 43
1.0
 76
     1
 77
     6
 78
     2
 67
     7
 79
     5
170
     0
171
     0
290
     0
174
     0
 93
        1
 44
0.0
173
     0
291
     1
 45
0.0
1001
ACAD
1000
AcDbSavedByObjectVersion
1070
     0
  0
VISUALSTYLE
  5
34
102
{ACAD_REACTORS
330
2A
102
}
330
2A
100
AcDbVisualStyle
  2
Conceptual
 70
     9
 71
     3
 72
     2
 73
     0
 90
        0
 40
-0.6
 41
-30.0
 62
     5
 63
     7
421
 16777215
 74
     2
 91
        2
 64
     7
 65
   257
 75
     1
175
     1
 42
40.0
 92
        8
 66
     7
 43
1.0
 76
     1
 77
     6
 78
     2
 67
     7
 79
     3
170
     0
171
     0
290
     0
174
     0
 93
        1
 44
0.0
173
     0
291
     0
 45
0.0
1001
ACAD
1000
AcDbSavedByObjectVersion
1070
     0
  0
VISUALSTYLE
  5
35
102
{ACAD_REACTORS
330
2A
102
}
330
2A
100
AcDbVisualStyle
  2
Dim
 70
    11
 71
     2
 72
     2
 73
     0
 90
        0
 40
-0.6
 41
-30.0
 62
     5
 63
     7
421
 16777215
 74
     1
 91
        4
 64
     7
 65
   257
 75
     1
175
     1
 42
1.0
 92
        8
 66
     7
 43
1.0
 76
     1
 77
     6
 78
     2
 67
     7
 79
     5
170
     0
171
     0
290
     0
174
     0
 93
        1
 44
-50.0
173
     0
291
     1
 45
0.0
1001
ACAD
1000
AcDbSavedByObjectVersion
1070
     0
  0
VISUALSTYLE
  5
39
102
{ACAD_REACTORS
330
2A
102
}
330
2A
100
AcDbVisualStyle
  2
Facepattern
 70
    15
 71
     2
 72
     2
 73
     0
 90
        0
 40
-0.6
 41
-30.0
 62
     5
 63
     7
421
 16777215
 74
     1
 91
        4
 64
     7
 65
   257
 75
     1
175
     1
 42
1.0
 92
        8
 66
     7
 43
1.0
 76
     1
 77
     6
 78
     2
 67
     7
 79
     5
170
     0
171
     0
290
     0
174
     0
 93
        1
 44
0.0
173
     0
291
     1
 45
0.0
1001
ACAD
1000
AcDbSavedByObjectVersion
1070
     0
  0
VISUALSTYLE
  5
2B
102
{ACAD_REACTORS
330
2A
102
}
330
2A
100
AcDbVisualStyle
  2
Flat
 70
     0
 71
     2
 72
     1
 73
     1
 90
        2
 40
-0.6
 41
30.0
 62
     5
 63
     7
421
 16777215
 74
     0
 91
        4
 64
     7
 65
   257
 75
     1
175
     1
 42
1.0
 92
        8
 66
     7
 43
1.0
 76
     1
 77
     6
 78
     2
 67
     7
 79
     5
170
     0
171
     0
290
     0
174
     0
 93
       13
 44
0.0
173
     0
291
     1
 45
0.0
1001
ACAD
1000
AcDbSavedByObjectVersion
1070
     0
  0
VISUALSTYLE
  5
2C
102
{ACAD_REACTORS
330
2A
102
}
330
2A
100
AcDbVisualStyle
  2
FlatWithEdges
 70
     1
 71
     2
 72
     1
 73
     1
 90
        2
 40
-0.6
 41
30.0
 62
     5
 63
     7
421
 16777215
 74
     1
 91
        4
 64
     7
 65
   257
 75
     1
175
     1
 42
1.0
 92
        0
 66
   257
 43
1.0
 76
     1
 77
     6
 78
     2
 67
     7
 79
     5
170
     0
171
     0
290
     0
174
     0
 93
       13
 44
0.0
173
     0
291
     1
 45
0.0
1001
ACAD
1000
AcDbSavedByObjectVersion
1070
     0
  0
VISUALSTYLE
  5
2D
102
{ACAD_REACTORS
330
2A
102
}
330
2A
100
AcDbVisualStyle
  2
Gouraud
 70
     2
 71
     2
 72
     2
 73
     1
 90
        2
 40
-0.6
 41
30.0
 62
     5
 63
     7
421
 16777215
 74
     0
 91
        4
 64
     7
 65
   257
 75
     1
175
     1
 42
1.0
 92
        0
 66
     7
 43
1.0
 76
     1
 77
     6
 78
     2
 67
     7
 79
     5
170
     0
171
     0
290
     0
174
     0
 93
       13
 44
0.0
173
     0
291
     1
 45
0.0
1001
ACAD
1000
AcDbSavedByObjectVersion
1070
     0
  0
VISUALSTYLE
  5
2E
102
{ACAD_REACTORS
330
2A
102
}
330
2A
100
AcDbVisualStyle
  2
GouraudWithEdges
 70
     3
 71
     2
 72
     2
 73
     1
 90
        2
 40
-0.6
 41
30.0
 62
     5
 63
     7
421
 16777215
 74
     1
 91
        4
 64
     7
 65
   257
 75
     1
175
     1
 42
1.0
 92
        0
 66
   257
 43
1.0
 76
     1
 77
     6
 78
     2
 67
     7
 79
     5
170
     0
171
     0
290
     0
174
     0
 93
       13
 44
0.0
173
     0
291
     1
 45
0.0
1001
ACAD
1000
AcDbSavedByObjectVersion
1070
     0
  0
VISUALSTYLE
  5
38
102
{ACAD_REACTORS
330
2A
102
}
330
2A
100
AcDbVisualStyle
  2
Linepattern
 70
    14
 71
     2
 72
     2
 73
     0
 90
        0
 40
-0.6
 41
-30.0
 62
     5
 63
     7
421
 16777215
 74
     1
 91
        4
 64
     7
 65
   257
 75
     7
175
     7
 42
1.0
 92
        8
 66
     7
 43
1.0
 76
     1
 77
     6
 78
     2
 67
     7
 79
     5
170
     0
171
     0
290
     0
174
     0
 93
        1
 44
0.0
173
     0
291
     1
 45
0.0
1001
ACAD
1000
AcDbSavedByObjectVersion
1070
     0
  0
VISUALSTYLE
  5
33
102
{ACAD_REACTORS
330
2A
102
}
330
2A
100
AcDbVisualStyle
  2
Realistic
 70
     8
 71
     2
 72
     2
 73
     0
 90
        0
 40
-0.6
 41
-30.0
 62
     5
 63
     7
421
 16777215
 74
     1
 91
        0
 64
     7
 65
   257
 75
     1
175
     1
 42
1.0
 92
        8
 66
     8
424
  7895160
 43
1.0
 76
     1
 77
     6
 78
     2
 67
     7
 79
     5
170
     0
171
     0
290
     0
174
     0
 93
       13
 44
0.0
173
     0
291
     0
 45
0.0
1001
ACAD
1000
AcDbSavedByObjectVersion
1070
     0
  0
VISUALSTYLE
  5
37
102
{ACAD_REACTORS
330
2A
102
}
330
2A
100
AcDbVisualStyle
  2
Thicken
 70
    13
 71
     2
 72
     2
 73
     0
 90
        0
 40
-0.6
 41
-30.0
 62
     5
 63
     7
421
 16777215
 74
     1
 91
        4
 64
     7
 65
   257
 75
     1
175
     1
 42
1.0
 92
       12
 66
     7
 43
1.0
 76
     1
 77
     6
 78
     2
 67
     7
 79
     5
170
     0
171
     0
290
     0
174
     0
 93
        1
 44
0.0
173
     0
291
     1
 45
0.0
1001
ACAD
1000
AcDbSavedByObjectVersion
1070
     0
  0
ENDSEC
  0
EOF
