  0
SECTION
  2
HEADER
  9
$ACADVER
  1
AC1018
  9
$ACADMAINTVER
 70
     0
  9
$DWGCODEPAGE
  3
ANSI_1252
  9
$INSBASE
 10
0.0
 20
0.0
 30
0.0
  9
$EXTMIN
 10
-33.50688106964618
 20
0.0000000000000004
 30
0.0
  9
$EXTMAX
 10
79.17891668481113
 20
94.61421080081885
 30
0.0
  9
$LIMMIN
 10
0.0
 20
0.0
  9
$LIMMAX
 10
12.0
 20
9.0
  9
$ORTHOMODE
 70
     0
  9
$REGENMODE
 70
     1
  9
$FILLMODE
 70
     1
  9
$QTEXTMODE
 70
     0
  9
$MIRRTEXT
 70
     1
  9
$LTSCALE
 40
0.0393700787401575
  9
$ATTMODE
 70
     1
  9
$TEXTSIZE
 40
0.2
  9
$TRACEWID
 40
0.05
  9
$TEXTSTYLE
  7
Standard
  9
$CLAYER
  8
DEFAULT
  9
$CELTYPE
  6
ByLayer
  9
$CECOLOR
 62
   256
  9
$CELTSCALE
 40
1.0
  9
$DISPSILH
 70
     0
  9
$DIMSCALE
 40
1.0
  9
$DIMASZ
 40
0.18
  9
$DIMEXO
 40
0.0625
  9
$DIMDLI
 40
0.38
  9
$DIMRND
 40
0.0
  9
$DIMDLE
 40
0.0
  9
$DIMEXE
 40
0.18
  9
$DIMTP
 40
0.0
  9
$DIMTM
 40
0.0
  9
$DIMTXT
 40
0.18
  9
$DIMCEN
 40
0.09
  9
$DIMTSZ
 40
0.0
  9
$DIMTOL
 70
     0
  9
$DIMLIM
 70
     0
  9
$DIMTIH
 70
     1
  9
$DIMTOH
 70
     1
  9
$DIMSE1
 70
     0
  9
$DIMSE2
 70
     0
  9
$DIMTAD
 70
     0
  9
$DIMZIN
 70
     0
  9
$DIMBLK
  1

  9
$DIMASO
 70
     1
  9
$DIMSHO
 70
     1
  9
$DIMPOST
  1

  9
$DIMAPOST
  1

  9
$DIMALT
 70
     0
  9
$DIMALTD
 70
     2
  9
$DIMALTF
 40
25.4
  9
$DIMLFAC
 40
1.0
  9
$DIMTOFL
 70
     0
  9
$DIMTVP
 40
0.0
  9
$DIMTIX
 70
     0
  9
$DIMSOXD
 70
     0
  9
$DIMSAH
 70
     0
  9
$DIMBLK1
  1

  9
$DIMBLK2
  1

  9
$DIMSTYLE
  2
Standard
  9
$DIMCLRD
 70
     0
  9
$DIMCLRE
 70
     0
  9
$DIMCLRT
 70
     0
  9
$DIMTFAC
 40
1.0
  9
$DIMGAP
 40
0.09
  9
$DIMJUST
 70
     0
  9
$DIMSD1
 70
     0
  9
$DIMSD2
 70
     0
  9
$DIMTOLJ
 70
     1
  9
$DIMTZIN
 70
     0
  9
$DIMALTZ
 70
     0
  9
$DIMALTTZ
 70
     0
  9
$DIMUPT
 70
     0
  9
$DIMDEC
 70
     4
  9
$DIMTDEC
 70
     4
  9
$DIMALTU
 70
     2
  9
$DIMALTTD
 70
     2
  9
$DIMTXSTY
  7
Standard
  9
$DIMAUNIT
 70
     0
  9
$DIMADEC
 70
     0
  9
$DIMALTRND
 40
0.0
  9
$DIMAZIN
 70
     0
  9
$DIMDSEP
 70
    46
  9
$DIMATFIT
 70
     3
  9
$DIMFRAC
 70
     0
  9
$DIMLDRBLK
  1

  9
$DIMLUNIT
 70
     2
  9
$DIMLWD
 70
    -2
  9
$DIMLWE
 70
    -2
  9
$DIMTMOVE
 70
     2
  9
$LUNITS
 70
     2
  9
$LUPREC
 70
     3
  9
$SKETCHINC
 40
0.1
  9
$FILLETRAD
 40
0.5
  9
$AUNITS
 70
     0
  9
$AUPREC
 70
     0
  9
$MENU
  1
.
  9
$ELEVATION
 40
0.0
  9
$PELEVATION
 40
0.0
  9
$THICKNESS
 40
0.0
  9
$LIMCHECK
 70
     0
  9
$CHAMFERA
 40
0.5
  9
$CHAMFERB
 40
0.5
  9
$CHAMFERC
 40
1.0
  9
$CHAMFERD
 40
0.0
  9
$SKPOLY
 70
     0
  9
$TDCREATE
 40
2455908.669609618
  9
$TDUCREATE
 40
2455908.877942951
  9
$TDUPDATE
 40
2455908.66960963
  9
$TDUUPDATE
 40
2455908.877942963
  9
$TDINDWG
 40
0.0000000116
  9
$TDUSRTIMER
 40
0.0000000116
  9
$USRTIMER
 70
     1
  9
$ANGBASE
 50
0.0
  9
$ANGDIR
 70
     0
  9
$PDMODE
 70
     0
  9
$PDSIZE
 40
0.0
  9
$PLINEWID
 40
0.0
  9
$SPLFRAME
 70
     0
  9
$SPLINETYPE
 70
     6
  9
$SPLINESEGS
 70
     8
  9
$HANDSEED
  5
15D
  9
$SURFTAB1
 70
     6
  9
$SURFTAB2
 70
     6
  9
$SURFTYPE
 70
     6
  9
$SURFU
 70
     6
  9
$SURFV
 70
     6
  9
$UCSBASE
  2

  9
$UCSNAME
  2

  9
$UCSORG
 10
0.0
 20
0.0
 30
0.0
  9
$UCSXDIR
 10
1.0
 20
0.0
 30
0.0
  9
$UCSYDIR
 10
0.0
 20
1.0
 30
0.0
  9
$UCSORTHOREF
  2

  9
$UCSORTHOVIEW
 70
     0
  9
$UCSORGTOP
 10
0.0
 20
0.0
 30
0.0
  9
$UCSORGBOTTOM
 10
0.0
 20
0.0
 30
0.0
  9
$UCSORGLEFT
 10
0.0
 20
0.0
 30
0.0
  9
$UCSORGRIGHT
 10
0.0
 20
0.0
 30
0.0
  9
$UCSORGFRONT
 10
0.0
 20
0.0
 30
0.0
  9
$UCSORGBACK
 10
0.0
 20
0.0
 30
0.0
  9
$PUCSBASE
  2

  9
$PUCSNAME
  2

  9
$PUCSORG
 10
0.0
 20
0.0
 30
0.0
  9
$PUCSXDIR
 10
1.0
 20
0.0
 30
0.0
  9
$PUCSYDIR
 10
0.0
 20
1.0
 30
0.0
  9
$PUCSORTHOREF
  2

  9
$PUCSORTHOVIEW
 70
     0
  9
$PUCSORGTOP
 10
0.0
 20
0.0
 30
0.0
  9
$PUCSORGBOTTOM
 10
0.0
 20
0.0
 30
0.0
  9
$PUCSORGLEFT
 10
0.0
 20
0.0
 30
0.0
  9
$PUCSORGRIGHT
 10
0.0
 20
0.0
 30
0.0
  9
$PUCSORGFRONT
 10
0.0
 20
0.0
 30
0.0
  9
$PUCSORGBACK
 10
0.0
 20
0.0
 30
0.0
  9
$USERI1
 70
     0
  9
$USERI2
 70
     0
  9
$USERI3
 70
     0
  9
$USERI4
 70
     0
  9
$USERI5
 70
     0
  9
$USERR1
 40
0.0
  9
$USERR2
 40
0.0
  9
$USERR3
 40
0.0
  9
$USERR4
 40
0.0
  9
$USERR5
 40
0.0
  9
$WORLDVIEW
 70
     1
  9
$SHADEDGE
 70
     3
  9
$SHADEDIF
 70
    70
  9
$TILEMODE
 70
     1
  9
$MAXACTVP
 70
    64
  9
$PINSBASE
 10
0.0
 20
0.0
 30
0.0
  9
$PLIMCHECK
 70
     0
  9
$PEXTMIN
 10
1.000000000000000E+20
 20
1.000000000000000E+20
 30
1.000000000000000E+20
  9
$PEXTMAX
 10
-1.000000000000000E+20
 20
-1.000000000000000E+20
 30
-1.000000000000000E+20
  9
$PLIMMIN
 10
0.0
 20
0.0
  9
$PLIMMAX
 10
12.0
 20
9.0
  9
$UNITMODE
 70
     0
  9
$VISRETAIN
 70
     1
  9
$PLINEGEN
 70
     0
  9
$PSLTSCALE
 70
     1
  9
$TREEDEPTH
 70
  3020
  9
$CMLSTYLE
  2
Standard
  9
$CMLJUST
 70
     0
  9
$CMLSCALE
 40
1.0
  9
$PROXYGRAPHICS
 70
     1
  9
$MEASUREMENT
 70
     0
  9
$CELWEIGHT
370
    -1
  9
$ENDCAPS
280
     0
  9
$JOINSTYLE
280
     0
  9
$LWDISPLAY
290
     0
  9
$INSUNITS
 70
     1
  9
$HYPERLINKBASE
  1

  9
$STYLESHEET
  1

  9
$XEDIT
290
     1
  9
$CEPSNTYPE
380
     0
  9
$PSTYLEMODE
290
     1
  9
$FINGERPRINTGUID
  2
{9ADEB1C0-AE8B-4D81-88DC-AED0D62B5064}
  9
$VERSIONGUID
  2
{FAEB1C32-E019-11D5-929B-00C0DF256EC4}
  9
$EXTNAMES
290
     1
  9
$PSVPSCALE
 40
0.0
  9
$OLESTARTUP
290
     0
  9
$SORTENTS
280
   127
  9
$INDEXCTL
280
     0
  9
$HIDETEXT
280
     1
  9
$XCLIPFRAME
290
     0
  9
$HALOGAP
280
     0
  9
$OBSCOLOR
 70
   257
  9
$OBSLTYPE
280
     0
  9
$INTERSECTIONDISPLAY
280
     0
  9
$INTERSECTIONCOLOR
 70
   257
  9
$DIMASSOC
280
     2
  9
$PROJECTNAME
  1

  0
ENDSEC
  0
SECTION
  2
CLASSES
  0
CLASS
  1
ACDBDICTIONARYWDFLT
  2
AcDbDictionaryWithDefault
  3
ObjectDBX Classes
 90
        0
 91
        4
280
     0
281
     0
  0
CLASS
  1
VISUALSTYLE
  2
AcDbVisualStyle
  3
ObjectDBX Classes
 90
     4095
 91
        4
280
     0
281
     0
  0
ENDSEC
  0
SECTION
  2
TABLES
  0
TABLE
  2
VPORT
  5
8
330
0
100
AcDbSymbolTable
 70
     1
  0
VPORT
  5
29
330
8
100
AcDbSymbolTableRecord
100
AcDbViewportTableRecord
  2
*Active
 70
     0
 10
0.0
 20
0.0
 11
1.0
 21
1.0
 12
22.83601780758248
 22
47.30710540040943
 13
0.0
 23
0.0
 14
0.5
 24
0.5
 15
0.5
 25
0.5
 16
0.0
 26
0.0
 36
1.0
 17
0.0
 27
0.0
 37
0.0
 40
96.50649501683523
 41
1.191002882132396
 42
50.0
 43
0.0
 44
0.0
 50
0.0
 51
0.0
 71
     0
 72
   100
 73
     1
 74
     3
 75
     0
 76
     0
 77
     0
 78
     0
281
     0
 65
     1
110
0.0
120
0.0
130
0.0
111
1.0
121
0.0
131
0.0
112
0.0
122
1.0
132
0.0
 79
     0
146
0.0
  0
ENDTAB
  0
TABLE
  2
LTYPE
  5
5
330
0
100
AcDbSymbolTable
 70
     1
  0
LTYPE
  5
14
330
5
100
AcDbSymbolTableRecord
100
AcDbLinetypeTableRecord
  2
ByBlock
 70
     0
  3

 72
    65
 73
     0
 40
0.0
  0
LTYPE
  5
15
330
5
100
AcDbSymbolTableRecord
100
AcDbLinetypeTableRecord
  2
ByLayer
 70
     0
  3

 72
    65
 73
     0
 40
0.0
  0
LTYPE
  5
16
330
5
100
AcDbSymbolTableRecord
100
AcDbLinetypeTableRecord
  2
Continuous
 70
     0
  3
Solid line
 72
    65
 73
     0
 40
0.0
  0
ENDTAB
  0
TABLE
  2
LAYER
  5
2
330
0
100
AcDbSymbolTable
 70
     2
  0
LAYER
  5
10
330
2
100
AcDbSymbolTableRecord
100
AcDbLayerTableRecord
  2
0
 70
     0
 62
     7
  6
Continuous
370
    -3
390
F
  0
LAYER
  5
3B
330
2
100
AcDbSymbolTableRecord
100
AcDbLayerTableRecord
  2
DEFAULT
 70
     0
 62
     7
  6
Continuous
370
    -3
390
F
  0
ENDTAB
  0
TABLE
  2
STYLE
  5
3
330
0
100
AcDbSymbolTable
 70
     1
  0
STYLE
  5
11
330
3
100
AcDbSymbolTableRecord
100
AcDbTextStyleTableRecord
  2
Standard
 70
     0
 40
0.0
 41
1.0
 50
0.0
 71
     0
 42
0.2
  3
txt
  4

  0
ENDTAB
  0
TABLE
  2
VIEW
  5
6
330
0
100
AcDbSymbolTable
 70
     0
  0
ENDTAB
  0
TABLE
  2
UCS
  5
7
330
0
100
AcDbSymbolTable
 70
     0
  0
ENDTAB
  0
TABLE
  2
APPID
  5
9
330
0
100
AcDbSymbolTable
 70
     1
  0
APPID
  5
12
330
9
100
AcDbSymbolTableRecord
100
AcDbRegAppTableRecord
  2
ACAD
 70
     0
  0
ENDTAB
  0
TABLE
  2
DIMSTYLE
  5
A
330
0
100
AcDbSymbolTable
 70
     1
100
AcDbDimStyleTable
  0
DIMSTYLE
105
27
330
A
100
AcDbSymbolTableRecord
100
AcDbDimStyleTableRecord
  2
Standard
 70
     0
340
11
  0
ENDTAB
  0
TABLE
  2
BLOCK_RECORD
  5
1
330
0
100
AcDbSymbolTable
 70
     1
  0
BLOCK_RECORD
  5
1F
330
1
100
AcDbSymbolTableRecord
100
AcDbBlockTableRecord
  2
*Model_Space
340
22
  0
BLOCK_RECORD
  5
1B
330
1
100
AcDbSymbolTableRecord
100
AcDbBlockTableRecord
  2
*Paper_Space
340
1E
  0
BLOCK_RECORD
  5
23
330
1
100
AcDbSymbolTableRecord
100
AcDbBlockTableRecord
  2
*Paper_Space0
340
26
  0
ENDTAB
  0
ENDSEC
  0
SECTION
  2
BLOCKS
  0
BLOCK
  5
20
330
1F
100
AcDbEntity
  8
0
100
AcDbBlockBegin
  2
*Model_Space
 70
     0
 10
0.0
 20
0.0
 30
0.0
  3
*Model_Space
  1

  0
ENDBLK
  5
21
330
1F
100
AcDbEntity
  8
0
100
AcDbBlockEnd
  0
BLOCK
  5
1C
330
1B
100
AcDbEntity
 67
     1
  8
0
100
AcDbBlockBegin
  2
*Paper_Space
 70
     0
 10
0.0
 20
0.0
 30
0.0
  3
*Paper_Space
  1

  0
ENDBLK
  5
1D
330
1B
100
AcDbEntity
 67
     1
  8
0
100
AcDbBlockEnd
  0
BLOCK
  5
24
330
23
100
AcDbEntity
  8
0
100
AcDbBlockBegin
  2
*Paper_Space0
 70
     0
 10
0.0
 20
0.0
 30
0.0
  3
*Paper_Space0
  1

  0
ENDBLK
  5
25
330
23
100
AcDbEntity
  8
0
100
AcDbBlockEnd
  0
ENDSEC
  0
SECTION
  2
ENTITIES
  0
LINE
  5
3C
330
1F
100
AcDbEntity
  8
DEFAULT
100
AcDbLine
 10
-19.17531670962893
 20
0.0000000000000004
 30
0.0
 11
-19.7564204437075
 21
0.0000000000000004
 31
0.0
  0
SPLINE
  5
3D
330
1F
100
AcDbEntity
  8
DEFAULT
100
AcDbSpline
210
0.0
220
0.0
230
1.0
 70
    24
 71
     2
 72
     6
 73
     3
 74
     0
 42
0.0000000001
 43
0.0000000001
 40
-0.125
 40
-0.125
 40
-0.125
 40
0.0
 40
0.0
 40
0.0
 10
-19.7564204437075
 20
0.0000000000000004
 30
0.0
 10
-19.7564204437075
 20
0.0625000000000004
 30
0.0
 10
-19.7564204437075
 20
0.1250000000000004
 30
0.0
  0
SPLINE
  5
3E
330
1F
100
AcDbEntity
  8
DEFAULT
100
AcDbSpline
210
0.0
220
0.0
230
1.0
 70
    24
 71
     2
 72
     6
 73
     3
 74
     0
 42
0.0000000001
 43
0.0000000001
 40
0.0
 40
0.0
 40
0.0
 40
0.3596651422130037
 40
0.3596651422130037
 40
0.3596651422130037
 10
-21.55115324251278
 20
0.0000000000000004
 30
0.0
 10
-21.73118962473747
 20
0.0000000000000005
 30
0.0
 10
-21.91122600696215
 20
0.0000000000000005
 30
0.0
  0
SPLINE
  5
3F
330
1F
100
AcDbEntity
  8
DEFAULT
100
AcDbSpline
210
0.0
220
0.0
230
1.0
 70
    24
 71
     2
 72
     6
 73
     3
 74
     0
 42
0.0000000001
 43
0.0000000001
 40
-0.125
 40
-0.125
 40
-0.125
 40
0.0
 40
0.0
 40
0.0
 10
-21.91122600696215
 20
0.0000000000000005
 30
0.0
 10
-21.91142981808034
 20
0.0625000000000005
 30
0.0
 10
-21.91163362919852
 20
0.1250000000000004
 30
0.0
  0
SPLINE
  5
40
330
1F
100
AcDbEntity
  8
DEFAULT
100
AcDbSpline
210
0.0
220
0.0
230
1.0
 70
    28
 71
     2
 72
     8
 73
     5
 74
     0
 42
0.0000000001
 43
0.0000000001
 40
2.276272015520191
 40
2.276272015520191
 40
2.276272015520191
 40
2.566267521869333
 40
2.566267521869333
 40
3.570796326793997
 40
3.570796326793997
 40
3.570796326793997
 10
-20.51498754817982
 20
0.0000000000000005
 30
0.0
 41
0.8859415057259156
 10
-20.50553396221832
 20
0.0000000000000006
 30
0.0
 41
0.7846830076536525
 10
-20.6540995392578
 20
0.0000000000000004
 30
0.0
 41
1.0
 10
-21.10262639088529
 20
0.0000000000000004
 30
0.0
 41
1.0
 10
-21.55115324251278
 20
0.0000000000000004
 30
0.0
 41
1.0
  0
SPLINE
  5
41
330
1F
100
AcDbEntity
  8
DEFAULT
100
AcDbSpline
210
0.0
220
0.0
230
1.0
 70
    24
 71
     2
 72
     6
 73
     3
 74
     0
 42
0.0000000001
 43
0.0000000001
 40
-0.125
 40
-0.125
 40
-0.125
 40
0.0
 40
0.0
 40
0.0
 10
-18.99153745644463
 20
0.1250000000000004
 30
0.0
 10
-18.99176363328335
 20
0.0625000000000005
 30
0.0
 10
-18.99198981012206
 20
0.0000000000000005
 30
0.0
  0
SPLINE
  5
42
330
1F
100
AcDbEntity
  8
DEFAULT
100
AcDbSpline
210
0.0
220
0.0
230
1.0
 70
    28
 71
     2
 72
     6
 73
     3
 74
     0
 42
0.0000000001
 43
0.0000000001
 40
0.0
 40
0.0
 40
0.0
 40
0.3384144077064375
 40
0.3384144077064375
 40
0.3384144077064375
 10
-18.99198981012206
 20
0.0000000000000005
 30
0.0
 41
0.9288656988894769
 10
-18.97979787329217
 20
0.0000000000000004
 30
0.0
 41
0.7485332392099654
 10
-19.17531670962893
 20
0.0000000000000004
 30
0.0
 41
1.0
  0
POLYLINE
  5
43
330
1F
100
AcDbEntity
  8
DEFAULT
100
AcDb2dPolyline
 66
     1
 10
0.0
 20
0.0
 30
0.0
  0
VERTEX
  5
44
330
43
100
AcDbEntity
  8
DEFAULT
100
AcDbVertex
100
AcDb2dVertex
 10
-5.299851377296335
 20
0.0000000000000004
 30
0.0
  0
VERTEX
  5
45
330
43
100
AcDbEntity
  8
DEFAULT
100
AcDbVertex
100
AcDb2dVertex
 10
-3.902797674041295
 20
0.0000000000000004
 30
0.0
  0
SEQEND
  5
46
330
43
100
AcDbEntity
  8
DEFAULT
  0
SPLINE
  5
47
330
1F
100
AcDbEntity
  8
DEFAULT
100
AcDbSpline
210
0.0
220
0.0
230
1.0
 70
    24
 71
     2
 72
     6
 73
     3
 74
     0
 42
0.0000000001
 43
0.0000000001
 40
0.0
 40
0.0
 40
0.0
 40
0.125
 40
0.125
 40
0.125
 10
-3.902797674041295
 20
0.0000000000000004
 30
0.0
 10
-3.902797674041295
 20
0.0625000000000004
 30
0.0
 10
-3.902797674041295
 20
0.1250000000000004
 30
0.0
  0
SPLINE
  5
48
330
1F
100
AcDbEntity
  8
DEFAULT
100
AcDbSpline
210
0.0
220
0.0
230
1.0
 70
    24
 71
     2
 72
     6
 73
     3
 74
     0
 42
0.0000000001
 43
0.0000000001
 40
0.0
 40
0.0
 40
0.0
 40
0.125
 40
0.125
 40
0.125
 10
-5.299851377296335
 20
0.1250000000000004
 30
0.0
 10
-5.299851377296335
 20
0.0625000000000004
 30
0.0
 10
-5.299851377296335
 20
0.0000000000000004
 30
0.0
  0
SPLINE
  5
49
330
1F
100
AcDbEntity
  8
DEFAULT
100
AcDbSpline
210
0.0
220
0.0
230
1.0
 70
    24
 71
     2
 72
     6
 73
     3
 74
     0
 42
0.0000000001
 43
0.0000000001
 40
-0.125
 40
-0.125
 40
-0.125
 40
0.0
 40
0.0
 40
0.0
 10
-20.51457992594348
 20
0.1250000000000004
 30
0.0
 10
-20.51478373706166
 20
0.0625000000000005
 30
0.0
 10
-20.51498754817983
 20
0.0000000000000005
 30
0.0
  0
SPLINE
  5
4A
330
1F
100
AcDbEntity
  8
DEFAULT
100
AcDbSpline
210
0.0
220
0.0
230
1.0
 70
    24
 71
     2
 72
     6
 73
     3
 74
     0
 42
0.0000000001
 43
0.0000000001
 40
0.0
 40
0.0
 40
0.0
 40
0.0080251520404246
 40
0.0080251520404246
 40
0.0080251520404246
 10
-19.7474905843122
 20
0.1250000000000004
 30
0.0
 10
-19.75150316033242
 20
0.1250000000000004
 30
0.0
 10
-19.75551573635263
 20
0.1250000000000004
 30
0.0
  0
SPLINE
  5
4B
330
1F
100
AcDbEntity
  8
DEFAULT
100
AcDbSpline
210
0.0
220
0.0
230
1.0
 70
    24
 71
     2
 72
     6
 73
     3
 74
     0
 42
0.0000000001
 43
0.0000000001
 40
0.0
 40
0.0
 40
0.0
 40
0.0106933643837064
 40
0.0106933643837064
 40
0.0106933643837064
 10
1.31183517289719
 20
16.57698376392842
 30
0.0
 10
1.306488490705348
 20
16.57698376640012
 30
0.0
 10
1.301141808513506
 20
16.57698376887181
 30
0.0
  0
SPLINE
  5
4C
330
1F
100
AcDbEntity
  8
DEFAULT
100
AcDbSpline
210
0.0
220
0.0
230
1.0
 70
    24
 71
     2
 72
     6
 73
     3
 74
     0
 42
0.0000000001
 43
0.0000000001
 40
0.0
 40
0.0
 40
0.0
 40
0.4995000000010317
 40
0.4995000000010317
 40
0.4995000000010317
 10
61.39848514469266
 20
1.749523220640438
 30
0.0
 10
61.39848514469266
 20
1.499773220639922
 30
0.0
 10
61.39848514469266
 20
1.250023220639406
 30
0.0
  0
SPLINE
  5
4D
330
1F
100
AcDbEntity
  8
DEFAULT
100
AcDbSpline
210
0.0
220
0.0
230
1.0
 70
    24
 71
     2
 72
     6
 73
     3
 74
     0
 42
0.0000000001
 43
0.0000000001
 40
0.0
 40
0.0
 40
0.0
 40
0.125
 40
0.125
 40
0.125
 10
47.14014557104944
 20
0.0000000000000005
 30
0.0
 10
47.14034938216763
 20
0.0625000000000005
 30
0.0
 10
47.14055319328581
 20
0.1250000000000004
 30
0.0
  0
SPLINE
  5
4E
330
1F
100
AcDbEntity
  8
DEFAULT
100
AcDbSpline
210
0.0
220
0.0
230
1.0
 70
    28
 71
     2
 72
    12
 73
     9
 74
     0
 42
0.0000000001
 43
0.0000000001
 40
-1.883572933821467
 40
-1.883572933821467
 40
-1.883572933821467
 40
-1.785076191315903
 40
-1.785076191315903
 40
-0.7817966106311127
 40
-0.7817966106311127
 40
-0.3878096406088539
 40
-0.3878096406088539
 40
-0.098174770424681
 40
-0.098174770424681
 40
-0.098174770424681
 10
46.19903926877843
 20
0.0000000000000005
 30
0.0
 41
0.8901650429449552
 10
46.20329479737558
 20
0.0000000000000005
 30
0.0
 41
0.9267766952966369
 10
46.22436822072829
 20
0.0000000000000004
 30
0.0
 41
1.0
 10
46.44532899410005
 20
0.0000000000000004
 30
0.0
 41
1.0
 10
46.66628976747184
 20
0.0000000000000004
 30
0.0
 41
1.0
 10
46.77677015415788
 20
0.0000000000000006
 30
0.0
 41
0.7071067811865476
 10
47.00103357997169
 20
0.0000000000000004
 30
0.0
 41
1.0
 10
47.149599157011
 20
0.0000000000000006
 30
0.0
 41
0.7846830076536132
 10
47.14014557104943
 20
0.0000000000000005
 30
0.0
 41
0.8859415057259526
  0
SPLINE
  5
4F
330
1F
100
AcDbEntity
  8
DEFAULT
100
AcDbSpline
210
0.0
220
0.0
230
1.0
 70
    24
 71
     2
 72
     6
 73
     3
 74
     0
 42
0.0000000001
 43
0.0000000001
 40
0.0
 40
0.0
 40
0.0
 40
0.125
 40
0.125
 40
0.125
 10
46.19863164654207
 20
0.1250000000000004
 30
0.0
 10
46.19883545766025
 20
0.0625000000000005
 30
0.0
 10
46.19903926877844
 20
0.0000000000000005
 30
0.0
  0
SPLINE
  5
50
330
1F
100
AcDbEntity
  8
DEFAULT
100
AcDbSpline
210
0.0
220
0.0
230
1.0
 70
    12
 71
     3
 72
    10
 73
     6
 74
     0
 42
0.0000000001
 43
0.0000000001
 40
-1.365734546670907
 40
-1.365734546670907
 40
-1.365734546670907
 40
-1.365734546670907
 40
-0.9104896977806043
 40
-0.4552448488903021
 40
-0.44238969061182
 40
-0.44238969061182
 40
-0.44238969061182
 40
-0.44238969061182
 10
74.47437420516148
 20
11.96779585153407
 30
0.0
 41
1.0
 10
74.45755959738518
 20
12.10392782508889
 30
0.0
 41
1.0
 10
74.41467413615574
 20
12.35701468408548
 30
0.0
 41
1.0
 10
74.35908971771731
 20
12.5598533492956
 30
0.0
 41
1.0
 10
74.3274300851133
 20
12.63635913778269
 30
0.0
 41
1.0
 10
74.3265581041312
 20
12.6384397535056
 30
0.0
 41
1.0
  0
SPLINE
  5
51
330
1F
100
AcDbEntity
  8
DEFAULT
100
AcDbSpline
210
0.0
220
0.0
230
1.0
 70
    24
 71
     2
 72
     6
 73
     3
 74
     0
 42
0.0000000001
 43
0.0000000001
 40
0.0
 40
0.0
 40
0.0
 40
10.79922068171757
 40
10.79922068171757
 40
10.79922068171757
 10
75.79820091770951
 20
1.25002322063819
 30
0.0
 10
75.1362875614355
 20
6.60890953608613
 30
0.0
 10
74.47437420516148
 20
11.96779585153407
 30
0.0
  0
SPLINE
  5
52
330
1F
100
AcDbEntity
  8
DEFAULT
100
AcDbSpline
210
0.0
220
0.0
230
1.0
 70
    24
 71
     2
 72
     6
 73
     3
 74
     0
 42
0.0000000001
 43
0.0000000001
 40
-0.125
 40
-0.125
 40
-0.125
 40
0.0
 40
0.0
 40
0.0
 10
73.87580642310449
 20
0.0000000000000005
 30
0.0
 10
73.87558024626578
 20
0.0625000000000005
 30
0.0
 10
73.87535406942708
 20
0.1250000000000004
 30
0.0
  0
SPLINE
  5
53
330
1F
100
AcDbEntity
  8
DEFAULT
100
AcDbSpline
210
0.0
220
0.0
230
1.0
 70
    24
 71
     2
 72
     6
 73
     3
 74
     0
 42
0.0000000001
 43
0.0000000001
 40
0.0
 40
0.0
 40
0.0
 40
0.3153160394606687
 40
0.3153160394606687
 40
0.3153160394606687
 10
74.1915748162426
 20
0.0000000000000004
 30
0.0
 10
74.03369061967355
 20
0.0000000000000005
 30
0.0
 10
73.87580642310449
 20
0.0000000000000005
 30
0.0
  0
SPLINE
  5
54
330
1F
100
AcDbEntity
  8
DEFAULT
100
AcDbSpline
210
0.0
220
0.0
230
1.0
 70
    28
 71
     2
 72
     8
 73
     5
 74
     0
 42
0.0000000001
 43
0.0000000001
 40
2.227184630307851
 40
2.227184630307851
 40
2.227184630307851
 40
2.565968549938491
 40
2.565968549938491
 40
3.570796326793997
 40
3.570796326793997
 40
3.570796326793997
 10
75.33918227816841
 20
0.0000000000000005
 30
0.0
 41
0.9288656988897741
 10
75.35137421499849
 20
0.0000000000000006
 30
0.0
 41
0.7485332392097582
 10
75.15585537866129
 20
0.0000000000000004
 30
0.0
 41
1.0
 10
74.67371509745196
 20
0.0000000000000004
 30
0.0
 41
1.0
 10
74.1915748162426
 20
0.0000000000000004
 30
0.0
 41
1.0
  0
SPLINE
  5
55
330
1F
100
AcDbEntity
  8
DEFAULT
100
AcDbSpline
210
0.0
220
0.0
230
1.0
 70
    24
 71
     2
 72
     6
 73
     3
 74
     0
 42
0.0000000001
 43
0.0000000001
 40
-0.125
 40
-0.125
 40
-0.125
 40
0.0
 40
0.0
 40
0.0
 10
75.33963463184584
 20
0.1250000000000004
 30
0.0
 10
75.33940845500713
 20
0.0625000000000005
 30
0.0
 10
75.33918227816842
 20
0.0000000000000005
 30
0.0
  0
SPLINE
  5
56
330
1F
100
AcDbEntity
  8
DEFAULT
100
AcDbSpline
210
0.0
220
0.0
230
1.0
 70
     8
 71
     3
 72
    14
 73
    10
 74
     0
 42
0.0000000001
 43
0.0000000001
 40
0.0
 40
0.0
 40
0.0
 40
0.0
 40
1.0
 40
2.0
 40
3.0
 40
4.0
 40
5.0
 40
6.0
 40
7.0
 40
7.0
 40
7.0
 40
7.0
 10
-23.08679834641053
 20
12.27197877285842
 30
0.0
 10
-23.05047378131057
 20
11.77118675804745
 30
0.0
 10
-22.97779422175086
 20
10.76960496253182
 30
0.0
 10
-22.86888889223048
 20
9.267222508984434
 30
0.0
 10
-22.75961876722654
 20
7.764871783722697
 30
0.0
 10
-22.65169380032134
 20
6.262403712375495
 30
0.0
 10
-22.53875306008038
 20
4.760374173484031
 30
0.0
 10
-22.4603752632542
 20
3.255597366405736
 30
0.0
 10
-22.48508650829674
 20
2.250648693173977
 30
0.0
 10
-22.52438535487798
 20
1.750033198078262
 30
0.0
  0
LINE
  5
57
330
1F
100
AcDbEntity
  8
DEFAULT
100
AcDbLine
 10
-18.5201952879104
 20
12.8210733679782
 30
0.0
 11
-18.49088562093801
 21
16.57626599148041
 31
0.0
  0
SPLINE
  5
58
330
1F
100
AcDbEntity
  8
DEFAULT
100
AcDbSpline
210
0.0
220
0.0
230
1.0
 70
    24
 71
     2
 72
     6
 73
     3
 74
     0
 42
0.0000000001
 43
0.0000000001
 40
0.0
 40
0.0
 40
0.0
 40
0.125
 40
0.125
 40
0.125
 10
3.902797674041295
 20
0.0000000000000004
 30
0.0
 10
3.902797674041295
 20
0.0625000000000004
 30
0.0
 10
3.902797674041295
 20
0.1250000000000004
 30
0.0
  0
POLYLINE
  5
59
330
1F
100
AcDbEntity
  8
DEFAULT
100
AcDb2dPolyline
 66
     1
 10
0.0
 20
0.0
 30
0.0
  0
VERTEX
  5
5A
330
59
100
AcDbEntity
  8
DEFAULT
100
AcDbVertex
100
AcDb2dVertex
 10
5.299851377296335
 20
0.0000000000000004
 30
0.0
  0
VERTEX
  5
5B
330
59
100
AcDbEntity
  8
DEFAULT
100
AcDbVertex
100
AcDb2dVertex
 10
3.902797674041295
 20
0.0000000000000004
 30
0.0
  0
SEQEND
  5
5C
330
59
100
AcDbEntity
  8
DEFAULT
  0
SPLINE
  5
5D
330
1F
100
AcDbEntity
  8
DEFAULT
100
AcDbSpline
210
0.0
220
0.0
230
1.0
 70
    24
 71
     2
 72
     6
 73
     3
 74
     0
 42
0.0000000001
 43
0.0000000001
 40
0.0
 40
0.0
 40
0.0
 40
0.125
 40
0.125
 40
0.125
 10
5.299851377296335
 20
0.1250000000000004
 30
0.0
 10
5.299851377296335
 20
0.0625000000000004
 30
0.0
 10
5.299851377296335
 20
0.0000000000000004
 30
0.0
  0
SPLINE
  5
5E
330
1F
100
AcDbEntity
  8
DEFAULT
100
AcDbSpline
210
0.0
220
0.0
230
1.0
 70
    24
 71
     2
 72
     6
 73
     3
 74
     0
 42
0.0000000001
 43
0.0000000001
 40
-0.125
 40
-0.125
 40
-0.125
 40
0.0
 40
0.0
 40
0.0
 10
21.91122600696215
 20
0.0000000000000005
 30
0.0
 10
21.91142981808034
 20
0.0625000000000005
 30
0.0
 10
21.91163362919852
 20
0.1250000000000004
 30
0.0
  0
SPLINE
  5
5F
330
1F
100
AcDbEntity
  8
DEFAULT
100
AcDbSpline
210
0.0
220
0.0
230
1.0
 70
    24
 71
     2
 72
     6
 73
     3
 74
     0
 42
0.0000000001
 43
0.0000000001
 40
0.0
 40
0.0
 40
0.0
 40
0.3596651422130037
 40
0.3596651422130037
 40
0.3596651422130037
 10
21.55115324251278
 20
0.0000000000000004
 30
0.0
 10
21.73118962473747
 20
0.0000000000000005
 30
0.0
 10
21.91122600696215
 20
0.0000000000000005
 30
0.0
  0
SPLINE
  5
60
330
1F
100
AcDbEntity
  8
DEFAULT
100
AcDbSpline
210
0.0
220
0.0
230
1.0
 70
    28
 71
     2
 72
     8
 73
     5
 74
     0
 42
0.0000000001
 43
0.0000000001
 40
2.276272015520191
 40
2.276272015520191
 40
2.276272015520191
 40
2.566267521869333
 40
2.566267521869333
 40
3.570796326793997
 40
3.570796326793997
 40
3.570796326793997
 10
20.51498754817982
 20
0.0000000000000005
 30
0.0
 41
0.8859415057259156
 10
20.50553396221832
 20
0.0000000000000006
 30
0.0
 41
0.7846830076536525
 10
20.6540995392578
 20
0.0000000000000004
 30
0.0
 41
1.0
 10
21.10262639088529
 20
0.0000000000000004
 30
0.0
 41
1.0
 10
21.55115324251278
 20
0.0000000000000004
 30
0.0
 41
1.0
  0
SPLINE
  5
61
330
1F
100
AcDbEntity
  8
DEFAULT
100
AcDbSpline
210
0.0
220
0.0
230
1.0
 70
    24
 71
     2
 72
     6
 73
     3
 74
     0
 42
0.0000000001
 43
0.0000000001
 40
-0.125
 40
-0.125
 40
-0.125
 40
0.0
 40
0.0
 40
0.0
 10
20.51457992594348
 20
0.1250000000000004
 30
0.0
 10
20.51478373706166
 20
0.0625000000000005
 30
0.0
 10
20.51498754817983
 20
0.0000000000000005
 30
0.0
  0
SPLINE
  5
62
330
1F
100
AcDbEntity
  8
DEFAULT
100
AcDbSpline
210
0.0
220
0.0
230
1.0
 70
    24
 71
     2
 72
     6
 73
     3
 74
     0
 42
0.0000000001
 43
0.0000000001
 40
0.0
 40
0.0
 40
0.0
 40
0.125
 40
0.125
 40
0.125
 10
55.32412623946074
 20
0.0000000000000004
 30
0.0
 10
55.32412623946075
 20
0.0625000000000004
 30
0.0
 10
55.32412623946077
 20
0.1250000000000004
 30
0.0
  0
SPLINE
  5
63
330
1F
100
AcDbEntity
  8
DEFAULT
100
AcDbSpline
210
0.0
220
0.0
230
1.0
 70
    12
 71
     2
 72
     6
 73
     3
 74
     0
 42
0.0000000001
 43
0.0000000001
 40
0.0
 40
0.0
 40
0.0
 40
3.729965710143867
 40
3.729965710143867
 40
3.729965710143867
 10
-27.80106843701199
 20
12.30217509912472
 30
0.0
 41
1.0
 10
-27.92136987732408
 20
14.16327386414894
 30
0.0
 41
0.9999999999947277
 10
-28.04165923083211
 20
16.02437341043596
 30
0.0
 41
1.0
  0
LINE
  5
64
330
1F
100
AcDbEntity
  8
DEFAULT
100
AcDbLine
 10
23.86926443717067
 20
1.250023220640425
 30
0.0
 11
23.22544072367126
 21
1.250023220639474
 31
0.0
  0
ARC
  5
65
330
1F
100
AcDbEntity
  8
DEFAULT
100
AcDbCircle
 10
23.86926443717033
 20
0.6875232206404249
 30
0.0
 40
0.5625000000000002
100
AcDbArc
 50
270.0
 51
89.99999999996527
  0
LINE
  5
66
330
1F
100
AcDbEntity
  8
DEFAULT
100
AcDbLine
 10
0.0
 20
0.1250232206404251
 30
0.0
 11
23.86926443717033
 21
0.1250232206404247
 31
0.0
  0
LINE
  5
67
330
1F
100
AcDbEntity
  8
DEFAULT
100
AcDbLine
 10
-23.86926443717033
 20
0.1250232206404247
 30
0.0
 11
0.0
 21
0.1250232206404251
 31
0.0
  0
ARC
  5
68
330
1F
100
AcDbEntity
  8
DEFAULT
100
AcDbCircle
 10
-23.86926443717033
 20
0.6875232206404249
 30
0.0
 40
0.5625000000000002
100
AcDbArc
 50
90.00000000003475
 51
270.0
  0
LINE
  5
69
330
1F
100
AcDbEntity
  8
DEFAULT
100
AcDbLine
 10
-23.22544072367126
 20
1.250023220639474
 30
0.0
 11
-23.86926443717067
 21
1.250023220640425
 31
0.0
  0
SPLINE
  5
6A
330
1F
100
AcDbEntity
  8
DEFAULT
100
AcDbSpline
210
0.0
220
0.0
230
1.0
 70
    24
 71
     2
 72
     6
 73
     3
 74
     0
 42
0.0000000001
 43
0.0000000001
 40
0.0
 40
0.0
 40
0.0
 40
13.17307101262907
 40
13.17307101262907
 40
13.17307101262907
 10
13.17304940506386
 20
12.38297506206445
 30
0.0
 10
6.586524702531932
 20
12.39490482910842
 30
0.0
 10
0.0
 20
12.40683459615239
 30
0.0
  0
SPLINE
  5
6B
330
1F
100
AcDbEntity
  8
DEFAULT
100
AcDbSpline
210
0.0
220
0.0
230
1.0
 70
    12
 71
     3
 72
    10
 73
     6
 74
     0
 42
0.0000000001
 43
0.0000000001
 40
-1.365734546670907
 40
-1.365734546670907
 40
-1.365734546670907
 40
-1.365734546670907
 40
-0.9104896977806043
 40
-0.4552448488903021
 40
0.0
 40
0.0
 40
0.0
 40
0.0
 10
13.84257747062853
 20
11.80931400338339
 30
0.0
 41
1.0
 10
13.80025101237715
 20
11.90344571771516
 30
0.0
 41
1.0
 10
13.69175803799254
 20
12.081567055589
 30
0.0
 41
1.0
 10
13.47286255218268
 20
12.30442384613756
 30
0.0
 41
1.0
 10
13.27315635948273
 20
12.38279374449568
 30
0.0
 41
1.0
 10
13.17304940506386
 20
12.38297506206445
 30
0.0
 41
1.0
  0
SPLINE
  5
6C
330
1F
100
AcDbEntity
  8
DEFAULT
100
AcDbSpline
210
0.0
220
0.0
230
1.0
 70
    24
 71
     2
 72
     6
 73
     3
 74
     0
 42
0.0000000001
 43
0.0000000001
 40
0.0
 40
0.0
 40
0.0
 40
11.75429173708395
 40
11.75429173708395
 40
11.75429173708395
 10
18.6630157111307
 20
1.088924579020849
 30
0.0
 10
16.25279659087961
 20
6.449119291202119
 30
0.0
 10
13.84257747062853
 20
11.80931400338339
 30
0.0
  0
SPLINE
  5
6D
330
1F
100
AcDbEntity
  8
DEFAULT
100
AcDbSpline
210
0.0
220
0.0
230
1.0
 70
     8
 71
     3
 72
    14
 73
    10
 74
     0
 42
0.0000000001
 43
0.0000000001
 40
0.0
 40
0.0
 40
0.0
 40
0.0
 40
1.0
 40
2.0
 40
3.0
 40
4.0
 40
5.0
 40
6.0
 40
7.0
 40
7.0
 40
7.0
 40
7.0
 10
18.99074133089175
 20
1.247406400079882
 30
0.0
 10
19.13806468233981
 20
1.263568890071546
 30
0.0
 10
19.4410552122686
 20
1.157345446977879
 30
0.0
 10
19.64259653664676
 20
0.7255723414685311
 30
0.0
 10
19.49480950200838
 20
0.2724126775921613
 30
0.0
 10
19.06180215032953
 20
0.0586314796460428
 30
0.0
 10
18.61600375927541
 20
0.2448712725738398
 30
0.0
 10
18.44257497559383
 20
0.6891627522409914
 30
0.0
 10
18.55901552708017
 20
0.9835139993497828
 30
0.0
 10
18.6630157111307
 20
1.088924579020849
 30
0.0
  0
SPLINE
  5
6E
330
1F
100
AcDbEntity
  8
DEFAULT
100
AcDbSpline
210
0.0
220
0.0
230
1.0
 70
    24
 71
     2
 72
     6
 73
     3
 74
     0
 42
0.0000000001
 43
0.0000000001
 40
-11.75429176232053
 40
-11.75429176232053
 40
-11.75429176232053
 40
0.0
 40
0.0
 40
0.0
 10
14.17030308910233
 20
11.96779585153407
 30
0.0
 10
16.58052220999704
 20
6.607601125806976
 30
0.0
 10
18.99074133089175
 20
1.247406400079882
 30
0.0
  0
SPLINE
  5
6F
330
1F
100
AcDbEntity
  8
DEFAULT
100
AcDbSpline
210
0.0
220
0.0
230
1.0
 70
    12
 71
     3
 72
    10
 73
     6
 74
     0
 42
0.0000000001
 43
0.0000000001
 40
0.0
 40
0.0
 40
0.0
 40
0.0
 40
0.4552448488903021
 40
0.9104896977806043
 40
1.365734546670907
 40
1.365734546670907
 40
1.365734546670907
 40
1.365734546670907
 10
13.17678563826735
 20
12.7577165050567
 30
0.0
 41
1.0
 10
13.32200883198098
 20
12.75745347121888
 30
0.0
 41
1.0
 10
13.61105883810086
 20
12.65703668633114
 30
0.0
 41
1.0
 10
13.94422862533088
 20
12.35701468408548
 30
0.0
 41
1.0
 10
14.10909115513059
 20
12.10392782508889
 30
0.0
 41
1.0
 10
14.17030308910233
 20
11.96779585153407
 30
0.0
 41
1.0
  0
SPLINE
  5
70
330
1F
100
AcDbEntity
  8
DEFAULT
100
AcDbSpline
210
0.0
220
0.0
230
1.0
 70
    24
 71
     2
 72
     6
 73
     3
 74
     0
 42
0.0000000001
 43
0.0000000001
 40
-13.17680725196104
 40
-13.17680725196104
 40
-13.17680725196104
 40
0.0
 40
0.0
 40
0.0
 10
0.0
 20
12.78158280635401
 30
0.0
 10
6.588392819133674
 20
12.76964965570535
 30
0.0
 10
13.17678563826735
 20
12.7577165050567
 30
0.0
  0
SPLINE
  5
71
330
1F
100
AcDbEntity
  8
DEFAULT
100
AcDbSpline
210
0.0
220
0.0
230
1.0
 70
    24
 71
     2
 72
     6
 73
     3
 74
     0
 42
0.0000000001
 43
0.0000000001
 40
0.0
 40
0.0
 40
0.0
 40
13.17680725196104
 40
13.17680725196104
 40
13.17680725196104
 10
-13.17678563826735
 20
12.7577165050567
 30
0.0
 10
-6.588392819133674
 20
12.76964965570535
 30
0.0
 10
0.0
 20
12.78158280635401
 30
0.0
  0
SPLINE
  5
72
330
1F
100
AcDbEntity
  8
DEFAULT
100
AcDbSpline
210
0.0
220
0.0
230
1.0
 70
    12
 71
     3
 72
    10
 73
     6
 74
     0
 42
0.0000000001
 43
0.0000000001
 40
-1.365734546670907
 40
-1.365734546670907
 40
-1.365734546670907
 40
-1.365734546670907
 40
-0.9104896977806043
 40
-0.4552448488903021
 40
0.0
 40
0.0
 40
0.0
 40
0.0
 10
-14.17030308910233
 20
11.96779585153407
 30
0.0
 41
1.0
 10
-14.10909115513059
 20
12.10392782508889
 30
0.0
 41
1.0
 10
-13.94422862533088
 20
12.35701468408548
 30
0.0
 41
1.0
 10
-13.61105883810086
 20
12.65703668633114
 30
0.0
 41
1.0
 10
-13.32200883198098
 20
12.75745347121888
 30
0.0
 41
1.0
 10
-13.17678563826735
 20
12.7577165050567
 30
0.0
 41
1.0
  0
SPLINE
  5
73
330
1F
100
AcDbEntity
  8
DEFAULT
100
AcDbSpline
210
0.0
220
0.0
230
1.0
 70
    24
 71
     2
 72
     6
 73
     3
 74
     0
 42
0.0000000001
 43
0.0000000001
 40
0.0
 40
0.0
 40
0.0
 40
11.75429176232053
 40
11.75429176232053
 40
11.75429176232053
 10
-18.99074133089175
 20
1.247406400079882
 30
0.0
 10
-16.58052220999704
 20
6.607601125806976
 30
0.0
 10
-14.17030308910233
 20
11.96779585153407
 30
0.0
  0
SPLINE
  5
74
330
1F
100
AcDbEntity
  8
DEFAULT
100
AcDbSpline
210
0.0
220
0.0
230
1.0
 70
     8
 71
     3
 72
    14
 73
    10
 74
     0
 42
0.0000000001
 43
0.0000000001
 40
-7.0
 40
-7.0
 40
-7.0
 40
-7.0
 40
-6.0
 40
-5.0
 40
-4.0
 40
-3.0
 40
-2.0
 40
-1.0
 40
0.0
 40
0.0
 40
0.0
 40
0.0
 10
-18.6630157111307
 20
1.088924579020849
 30
0.0
 10
-18.55901552708017
 20
0.9835139993497828
 30
0.0
 10
-18.44257497559383
 20
0.6891627522409914
 30
0.0
 10
-18.61600375927541
 20
0.2448712725738398
 30
0.0
 10
-19.06180215032953
 20
0.0586314796460428
 30
0.0
 10
-19.49480950200838
 20
0.2724126775921613
 30
0.0
 10
-19.64259653664676
 20
0.7255723414685311
 30
0.0
 10
-19.4410552122686
 20
1.157345446977879
 30
0.0
 10
-19.13806468233981
 20
1.263568890071546
 30
0.0
 10
-18.99074133089175
 20
1.247406400079882
 30
0.0
  0
SPLINE
  5
75
330
1F
100
AcDbEntity
  8
DEFAULT
100
AcDbSpline
210
0.0
220
0.0
230
1.0
 70
    24
 71
     2
 72
     6
 73
     3
 74
     0
 42
0.0000000001
 43
0.0000000001
 40
-11.75429173708395
 40
-11.75429173708395
 40
-11.75429173708395
 40
0.0
 40
0.0
 40
0.0
 10
-13.84257747062853
 20
11.80931400338339
 30
0.0
 10
-16.25279659087961
 20
6.449119291202119
 30
0.0
 10
-18.6630157111307
 20
1.088924579020849
 30
0.0
  0
SPLINE
  5
76
330
1F
100
AcDbEntity
  8
DEFAULT
100
AcDbSpline
210
0.0
220
0.0
230
1.0
 70
    12
 71
     3
 72
    10
 73
     6
 74
     0
 42
0.0000000001
 43
0.0000000001
 40
0.0
 40
0.0
 40
0.0
 40
0.0
 40
0.4552448488903021
 40
0.9104896977806043
 40
1.365734546670907
 40
1.365734546670907
 40
1.365734546670907
 40
1.365734546670907
 10
-13.17304940506386
 20
12.38297506206445
 30
0.0
 41
1.0
 10
-13.27315635948273
 20
12.38279374449568
 30
0.0
 41
1.0
 10
-13.47286255218268
 20
12.30442384613756
 30
0.0
 41
1.0
 10
-13.69175803799254
 20
12.081567055589
 30
0.0
 41
1.0
 10
-13.80025101237715
 20
11.90344571771516
 30
0.0
 41
1.0
 10
-13.84257747062853
 20
11.80931400338339
 30
0.0
 41
1.0
  0
SPLINE
  5
77
330
1F
100
AcDbEntity
  8
DEFAULT
100
AcDbSpline
210
0.0
220
0.0
230
1.0
 70
    24
 71
     2
 72
     6
 73
     3
 74
     0
 42
0.0000000001
 43
0.0000000001
 40
-13.17307101262907
 40
-13.17307101262907
 40
-13.17307101262907
 40
0.0
 40
0.0
 40
0.0
 10
0.0
 20
12.40683459615239
 30
0.0
 10
-6.586524702531932
 20
12.39490482910842
 30
0.0
 10
-13.17304940506386
 20
12.38297506206445
 30
0.0
  0
ARC
  5
78
330
1F
100
AcDbEntity
  8
DEFAULT
100
AcDbCircle
 10
26.96957401450224
 20
23.7352075557133
 30
0.0
 40
11.46322878285488
100
AcDbArc
 50
270.0
 51
274.1596480411829
  0
LINE
  5
79
330
1F
100
AcDbEntity
  8
DEFAULT
100
AcDbLine
 10
14.36805820992731
 20
12.27197877285842
 30
0.0
 11
26.96957401450226
 21
12.27197877285842
 31
0.0
  0
SPLINE
  5
7A
330
1F
100
AcDbEntity
  8
DEFAULT
100
AcDbSpline
210
0.0
220
0.0
230
1.0
 70
    12
 71
     2
 72
     6
 73
     3
 74
     0
 42
0.0000000001
 43
0.0000000001
 40
0.0
 40
0.0
 40
0.0
 40
3.729965710143867
 40
3.729965710143867
 40
3.729965710143867
 10
27.80106843701199
 20
12.30217509912472
 30
0.0
 41
1.0
 10
27.92136987732408
 20
14.16327386414894
 30
0.0
 41
0.9999999999947277
 10
28.04165923083211
 20
16.02437341043596
 30
0.0
 41
1.0
  0
SPLINE
  5
7B
330
1F
100
AcDbEntity
  8
DEFAULT
100
AcDbSpline
210
0.0
220
0.0
230
1.0
 70
    24
 71
     2
 72
     6
 73
     3
 74
     0
 42
0.0000000001
 43
0.0000000001
 40
-0.125
 40
-0.125
 40
-0.125
 40
0.0
 40
0.0
 40
0.0
 10
19.7564204437075
 20
0.0000000000000004
 30
0.0
 10
19.7564204437075
 20
0.0625000000000004
 30
0.0
 10
19.7564204437075
 20
0.1250000000000004
 30
0.0
  0
LINE
  5
7C
330
1F
100
AcDbEntity
  8
DEFAULT
100
AcDbLine
 10
19.17531670962893
 20
0.0000000000000004
 30
0.0
 11
19.7564204437075
 21
0.0000000000000004
 31
0.0
  0
SPLINE
  5
7D
330
1F
100
AcDbEntity
  8
DEFAULT
100
AcDbSpline
210
0.0
220
0.0
230
1.0
 70
    28
 71
     2
 72
     6
 73
     3
 74
     0
 42
0.0000000001
 43
0.0000000001
 40
0.0
 40
0.0
 40
0.0
 40
0.3384144077064375
 40
0.3384144077064375
 40
0.3384144077064375
 10
18.99198981012206
 20
0.0000000000000005
 30
0.0
 41
0.9288656988894769
 10
18.97979787329217
 20
0.0000000000000004
 30
0.0
 41
0.7485332392099654
 10
19.17531670962893
 20
0.0000000000000004
 30
0.0
 41
1.0
  0
SPLINE
  5
7E
330
1F
100
AcDbEntity
  8
DEFAULT
100
AcDbSpline
210
0.0
220
0.0
230
1.0
 70
    24
 71
     2
 72
     6
 73
     3
 74
     0
 42
0.0000000001
 43
0.0000000001
 40
-0.125
 40
-0.125
 40
-0.125
 40
0.0
 40
0.0
 40
0.0
 10
18.99153745644463
 20
0.1250000000000004
 30
0.0
 10
18.99176363328335
 20
0.0625000000000005
 30
0.0
 10
18.99198981012206
 20
0.0000000000000005
 30
0.0
  0
SPLINE
  5
7F
330
1F
100
AcDbEntity
  8
DEFAULT
100
AcDbSpline
210
0.0
220
0.0
230
1.0
 70
    24
 71
     2
 72
     6
 73
     3
 74
     0
 42
0.0000000001
 43
0.0000000001
 40
0.0
 40
0.0
 40
0.0
 40
3.645750219072646
 40
3.645750219072646
 40
3.645750219072646
 10
-19.07373737673407
 20
1.250023220638198
 30
0.0
 10
-20.8966124862704
 20
1.250023220638758
 30
0.0
 10
-22.71948759580673
 20
1.250023220639319
 30
0.0
  0
SPLINE
  5
80
330
1F
100
AcDbEntity
  8
DEFAULT
100
AcDbSpline
210
0.0
220
0.0
230
1.0
 70
    24
 71
     2
 72
     6
 73
     3
 74
     0
 42
0.0000000001
 43
0.0000000001
 40
0.0
 40
0.0
 40
0.0
 40
0.5581088907313285
 40
0.5581088907313285
 40
0.5581088907313285
 10
-22.96055773640848
 20
1.191414329909109
 30
0.0
 10
-22.96055773640848
 20
1.470468775274774
 30
0.0
 10
-22.96055773640848
 20
1.749523220640438
 30
0.0
  0
SPLINE
  5
81
330
1F
100
AcDbEntity
  8
DEFAULT
100
AcDbSpline
210
0.0
220
0.0
230
1.0
 70
    24
 71
     2
 72
     6
 73
     3
 74
     0
 42
0.0000000001
 43
0.0000000001
 40
-11.75142257772862
 40
-11.75142257772862
 40
-11.75142257772862
 40
0.0
 40
0.0
 40
0.0
 10
-14.56762756802965
 20
11.96779585590738
 30
0.0
 10
-16.97725836646262
 20
6.608909538272838
 30
0.0
 10
-19.38688916489559
 20
1.250023220638294
 30
0.0
  0
SPLINE
  5
82
330
1F
100
AcDbEntity
  8
DEFAULT
100
AcDbSpline
210
0.0
220
0.0
230
1.0
 70
    12
 71
     3
 72
    10
 73
     6
 74
     0
 42
0.0000000001
 43
0.0000000001
 40
0.136164359695376
 40
0.136164359695376
 40
0.136164359695376
 40
0.136164359695376
 40
0.4552448487140268
 40
0.9104896976924667
 40
1.365734546670907
 40
1.365734546670907
 40
1.365734546670907
 40
1.365734546670907
 10
-13.64469998598882
 20
12.69134901891729
 30
0.0
 41
1.0
 10
-13.74747274896496
 20
12.67512399111955
 30
0.0
 41
1.0
 10
-13.99228931730322
 20
12.59318681880629
 30
0.0
 41
1.0
 10
-14.32309504790135
 20
12.35390150366054
 30
0.0
 41
1.0
 10
-14.50569486542983
 20
12.10553077894706
 30
0.0
 41
1.0
 10
-14.56762756802965
 20
11.96779585590738
 30
0.0
 41
1.0
  0
SPLINE
  5
83
330
1F
100
AcDbEntity
  8
DEFAULT
100
AcDbSpline
210
0.0
220
0.0
230
1.0
 70
    12
 71
     2
 72
     6
 73
     3
 74
     0
 42
0.0000000001
 43
0.0000000001
 40
0.0
 40
0.0
 40
0.0
 40
0.363901612670106
 40
0.363901612670106
 40
0.363901612670106
 10
-13.28532253753821
 20
12.74855192151674
 30
0.0
 41
1.0
 10
-13.46497763548736
 20
12.71973921301192
 30
0.0
 41
0.9999993088839729
 10
-13.64469998598882
 20
12.69134901891729
 30
0.0
 41
0.9999999999999991
  0
SPLINE
  5
84
330
1F
100
AcDbEntity
  8
DEFAULT
100
AcDbSpline
210
0.0
220
0.0
230
1.0
 70
    12
 71
     2
 72
     6
 73
     3
 74
     0
 42
0.0000000001
 43
0.0000000001
 40
0.0
 40
0.0
 40
0.0
 40
0.250445900368507
 40
0.250445900368507
 40
0.250445900368507
 10
-22.71948759580377
 20
1.250023220640434
 30
0.0
 41
1.0
 10
-22.84712536046157
 20
1.249933583908369
 30
0.0
 41
0.9718608390215667
 10
-22.96055773640848
 20
1.191414329909109
 30
0.0
 41
1.0
  0
SPLINE
  5
85
330
1F
100
AcDbEntity
  8
DEFAULT
100
AcDbSpline
210
0.0
220
0.0
230
1.0
 70
    24
 71
     2
 72
     6
 73
     3
 74
     0
 42
0.0000000001
 43
0.0000000001
 40
0.0
 40
0.0
 40
0.0
 40
0.4995000000011933
 40
0.4995000000011933
 40
0.4995000000011933
 10
-22.47841745519906
 20
1.749523220640438
 30
0.0
 10
-22.47841745519906
 20
1.499773220639841
 30
0.0
 10
-22.47841745519906
 20
1.250023220639245
 30
0.0
  0
SPLINE
  5
86
330
1F
100
AcDbEntity
  8
DEFAULT
100
AcDbSpline
210
0.0
220
0.0
230
1.0
 70
    24
 71
     2
 72
     6
 73
     3
 74
     0
 42
0.0000000001
 43
0.0000000001
 40
0.0
 40
0.0
 40
0.0
 40
0.5581088907313285
 40
0.5581088907313285
 40
0.5581088907313285
 10
-23.22544072367126
 20
1.191414329909109
 30
0.0
 10
-23.22544072367127
 20
1.470468775274774
 30
0.0
 10
-23.22544072367128
 20
1.749523220640438
 30
0.0
  0
SPLINE
  5
87
330
1F
100
AcDbEntity
  8
DEFAULT
100
AcDbSpline
210
0.0
220
0.0
230
1.0
 70
    24
 71
     2
 72
     6
 73
     3
 74
     0
 42
0.0000000001
 43
0.0000000001
 40
0.0
 40
0.0
 40
0.0
 40
0.2648829872628014
 40
0.2648829872628014
 40
0.2648829872628014
 10
-22.96055773640848
 20
1.191414329909109
 30
0.0
 10
-23.09299923003987
 20
1.191414329909109
 30
0.0
 10
-23.22544072367126
 20
1.191414329909109
 30
0.0
  0
SPLINE
  5
88
330
1F
100
AcDbEntity
  8
DEFAULT
100
AcDbSpline
210
0.0
220
0.0
230
1.0
 70
    24
 71
     2
 72
     6
 73
     3
 74
     0
 42
0.0000000001
 43
0.0000000001
 40
0.0
 40
0.0
 40
0.0
 40
0.2648829872628014
 40
0.2648829872628014
 40
0.2648829872628014
 10
22.96055773640848
 20
1.191414329909109
 30
0.0
 10
23.09299923003987
 20
1.191414329909109
 30
0.0
 10
23.22544072367126
 20
1.191414329909109
 30
0.0
  0
SPLINE
  5
89
330
1F
100
AcDbEntity
  8
DEFAULT
100
AcDbSpline
210
0.0
220
0.0
230
1.0
 70
    24
 71
     2
 72
     6
 73
     3
 74
     0
 42
0.0000000001
 43
0.0000000001
 40
0.0
 40
0.0
 40
0.0
 40
0.5581088907313285
 40
0.5581088907313285
 40
0.5581088907313285
 10
23.22544072367126
 20
1.191414329909109
 30
0.0
 10
23.22544072367127
 20
1.470468775274774
 30
0.0
 10
23.22544072367128
 20
1.749523220640438
 30
0.0
  0
SPLINE
  5
8A
330
1F
100
AcDbEntity
  8
DEFAULT
100
AcDbSpline
210
0.0
220
0.0
230
1.0
 70
    24
 71
     2
 72
     6
 73
     3
 74
     0
 42
0.0000000001
 43
0.0000000001
 40
0.0
 40
0.0
 40
0.0
 40
0.4995000000011933
 40
0.4995000000011933
 40
0.4995000000011933
 10
22.47841745519906
 20
1.749523220640438
 30
0.0
 10
22.47841745519906
 20
1.499773220639841
 30
0.0
 10
22.47841745519906
 20
1.250023220639245
 30
0.0
  0
SPLINE
  5
8B
330
1F
100
AcDbEntity
  8
DEFAULT
100
AcDbSpline
210
0.0
220
0.0
230
1.0
 70
    12
 71
     2
 72
     6
 73
     3
 74
     0
 42
0.0000000001
 43
0.0000000001
 40
0.0
 40
0.0
 40
0.0
 40
0.250445900368507
 40
0.250445900368507
 40
0.250445900368507
 10
22.71948759580377
 20
1.250023220640434
 30
0.0
 41
1.0
 10
22.84712536046157
 20
1.249933583908369
 30
0.0
 41
0.9718608390215667
 10
22.96055773640848
 20
1.191414329909109
 30
0.0
 41
1.0
  0
SPLINE
  5
8C
330
1F
100
AcDbEntity
  8
DEFAULT
100
AcDbSpline
210
0.0
220
0.0
230
1.0
 70
    12
 71
     2
 72
     6
 73
     3
 74
     0
 42
0.0000000001
 43
0.0000000001
 40
0.0
 40
0.0
 40
0.0
 40
3.472673466706939
 40
3.472673466706939
 40
3.472673466706939
 10
24.51890453336931
 20
16.48793720439922
 30
0.0
 41
1.0
 10
26.24077678903586
 20
16.26428303628784
 30
0.0
 41
0.9999999999999811
 10
28.04165923083211
 20
16.02437341043596
 30
0.0
 41
1.0
  0
SPLINE
  5
8D
330
1F
100
AcDbEntity
  8
DEFAULT
100
AcDbSpline
210
0.0
220
0.0
230
1.0
 70
     8
 71
     3
 72
    14
 73
    10
 74
     0
 42
0.0000000001
 43
0.0000000001
 40
0.0
 40
0.0
 40
0.0
 40
0.0
 40
1.0
 40
2.0
 40
3.0
 40
4.0
 40
5.0
 40
6.0
 40
7.0
 40
7.0
 40
7.0
 40
7.0
 10
22.57372752694276
 20
16.57626599148041
 30
0.0
 10
22.66652359973589
 20
16.57574497839784
 30
0.0
 10
22.85211224645704
 20
16.57412367577722
 30
0.0
 10
23.13047578259262
 20
16.56994281874234
 30
0.0
 10
23.40880336757117
 20
16.56403929935305
 30
0.0
 10
23.6870973701885
 20
16.55602180718439
 30
0.0
 10
23.96521499062734
 20
16.54467795913602
 30
0.0
 10
24.24334302254134
 20
16.52860594096878
 30
0.0
 10
24.42677661556107
 20
16.49892381932286
 30
0.0
 10
24.51890453336931
 20
16.48793720439922
 30
0.0
  0
POLYLINE
  5
8E
330
1F
100
AcDbEntity
  8
DEFAULT
100
AcDb2dPolyline
 66
     1
 10
0.0
 20
0.0
 30
0.0
  0
VERTEX
  5
8F
330
8E
100
AcDbEntity
  8
DEFAULT
100
AcDbVertex
100
AcDb2dVertex
 10
-22.57372752694276
 20
16.57626599148041
 30
0.0
  0
VERTEX
  5
90
330
8E
100
AcDbEntity
  8
DEFAULT
100
AcDbVertex
100
AcDb2dVertex
 10
22.57372752694276
 20
16.57626599148041
 30
0.0
  0
SEQEND
  5
91
330
8E
100
AcDbEntity
  8
DEFAULT
  0
SPLINE
  5
92
330
1F
100
AcDbEntity
  8
DEFAULT
100
AcDbSpline
210
0.0
220
0.0
230
1.0
 70
     8
 71
     3
 72
    14
 73
    10
 74
     0
 42
0.0000000001
 43
0.0000000001
 40
-7.0
 40
-7.0
 40
-7.0
 40
-7.0
 40
-6.0
 40
-5.0
 40
-4.0
 40
-3.0
 40
-2.0
 40
-1.0
 40
0.0
 40
0.0
 40
0.0
 40
0.0
 10
-24.51890453336931
 20
16.48793720439922
 30
0.0
 10
-24.42677661556107
 20
16.49892381932286
 30
0.0
 10
-24.24334302254134
 20
16.52860594096878
 30
0.0
 10
-23.96521499062734
 20
16.54467795913602
 30
0.0
 10
-23.6870973701885
 20
16.55602180718439
 30
0.0
 10
-23.40880336757117
 20
16.56403929935305
 30
0.0
 10
-23.13047578259262
 20
16.56994281874234
 30
0.0
 10
-22.85211224645704
 20
16.57412367577722
 30
0.0
 10
-22.66652359973589
 20
16.57574497839784
 30
0.0
 10
-22.57372752694276
 20
16.57626599148041
 30
0.0
  0
SPLINE
  5
93
330
1F
100
AcDbEntity
  8
DEFAULT
100
AcDbSpline
210
0.0
220
0.0
230
1.0
 70
    12
 71
     2
 72
     6
 73
     3
 74
     0
 42
0.0000000001
 43
0.0000000001
 40
-3.472673466706939
 40
-3.472673466706939
 40
-3.472673466706939
 40
0.0
 40
0.0
 40
0.0
 10
-28.04165923083211
 20
16.02437341043596
 30
0.0
 41
1.0
 10
-26.24077678903586
 20
16.26428303628784
 30
0.0
 41
0.9999999999999811
 10
-24.51890453336931
 20
16.48793720439922
 30
0.0
 41
1.0
  0
SPLINE
  5
94
330
1F
100
AcDbEntity
  8
DEFAULT
100
AcDbSpline
210
0.0
220
0.0
230
1.0
 70
     8
 71
     3
 72
    28
 73
    24
 74
     0
 42
0.0000000001
 43
0.0000000001
 40
-28.24719475866781
 40
-28.24719475866781
 40
-28.24719475866781
 40
-28.24719475866781
 40
-28.08142215587261
 40
-24.94419984225856
 40
-23.16310989989192
 40
-22.60865836319629
 40
-21.38668921534731
 40
-13.75930936521629
 40
-10.491012818883
 40
-9.80349180685193
 40
-7.707140557467934
 40
-6.677166794705047
 40
-6.305736181101256
 40
-5.735175980266344
 40
-4.916950290129802
 40
-4.394931274790023
 40
-3.791081342971316
 40
-3.410913504868553
 40
-2.485832933499718
 40
-2.069197491998213
 40
-1.736137470146584
 40
-1.109333737775268
 40
0.0
 40
0.0
 40
0.0
 40
0.0
 10
0.0
 20
17.46183223310075
 30
0.0
 10
-0.0552575348148322
 20
17.46183531099143
 30
0.0
 10
-1.156255989172665
 20
17.46189699444567
 30
0.0
 10
-2.850955912193825
 20
17.46212877088788
 30
0.0
 10
-4.675198870897077
 20
17.45665578732606
 30
0.0
 10
-5.861041584228161
 20
17.45539757408139
 30
0.0
 10
-8.995609316071977
 20
17.45481989383453
 30
0.0
 10
-13.03490021427316
 20
17.45513298559271
 30
0.0
 10
-16.89588187317098
 20
17.45355244109468
 30
0.0
 10
-18.91335882865597
 20
17.45409911604168
 30
0.0
 10
-20.18446740665364
 20
17.44252696811898
 30
0.0
 10
-21.35041873807243
 20
17.42283251910445
 30
0.0
 10
-22.00677504947423
 20
17.38697349759005
 30
0.0
 10
-22.59227128323845
 20
17.34780001032118
 30
0.0
 10
-23.22620111567845
 20
17.28511943420176
 30
0.0
 10
-23.86876339781689
 20
17.20051038422059
 30
0.0
 10
-24.36660389593332
 20
17.1366057226081
 30
0.0
 10
-24.99752372573727
 20
17.05234169291593
 30
0.0
 10
-25.56166654427797
 20
16.94541062379212
 30
0.0
 10
-26.1067761305647
 20
16.82499497162402
 30
0.0
 10
-26.55152195221484
 20
16.71147347522034
 30
0.0
 10
-27.20888997268507
 20
16.50159041357476
 30
0.0
 10
-27.73118967019349
 20
16.24346161899398
 30
0.0
 10
-28.03386469518286
 20
16.03011924827962
 30
0.0
  0
SPLINE
  5
95
330
1F
100
AcDbEntity
  8
DEFAULT
100
AcDbSpline
210
0.0
220
0.0
230
1.0
 70
     8
 71
     3
 72
    28
 73
    24
 74
     0
 42
0.0000000001
 43
0.0000000001
 40
0.0
 40
0.0
 40
0.0
 40
0.0
 40
1.109333737775268
 40
1.736137470146584
 40
2.069197491998213
 40
2.485832933499718
 40
3.410913504868553
 40
3.791081342971316
 40
4.394931274790023
 40
4.916950290129802
 40
5.735175980266344
 40
6.305736181101256
 40
6.677166794705047
 40
7.707140557467934
 40
9.80349180685193
 40
10.491012818883
 40
13.75930936521629
 40
21.38668921534731
 40
22.60865836319629
 40
23.16310989989192
 40
24.94419984225856
 40
28.08142215587261
 40
28.24719475866781
 40
28.24719475866781
 40
28.24719475866781
 40
28.24719475866781
 10
28.03386469518286
 20
16.03011924827962
 30
0.0
 10
27.73118967019349
 20
16.24346161899398
 30
0.0
 10
27.20888997268507
 20
16.50159041357476
 30
0.0
 10
26.55152195221484
 20
16.71147347522034
 30
0.0
 10
26.1067761305647
 20
16.82499497162402
 30
0.0
 10
25.56166654427797
 20
16.94541062379212
 30
0.0
 10
24.99752372573727
 20
17.05234169291593
 30
0.0
 10
24.36660389593332
 20
17.1366057226081
 30
0.0
 10
23.86876339781689
 20
17.20051038422059
 30
0.0
 10
23.22620111567845
 20
17.28511943420176
 30
0.0
 10
22.59227128323845
 20
17.34780001032118
 30
0.0
 10
22.00677504947423
 20
17.38697349759005
 30
0.0
 10
21.35041873807243
 20
17.42283251910445
 30
0.0
 10
20.18446740665364
 20
17.44252696811898
 30
0.0
 10
18.91335882865597
 20
17.45409911604168
 30
0.0
 10
16.89588187317098
 20
17.45355244109468
 30
0.0
 10
13.03490021427316
 20
17.45513298559271
 30
0.0
 10
8.995609316071977
 20
17.45481989383453
 30
0.0
 10
5.861041584228161
 20
17.45539757408139
 30
0.0
 10
4.675198870897077
 20
17.45665578732606
 30
0.0
 10
2.850955912193825
 20
17.46212877088788
 30
0.0
 10
1.156255989172665
 20
17.46189699444567
 30
0.0
 10
0.0552575348148322
 20
17.46183531099143
 30
0.0
 10
0.0
 20
17.46183223310075
 30
0.0
  0
LINE
  5
96
330
1F
100
AcDbEntity
  8
DEFAULT
100
AcDbLine
 10
-18.5905774794755
 20
1.250023220640426
 30
0.0
 11
18.5905774794755
 21
1.250023220640424
 31
0.0
  0
SPLINE
  5
97
330
1F
100
AcDbEntity
  8
DEFAULT
100
AcDbSpline
210
0.0
220
0.0
230
1.0
 70
     8
 71
     3
 72
    14
 73
    10
 74
     0
 42
0.0000000001
 43
0.0000000001
 40
0.0
 40
0.0
 40
0.0
 40
0.0
 40
1.0
 40
2.0
 40
3.0
 40
4.0
 40
5.0
 40
6.0
 40
7.0
 40
7.0
 40
7.0
 40
7.0
 10
22.52438535487798
 20
1.750033198078262
 30
0.0
 10
22.48508650826053
 20
2.25064869775576
 30
0.0
 10
22.46037526403318
 20
3.255597341372817
 30
0.0
 10
22.53875305525716
 20
4.760374098062292
 30
0.0
 10
22.6516937794451
 20
6.262403426987159
 30
0.0
 10
22.75961878805003
 20
7.764872070135562
 30
0.0
 10
22.86888887315125
 20
9.267222246148606
 30
0.0
 10
22.97779421829562
 20
10.76960491484669
 30
0.0
 10
23.05047376388251
 20
11.77118651781017
 30
0.0
 10
23.08679834641053
 20
12.27197877285842
 30
0.0
  0
LINE
  5
98
330
1F
100
AcDbEntity
  8
DEFAULT
100
AcDbLine
 10
18.5201952879104
 20
12.8210733679782
 30
0.0
 11
18.49088562093801
 21
16.57626599148041
 31
0.0
  0
LINE
  5
99
330
1F
100
AcDbEntity
  8
DEFAULT
100
AcDbLine
 10
77.54700281392994
 20
16.50419670570005
 30
0.0
 11
62.86142864898075
 21
15.98394031370927
 31
0.0
  0
ARC
  5
9A
330
1F
100
AcDbEntity
  8
DEFAULT
100
AcDbCircle
 10
73.72226760149016
 20
124.4671808963588
 30
0.0
 40
108.0307111649169
100
AcDbArc
 50
272.0289322310228
 51
272.8952512857887
  0
LINE
  5
9B
330
1F
100
AcDbEntity
  8
DEFAULT
100
AcDbLine
 10
79.06217500184633
 20
12.80609957049581
 30
0.0
 11
79.17891668481113
 21
16.57436586412786
 31
0.0
  0
LINE
  5
9C
330
1F
100
AcDbEntity
  8
DEFAULT
100
AcDbLine
 10
63.60277984108764
 20
12.25877502558206
 30
0.0
 11
79.06217500184633
 21
12.80609957049581
 31
0.0
  0
SPLINE
  5
9D
330
1F
100
AcDbEntity
  8
DEFAULT
100
AcDbSpline
210
0.0
220
0.0
230
1.0
 70
    24
 71
     2
 72
     6
 73
     3
 74
     0
 42
0.0000000001
 43
0.0000000001
 40
0.0
 40
0.0
 40
0.0
 40
0.1229126297145663
 40
0.1229126297145663
 40
0.1229126297145663
 10
69.70443389905869
 20
12.35180882869306
 30
0.0
 10
69.70209637440207
 20
12.41322067294412
 30
0.0
 10
69.69975884974546
 20
12.47463251719519
 30
0.0
  0
SPLINE
  5
9E
330
1F
100
AcDbEntity
  8
DEFAULT
100
AcDbSpline
210
0.0
220
0.0
230
1.0
 70
    24
 71
     2
 72
     6
 73
     3
 74
     0
 42
0.0000000001
 43
0.0000000001
 40
-3.079544120408699
 40
-3.079544120408699
 40
-3.079544120408699
 40
0.0
 40
0.0
 40
0.0
 10
72.78388081897869
 20
12.32734136174025
 30
0.0
 10
71.24415735901869
 20
12.33957509521665
 30
0.0
 10
69.70443389905869
 20
12.35180882869306
 30
0.0
  0
SPLINE
  5
9F
330
1F
100
AcDbEntity
  8
DEFAULT
100
AcDbSpline
210
0.0
220
0.0
230
1.0
 70
    12
 71
     3
 72
    10
 73
     6
 74
     0
 42
0.0000000001
 43
0.0000000001
 40
-1.365734546670907
 40
-1.365734546670907
 40
-1.365734546670907
 40
-1.365734546670907
 40
-0.9104896977806043
 40
-0.4552448488903021
 40
0.0
 40
0.0
 40
0.0
 40
0.0
 10
72.93792879324069
 20
11.8093140077567
 30
0.0
 41
1.0
 10
72.92612426250382
 20
11.90488412655391
 30
0.0
 41
1.0
 10
72.89920477925877
 20
12.07829791798114
 30
0.0
 41
1.0
 10
72.84975059468279
 20
12.26776867620241
 30
0.0
 41
1.0
 10
72.80723158753658
 20
12.32715583032085
 30
0.0
 41
1.0
 10
72.78388081897869
 20
12.32734136174025
 30
0.0
 41
1.0
  0
SPLINE
  5
A0
330
1F
100
AcDbEntity
  8
DEFAULT
100
AcDbSpline
210
0.0
220
0.0
230
1.0
 70
    24
 71
     2
 72
     6
 73
     3
 74
     0
 42
0.0000000001
 43
0.0000000001
 40
0.0
 40
0.0
 40
0.0
 40
10.6395344800855
 40
10.6395344800855
 40
10.6395344800855
 10
74.24218031269739
 20
1.250023220638321
 30
0.0
 10
73.59005455296904
 20
6.529668614197512
 30
0.0
 10
72.93792879324069
 20
11.8093140077567
 30
0.0
  0
SPLINE
  5
A1
330
1F
100
AcDbEntity
  8
DEFAULT
100
AcDbSpline
210
0.0
220
0.0
230
1.0
 70
    12
 71
     2
 72
     6
 73
     3
 74
     0
 42
0.0000000001
 43
0.0000000001
 40
0.0
 40
0.0
 40
0.0
 40
0.2590616203207258
 40
0.2590616203207258
 40
0.2590616203207258
 10
61.53092663832403
 20
1.191414329909109
 30
0.0
 41
1.0
 10
61.49963601213677
 20
1.250023220640434
 30
0.0
 41
0.9479032082388155
 10
61.46470589150834
 20
1.250023220640434
 30
0.0
 41
0.9479032082388155
  0
SPLINE
  5
A2
330
1F
100
AcDbEntity
  8
DEFAULT
100
AcDbSpline
210
0.0
220
0.0
230
1.0
 70
    24
 71
     2
 72
     6
 73
     3
 74
     0
 42
0.0000000001
 43
0.0000000001
 40
0.0
 40
0.0
 40
0.0
 40
13.31766439353216
 40
13.31766439353216
 40
13.31766439353216
 10
75.81287146373465
 20
1.250032160466586
 30
0.0
 10
69.15403933223875
 20
1.25002769055295
 30
0.0
 10
62.49520720074285
 20
1.250023220639313
 30
0.0
  0
SPLINE
  5
A3
330
1F
100
AcDbEntity
  8
DEFAULT
100
AcDbSpline
210
0.0
220
0.0
230
1.0
 70
    12
 71
     3
 72
    12
 73
     8
 74
     0
 42
0.0000000001
 43
0.0000000001
 40
0.881898952060679
 40
0.881898952060679
 40
0.881898952060679
 40
0.881898952060679
 40
1.352336845815283
 40
1.352336845815283
 40
2.028586412644105
 40
2.028586412644105
 40
2.651549550078564
 40
2.651549550078564
 40
2.651549550078564
 40
2.651549550078564
 10
75.81288222292467
 20
0.125011620495448
 30
0.0
 41
1.0
 10
75.85409352002544
 20
0.1250418915952043
 30
0.0
 41
1.0
 10
75.89440237150292
 20
0.1896884646745839
 30
0.0
 41
1.0
 10
75.96459010945885
 20
0.4815663376640882
 30
0.0
 41
1.0
 10
75.9736703747164
 20
0.7321275590834708
 30
0.0
 41
1.0
 10
75.92058163474385
 20
1.131300595254747
 30
0.0
 41
1.0
 10
75.8687996392249
 20
1.250138612112081
 30
0.0
 41
1.0
 10
75.81287146373465
 20
1.250032160466586
 30
0.0
 41
1.0
  0
SPLINE
  5
A4
330
1F
100
AcDbEntity
  8
DEFAULT
100
AcDbSpline
210
0.0
220
0.0
230
1.0
 70
    24
 71
     2
 72
     6
 73
     3
 74
     0
 42
0.0000000001
 43
0.0000000001
 40
0.0
 40
0.0
 40
0.0
 40
0.4741494067238392
 40
0.4741494067238392
 40
0.4741494067238392
 10
45.30652267717524
 20
0.1250232206404336
 30
0.0
 10
60.55970245004995
 20
0.1250174205679408
 30
0.0
 10
75.81288222292467
 20
0.125011620495448
 30
0.0
  0
ARC
  5
A5
330
1F
100
AcDbEntity
  8
DEFAULT
100
AcDbCircle
 10
45.30652267717524
 20
0.6875232206404296
 30
0.0
 40
0.562499999999996
100
AcDbArc
 50
90.0
 51
270.0000000000014
  0
SPLINE
  5
A6
330
1F
100
AcDbEntity
  8
DEFAULT
100
AcDbSpline
210
0.0
220
0.0
230
1.0
 70
    24
 71
     2
 72
     6
 73
     3
 74
     0
 42
0.0000000001
 43
0.0000000001
 40
0.0
 40
0.0
 40
0.0
 40
2.85832638867052
 40
2.85832638867052
 40
2.85832638867052
 10
61.46470589150924
 20
1.2500232206394
 30
0.0
 10
53.38561428434224
 20
1.250023220639913
 30
0.0
 10
45.30652267717524
 20
1.250023220640426
 30
0.0
  0
SPLINE
  5
A7
330
1F
100
AcDbEntity
  8
DEFAULT
100
AcDbSpline
210
0.0
220
0.0
230
1.0
 70
    28
 71
     2
 72
    12
 73
     9
 74
     0
 42
0.0000000001
 43
0.0000000001
 40
0.098174770424681
 40
0.098174770424681
 40
0.098174770424681
 40
0.3926990816987241
 40
0.3926990816987241
 40
0.7853981633974483
 40
0.7853981633974483
 40
1.785398163396786
 40
1.785398163396786
 40
1.883572933821467
 40
1.883572933821467
 40
1.883572933821467
 10
55.32331099498803
 20
0.0000000000000005
 30
0.0
 41
0.8901650429449554
 10
55.33702115433713
 20
0.0000000000000006
 30
0.0
 41
0.7803300858899107
 10
55.18460662614662
 20
0.0000000000000004
 30
0.0
 41
1.0
 10
54.96034320033284
 20
0.0000000000000006
 30
0.0
 41
0.7071067811865476
 10
54.84986281364677
 20
0.0000000000000004
 30
0.0
 41
1.0
 10
54.62890204027501
 20
0.0000000000000004
 30
0.0
 41
1.0
 10
54.40794126690325
 20
0.0000000000000004
 30
0.0
 41
1.0
 10
54.38686784355052
 20
0.0000000000000005
 30
0.0
 41
0.9267766952966369
 10
54.38301993718978
 20
0.0000000000000005
 30
0.0
 41
0.8901650429449552
  0
SPLINE
  5
A8
330
1F
100
AcDbEntity
  8
DEFAULT
100
AcDbSpline
210
0.0
220
0.0
230
1.0
 70
    24
 71
     2
 72
     6
 73
     3
 74
     0
 42
0.0000000001
 43
0.0000000001
 40
0.0
 40
0.0
 40
0.0
 40
0.125
 40
0.125
 40
0.125
 10
54.38220469271702
 20
0.1250000000000004
 30
0.0
 10
54.38220469271702
 20
0.0625000000000004
 30
0.0
 10
54.38220469271702
 20
0.0000000000000004
 30
0.0
  0
SPLINE
  5
A9
330
1F
100
AcDbEntity
  8
DEFAULT
100
AcDbSpline
210
0.0
220
0.0
230
1.0
 70
    24
 71
     2
 72
     6
 73
     3
 74
     0
 42
0.0000000001
 43
0.0000000001
 40
0.0
 40
0.0
 40
0.0
 40
0.5581088907313285
 40
0.5581088907313285
 40
0.5581088907313285
 10
61.53092663832403
 20
1.191414329909109
 30
0.0
 10
61.53092663832405
 20
1.470468775274774
 30
0.0
 10
61.53092663832406
 20
1.749523220640438
 30
0.0
  0
SPLINE
  5
AA
330
1F
100
AcDbEntity
  8
DEFAULT
100
AcDbSpline
210
0.0
220
0.0
230
1.0
 70
    24
 71
     2
 72
     6
 73
     3
 74
     0
 42
0.0000000001
 43
0.0000000001
 40
-10.79922068646632
 40
-10.79922068646632
 40
-10.79922068646632
 40
0.0
 40
0.0
 40
0.0
 10
73.0279533609931
 20
11.96779585590738
 30
0.0
 10
73.68986671893347
 20
6.608909538272847
 30
0.0
 10
74.35178007687385
 20
1.250023220638313
 30
0.0
  0
SPLINE
  5
AB
330
1F
100
AcDbEntity
  8
DEFAULT
100
AcDbSpline
210
0.0
220
0.0
230
1.0
 70
    12
 71
     3
 72
     9
 73
     5
 74
     0
 42
0.0000000001
 43
0.0000000001
 40
0.4756288287750752
 40
0.4756288287750752
 40
0.4756288287750752
 40
0.4756288287750752
 40
0.9104896977806043
 40
1.365734546670907
 40
1.365734546670907
 40
1.365734546670907
 40
1.365734546670907
 10
72.87559400969583
 20
12.58706980957059
 30
0.0
 41
1.0
 10
72.90632479839867
 20
12.52312142658523
 30
0.0
 41
1.0
 10
72.96479868137475
 20
12.34834099718928
 30
0.0
 41
1.0
 10
73.01094076173065
 20
12.10553077894706
 30
0.0
 41
1.0
 10
73.0279533609931
 20
11.96779585590738
 30
0.0
 41
1.0
  0
SPLINE
  5
AC
330
1F
100
AcDbEntity
  8
DEFAULT
100
AcDbSpline
210
0.0
220
0.0
230
1.0
 70
    24
 71
     2
 72
     6
 73
     3
 74
     0
 42
0.0000000001
 43
0.0000000001
 40
0.0
 40
0.0
 40
0.0
 40
0.5581088907313285
 40
0.5581088907313285
 40
0.5581088907313285
 10
62.49520720074285
 20
1.191414329909109
 30
0.0
 10
62.49520720074285
 20
1.470468775274774
 30
0.0
 10
62.49520720074285
 20
1.749523220640438
 30
0.0
  0
SPLINE
  5
AD
330
1F
100
AcDbEntity
  8
DEFAULT
100
AcDbSpline
210
0.0
220
0.0
230
1.0
 70
     8
 71
     3
 72
    14
 73
    10
 74
     0
 42
0.0000000001
 43
0.0000000001
 40
0.0
 40
0.0
 40
0.0
 40
0.0
 40
1.0
 40
2.0
 40
3.0
 40
4.0
 40
5.0
 40
6.0
 40
7.0
 40
7.0
 40
7.0
 40
7.0
 10
79.1773604297297
 20
16.57564640522468
 30
0.0
 10
78.48181806999682
 20
16.97151818493706
 30
0.0
 10
76.92002745419236
 20
17.36138796727566
 30
0.0
 10
74.53415527410071
 20
17.47373079650625
 30
0.0
 10
72.14795218397383
 20
17.44831533791456
 30
0.0
 10
69.76180096617095
 20
17.46127867555683
 30
0.0
 10
67.37569010205867
 20
17.4363929016506
 30
0.0
 10
64.99030512983386
 20
17.37293441733527
 30
0.0
 10
63.40093284452665
 20
17.30506097114951
 30
0.0
 10
62.60657177416014
 20
17.26472199431712
 30
0.0
  0
SPLINE
  5
AE
330
1F
100
AcDbEntity
  8
DEFAULT
100
AcDbSpline
210
0.0
220
0.0
230
1.0
 70
    24
 71
     2
 72
     6
 73
     3
 74
     0
 42
0.0000000001
 43
0.0000000001
 40
0.0
 40
0.0
 40
0.0
 40
0.9642805624188071
 40
0.9642805624188071
 40
0.9642805624188071
 10
62.49520720074285
 20
1.191414329909109
 30
0.0
 10
62.01306691953344
 20
1.191414329909109
 30
0.0
 10
61.53092663832403
 20
1.191414329909109
 30
0.0
  0
SPLINE
  5
AF
330
1F
100
AcDbEntity
  8
DEFAULT
100
AcDbSpline
210
0.0
220
0.0
230
1.0
 70
    24
 71
     2
 72
     6
 73
     3
 74
     0
 42
0.0000000001
 43
0.0000000001
 40
-11.75142257772862
 40
-11.75142257772862
 40
-11.75142257772862
 40
0.0
 40
0.0
 40
0.0
 10
14.56762756802965
 20
11.96779585590738
 30
0.0
 10
16.97725836646262
 20
6.608909538272838
 30
0.0
 10
19.38688916489559
 20
1.250023220638294
 30
0.0
  0
SPLINE
  5
B0
330
1F
100
AcDbEntity
  8
DEFAULT
100
AcDbSpline
210
0.0
220
0.0
230
1.0
 70
    12
 71
     3
 72
    10
 73
     6
 74
     0
 42
0.0000000001
 43
0.0000000001
 40
0.136164359695376
 40
0.136164359695376
 40
0.136164359695376
 40
0.136164359695376
 40
0.4552448487140268
 40
0.9104896976924667
 40
1.365734546670907
 40
1.365734546670907
 40
1.365734546670907
 40
1.365734546670907
 10
13.64469998598882
 20
12.69134901891729
 30
0.0
 41
1.0
 10
13.74747274896496
 20
12.67512399111955
 30
0.0
 41
1.0
 10
13.99228931730322
 20
12.59318681880629
 30
0.0
 41
1.0
 10
14.32309504790135
 20
12.35390150366054
 30
0.0
 41
1.0
 10
14.50569486542983
 20
12.10553077894706
 30
0.0
 41
1.0
 10
14.56762756802965
 20
11.96779585590738
 30
0.0
 41
1.0
  0
SPLINE
  5
B1
330
1F
100
AcDbEntity
  8
DEFAULT
100
AcDbSpline
210
0.0
220
0.0
230
1.0
 70
    12
 71
     2
 72
     6
 73
     3
 74
     0
 42
0.0000000001
 43
0.0000000001
 40
0.0
 40
0.0
 40
0.0
 40
0.363901612670106
 40
0.363901612670106
 40
0.363901612670106
 10
13.28532253753821
 20
12.74855192151674
 30
0.0
 41
1.0
 10
13.46497763548736
 20
12.71973921301192
 30
0.0
 41
0.9999993088839729
 10
13.64469998598882
 20
12.69134901891729
 30
0.0
 41
0.9999999999999991
  0
ARC
  5
B2
330
1F
100
AcDbEntity
  8
DEFAULT
100
AcDbCircle
 10
-26.96957401450224
 20
23.7352075557133
 30
0.0
 40
11.46322878285488
100
AcDbArc
 50
265.8403519588171
 51
269.9999999999999
  0
LINE
  5
B3
330
1F
100
AcDbEntity
  8
DEFAULT
100
AcDbLine
 10
-14.36805820992731
 20
12.27197877285842
 30
0.0
 11
-26.96957401450226
 21
12.27197877285842
 31
0.0
  0
SPLINE
  5
B4
330
1F
100
AcDbEntity
  8
DEFAULT
100
AcDbSpline
210
0.0
220
0.0
230
1.0
 70
    24
 71
     2
 72
     6
 73
     3
 74
     0
 42
0.0000000001
 43
0.0000000001
 40
0.0
 40
0.0
 40
0.0
 40
13.38880854944149
 40
13.38880854944149
 40
13.38880854944149
 10
0.0
 20
12.35180882869306
 30
0.0
 10
-6.694393294002268
 20
12.33968368590456
 30
0.0
 10
-13.38878658800454
 20
12.32755854311606
 30
0.0
  0
SPLINE
  5
B5
330
1F
100
AcDbEntity
  8
DEFAULT
100
AcDbSpline
210
0.0
220
0.0
230
1.0
 70
    24
 71
     2
 72
     6
 73
     3
 74
     0
 42
0.0000000001
 43
0.0000000001
 40
-13.38880854944149
 40
-13.38880854944149
 40
-13.38880854944149
 40
0.0
 40
0.0
 40
0.0
 10
13.38878658800454
 20
12.32755854311606
 30
0.0
 10
6.694393294002268
 20
12.33968368590456
 30
0.0
 10
0.0
 20
12.35180882869306
 30
0.0
  0
POLYLINE
  5
B6
330
1F
100
AcDbEntity
  8
DEFAULT
100
AcDb2dPolyline
 66
     1
 10
0.0
 20
0.0
 30
0.0
  0
VERTEX
  5
B7
330
B6
100
AcDbEntity
  8
DEFAULT
100
AcDbVertex
100
AcDb2dVertex
 10
13.48123892184466
 20
12.27197877285842
 30
0.0
  0
VERTEX
  5
B8
330
B6
100
AcDbEntity
  8
DEFAULT
100
AcDbVertex
100
AcDb2dVertex
 10
-13.48123892170403
 20
12.27197877285842
 30
0.0
  0
SEQEND
  5
B9
330
B6
100
AcDbEntity
  8
DEFAULT
  0
ARC
  5
BA
330
1F
100
AcDbEntity
  8
DEFAULT
100
AcDbCircle
 10
27.72221175629354
 20
12.05583825041277
 30
0.0
 40
0.2586507667246848
100
AcDbArc
 50
72.24923337461254
 51
82.60950856426389
  0
LINE
  5
BB
330
1F
100
AcDbEntity
  8
DEFAULT
100
AcDbLine
 10
24.25073627712482
 20
12.76693588047291
 30
0.0
 11
27.75548226856952
 21
12.31234028186703
 31
0.0
  0
SPLINE
  5
BC
330
1F
100
AcDbEntity
  8
DEFAULT
100
AcDbSpline
210
0.0
220
0.0
230
1.0
 70
     8
 71
     3
 72
    11
 73
     7
 74
     0
 42
0.0000000001
 43
0.0000000001
 40
-1.920820597310594
 40
-1.920820597310594
 40
-1.920820597310594
 40
-1.920820597310594
 40
-0.7398656314955085
 40
-0.276261139829204
 40
-0.1092875901663001
 40
0.0
 40
0.0
 40
0.0
 40
0.0
 10
22.33122282911253
 20
12.8210733679782
 30
0.0
 10
22.72487206818236
 20
12.82081896876393
 30
0.0
 10
23.27306824885402
 20
12.81413236835064
 30
0.0
 10
23.87658687884695
 20
12.7935064012836
 30
0.0
 10
24.12282039853
 20
12.77934663406664
 30
0.0
 10
24.2145829783047
 20
12.77145888778624
 30
0.0
 10
24.25073627712482
 20
12.76693588047291
 30
0.0
  0
POLYLINE
  5
BD
330
1F
100
AcDbEntity
  8
DEFAULT
100
AcDb2dPolyline
 66
     1
 10
0.0
 20
0.0
 30
0.0
  0
VERTEX
  5
BE
330
BD
100
AcDbEntity
  8
DEFAULT
100
AcDbVertex
100
AcDb2dVertex
 10
-22.33122282911253
 20
12.8210733679782
 30
0.0
  0
VERTEX
  5
BF
330
BD
100
AcDbEntity
  8
DEFAULT
100
AcDbVertex
100
AcDb2dVertex
 10
22.33122282911253
 20
12.8210733679782
 30
0.0
  0
SEQEND
  5
C0
330
BD
100
AcDbEntity
  8
DEFAULT
  0
SPLINE
  5
C1
330
1F
100
AcDbEntity
  8
DEFAULT
100
AcDbSpline
210
0.0
220
0.0
230
1.0
 70
     8
 71
     3
 72
    11
 73
     7
 74
     0
 42
0.0000000001
 43
0.0000000001
 40
0.0
 40
0.0
 40
0.0
 40
0.0
 40
0.1092875901663001
 40
0.276261139829204
 40
0.7398656314955085
 40
1.920820597310594
 40
1.920820597310594
 40
1.920820597310594
 40
1.920820597310594
 10
-24.25073627712482
 20
12.76693588047291
 30
0.0
 10
-24.2145829783047
 20
12.77145888778624
 30
0.0
 10
-24.12282039853
 20
12.77934663406664
 30
0.0
 10
-23.87658687884695
 20
12.7935064012836
 30
0.0
 10
-23.27306824885402
 20
12.81413236835064
 30
0.0
 10
-22.72487206818236
 20
12.82081896876393
 30
0.0
 10
-22.33122282911253
 20
12.8210733679782
 30
0.0
  0
LINE
  5
C2
330
1F
100
AcDbEntity
  8
DEFAULT
100
AcDbLine
 10
-27.75548226856952
 20
12.31234028186703
 30
0.0
 11
-24.25073627712482
 21
12.76693588047291
 31
0.0
  0
ARC
  5
C3
330
1F
100
AcDbEntity
  8
DEFAULT
100
AcDbCircle
 10
-27.72221175629354
 20
12.05583825041277
 30
0.0
 40
0.2586507667246848
100
AcDbArc
 50
97.39049143573612
 51
107.7507666253875
  0
SPLINE
  5
C4
330
1F
100
AcDbEntity
  8
DEFAULT
100
AcDbSpline
210
0.0
220
0.0
230
1.0
 70
    24
 71
     2
 72
     6
 73
     3
 74
     0
 42
0.0000000001
 43
0.0000000001
 40
0.0
 40
0.0
 40
0.0
 40
0.5581088907313285
 40
0.5581088907313285
 40
0.5581088907313285
 10
22.96055773640848
 20
1.191414329909109
 30
0.0
 10
22.96055773640848
 20
1.470468775274774
 30
0.0
 10
22.96055773640848
 20
1.749523220640438
 30
0.0
  0
SPLINE
  5
C5
330
1F
100
AcDbEntity
  8
DEFAULT
100
AcDbSpline
210
0.0
220
0.0
230
1.0
 70
    24
 71
     2
 72
     6
 73
     3
 74
     0
 42
0.0000000001
 43
0.0000000001
 40
0.0
 40
0.0
 40
0.0
 40
3.645750219072646
 40
3.645750219072646
 40
3.645750219072646
 10
19.07373737673407
 20
1.250023220638198
 30
0.0
 10
20.8966124862704
 20
1.250023220638758
 30
0.0
 10
22.71948759580673
 20
1.250023220639319
 30
0.0
  0
SPLINE
  5
C6
330
1F
100
AcDbEntity
  8
DEFAULT
100
AcDbSpline
210
0.0
220
0.0
230
1.0
 70
    24
 71
     2
 72
     6
 73
     3
 74
     0
 42
0.0000000001
 43
0.0000000001
 40
0.0
 40
0.0
 40
0.0
 40
0.0080251520404246
 40
0.0080251520404246
 40
0.0080251520404246
 10
19.7474905843122
 20
0.1250000000000004
 30
0.0
 10
19.75150316033242
 20
0.1250000000000004
 30
0.0
 10
19.75551573635263
 20
0.1250000000000004
 30
0.0
  0
POLYLINE
  5
C7
330
1F
100
AcDbEntity
  8
DEFAULT
100
AcDb2dPolyline
 66
     1
 10
0.0
 20
0.0
 30
0.0
  0
VERTEX
  5
C8
330
C7
100
AcDbEntity
  8
DEFAULT
100
AcDbVertex
100
AcDb2dVertex
 10
-18.36597659924459
 20
1.749523220640216
 30
0.0
  0
VERTEX
  5
C9
330
C7
100
AcDbEntity
  8
DEFAULT
100
AcDbVertex
100
AcDb2dVertex
 10
18.36597659924459
 20
1.749523220640216
 30
0.0
  0
SEQEND
  5
CA
330
C7
100
AcDbEntity
  8
DEFAULT
  0
POLYLINE
  5
CB
330
1F
100
AcDbEntity
  8
DEFAULT
100
AcDb2dPolyline
 66
     1
 10
0.0
 20
0.0
 30
0.0
  0
VERTEX
  5
CC
330
CB
100
AcDbEntity
  8
DEFAULT
100
AcDbVertex
100
AcDb2dVertex
 10
0.0015269049569753
 20
66.79991696449284
 30
0.0
  0
VERTEX
  5
CD
330
CB
100
AcDbEntity
  8
DEFAULT
100
AcDbVertex
100
AcDb2dVertex
 10
0.0013125983829536
 20
85.29080247539622
 30
0.0
  0
SEQEND
  5
CE
330
CB
100
AcDbEntity
  8
DEFAULT
  0
SPLINE
  5
CF
330
1F
100
AcDbEntity
  8
DEFAULT
100
AcDbSpline
210
0.0
220
0.0
230
1.0
 70
     8
 71
     3
 72
    14
 73
    10
 74
     0
 42
0.0000000001
 43
0.0000000001
 40
0.0
 40
0.0
 40
0.0
 40
0.0
 40
1.000000000035037
 40
2.000000000070074
 40
3.000000000105111
 40
4.000000000140148
 40
5.000000000175186
 40
6.000000000210223
 40
7.0
 40
7.0
 40
7.0
 40
7.0
 10
-27.98553812210241
 20
74.98175693937071
 30
0.0
 10
-28.00223874769281
 20
75.04865052913252
 30
0.0
 10
-28.03250677709465
 20
75.18353334453099
 30
0.0
 10
-28.04762340977669
 20
75.39060004201104
 30
0.0
 10
-28.02489885497852
 20
75.59712382027067
 30
0.0
 10
-27.97042974626675
 20
75.79739022304878
 30
0.0
 10
-27.88378125198682
 20
75.98613253933433
 30
0.0
 10
-27.76742363644749
 20
76.15809810174247
 30
0.0
 10
-27.67200255609384
 20
76.2583980454695
 30
0.0
 10
-27.62049213269484
 20
76.30427580700132
 30
0.0
  0
SPLINE
  5
D0
330
1F
100
AcDbEntity
  8
DEFAULT
100
AcDbSpline
210
0.0
220
0.0
230
1.0
 70
    24
 71
     2
 72
     6
 73
     3
 74
     0
 42
0.0000000001
 43
0.0000000001
 40
0.0
 40
0.0
 40
0.0
 40
10.28863889967411
 40
10.28863889967411
 40
10.28863889967411
 10
-24.1960809707154
 20
61.12396355365662
 30
0.0
 10
-26.09080954640891
 20
68.05286024651366
 30
0.0
 10
-27.98553812210241
 20
74.98175693937071
 30
0.0
  0
SPLINE
  5
D1
330
1F
100
AcDbEntity
  8
DEFAULT
100
AcDbSpline
210
0.0
220
0.0
230
1.0
 70
     8
 71
     3
 72
    14
 73
    10
 74
     0
 42
0.0000000001
 43
0.0000000001
 40
0.0
 40
0.0
 40
0.0
 40
0.0
 40
1.0
 40
2.0
 40
3.0
 40
4.0
 40
5.0
 40
6.0
 40
7.0
 40
7.0
 40
7.0
 40
7.0
 10
-22.39061200209358
 20
60.2374938282653
 30
0.0
 10
-22.49023554496677
 20
60.20441360865124
 30
0.0
 10
-22.69944334014943
 20
60.17196875119239
 30
0.0
 10
-23.01595505236733
 20
60.18318127247068
 30
0.0
 10
-23.32291147723302
 20
60.26105100385805
 30
0.0
 10
-23.60710751189427
 20
60.40065267917423
 30
0.0
 10
-23.8560965496896
 20
60.59633822203954
 30
0.0
 10
-24.05860292127238
 20
60.83979466075705
 30
0.0
 10
-24.16838888311307
 20
61.02269542656573
 30
0.0
 10
-24.1960809707154
 20
61.12396355365662
 30
0.0
  0
SPLINE
  5
D2
330
1F
100
AcDbEntity
  8
DEFAULT
100
AcDbSpline
210
0.0
220
0.0
230
1.0
 70
    24
 71
     2
 72
     6
 73
     3
 74
     0
 42
0.0000000001
 43
0.0000000001
 40
0.0
 40
0.0
 40
0.0
 40
17.77837376646288
 40
17.77837376646288
 40
17.77837376646288
 10
-5.121955121540168
 20
65.97158835722897
 30
0.0
 10
-13.75628356181687
 20
63.10454109274713
 30
0.0
 10
-22.39061200209358
 20
60.2374938282653
 30
0.0
  0
SPLINE
  5
D3
330
1F
100
AcDbEntity
  8
DEFAULT
100
AcDbSpline
210
0.0
220
0.0
230
1.0
 70
     8
 71
     3
 72
    14
 73
    10
 74
     0
 42
0.0000000001
 43
0.0000000001
 40
0.0
 40
0.0
 40
0.0
 40
0.0
 40
1.068449091607617
 40
2.136602432276738
 40
4.273265908943098
 40
8.550553853030669
 40
9.521901235368274
 40
9.971089478218564
 40
10.42158048974524
 40
10.42158048974524
 40
10.42158048974524
 40
10.42158048974524
 10
5.121959653051476
 20
65.97158835722897
 30
0.0
 10
4.783835568848133
 20
66.08348095728635
 30
0.0
 10
4.100754292228658
 20
66.28633788208421
 30
0.0
 10
2.71044684585695
 20
66.59983139358641
 30
0.0
 10
0.2300899943284094
 20
66.90809708761103
 30
0.0
 10
-2.246289995968965
 20
66.72513685929084
 30
0.0
 10
-4.093890509783193
 20
66.2811863931149
 30
0.0
 10
-4.693604407503386
 20
66.10983626480726
 30
0.0
 10
-4.979164933435442
 20
66.01811106095687
 30
0.0
 10
-5.121955121540168
 20
65.97158835722897
 30
0.0
  0
SPLINE
  5
D4
330
1F
100
AcDbEntity
  8
DEFAULT
100
AcDbSpline
210
0.0
220
0.0
230
1.0
 70
    24
 71
     2
 72
     6
 73
     3
 74
     0
 42
0.0000000001
 43
0.0000000001
 40
-17.77837376646288
 40
-17.77837376646288
 40
-17.77837376646288
 40
0.0
 40
0.0
 40
0.0
 10
22.39061200209358
 20
60.2374938282653
 30
0.0
 10
13.75628582757253
 20
63.10454109274713
 30
0.0
 10
5.121959653051476
 20
65.97158835722897
 30
0.0
  0
SPLINE
  5
D5
330
1F
100
AcDbEntity
  8
DEFAULT
100
AcDbSpline
210
0.0
220
0.0
230
1.0
 70
     8
 71
     3
 72
    14
 73
    10
 74
     0
 42
0.0000000001
 43
0.0000000001
 40
-7.0
 40
-7.0
 40
-7.0
 40
-7.0
 40
-6.0
 40
-5.0
 40
-4.0
 40
-3.0
 40
-2.0
 40
-1.0
 40
0.0
 40
0.0
 40
0.0
 40
0.0
 10
24.1960809707154
 20
61.12396355365662
 30
0.0
 10
24.16838888311307
 20
61.02269542656573
 30
0.0
 10
24.05860292127238
 20
60.83979466075705
 30
0.0
 10
23.8560965496896
 20
60.59633822203954
 30
0.0
 10
23.60710751189427
 20
60.40065267917423
 30
0.0
 10
23.32291147723302
 20
60.26105100385805
 30
0.0
 10
23.01595505236733
 20
60.18318127247068
 30
0.0
 10
22.69944334014943
 20
60.17196875119239
 30
0.0
 10
22.49023554496677
 20
60.20441360865124
 30
0.0
 10
22.39061200209358
 20
60.2374938282653
 30
0.0
  0
SPLINE
  5
D6
330
1F
100
AcDbEntity
  8
DEFAULT
100
AcDbSpline
210
0.0
220
0.0
230
1.0
 70
    24
 71
     2
 72
     6
 73
     3
 74
     0
 42
0.0000000001
 43
0.0000000001
 40
-10.28863889967411
 40
-10.28863889967411
 40
-10.28863889967411
 40
0.0
 40
0.0
 40
0.0
 10
27.98553812210241
 20
74.98175693937071
 30
0.0
 10
26.09080954640891
 20
68.05286024651366
 30
0.0
 10
24.1960809707154
 20
61.12396355365662
 30
0.0
  0
SPLINE
  5
D7
330
1F
100
AcDbEntity
  8
DEFAULT
100
AcDbSpline
210
0.0
220
0.0
230
1.0
 70
     8
 71
     3
 72
    14
 73
    10
 74
     0
 42
0.0000000001
 43
0.0000000001
 40
-7.0
 40
-7.0
 40
-7.0
 40
-7.0
 40
-6.000000000210223
 40
-5.000000000175186
 40
-4.000000000140148
 40
-3.000000000105111
 40
-2.000000000070074
 40
-1.000000000035037
 40
0.0
 40
0.0
 40
0.0
 40
0.0
 10
27.62049213269484
 20
76.30427580700132
 30
0.0
 10
27.67200255609384
 20
76.2583980454695
 30
0.0
 10
27.76742363644749
 20
76.15809810174247
 30
0.0
 10
27.88378125198682
 20
75.98613253933433
 30
0.0
 10
27.97042974626675
 20
75.79739022304878
 30
0.0
 10
28.02489885497852
 20
75.59712382027067
 30
0.0
 10
28.04762340977669
 20
75.39060004201104
 30
0.0
 10
28.03250677709465
 20
75.18353334453099
 30
0.0
 10
28.00223874769281
 20
75.04865052913252
 30
0.0
 10
27.98553812210241
 20
74.98175693937071
 30
0.0
  0
SPLINE
  5
D8
330
1F
100
AcDbEntity
  8
DEFAULT
100
AcDbSpline
210
0.0
220
0.0
230
1.0
 70
     8
 71
     3
 72
    17
 73
    13
 74
     0
 42
0.0000000001
 43
0.0000000001
 40
0.0
 40
0.0
 40
0.0
 40
0.0
 40
0.9659880006727235
 40
2.115175632368876
 40
22.12597510020669
 40
22.40185129323872
 40
22.67813154445584
 40
22.84394313551857
 40
23.23073854313721
 40
23.47986555728095
 40
23.67348078600302
 40
23.97467773015215
 40
23.97467773015215
 40
23.97467773015215
 40
23.97467773015215
 10
5.049029074138986
 20
84.35561678284435
 30
0.0
 10
5.353031865459258
 20
84.2494812818054
 30
0.0
 10
6.017344994212067
 20
84.01326490508248
 30
0.0
 10
12.9736476416565
 20
81.56269981683764
 30
0.0
 10
19.71273850465246
 20
79.1878746573457
 30
0.0
 10
26.17760233739008
 20
76.91032806931614
 30
0.0
 10
26.40284715305239
 20
76.82945769208652
 30
0.0
 10
26.66380158389157
 20
76.73863939600324
 30
0.0
 10
26.91777825303444
 20
76.6554512199749
 30
0.0
 10
27.17702314418926
 20
76.55896869977536
 30
0.0
 10
27.40351568888178
 20
76.45765611641778
 30
0.0
 10
27.54407276804841
 20
76.36962378504114
 30
0.0
 10
27.62049213269484
 20
76.30427580700132
 30
0.0
  0
ARC
  5
D9
330
1F
100
AcDbEntity
  8
DEFAULT
100
AcDbCircle
 10
0.0013125983829809
 20
71.20054526281027
 30
0.0
 40
14.09025721258595
100
AcDbArc
 50
69.00775331727039
 51
111.0030068393884
  0
SPLINE
  5
DA
330
1F
100
AcDbEntity
  8
DEFAULT
100
AcDbSpline
210
0.0
220
0.0
230
1.0
 70
     8
 71
     3
 72
    17
 73
    13
 74
     0
 42
0.0000000001
 43
0.0000000001
 40
-23.97467773015215
 40
-23.97467773015215
 40
-23.97467773015215
 40
-23.97467773015215
 40
-23.67347869512761
 40
-23.47986212235034
 40
-23.2307333787948
 40
-22.84393528608582
 40
-22.67812254397763
 40
-22.40184037485399
 40
-22.12596226672036
 40
-2.115023886156828
 40
-0.9658282769290168
 40
0.0
 40
0.0
 40
0.0
 40
0.0
 10
-27.62049213269484
 20
76.30427580700132
 30
0.0
 10
-27.54407276804841
 20
76.36962378504114
 30
0.0
 10
-27.40351568888178
 20
76.45765611641778
 30
0.0
 10
-27.17702314418926
 20
76.55896869977536
 30
0.0
 10
-26.91777825303444
 20
76.6554512199749
 30
0.0
 10
-26.66380158389157
 20
76.73863939600324
 30
0.0
 10
-26.40284715305239
 20
76.82945769208652
 30
0.0
 10
-26.17760233739008
 20
76.91032806931614
 30
0.0
 10
-19.71273850465246
 20
79.1878746573457
 30
0.0
 10
-12.9736476416565
 20
81.56269981683764
 30
0.0
 10
-6.0173973185095
 20
84.01324647228807
 30
0.0
 10
-5.353136405766142
 20
84.24944410939014
 30
0.0
 10
-5.048874312903709
 20
84.354668588897
 30
0.0
  0
SPLINE
  5
DB
330
1F
100
AcDbEntity
  8
DEFAULT
100
AcDbSpline
210
0.0
220
0.0
230
1.0
 70
     8
 71
     3
 72
    11
 73
     7
 74
     0
 42
0.0000000001
 43
0.0000000001
 40
-1.209750443852605
 40
-1.209750443852605
 40
-1.209750443852605
 40
-1.209750443852605
 40
-0.60148525551554
 40
-0.2936175306985081
 40
-0.1463043536875255
 40
-0.0000000000000001
 40
-0.0000000000000001
 40
-0.0000000000000001
 40
-0.0000000000000001
 10
29.79540908925671
 20
2.711221753243639
 30
0.0
 10
29.77680200467457
 20
2.509268231828873
 30
0.0
 10
29.60708071082269
 20
2.231123780417569
 30
0.0
 10
29.34638313691576
 20
1.986766335595509
 30
0.0
 10
29.17637729254811
 20
1.879696788043515
 30
0.0
 10
29.08738568043394
 20
1.838479572556464
 30
0.0
 10
29.04188163680871
 20
1.820932485116673
 30
0.0
  0
SPLINE
  5
DC
330
1F
100
AcDbEntity
  8
DEFAULT
100
AcDbSpline
210
0.0
220
0.0
230
1.0
 70
     8
 71
     3
 72
    12
 73
     8
 74
     0
 42
0.0000000001
 43
0.0000000001
 40
0.0
 40
0.0
 40
0.0
 40
0.0
 40
0.2207542989575683
 40
0.4460529494980088
 40
0.8864687798933937
 40
1.317588509892935
 40
1.740139954392424
 40
1.740139954392424
 40
1.740139954392424
 40
1.740139954392424
 10
30.71153719111066
 20
2.854388636602848
 30
0.0
 10
30.70478270917052
 20
2.781108428626021
 30
0.0
 10
30.6775956460437
 20
2.634333163690716
 30
0.0
 10
30.5725843243079
 20
2.356856446686644
 30
0.0
 10
30.35577768722918
 20
2.05560217579746
 30
0.0
 10
29.99204451979072
 20
1.81049107017408
 30
0.0
 10
29.70835139946942
 20
1.749384625149656
 30
0.0
 10
29.5674075632287
 20
1.749523220640433
 30
0.0
  0
LINE
  5
DD
330
1F
100
AcDbEntity
  8
DEFAULT
100
AcDbLine
 10
29.5674075632287
 20
1.749523220640433
 30
0.0
 11
19.16228828469756
 21
1.749523220640216
 31
0.0
  0
SPLINE
  5
DE
330
1F
100
AcDbEntity
  8
DEFAULT
100
AcDbSpline
210
0.0
220
0.0
230
1.0
 70
    24
 71
     2
 72
     6
 73
     3
 74
     0
 42
0.0000000001
 43
0.0000000001
 40
0.0
 40
0.0
 40
0.0
 40
30.90773516735305
 40
30.90773516735305
 40
30.90773516735305
 10
32.53832716517843
 20
32.48127067947877
 30
0.0
 10
31.16686812721757
 20
17.59624621636121
 30
0.0
 10
29.79540908925671
 20
2.711221753243639
 30
0.0
  0
SPLINE
  5
DF
330
1F
100
AcDbEntity
  8
DEFAULT
100
AcDbSpline
210
0.0
220
0.0
230
1.0
 70
    12
 71
     3
 72
    10
 73
     6
 74
     0
 42
0.0000000001
 43
0.0000000001
 40
0.0
 40
0.0
 40
0.0
 40
0.0
 40
1.472195154909486
 40
2.944390309818973
 40
4.41658546472846
 40
4.41658546472846
 40
4.41658546472846
 40
4.41658546472846
 10
32.56362363631814
 20
36.62147428678855
 30
0.0
 41
1.0
 10
32.59947668210896
 20
36.16030995920879
 30
0.0
 41
1.0
 10
32.64519516654707
 20
35.23600740691845
 30
0.0
 41
1.0
 10
32.63702884354961
 20
33.84893645966253
 30
0.0
 41
1.0
 10
32.57987589915075
 20
32.9331506388447
 30
0.0
 41
1.0
 10
32.53832716517843
 20
32.48127067947877
 30
0.0
 41
1.0
  0
SPLINE
  5
E0
330
1F
100
AcDbEntity
  8
DEFAULT
100
AcDbSpline
210
0.0
220
0.0
230
1.0
 70
    24
 71
     2
 72
     6
 73
     3
 74
     0
 42
0.0000000001
 43
0.0000000001
 40
0.0
 40
0.0
 40
0.0
 40
10.42769389460463
 40
10.42769389460463
 40
10.42769389460463
 10
31.75532926501802
 20
47.01779383597996
 30
0.0
 10
32.15947645066808
 20
41.81963406138426
 30
0.0
 10
32.56362363631814
 20
36.62147428678855
 30
0.0
  0
SPLINE
  5
E1
330
1F
100
AcDbEntity
  8
DEFAULT
100
AcDbSpline
210
0.0
220
0.0
230
1.0
 70
     8
 71
     3
 72
    12
 73
     8
 74
     0
 42
0.0000000001
 43
0.0000000001
 40
0.0
 40
0.0
 40
0.0
 40
0.0
 40
0.204352375961748
 40
0.4104662380716894
 40
0.8364792721999366
 40
1.271221987562163
 40
1.704427177525212
 40
1.704427177525212
 40
1.704427177525212
 40
1.704427177525212
 10
30.64671047471273
 20
48.10172595925771
 30
0.0
 10
30.71486616725855
 20
48.10176764638562
 30
0.0
 10
30.85157326683986
 20
48.08824714137686
 30
0.0
 10
31.12003991914111
 20
48.00768738165524
 30
0.0
 10
31.42161605376958
 20
47.80690192464364
 30
0.0
 10
31.67152776265482
 20
47.44634522147693
 30
0.0
 10
31.74415438184178
 20
47.16177096631258
 30
0.0
 10
31.75532926501802
 20
47.01779383597996
 30
0.0
  0
SPLINE
  5
E2
330
1F
100
AcDbEntity
  8
DEFAULT
100
AcDbSpline
210
0.0
220
0.0
230
1.0
 70
     8
 71
     3
 72
    12
 73
     8
 74
     0
 42
0.0000000001
 43
0.0000000001
 40
0.0
 40
0.0
 40
0.0
 40
0.0
 40
0.2207542989575683
 40
0.4460529494980088
 40
0.8864687798933937
 40
1.317588509892935
 40
1.740139954392424
 40
1.740139954392424
 40
1.740139954392424
 40
1.740139954392424
 10
-30.71153719111066
 20
2.854388636602848
 30
0.0
 10
-30.70478270917052
 20
2.781108428626021
 30
0.0
 10
-30.6775956460437
 20
2.634333163690716
 30
0.0
 10
-30.5725843243079
 20
2.356856446686644
 30
0.0
 10
-30.35577768722918
 20
2.05560217579746
 30
0.0
 10
-29.99204451979072
 20
1.81049107017408
 30
0.0
 10
-29.70835139946942
 20
1.749384625149656
 30
0.0
 10
-29.5674075632287
 20
1.749523220640433
 30
0.0
  0
LINE
  5
E3
330
1F
100
AcDbEntity
  8
DEFAULT
100
AcDbLine
 10
-29.5674075632287
 20
1.749523220640433
 30
0.0
 11
-19.16228828469756
 21
1.749523220640216
 31
0.0
  0
SPLINE
  5
E4
330
1F
100
AcDbEntity
  8
DEFAULT
100
AcDbSpline
210
0.0
220
0.0
230
1.0
 70
     8
 71
     3
 72
    11
 73
     7
 74
     0
 42
0.0000000001
 43
0.0000000001
 40
-1.209750443852605
 40
-1.209750443852605
 40
-1.209750443852605
 40
-1.209750443852605
 40
-0.60148525551554
 40
-0.2936175306985081
 40
-0.1463043536875255
 40
-0.0000000000000001
 40
-0.0000000000000001
 40
-0.0000000000000001
 40
-0.0000000000000001
 10
-29.79540908925671
 20
2.711221753243639
 30
0.0
 10
-29.77680200467457
 20
2.509268231828873
 30
0.0
 10
-29.60708071082269
 20
2.231123780417569
 30
0.0
 10
-29.34638313691576
 20
1.986766335595509
 30
0.0
 10
-29.17637729254811
 20
1.879696788043515
 30
0.0
 10
-29.08738568043394
 20
1.838479572556464
 30
0.0
 10
-29.04188163680871
 20
1.820932485116673
 30
0.0
  0
SPLINE
  5
E5
330
1F
100
AcDbEntity
  8
DEFAULT
100
AcDbSpline
210
0.0
220
0.0
230
1.0
 70
    24
 71
     2
 72
     6
 73
     3
 74
     0
 42
0.0000000001
 43
0.0000000001
 40
0.0
 40
0.0
 40
0.0
 40
30.90773516735305
 40
30.90773516735305
 40
30.90773516735305
 10
-32.53832716517843
 20
32.48127067947877
 30
0.0
 10
-31.16686812721757
 20
17.59624621636121
 30
0.0
 10
-29.79540908925671
 20
2.711221753243639
 30
0.0
  0
SPLINE
  5
E6
330
1F
100
AcDbEntity
  8
DEFAULT
100
AcDbSpline
210
0.0
220
0.0
230
1.0
 70
    12
 71
     3
 72
    10
 73
     6
 74
     0
 42
0.0000000001
 43
0.0000000001
 40
0.0
 40
0.0
 40
0.0
 40
0.0
 40
1.472195154909486
 40
2.944390309818973
 40
4.41658546472846
 40
4.41658546472846
 40
4.41658546472846
 40
4.41658546472846
 10
-32.56362363631814
 20
36.62147428678855
 30
0.0
 41
1.0
 10
-32.59947668210896
 20
36.16030995920879
 30
0.0
 41
1.0
 10
-32.64519516654707
 20
35.23600740691845
 30
0.0
 41
1.0
 10
-32.63702884354961
 20
33.84893645966253
 30
0.0
 41
1.0
 10
-32.57987589915075
 20
32.9331506388447
 30
0.0
 41
1.0
 10
-32.53832716517843
 20
32.48127067947877
 30
0.0
 41
1.0
  0
SPLINE
  5
E7
330
1F
100
AcDbEntity
  8
DEFAULT
100
AcDbSpline
210
0.0
220
0.0
230
1.0
 70
    24
 71
     2
 72
     6
 73
     3
 74
     0
 42
0.0000000001
 43
0.0000000001
 40
0.0
 40
0.0
 40
0.0
 40
10.42769389460463
 40
10.42769389460463
 40
10.42769389460463
 10
-31.75532926501802
 20
47.01779383597996
 30
0.0
 10
-32.15947645066808
 20
41.81963406138426
 30
0.0
 10
-32.56362363631814
 20
36.62147428678855
 30
0.0
  0
SPLINE
  5
E8
330
1F
100
AcDbEntity
  8
DEFAULT
100
AcDbSpline
210
0.0
220
0.0
230
1.0
 70
     8
 71
     3
 72
    12
 73
     8
 74
     0
 42
0.0000000001
 43
0.0000000001
 40
0.0
 40
0.0
 40
0.0
 40
0.0
 40
0.204352375961748
 40
0.4104662380716894
 40
0.8364792721999366
 40
1.271221987562163
 40
1.704427177525212
 40
1.704427177525212
 40
1.704427177525212
 40
1.704427177525212
 10
-30.64671047471273
 20
48.10172595925771
 30
0.0
 10
-30.71486616725855
 20
48.10176764638562
 30
0.0
 10
-30.85157326683986
 20
48.08824714137686
 30
0.0
 10
-31.12003991914111
 20
48.00768738165524
 30
0.0
 10
-31.42161605376958
 20
47.80690192464364
 30
0.0
 10
-31.67152776265482
 20
47.44634522147693
 30
0.0
 10
-31.74415438184178
 20
47.16177096631258
 30
0.0
 10
-31.75532926501802
 20
47.01779383597996
 30
0.0
  0
SPLINE
  5
E9
330
1F
100
AcDbEntity
  8
DEFAULT
100
AcDbSpline
210
0.0
220
0.0
230
1.0
 70
    24
 71
     2
 72
     6
 73
     3
 74
     0
 42
0.0000000001
 43
0.0000000001
 40
-31.57410537540795
 40
-31.57410537540795
 40
-31.57410537540795
 40
0.0
 40
0.0
 40
0.0
 10
33.39445428793596
 20
31.97334654494024
 30
0.0
 10
32.05299573952331
 20
17.41386759077154
 30
0.0
 10
30.71153719111066
 20
2.854388636602848
 30
0.0
  0
SPLINE
  5
EA
330
1F
100
AcDbEntity
  8
DEFAULT
100
AcDbSpline
210
0.0
220
0.0
230
1.0
 70
    12
 71
     3
 72
    10
 73
     6
 74
     0
 42
0.0000000001
 43
0.0000000001
 40
-4.425058005741805
 40
-4.425058005741805
 40
-4.425058005741805
 40
-4.425058005741805
 40
-2.950038670494536
 40
-1.475019335247268
 40
0.0
 40
0.0
 40
0.0
 40
0.0
 10
33.42399281699744
 20
36.61790560023903
 30
0.0
 41
1.0
 10
33.46422943019599
 20
36.10038042677795
 30
0.0
 41
1.0
 10
33.51534526918903
 20
35.06289260615575
 30
0.0
 41
1.0
 10
33.50562409263733
 20
33.50804449644378
 30
0.0
 41
1.0
 10
33.44118071336544
 20
32.48049036124913
 30
0.0
 41
1.0
 10
33.39445428793596
 20
31.97334654494024
 30
0.0
 41
1.0
  0
SPLINE
  5
EB
330
1F
100
AcDbEntity
  8
DEFAULT
100
AcDbSpline
210
0.0
220
0.0
230
1.0
 70
    24
 71
     2
 72
     6
 73
     3
 74
     0
 42
0.0000000001
 43
0.0000000001
 40
0.0
 40
0.0
 40
0.0
 40
10.43127335140073
 40
10.43127335140073
 40
10.43127335140073
 10
32.61542097989997
 20
47.01779383597963
 30
0.0
 10
33.0197068984487
 20
41.81784971810933
 30
0.0
 10
33.42399281699744
 20
36.61790560023903
 30
0.0
  0
SPLINE
  5
EC
330
1F
100
AcDbEntity
  8
DEFAULT
100
AcDbSpline
210
0.0
220
0.0
230
1.0
 70
     8
 71
     3
 72
    12
 73
     8
 74
     0
 42
0.0000000001
 43
0.0000000001
 40
0.0
 40
0.0
 40
0.0
 40
0.0
 40
0.2070919927116308
 40
0.4150719902822034
 40
0.8364864423123437
 40
1.266971112845968
 40
1.704432863036252
 40
1.704432863036252
 40
1.704432863036252
 40
1.704432863036252
 10
31.50680218959189
 20
48.10172595925772
 30
0.0
 10
31.57587064939742
 20
48.10176715738531
 30
0.0
 10
31.71411513215889
 20
48.08792005892871
 30
0.0
 10
31.98231762085868
 20
48.0064129434754
 30
0.0
 10
32.28139280956003
 20
47.80642276278121
 30
0.0
 10
32.53100553209191
 20
47.4477256989835
 30
0.0
 10
32.60414304523078
 20
47.1631851276206
 30
0.0
 10
32.61542097989997
 20
47.01779383597963
 30
0.0
  0
POLYLINE
  5
ED
330
1F
100
AcDbEntity
  8
DEFAULT
100
AcDb2dPolyline
 66
     1
 10
0.0
 20
0.0
 30
0.0
  0
VERTEX
  5
EE
330
ED
100
AcDbEntity
  8
DEFAULT
100
AcDbVertex
100
AcDb2dVertex
 10
-31.50680218959189
 20
48.10172595925772
 30
0.0
  0
VERTEX
  5
EF
330
ED
100
AcDbEntity
  8
DEFAULT
100
AcDbVertex
100
AcDb2dVertex
 10
31.50680218959189
 20
48.10172595925772
 30
0.0
  0
SEQEND
  5
F0
330
ED
100
AcDbEntity
  8
DEFAULT
  0
SPLINE
  5
F1
330
1F
100
AcDbEntity
  8
DEFAULT
100
AcDbSpline
210
0.0
220
0.0
230
1.0
 70
     8
 71
     3
 72
    12
 73
     8
 74
     0
 42
0.0000000001
 43
0.0000000001
 40
-1.704432863036252
 40
-1.704432863036252
 40
-1.704432863036252
 40
-1.704432863036252
 40
-1.266971112845968
 40
-0.8364864423123437
 40
-0.4150719902822034
 40
-0.2070919927116308
 40
0.0
 40
0.0
 40
0.0
 40
0.0
 10
-32.61542097989997
 20
47.01779383597963
 30
0.0
 10
-32.60414304523078
 20
47.1631851276206
 30
0.0
 10
-32.53100553209191
 20
47.4477256989835
 30
0.0
 10
-32.28139280956003
 20
47.80642276278121
 30
0.0
 10
-31.98231762085868
 20
48.0064129434754
 30
0.0
 10
-31.71411513215889
 20
48.08792005892871
 30
0.0
 10
-31.57587064939742
 20
48.10176715738531
 30
0.0
 10
-31.50680218959189
 20
48.10172595925772
 30
0.0
  0
SPLINE
  5
F2
330
1F
100
AcDbEntity
  8
DEFAULT
100
AcDbSpline
210
0.0
220
0.0
230
1.0
 70
    24
 71
     2
 72
     6
 73
     3
 74
     0
 42
0.0000000001
 43
0.0000000001
 40
-10.43127335140073
 40
-10.43127335140073
 40
-10.43127335140073
 40
0.0
 40
0.0
 40
0.0
 10
-33.42399281699744
 20
36.61790560023903
 30
0.0
 10
-33.0197068984487
 20
41.81784971810933
 30
0.0
 10
-32.61542097989997
 20
47.01779383597963
 30
0.0
  0
SPLINE
  5
F3
330
1F
100
AcDbEntity
  8
DEFAULT
100
AcDbSpline
210
0.0
220
0.0
230
1.0
 70
    12
 71
     3
 72
    10
 73
     6
 74
     0
 42
0.0000000001
 43
0.0000000001
 40
0.0
 40
0.0
 40
0.0
 40
0.0
 40
1.475019335247268
 40
2.950038670494536
 40
4.425058005741805
 40
4.425058005741805
 40
4.425058005741805
 40
4.425058005741805
 10
-33.39445428793596
 20
31.97334654494024
 30
0.0
 41
1.0
 10
-33.44118071336544
 20
32.48049036124913
 30
0.0
 41
1.0
 10
-33.50562409263733
 20
33.50804449644378
 30
0.0
 41
1.0
 10
-33.51534526918903
 20
35.06289260615575
 30
0.0
 41
1.0
 10
-33.46422943019599
 20
36.10038042677795
 30
0.0
 41
1.0
 10
-33.42399281699744
 20
36.61790560023903
 30
0.0
 41
1.0
  0
SPLINE
  5
F4
330
1F
100
AcDbEntity
  8
DEFAULT
100
AcDbSpline
210
0.0
220
0.0
230
1.0
 70
    24
 71
     2
 72
     6
 73
     3
 74
     0
 42
0.0000000001
 43
0.0000000001
 40
0.0
 40
0.0
 40
0.0
 40
31.57410537540795
 40
31.57410537540795
 40
31.57410537540795
 10
-30.71153719111066
 20
2.854388636602848
 30
0.0
 10
-32.05299573952331
 20
17.41386759077154
 30
0.0
 10
-33.39445428793596
 20
31.97334654494024
 30
0.0
  0
SPLINE
  5
F5
330
1F
100
AcDbEntity
  8
DEFAULT
100
AcDbSpline
210
0.0
220
0.0
230
1.0
 70
     8
 71
     3
 72
    14
 73
    10
 74
     0
 42
0.0000000001
 43
0.0000000001
 40
0.0
 40
0.0
 40
0.0
 40
0.0
 40
0.2198316364959003
 40
0.4313506558536249
 40
0.7870816767838048
 40
0.9244091788303984
 40
1.036501184990432
 40
1.122937712442817
 40
1.195118732685283
 40
1.195118732685283
 40
1.195118732685283
 40
1.195118732685283
 10
62.9910038367385
 20
2.854388636602856
 30
0.0
 10
63.00515323132241
 20
2.782565554338471
 30
0.0
 10
63.02936451407992
 20
2.640554412877204
 30
0.0
 10
63.0548938662498
 20
2.379602124195215
 30
0.0
 10
63.05509284120338
 20
2.143656961935555
 30
0.0
 10
63.01813763570679
 20
1.944648991308806
 30
0.0
 10
62.97755015148284
 20
1.839720849818743
 30
0.0
 10
62.92018310491842
 20
1.76749963932091
 30
0.0
 10
62.86767441137157
 20
1.749016668289155
 30
0.0
 10
62.84360552580567
 20
1.749523220640433
 30
0.0
  0
SPLINE
  5
F6
330
1F
100
AcDbEntity
  8
DEFAULT
100
AcDbSpline
210
0.0
220
0.0
230
1.0
 70
    24
 71
     2
 72
     6
 73
     3
 74
     0
 42
0.0000000001
 43
0.0000000001
 40
-32.05734931575117
 40
-32.05734931575117
 40
-32.05734931575117
 40
0.0
 40
0.0
 40
0.0
 10
57.19675761168105
 20
31.97334712754028
 30
0.0
 10
60.09388072420978
 20
17.41386788207157
 30
0.0
 10
62.9910038367385
 20
2.854388636602856
 30
0.0
  0
SPLINE
  5
F7
330
1F
100
AcDbEntity
  8
DEFAULT
100
AcDbSpline
210
0.0
220
0.0
230
1.0
 70
    12
 71
     3
 72
    10
 73
     6
 74
     0
 42
0.0000000001
 43
0.0000000001
 40
-4.425058005741805
 40
-4.425058005741805
 40
-4.425058005741805
 40
-4.425058005741805
 40
-2.950038670494536
 40
-1.475019335247268
 40
-0.0000005648274998
 40
-0.0000005648274998
 40
-0.0000005648274998
 40
-0.0000005648274998
 10
56.77842537670281
 20
36.61790560023903
 30
0.0
 41
1.0
 10
56.79278465026476
 20
36.10038042677795
 30
0.0
 41
1.0
 10
56.82816760173392
 20
35.06289260615575
 30
0.0
 41
1.0
 10
56.94514190903726
 20
33.5080446949092
 30
0.0
 41
1.0
 10
57.09584347875307
 20
32.48049075472928
 30
0.0
 41
1.0
 10
57.19675761168105
 20
31.97334712754028
 30
0.0
 41
1.0
  0
SPLINE
  5
F8
330
1F
100
AcDbEntity
  8
DEFAULT
100
AcDbSpline
210
0.0
220
0.0
230
1.0
 70
    24
 71
     2
 72
     6
 73
     3
 74
     0
 42
0.0000000001
 43
0.0000000001
 40
0.0
 40
0.0
 40
0.0
 40
10.40389060445974
 40
10.40389060445974
 40
10.40389060445974
 10
56.4898696738137
 20
47.01779383597963
 30
0.0
 10
56.63414752525826
 20
41.81784971810933
 30
0.0
 10
56.77842537670281
 20
36.61790560023903
 30
0.0
  0
SPLINE
  5
F9
330
1F
100
AcDbEntity
  8
DEFAULT
100
AcDbSpline
210
0.0
220
0.0
230
1.0
 70
     8
 71
     3
 72
    13
 73
     9
 74
     0
 42
0.0000000001
 43
0.0000000001
 40
0.0
 40
0.0
 40
0.0
 40
0.0
 40
0.0770475615997422
 40
0.1706792910472159
 40
0.2893714220126478
 40
0.4348746102185785
 40
0.7965986948767
 40
1.219996287034075
 40
1.219996287034075
 40
1.219996287034075
 40
1.219996287034075
 10
56.09423596559947
 20
48.10172595925772
 30
0.0
 10
56.12001865778848
 20
48.10197040318565
 30
0.0
 10
56.17593900846367
 20
48.08387304070945
 30
0.0
 10
56.24745356406402
 20
48.01719522726877
 30
0.0
 10
56.31206393567834
 20
47.91635312726582
 30
0.0
 10
56.39347137548469
 20
47.72354714369768
 30
0.0
 10
56.46306481654116
 20
47.41996003889827
 30
0.0
 10
56.48600624044357
 20
47.15894978078729
 30
0.0
 10
56.4898696738137
 20
47.01779383597963
 30
0.0
  0
SPLINE
  5
FA
330
1F
100
AcDbEntity
  8
DEFAULT
100
AcDbSpline
210
0.0
220
0.0
230
1.0
 70
     8
 71
     3
 72
     8
 73
     4
 74
     0
 42
0.0000000001
 43
0.0000000001
 40
0.0
 40
0.0
 40
0.0
 40
0.0
 40
34.4802438944222
 40
34.4802438944222
 40
34.4802438944222
 40
34.4802438944222
 10
46.33809522795565
 20
32.48521173632632
 30
0.0
 10
48.17134303111943
 20
24.19419793279661
 30
0.0
 10
50.6528188956102
 20
12.97186053237312
 30
0.0
 10
53.13429476010096
 20
1.749523131949623
 30
0.0
  0
SPLINE
  5
FB
330
1F
100
AcDbEntity
  8
DEFAULT
100
AcDbSpline
210
0.0
220
0.0
230
1.0
 70
     8
 71
     3
 72
    10
 73
     6
 74
     0
 42
0.0000000001
 43
0.0000000001
 40
0.0
 40
0.0
 40
0.0
 40
0.0
 40
1.0
 40
2.0
 40
3.0
 40
3.0
 40
3.0
 40
3.0
 10
45.91432916016737
 20
36.61790560023856
 30
0.0
 10
45.91435906784583
 20
36.15541775849717
 30
0.0
 10
45.94598087805469
 20
35.23058674979457
 30
0.0
 10
46.07950371135729
 20
33.84880630829047
 30
0.0
 10
46.238247711926
 20
32.93679748090058
 30
0.0
 10
46.33809522795565
 20
32.48521173632632
 30
0.0
  0
SPLINE
  5
FC
330
1F
100
AcDbEntity
  8
DEFAULT
100
AcDbSpline
210
0.0
220
0.0
230
1.0
 70
    24
 71
     2
 72
     6
 73
     3
 74
     0
 42
0.0000000001
 43
0.0000000001
 40
0.0
 40
0.0
 40
0.0
 40
11.48382035901969
 40
11.48382035901969
 40
11.48382035901969
 10
45.9143173461373
 20
48.1017259592581
 30
0.0
 10
45.91432325315233
 20
42.35981577974833
 30
0.0
 10
45.91432916016737
 20
36.61790560023856
 30
0.0
  0
POLYLINE
  5
FD
330
1F
100
AcDbEntity
  8
DEFAULT
100
AcDb2dPolyline
 66
     1
 10
0.0
 20
0.0
 30
0.0
  0
VERTEX
  5
FE
330
FD
100
AcDbEntity
  8
DEFAULT
100
AcDbVertex
100
AcDb2dVertex
 10
58.51054192271869
 20
48.10172595925771
 30
0.0
  0
VERTEX
  5
FF
330
FD
100
AcDbEntity
  8
DEFAULT
100
AcDbVertex
100
AcDb2dVertex
 10
45.9143173461373
 20
48.1017259592581
 30
0.0
  0
SEQEND
  5
100
330
FD
100
AcDbEntity
  8
DEFAULT
  0
SPLINE
  5
101
330
1F
100
AcDbEntity
  8
DEFAULT
100
AcDbSpline
210
0.0
220
0.0
230
1.0
 70
     8
 71
     3
 72
    13
 73
     9
 74
     0
 42
0.0000000001
 43
0.0000000001
 40
-1.219993135480446
 40
-1.219993135480446
 40
-1.219993135480446
 40
-1.219993135480446
 40
-0.8005154850941943
 40
-0.4348671528848948
 40
-0.290211276808455
 40
-0.1683560311968015
 40
-0.0759503237953234
 40
0.0
 40
0.0
 40
0.0
 40
0.0
 10
58.9061756309394
 20
47.01779383597996
 30
0.0
 10
58.90235505321814
 20
47.1576481318541
 30
0.0
 10
58.879517706531
 20
47.41864014912727
 30
0.0
 10
58.81033540178262
 20
47.72206359110133
 30
0.0
 10
58.72818460716519
 20
47.91680424784181
 30
0.0
 10
58.66331484314804
 20
48.01796304742708
 30
0.0
 10
58.59117703130607
 20
48.0843971085647
 30
0.0
 10
58.53594375071782
 20
48.10195145394929
 30
0.0
 10
58.51054192271869
 20
48.10172595925771
 30
0.0
  0
SPLINE
  5
102
330
1F
100
AcDbEntity
  8
DEFAULT
100
AcDbSpline
210
0.0
220
0.0
230
1.0
 70
    24
 71
     2
 72
     6
 73
     3
 74
     0
 42
0.0000000001
 43
0.0000000001
 40
-10.39984072900861
 40
-10.39984072900861
 40
-10.39984072900861
 40
0.0
 40
0.0
 40
0.0
 10
59.19462568292326
 20
36.62171410252404
 30
0.0
 10
59.05040065693133
 20
41.819753969252
 30
0.0
 10
58.9061756309394
 20
47.01779383597996
 30
0.0
  0
SPLINE
  5
103
330
1F
100
AcDbEntity
  8
DEFAULT
100
AcDbSpline
210
0.0
220
0.0
230
1.0
 70
    12
 71
     3
 72
    10
 73
     6
 74
     0
 42
0.0000000001
 43
0.0000000001
 40
-4.41658546472846
 40
-4.41658546472846
 40
-4.41658546472846
 40
-4.41658546472846
 40
-2.944390309818973
 40
-1.472195154909486
 40
0.0
 40
0.0
 40
0.0
 40
0.0
 10
59.58807847425714
 20
32.41245799628884
 30
0.0
 41
1.0
 10
59.49360560742478
 20
32.86337477441288
 30
0.0
 41
1.0
 10
59.3335942233918
 20
33.84893645966253
 30
0.0
 41
1.0
 10
59.23620439785202
 20
35.23600740691845
 30
0.0
 41
1.0
 10
59.20742754201754
 20
36.16030995920879
 30
0.0
 41
1.0
 10
59.19462568292326
 20
36.62171410252404
 30
0.0
 41
1.0
  0
SPLINE
  5
104
330
1F
100
AcDbEntity
  8
DEFAULT
100
AcDbSpline
210
0.0
220
0.0
230
1.0
 70
     8
 71
     3
 72
    32
 73
    28
 74
     0
 42
0.0000000001
 43
0.0000000001
 40
34.4802438944222
 40
34.4802438944222
 40
34.4802438944222
 40
34.4802438944222
 40
46.6485627554834
 40
46.6485627554834
 40
46.6485627554834
 40
46.71421517758923
 40
46.78999551626346
 40
46.88529742701952
 40
47.00750711779317
 40
47.31461879619166
 40
47.69905253728047
 40
47.69905253728047
 40
47.69905253728047
 40
48.0170098642698
 40
48.63499175364466
 40
48.90054302746339
 40
50.0660874076445
 40
50.69392038617676
 40
51.62247694987502
 40
52.76271181489704
 40
53.96736983455407
 40
73.13420599527888
 40
74.3002566815688
 40
75.4758221258996
 40
76.58845762494293
 40
77.15430446921096
 40
77.52578882279859
 40
77.52578882279859
 40
77.52578882279859
 40
77.52578882279859
 10
53.13429476010096
 20
1.749523131949623
 30
0.0
 10
57.19040104058426
 20
1.749523161513227
 30
0.0
 10
61.2465073210676
 20
1.74952319107683
 30
0.0
 10
65.30261360155093
 20
1.749523220640434
 30
0.0
 10
65.32443696694266
 20
1.749200065765822
 30
0.0
 10
65.37161588470728
 20
1.763715329909179
 30
0.0
 10
65.42588436009991
 20
1.823261008357366
 30
0.0
 10
65.46698836716176
 20
1.912604620578116
 30
0.0
 10
65.50726986849183
 20
2.083494464751165
 30
0.0
 10
65.51814109015827
 20
2.35573634693677
 30
0.0
 10
65.49519602484723
 20
2.585335982082523
 30
0.0
 10
65.47532883318424
 20
2.712003095920712
 30
0.0
 10
65.38457506058624
 20
3.262584445290263
 30
0.0
 10
65.32394311698299
 20
3.568628788303952
 30
0.0
 10
65.23876203221924
 20
3.959976889714703
 30
0.0
 10
65.10364111043593
 20
4.629521198145703
 30
0.0
 10
64.98566423423371
 20
5.305697538773991
 30
0.0
 10
64.8101118881007
 20
6.19587526517298
 30
0.0
 10
64.63310014318715
 20
7.077143053329677
 30
0.0
 10
64.42108066260731
 20
8.147500786853415
 30
0.0
 10
63.02123152077958
 20
15.1801082503339
 30
0.0
 10
61.62030432654568
 20
22.22127791906612
 30
0.0
 10
60.22098297022016
 20
29.25287757730992
 30
0.0
 10
59.99551152617032
 20
30.38200356609347
 30
0.0
 10
59.81143375183494
 20
31.31537453174171
 30
0.0
 10
59.67730289068809
 20
31.9854036291272
 30
0.0
 10
59.61347102486121
 20
32.29125994767821
 30
0.0
 10
59.58807847425714
 20
32.41245799628884
 30
0.0
  0
SPLINE
  5
105
330
1F
100
AcDbEntity
  8
DEFAULT
100
AcDbSpline
210
0.0
220
0.0
230
1.0
 70
     8
 71
     3
 72
    14
 73
    10
 74
     0
 42
0.0000000001
 43
0.0000000001
 40
-7.0
 40
-7.0
 40
-7.0
 40
-7.0
 40
-6.0
 40
-5.0
 40
-4.0
 40
-3.0
 40
-2.0
 40
-1.0
 40
0.0
 40
0.0
 40
0.0
 40
0.0
 10
-27.78303342852058
 20
74.23815944996662
 30
0.0
 10
-27.87654765721891
 20
74.21030639713868
 30
0.0
 10
-28.06413470089089
 20
74.15646813438488
 30
0.0
 10
-28.34720871708492
 20
74.08186387123556
 30
0.0
 10
-28.63197923290534
 20
74.01397103785237
 30
0.0
 10
-28.91835765645806
 20
73.95335561125168
 30
0.0
 10
-29.20630822487416
 20
73.90008541216005
 30
0.0
 10
-29.49537259429738
 20
73.85573200577397
 30
0.0
 10
-29.69273897603159
 20
73.85561749189432
 30
0.0
 10
-29.78693875993577
 20
73.88317397440423
 30
0.0
  0
SPLINE
  5
106
330
1F
100
AcDbEntity
  8
DEFAULT
100
AcDbSpline
210
0.0
220
0.0
230
1.0
 70
    24
 71
     2
 72
     6
 73
     3
 74
     0
 42
0.0000000001
 43
0.0000000001
 40
0.0
 40
0.0
 40
0.0
 40
7.046268047251281
 40
7.046268047251281
 40
7.046268047251281
 10
-29.78693875993577
 20
73.88317397440423
 30
0.0
 10
-31.16244483620676
 20
76.84309507340825
 30
0.0
 10
-32.53795091247775
 20
79.80301617241227
 30
0.0
  0
SPLINE
  5
107
330
1F
100
AcDbEntity
  8
DEFAULT
100
AcDbSpline
210
0.0
220
0.0
230
1.0
 70
     8
 71
     3
 72
     8
 73
     4
 74
     0
 42
0.0000000001
 43
0.0000000001
 40
0.0
 40
0.0
 40
0.0
 40
0.0
 40
1.0
 40
1.0
 40
1.0
 40
1.0
 10
-32.62457526538941
 20
80.00822242721937
 30
0.0
 10
-32.59921457668983
 20
79.93844109833528
 30
0.0
 10
-32.56924063210901
 20
79.87034782795068
 30
0.0
 10
-32.53795091247775
 20
79.80301617241227
 30
0.0
  0
SPLINE
  5
108
330
1F
100
AcDbEntity
  8
DEFAULT
100
AcDbSpline
210
0.0
220
0.0
230
1.0
 70
     8
 71
     3
 72
     8
 73
     4
 74
     0
 42
0.0000000001
 43
0.0000000001
 40
0.0
 40
0.0
 40
0.0
 40
0.0
 40
1.0
 40
1.0
 40
1.0
 40
1.0
 10
-32.56363327865654
 20
80.16395950360493
 30
0.0
 10
-32.61613558935323
 20
80.14522294085945
 30
0.0
 10
-32.64361636510255
 20
80.06061505965678
 30
0.0
 10
-32.62457526538941
 20
80.00822242721937
 30
0.0
  0
SPLINE
  5
109
330
1F
100
AcDbEntity
  8
DEFAULT
100
AcDbSpline
210
0.0
220
0.0
230
1.0
 70
    24
 71
     2
 72
     6
 73
     3
 74
     0
 42
0.0000000001
 43
0.0000000001
 40
0.0
 40
0.0
 40
0.0
 40
7.046268047251281
 40
7.046268047251281
 40
7.046268047251281
 10
29.78693875993577
 20
73.88317397440423
 30
0.0
 10
31.16244483620676
 20
76.84309507340825
 30
0.0
 10
32.53795091247775
 20
79.80301617241227
 30
0.0
  0
SPLINE
  5
10A
330
1F
100
AcDbEntity
  8
DEFAULT
100
AcDbSpline
210
0.0
220
0.0
230
1.0
 70
     8
 71
     3
 72
     8
 73
     4
 74
     0
 42
0.0000000001
 43
0.0000000001
 40
0.0
 40
0.0
 40
0.0
 40
0.0
 40
1.0
 40
1.0
 40
1.0
 40
1.0
 10
32.62457526538941
 20
80.00822242721937
 30
0.0
 10
32.59921457668983
 20
79.93844109833528
 30
0.0
 10
32.56924063210901
 20
79.87034782795068
 30
0.0
 10
32.53795091247775
 20
79.80301617241227
 30
0.0
  0
SPLINE
  5
10B
330
1F
100
AcDbEntity
  8
DEFAULT
100
AcDbSpline
210
0.0
220
0.0
230
1.0
 70
     8
 71
     3
 72
    14
 73
    10
 74
     0
 42
0.0000000001
 43
0.0000000001
 40
-7.0
 40
-7.0
 40
-7.0
 40
-7.0
 40
-6.0
 40
-5.0
 40
-4.0
 40
-3.0
 40
-2.0
 40
-1.0
 40
0.0
 40
0.0
 40
0.0
 40
0.0
 10
27.78303342852058
 20
74.23815944996662
 30
0.0
 10
27.87654765721891
 20
74.21030639713868
 30
0.0
 10
28.06413470089089
 20
74.15646813438488
 30
0.0
 10
28.34720871708492
 20
74.08186387123556
 30
0.0
 10
28.63197923290534
 20
74.01397103785237
 30
0.0
 10
28.91835765645806
 20
73.95335561125168
 30
0.0
 10
29.20630822487416
 20
73.90008541216005
 30
0.0
 10
29.49537259429738
 20
73.85573200577397
 30
0.0
 10
29.69273897603159
 20
73.85561749189432
 30
0.0
 10
29.78693875993577
 20
73.88317397440423
 30
0.0
  0
SPLINE
  5
10C
330
1F
100
AcDbEntity
  8
DEFAULT
100
AcDbSpline
210
0.0
220
0.0
230
1.0
 70
     8
 71
     3
 72
     8
 73
     4
 74
     0
 42
0.0000000001
 43
0.0000000001
 40
0.0
 40
0.0
 40
0.0
 40
0.0
 40
1.0
 40
1.0
 40
1.0
 40
1.0
 10
32.56363327865654
 20
80.16395950360493
 30
0.0
 10
32.61613558935323
 20
80.14522294085945
 30
0.0
 10
32.64361636510255
 20
80.06061505965678
 30
0.0
 10
32.62457526538941
 20
80.00822242721937
 30
0.0
  0
LINE
  5
10D
330
1F
100
AcDbEntity
  8
DEFAULT
100
AcDbLine
 10
-3.728633859468061
 20
93.74571433052742
 30
0.0
 11
-7.915831055710353
 21
91.6832978984973
 31
0.0
  0
SPLINE
  5
10E
330
1F
100
AcDbEntity
  8
DEFAULT
100
AcDbSpline
210
0.0
220
0.0
230
1.0
 70
    12
 71
     2
 72
     6
 73
     3
 74
     0
 42
0.0000000001
 43
0.0000000001
 40
0.0
 40
0.0
 40
0.0
 40
7.724027821810834
 40
7.724027821810834
 40
7.724027821810834
 10
3.72863385961006
 20
93.74571433052532
 30
0.0
 41
0.9999999999999705
 10
0.0000000000716301
 20
95.58237632662961
 30
0.0
 41
0.8970537032551316
 10
-3.728633859468061
 20
93.74571433052742
 30
0.0
 41
1.0
  0
LINE
  5
10F
330
1F
100
AcDbEntity
  8
DEFAULT
100
AcDbLine
 10
7.915830895873634
 20
91.68329795553841
 30
0.0
 11
3.728633859610056
 21
93.74571433052532
 31
0.0
  0
SPLINE
  5
110
330
1F
100
AcDbEntity
  8
DEFAULT
100
AcDbSpline
210
0.0
220
0.0
230
1.0
 70
    24
 71
     2
 72
     6
 73
     3
 74
     0
 42
0.0000000001
 43
0.0000000001
 40
3.576437821412997
 40
3.576437821412997
 40
3.576437821412997
 40
14.04982723094704
 40
14.04982723094704
 40
14.04982723094704
 10
28.56647483173763
 20
31.94491999955192
 30
0.0
 10
26.10177635273579
 20
27.32933442449299
 30
0.0
 10
23.63707787373395
 20
22.71374884943406
 30
0.0
  0
SPLINE
  5
111
330
1F
100
AcDbEntity
  8
DEFAULT
100
AcDbSpline
210
0.0
220
0.0
230
1.0
 70
     8
 71
     3
 72
     8
 73
     4
 74
     0
 42
0.0000000001
 43
0.0000000001
 40
2.765841632918142
 40
2.765841632918142
 40
2.765841632918142
 40
2.765841632918142
 40
3.576437610073669
 40
3.576437610073669
 40
3.576437610073669
 40
3.576437610073669
 10
28.94690617683012
 20
32.65897867280231
 30
0.0
 10
28.81828376348775
 20
32.41795675079844
 30
0.0
 10
28.69169738722129
 20
32.18033764066909
 30
0.0
 10
28.56647483173763
 20
31.94491999955192
 30
0.0
  0
SPLINE
  5
112
330
1F
100
AcDbEntity
  8
DEFAULT
100
AcDbSpline
210
0.0
220
0.0
230
1.0
 70
     8
 71
     3
 72
     8
 73
     4
 74
     0
 42
0.0000000001
 43
0.0000000001
 40
0.0
 40
0.0
 40
0.0
 40
0.0
 40
2.765842686209976
 40
2.765842686209976
 40
2.765842686209976
 40
2.765842686209976
 10
30.19032781645364
 20
35.13620644143538
 30
0.0
 10
29.78471837396457
 20
34.31406714385276
 30
0.0
 10
29.38066842782539
 20
33.48092048770331
 30
0.0
 10
28.94690617683012
 20
32.65897867280231
 30
0.0
  0
SPLINE
  5
113
330
1F
100
AcDbEntity
  8
DEFAULT
100
AcDbSpline
210
0.0
220
0.0
230
1.0
 70
     8
 71
     3
 72
     8
 73
     4
 74
     0
 42
0.0000000001
 43
0.0000000001
 40
-4.055436385507964
 40
-4.055436385507964
 40
-4.055436385507964
 40
-4.055436385507964
 40
-1.991782525767784
 40
-1.991782525767784
 40
-1.991782525767784
 40
-1.991782525767784
 10
-0.000015396223386
 20
33.10200024722107
 30
0.0
 10
-0.0000153549223073
 20
33.77031675016107
 30
0.0
 10
-0.0000153963667983
 20
34.45073238081726
 30
0.0
 10
-0.0000154704851508
 20
35.13435427013653
 30
0.0
  0
SPLINE
  5
114
330
1F
100
AcDbEntity
  8
DEFAULT
100
AcDbSpline
210
0.0
220
0.0
230
1.0
 70
    12
 71
     3
 72
     8
 73
     4
 74
     0
 42
0.0000000001
 43
0.0000000001
 40
-14.49800822981319
 40
-14.49800822981319
 40
-14.49800822981319
 40
-14.49800822981319
 40
-4.055436385507964
 40
-4.055436385507964
 40
-4.055436385507964
 40
-4.055436385507964
 10
-0.0000154367081389
 20
22.92836306597472
 30
0.0
 41
0.972914336467131
 10
-0.000015436708224
 20
26.31957477434098
 30
0.0
 41
0.9729143364671304
 10
-0.0000154367082914
 20
29.71078648270726
 30
0.0
 41
0.97291433646713
 10
-0.000015396223386
 20
33.10200024722107
 30
0.0
 41
0.97291433646713
  0
LINE
  5
115
330
1F
100
AcDbEntity
  8
DEFAULT
100
AcDbLine
 10
-23.80667797653976
 20
22.19562196375351
 30
0.0
 11
-23.4482696042053
 21
17.25491152449515
 31
0.0
  0
SPLINE
  5
116
330
1F
100
AcDbEntity
  8
DEFAULT
100
AcDbSpline
210
0.0
220
0.0
230
1.0
 70
    12
 71
     2
 72
     6
 73
     3
 74
     0
 42
0.0000000001
 43
0.0000000001
 40
0.0
 40
0.0
 40
0.0
 40
1.178097209225416
 40
1.178097209225416
 40
1.178097209225416
 10
-23.15245834135377
 20
22.92836467468077
 30
0.0
 41
1.0
 10
-23.85983263717882
 20
22.92836652826603
 30
0.0
 41
0.7071067980961843
 10
-23.80667797653976
 20
22.19562196375351
 30
0.0
 41
1.0
  0
LINE
  5
117
330
1F
100
AcDbEntity
  8
DEFAULT
100
AcDbLine
 10
-4.857187920974266
 20
22.92836306597472
 30
0.0
 11
-23.15245834135377
 21
22.92836467468077
 31
0.0
  0
SPLINE
  5
118
330
1F
100
AcDbEntity
  8
DEFAULT
100
AcDbSpline
210
0.0
220
0.0
230
1.0
 70
    24
 71
     3
 72
    16
 73
    12
 74
     0
 42
0.0000000001
 43
0.0000000001
 40
0.0
 40
0.0
 40
0.0
 40
0.0
 40
2.473936230232489
 40
2.473936230232489
 40
4.949462755896429
 40
4.949462755896429
 40
7.424161539323203
 40
7.424161539323203
 40
8.661508395764614
 40
8.661508395764614
 40
9.900431827766019
 40
9.900431827766019
 40
9.900431827766019
 40
9.900431827766019
 10
4.857156028144832
 20
22.92836306597472
 30
0.0
 10
4.078532093641999
 20
22.92836306597472
 30
0.0
 10
3.278292216159463
 20
22.92836306597472
 30
0.0
 10
1.650446525627014
 20
22.92836306597472
 30
0.0
 10
0.8260910449889416
 20
22.92836306597472
 30
0.0
 10
-0.8257814145405835
 20
22.92836306597472
 30
0.0
 10
-1.650479765675993
 20
22.92836306597472
 30
0.0
 10
-2.871357444822283
 20
22.92836306597472
 30
0.0
 10
-3.273566658050077
 20
22.92836306597472
 30
0.0
 10
-4.073307105899579
 20
22.92836306597472
 30
0.0
 10
-4.467270415839779
 20
22.92836306597472
 30
0.0
 10
-4.857187920974266
 20
22.92836306597472
 30
0.0
  0
LINE
  5
119
330
1F
100
AcDbEntity
  8
DEFAULT
100
AcDbLine
 10
23.15245672264919
 20
22.92836381496898
 30
0.0
 11
4.857156028144832
 21
22.92836306597472
 31
0.0
  0
SPLINE
  5
11A
330
1F
100
AcDbEntity
  8
DEFAULT
100
AcDbSpline
210
0.0
220
0.0
230
1.0
 70
    12
 71
     2
 72
     6
 73
     3
 74
     0
 42
0.0000000001
 43
0.0000000001
 40
-1.178097271734045
 40
-1.178097271734045
 40
-1.178097271734045
 40
0.0
 40
0.0
 40
0.0
 10
23.80667784609818
 20
22.19562016515819
 30
0.0
 41
1.0
 10
23.85983251116731
 20
22.9283647907413
 30
0.0
 41
0.7071067686293339
 10
23.15245672264919
 20
22.92836381496898
 30
0.0
 41
1.0
  0
LINE
  5
11B
330
1F
100
AcDbEntity
  8
DEFAULT
100
AcDbLine
 10
23.44826960422747
 20
17.2549115244924
 30
0.0
 11
23.80667784609818
 21
22.19562016515819
 31
0.0
  0
LINE
  5
11C
330
1F
100
AcDbEntity
  8
DEFAULT
100
AcDbLine
 10
32.63441334906915
 20
35.13467437534149
 30
0.0
 11
33.50168048471238
 21
35.02797471093952
 31
0.0
  0
LINE
  5
11D
330
1F
100
AcDbEntity
  8
DEFAULT
100
AcDbLine
 10
-4.857222893159525
 20
35.13467437534149
 30
0.0
 11
-32.63440489549554
 21
35.13467437534149
 31
0.0
  0
SPLINE
  5
11E
330
1F
100
AcDbEntity
  8
DEFAULT
100
AcDbSpline
210
0.0
220
0.0
230
1.0
 70
    24
 71
     3
 72
    20
 73
    16
 74
     0
 42
0.0000000001
 43
0.0000000001
 40
-9.906550658405896
 40
-9.906550658405896
 40
-9.906550658405896
 40
-9.906550658405896
 40
-8.667370867875906
 40
-8.667370867875906
 40
-7.429476370576459
 40
-7.429476370576459
 40
-6.810847971439081
 40
-6.810847971439081
 40
-6.192336340373244
 40
-6.192336340373244
 40
-4.951860574512918
 40
-4.951860574512918
 40
-2.479139035254731
 40
-2.479139035254731
 40
0.0
 40
0.0
 40
0.0
 40
0.0
 10
4.857198241403417
 20
35.13467437534149
 30
0.0
 10
4.467564876870128
 20
35.13467437534149
 30
0.0
 10
4.073838344412039
 20
35.13467437534149
 30
0.0
 10
3.274223925217047
 20
35.13467437534149
 30
0.0
 10
2.871975609969621
 20
35.13467437534149
 30
0.0
 10
2.261447856385915
 20
35.13467437534149
 30
0.0
 10
2.057488239850401
 20
35.13467437534149
 30
0.0
 10
1.648015098060921
 20
35.13467437534149
 30
0.0
 10
1.442969084909405
 20
35.13467437534149
 30
0.0
 10
0.8248374540083833
 20
35.13467437534149
 30
0.0
 10
0.4127429353951338
 20
35.13467437534149
 30
0.0
 10
-0.826471146394557
 20
35.13467437534149
 30
0.0
 10
-1.650718631823205
 20
35.13467437534149
 30
0.0
 10
-3.279183778334215
 20
35.13467437534149
 30
0.0
 10
-4.077724596786844
 20
35.13467437534149
 30
0.0
 10
-4.857222893159525
 20
35.13467437534149
 30
0.0
  0
LINE
  5
11F
330
1F
100
AcDbEntity
  8
DEFAULT
100
AcDbLine
 10
32.63440489549554
 20
35.13467437534149
 30
0.0
 11
4.857198241403417
 21
35.13467437534149
 31
0.0
  0
LINE
  5
120
330
1F
100
AcDbEntity
  8
DEFAULT
100
AcDbLine
 10
-32.63441334906915
 20
35.13467437534149
 30
0.0
 11
-33.50168048471238
 21
35.02797471093952
 31
0.0
  0
SPLINE
  5
121
330
1F
100
AcDbEntity
  8
DEFAULT
100
AcDbSpline
210
0.0
220
0.0
230
1.0
 70
    24
 71
     2
 72
     6
 73
     3
 74
     0
 42
0.0000000001
 43
0.0000000001
 40
3.576437821412997
 40
3.576437821412997
 40
3.576437821412997
 40
14.04982723094704
 40
14.04982723094704
 40
14.04982723094704
 10
-28.56647483173763
 20
31.94491999955192
 30
0.0
 10
-26.10177635273579
 20
27.32933442449299
 30
0.0
 10
-23.63707787373395
 20
22.71374884943406
 30
0.0
  0
SPLINE
  5
122
330
1F
100
AcDbEntity
  8
DEFAULT
100
AcDbSpline
210
0.0
220
0.0
230
1.0
 70
     8
 71
     3
 72
     8
 73
     4
 74
     0
 42
0.0000000001
 43
0.0000000001
 40
2.765841632918142
 40
2.765841632918142
 40
2.765841632918142
 40
2.765841632918142
 40
3.576437610073669
 40
3.576437610073669
 40
3.576437610073669
 40
3.576437610073669
 10
-28.94690617683012
 20
32.65897867280231
 30
0.0
 10
-28.81828376348775
 20
32.41795675079844
 30
0.0
 10
-28.69169738722129
 20
32.18033764066909
 30
0.0
 10
-28.56647483173763
 20
31.94491999955192
 30
0.0
  0
SPLINE
  5
123
330
1F
100
AcDbEntity
  8
DEFAULT
100
AcDbSpline
210
0.0
220
0.0
230
1.0
 70
     8
 71
     3
 72
     8
 73
     4
 74
     0
 42
0.0000000001
 43
0.0000000001
 40
0.0
 40
0.0
 40
0.0
 40
0.0
 40
2.765842686209976
 40
2.765842686209976
 40
2.765842686209976
 40
2.765842686209976
 10
-30.19032781645364
 20
35.13620644143538
 30
0.0
 10
-29.78471837396457
 20
34.31406714385276
 30
0.0
 10
-29.38066842782539
 20
33.48092048770331
 30
0.0
 10
-28.94690617683012
 20
32.65897867280231
 30
0.0
  0
SPLINE
  5
124
330
1F
100
AcDbEntity
  8
DEFAULT
100
AcDbSpline
210
0.0
220
0.0
230
1.0
 70
     8
 71
     3
 72
    10
 73
     6
 74
     0
 42
0.0000000001
 43
0.0000000001
 40
0.0
 40
0.0
 40
0.0
 40
0.0
 40
1.0
 40
2.0
 40
3.0
 40
3.0
 40
3.0
 40
3.0
 10
10.97179261915207
 20
35.13467254487572
 30
0.0
 10
10.99769724593457
 20
36.57623736384273
 30
0.0
 10
10.98188910816339
 20
39.4607218413875
 30
0.0
 10
10.9943386865391
 20
43.78399556624229
 30
0.0
 10
10.97694513245192
 20
46.67315836845893
 30
0.0
 10
11.18640458563081
 20
48.10220273861729
 30
0.0
  0
SPLINE
  5
125
330
1F
100
AcDbEntity
  8
DEFAULT
100
AcDbSpline
210
0.0
220
0.0
230
1.0
 70
     8
 71
     3
 72
    10
 73
     6
 74
     0
 42
0.0000000001
 43
0.0000000001
 40
0.0
 40
0.0
 40
0.0
 40
0.0
 40
1.0
 40
2.0
 40
3.0
 40
3.0
 40
3.0
 40
3.0
 10
-10.97179261915207
 20
35.13467254487572
 30
0.0
 10
-10.99769724593457
 20
36.57623736384273
 30
0.0
 10
-10.98188910816339
 20
39.4607218413875
 30
0.0
 10
-10.9943386865391
 20
43.78399556624229
 30
0.0
 10
-10.97694513245192
 20
46.67315836845893
 30
0.0
 10
-11.18640458563081
 20
48.10220273861729
 30
0.0
  0
SPLINE
  5
126
330
1F
100
AcDbEntity
  8
DEFAULT
100
AcDbSpline
210
0.0
220
0.0
230
1.0
 70
    24
 71
     2
 72
     6
 73
     3
 74
     0
 42
0.0000000001
 43
0.0000000001
 40
-27.17178791952763
 40
-27.17178791952763
 40
-27.17178791952763
 40
0.0
 40
0.0
 40
0.0
 10
5.055700521188413
 20
89.98074173119274
 30
0.0
 10
18.80966689992248
 20
85.07235061739883
 30
0.0
 10
32.56363327865654
 20
80.16395950360493
 30
0.0
  0
SPLINE
  5
127
330
1F
100
AcDbEntity
  8
DEFAULT
100
AcDbSpline
210
0.0
220
0.0
230
1.0
 70
    12
 71
     2
 72
     6
 73
     3
 74
     0
 42
0.0000000001
 43
0.0000000001
 40
0.0
 40
0.0
 40
0.0
 40
10.31300224147702
 40
10.31300224147702
 40
10.31300224147702
 10
-5.055719604416481
 20
89.98074173119265
 30
0.0
 41
1.0
 10
-0.0000190832281129
 20
91.78899140431207
 30
0.0
 41
0.9415859364289195
 10
5.055700521188413
 20
89.98074173119274
 30
0.0
 41
1.0
  0
SPLINE
  5
128
330
1F
100
AcDbEntity
  8
DEFAULT
100
AcDbSpline
210
0.0
220
0.0
230
1.0
 70
    24
 71
     2
 72
     6
 73
     3
 74
     0
 42
0.0000000001
 43
0.0000000001
 40
0.0
 40
0.0
 40
0.0
 40
27.17178791952763
 40
27.17178791952763
 40
27.17178791952763
 10
-32.56363327865654
 20
80.16395950360493
 30
0.0
 10
-18.80967644153651
 20
85.0723506173988
 30
0.0
 10
-5.055719604416481
 20
89.98074173119265
 30
0.0
  0
SPLINE
  5
129
330
1F
100
AcDbEntity
  8
DEFAULT
100
AcDbSpline
210
0.0
220
0.0
230
1.0
 70
    12
 71
     3
 72
    12
 73
     8
 74
     0
 42
0.0000000001
 43
0.0000000001
 40
-3.988367141145312
 40
-3.988367141145312
 40
-3.988367141145312
 40
-3.988367141145312
 40
-3.19069371291625
 40
-2.393020284687187
 40
-1.595346856458125
 40
-0.7976734282290624
 40
0.0
 40
0.0
 40
0.0
 40
0.0
 10
-28.63280061436848
 20
80.58139105245455
 30
0.0
 41
1.0
 10
-28.8851641463072
 20
80.49150928183194
 30
0.0
 41
1.0
 10
-29.39209690532601
 20
80.31872678925794
 30
0.0
 41
1.0
 10
-30.16309936680756
 20
80.08708287351689
 30
0.0
 41
1.0
 10
-30.94381664173375
 20
79.89598070150392
 30
0.0
 41
1.0
 10
-31.73637787821764
 20
79.76883138834353
 30
0.0
 41
1.0
 10
-32.27586055051535
 20
79.76024328532783
 30
0.0
 41
1.0
 10
-32.53795091247775
 20
79.80301617241227
 30
0.0
 41
1.0
  0
SPLINE
  5
12A
330
1F
100
AcDbEntity
  8
DEFAULT
100
AcDbSpline
210
0.0
220
0.0
230
1.0
 70
    24
 71
     2
 72
     6
 73
     3
 74
     0
 42
0.0000000001
 43
0.0000000001
 40
0.0
 40
0.0
 40
0.0
 40
25.24071890126199
 40
25.24071890126199
 40
25.24071890126199
 10
-4.857209722550749
 20
89.05577412129423
 30
0.0
 10
-16.74500516845961
 20
84.81858258687438
 30
0.0
 10
-28.63280061436848
 20
80.58139105245455
 30
0.0
  0
SPLINE
  5
12B
330
1F
100
AcDbEntity
  8
DEFAULT
100
AcDbSpline
210
0.0
220
0.0
230
1.0
 70
     8
 71
     3
 72
    11
 73
     7
 74
     0
 42
0.0000000001
 43
0.0000000001
 40
0.0
 40
0.0
 40
0.0
 40
0.0
 40
1.222611262997107
 40
2.458690912708395
 40
4.952665694686527
 40
9.90533091057831
 40
9.90533091057831
 40
9.90533091057831
 40
9.90533091057831
 10
4.857196743471604
 20
89.05577271976904
 30
0.0
 10
4.473284902149146
 20
89.19256426677234
 30
0.0
 10
3.689482620623266
 20
89.43451832884871
 30
0.0
 10
2.074633614047286
 20
89.78498400975106
 30
0.0
 10
-0.8194744916814898
 20
90.03306402673238
 30
0.0
 10
-3.301977537172036
 20
89.61043977104138
 30
0.0
 10
-4.857209722550749
 20
89.05577412129423
 30
0.0
  0
SPLINE
  5
12C
330
1F
100
AcDbEntity
  8
DEFAULT
100
AcDbSpline
210
0.0
220
0.0
230
1.0
 70
    24
 71
     2
 72
     6
 73
     3
 74
     0
 42
0.0000000001
 43
0.0000000001
 40
-25.24071890126199
 40
-25.24071890126199
 40
-25.24071890126199
 40
0.0
 40
0.0
 40
0.0
 10
28.63280061436848
 20
80.58139105245455
 30
0.0
 10
16.74499867892004
 20
84.81858188611179
 30
0.0
 10
4.857196743471604
 20
89.05577271976904
 30
0.0
  0
SPLINE
  5
12D
330
1F
100
AcDbEntity
  8
DEFAULT
100
AcDbSpline
210
0.0
220
0.0
230
1.0
 70
    12
 71
     3
 72
    12
 73
     8
 74
     0
 42
0.0000000001
 43
0.0000000001
 40
0.0
 40
0.0
 40
0.0
 40
0.0
 40
0.7976734282290624
 40
1.595346856458125
 40
2.393020284687187
 40
3.19069371291625
 40
3.988367141145312
 40
3.988367141145312
 40
3.988367141145312
 40
3.988367141145312
 10
32.53795091247775
 20
79.80301617241227
 30
0.0
 41
1.0
 10
32.27586055051535
 20
79.76024328532783
 30
0.0
 41
1.0
 10
31.73637787821764
 20
79.76883138834353
 30
0.0
 41
1.0
 10
30.94381664173375
 20
79.89598070150392
 30
0.0
 41
1.0
 10
30.16309936680756
 20
80.08708287351689
 30
0.0
 41
1.0
 10
29.39209690532601
 20
80.31872678925794
 30
0.0
 41
1.0
 10
28.8851641463072
 20
80.49150928183194
 30
0.0
 41
1.0
 10
28.63280061436848
 20
80.58139105245455
 30
0.0
 41
1.0
  0
SPLINE
  5
12E
330
1F
100
AcDbEntity
  8
DEFAULT
100
AcDbSpline
210
0.0
220
0.0
230
1.0
 70
    12
 71
     2
 72
     6
 73
     3
 74
     0
 42
0.0000000001
 43
0.0000000001
 40
-2.500839952990368
 40
-2.500839952990368
 40
-2.500839952990368
 40
0.0
 40
0.0
 40
0.0
 10
33.4787392733891
 20
82.35867010923987
 30
0.0
 41
1.0
 10
33.05168431077526
 20
81.18343644125912
 30
0.0
 41
0.9999999997128326
 10
32.62457526538941
 20
80.00822242721937
 30
0.0
 41
1.0
  0
SPLINE
  5
12F
330
1F
100
AcDbEntity
  8
DEFAULT
100
AcDbSpline
210
0.0
220
0.0
230
1.0
 70
    12
 71
     3
 72
    10
 73
     6
 74
     0
 42
0.0000000001
 43
0.0000000001
 40
-4.425058005741805
 40
-4.425058005741805
 40
-4.425058005741805
 40
-4.425058005741805
 40
-2.950038664179186
 40
-1.475019322616568
 40
-1.179577077329955
 40
-1.179577077329955
 40
-1.179577077329955
 40
-1.179577077329955
 10
33.4240024454125
 20
82.5801664247135
 30
0.0
 41
1.0
 10
33.46423861258666
 20
82.56580717072414
 30
0.0
 41
1.0
 10
33.51535355675759
 20
82.5304242585219
 30
0.0
 41
1.0
 10
33.50822274336418
 20
82.44463154393051
 30
0.0
 41
1.0
 10
33.48345590026072
 20
82.3716385383527
 30
0.0
 41
1.0
 10
33.4787392733891
 20
82.35867010923987
 30
0.0
 41
1.0
  0
POLYLINE
  5
130
330
1F
100
AcDbEntity
  8
DEFAULT
100
AcDb2dPolyline
 66
     1
 10
0.0
 20
0.0
 30
0.0
  0
VERTEX
  5
131
330
130
100
AcDbEntity
  8
DEFAULT
100
AcDbVertex
100
AcDb2dVertex
 10
5.785850749089633
 20
92.44341985448
 30
0.0
  0
VERTEX
  5
132
330
130
100
AcDbEntity
  8
DEFAULT
100
AcDbVertex
100
AcDb2dVertex
 10
33.4240024454125
 20
82.5801664247135
 30
0.0
  0
SEQEND
  5
133
330
130
100
AcDbEntity
  8
DEFAULT
  0
SPLINE
  5
134
330
1F
100
AcDbEntity
  8
DEFAULT
100
AcDbSpline
210
0.0
220
0.0
230
1.0
 70
    12
 71
     2
 72
     6
 73
     3
 74
     0
 42
0.0000000001
 43
0.0000000001
 40
0.0
 40
0.0
 40
0.0
 40
11.80116119688845
 40
11.80116119688845
 40
11.80116119688845
 10
-5.785902803563545
 20
92.4434079280484
 30
0.0
 41
1.0
 10
-0.0000563078862098
 20
94.50687096982394
 30
0.0
 41
0.9418925957280905
 10
5.785850749089633
 20
92.44341985448
 30
0.0
 41
1.0
  0
POLYLINE
  5
135
330
1F
100
AcDbEntity
  8
DEFAULT
100
AcDb2dPolyline
 66
     1
 10
0.0
 20
0.0
 30
0.0
  0
VERTEX
  5
136
330
135
100
AcDbEntity
  8
DEFAULT
100
AcDbVertex
100
AcDb2dVertex
 10
-33.4240024454125
 20
82.5801664247135
 30
0.0
  0
VERTEX
  5
137
330
135
100
AcDbEntity
  8
DEFAULT
100
AcDbVertex
100
AcDb2dVertex
 10
-5.785902803563545
 20
92.4434079280484
 30
0.0
  0
SEQEND
  5
138
330
135
100
AcDbEntity
  8
DEFAULT
  0
SPLINE
  5
139
330
1F
100
AcDbEntity
  8
DEFAULT
100
AcDbSpline
210
0.0
220
0.0
230
1.0
 70
    12
 71
     3
 72
    10
 73
     6
 74
     0
 42
0.0000000001
 43
0.0000000001
 40
1.179577077329955
 40
1.179577077329955
 40
1.179577077329955
 40
1.179577077329955
 40
1.475019322616568
 40
2.950038664179186
 40
4.425058005741805
 40
4.425058005741805
 40
4.425058005741805
 40
4.425058005741805
 10
-33.4787392733891
 20
82.35867010923987
 30
0.0
 41
1.0
 10
-33.48345590026072
 20
82.3716385383527
 30
0.0
 41
1.0
 10
-33.50822274336418
 20
82.44463154393051
 30
0.0
 41
1.0
 10
-33.51535355675759
 20
82.5304242585219
 30
0.0
 41
1.0
 10
-33.46423861258666
 20
82.56580717072414
 30
0.0
 41
1.0
 10
-33.4240024454125
 20
82.5801664247135
 30
0.0
 41
1.0
  0
SPLINE
  5
13A
330
1F
100
AcDbEntity
  8
DEFAULT
100
AcDbSpline
210
0.0
220
0.0
230
1.0
 70
    12
 71
     2
 72
     6
 73
     3
 74
     0
 42
0.0000000001
 43
0.0000000001
 40
0.0
 40
0.0
 40
0.0
 40
2.500839952990368
 40
2.500839952990368
 40
2.500839952990368
 10
-32.62457526538941
 20
80.00822242721937
 30
0.0
 41
1.0
 10
-33.05168431077526
 20
81.18343644125912
 30
0.0
 41
0.9999999997128326
 10
-33.4787392733891
 20
82.35867010923987
 30
0.0
 41
1.0
  0
LINE
  5
13B
330
1F
100
AcDbEntity
  8
DEFAULT
100
AcDbLine
 10
10.87201202232242
 20
86.91190118623588
 30
0.0
 11
12.0484632006934
 21
90.2084754044574
 31
0.0
  0
SPLINE
  5
13C
330
1F
100
AcDbEntity
  8
DEFAULT
100
AcDbSpline
210
0.0
220
0.0
230
1.0
 70
    24
 71
     3
 72
     8
 73
     4
 74
     0
 42
0.0000000001
 43
0.0000000001
 40
-4.055436385507964
 40
-4.055436385507964
 40
-4.055436385507964
 40
-4.055436385507964
 40
-4.055155315636471
 40
-4.055155315636471
 40
-4.055155315636471
 40
-4.055155315636471
 10
-0.000015396223386
 20
89.89148265547851
 30
0.0
 10
-0.0000153962177608
 20
89.8915037236044
 30
0.0
 10
-0.0000153962121371
 20
89.89152479075217
 30
0.0
 10
-0.000015396206515
 20
89.89154585692184
 30
0.0
  0
SPLINE
  5
13D
330
1F
100
AcDbEntity
  8
DEFAULT
100
AcDbSpline
210
0.0
220
0.0
230
1.0
 70
    12
 71
     3
 72
     8
 73
     4
 74
     0
 42
0.0000000001
 43
0.0000000001
 40
-14.49800822981319
 40
-14.49800822981319
 40
-14.49800822981319
 40
-14.49800822981319
 40
-4.055436385507964
 40
-4.055436385507964
 40
-4.055436385507964
 40
-4.055436385507964
 10
-0.0000154367081389
 20
87.53681226636162
 30
0.0
 41
0.972914336467131
 10
-0.000015436708224
 20
88.32170114475532
 30
0.0
 41
0.9729143364671304
 10
-0.0000154367082914
 20
89.106590023149
 30
0.0
 41
0.97291433646713
 10
-0.000015396223386
 20
89.89148265547853
 30
0.0
 41
0.97291433646713
  0
SPLINE
  5
13E
330
1F
100
AcDbEntity
  8
DEFAULT
100
AcDbSpline
210
0.0
220
0.0
230
1.0
 70
    24
 71
     2
 72
     6
 73
     3
 74
     0
 42
0.0000000001
 43
0.0000000001
 40
3.576437821412997
 40
3.576437821412997
 40
3.576437821412997
 40
14.04982723094704
 40
14.04982723094704
 40
14.04982723094704
 10
28.56647483173763
 20
80.43818856640247
 30
0.0
 10
26.10177635273579
 20
80.23831765828982
 30
0.0
 10
23.63707787373395
 20
80.03844675017716
 30
0.0
  0
SPLINE
  5
13F
330
1F
100
AcDbEntity
  8
DEFAULT
100
AcDbSpline
210
0.0
220
0.0
230
1.0
 70
     8
 71
     3
 72
     8
 73
     4
 74
     0
 42
0.0000000001
 43
0.0000000001
 40
2.765853781429518
 40
2.765853781429518
 40
2.765853781429518
 40
2.765853781429518
 40
3.576437610073669
 40
3.576437610073669
 40
3.576437610073669
 40
3.576437610073669
 10
28.94690039378705
 20
80.47161342662112
 30
0.0
 10
28.81827996915382
 20
80.45963490518778
 30
0.0
 10
28.69169551049394
 20
80.44856110635105
 30
0.0
 10
28.56647483173763
 20
80.43818856640247
 30
0.0
  0
LINE
  5
140
330
1F
100
AcDbEntity
  8
DEFAULT
100
AcDbLine
 10
-23.80667797653976
 20
79.85877129798844
 30
0.0
 11
-23.14435741659595
 21
77.97896819750683
 31
0.0
  0
SPLINE
  5
141
330
1F
100
AcDbEntity
  8
DEFAULT
100
AcDbSpline
210
0.0
220
0.0
230
1.0
 70
    12
 71
     2
 72
     6
 73
     3
 74
     0
 42
0.0000000001
 43
0.0000000001
 40
0.0
 40
0.0
 40
0.0
 40
1.178097209225416
 40
1.178097209225416
 40
1.178097209225416
 10
-23.15245834135377
 20
80.25887720236119
 30
0.0
 41
1.0
 10
-23.85983263717882
 20
80.00963524803477
 30
0.0
 41
0.7071067980961843
 10
-23.80667797653976
 20
79.85877129798845
 30
0.0
 41
1.0
  0
LINE
  5
142
330
1F
100
AcDbEntity
  8
DEFAULT
100
AcDbLine
 10
-4.857187920974266
 20
86.70495504120424
 30
0.0
 11
-23.15245834135377
 21
80.25887720236119
 31
0.0
  0
SPLINE
  5
143
330
1F
100
AcDbEntity
  8
DEFAULT
100
AcDbSpline
210
0.0
220
0.0
230
1.0
 70
     8
 71
     3
 72
    16
 73
    12
 74
     0
 42
0.0000000001
 43
0.0000000001
 40
0.0
 40
0.0
 40
0.0
 40
0.0
 40
2.473936230232489
 40
2.473936230232489
 40
4.949462755896429
 40
4.949462755896429
 40
7.424161539323203
 40
7.424161539323203
 40
8.661508395764614
 40
8.661508395764614
 40
9.900431827766019
 40
9.900431827766019
 40
9.900431827766019
 40
9.900431827766019
 10
4.857156028144832
 20
86.70494908895621
 30
0.0
 10
4.078532093641999
 20
86.97928086468411
 30
0.0
 10
3.278292216159463
 20
87.18744374232077
 30
0.0
 10
1.650446525627014
 20
87.46657265279242
 30
0.0
 10
0.8260910449889416
 20
87.5368056816258
 30
0.0
 10
-0.8257814145405835
 20
87.53681916137283
 30
0.0
 10
-1.650479765675993
 20
87.46662374770426
 30
0.0
 10
-2.871357444822283
 20
87.25728275243551
 30
0.0
 10
-3.273566658050077
 20
87.17067453504498
 30
0.0
 10
-4.073307105899579
 20
86.96277711900285
 30
0.0
 10
-4.467270415839779
 20
86.84236449580098
 30
0.0
 10
-4.857187920974266
 20
86.70495504120424
 30
0.0
  0
LINE
  5
144
330
1F
100
AcDbEntity
  8
DEFAULT
100
AcDbLine
 10
23.15245672264919
 20
80.25887279625982
 30
0.0
 11
4.857156028144832
 21
86.70494908895621
 31
0.0
  0
SPLINE
  5
145
330
1F
100
AcDbEntity
  8
DEFAULT
100
AcDbSpline
210
0.0
220
0.0
230
1.0
 70
    12
 71
     2
 72
     6
 73
     3
 74
     0
 42
0.0000000001
 43
0.0000000001
 40
-1.178097271734045
 40
-1.178097271734045
 40
-1.178097271734045
 40
0.0
 40
0.0
 40
0.0
 10
23.80667784609818
 20
79.85877092766646
 30
0.0
 41
1.0
 10
23.85983251116731
 20
80.009634890286
 30
0.0
 41
0.7071067686293339
 10
23.15245672264919
 20
80.25887279625982
 30
0.0
 41
1.0
  0
LINE
  5
146
330
1F
100
AcDbEntity
  8
DEFAULT
100
AcDbLine
 10
23.14435741661023
 20
77.97896819750179
 30
0.0
 11
23.80667784609818
 21
79.85877092766646
 31
0.0
  0
SPLINE
  5
147
330
1F
100
AcDbEntity
  8
DEFAULT
100
AcDbSpline
210
0.0
220
0.0
230
1.0
 70
    24
 71
     2
 72
     6
 73
     3
 74
     0
 42
0.0000000001
 43
0.0000000001
 40
3.576437821412997
 40
3.576437821412997
 40
3.576437821412997
 40
14.04982723094704
 40
14.04982723094704
 40
14.04982723094704
 10
-28.56647483173763
 20
80.43818856640247
 30
0.0
 10
-26.10177635273579
 20
80.23831765828982
 30
0.0
 10
-23.63707787373395
 20
80.03844675017716
 30
0.0
  0
SPLINE
  5
148
330
1F
100
AcDbEntity
  8
DEFAULT
100
AcDbSpline
210
0.0
220
0.0
230
1.0
 70
     8
 71
     3
 72
     8
 73
     4
 74
     0
 42
0.0000000001
 43
0.0000000001
 40
2.765853781429518
 40
2.765853781429518
 40
2.765853781429518
 40
2.765853781429518
 40
3.576437610073669
 40
3.576437610073669
 40
3.576437610073669
 40
3.576437610073669
 10
-28.94690039378705
 20
80.47161342662112
 30
0.0
 10
-28.81827996915382
 20
80.45963490518778
 30
0.0
 10
-28.69169551049394
 20
80.44856110635105
 30
0.0
 10
-28.56647483173763
 20
80.43818856640247
 30
0.0
  0
LINE
  5
149
330
1F
100
AcDbEntity
  8
DEFAULT
100
AcDbLine
 10
-10.87201202232242
 20
86.91190118623588
 30
0.0
 11
-12.0484632006934
 21
90.2084754044574
 31
0.0
  0
POLYLINE
  5
14A
330
1F
100
AcDbEntity
  8
DEFAULT
100
AcDb2dPolyline
 66
     1
 10
0.0
 20
0.0
 30
0.0
  0
VERTEX
  5
14B
330
14A
100
AcDbEntity
  8
DEFAULT
100
AcDbVertex
100
AcDb2dVertex
 10
59.26842263034612
 20
35.13467437534149
 30
0.0
  0
VERTEX
  5
14C
330
14A
100
AcDbEntity
  8
DEFAULT
100
AcDbVertex
100
AcDb2dVertex
 10
56.84041106436943
 20
35.0341737760798
 30
0.0
  0
SEQEND
  5
14D
330
14A
100
AcDbEntity
  8
DEFAULT
  0
SPLINE
  5
14E
330
1F
100
AcDbEntity
  8
DEFAULT
100
AcDbSpline
210
0.0
220
0.0
230
1.0
 70
     8
 71
     3
 72
    10
 73
     6
 74
     0
 42
0.0000000001
 43
0.0000000001
 40
26.53530263921905
 40
26.53530263921905
 40
26.53530263921905
 40
26.53530263921905
 40
34.90474430153154
 40
34.90474430153154
 40
43.2716351053302
 40
43.2716351053302
 40
43.2716351053302
 40
43.2716351053302
 10
51.65149386711308
 20
32.25008017556254
 30
0.0
 10
52.46828478039554
 20
32.71543583253901
 30
0.0
 10
53.3153005176404
 20
33.18217823917412
 30
0.0
 10
55.05153738168011
 20
34.11174229902961
 30
0.0
 10
55.9406386338219
 20
34.57454661731774
 30
0.0
 10
56.84041106436943
 20
35.0341737760798
 30
0.0
  0
SPLINE
  5
14F
330
1F
100
AcDbEntity
  8
DEFAULT
100
AcDbSpline
210
0.0
220
0.0
230
1.0
 70
     8
 71
     3
 72
     8
 73
     4
 74
     0
 42
0.0000000001
 43
0.0000000001
 40
26.00125719378367
 40
26.00125719378367
 40
26.00125719378367
 40
26.00125719378367
 40
26.53530263921905
 40
26.53530263921905
 40
26.53530263921905
 40
26.53530263921905
 10
51.49500040544349
 20
32.16073424854524
 30
0.0
 10
51.54715952624532
 20
32.19054097242779
 30
0.0
 10
51.59932396385865
 20
32.22032278205069
 30
0.0
 10
51.65149386711308
 20
32.25008017556254
 30
0.0
  0
SPLINE
  5
150
330
1F
100
AcDbEntity
  8
DEFAULT
100
AcDbSpline
210
0.0
220
0.0
230
1.0
 70
    24
 71
     2
 72
     6
 73
     3
 74
     0
 42
0.0000000001
 43
0.0000000001
 40
13.50064244463158
 40
13.50064244463158
 40
13.50064244463158
 40
26.00125719378367
 40
26.00125719378367
 40
26.00125719378367
 10
47.83317299828912
 20
30.06816787060224
 30
0.0
 10
49.66408670186631
 20
31.11445105957374
 30
0.0
 10
51.49500040544349
 20
32.16073424854524
 30
0.0
  0
SPLINE
  5
151
330
1F
100
AcDbEntity
  8
DEFAULT
100
AcDbSpline
210
0.0
220
0.0
230
1.0
 70
    24
 71
     5
 72
    12
 73
     6
 74
     0
 42
0.0000000001
 43
0.0000000001
 40
13.50057462256578
 40
13.50057462256578
 40
13.50057462256578
 40
13.50057462256578
 40
13.50057462256578
 40
13.50057462256578
 40
13.50064244463158
 40
13.50064244463158
 40
13.50064244463158
 40
13.50064244463158
 40
13.50064244463158
 40
13.50064244463158
 10
47.832953594747
 20
30.06804249151018
 30
0.0
 10
47.83299747544977
 20
30.06806756735195
 30
0.0
 10
47.83304135615971
 20
30.06809264316441
 30
0.0
 10
47.83308523686955
 20
30.06811771897699
 30
0.0
 10
47.83312911757933
 20
30.06814279478962
 30
0.0
 10
47.83317299828912
 20
30.06816787060224
 30
0.0
  0
SPLINE
  5
152
330
1F
100
AcDbEntity
  8
DEFAULT
100
AcDbSpline
210
0.0
220
0.0
230
1.0
 70
     8
 71
     3
 72
    22
 73
    18
 74
     0
 42
0.0000000001
 43
0.0000000001
 40
12.50069991812755
 40
12.50069991812755
 40
12.50069991812755
 40
12.50069991812755
 40
12.62677813424883
 40
12.62677813424883
 40
12.75279761421796
 40
12.75279761421796
 40
12.87666651816746
 40
12.87666651816746
 40
13.0006385987283
 40
13.0006385987283
 40
13.12451601933349
 40
13.12451601933349
 40
13.24836288873636
 40
13.24836288873636
 40
13.37448487537149
 40
13.37448487537149
 40
13.50057462256578
 40
13.50057462256578
 40
13.50057462256578
 40
13.50057462256578
 10
47.83292869634864
 20
30.06804962328125
 30
0.0
 10
47.69314995558062
 20
29.98808697055269
 30
0.0
 10
47.5760576522182
 20
29.91535148938498
 30
0.0
 10
47.37347909728478
 20
29.78476948131956
 30
0.0
 10
47.28778163925997
 20
29.72680193093595
 30
0.0
 10
47.14721304912942
 20
29.62998018873117
 30
0.0
 10
47.0957681667623
 20
29.59351620718747
 30
0.0
 10
47.02670929990666
 20
29.5443304560747
 30
0.0
 10
47.00911645184682
 20
29.53162684952822
 30
0.0
 10
47.00911873379061
 20
29.53162569003893
 30
0.0
 10
47.02668719998218
 20
29.54430879429507
 30
0.0
 10
47.0956654381777
 20
29.5934327970768
 30
0.0
 10
47.14707372792784
 20
29.62986942444652
 30
0.0
 10
47.28762163026543
 20
29.7266768998609
 30
0.0
 10
47.37338392978995
 20
29.78468985745556
 30
0.0
 10
47.57605497669852
 20
29.91533033403759
 30
0.0
 10
47.69316008433154
 20
29.98807351171779
 30
0.0
 10
47.832953594747
 20
30.06804249151018
 30
0.0
  0
SPLINE
  5
153
330
1F
100
AcDbEntity
  8
DEFAULT
100
AcDbSpline
210
0.0
220
0.0
230
1.0
 70
    12
 71
     2
 72
     6
 73
     3
 74
     0
 42
0.0000000001
 43
0.0000000001
 40
12.50069281579088
 40
12.50069281579088
 40
12.50069281579088
 40
12.50069991812755
 40
12.50069991812755
 40
12.50069991812755
 10
47.83295171228463
 20
30.06805139653307
 30
0.0
 41
1.0
 10
47.83293948863971
 20
30.06805389509728
 30
0.0
 41
0.9999996537770662
 10
47.83292869634862
 20
30.06804962328124
 30
0.0
 41
0.999999307558558
  0
SPLINE
  5
154
330
1F
100
AcDbEntity
  8
DEFAULT
100
AcDbSpline
210
0.0
220
0.0
230
1.0
 70
     8
 71
     3
 72
     8
 73
     4
 74
     0
 42
0.0000000001
 43
0.0000000001
 40
12.50069991812755
 40
12.50069991812755
 40
12.50069991812755
 40
12.50069991812755
 40
12.50070619211792
 40
12.50070619211792
 40
12.50070619211792
 40
12.50070619211792
 10
47.83297365344516
 20
30.06805825453847
 30
0.0
 10
47.83297362707052
 20
30.06805823945089
 30
0.0
 10
47.83297360069589
 20
30.06805822436331
 30
0.0
 10
47.83295171228463
 20
30.06805139653307
 30
0.0
  0
SPLINE
  5
155
330
1F
100
AcDbEntity
  8
DEFAULT
100
AcDbSpline
210
0.0
220
0.0
230
1.0
 70
    24
 71
     5
 72
    12
 73
     6
 74
     0
 42
0.0000000001
 43
0.0000000001
 40
12.50062954215357
 40
12.50062954215357
 40
12.50062954215357
 40
12.50062954215357
 40
12.50062954215357
 40
12.50062954215357
 40
12.50069991812755
 40
12.50069991812755
 40
12.50069991812755
 40
12.50069991812755
 40
12.50069991812755
 40
12.50069991812755
 10
47.83318044909669
 20
30.06817642862523
 30
0.0
 10
47.83313908996494
 20
30.06815279381356
 30
0.0
 10
47.83309773083318
 20
30.06812915900189
 30
0.0
 10
47.83305637170138
 20
30.06810552419027
 30
0.0
 10
47.8330150125695
 20
30.06808188937874
 30
0.0
 10
47.83297365344516
 20
30.06805825453847
 30
0.0
  0
SPLINE
  5
156
330
1F
100
AcDbEntity
  8
DEFAULT
100
AcDbSpline
210
0.0
220
0.0
230
1.0
 70
    24
 71
     2
 72
     6
 73
     3
 74
     0
 42
0.0000000001
 43
0.0000000001
 40
-0.0000088559543294
 40
-0.0000088559543294
 40
-0.0000088559543294
 40
12.50062954215357
 40
12.50062954215357
 40
12.50062954215357
 10
51.49500147757927
 20
32.16073608101035
 30
0.0
 10
49.66409096333798
 20
31.11445625481779
 30
0.0
 10
47.83318044909669
 20
30.06817642862523
 30
0.0
  0
SPLINE
  5
157
330
1F
100
AcDbEntity
  8
DEFAULT
100
AcDbSpline
210
0.0
220
0.0
230
1.0
 70
     8
 71
     3
 72
     8
 73
     4
 74
     0
 42
0.0000000001
 43
0.0000000001
 40
-0.5340524062130695
 40
-0.5340524062130695
 40
-0.5340524062130695
 40
-0.5340524062130695
 40
-0.0000088559543294
 40
-0.0000088559543294
 40
-0.0000088559543294
 40
-0.0000088559543294
 10
51.65149341321494
 20
32.250081201289
 30
0.0
 10
51.59932365403444
 20
32.22032395158161
 30
0.0
 10
51.54715990730082
 20
32.19054247374213
 30
0.0
 10
51.49500147757927
 20
32.16073608101035
 30
0.0
  0
SPLINE
  5
158
330
1F
100
AcDbEntity
  8
DEFAULT
100
AcDbSpline
210
0.0
220
0.0
230
1.0
 70
     8
 71
     3
 72
    18
 73
    14
 74
     0
 42
0.0000000001
 43
0.0000000001
 40
-0.534056823846967
 40
-0.534056823846967
 40
-0.534056823846967
 40
-0.534056823846967
 40
-0.5340541034339862
 40
-0.5340541034339862
 40
-0.5340513839194669
 40
-0.5340513839194669
 40
-0.5340486633397569
 40
-0.5340486633397569
 40
-0.5340459396772754
 40
-0.5340459396772754
 40
-0.5340432187190138
 40
-0.5340432187190138
 40
-0.5340425688234753
 40
-0.5340425688234753
 40
-0.5340425688234753
 40
-0.5340425688234753
 10
51.65149552801302
 20
32.25008261830293
 30
0.0
 10
51.651495353954
 20
32.25008251902177
 30
0.0
 10
51.65149517989538
 20
32.25008241973917
 30
0.0
 10
51.6514948318362
 20
32.2500822212046
 30
0.0
 10
51.65149465783566
 20
32.25008212195263
 30
0.0
 10
51.6514943097668
 20
32.25008192340837
 30
0.0
 10
51.65149413569848
 20
32.25008182411608
 30
0.0
 10
51.65149378736481
 20
32.25008162541827
 30
0.0
 10
51.65149361309945
 20
32.25008152601274
 30
0.0
 10
51.65149326474177
 20
32.25008132730039
 30
0.0
 10
51.65149309064945
 20
32.25008122799355
 30
0.0
 10
51.65149287497538
 20
32.25008110496793
 30
0.0
 10
51.65149283339374
 20
32.25008108124879
 30
0.0
 10
51.65149341321494
 20
32.250081201289
 30
0.0
  0
SPLINE
  5
159
330
1F
100
AcDbEntity
  8
DEFAULT
100
AcDbSpline
210
0.0
220
0.0
230
1.0
 70
     8
 71
     3
 72
    10
 73
     6
 74
     0
 42
0.0000000001
 43
0.0000000001
 40
-17.2703715944569
 40
-17.2703715944569
 40
-17.2703715944569
 40
-17.2703715944569
 40
-8.900938781243552
 40
-8.900938781243552
 40
-0.534056823846967
 40
-0.534056823846967
 40
-0.534056823846967
 40
-0.534056823846967
 10
56.84041106264903
 20
35.03417376439096
 30
0.0
 10
55.94036470222484
 20
34.57440746356764
 30
0.0
 10
55.05099602613944
 20
34.11146198351787
 30
0.0
 10
53.31478553149971
 20
33.18189668880012
 30
0.0
 10
52.4680376007796
 20
32.7152970537722
 30
0.0
 10
51.65149552801302
 20
32.25008261830293
 30
0.0
  0
LINE
  5
15A
330
1F
100
AcDbEntity
  8
DEFAULT
100
AcDbLine
 10
60.6250451739605
 20
1.749999999999954
 30
0.0
 11
52.01953901172003
 21
32.45871508132499
 31
0.0
  0
ENDSEC
  0
SECTION
  2
OBJECTS
  0
DICTIONARY
  5
C
330
0
100
AcDbDictionary
281
     1
  3
ACAD_GROUP
350
D
  3
ACAD_LAYOUT
350
1A
  3
ACAD_MLEADERSTYLE
350
15C
  3
ACAD_MLINESTYLE
350
17
  3
ACAD_PLOTSETTINGS
350
19
  3
ACAD_PLOTSTYLENAME
350
E
  3
ACAD_TABLESTYLE
350
15B
  3
ACAD_VISUALSTYLE
350
2A
  0
DICTIONARY
  5
D
102
{ACAD_REACTORS
330
C
102
}
330
C
100
AcDbDictionary
281
     1
  0
DICTIONARY
  5
1A
102
{ACAD_REACTORS
330
C
102
}
330
C
100
AcDbDictionary
281
     1
  3
Layout1
350
1E
  3
Layout2
350
26
  3
Model
350
22
  0
DICTIONARY
  5
15C
102
{ACAD_REACTORS
330
C
102
}
330
C
100
AcDbDictionary
281
     1
  0
DICTIONARY
  5
17
102
{ACAD_REACTORS
330
C
102
}
330
C
100
AcDbDictionary
281
     1
  3
Standard
350
18
  0
DICTIONARY
  5
19
102
{ACAD_REACTORS
330
C
102
}
330
C
100
AcDbDictionary
281
     1
  0
ACDBDICTIONARYWDFLT
  5
E
102
{ACAD_REACTORS
330
C
102
}
330
C
100
AcDbDictionary
281
     1
  3
Normal
350
F
100
AcDbDictionaryWithDefault
340
F
  0
DICTIONARY
  5
15B
102
{ACAD_REACTORS
330
C
102
}
330
C
100
AcDbDictionary
281
     1
  0
DICTIONARY
  5
2A
102
{ACAD_REACTORS
330
C
102
}
330
C
100
AcDbDictionary
281
     1
  3
2dWireframe
350
2F
  3
3D Hidden
350
31
  3
3dWireframe
350
30
  3
Basic
350
32
  3
Brighten
350
36
  3
ColorChange
350
3A
  3
Conceptual
350
34
  3
Dim
350
35
  3
Facepattern
350
39
  3
Flat
350
2B
  3
FlatWithEdges
350
2C
  3
Gouraud
350
2D
  3
GouraudWithEdges
350
2E
  3
Linepattern
350
38
  3
Realistic
350
33
  3
Thicken
350
37
  0
LAYOUT
  5
1E
102
{ACAD_REACTORS
330
1A
102
}
330
1A
100
AcDbPlotSettings
  1

  2
none_device
  4

  6

 40
0.0
 41
0.0
 42
0.0
 43
0.0
 44
0.0
 45
0.0
 46
0.0
 47
0.0
 48
0.0
 49
0.0
140
0.0
141
0.0
142
1.0
143
1.0
 70
   688
 72
     0
 73
     0
 74
     5
  7

 75
    16
 76
     0
 77
     2
 78
   300
147
1.0
148
0.0
149
0.0
100
AcDbLayout
  1
Layout1
 70
     1
 71
     1
 10
0.0
 20
0.0
 11
12.0
 21
9.0
 12
0.0
 22
0.0
 32
0.0
 14
1.000000000000000E+20
 24
1.000000000000000E+20
 34
1.000000000000000E+20
 15
-1.000000000000000E+20
 25
-1.000000000000000E+20
 35
-1.000000000000000E+20
146
0.0
 13
0.0
 23
0.0
 33
0.0
 16
1.0
 26
0.0
 36
0.0
 17
0.0
 27
1.0
 37
0.0
 76
     0
330
1B
  0
LAYOUT
  5
26
102
{ACAD_REACTORS
330
1A
102
}
330
1A
100
AcDbPlotSettings
  1

  2
none_device
  4

  6

 40
0.0
 41
0.0
 42
0.0
 43
0.0
 44
0.0
 45
0.0
 46
0.0
 47
0.0
 48
0.0
 49
0.0
140
0.0
141
0.0
142
1.0
143
1.0
 70
   688
 72
     0
 73
     0
 74
     5
  7

 75
    16
 76
     0
 77
     2
 78
   300
147
1.0
148
0.0
149
0.0
100
AcDbLayout
  1
Layout2
 70
     1
 71
     2
 10
0.0
 20
0.0
 11
0.0
 21
0.0
 12
0.0
 22
0.0
 32
0.0
 14
0.0
 24
0.0
 34
0.0
 15
0.0
 25
0.0
 35
0.0
146
0.0
 13
0.0
 23
0.0
 33
0.0
 16
1.0
 26
0.0
 36
0.0
 17
0.0
 27
1.0
 37
0.0
 76
     0
330
23
  0
LAYOUT
  5
22
102
{ACAD_REACTORS
330
1A
102
}
330
1A
100
AcDbPlotSettings
  1

  2
none_device
  4

  6

 40
0.0
 41
0.0
 42
0.0
 43
0.0
 44
0.0
 45
0.0
 46
0.0
 47
0.0
 48
0.0
 49
0.0
140
0.0
141
0.0
142
1.0
143
1.0
 70
  1712
 72
     0
 73
     0
 74
     0
  7

 75
     0
 76
     0
 77
     2
 78
   300
147
1.0
148
0.0
149
0.0
100
AcDbLayout
  1
Model
 70
     1
 71
     0
 10
0.0
 20
0.0
 11
12.0
 21
9.0
 12
0.0
 22
0.0
 32
0.0
 14
-33.50688106964618
 24
0.0000000000000004
 34
0.0
 15
79.17891668481113
 25
94.61421080081885
 35
0.0
146
0.0
 13
0.0
 23
0.0
 33
0.0
 16
1.0
 26
0.0
 36
0.0
 17
0.0
 27
1.0
 37
0.0
 76
     0
330
1F
331
29
  0
MLINESTYLE
  5
18
102
{ACAD_REACTORS
330
17
102
}
330
17
100
AcDbMlineStyle
  2
Standard
 70
     0
  3

 62
   256
 51
90.0
 52
90.0
 71
     2
 49
0.5
 62
   256
  6
BYLAYER
 49
-0.5
 62
   256
  6
BYLAYER
  0
ACDBPLACEHOLDER
  5
F
102
{ACAD_REACTORS
330
E
102
}
330
E
  0
VISUALSTYLE
  5
2F
102
{ACAD_REACTORS
330
2A
102
}
330
2A
100
AcDbVisualStyle
  2
2dWireframe
 70
     4
 71
     0
 72
     2
 73
     0
 90
        0
 40
-0.6
 41
-30.0
 62
     5
 63
     7
421
 16777215
 74
     1
 91
        4
 64
     7
 65
   257
 75
     1
175
     1
 42
1.0
 92
        0
 66
   257
 43
1.0
 76
     1
 77
     6
 78
     2
 67
     7
 79
     5
170
     0
171
     0
290
     0
174
     0
 93
        1
 44
0.0
173
     0
291
     0
 45
0.0
1001
ACAD
1000
AcDbSavedByObjectVersion
1070
     0
  0
VISUALSTYLE
  5
31
102
{ACAD_REACTORS
330
2A
102
}
330
2A
100
AcDbVisualStyle
  2
3D Hidden
 70
     6
 71
     1
 72
     2
 73
     2
 90
        0
 40
-0.6
 41
-30.0
 62
     5
 63
     7
421
 16777215
 74
     2
 91
        2
 64
     7
 65
   257
 75
     2
175
     1
 42
40.0
 92
        0
 66
   257
 43
1.0
 76
     1
 77
     6
 78
     2
 67
     7
 79
     3
170
     0
171
     0
290
     0
174
     0
 93
        1
 44
0.0
173
     0
291
     0
 45
0.0
1001
ACAD
1000
AcDbSavedByObjectVersion
1070
     0
  0
VISUALSTYLE
  5
30
102
{ACAD_REACTORS
330
2A
102
}
330
2A
100
AcDbVisualStyle
  2
3dWireframe
 70
     5
 71
     0
 72
     2
 73
     0
 90
        0
 40
-0.6
 41
-30.0
 62
     5
 63
     7
421
 16777215
 74
     1
 91
        4
 64
     7
 65
   257
 75
     1
175
     1
 42
1.0
 92
        0
 66
   257
 43
1.0
 76
     1
 77
     6
 78
     2
 67
     7
 79
     5
170
     0
171
     0
290
     0
174
     0
 93
        1
 44
0.0
173
     0
291
     0
 45
0.0
1001
ACAD
1000
AcDbSavedByObjectVersion
1070
     0
  0
VISUALSTYLE
  5
32
102
{ACAD_REACTORS
330
2A
102
}
330
2A
100
AcDbVisualStyle
  2
Basic
 70
     7
 71
     1
 72
     0
 73
     1
 90
        0
 40
-0.6
 41
-30.0
 62
     5
 63
     7
421
 16777215
 74
     0
 91
        4
 64
     7
 65
   257
 75
     1
175
     1
 42
1.0
 92
        8
 66
     7
 43
1.0
 76
     1
 77
     6
 78
     2
 67
     7
 79
     5
170
     0
171
     0
290
     0
174
     0
 93
        1
 44
0.0
173
     0
291
     1
 45
0.0
1001
ACAD
1000
AcDbSavedByObjectVersion
1070
     0
  0
VISUALSTYLE
  5
36
102
{ACAD_REACTORS
330
2A
102
}
330
2A
100
AcDbVisualStyle
  2
Brighten
 70
    12
 71
     2
 72
     2
 73
     0
 90
        0
 40
-0.6
 41
-30.0
 62
     5
 63
     7
421
 16777215
 74
     1
 91
        4
 64
     7
 65
   257
 75
     1
175
     1
 42
1.0
 92
        8
 66
     7
 43
1.0
 76
     1
 77
     6
 78
     2
 67
     7
 79
     5
170
     0
171
     0
290
     0
174
     0
 93
        1
 44
50.0
173
     0
291
     1
 45
0.0
1001
ACAD
1000
AcDbSavedByObjectVersion
1070
     0
  0
VISUALSTYLE
  5
3A
102
{ACAD_REACTORS
330
2A
102
}
330
2A
100
AcDbVisualStyle
  2
ColorChange
 70
    16
 71
     2
 72
     2
 73
     3
 90
        0
 40
-0.6
 41
-30.0
 62
     5
 63
     8
421
  8421504
 74
     1
 91
        4
 64
     7
 65
   257
 75
     1
175
     1
 42
1.0
 92
        8
 66
     8
424
  8421504
 43
1.0
 76
     1
 77
     6
 78
     2
 67
     7
 79
     5
170
     0
171
     0
290
     0
174
     0
 93
        1
 44
0.0
173
     0
291
     1
 45
0.0
1001
ACAD
1000
AcDbSavedByObjectVersion
1070
     0
  0
VISUALSTYLE
  5
34
102
{ACAD_REACTORS
330
2A
102
}
330
2A
100
AcDbVisualStyle
  2
Conceptual
 70
     9
 71
     3
 72
     2
 73
     0
 90
        0
 40
-0.6
 41
-30.0
 62
     5
 63
     7
421
 16777215
 74
     2
 91
        2
 64
     7
 65
   257
 75
     1
175
     1
 42
40.0
 92
        8
 66
     7
 43
1.0
 76
     1
 77
     6
 78
     2
 67
     7
 79
     3
170
     0
171
     0
290
     0
174
     0
 93
        1
 44
0.0
173
     0
291
     0
 45
0.0
1001
ACAD
1000
AcDbSavedByObjectVersion
1070
     0
  0
VISUALSTYLE
  5
35
102
{ACAD_REACTORS
330
2A
102
}
330
2A
100
AcDbVisualStyle
  2
Dim
 70
    11
 71
     2
 72
     2
 73
     0
 90
        0
 40
-0.6
 41
-30.0
 62
     5
 63
     7
421
 16777215
 74
     1
 91
        4
 64
     7
 65
   257
 75
     1
175
     1
 42
1.0
 92
        8
 66
     7
 43
1.0
 76
     1
 77
     6
 78
     2
 67
     7
 79
     5
170
     0
171
     0
290
     0
174
     0
 93
        1
 44
-50.0
173
     0
291
     1
 45
0.0
1001
ACAD
1000
AcDbSavedByObjectVersion
1070
     0
  0
VISUALSTYLE
  5
39
102
{ACAD_REACTORS
330
2A
102
}
330
2A
100
AcDbVisualStyle
  2
Facepattern
 70
    15
 71
     2
 72
     2
 73
     0
 90
        0
 40
-0.6
 41
-30.0
 62
     5
 63
     7
421
 16777215
 74
     1
 91
        4
 64
     7
 65
   257
 75
     1
175
     1
 42
1.0
 92
        8
 66
     7
 43
1.0
 76
     1
 77
     6
 78
     2
 67
     7
 79
     5
170
     0
171
     0
290
     0
174
     0
 93
        1
 44
0.0
173
     0
291
     1
 45
0.0
1001
ACAD
1000
AcDbSavedByObjectVersion
1070
     0
  0
VISUALSTYLE
  5
2B
102
{ACAD_REACTORS
330
2A
102
}
330
2A
100
AcDbVisualStyle
  2
Flat
 70
     0
 71
     2
 72
     1
 73
     1
 90
        2
 40
-0.6
 41
30.0
 62
     5
 63
     7
421
 16777215
 74
     0
 91
        4
 64
     7
 65
   257
 75
     1
175
     1
 42
1.0
 92
        8
 66
     7
 43
1.0
 76
     1
 77
     6
 78
     2
 67
     7
 79
     5
170
     0
171
     0
290
     0
174
     0
 93
       13
 44
0.0
173
     0
291
     1
 45
0.0
1001
ACAD
1000
AcDbSavedByObjectVersion
1070
     0
  0
VISUALSTYLE
  5
2C
102
{ACAD_REACTORS
330
2A
102
}
330
2A
100
AcDbVisualStyle
  2
FlatWithEdges
 70
     1
 71
     2
 72
     1
 73
     1
 90
        2
 40
-0.6
 41
30.0
 62
     5
 63
     7
421
 16777215
 74
     1
 91
        4
 64
     7
 65
   257
 75
     1
175
     1
 42
1.0
 92
        0
 66
   257
 43
1.0
 76
     1
 77
     6
 78
     2
 67
     7
 79
     5
170
     0
171
     0
290
     0
174
     0
 93
       13
 44
0.0
173
     0
291
     1
 45
0.0
1001
ACAD
1000
AcDbSavedByObjectVersion
1070
     0
  0
VISUALSTYLE
  5
2D
102
{ACAD_REACTORS
330
2A
102
}
330
2A
100
AcDbVisualStyle
  2
Gouraud
 70
     2
 71
     2
 72
     2
 73
     1
 90
        2
 40
-0.6
 41
30.0
 62
     5
 63
     7
421
 16777215
 74
     0
 91
        4
 64
     7
 65
   257
 75
     1
175
     1
 42
1.0
 92
        0
 66
     7
 43
1.0
 76
     1
 77
     6
 78
     2
 67
     7
 79
     5
170
     0
171
     0
290
     0
174
     0
 93
       13
 44
0.0
173
     0
291
     1
 45
0.0
1001
ACAD
1000
AcDbSavedByObjectVersion
1070
     0
  0
VISUALSTYLE
  5
2E
102
{ACAD_REACTORS
330
2A
102
}
330
2A
100
AcDbVisualStyle
  2
GouraudWithEdges
 70
     3
 71
     2
 72
     2
 73
     1
 90
        2
 40
-0.6
 41
30.0
 62
     5
 63
     7
421
 16777215
 74
     1
 91
        4
 64
     7
 65
   257
 75
     1
175
     1
 42
1.0
 92
        0
 66
   257
 43
1.0
 76
     1
 77
     6
 78
     2
 67
     7
 79
     5
170
     0
171
     0
290
     0
174
     0
 93
       13
 44
0.0
173
     0
291
     1
 45
0.0
1001
ACAD
1000
AcDbSavedByObjectVersion
1070
     0
  0
VISUALSTYLE
  5
38
102
{ACAD_REACTORS
330
2A
102
}
330
2A
100
AcDbVisualStyle
  2
Linepattern
 70
    14
 71
     2
 72
     2
 73
     0
 90
        0
 40
-0.6
 41
-30.0
 62
     5
 63
     7
421
 16777215
 74
     1
 91
        4
 64
     7
 65
   257
 75
     7
175
     7
 42
1.0
 92
        8
 66
     7
 43
1.0
 76
     1
 77
     6
 78
     2
 67
     7
 79
     5
170
     0
171
     0
290
     0
174
     0
 93
        1
 44
0.0
173
     0
291
     1
 45
0.0
1001
ACAD
1000
AcDbSavedByObjectVersion
1070
     0
  0
VISUALSTYLE
  5
33
102
{ACAD_REACTORS
330
2A
102
}
330
2A
100
AcDbVisualStyle
  2
Realistic
 70
     8
 71
     2
 72
     2
 73
     0
 90
        0
 40
-0.6
 41
-30.0
 62
     5
 63
     7
421
 16777215
 74
     1
 91
        0
 64
     7
 65
   257
 75
     1
175
     1
 42
1.0
 92
        8
 66
     8
424
  7895160
 43
1.0
 76
     1
 77
     6
 78
     2
 67
     7
 79
     5
170
     0
171
     0
290
     0
174
     0
 93
       13
 44
0.0
173
     0
291
     0
 45
0.0
1001
ACAD
1000
AcDbSavedByObjectVersion
1070
     0
  0
VISUALSTYLE
  5
37
102
{ACAD_REACTORS
330
2A
102
}
330
2A
100
AcDbVisualStyle
  2
Thicken
 70
    13
 71
     2
 72
     2
 73
     0
 90
        0
 40
-0.6
 41
-30.0
 62
     5
 63
     7
421
 16777215
 74
     1
 91
        4
 64
     7
 65
   257
 75
     1
175
     1
 42
1.0
 92
       12
 66
     7
 43
1.0
 76
     1
 77
     6
 78
     2
 67
     7
 79
     5
170
     0
171
     0
290
     0
174
     0
 93
        1
 44
0.0
173
     0
291
     1
 45
0.0
1001
ACAD
1000
AcDbSavedByObjectVersion
1070
     0
  0
ENDSEC
  0
EOF
