  0
SECTION
  2
HEADER
  9
$ACADVER
  1
AC1018
  9
$ACADMAINTVER
 70
     0
  9
$DWGCODEPAGE
  3
ANSI_1252
  9
$INSBASE
 10
0.0
 20
0.0
 30
0.0
  9
$EXTMIN
 10
1103.796019960544
 20
-1459.03081976288
 30
-0.000000000000002
  9
$EXTMAX
 10
3848.14763530478
 20
1285.320795581358
 30
0.000000000000007
  9
$LIMMIN
 10
0.0
 20
0.0
  9
$LIMMAX
 10
12.0
 20
9.0
  9
$ORTHOMODE
 70
     0
  9
$REGENMODE
 70
     1
  9
$FILLMODE
 70
     1
  9
$QTEXTMODE
 70
     0
  9
$MIRRTEXT
 70
     1
  9
$LTSCALE
 40
1.0
  9
$ATTMODE
 70
     1
  9
$TEXTSIZE
 40
0.2
  9
$TRACEWID
 40
0.05
  9
$TEXTSTYLE
  7
Standard
  9
$CLAYER
  8
0
  9
$CELTYPE
  6
ByLayer
  9
$CECOLOR
 62
   256
  9
$CELTSCALE
 40
1.0
  9
$DISPSILH
 70
     0
  9
$DIMSCALE
 40
1.0
  9
$DIMASZ
 40
0.18
  9
$DIMEXO
 40
0.0625
  9
$DIMDLI
 40
0.38
  9
$DIMRND
 40
0.0
  9
$DIMDLE
 40
0.0
  9
$DIMEXE
 40
0.18
  9
$DIMTP
 40
0.0
  9
$DIMTM
 40
0.0
  9
$DIMTXT
 40
0.18
  9
$DIMCEN
 40
0.09
  9
$DIMTSZ
 40
0.0
  9
$DIMTOL
 70
     0
  9
$DIMLIM
 70
     0
  9
$DIMTIH
 70
     1
  9
$DIMTOH
 70
     1
  9
$DIMSE1
 70
     0
  9
$DIMSE2
 70
     0
  9
$DIMTAD
 70
     0
  9
$DIMZIN
 70
     0
  9
$DIMBLK
  1

  9
$DIMASO
 70
     1
  9
$DIMSHO
 70
     1
  9
$DIMPOST
  1

  9
$DIMAPOST
  1

  9
$DIMALT
 70
     0
  9
$DIMALTD
 70
     2
  9
$DIMALTF
 40
25.4
  9
$DIMLFAC
 40
1.0
  9
$DIMTOFL
 70
     0
  9
$DIMTVP
 40
0.0
  9
$DIMTIX
 70
     0
  9
$DIMSOXD
 70
     0
  9
$DIMSAH
 70
     0
  9
$DIMBLK1
  1

  9
$DIMBLK2
  1

  9
$DIMSTYLE
  2
Standard
  9
$DIMCLRD
 70
     0
  9
$DIMCLRE
 70
     0
  9
$DIMCLRT
 70
     0
  9
$DIMTFAC
 40
1.0
  9
$DIMGAP
 40
0.09
  9
$DIMJUST
 70
     0
  9
$DIMSD1
 70
     0
  9
$DIMSD2
 70
     0
  9
$DIMTOLJ
 70
     1
  9
$DIMTZIN
 70
     0
  9
$DIMALTZ
 70
     0
  9
$DIMALTTZ
 70
     0
  9
$DIMUPT
 70
     0
  9
$DIMDEC
 70
     4
  9
$DIMTDEC
 70
     4
  9
$DIMALTU
 70
     2
  9
$DIMALTTD
 70
     2
  9
$DIMTXSTY
  7
Standard
  9
$DIMAUNIT
 70
     0
  9
$DIMADEC
 70
     0
  9
$DIMALTRND
 40
0.0
  9
$DIMAZIN
 70
     0
  9
$DIMDSEP
 70
    46
  9
$DIMATFIT
 70
     3
  9
$DIMFRAC
 70
     0
  9
$DIMLDRBLK
  1

  9
$DIMLUNIT
 70
     2
  9
$DIMLWD
 70
    -2
  9
$DIMLWE
 70
    -2
  9
$DIMTMOVE
 70
     2
  9
$LUNITS
 70
     2
  9
$LUPREC
 70
     3
  9
$SKETCHINC
 40
0.1
  9
$FILLETRAD
 40
0.5
  9
$AUNITS
 70
     0
  9
$AUPREC
 70
     0
  9
$MENU
  1
.
  9
$ELEVATION
 40
0.0
  9
$PELEVATION
 40
0.0
  9
$THICKNESS
 40
0.0
  9
$LIMCHECK
 70
     0
  9
$CHAMFERA
 40
0.5
  9
$CHAMFERB
 40
0.5
  9
$CHAMFERC
 40
1.0
  9
$CHAMFERD
 40
0.0
  9
$SKPOLY
 70
     0
  9
$TDCREATE
 40
2456377.850582269
  9
$TDUCREATE
 40
2456377.808915602
  9
$TDUPDATE
 40
2456377.85058228
  9
$TDUUPDATE
 40
2456377.808915613
  9
$TDINDWG
 40
0.0000000116
  9
$TDUSRTIMER
 40
0.0000000116
  9
$USRTIMER
 70
     1
  9
$ANGBASE
 50
0.0
  9
$ANGDIR
 70
     0
  9
$PDMODE
 70
     0
  9
$PDSIZE
 40
0.0
  9
$PLINEWID
 40
0.0
  9
$SPLFRAME
 70
     0
  9
$SPLINETYPE
 70
     6
  9
$SPLINESEGS
 70
     8
  9
$HANDSEED
  5
117
  9
$SURFTAB1
 70
     6
  9
$SURFTAB2
 70
     6
  9
$SURFTYPE
 70
     6
  9
$SURFU
 70
     6
  9
$SURFV
 70
     6
  9
$UCSBASE
  2

  9
$UCSNAME
  2

  9
$UCSORG
 10
0.0
 20
0.0
 30
0.0
  9
$UCSXDIR
 10
1.0
 20
0.0
 30
0.0
  9
$UCSYDIR
 10
0.0
 20
1.0
 30
0.0
  9
$UCSORTHOREF
  2

  9
$UCSORTHOVIEW
 70
     0
  9
$UCSORGTOP
 10
0.0
 20
0.0
 30
0.0
  9
$UCSORGBOTTOM
 10
0.0
 20
0.0
 30
0.0
  9
$UCSORGLEFT
 10
0.0
 20
0.0
 30
0.0
  9
$UCSORGRIGHT
 10
0.0
 20
0.0
 30
0.0
  9
$UCSORGFRONT
 10
0.0
 20
0.0
 30
0.0
  9
$UCSORGBACK
 10
0.0
 20
0.0
 30
0.0
  9
$PUCSBASE
  2

  9
$PUCSNAME
  2

  9
$PUCSORG
 10
0.0
 20
0.0
 30
0.0
  9
$PUCSXDIR
 10
1.0
 20
0.0
 30
0.0
  9
$PUCSYDIR
 10
0.0
 20
1.0
 30
0.0
  9
$PUCSORTHOREF
  2

  9
$PUCSORTHOVIEW
 70
     0
  9
$PUCSORGTOP
 10
0.0
 20
0.0
 30
0.0
  9
$PUCSORGBOTTOM
 10
0.0
 20
0.0
 30
0.0
  9
$PUCSORGLEFT
 10
0.0
 20
0.0
 30
0.0
  9
$PUCSORGRIGHT
 10
0.0
 20
0.0
 30
0.0
  9
$PUCSORGFRONT
 10
0.0
 20
0.0
 30
0.0
  9
$PUCSORGBACK
 10
0.0
 20
0.0
 30
0.0
  9
$USERI1
 70
     0
  9
$USERI2
 70
     0
  9
$USERI3
 70
     0
  9
$USERI4
 70
     0
  9
$USERI5
 70
     0
  9
$USERR1
 40
0.0
  9
$USERR2
 40
0.0
  9
$USERR3
 40
0.0
  9
$USERR4
 40
0.0
  9
$USERR5
 40
0.0
  9
$WORLDVIEW
 70
     1
  9
$SHADEDGE
 70
     3
  9
$SHADEDIF
 70
    70
  9
$TILEMODE
 70
     1
  9
$MAXACTVP
 70
    64
  9
$PINSBASE
 10
0.0
 20
0.0
 30
0.0
  9
$PLIMCHECK
 70
     0
  9
$PEXTMIN
 10
1.000000000000000E+20
 20
1.000000000000000E+20
 30
1.000000000000000E+20
  9
$PEXTMAX
 10
-1.000000000000000E+20
 20
-1.000000000000000E+20
 30
-1.000000000000000E+20
  9
$PLIMMIN
 10
0.0
 20
0.0
  9
$PLIMMAX
 10
12.0
 20
9.0
  9
$UNITMODE
 70
     0
  9
$VISRETAIN
 70
     1
  9
$PLINEGEN
 70
     0
  9
$PSLTSCALE
 70
     1
  9
$TREEDEPTH
 70
  3020
  9
$CMLSTYLE
  2
Standard
  9
$CMLJUST
 70
     0
  9
$CMLSCALE
 40
1.0
  9
$PROXYGRAPHICS
 70
     1
  9
$MEASUREMENT
 70
     0
  9
$CELWEIGHT
370
    -1
  9
$ENDCAPS
280
     0
  9
$JOINSTYLE
280
     0
  9
$LWDISPLAY
290
     0
  9
$INSUNITS
 70
     4
  9
$HYPERLINKBASE
  1

  9
$STYLESHEET
  1

  9
$XEDIT
290
     1
  9
$CEPSNTYPE
380
     0
  9
$PSTYLEMODE
290
     1
  9
$FINGERPRINTGUID
  2
{3DC2470F-75BA-4B5D-9AB6-C8E0287B91D9}
  9
$VERSIONGUID
  2
{FAEB1C32-E019-11D5-929B-00C0DF256EC4}
  9
$EXTNAMES
290
     1
  9
$PSVPSCALE
 40
0.0
  9
$OLESTARTUP
290
     0
  9
$SORTENTS
280
   127
  9
$INDEXCTL
280
     0
  9
$HIDETEXT
280
     1
  9
$XCLIPFRAME
290
     0
  9
$HALOGAP
280
     0
  9
$OBSCOLOR
 70
   257
  9
$OBSLTYPE
280
     0
  9
$INTERSECTIONDISPLAY
280
     0
  9
$INTERSECTIONCOLOR
 70
   257
  9
$DIMASSOC
280
     2
  9
$PROJECTNAME
  1

  0
ENDSEC
  0
SECTION
  2
CLASSES
  0
CLASS
  1
ACDBDICTIONARYWDFLT
  2
AcDbDictionaryWithDefault
  3
ObjectDBX Classes
 90
        0
 91
        4
280
     0
281
     0
  0
CLASS
  1
VISUALSTYLE
  2
AcDbVisualStyle
  3
ObjectDBX Classes
 90
     4095
 91
        4
280
     0
281
     0
  0
ENDSEC
  0
SECTION
  2
TABLES
  0
TABLE
  2
VPORT
  5
8
330
0
100
AcDbSymbolTable
 70
     1
  0
VPORT
  5
29
330
8
100
AcDbSymbolTableRecord
100
AcDbViewportTableRecord
  2
*Active
 70
     0
 10
0.0
 20
0.0
 11
1.0
 21
1.0
 12
2475.971827632662
 22
-86.85501209076074
 13
0.0
 23
0.0
 14
0.5
 24
0.5
 15
0.5
 25
0.5
 16
0.0
 26
0.0
 36
1.0
 17
0.0
 27
0.0
 37
0.0
 40
2799.238647651123
 41
0.9999999999999992
 42
50.0
 43
0.0
 44
0.0
 50
0.0
 51
0.0
 71
     0
 72
   100
 73
     1
 74
     3
 75
     0
 76
     0
 77
     0
 78
     0
281
     0
 65
     1
110
0.0
120
0.0
130
0.0
111
1.0
121
0.0
131
0.0
112
0.0
122
1.0
132
0.0
 79
     0
146
0.0
  0
ENDTAB
  0
TABLE
  2
LTYPE
  5
5
330
0
100
AcDbSymbolTable
 70
     1
  0
LTYPE
  5
14
330
5
100
AcDbSymbolTableRecord
100
AcDbLinetypeTableRecord
  2
ByBlock
 70
     0
  3

 72
    65
 73
     0
 40
0.0
  0
LTYPE
  5
15
330
5
100
AcDbSymbolTableRecord
100
AcDbLinetypeTableRecord
  2
ByLayer
 70
     0
  3

 72
    65
 73
     0
 40
0.0
  0
LTYPE
  5
16
330
5
100
AcDbSymbolTableRecord
100
AcDbLinetypeTableRecord
  2
Continuous
 70
     0
  3
Solid line
 72
    65
 73
     0
 40
0.0
  0
ENDTAB
  0
TABLE
  2
LAYER
  5
2
330
0
100
AcDbSymbolTable
 70
     2
  0
LAYER
  5
10
330
2
100
AcDbSymbolTableRecord
100
AcDbLayerTableRecord
  2
0
 70
     0
 62
     7
  6
Continuous
370
    -3
390
F
  0
LAYER
  5
3B
330
2
100
AcDbSymbolTableRecord
100
AcDbLayerTableRecord
  2
2D
 70
     0
 62
     7
  6
Continuous
370
    -3
390
F
  0
ENDTAB
  0
TABLE
  2
STYLE
  5
3
330
0
100
AcDbSymbolTable
 70
     1
  0
STYLE
  5
11
330
3
100
AcDbSymbolTableRecord
100
AcDbTextStyleTableRecord
  2
Standard
 70
     0
 40
0.0
 41
1.0
 50
0.0
 71
     0
 42
0.2
  3
txt
  4

  0
ENDTAB
  0
TABLE
  2
VIEW
  5
6
330
0
100
AcDbSymbolTable
 70
     0
  0
ENDTAB
  0
TABLE
  2
UCS
  5
7
330
0
100
AcDbSymbolTable
 70
     0
  0
ENDTAB
  0
TABLE
  2
APPID
  5
9
330
0
100
AcDbSymbolTable
 70
     1
  0
APPID
  5
12
330
9
100
AcDbSymbolTableRecord
100
AcDbRegAppTableRecord
  2
ACAD
 70
     0
  0
ENDTAB
  0
TABLE
  2
DIMSTYLE
  5
A
330
0
100
AcDbSymbolTable
 70
     1
100
AcDbDimStyleTable
  0
DIMSTYLE
105
27
330
A
100
AcDbSymbolTableRecord
100
AcDbDimStyleTableRecord
  2
Standard
 70
     0
340
11
  0
ENDTAB
  0
TABLE
  2
BLOCK_RECORD
  5
1
330
0
100
AcDbSymbolTable
 70
     1
  0
BLOCK_RECORD
  5
1F
330
1
100
AcDbSymbolTableRecord
100
AcDbBlockTableRecord
  2
*Model_Space
340
22
  0
BLOCK_RECORD
  5
1B
330
1
100
AcDbSymbolTableRecord
100
AcDbBlockTableRecord
  2
*Paper_Space
340
1E
  0
BLOCK_RECORD
  5
23
330
1
100
AcDbSymbolTableRecord
100
AcDbBlockTableRecord
  2
*Paper_Space0
340
26
  0
ENDTAB
  0
ENDSEC
  0
SECTION
  2
BLOCKS
  0
BLOCK
  5
20
330
1F
100
AcDbEntity
  8
0
100
AcDbBlockBegin
  2
*Model_Space
 70
     0
 10
0.0
 20
0.0
 30
0.0
  3
*Model_Space
  1

  0
ENDBLK
  5
21
330
1F
100
AcDbEntity
  8
0
100
AcDbBlockEnd
  0
BLOCK
  5
1C
330
1B
100
AcDbEntity
 67
     1
  8
0
100
AcDbBlockBegin
  2
*Paper_Space
 70
     0
 10
0.0
 20
0.0
 30
0.0
  3
*Paper_Space
  1

  0
ENDBLK
  5
1D
330
1B
100
AcDbEntity
 67
     1
  8
0
100
AcDbBlockEnd
  0
BLOCK
  5
24
330
23
100
AcDbEntity
  8
0
100
AcDbBlockBegin
  2
*Paper_Space0
 70
     0
 10
0.0
 20
0.0
 30
0.0
  3
*Paper_Space0
  1

  0
ENDBLK
  5
25
330
23
100
AcDbEntity
  8
0
100
AcDbBlockEnd
  0
ENDSEC
  0
SECTION
  2
ENTITIES
  0
LINE
  5
3C
330
1F
100
AcDbEntity
  8
2D
100
AcDbLine
 10
3173.257199155283
 20
-420.2509401010874
 30
0.0
 11
3173.255710427635
 21
-466.5569416198929
 31
0.0
  0
SPLINE
  5
3D
330
1F
100
AcDbEntity
  8
2D
100
AcDbSpline
210
0.0
220
0.0
230
1.0
 70
    12
 71
     3
 72
    31
 73
    27
 74
     0
 42
0.0000000001
 43
0.0000000001
 40
-613.4426407540259
 40
-613.4426407540259
 40
-613.4426407540259
 40
-613.4426407540259
 40
-611.5080646453672
 40
-611.5080646453672
 40
-611.5080646453672
 40
-504.2953677783301
 40
-504.2953677783301
 40
-504.2953677783301
 40
-501.3167024160477
 40
-501.3167024160477
 40
-501.3167024160477
 40
-321.3280815482638
 40
-321.3280815482638
 40
-321.3280815482638
 40
-315.3707520206797
 40
-315.3707520206797
 40
-315.3707520206797
 40
-211.7260408717071
 40
-211.7260408717071
 40
-211.7260408717071
 40
-203.0238756157534
 40
-203.0238756157534
 40
-194.3530809245165
 40
-194.3530809245165
 40
-194.3530809245165
 40
0.0
 40
0.0
 40
0.0
 40
0.0
 10
3173.255710427635
 20
-466.5569416198929
 30
0.0
 41
1.0
 10
3173.253546618274
 20
-466.6562424083049
 30
0.0
 41
1.0
 10
3173.446977547872
 20
-466.7094684770516
 30
0.0
 41
1.0
 10
3173.847143589563
 20
-466.7094684770534
 30
0.0
 41
1.0
 10
3195.419624278802
 20
-466.7094699823326
 30
0.0
 41
1.0
 10
3216.992104968042
 20
-466.7094714876118
 30
0.0
 41
1.0
 10
3238.56458565727
 20
-466.7094729928911
 30
0.0
 41
1.0
 10
3239.163928899983
 20
-466.7094734034224
 30
0.0
 41
1.0
 10
3239.763272142693
 20
-466.7094738139519
 30
0.0
 41
1.0
 10
3240.362615385402
 20
-466.7094742244815
 30
0.0
 41
1.0
 10
3276.578484241611
 20
-466.7094742244815
 30
0.0
 41
1.0
 10
3312.794353097812
 20
-466.7094742244869
 30
0.0
 41
1.0
 10
3349.01022195402
 20
-466.7094742244869
 30
0.0
 41
1.0
 10
3350.20890818828
 20
-466.7094691154659
 30
0.0
 41
1.0
 10
3351.407594422551
 20
-466.7094640064449
 30
0.0
 41
1.0
 10
3352.606280656812
 20
-466.7094588974257
 30
0.0
 41
1.0
 10
3373.460838884992
 20
-466.7094569816152
 30
0.0
 41
1.0
 10
3394.315397113172
 20
-466.7094550658028
 30
0.0
 41
1.0
 10
3415.169955341353
 20
-466.7094531499904
 30
0.0
 41
1.0
 10
3416.943116597562
 20
-466.709453149994
 30
0.0
 41
1.0
 10
3420.193291054231
 20
-466.2865937991962
 30
0.0
 41
1.0
 10
3428.675905684733
 20
-464.7394720825766
 30
0.0
 41
1.0
 10
3433.646134249342
 20
-463.6646096041702
 30
0.0
 41
1.0
 10
3438.695094255621
 20
-462.4375162419863
 30
0.0
 41
1.0
 10
3550.991136030592
 20
-435.1452190219522
 30
0.0
 41
1.0
 10
3663.287177805563
 20
-407.8529218019164
 30
0.0
 41
1.0
 10
3775.583219580523
 20
-380.5606245818821
 30
0.0
 41
1.0
  0
SPLINE
  5
3E
330
1F
100
AcDbEntity
  8
2D
100
AcDbSpline
210
0.0
220
0.0
230
1.0
 70
     8
 71
     3
 72
     8
 73
     4
 74
     0
 42
0.0000000001
 43
0.0000000001
 40
-1.217114044381976
 40
-1.217114044381976
 40
-1.217114044381976
 40
-1.217114044381976
 40
0.0
 40
0.0
 40
0.0
 40
0.0
 10
3775.583219580523
 20
-380.5606245818821
 30
0.0
 10
3775.977448174966
 20
-380.4648117232342
 30
0.0
 10
3776.371071068512
 20
-380.3664714206434
 30
0.0
 10
3776.764039805566
 20
-380.2656157799562
 30
0.0
  0
SPLINE
  5
3F
330
1F
100
AcDbEntity
  8
2D
100
AcDbSpline
210
0.0
220
0.0
230
1.0
 70
    12
 71
     3
 72
    14
 73
    10
 74
     0
 42
0.0000000001
 43
0.0000000001
 40
-528.1175762542231
 40
-528.1175762542231
 40
-528.1175762542231
 40
-528.1175762542231
 40
-402.7857201750638
 40
-402.7857201750638
 40
-402.7857201750638
 40
0.0000000000031135
 40
0.0000000000031135
 40
0.0000000000031135
 40
125.3040922575038
 40
125.3040922575038
 40
125.3040922575038
 40
125.3040922575038
 10
3776.76403980557
 20
-380.2656157799563
 30
0.0
 41
0.9956227716042817
 10
3820.519401765157
 20
-369.035778269195
 30
0.0000000000000063
 41
0.8574698667828086
 10
3848.147635304789
 20
-333.3445877340643
 30
0.0000000000000063
 41
0.8589289429147148
 10
3848.14763530478
 20
-288.2478705432047
 30
0.0
 41
1.0
 10
3848.14763530478
 20
-153.9859638181857
 30
0.0
 41
1.0
 10
3848.14763530478
 20
-19.72405709320776
 30
0.0
 41
1.0
 10
3848.14763530478
 20
114.5378496318113
 30
0.0
 41
1.0
 10
3848.14763530481
 20
159.6345668226694
 30
0.0000000000000058
 41
0.8589289429147217
 10
3820.51940176515
 20
195.3257573578004
 30
0.0000000000000057
 41
0.8574698667828193
 10
3776.764039805567
 20
206.5555948685685
 30
0.0
 41
0.9956227716042944
  0
SPLINE
  5
40
330
1F
100
AcDbEntity
  8
2D
100
AcDbSpline
210
0.0
220
0.0
230
1.0
 70
     8
 71
     3
 72
     8
 73
     4
 74
     0
 42
0.0000000001
 43
0.0000000001
 40
-1.217114044406385
 40
-1.217114044406385
 40
-1.217114044406385
 40
-1.217114044406385
 40
0.0
 40
0.0
 40
0.0
 40
0.0
 10
3776.764039805566
 20
206.5555948685685
 30
0.0
 10
3776.371071068501
 20
206.6564505092591
 30
0.0
 10
3775.977448174981
 20
206.7547908118459
 30
0.0
 10
3775.583219580531
 20
206.850603670498
 30
0.0
  0
SPLINE
  5
41
330
1F
100
AcDbEntity
  8
2D
100
AcDbSpline
210
0.0
220
0.0
230
1.0
 70
    12
 71
     3
 72
    31
 73
    27
 74
     0
 42
0.0000000001
 43
0.0000000001
 40
-611.6748735393393
 40
-611.6748735393393
 40
-611.6748735393393
 40
-611.6748735393393
 40
-417.881797715677
 40
-417.881797715677
 40
-417.881797715677
 40
-409.2359409319125
 40
-409.2359409319125
 40
-400.5589715680783
 40
-400.5589715680783
 40
-400.5589715680783
 40
-297.2129002278703
 40
-297.2129002278703
 40
-297.2129002278703
 40
-291.27273603107
 40
-291.27273603107
 40
-291.27273603107
 40
-111.8027310174796
 40
-111.8027310174796
 40
-111.8027310174796
 40
-108.8326483223136
 40
-108.8326483223136
 40
-108.8326483223136
 40
-1.928871764332694
 40
-1.928871764332694
 40
-1.928871764332694
 40
0.0
 40
0.0
 40
0.0
 40
0.0
 10
3775.583219580531
 20
206.850603670498
 30
0.0
 41
1.0
 10
3663.287177805563
 20
234.1429049777448
 30
0.0
 41
1.0
 10
3550.991136030592
 20
261.4352062849916
 30
0.0
 41
1.0
 10
3438.695094255632
 20
288.7275075922403
 30
0.0
 41
1.0
 10
3433.646090715902
 20
289.9546115347398
 30
0.0
 41
1.0
 10
3428.67629974593
 20
291.0293829829093
 30
0.0
 41
1.0
 10
3420.193609171562
 20
292.5765357482301
 30
0.0
 41
1.0
 10
3416.943096944731
 20
292.999444500248
 30
0.0
 41
1.0
 10
3415.169955341353
 20
292.999444500248
 30
0.0
 41
1.0
 10
3394.315396061513
 20
292.9994425844375
 30
0.0
 41
1.0
 10
3373.460836781673
 20
292.9994406686269
 30
0.0
 41
1.0
 10
3352.606277501844
 20
292.9994387528163
 30
0.0
 41
1.0
 10
3351.407591267583
 20
292.9994336437971
 30
0.0
 41
1.0
 10
3350.208905033323
 20
292.9994285347761
 30
0.0
 41
1.0
 10
3349.010218799052
 20
292.999423425757
 30
0.0
 41
1.0
 10
3312.794349942851
 20
292.999423425757
 30
0.0
 41
1.0
 10
3276.578481086643
 20
292.9994234257588
 30
0.0
 41
1.0
 10
3240.36261223043
 20
292.9994234257606
 30
0.0
 41
1.0
 10
3239.7632691133
 20
292.9994234257588
 30
0.0
 41
1.0
 10
3239.16392599617
 20
292.999423425757
 30
0.0
 41
1.0
 10
3238.56458287904
 20
292.999423425757
 30
0.0
 41
1.0
 10
3216.992103115881
 20
292.9994253415693
 30
0.0
 41
1.0
 10
3195.419623352722
 20
292.9994272573817
 30
0.0
 41
1.0
 10
3173.847143589563
 20
292.9994291731923
 30
0.0
 41
1.0
 10
3173.446999927917
 20
292.9994291731941
 30
0.0
 41
1.0
 10
3173.25358289
 20
292.9462017403784
 30
0.0
 41
1.0
 10
3173.255728689262
 20
292.8469016542508
 30
0.0
 41
1.0
  0
LINE
  5
42
330
1F
100
AcDbEntity
  8
2D
100
AcDbLine
 10
3173.255728689262
 20
292.8469016542508
 30
0.0
 11
3173.257199155283
 21
246.5409089716557
 31
0.0
  0
LINE
  5
43
330
1F
100
AcDbEntity
  8
2D
100
AcDbLine
 10
1752.163910951087
 20
-410.1088557557327
 30
0.0
 11
1758.925991833701
 21
-410.0101664747026
 31
0.0
  0
SPLINE
  5
44
330
1F
100
AcDbEntity
  8
2D
100
AcDbSpline
210
0.0
220
0.0
230
1.0
 70
     8
 71
     3
 72
     8
 73
     4
 74
     0
 42
0.0000000001
 43
0.0000000001
 40
-1.894533806012802
 40
-1.894533806012802
 40
-1.894533806012802
 40
-1.894533806012802
 40
0.0
 40
0.0
 40
0.0
 40
0.0
 10
1758.925991833701
 20
-410.0101664747026
 30
0.0
 10
1759.557435084542
 20
-410.0008980645108
 30
0.0
 10
1760.188984295062
 20
-409.9675018885273
 30
0.0
 10
1760.817883502968
 20
-409.9101235934409
 30
0.0
  0
SPLINE
  5
45
330
1F
100
AcDbEntity
  8
2D
100
AcDbSpline
210
0.0
220
0.0
230
1.0
 70
     8
 71
     3
 72
    12
 73
     8
 74
     0
 42
0.0000000001
 43
0.0000000001
 40
-36.93812985730846
 40
-36.93812985730846
 40
-36.93812985730846
 40
-36.93812985730846
 40
-32.39055734484015
 40
-27.79577549935645
 40
-18.47368212991952
 40
-9.214053060870516
 40
0.0
 40
0.0
 40
0.0
 40
0.0
 10
1760.817883502968
 20
-409.9101235934409
 30
0.0
 10
1762.327746186831
 20
-409.7731329147236
 30
0.0
 10
1765.336216531232
 20
-409.2154996467225
 30
0.0
 10
1771.108400713241
 20
-407.0029447382121
 30
0.0
 10
1777.383741254042
 20
-402.267070631252
 30
0.0
 10
1782.326007623233
 20
-394.2410548501039
 30
0.0
 10
1783.470155154762
 20
-388.0841554388398
 30
0.0
 10
1783.468804527532
 20
-385.0127878224234
 30
0.0
  0
LINE
  5
46
330
1F
100
AcDbEntity
  8
2D
100
AcDbLine
 10
1783.468804527532
 20
-385.0127878224234
 30
0.0
 11
1783.468804527532
 21
211.3027705888118
 31
0.0
  0
SPLINE
  5
47
330
1F
100
AcDbEntity
  8
2D
100
AcDbSpline
210
0.0
220
0.0
230
1.0
 70
     8
 71
     3
 72
    12
 73
     8
 74
     0
 42
0.0000000001
 43
0.0000000001
 40
-36.93791451282929
 40
-36.93791451282929
 40
-36.93791451282929
 40
-36.93791451282929
 40
-32.24526381394219
 40
-27.72387003998867
 40
-18.46424962044798
 40
-9.1421648613487
 40
0.0
 40
0.0
 40
0.0
 40
0.0
 10
1783.468804527532
 20
211.3027705888118
 30
0.0
 10
1783.469427476633
 20
212.8671478022618
 30
0.0
 10
1783.179596791331
 20
215.9379765467413
 30
0.0
 10
1781.491536238464
 20
221.8861248371534
 30
0.0
 10
1777.383875631302
 20
228.5569854803064
 30
0.0
 10
1769.876904129542
 20
234.2222009729769
 30
0.0
 10
1763.852925807172
 20
235.9247218959692
 30
0.0
 10
1760.818063764233
 20
236.2000835112386
 30
0.0
  0
SPLINE
  5
48
330
1F
100
AcDbEntity
  8
2D
100
AcDbSpline
210
0.0
220
0.0
230
1.0
 70
     8
 71
     3
 72
     8
 73
     4
 74
     0
 42
0.0000000001
 43
0.0000000001
 40
-1.894716948158772
 40
-1.894716948158772
 40
-1.894716948158772
 40
-1.894716948158772
 40
0.0
 40
0.0
 40
0.0
 40
0.0
 10
1760.818063764233
 20
236.2000835112386
 30
0.0
 10
1760.189104019275
 20
236.2574701789191
 30
0.0
 10
1759.55749602363
 20
236.2908722436677
 30
0.0
 10
1758.925991771732
 20
236.3001442573528
 30
0.0
  0
LINE
  5
49
330
1F
100
AcDbEntity
  8
2D
100
AcDbLine
 10
1758.925991771732
 20
236.3001442573528
 30
0.0
 11
1752.163910951094
 21
236.3988385220629
 31
0.0
  0
SPLINE
  5
4A
330
1F
100
AcDbEntity
  8
2D
100
AcDbSpline
210
0.0
220
0.0
230
1.0
 70
     8
 71
     3
 72
     8
 73
     4
 74
     0
 42
0.0000000001
 43
0.0000000001
 40
-5.939721802967722
 40
-5.939721802967722
 40
-5.939721802967722
 40
-5.939721802967722
 40
0.0
 40
0.0
 40
0.0
 40
0.0
 10
2799.02693913562
 20
-802.0089562204624
 30
0.0
 10
2799.72290638613
 20
-800.155402235618
 30
0.0
 10
2800.479290731142
 20
-798.3234267140216
 30
0.0
 10
2801.293714523395
 20
-796.5187808470158
 30
0.0
  0
SPLINE
  5
4B
330
1F
100
AcDbEntity
  8
2D
100
AcDbSpline
210
0.0
220
0.0
230
1.0
 70
     8
 71
     3
 72
     8
 73
     4
 74
     0
 42
0.0000000001
 43
0.0000000001
 40
-0.1501552434105757
 40
-0.1501552434105757
 40
-0.1501552434105757
 40
-0.1501552434105757
 40
0.0
 40
0.0
 40
0.0
 40
0.0
 10
2801.293714523395
 20
-796.5187808470158
 30
0.0
 10
2801.314422580614
 20
-796.4732138213236
 30
0.0
 10
2801.335179533857
 20
-796.4276689915773
 30
0.0
 10
2801.355985408947
 20
-796.3821465363109
 30
0.0
  0
SPLINE
  5
4C
330
1F
100
AcDbEntity
  8
2D
100
AcDbSpline
210
0.0
220
0.0
230
1.0
 70
     8
 71
     3
 72
     8
 73
     4
 74
     0
 42
0.0000000001
 43
0.0000000001
 40
-0.8252789005181191
 40
-0.8252789005181191
 40
-0.8252789005181191
 40
-0.8252789005181191
 40
0.0
 40
0.0
 40
0.0
 40
0.0
 10
2801.355985408947
 20
-796.3821465363109
 30
0.0
 10
2801.470326278435
 20
-796.1319419980506
 30
0.0
 10
2801.586149109116
 20
-795.8824093815291
 30
0.0
 10
2801.703441787307
 20
-795.6335749625522
 30
0.0
  0
SPLINE
  5
4D
330
1F
100
AcDbEntity
  8
2D
100
AcDbSpline
210
0.0
220
0.0
230
1.0
 70
     8
 71
     3
 72
     8
 73
     4
 74
     0
 42
0.0000000001
 43
0.0000000001
 40
-0.1440171821982379
 40
-0.1440171821982379
 40
-0.1440171821982379
 40
-0.1440171821982379
 40
0.0
 40
0.0
 40
0.0
 40
0.0
 10
2801.703441787307
 20
-795.6335749625522
 30
0.0
 10
2801.723909472978
 20
-795.5901511935713
 30
0.0
 10
2801.744425389013
 20
-795.5467501321149
 30
0.0
 10
2801.764989549996
 20
-795.5033719555121
 30
0.0
  0
SPLINE
  5
4E
330
1F
100
AcDbEntity
  8
2D
100
AcDbSpline
210
0.0
220
0.0
230
1.0
 70
     8
 71
     3
 72
     8
 73
     4
 74
     0
 42
0.0000000001
 43
0.0000000001
 40
-2.260536727638724
 40
-2.260536727638724
 40
-2.260536727638724
 40
-2.260536727638724
 40
0.0
 40
0.0
 40
0.0
 40
0.0
 10
2801.764989549996
 20
-795.5033719555121
 30
0.0
 10
2802.087435587458
 20
-794.8223365179795
 30
0.0
 10
2802.422525340811
 20
-794.1470882891907
 30
0.0
 10
2802.769866417842
 20
-793.4784068405351
 30
0.0
  0
SPLINE
  5
4F
330
1F
100
AcDbEntity
  8
2D
100
AcDbSpline
210
0.0
220
0.0
230
1.0
 70
     8
 71
     3
 72
     8
 73
     4
 74
     0
 42
0.0000000001
 43
0.0000000001
 40
-0.1273043555140005
 40
-0.1273043555140005
 40
-0.1273043555140005
 40
-0.1273043555140005
 40
0.0
 40
0.0
 40
0.0
 40
0.0
 10
2802.769866417842
 20
-793.4784068405351
 30
0.0
 10
2802.789439196378
 20
-793.4407555808311
 30
0.0
 10
2802.809057644186
 20
-793.4031280477184
 30
0.0
 10
2802.828721693688
 20
-793.3655243163554
 30
0.0
  0
SPLINE
  5
50
330
1F
100
AcDbEntity
  8
2D
100
AcDbSpline
210
0.0
220
0.0
230
1.0
 70
     8
 71
     3
 72
     8
 73
     4
 74
     0
 42
0.0000000001
 43
0.0000000001
 40
-0.8261685768857278
 40
-0.8261685768857278
 40
-0.8261685768857278
 40
-0.8261685768857278
 40
0.0
 40
0.0
 40
0.0
 40
0.0
 10
2802.828721693688
 20
-793.3655243163554
 30
0.0
 10
2802.956414577064
 20
-793.1215285185889
 30
0.0
 10
2803.085884005886
 20
-792.8784541862301
 30
0.0
 10
2803.217110011836
 20
-792.6363403143968
 30
0.0
  0
SPLINE
  5
51
330
1F
100
AcDbEntity
  8
2D
100
AcDbSpline
210
0.0
220
0.0
230
1.0
 70
     8
 71
     3
 72
     8
 73
     4
 74
     0
 42
0.0000000001
 43
0.0000000001
 40
-0.1171575481504083
 40
-0.1171575481504083
 40
-0.1171575481504083
 40
-0.1171575481504083
 40
0.0
 40
0.0
 40
0.0
 40
0.0
 10
2803.217110011836
 20
-792.6363403143968
 30
0.0
 10
2803.235725278715
 20
-792.6020099944267
 30
0.0
 10
2803.254381464616
 20
-792.5677018495941
 30
0.0
 10
2803.273078477916
 20
-792.5334159230114
 30
0.0
  0
SPLINE
  5
52
330
1F
100
AcDbEntity
  8
2D
100
AcDbSpline
210
0.0
220
0.0
230
1.0
 70
     8
 71
     3
 72
     8
 73
     4
 74
     0
 42
0.0000000001
 43
0.0000000001
 40
-2.247918302193252
 40
-2.247918302193252
 40
-2.247918302193252
 40
-2.247918302193252
 40
0.0
 40
0.0
 40
0.0
 40
0.0
 10
2803.273078477916
 20
-792.5334159230114
 30
0.0
 10
2803.631518964645
 20
-791.875403670418
 30
0.0
 10
2804.00529020535
 20
-791.2254254782555
 30
0.0
 10
2804.393720669599
 20
-790.5846592113372
 30
0.0
  0
SPLINE
  5
53
330
1F
100
AcDbEntity
  8
2D
100
AcDbSpline
210
0.0
220
0.0
230
1.0
 70
     8
 71
     3
 72
     8
 73
     4
 74
     0
 42
0.0000000001
 43
0.0000000001
 40
-1.029466438893243
 40
-1.029466438893243
 40
-1.029466438893243
 40
-1.029466438893243
 40
0.0
 40
0.0
 40
0.0
 40
0.0
 10
2804.393720669599
 20
-790.5846592113372
 30
0.0
 10
2804.571754327371
 20
-790.2912998753768
 30
0.0
 10
2804.753255850726
 20
-790.0000173360831
 30
0.0
 10
2804.938149762616
 20
-789.7109326844821
 30
0.0
  0
SPLINE
  5
54
330
1F
100
AcDbEntity
  8
2D
100
AcDbSpline
210
0.0
220
0.0
230
1.0
 70
     8
 71
     3
 72
     8
 73
     4
 74
     0
 42
0.0000000001
 43
0.0000000001
 40
-0.8504382601737622
 40
-0.8504382601737622
 40
-0.8504382601737622
 40
-0.8504382601737622
 40
0.0
 40
0.0
 40
0.0
 40
0.0
 10
2804.938149762616
 20
-789.7109326844821
 30
0.0
 10
2805.090901123138
 20
-789.4721281351123
 30
0.0
 10
2805.246122077464
 20
-789.2348849445126
 30
0.0
 10
2805.403762846843
 20
-788.9992794067165
 30
0.0
  0
SPLINE
  5
55
330
1F
100
AcDbEntity
  8
2D
100
AcDbSpline
210
0.0
220
0.0
230
1.0
 70
     8
 71
     3
 72
     8
 73
     4
 74
     0
 42
0.0000000001
 43
0.0000000001
 40
-0.0838420023604516
 40
-0.0838420023604516
 40
-0.0838420023604516
 40
-0.0838420023604516
 40
0.0
 40
0.0
 40
0.0
 40
0.0
 10
2805.403762846843
 20
-788.9992794067165
 30
0.0
 10
2805.419304286632
 20
-788.9760518985562
 30
0.0
 10
2805.434870781461
 20
-788.9528411401358
 30
0.0
 10
2805.450462332934
 20
-788.929647218965
 30
0.0
  0
SPLINE
  5
56
330
1F
100
AcDbEntity
  8
2D
100
AcDbSpline
210
0.0
220
0.0
230
1.0
 70
     8
 71
     3
 72
     8
 73
     4
 74
     0
 42
0.0000000001
 43
0.0000000001
 40
-0.855533036964072
 40
-0.855533036964072
 40
-0.855533036964072
 40
-0.855533036964072
 40
0.0
 40
0.0
 40
0.0
 40
0.0
 10
2805.450462332934
 20
-788.929647218965
 30
0.0
 10
2805.609543643772
 20
-788.69296292495
 30
0.0
 10
2805.771231055369
 20
-788.4580087177239
 30
0.0
 10
2805.935465504379
 20
-788.2248706591305
 30
0.0
  0
SPLINE
  5
57
330
1F
100
AcDbEntity
  8
2D
100
AcDbSpline
210
0.0
220
0.0
230
1.0
 70
     8
 71
     3
 72
     8
 73
     4
 74
     0
 42
0.0000000001
 43
0.0000000001
 40
-0.0785113573768657
 40
-0.0785113573768657
 40
-0.0785113573768657
 40
-0.0785113573768657
 40
0.0
 40
0.0
 40
0.0
 40
0.0
 10
2805.935465504379
 20
-788.2248706591305
 30
0.0
 10
2805.950537299213
 20
-788.203475949885
 30
0.0
 10
2805.965631941042
 20
-788.1820973221295
 30
0.0
 10
2805.980749425384
 20
-788.1607348505657
 30
0.0
  0
SPLINE
  5
58
330
1F
100
AcDbEntity
  8
2D
100
AcDbSpline
210
0.0
220
0.0
230
1.0
 70
     8
 71
     3
 72
     8
 73
     4
 74
     0
 42
0.0000000001
 43
0.0000000001
 40
-0.8615680167661998
 40
-0.8615680167661998
 40
-0.8615680167661998
 40
-0.8615680167661998
 40
0.0
 40
0.0
 40
0.0
 40
0.0
 10
2805.980749425384
 20
-788.1607348505657
 30
0.0
 10
2806.146628694602
 20
-787.9262955305759
 30
0.0
 10
2806.315254084038
 20
-787.6937738460329
 30
0.0
 10
2806.486555498901
 20
-787.4632667058667
 30
0.0
  0
SPLINE
  5
59
330
1F
100
AcDbEntity
  8
2D
100
AcDbSpline
210
0.0
220
0.0
230
1.0
 70
     8
 71
     3
 72
     8
 73
     4
 74
     0
 42
0.0000000001
 43
0.0000000001
 40
-0.0731331433156053
 40
-0.0731331433156053
 40
-0.0731331433156053
 40
-0.0731331433156053
 40
0.0
 40
0.0
 40
0.0
 40
0.0
 10
2806.486555498901
 20
-787.4632667058667
 30
0.0
 10
2806.501096424337
 20
-787.4437005501393
 30
0.0
 10
2806.515657881719
 20
-787.4241496409478
 30
0.0
 10
2806.530239861633
 20
-787.4046140397219
 30
0.0
  0
SPLINE
  5
5A
330
1F
100
AcDbEntity
  8
2D
100
AcDbSpline
210
0.0
220
0.0
230
1.0
 70
     8
 71
     3
 72
     8
 73
     4
 74
     0
 42
0.0000000001
 43
0.0000000001
 40
-0.8685883903528043
 40
-0.8685883903528043
 40
-0.8685883903528043
 40
-0.8685883903528043
 40
0.0
 40
0.0
 40
0.0
 40
0.0
 10
2806.530239861633
 20
-787.4046140397219
 30
0.0
 10
2806.703409916852
 20
-787.1725807387469
 30
0.0
 10
2806.879468667026
 20
-786.9426732673737
 30
0.0
 10
2807.058332934543
 20
-786.7150005109305
 30
0.0
  0
SPLINE
  5
5B
330
1F
100
AcDbEntity
  8
2D
100
AcDbSpline
210
0.0
220
0.0
230
1.0
 70
    12
 71
     2
 72
     6
 73
     3
 74
     0
 42
0.0000000001
 43
0.0000000001
 40
-2.844443702011489
 40
-2.844443702011489
 40
-2.844443702011489
 40
0.0
 40
0.0
 40
0.0
 10
2807.058332934543
 20
-786.7150005109305
 30
0.0
 41
1.0
 10
2807.936642281416
 20
-785.5948532176084
 30
0.0
 41
0.9990032041083028
 10
2808.911357192554
 20
-784.557506551802
 30
0.0
 41
0.9999999999992428
  0
SPLINE
  5
5C
330
1F
100
AcDbEntity
  8
2D
100
AcDbSpline
210
0.0
220
0.0
230
1.0
 70
     8
 71
     3
 72
     8
 73
     4
 74
     0
 42
0.0000000001
 43
0.0000000001
 40
-0.0512505010694187
 40
-0.0512505010694187
 40
-0.0512505010694187
 40
-0.0512505010694187
 40
0.0
 40
0.0
 40
0.0
 40
0.0
 10
2808.911357192552
 20
-784.557506551802
 30
0.0
 10
2808.923067936852
 20
-784.5450685352838
 30
0.0
 10
2808.934789039868
 20
-784.5326402610118
 30
0.0
 10
2808.946520478523
 20
-784.5202217613365
 30
0.0
  0
SPLINE
  5
5D
330
1F
100
AcDbEntity
  8
2D
100
AcDbSpline
210
0.0
220
0.0
230
1.0
 70
     8
 71
     3
 72
     8
 73
     4
 74
     0
 42
0.0000000001
 43
0.0000000001
 40
-0.4271193919776582
 40
-0.4271193919776582
 40
-0.4271193919776582
 40
-0.4271193919776582
 40
0.0
 40
0.0
 40
0.0
 40
0.0
 10
2808.946520478523
 20
-784.5202217613365
 30
0.0
 10
2809.044280856797
 20
-784.4167180651035
 30
0.0
 10
2809.142809455672
 20
-784.3139329266588
 30
0.0
 10
2809.242150933784
 20
-784.2119242456353
 30
0.0
  0
SPLINE
  5
5E
330
1F
100
AcDbEntity
  8
2D
100
AcDbSpline
210
0.0
220
0.0
230
1.0
 70
    12
 71
     3
 72
    39
 73
    35
 74
     0
 42
0.0000000001
 43
0.0000000001
 40
0.0
 40
0.0
 40
0.0
 40
0.0
 40
0.3718871541871197
 40
1.484505835598487
 40
2.509639432502532
 40
2.509639432502532
 40
2.509639432502532
 40
105.7037713316986
 40
105.7037713316986
 40
105.7037713316986
 40
108.5707892692927
 40
108.5707892692927
 40
108.5707892692927
 40
281.8130455123278
 40
281.8130455123278
 40
281.8130455123278
 40
287.5470813875209
 40
287.5470813875209
 40
287.5470813875209
 40
387.3069638929913
 40
387.3069638929913
 40
387.3069638929913
 40
389.0631702395361
 40
390.8794307272204
 40
392.7438036136715
 40
394.6418319223424
 40
396.556946623824
 40
398.4711668590567
 40
400.3660568311871
 40
402.2238192438658
 40
404.0283522347529
 40
404.0283522347529
 40
404.0283522347529
 40
566.7252206391479
 40
566.7252206391479
 40
566.7252206391479
 40
566.7252206391479
 10
2809.242150933784
 20
-784.2119242456353
 30
0.0
 41
1.0
 10
2809.26869660466
 20
-784.1846444463333
 30
0.0
 41
1.0
 10
2809.367280718259
 20
-784.1065305312802
 30
0.0
 41
1.0
 10
2809.483695227929
 20
-784.1867859994306
 30
0.0
 41
1.0
 10
2809.51631240992
 20
-784.5160263829819
 30
0.0
 41
1.0
 10
2809.516312409927
 20
-784.7303280476624
 30
0.0
 41
1.0
 10
2809.516312405081
 20
-806.3028082940907
 30
0.0
 41
1.0
 10
2809.516312400232
 20
-827.8752885405227
 30
0.0
 41
1.0
 10
2809.516312395383
 20
-849.447768786951
 30
0.0
 41
1.0
 10
2809.516312394066
 20
-850.0471119088904
 30
0.0
 41
1.0
 10
2809.516312392749
 20
-850.6464550308408
 30
0.0
 41
1.0
 10
2809.516312391424
 20
-851.2457981527803
 30
0.0
 41
1.0
 10
2809.516312363739
 20
-887.4616671098809
 30
0.0
 41
1.0
 10
2809.516312336043
 20
-923.6775360669706
 30
0.0
 41
1.0
 10
2809.516312308348
 20
-959.8934050240712
 30
0.0
 41
1.0
 10
2809.516317417369
 20
-961.0920912583313
 30
0.0
 41
1.0
 10
2809.51632252639
 20
-962.2907774925914
 30
0.0
 41
1.0
 10
2809.516327635407
 20
-963.4894637268515
 30
0.0
 41
1.0
 10
2809.516327669266
 20
-984.3440224177209
 30
0.0
 41
1.0
 10
2809.516327703124
 20
-1005.198581108583
 30
0.0
 41
1.0
 10
2809.516327736979
 20
-1026.053139799453
 30
0.0
 41
1.0
 10
2809.516327736979
 20
-1026.42027042976
 30
0.0
 41
1.0
 10
2809.479103073034
 20
-1027.303666646821
 30
0.0
 41
1.0
 10
2809.308422314178
 20
-1029.041937405211
 30
0.0
 41
1.0
 10
2809.016740782958
 20
-1031.206221027481
 30
0.0
 41
1.0
 10
2808.605613756197
 20
-1033.757079093491
 30
0.0
 41
1.0
 10
2808.083748154801
 20
-1036.630310027431
 30
0.0
 41
1.0
 10
2807.46649564118
 20
-1039.741572604453
 30
0.0
 41
1.0
 10
2806.77428999597
 20
-1042.994926724623
 30
0.0
 41
1.0
 10
2806.03077441662
 20
-1046.291141001631
 30
0.0
 41
1.0
 10
2805.507662869393
 20
-1048.495027802411
 30
0.0
 41
1.0
 10
2805.244390828979
 20
-1049.578278713732
 30
0.0
 41
1.0
 10
2781.507675370136
 20
-1147.244265145039
 30
0.0
 41
1.0
 10
2757.770959911293
 20
-1244.910251576347
 30
0.0
 41
1.0
 10
2734.034244452734
 20
-1342.576238007712
 30
0.0
 41
1.0
  0
SPLINE
  5
5F
330
1F
100
AcDbEntity
  8
2D
100
AcDbSpline
210
0.0
220
0.0
230
1.0
 70
     8
 71
     3
 72
     8
 73
     4
 74
     0
 42
0.0000000001
 43
0.0000000001
 40
-31.36680624865035
 40
-31.36680624865035
 40
-31.36680624865035
 40
-31.36680624865035
 40
0.0
 40
0.0
 40
0.0
 40
0.0
 10
2734.034244452734
 20
-1342.576238007712
 30
0.0
 10
2731.565127224989
 20
-1352.736113746642
 30
0.0
 10
2729.09599010129
 20
-1362.895984650784
 30
0.0
 10
2726.626833081988
 20
-1373.055850719236
 30
0.0
  0
SPLINE
  5
60
330
1F
100
AcDbEntity
  8
2D
100
AcDbSpline
210
0.0
220
0.0
230
1.0
 70
    12
 71
     3
 72
    91
 73
    87
 74
     0
 42
0.0000000001
 43
0.0000000001
 40
0.0
 40
0.0
 40
0.0
 40
0.0
 40
2.242613583269279
 40
4.485230646469402
 40
6.727847709668824
 40
8.970464772868947
 40
11.21308183606837
 40
13.17131946839907
 40
15.12955710073048
 40
17.08779473306119
 40
19.04603236539189
 40
21.0042699977226
 40
22.96250763005401
 40
24.92074526238541
 40
26.87898289471542
 40
28.83722052704683
 40
30.79545815937753
 40
32.75369579170824
 40
34.71193342403965
 40
36.67017105637035
 40
38.62840868870106
 40
40.58664632103176
 40
42.54488395336318
 40
44.50312158569388
 40
44.50312158569388
 40
44.50312158569388
 40
351.9473233802758
 40
351.9473233802758
 40
351.9473233802758
 40
353.9055610126065
 40
355.8637986449379
 40
357.8220362772686
 40
359.7802739095993
 40
361.73851154193
 40
363.6967491742614
 40
365.6549868065921
 40
367.6132244389228
 40
369.5714620712542
 40
371.5296997035849
 40
373.4879373359157
 40
375.446174968247
 40
377.4044126005778
 40
379.3626502329085
 40
381.3208878652392
 40
383.2791254975699
 40
385.2373631299013
 40
387.4799801931007
 40
389.7225972563008
 40
391.9652143195002
 40
394.2078313827004
 40
396.4504484458998
 40
398.6930655090999
 40
400.9356825722994
 40
403.1782996354988
 40
405.4209166986989
 40
407.663533761899
 40
409.9061508250984
 40
412.1487678882986
 40
414.391384951498
 40
416.6340020146981
 40
416.6340020146981
 40
416.6340020146981
 40
649.3169845307402
 40
649.3169845307402
 40
649.3169845307402
 40
651.8977602789283
 40
654.5546627599291
 40
657.2646636910596
 40
660.002310043179
 40
662.7412356275503
 40
665.4557248904954
 40
668.1220814244186
 40
670.7196294009195
 40
673.2312901856584
 40
673.2312901856584
 40
673.2312901856584
 40
815.9041516475502
 40
815.9041516475502
 40
815.9041516475502
 40
824.1047557931508
 40
824.1047557931508
 40
824.1047557931508
 40
1071.869366277368
 40
1071.869366277368
 40
1071.869366277368
 40
1075.969669174024
 40
1075.969669174024
 40
1075.969669174024
 40
1075.969669174024
 10
2726.626833081988
 20
-1373.055850719236
 30
0.0
 41
1.0
 10
2726.356328986887
 20
-1374.186882704634
 30
0.0
 41
1.0
 10
2725.828308414635
 20
-1376.457829804063
 30
0.0
 41
1.0
 10
2724.858197079724
 20
-1379.799392514433
 30
0.0
 41
1.0
 10
2723.64130966302
 20
-1383.071347381043
 30
0.0
 41
1.0
 10
2722.197157533021
 20
-1386.256432055623
 30
0.0
 41
1.0
 10
2720.642017651167
 20
-1389.147577381362
 30
0.0
 41
1.0
 10
2718.833046095853
 20
-1392.029065079292
 30
0.0
 41
1.0
 10
2716.969295344468
 20
-1394.605879753813
 30
0.0
 41
1.0
 10
2714.941022051058
 20
-1397.067501565132
 30
0.0
 41
1.0
 10
2712.763479498557
 20
-1399.391047275501
 30
0.0
 41
1.0
 10
2710.427018654642
 20
-1401.584584237193
 30
0.0
 41
1.0
 10
2707.975132277599
 20
-1403.608849343593
 30
0.0
 41
1.0
 10
2705.372635395783
 20
-1405.491223419052
 30
0.0
 41
1.0
 10
2702.687781787565
 20
-1407.183202658481
 30
0.0
 41
1.0
 10
2699.875732599074
 20
-1408.714959929533
 30
0.0
 41
1.0
 10
2696.985065859659
 20
-1410.057258733821
 30
0.0
 41
1.0
 10
2694.008261309813
 20
-1411.21558184798
 30
0.0
 41
1.0
 10
2690.965506863395
 20
-1412.180661137023
 30
0.0
 41
1.0
 10
2687.872110466822
 20
-1412.949093689371
 30
0.0
 41
1.0
 10
2684.727358959106
 20
-1413.519985943232
 30
0.0
 41
1.0
 10
2681.563166452092
 20
-1413.8885636177
 30
0.0
 41
1.0
 10
2678.362756212846
 20
-1414.054310640222
 30
0.0
 41
1.0
 10
2676.2390365561
 20
-1414.030821595963
 30
0.0
 41
1.0
 10
2675.175932513775
 20
-1414.03081976288
 30
0.0
 41
1.0
 10
2542.373873439567
 20
-1414.030819762873
 30
0.0
 41
1.0
 10
2409.569407239196
 20
-1414.030819762891
 30
0.0
 41
1.0
 10
2276.76774645775
 20
-1414.03081976288
 30
0.0
 41
1.0
 10
2275.704646030579
 20
-1414.030820642252
 30
0.0
 41
1.0
 10
2273.580933498699
 20
-1414.054307806902
 30
0.0
 41
1.0
 10
2270.380534826894
 20
-1413.888557732782
 30
0.0
 41
1.0
 10
2267.216354601522
 20
-1413.519976818301
 30
0.0
 41
1.0
 10
2264.07161614456
 20
-1412.949081121522
 30
0.0
 41
1.0
 10
2260.978233439615
 20
-1412.180644957192
 30
0.0
 41
1.0
 10
2257.935493324436
 20
-1411.215561887431
 30
0.0
 41
1.0
 10
2254.958703679345
 20
-1410.05723484126
 30
0.0
 41
1.0
 10
2252.068052311268
 20
-1408.714931981852
 30
0.0
 41
1.0
 10
2249.256019008928
 20
-1407.183170519882
 30
0.0
 41
1.0
 10
2246.571181515785
 20
-1405.491187029151
 30
0.0
 41
1.0
 10
2243.968701254984
 20
-1403.608808568911
 30
0.0
 41
1.0
 10
2241.516831572582
 20
-1401.584539058302
 30
0.0
 41
1.0
 10
2239.180387729597
 20
-1399.390997611601
 30
0.0
 41
1.0
 10
2237.00286217434
 20
-1397.06744741719
 30
0.0
 41
1.0
 10
2234.974605940595
 20
-1394.605821105371
 30
0.0
 41
1.0
 10
2233.110872164965
 20
-1392.02900195248
 30
0.0
 41
1.0
 10
2231.301918656922
 20
-1389.147509493512
 30
0.0
 41
1.0
 10
2229.746795999039
 20
-1386.25635962393
 30
0.0
 41
1.0
 10
2228.302661929061
 20
-1383.07127018494
 30
0.0
 41
1.0
 10
2227.085792158185
 20
-1379.799310663191
 30
0.0
 41
1.0
 10
2226.115697415516
 20
-1376.45774171485
 30
0.0
 41
1.0
 10
2225.323682837006
 20
-1373.051313952011
 30
0.0
 41
1.0
 10
2224.49270374138
 20
-1369.671530507741
 30
0.0
 41
1.0
 10
2223.671456046752
 20
-1366.281676346912
 30
0.0
 41
1.0
 10
2222.847981071965
 20
-1362.896071491021
 30
0.0
 41
1.0
 10
2222.023777140501
 20
-1359.503859389442
 30
0.0
 41
1.0
 10
2221.204049220025
 20
-1356.131017390602
 30
0.0
 41
1.0
 10
2220.37836098954
 20
-1352.733381965812
 30
0.0
 41
1.0
 10
2219.556055374014
 20
-1349.34972313077
 30
0.0
 41
1.0
 10
2218.731796327753
 20
-1345.957997256813
 30
0.0
 41
1.0
 10
2218.184029757736
 20
-1343.704000240432
 30
0.0
 41
1.0
 10
2217.909929658868
 20
-1342.576107385132
 30
0.0
 41
1.0
 10
2194.173049153433
 20
-1244.91016449466
 30
0.0
 41
1.0
 10
2170.43616864799
 20
-1147.244221604192
 30
0.0
 41
1.0
 10
2146.699288142554
 20
-1049.578278713732
 30
0.0
 41
1.0
 10
2146.43601610214
 20
-1048.495027802411
 30
0.0
 41
1.0
 10
2145.912904554913
 20
-1046.291141001631
 30
0.0
 41
1.0
 10
2145.169388975562
 20
-1042.994926724623
 30
0.0
 41
1.0
 10
2144.477183330346
 20
-1039.741572604442
 30
0.0
 41
1.0
 10
2143.859930816725
 20
-1036.630310027431
 30
0.0
 41
1.0
 10
2143.338065215328
 20
-1033.75707909348
 30
0.0
 41
1.0
 10
2142.926938188568
 20
-1031.206221027471
 30
0.0
 41
1.0
 10
2142.635256657355
 20
-1029.041937405211
 30
0.0
 41
1.0
 10
2142.464575898492
 20
-1027.303666646832
 30
0.0
 41
1.0
 10
2142.427351234553
 20
-1026.42027042976
 30
0.0
 41
1.0
 10
2142.427351234553
 20
-1026.053139799453
 30
0.0
 41
1.0
 10
2142.427351653463
 20
-1005.198582511511
 30
0.0
 41
1.0
 10
2142.42735207238
 20
-984.3440252235703
 30
0.0
 41
1.0
 10
2142.427352491293
 20
-963.4894679356219
 30
0.0
 41
1.0
 10
2142.427347382276
 20
-962.2907817013618
 30
0.0
 41
1.0
 10
2142.427342273255
 20
-961.0920954671017
 30
0.0
 41
1.0
 10
2142.427337164238
 20
-959.8934092328416
 30
0.0
 41
1.0
 10
2142.427336765853
 20
-923.6775388187705
 30
0.0
 41
1.0
 10
2142.427336367466
 20
-887.4616684046921
 30
0.0
 41
1.0
 10
2142.427335969085
 20
-851.2457979906101
 30
0.0
 41
1.0
 10
2142.427335969085
 20
-850.64645487348
 30
0.0
 41
1.0
 10
2142.427335969085
 20
-850.04711175635
 30
0.0
 41
1.0
 10
2142.427335969085
 20
-849.44776863922
 30
0.0
 41
1.0
  0
SPLINE
  5
61
330
1F
100
AcDbEntity
  8
2D
100
AcDbSpline
210
0.0
220
0.0
230
1.0
 70
    12
 71
     3
 72
    13
 73
     9
 74
     0
 42
0.0000000001
 43
0.0000000001
 40
0.0
 40
0.0
 40
0.0
 40
0.0
 40
63.99854076328801
 40
63.99854076328801
 40
63.99854076328801
 40
64.63430418424325
 40
65.3243237692509
 40
65.55475978694871
 40
65.55475978694871
 40
65.55475978694871
 40
65.55475978694871
 10
2142.427335969085
 20
-849.44776863922
 30
0.0
 41
1.0
 10
2142.427335948556
 20
-827.8752884420317
 30
0.0
 41
1.0
 10
2142.427335928023
 20
-806.3028082448507
 30
0.0
 41
1.0
 10
2142.427335907487
 20
-784.7303280476624
 30
0.0
 41
1.0
 10
2142.427335907494
 20
-784.5160263829928
 30
0.0
 41
1.0
 10
2142.459953089477
 20
-784.1867859994306
 30
0.0
 41
1.0
 10
2142.576352674969
 20
-784.1065408199208
 30
0.0
 41
1.0
 10
2142.674908982488
 20
-784.1846105934526
 30
0.0
 41
1.0
 10
2142.701417489588
 20
-784.2118637830116
 30
0.0
 41
1.0
  0
SPLINE
  5
62
330
1F
100
AcDbEntity
  8
2D
100
AcDbSpline
210
0.0
220
0.0
230
1.0
 70
     8
 71
     3
 72
    10
 73
     6
 74
     0
 42
0.0000000001
 43
0.0000000001
 40
-20.6638980025258
 40
-20.6638980025258
 40
-20.6638980025258
 40
-20.6638980025258
 40
-10.3142203599225
 40
-10.3142203599225
 40
0.0
 40
0.0
 40
0.0
 40
0.0
 10
2142.701417489588
 20
-784.2118637830116
 30
0.0
 10
2145.110284892402
 20
-786.6883355654671
 30
0.0
 10
2147.058814638436
 20
-789.5708849531162
 30
0.0
 10
2150.331955710641
 20
-795.587242667908
 30
0.0
 10
2151.709254777747
 20
-798.8195630730625
 30
0.0
 10
2152.916732030622
 20
-802.0087759591914
 30
0.0
  0
LINE
  5
63
330
1F
100
AcDbEntity
  8
2D
100
AcDbLine
 10
2152.71798396769
 20
636.9529045908109
 30
0.0
 11
2152.816673248719
 21
630.1908237082014
 31
0.0
  0
SPLINE
  5
64
330
1F
100
AcDbEntity
  8
2D
100
AcDbSpline
210
0.0
220
0.0
230
1.0
 70
     8
 71
     3
 72
     8
 73
     4
 74
     0
 42
0.0000000001
 43
0.0000000001
 40
-1.894533806008616
 40
-1.894533806008616
 40
-1.894533806008616
 40
-1.894533806008616
 40
0.0
 40
0.0
 40
0.0
 40
0.0
 10
2152.816673248719
 20
630.1908237082014
 30
0.0
 10
2152.825941658914
 20
629.559380457363
 30
0.0
 10
2152.859337834896
 20
628.9278312468399
 30
0.0
 10
2152.916716129981
 20
628.2989320389304
 30
0.0
  0
SPLINE
  5
65
330
1F
100
AcDbEntity
  8
2D
100
AcDbSpline
210
0.0
220
0.0
230
1.0
 70
     8
 71
     3
 72
    12
 73
     8
 74
     0
 42
0.0000000001
 43
0.0000000001
 40
-36.93812985730814
 40
-36.93812985730814
 40
-36.93812985730814
 40
-36.93812985730814
 40
-32.39055734483987
 40
-27.79577549935621
 40
-18.47368212991936
 40
-9.214053060870436
 40
0.0
 40
0.0
 40
0.0
 40
0.0
 10
2152.916716129981
 20
628.2989320389304
 30
0.0
 10
2153.0537068087
 20
626.7890693550712
 30
0.0
 10
2153.611340076699
 20
623.7805990106704
 30
0.0
 10
2155.823894985209
 20
618.008414828661
 30
0.0
 10
2160.559769092171
 20
611.7330742878607
 30
0.0
 10
2168.585784873318
 20
606.7908079186695
 30
0.0
 10
2174.742684284582
 20
605.64666038714
 30
0.0
 10
2177.814051900998
 20
605.64801101437
 30
0.0
  0
LINE
  5
66
330
1F
100
AcDbEntity
  8
2D
100
AcDbLine
 10
2177.814051900998
 20
605.64801101437
 30
0.0
 11
2774.129610312237
 21
605.64801101437
 31
0.0
  0
SPLINE
  5
67
330
1F
100
AcDbEntity
  8
2D
100
AcDbSpline
210
0.0
220
0.0
230
1.0
 70
     8
 71
     3
 72
    12
 73
     8
 74
     0
 42
0.0000000001
 43
0.0000000001
 40
-36.93791451283612
 40
-36.93791451283612
 40
-36.93791451283612
 40
-36.93791451283612
 40
-32.24526381394816
 40
-27.7238700399938
 40
-18.4642496204514
 40
-9.142164861350391
 40
0.0
 40
0.0
 40
0.0
 40
0.0
 10
2774.129610312237
 20
605.64801101437
 30
0.0
 10
2775.693987525687
 20
605.6473880652688
 30
0.0
 10
2778.764816270166
 20
605.937218750571
 30
0.0
 10
2784.712964560575
 20
607.6252793034387
 30
0.0
 10
2791.383825203731
 20
611.7329399106006
 30
0.0
 10
2797.049040696402
 20
619.2399114123605
 30
0.0
 10
2798.751561619392
 20
625.2638897347301
 30
0.0
 10
2799.026923234662
 20
628.2987517776698
 30
0.0
  0
SPLINE
  5
68
330
1F
100
AcDbEntity
  8
2D
100
AcDbSpline
210
0.0
220
0.0
230
1.0
 70
     8
 71
     3
 72
     8
 73
     4
 74
     0
 42
0.0000000001
 43
0.0000000001
 40
-1.894716948162791
 40
-1.894716948162791
 40
-1.894716948162791
 40
-1.894716948162791
 40
0.0
 40
0.0
 40
0.0
 40
0.0
 10
2799.026923234662
 20
628.2987517776698
 30
0.0
 10
2799.084309902344
 20
628.9277115226286
 30
0.0
 10
2799.117711967094
 20
629.5593195182702
 30
0.0
 10
2799.126983980776
 20
630.1908237701707
 30
0.0
  0
LINE
  5
69
330
1F
100
AcDbEntity
  8
2D
100
AcDbLine
 10
2799.126983980776
 20
630.1908237701707
 30
0.0
 11
2799.225678245486
 21
636.9529045908109
 31
0.0
  0
LINE
  5
6A
330
1F
100
AcDbEntity
  8
2D
100
AcDbLine
 10
2706.353488201043
 20
-1225.60853882163
 30
0.0
 11
2706.241875525327
 21
-1263.944736460627
 31
0.0
  0
LINE
  5
6B
330
1F
100
AcDbEntity
  8
2D
100
AcDbLine
 10
1298.881810002433
 20
143.4150418955807
 30
0.0
 11
1337.217019211512
 21
143.5266517905849
 31
0.0
  0
LINE
  5
6C
330
1F
100
AcDbEntity
  8
2D
100
AcDbLine
 10
2855.826272983832
 20
-968.2695191185006
 30
0.0
 11
2809.516320026545
 21
-968.2695194995246
 31
0.0
  0
SPLINE
  5
6D
330
1F
100
AcDbEntity
  8
2D
100
AcDbSpline
210
0.0
220
0.0
230
1.0
 70
     8
 71
     3
 72
   114
 73
   110
 74
     0
 42
0.0000000001
 43
0.0000000001
 40
-1098.975988351439
 40
-1098.975988351439
 40
-1098.975988351439
 40
-1098.975988351439
 40
-1090.211722742268
 40
-1090.211722742268
 40
-1085.842116345393
 40
-1085.842116345393
 40
-1081.475241082353
 40
-1081.475241082353
 40
-1072.722742515504
 40
-1072.722742515504
 40
-1063.978533391447
 40
-1063.978533391447
 40
-1047.272469091526
 40
-1047.272469091526
 40
-1029.785122004683
 40
-1029.785122004683
 40
-994.8104175112402
 40
-994.8104175112402
 40
-959.8357145697184
 40
-959.8357145697184
 40
-889.7871757669576
 40
-889.7871757669576
 40
-819.7386369990236
 40
-819.7386369990236
 40
-810.9883768439979
 40
-810.9883768439979
 40
-808.8008118063656
 40
-808.8008118063656
 40
-806.612867038297
 40
-806.612867038297
 40
-802.2288769514608
 40
-802.2288769514608
 40
-797.8453068446255
 40
-797.8453068446255
 40
-793.4597659325509
 40
-793.4597659325509
 40
-784.6403325018312
 40
-784.6403325018312
 40
-780.254251436234
 40
-780.254251436234
 40
-775.8668526230715
 40
-775.8668526230715
 40
-767.0562975053812
 40
-767.0562975053812
 40
-749.4762044710593
 40
-749.4762044710593
 40
-745.0847759752991
 40
-745.0847759752991
 40
-740.6954261749895
 40
-740.6954261749895
 40
-731.916863118878
 40
-731.916863118878
 40
-714.3597341696818
 40
-714.3597341696818
 40
-679.2454747429455
 40
-679.2454747429455
 40
-538.8854352540294
 40
-538.8854352540294
 40
-398.4533963548743
 40
-398.4533963548743
 40
-363.3248262551816
 40
-363.3248262551816
 40
-345.7605457577431
 40
-345.7605457577431
 40
-336.9784057168596
 40
-336.9784057168596
 40
-332.5865510668629
 40
-332.5865510668629
 40
-328.1933281114088
 40
-328.1933281114088
 40
-319.3775794635547
 40
-319.3775794635547
 40
-310.5594804252652
 40
-310.5594804252652
 40
-301.7389713251986
 40
-301.7389713251986
 40
-297.3476126732601
 40
-297.3476126732601
 40
-292.9573988013667
 40
-292.9573988013667
 40
-288.5671587990419
 40
-288.5671587990419
 40
-284.1747406187799
 40
-284.1747406187799
 40
-275.3340304934432
 40
-275.3340304934432
 40
-270.9426325229834
 40
-270.9426325229834
 40
-269.0719487592503
 40
-269.0719487592503
 40
-260.3090591287291
 40
-260.3090591287291
 40
-190.2964041638024
 40
-190.2964041638024
 40
-120.2837494114321
 40
-120.2837494114321
 40
-68.78940182419487
 40
-68.78940182419487
 40
-51.26184802352591
 40
-51.26184802352591
 40
-34.73047038161955
 40
-34.73047038161955
 40
-25.96695061319678
 40
-25.96695061319678
 40
-17.19426696407873
 40
-17.19426696407873
 40
-8.759227621413446
 40
-8.759227621413446
 40
0.0
 40
0.0
 40
0.0
 40
0.0
 10
2809.516320026545
 20
-968.2695194995246
 30
0.0
 10
2806.898119354493
 20
-969.5518178844208
 30
0.0
 10
2804.742602824117
 20
-971.4168136781378
 30
0.0
 10
2801.949022793404
 20
-974.7034683547801
 30
0.0
 10
2801.112492867629
 20
-975.8560499015786
 30
0.0
 10
2799.527261731215
 20
-978.2429678701538
 30
0.0
 10
2798.790998685774
 20
-979.465625543572
 30
0.0
 10
2796.715653944204
 20
-983.2341606523922
 30
0.0
 10
2795.536739709933
 20
-985.8259460882373
 30
0.0
 10
2793.4021398939
 20
-991.1440098220834
 30
0.0
 10
2792.461598969388
 20
-993.8405687678865
 30
0.0
 10
2789.918351595144
 20
-1001.774206526889
 30
0.0
 10
2788.294145580676
 20
-1007.787677041916
 30
0.0
 10
2785.312760257239
 20
-1018.56784348674
 30
0.0
 10
2783.772066012596
 20
-1024.076634780128
 30
0.0
 10
2779.168879302491
 20
-1040.608291647566
 30
0.0
 10
2776.108885280435
 20
-1051.631837940174
 30
0.0
 10
2769.989264657292
 20
-1073.679037348649
 30
0.0
 10
2766.930873618909
 20
-1084.703030052975
 30
0.0
 10
2757.753537990229
 20
-1117.808061125524
 30
0.0
 10
2751.638109652489
 20
-1139.890072520411
 30
0.0
 10
2739.396991939935
 20
-1184.05125222423
 30
0.0
 10
2733.274507573886
 20
-1206.131308152321
 30
0.0
 10
2726.387583188658
 20
-1230.969641259865
 30
0.0
 10
2725.622825551276
 20
-1233.72783033738
 30
0.0
 10
2724.666890276101
 20
-1237.175569947803
 30
0.0
 10
2724.475703809723
 20
-1237.865118032794
 30
0.0
 10
2724.093299003889
 20
-1239.24433426298
 30
0.0
 10
2723.908455907593
 20
-1239.9356791943
 30
0.0
 10
2723.291035175032
 20
-1241.995422550249
 30
0.0
 10
2722.805882741039
 20
-1243.336516103794
 30
0.0
 10
2721.694137533697
 20
-1245.980472229575
 30
0.0
 10
2721.075011902161
 20
-1247.265700928379
 30
0.0
 10
2719.698986124487
 20
-1249.782883065417
 30
0.0
 10
2718.950139894252
 20
-1250.997461327013
 30
0.0
 10
2716.49321197996
 20
-1254.550668557724
 30
0.0
 10
2714.648997930854
 20
-1256.700059854347
 30
0.0
 10
2711.566152843301
 20
-1259.719865087514
 30
0.0
 10
2710.503415967305
 20
-1260.673109301561
 30
0.0
 10
2708.283334998669
 20
-1262.487631732666
 30
0.0
 10
2707.1374984022
 20
-1263.339884662648
 30
0.0
 10
2703.566044484236
 20
-1265.757993827662
 30
0.0
 10
2701.084968861003
 20
-1267.13807180008
 30
0.0
 10
2693.242849015893
 20
-1270.718003137093
 30
0.0
 10
2687.682858618809
 20
-1272.238198693311
 30
0.0
 10
2680.562791301814
 20
-1273.074891970671
 30
0.0
 10
2679.138488720797
 20
-1273.187677262988
 30
0.0
 10
2676.275844139003
 20
-1273.305434788532
 30
0.0
 10
2674.845282857052
 20
-1273.29597978638
 30
0.0
 10
2670.551899590413
 20
-1273.305762969059
 30
0.0
 10
2667.68965812289
 20
-1273.311866723491
 30
0.0
 10
2659.102929732933
 20
-1273.328875326974
 30
0.0
 10
2653.378441773577
 20
-1273.338477510562
 30
0.0
 10
2636.204965490164
 20
-1273.361692101917
 30
0.0
 10
2624.755981943163
 20
-1273.369123810276
 30
0.0
 10
2567.54263913586
 20
-1273.377119211789
 30
0.0
 10
2521.77836441655
 20
-1273.29776995094
 30
0.0
 10
2430.22621073743
 20
-1273.293292637853
 30
0.0
 10
2384.438474684408
 20
-1273.380022856949
 30
0.0
 10
2327.196993672755
 20
-1273.369755520495
 30
0.0
 10
2315.74334485333
 20
-1273.361488754912
 30
0.0
 10
2298.562872234477
 20
-1273.338466135516
 30
0.0
 10
2292.836052815113
 20
-1273.329021523005
 30
0.0
 10
2284.245827103106
 20
-1273.312035994031
 30
0.0
 10
2281.382419702903
 20
-1273.305904383777
 30
0.0
 10
2277.087054149713
 20
-1273.295981351276
 30
0.0
 10
2275.655712206113
 20
-1273.305167580419
 30
0.0
 10
2272.791710630197
 20
-1273.184301064662
 30
0.0
 10
2271.366857249446
 20
-1273.069378233657
 30
0.0
 10
2267.086388042349
 20
-1272.567004693483
 30
0.0
 10
2264.293036685878
 20
-1272.035136986868
 30
0.0
 10
2258.745924160001
 20
-1270.49532425356
 30
0.0
 10
2256.077140875699
 20
-1269.515099152497
 30
0.0
 10
2250.840546566436
 20
-1267.123175614016
 30
0.0
 10
2248.356109010161
 20
-1265.747249425967
 30
0.0
 10
2244.785177856866
 20
-1263.324483984107
 30
0.0
 10
2243.639790572066
 20
-1262.470581600164
 30
0.0
 10
2241.418566150853
 20
-1260.655967053612
 30
0.0
 10
2240.353570579049
 20
-1259.704365671573
 30
0.0
 10
2238.303997290375
 20
-1257.69827287531
 30
0.0
 10
2237.330177193508
 20
-1256.654277443638
 30
0.0
 10
2235.478589127993
 20
-1254.462752953924
 30
0.0
 10
2234.611181380056
 20
-1253.32832922207
 30
0.0
 10
2232.15670931655
 20
-1249.769869724881
 30
0.0
 10
2230.793387282112
 20
-1247.291941313614
 30
0.0
 10
2229.119619861776
 20
-1243.305188786599
 30
0.0
 10
2228.636444360731
 20
-1241.962996200517
 30
0.0
 10
2228.055973510567
 20
-1240.000329319105
 30
0.0
 10
2227.237690223039
 20
-1237.038973631616
 30
0.0
 10
2226.309381070816
 20
-1233.690584078558
 30
0.0
 10
2225.544368609815
 20
-1230.93125504932
 30
0.0
 10
2218.667074133489
 20
-1206.125801333358
 30
0.0
 10
2212.554234400719
 20
-1184.079831297504
 30
0.0
 10
2200.332325879484
 20
-1139.986845737898
 30
0.0
 10
2194.225476516916
 20
-1117.939215537667
 30
0.0
 10
2183.618084371337
 20
-1079.678021115857
 30
0.0
 10
2174.242000677143
 20
-1045.87873554573
 30
0.0
 10
2168.193571836702
 20
-1024.150867664185
 30
0.0
 10
2166.648620289478
 20
-1018.635766363643
 30
0.0
 10
2163.685011382473
 20
-1007.908265003294
 30
0.0
 10
2162.016849056778
 20
-1001.753745737444
 30
0.0
 10
2159.494512117486
 20
-993.8759739401037
 30
0.0
 10
2158.553066018165
 20
-991.1762365106042
 30
0.0
 10
2156.41860923537
 20
-985.8508046399006
 30
0.0
 10
2155.238206467839
 20
-983.256038051026
 30
0.0
 10
2152.51944865847
 20
-978.3183376956879
 30
0.0
 10
2150.867163876268
 20
-975.7344433803527
 30
0.0
 10
2147.204494951333
 20
-971.4198943201933
 30
0.0
 10
2145.04995780468
 20
-969.5539734659087
 30
0.0
 10
2142.42734415138
 20
-968.2695214235133
 30
0.0
  0
LINE
  5
6E
330
1F
100
AcDbEntity
  8
2D
100
AcDbLine
 10
2142.42734415138
 20
-968.2695214235133
 30
0.0
 11
2096.117375333582
 21
-968.2695191185006
 31
0.0
  0
SPLINE
  5
6F
330
1F
100
AcDbEntity
  8
2D
100
AcDbSpline
210
0.0
220
0.0
230
1.0
 70
     8
 71
     3
 72
     8
 73
     4
 74
     0
 42
0.0000000001
 43
0.0000000001
 40
-212.9399471224006
 40
-212.9399471224006
 40
-212.9399471224006
 40
-212.9399471224006
 40
0.0
 40
0.0
 40
0.0
 40
0.0
 10
2688.911774948039
 20
1056.026822047802
 30
0.0
 10
2617.931795932142
 20
1056.048874734093
 30
0.0
 10
2546.951813297699
 20
1056.061205972014
 30
0.0
 10
2475.971830971543
 20
1056.063815760845
 30
0.0
  0
LINE
  5
70
330
1F
100
AcDbEntity
  8
2D
100
AcDbLine
 10
2475.971831106614
 20
1056.06381576096
 30
0.0
 11
2263.033346626482
 21
1056.04885046801
 31
0.0
  0
SPLINE
  5
71
330
1F
100
AcDbEntity
  8
2D
100
AcDbSpline
210
0.0
220
0.0
230
1.0
 70
     8
 71
     3
 72
    12
 73
     8
 74
     0
 42
0.0000000001
 43
0.0000000001
 40
-53.4438807955928
 40
-53.4438807955928
 40
-53.4438807955928
 40
-53.4438807955928
 40
-46.96293067044796
 40
-40.50956396516806
 40
-26.89574594603654
 40
-13.65392953143534
 40
0.0
 40
0.0
 40
0.0
 40
0.0
 10
2263.033346626482
 20
1056.04885046801
 30
0.0
 10
2260.872772480743
 20
1056.02739836664
 30
0.0
 10
2256.562706331159
 20
1055.662922689279
 30
0.0
 10
2247.955743731927
 20
1053.473350046951
 30
0.0
 10
2238.101008177851
 20
1048.008848395201
 30
0.0
 10
2228.972489908258
 20
1037.8183812259
 30
0.0
 10
2225.380515003588
 20
1029.47422448077
 30
0.0
 10
2224.277028189248
 20
1025.059021338219
 30
0.0
  0
SPLINE
  5
72
330
1F
100
AcDbEntity
  8
2D
100
AcDbSpline
210
0.0
220
0.0
230
1.0
 70
     8
 71
     3
 72
     8
 73
     4
 74
     0
 42
0.0000000001
 43
0.0000000001
 40
-281.3072617646368
 40
-281.3072617646368
 40
-281.3072617646368
 40
-281.3072617646368
 40
0.0
 40
0.0
 40
0.0
 40
0.0
 10
2224.277028189248
 20
1025.059021338219
 30
0.0
 10
2201.491851227034
 20
934.10036350174
 30
0.0
 10
2178.693860109626
 20
843.1449143431535
 30
0.0
 10
2155.883056342213
 20
752.1926798675911
 30
0.0
  0
SPLINE
  5
73
330
1F
100
AcDbEntity
  8
2D
100
AcDbSpline
210
0.0
220
0.0
230
1.0
 70
    12
 71
     3
 72
    33
 73
    29
 74
     0
 42
0.0000000001
 43
0.0000000001
 40
-750.2204953855852
 40
-750.2204953855852
 40
-750.2204953855852
 40
-750.2204953855852
 40
-747.3283180965091
 40
-744.4311734323861
 40
-741.5303316972874
 40
-738.6270745221959
 40
-735.7226912166683
 40
-732.8184750628039
 40
-729.9157195789809
 40
-727.0157147811484
 40
-724.1197434695083
 40
-724.1197434695083
 40
-724.1197434695083
 40
-635.3638949041309
 40
-635.3638949041309
 40
-635.3638949041309
 40
-631.3191716905397
 40
-627.0527020545164
 40
-622.6124107265192
 40
-618.0608863926848
 40
-613.4710403684837
 40
-608.9195147155302
 40
-604.4792210006922
 40
-600.2127483275932
 40
-596.1680218846238
 40
-596.1680218846238
 40
-596.1680218846238
 40
0.0
 40
0.0
 40
0.0
 40
0.0
 10
2155.883056342213
 20
752.1926798675911
 30
0.0
 41
1.0
 10
2155.649287710294
 20
751.2603476683894
 30
0.0
 41
1.0
 10
2155.206837888283
 20
749.3876338193209
 30
0.0
 41
1.0
 10
2154.619766855063
 20
746.5596758510715
 30
0.0
 41
1.0
 10
2154.10955907487
 20
743.7131948507981
 30
0.0
 41
1.0
 10
2153.676992675737
 20
740.8515558929489
 30
0.0
 41
1.0
 10
2153.322654334479
 20
737.9781312221698
 30
0.0
 41
1.0
 10
2153.046947730083
 20
735.0963340677904
 30
0.0
 41
1.0
 10
2152.850089131422
 20
732.2095813544097
 30
0.0
 41
1.0
 10
2152.732107840224
 20
729.3213281492485
 30
0.0
 41
1.0
 10
2152.705911705776
 20
727.3954115263209
 30
0.0
 41
1.0
 10
2152.705911705776
 20
726.4331743135613
 30
0.0
 41
1.0
 10
2152.705911705776
 20
696.942488409039
 30
0.0
 41
1.0
 10
2152.705911705776
 20
667.4518025045095
 30
0.0
 41
1.0
 10
2152.705911705776
 20
637.9611165999909
 30
0.0
 41
1.0
 10
2152.705911705776
 20
636.6171864388803
 30
0.0
 41
1.0
 10
2152.931238692654
 20
633.8505688506216
 30
0.0
 41
1.0
 10
2153.978395982536
 20
629.7235954473895
 30
0.0
 41
1.0
 10
2155.799237783507
 20
625.6832289239887
 30
0.0
 41
1.0
 10
2158.379550869995
 20
621.9436616031985
 30
0.0
 41
1.0
 10
2161.627280368659
 20
618.7082934030209
 30
0.0
 41
1.0
 10
2165.381135243308
 20
616.1378014224306
 30
0.0
 41
1.0
 10
2169.436938460942
 20
614.3238900936908
 30
0.0
 41
1.0
 10
2173.579679401359
 20
613.2807184934413
 30
0.0
 41
1.0
 10
2176.356867097435
 20
613.056249147909
 30
0.0
 41
1.0
 10
2177.705931930555
 20
613.05624914792
 30
0.0
 41
1.0
 10
2376.549864714598
 20
613.05624914792
 30
0.0
 41
1.0
 10
2575.393797498637
 20
613.05624914792
 30
0.0
 41
1.0
 10
2774.237730282679
 20
613.0562491479202
 30
0.0
 41
1.0
  0
SPLINE
  5
74
330
1F
100
AcDbEntity
  8
2D
100
AcDbSpline
210
0.0
220
0.0
230
1.0
 70
    12
 71
     3
 72
    30
 73
    26
 74
     0
 42
0.0000000001
 43
0.0000000001
 40
-153.6700009209544
 40
-153.6700009209544
 40
-153.6700009209544
 40
-153.6700009209544
 40
-149.6349152549026
 40
-145.3786119002581
 40
-140.9489018136952
 40
-136.4082249150576
 40
-131.829318983402
 40
-127.288643400738
 40
-122.8589356953255
 40
-118.6026353705201
 40
-114.5675529261482
 40
-114.5675529261482
 40
-114.5675529261482
 40
-26.03503402167535
 40
-26.03503402167535
 40
-26.03503402167535
 40
-23.14634376537656
 40
-20.25363376414935
 40
-17.35818320751306
 40
-14.46127846513049
 40
-11.56420938522219
 40
-8.668265567841006
 40
-5.774732640666252
 40
-2.884888565112524
 40
0.0
 40
0.0
 40
0.0
 40
0.0
 10
2774.237730282679
 20
613.0562491479202
 30
0.0
 41
1.0
 10
2775.5867951158
 20
613.056249147909
 30
0.0
 41
1.0
 10
2778.363982811876
 20
613.2807184934413
 30
0.0
 41
1.0
 10
2782.506723752289
 20
614.3238900936908
 30
0.0
 41
1.0
 10
2786.56252696993
 20
616.1378014224306
 30
0.0
 41
1.0
 10
2790.316381844576
 20
618.7082934030209
 30
0.0
 41
1.0
 10
2793.564111343243
 20
621.9436616031985
 30
0.0
 41
1.0
 10
2796.144424429731
 20
625.6832289239887
 30
0.0
 41
1.0
 10
2797.965266230698
 20
629.7235954473786
 30
0.0
 41
1.0
 10
2799.01242352058
 20
633.8505688506289
 30
0.0
 41
1.0
 10
2799.237750507462
 20
636.6171864388693
 30
0.0
 41
1.0
 10
2799.237750507462
 20
637.9611165999909
 30
0.0
 41
1.0
 10
2799.237750507462
 20
667.4478802624203
 30
0.0
 41
1.0
 10
2799.237750507462
 20
696.9346439248388
 30
0.0
 41
1.0
 10
2799.237750507462
 20
726.421407587261
 30
0.0
 41
1.0
 10
2799.237750507462
 20
727.3835187745995
 30
0.0
 41
1.0
 10
2799.211559349955
 20
729.3091819467613
 30
0.0
 41
1.0
 10
2799.093600596301
 20
732.1970536482208
 30
0.0
 41
1.0
 10
2798.896779944967
 20
735.0834223672814
 30
0.0
 41
1.0
 10
2798.621126931113
 20
737.9648341797315
 30
0.0
 41
1.0
 10
2798.266857981973
 20
740.8378733222003
 30
0.0
 41
1.0
 10
2797.834376856808
 20
743.6991277493712
 30
0.0
 41
1.0
 10
2797.32427023373
 20
746.5452264093205
 30
0.0
 41
1.0
 10
2796.737316158011
 20
749.3728054340413
 30
0.0
 41
1.0
 10
2796.294954800593
 20
751.2452695614506
 30
0.0
 41
1.0
 10
2796.061232997534
 20
752.1774777785602
 30
0.0
 41
1.0
  0
SPLINE
  5
75
330
1F
100
AcDbEntity
  8
2D
100
AcDbSpline
210
0.0
220
0.0
230
1.0
 70
     8
 71
     3
 72
     8
 73
     4
 74
     0
 42
0.0000000001
 43
0.0000000001
 40
-281.3211851680576
 40
-281.3211851680576
 40
-281.3211851680576
 40
-281.3211851680576
 40
0.0
 40
0.0
 40
0.0
 40
0.0
 10
2796.061232997534
 20
752.1774777785602
 30
0.0
 10
2773.251081066886
 20
843.1346605897096
 30
0.0
 10
2750.453469376025
 20
934.0949894489411
 30
0.0
 10
2727.668399366674
 20
1025.058458603921
 30
0.0
  0
SPLINE
  5
76
330
1F
100
AcDbEntity
  8
2D
100
AcDbSpline
210
0.0
220
0.0
230
1.0
 70
     8
 71
     3
 72
    12
 73
     8
 74
     0
 42
0.0000000001
 43
0.0000000001
 40
-53.44456392198423
 40
-53.44456392198423
 40
-53.44456392198423
 40
-53.44456392198423
 40
-46.58212145158415
 40
-39.78805087981942
 40
-26.54724326036322
 40
-12.93246673733988
 40
0.0
 40
0.0
 40
0.0
 40
0.0
 10
2727.668399366674
 20
1025.058458603921
 30
0.0
 10
2727.114176962532
 20
1027.27769803264
 30
0.0
 10
2725.64811576956
 20
1031.603598934601
 30
0.0
 10
2721.426263636087
 20
1039.545634810091
 30
0.0
 10
2713.84327640164
 20
1048.010654297711
 30
0.0
 10
2702.070754706059
 20
1054.536977162249
 30
0.0
 10
2693.222287473036
 20
1056.028555889678
 30
0.0
 10
2688.911774948039
 20
1056.026822047802
 30
0.0
  0
LINE
  5
77
330
1F
100
AcDbEntity
  8
2D
100
AcDbLine
 10
1778.686456110045
 20
246.5409159195652
 30
0.0
 11
1778.687944837693
 21
292.8469174383707
 31
0.0
  0
SPLINE
  5
78
330
1F
100
AcDbEntity
  8
2D
100
AcDbSpline
210
0.0
220
0.0
230
1.0
 70
    12
 71
     3
 72
    31
 73
    27
 74
     0
 42
0.0000000001
 43
0.0000000001
 40
-613.4426407540475
 40
-613.4426407540475
 40
-613.4426407540475
 40
-613.4426407540475
 40
-611.5080646453882
 40
-611.5080646453882
 40
-611.5080646453882
 40
-504.2953677783475
 40
-504.2953677783475
 40
-504.2953677783475
 40
-501.316702416065
 40
-501.316702416065
 40
-501.316702416065
 40
-321.328081548275
 40
-321.328081548275
 40
-321.328081548275
 40
-315.3707520206906
 40
-315.3707520206906
 40
-315.3707520206906
 40
-211.7260408717143
 40
-211.7260408717143
 40
-211.7260408717143
 40
-203.0238756157604
 40
-203.0238756157604
 40
-194.3530809245231
 40
-194.3530809245231
 40
-194.3530809245231
 40
0.0
 40
0.0
 40
0.0
 40
0.0
 10
1778.687944837693
 20
292.8469174383707
 30
0.0
 41
1.0
 10
1778.69010864705
 20
292.946218226783
 30
0.0
 41
1.0
 10
1778.496677717452
 20
292.9994442955297
 30
0.0
 41
1.0
 10
1778.096511675762
 20
292.9994442955315
 30
0.0
 41
1.0
 10
1756.524030986522
 20
292.9994458008107
 30
0.0
 41
1.0
 10
1734.951550297283
 20
292.9994473060899
 30
0.0
 41
1.0
 10
1713.379069608054
 20
292.9994488113691
 30
0.0
 41
1.0
 10
1712.779726365341
 20
292.9994492219005
 30
0.0
 41
1.0
 10
1712.180383122632
 20
292.99944963243
 30
0.0
 41
1.0
 10
1711.581039879922
 20
292.9994500429596
 30
0.0
 41
1.0
 10
1675.365171023714
 20
292.9994500429596
 30
0.0
 41
1.0
 10
1639.149302167512
 20
292.999450042965
 30
0.0
 41
1.0
 10
1602.933433311304
 20
292.999450042965
 30
0.0
 41
1.0
 10
1601.734747077044
 20
292.999444933944
 30
0.0
 41
1.0
 10
1600.536060842773
 20
292.999439824923
 30
0.0
 41
1.0
 10
1599.337374608513
 20
292.9994347159038
 30
0.0
 41
1.0
 10
1578.482816380332
 20
292.9994328000932
 30
0.0
 41
1.0
 10
1557.628258152152
 20
292.9994308842809
 30
0.0
 41
1.0
 10
1536.773699923971
 20
292.9994289684685
 30
0.0
 41
1.0
 10
1535.000538667762
 20
292.9994289684721
 30
0.0
 41
1.0
 10
1531.750364211093
 20
292.5765696176743
 30
0.0
 41
1.0
 10
1523.267749580591
 20
291.0294479010547
 30
0.0
 41
1.0
 10
1518.297521015982
 20
289.9545854226483
 30
0.0
 41
1.0
 10
1513.248561009703
 20
288.7274920604643
 30
0.0
 41
1.0
 10
1400.952519234732
 20
261.4351948404303
 30
0.0
 41
1.0
 10
1288.656477459761
 20
234.1428976203945
 30
0.0
 41
1.0
 10
1176.360435684801
 20
206.8506004003603
 30
0.0
 41
1.0
  0
SPLINE
  5
79
330
1F
100
AcDbEntity
  8
2D
100
AcDbSpline
210
0.0
220
0.0
230
1.0
 70
     8
 71
     3
 72
     8
 73
     4
 74
     0
 42
0.0000000001
 43
0.0000000001
 40
-1.217114044373292
 40
-1.217114044373292
 40
-1.217114044373292
 40
-1.217114044373292
 40
0.0
 40
0.0
 40
0.0
 40
0.0
 10
1176.360435684801
 20
206.8506004003603
 30
0.0
 10
1175.966207090361
 20
206.7547875417133
 30
0.0
 10
1175.572584196809
 20
206.656447239121
 30
0.0
 10
1175.179615459761
 20
206.5555915984345
 30
0.0
  0
SPLINE
  5
7A
330
1F
100
AcDbEntity
  8
2D
100
AcDbSpline
210
0.0
220
0.0
230
1.0
 70
    12
 71
     3
 72
    14
 73
    10
 74
     0
 42
0.0000000001
 43
0.0000000001
 40
-528.1175762542231
 40
-528.1175762542231
 40
-528.1175762542231
 40
-528.1175762542231
 40
-402.7857201750646
 40
-402.7857201750646
 40
-402.7857201750646
 40
0.0
 40
0.0
 40
0.0
 40
125.3040922574993
 40
125.3040922574993
 40
125.3040922574993
 40
125.3040922574993
 10
1175.179615459764
 20
206.5555915984346
 30
0.0
 41
0.9956227716042817
 10
1131.424253500165
 20
195.325754087673
 30
0.0000000000000061
 41
0.8574698667828088
 10
1103.796019960539
 20
159.6345635525425
 30
0.0000000000000061
 41
0.8589289429147151
 10
1103.796019960544
 20
114.5378463616828
 30
0.0
 41
1.0
 10
1103.796019960544
 20
-19.7240603633367
 30
0.0
 41
1.0
 10
1103.796019960544
 20
-153.9859670883142
 30
0.0
 41
1.0
 10
1103.796019960544
 20
-288.2478738133333
 30
0.0
 41
1.0
 10
1103.796019960538
 20
-333.3445910041929
 30
0.0000000000000073
 41
0.8589289429147172
 10
1131.424253500172
 20
-369.0357815393245
 30
0.0000000000000073
 41
0.8574698667828198
 10
1175.179615459761
 20
-380.2656190500907
 30
0.0
 41
0.995622771604307
  0
SPLINE
  5
7B
330
1F
100
AcDbEntity
  8
2D
100
AcDbSpline
210
0.0
220
0.0
230
1.0
 70
     8
 71
     3
 72
     8
 73
     4
 74
     0
 42
0.0000000001
 43
0.0000000001
 40
-1.21711404440334
 40
-1.21711404440334
 40
-1.21711404440334
 40
-1.21711404440334
 40
0.0
 40
0.0
 40
0.0
 40
0.0
 10
1175.179615459761
 20
-380.2656190500907
 30
0.0
 10
1175.57258419682
 20
-380.3664746907814
 30
0.0
 10
1175.966207090343
 20
-380.4648149933679
 30
0.0
 10
1176.360435684794
 20
-380.5606278520197
 30
0.0
  0
SPLINE
  5
7C
330
1F
100
AcDbEntity
  8
2D
100
AcDbSpline
210
0.0
220
0.0
230
1.0
 70
    12
 71
     3
 72
    31
 73
    27
 74
     0
 42
0.0000000001
 43
0.0000000001
 40
-611.6748735393414
 40
-611.6748735393414
 40
-611.6748735393414
 40
-611.6748735393414
 40
-417.8817977156796
 40
-417.8817977156796
 40
-417.8817977156796
 40
-409.2359409319151
 40
-409.2359409319151
 40
-400.5589715680809
 40
-400.5589715680809
 40
-400.5589715680809
 40
-297.212900227873
 40
-297.212900227873
 40
-297.212900227873
 40
-291.2727360310727
 40
-291.2727360310727
 40
-291.2727360310727
 40
-111.8027310174828
 40
-111.8027310174828
 40
-111.8027310174828
 40
-108.8326483223168
 40
-108.8326483223168
 40
-108.8326483223168
 40
-1.928871764336071
 40
-1.928871764336071
 40
-1.928871764336071
 40
0.0
 40
0.0
 40
0.0
 40
0.0
 10
1176.360435684794
 20
-380.5606278520197
 30
0.0
 41
1.0
 10
1288.656477459761
 20
-407.8529291592668
 30
0.0
 41
1.0
 10
1400.952519234732
 20
-435.1452304665136
 30
0.0
 41
1.0
 10
1513.248561009692
 20
-462.4375317737622
 30
0.0
 41
1.0
 10
1518.297564549423
 20
-463.6646357162617
 30
0.0
 41
1.0
 10
1523.267355519394
 20
-464.7394071644312
 30
0.0
 41
1.0
 10
1531.750046093763
 20
-466.286559929752
 30
0.0
 41
1.0
 10
1535.000558320593
 20
-466.70946868177
 30
0.0
 41
1.0
 10
1536.773699923971
 20
-466.70946868177
 30
0.0
 41
1.0
 10
1557.628259203811
 20
-466.7094667659594
 30
0.0
 41
1.0
 10
1578.482818483651
 20
-466.7094648501488
 30
0.0
 41
1.0
 10
1599.337377763481
 20
-466.7094629343383
 30
0.0
 41
1.0
 10
1600.536063997741
 20
-466.7094578253191
 30
0.0
 41
1.0
 10
1601.734750232001
 20
-466.7094527162981
 30
0.0
 41
1.0
 10
1602.933436466272
 20
-466.7094476072789
 30
0.0
 41
1.0
 10
1639.149305322473
 20
-466.7094476072789
 30
0.0
 41
1.0
 10
1675.365174178682
 20
-466.7094476072807
 30
0.0
 41
1.0
 10
1711.581043034894
 20
-466.7094476072825
 30
0.0
 41
1.0
 10
1712.180386152024
 20
-466.7094476072807
 30
0.0
 41
1.0
 10
1712.779729269154
 20
-466.7094476072789
 30
0.0
 41
1.0
 10
1713.379072386284
 20
-466.7094476072789
 30
0.0
 41
1.0
 10
1734.951552149443
 20
-466.7094495230913
 30
0.0
 41
1.0
 10
1756.524031912602
 20
-466.7094514389037
 30
0.0
 41
1.0
 10
1778.096511675762
 20
-466.7094533547142
 30
0.0
 41
1.0
 10
1778.496655337407
 20
-466.7094533547161
 30
0.0
 41
1.0
 10
1778.690072375328
 20
-466.6562259219002
 30
0.0
 41
1.0
 10
1778.687926576065
 20
-466.5569258357725
 30
0.0
 41
1.0
  0
LINE
  5
7D
330
1F
100
AcDbEntity
  8
2D
100
AcDbLine
 10
1778.687926576065
 20
-466.5569258357725
 30
0.0
 11
1778.686456110037
 21
-420.2509331531769
 31
0.0
  0
SPLINE
  5
7E
330
1F
100
AcDbEntity
  8
2D
100
AcDbSpline
210
0.0
220
0.0
230
1.0
 70
     8
 71
     3
 72
     8
 73
     4
 74
     0
 42
0.0000000001
 43
0.0000000001
 40
-281.3211851680564
 40
-281.3211851680564
 40
-281.3211851680564
 40
-281.3211851680564
 40
0.0
 40
0.0
 40
0.0
 40
0.0
 10
2155.882422267787
 20
-925.8875019600817
 30
0.0
 10
2178.692574198434
 20
-1016.84468477123
 30
0.0
 10
2201.490185889295
 20
-1107.805013630463
 30
0.0
 10
2224.275255898647
 20
-1198.768482785443
 30
0.0
  0
SPLINE
  5
7F
330
1F
100
AcDbEntity
  8
2D
100
AcDbSpline
210
0.0
220
0.0
230
1.0
 70
     8
 71
     3
 72
    12
 73
     8
 74
     0
 42
0.0000000001
 43
0.0000000001
 40
-53.44456392199515
 40
-53.44456392199515
 40
-53.44456392199515
 40
-53.44456392199515
 40
-46.58212145159367
 40
-39.78805087982755
 40
-26.54724326036865
 40
-12.93246673734252
 40
0.0
 40
0.0
 40
0.0
 40
0.0
 10
2224.275255898647
 20
-1198.768482785443
 30
0.0
 10
2224.829478302796
 20
-1200.987722214162
 30
0.0
 10
2226.295539495764
 20
-1205.313623116122
 30
0.0
 10
2230.517391629233
 20
-1213.255658991613
 30
0.0
 10
2238.100378863684
 20
-1221.720678479232
 30
0.0
 10
2249.872900559265
 20
-1228.24700134377
 30
0.0
 10
2258.721367792285
 20
-1229.7385800712
 30
0.0
 10
2263.031880317285
 20
-1229.736846229323
 30
0.0
  0
SPLINE
  5
80
330
1F
100
AcDbEntity
  8
2D
100
AcDbSpline
210
0.0
220
0.0
230
1.0
 70
     8
 71
     3
 72
     8
 73
     4
 74
     0
 42
0.0000000001
 43
0.0000000001
 40
-212.9399471224021
 40
-212.9399471224021
 40
-212.9399471224021
 40
-212.9399471224021
 40
0.0
 40
0.0
 40
0.0
 40
0.0
 10
2263.031880317285
 20
-1229.736846229323
 30
0.0
 10
2334.011859333183
 20
-1229.758898915613
 30
0.0
 10
2404.991841967625
 20
-1229.771230153535
 30
0.0
 10
2475.971824293782
 20
-1229.773839942365
 30
0.0
  0
LINE
  5
81
330
1F
100
AcDbEntity
  8
2D
100
AcDbLine
 10
2475.971824158711
 20
-1229.773839942482
 30
0.0
 11
2688.910308638842
 21
-1229.758874649531
 31
0.0
  0
SPLINE
  5
82
330
1F
100
AcDbEntity
  8
2D
100
AcDbSpline
210
0.0
220
0.0
230
1.0
 70
     8
 71
     3
 72
    12
 73
     8
 74
     0
 42
0.0000000001
 43
0.0000000001
 40
-53.44388079559532
 40
-53.44388079559532
 40
-53.44388079559532
 40
-53.44388079559532
 40
-46.96293067045018
 40
-40.50956396516997
 40
-26.89574594603781
 40
-13.65392953143599
 40
0.0
 40
0.0
 40
0.0
 40
0.0
 10
2688.910308638842
 20
-1229.758874649531
 30
0.0
 10
2691.070882784581
 20
-1229.737422548161
 30
0.0
 10
2695.380948934166
 20
-1229.3729468708
 30
0.0
 10
2703.987911533397
 20
-1227.183374228472
 30
0.0
 10
2713.842647087469
 20
-1221.718872576723
 30
0.0
 10
2722.971165357063
 20
-1211.528405407422
 30
0.0
 10
2726.563140261736
 20
-1203.184248662292
 30
0.0
 10
2727.666627076076
 20
-1198.76904551974
 30
0.0
  0
SPLINE
  5
83
330
1F
100
AcDbEntity
  8
2D
100
AcDbSpline
210
0.0
220
0.0
230
1.0
 70
     8
 71
     3
 72
     8
 73
     4
 74
     0
 42
0.0000000001
 43
0.0000000001
 40
-281.3072617646365
 40
-281.3072617646365
 40
-281.3072617646365
 40
-281.3072617646365
 40
0.0
 40
0.0
 40
0.0
 40
0.0
 10
2727.666627076076
 20
-1198.76904551974
 30
0.0
 10
2750.45180403829
 20
-1107.810387683261
 30
0.0
 10
2773.249795155698
 20
-1016.854938524674
 30
0.0
 10
2796.060598923112
 20
-925.9027040491122
 30
0.0
  0
SPLINE
  5
84
330
1F
100
AcDbEntity
  8
2D
100
AcDbSpline
210
0.0
220
0.0
230
1.0
 70
    12
 71
     3
 72
    33
 73
    29
 74
     0
 42
0.0000000001
 43
0.0000000001
 40
-750.2204953854996
 40
-750.2204953854996
 40
-750.2204953854996
 40
-750.2204953854996
 40
-747.3283180964238
 40
-744.4311734323012
 40
-741.5303316972027
 40
-738.6270745221116
 40
-735.7226912165843
 40
-732.8184750627203
 40
-729.9157195788977
 40
-727.0157147810654
 40
-724.1197434694257
 40
-724.1197434694257
 40
-724.1197434694257
 40
-635.3638949040584
 40
-635.3638949040584
 40
-635.3638949040584
 40
-631.3191716904677
 40
-627.0527020544449
 40
-622.6124107264482
 40
-618.0608863926142
 40
-613.4710403684137
 40
-608.9195147154608
 40
-604.4792210006233
 40
-600.2127483275248
 40
-596.1680218845559
 40
-596.1680218845559
 40
-596.1680218845559
 40
0.0
 40
0.0
 40
0.0
 40
0.0
 10
2796.060598923112
 20
-925.9027040491122
 30
0.0
 41
1.0
 10
2796.294367555027
 20
-924.9703718499111
 30
0.0
 41
1.0
 10
2796.736817377037
 20
-923.0976580008426
 30
0.0
 41
1.0
 10
2797.323888410261
 20
-920.2697000325932
 30
0.0
 41
1.0
 10
2797.834096190454
 20
-917.4232190323198
 30
0.0
 41
1.0
 10
2798.266662589587
 20
-914.5615800744706
 30
0.0
 41
1.0
 10
2798.621000930842
 20
-911.6881554036916
 30
0.0
 41
1.0
 10
2798.896707535241
 20
-908.8063582493121
 30
0.0
 41
1.0
 10
2799.093566133903
 20
-905.9196055359314
 30
0.0
 41
1.0
 10
2799.211547425097
 20
-903.0313523307702
 30
0.0
 41
1.0
 10
2799.237743559548
 20
-901.1054357078426
 30
0.0
 41
1.0
 10
2799.237743559548
 20
-900.143198495083
 30
0.0
 41
1.0
 10
2799.237743559548
 20
-870.6525125905607
 30
0.0
 41
1.0
 10
2799.237743559548
 20
-841.1618266860312
 30
0.0
 41
1.0
 10
2799.237743559548
 20
-811.6711407815126
 30
0.0
 41
1.0
 10
2799.237743559548
 20
-810.327210620402
 30
0.0
 41
1.0
 10
2799.012416572667
 20
-807.5605930321433
 30
0.0
 41
1.0
 10
2797.965259282784
 20
-803.4336196289112
 30
0.0
 41
1.0
 10
2796.144417481817
 20
-799.3932531055104
 30
0.0
 41
1.0
 10
2793.564104395329
 20
-795.6536857847202
 30
0.0
 41
1.0
 10
2790.316374896662
 20
-792.4183175845426
 30
0.0
 41
1.0
 10
2786.562520022017
 20
-789.8478256039523
 30
0.0
 41
1.0
 10
2782.506716804382
 20
-788.0339142752125
 30
0.0
 41
1.0
 10
2778.363975863962
 20
-786.990742674963
 30
0.0
 41
1.0
 10
2775.586788167886
 20
-786.7662733294308
 30
0.0
 41
1.0
 10
2774.237723334769
 20
-786.7662733294417
 30
0.0
 41
1.0
 10
2575.393790550726
 20
-786.7662733294417
 30
0.0
 41
1.0
 10
2376.549857766688
 20
-786.7662733294417
 30
0.0
 41
1.0
 10
2177.705924982642
 20
-786.7662733294418
 30
0.0
 41
1.0
  0
SPLINE
  5
85
330
1F
100
AcDbEntity
  8
2D
100
AcDbSpline
210
0.0
220
0.0
230
1.0
 70
    12
 71
     3
 72
    30
 73
    26
 74
     0
 42
0.0000000001
 43
0.0000000001
 40
-153.6700009209311
 40
-153.6700009209311
 40
-153.6700009209311
 40
-153.6700009209311
 40
-149.6349152548799
 40
-145.3786119002362
 40
-140.9489018136738
 40
-136.408224915037
 40
-131.8293189833821
 40
-127.2886434007188
 40
-122.8589356953069
 40
-118.6026353705022
 40
-114.5675529261308
 40
-114.5675529261308
 40
-114.5675529261308
 40
-26.03503402167141
 40
-26.03503402167141
 40
-26.03503402167141
 40
-23.14634376537306
 40
-20.25363376414628
 40
-17.35818320751043
 40
-14.4612784651283
 40
-11.56420938522044
 40
-8.668265567839695
 40
-5.774732640665379
 40
-2.884888565112087
 40
0.0
 40
0.0
 40
0.0
 40
0.0
 10
2177.705924982642
 20
-786.7662733294418
 30
0.0
 41
1.0
 10
2176.356860149521
 20
-786.7662733294308
 30
0.0
 41
1.0
 10
2173.579672453452
 20
-786.990742674963
 30
0.0
 41
1.0
 10
2169.436931513032
 20
-788.0339142752125
 30
0.0
 41
1.0
 10
2165.381128295398
 20
-789.8478256039523
 30
0.0
 41
1.0
 10
2161.627273420745
 20
-792.4183175845426
 30
0.0
 41
1.0
 10
2158.379543922085
 20
-795.6536857847202
 30
0.0
 41
1.0
 10
2155.799230835597
 20
-799.3932531055104
 30
0.0
 41
1.0
 10
2153.978389034623
 20
-803.4336196289003
 30
0.0
 41
1.0
 10
2152.931231744747
 20
-807.5605930321506
 30
0.0
 41
1.0
 10
2152.705904757866
 20
-810.327210620391
 30
0.0
 41
1.0
 10
2152.705904757866
 20
-811.6711407815126
 30
0.0
 41
1.0
 10
2152.705904757866
 20
-841.157904443942
 30
0.0
 41
1.0
 10
2152.705904757866
 20
-870.6446681063605
 30
0.0
 41
1.0
 10
2152.705904757866
 20
-900.1314317687827
 30
0.0
 41
1.0
 10
2152.705904757866
 20
-901.0935429561212
 30
0.0
 41
1.0
 10
2152.732095915366
 20
-903.019206128283
 30
0.0
 41
1.0
 10
2152.850054669027
 20
-905.9070778297425
 30
0.0
 41
1.0
 10
2153.046875320357
 20
-908.7934465488031
 30
0.0
 41
1.0
 10
2153.322528334211
 20
-911.6748583612532
 30
0.0
 41
1.0
 10
2153.676797283348
 20
-914.547897503722
 30
0.0
 41
1.0
 10
2154.109278408519
 20
-917.4091519308929
 30
0.0
 41
1.0
 10
2154.61938503159
 20
-920.2552505908423
 30
0.0
 41
1.0
 10
2155.20633910731
 20
-923.082829615563
 30
0.0
 41
1.0
 10
2155.648700464735
 20
-924.9552937429723
 30
0.0
 41
1.0
 10
2155.882422267787
 20
-925.8875019600817
 30
0.0
 41
1.0
  0
SPLINE
  5
86
330
1F
100
AcDbEntity
  8
2D
100
AcDbSpline
210
0.0
220
0.0
230
1.0
 70
     8
 71
     3
 72
     8
 73
     4
 74
     0
 42
0.0000000001
 43
0.0000000001
 40
-5.939721802971921
 40
-5.939721802971921
 40
-5.939721802971921
 40
-5.939721802971921
 40
0.0
 40
0.0
 40
0.0
 40
0.0
 10
2152.916716129701
 20
628.2989320389413
 30
0.0
 10
2152.220748879194
 20
626.4453780540937
 30
0.0
 10
2151.464364534186
 20
624.6134025324999
 30
0.0
 10
2150.649940741932
 20
622.8087566654947
 30
0.0
  0
SPLINE
  5
87
330
1F
100
AcDbEntity
  8
2D
100
AcDbSpline
210
0.0
220
0.0
230
1.0
 70
     8
 71
     3
 72
     8
 73
     4
 74
     0
 42
0.0000000001
 43
0.0000000001
 40
-0.1501552434059425
 40
-0.1501552434059425
 40
-0.1501552434059425
 40
-0.1501552434059425
 40
0.0
 40
0.0
 40
0.0
 40
0.0
 10
2150.649940741932
 20
622.8087566654947
 30
0.0
 10
2150.629232684711
 20
622.7631896398046
 30
0.0
 10
2150.608475731464
 20
622.7176448100557
 30
0.0
 10
2150.587669856373
 20
622.6721223547886
 30
0.0
  0
SPLINE
  5
88
330
1F
100
AcDbEntity
  8
2D
100
AcDbSpline
210
0.0
220
0.0
230
1.0
 70
     8
 71
     3
 72
     8
 73
     4
 74
     0
 42
0.0000000001
 43
0.0000000001
 40
-0.8252789005225283
 40
-0.8252789005225283
 40
-0.8252789005225283
 40
-0.8252789005225283
 40
0.0
 40
0.0
 40
0.0
 40
0.0
 10
2150.587669856373
 20
622.6721223547886
 30
0.0
 10
2150.473328986889
 20
622.4219178165273
 30
0.0
 10
2150.357506156211
 20
622.1723852000074
 30
0.0
 10
2150.24021347802
 20
621.9235507810306
 30
0.0
  0
SPLINE
  5
89
330
1F
100
AcDbEntity
  8
2D
100
AcDbSpline
210
0.0
220
0.0
230
1.0
 70
     8
 71
     3
 72
     8
 73
     4
 74
     0
 42
0.0000000001
 43
0.0000000001
 40
-0.1440171822036088
 40
-0.1440171822036088
 40
-0.1440171822036088
 40
-0.1440171822036088
 40
0.0
 40
0.0
 40
0.0
 40
0.0
 10
2150.24021347802
 20
621.9235507810306
 30
0.0
 10
2150.219745792347
 20
621.8801270120492
 30
0.0
 10
2150.199229876311
 20
621.8367259505944
 30
0.0
 10
2150.178665715324
 20
621.7933477739905
 30
0.0
  0
SPLINE
  5
8A
330
1F
100
AcDbEntity
  8
2D
100
AcDbSpline
210
0.0
220
0.0
230
1.0
 70
     8
 71
     3
 72
     8
 73
     4
 74
     0
 42
0.0000000001
 43
0.0000000001
 40
-2.260536727634367
 40
-2.260536727634367
 40
-2.260536727634367
 40
-2.260536727634367
 40
0.0
 40
0.0
 40
0.0
 40
0.0
 10
2150.178665715324
 20
621.7933477739905
 30
0.0
 10
2149.856219677862
 20
621.1123123364594
 30
0.0
 10
2149.521129924513
 20
620.4370641076691
 30
0.0
 10
2149.173788847482
 20
619.7683826590135
 30
0.0
  0
SPLINE
  5
8B
330
1F
100
AcDbEntity
  8
2D
100
AcDbSpline
210
0.0
220
0.0
230
1.0
 70
     8
 71
     3
 72
     8
 73
     4
 74
     0
 42
0.0000000001
 43
0.0000000001
 40
-0.1273043555055941
 40
-0.1273043555055941
 40
-0.1273043555055941
 40
-0.1273043555055941
 40
0.0
 40
0.0
 40
0.0
 40
0.0
 10
2149.173788847482
 20
619.7683826590135
 30
0.0
 10
2149.154216068939
 20
619.7307313993134
 30
0.0
 10
2149.134597621134
 20
619.6931038661958
 30
0.0
 10
2149.114933571636
 20
619.655500134834
 30
0.0
  0
SPLINE
  5
8C
330
1F
100
AcDbEntity
  8
2D
100
AcDbSpline
210
0.0
220
0.0
230
1.0
 70
     8
 71
     3
 72
     8
 73
     4
 74
     0
 42
0.0000000001
 43
0.0000000001
 40
-0.8261685768823149
 40
-0.8261685768823149
 40
-0.8261685768823149
 40
-0.8261685768823149
 40
0.0
 40
0.0
 40
0.0
 40
0.0
 10
2149.114933571636
 20
619.655500134834
 30
0.0
 10
2148.98724068826
 20
619.4115043370695
 30
0.0
 10
2148.857771259434
 20
619.1684300047084
 30
0.0
 10
2148.726545253488
 20
618.9263161328752
 30
0.0
  0
SPLINE
  5
8D
330
1F
100
AcDbEntity
  8
2D
100
AcDbSpline
210
0.0
220
0.0
230
1.0
 70
     8
 71
     3
 72
     8
 73
     4
 74
     0
 42
0.0000000001
 43
0.0000000001
 40
-0.1171575481512918
 40
-0.1171575481512918
 40
-0.1171575481512918
 40
-0.1171575481512918
 40
0.0
 40
0.0
 40
0.0
 40
0.0
 10
2148.726545253488
 20
618.9263161328752
 30
0.0
 10
2148.707929986605
 20
618.8919858129067
 30
0.0
 10
2148.689273800708
 20
618.8576776680721
 30
0.0
 10
2148.670576787408
 20
618.8233917414898
 30
0.0
  0
SPLINE
  5
8E
330
1F
100
AcDbEntity
  8
2D
100
AcDbSpline
210
0.0
220
0.0
230
1.0
 70
     8
 71
     3
 72
     8
 73
     4
 74
     0
 42
0.0000000001
 43
0.0000000001
 40
-2.24791830219614
 40
-2.24791830219614
 40
-2.24791830219614
 40
-2.24791830219614
 40
0.0
 40
0.0
 40
0.0
 40
0.0
 10
2148.670576787408
 20
618.8233917414898
 30
0.0
 10
2148.312136300679
 20
618.1653794888963
 30
0.0
 10
2147.938365059974
 20
617.5154012967348
 30
0.0
 10
2147.549934595721
 20
616.8746350298159
 30
0.0
  0
SPLINE
  5
8F
330
1F
100
AcDbEntity
  8
2D
100
AcDbSpline
210
0.0
220
0.0
230
1.0
 70
     8
 71
     3
 72
     8
 73
     4
 74
     0
 42
0.0000000001
 43
0.0000000001
 40
-1.029466438896468
 40
-1.029466438896468
 40
-1.029466438896468
 40
-1.029466438896468
 40
0.0
 40
0.0
 40
0.0
 40
0.0
 10
2147.549934595721
 20
616.8746350298159
 30
0.0
 10
2147.371900937957
 20
616.5812756938537
 30
0.0
 10
2147.190399414601
 20
616.2899931545614
 30
0.0
 10
2147.005505502708
 20
616.0009085029599
 30
0.0
  0
SPLINE
  5
90
330
1F
100
AcDbEntity
  8
2D
100
AcDbSpline
210
0.0
220
0.0
230
1.0
 70
     8
 71
     3
 72
     8
 73
     4
 74
     0
 42
0.0000000001
 43
0.0000000001
 40
-0.8504382601715456
 40
-0.8504382601715456
 40
-0.8504382601715456
 40
-0.8504382601715456
 40
0.0
 40
0.0
 40
0.0
 40
0.0
 10
2147.005505502708
 20
616.0009085029599
 30
0.0
 10
2146.852754142186
 20
615.7621039535912
 30
0.0
 10
2146.697533187864
 20
615.5248607629908
 30
0.0
 10
2146.539892418481
 20
615.2892552251949
 30
0.0
  0
SPLINE
  5
91
330
1F
100
AcDbEntity
  8
2D
100
AcDbSpline
210
0.0
220
0.0
230
1.0
 70
     8
 71
     3
 72
     8
 73
     4
 74
     0
 42
0.0000000001
 43
0.0000000001
 40
-0.0838420023610985
 40
-0.0838420023610985
 40
-0.0838420023610985
 40
-0.0838420023610985
 40
0.0
 40
0.0
 40
0.0
 40
0.0
 10
2146.539892418481
 20
615.2892552251949
 30
0.0
 10
2146.524350978689
 20
615.2660277170352
 30
0.0
 10
2146.508784483864
 20
615.2428169586142
 30
0.0
 10
2146.493192932394
 20
615.2196230374436
 30
0.0
  0
SPLINE
  5
92
330
1F
100
AcDbEntity
  8
2D
100
AcDbSpline
210
0.0
220
0.0
230
1.0
 70
     8
 71
     3
 72
     8
 73
     4
 74
     0
 42
0.0000000001
 43
0.0000000001
 40
-0.8555330369724292
 40
-0.8555330369724292
 40
-0.8555330369724292
 40
-0.8555330369724292
 40
0.0
 40
0.0
 40
0.0
 40
0.0
 10
2146.493192932394
 20
615.2196230374436
 30
0.0
 10
2146.334111621552
 20
614.9829387434243
 30
0.0
 10
2146.172424209963
 20
614.7479845362027
 30
0.0
 10
2146.008189760942
 20
614.5148464776091
 30
0.0
  0
SPLINE
  5
93
330
1F
100
AcDbEntity
  8
2D
100
AcDbSpline
210
0.0
220
0.0
230
1.0
 70
     8
 71
     3
 72
     8
 73
     4
 74
     0
 42
0.0000000001
 43
0.0000000001
 40
-0.0785113573797922
 40
-0.0785113573797922
 40
-0.0785113573797922
 40
-0.0785113573797922
 40
0.0
 40
0.0
 40
0.0
 40
0.0
 10
2146.008189760942
 20
614.5148464776091
 30
0.0
 10
2145.993117966103
 20
614.4934517683608
 30
0.0
 10
2145.978023324285
 20
614.4720731406063
 30
0.0
 10
2145.962905839937
 20
614.4507106690442
 30
0.0
  0
SPLINE
  5
94
330
1F
100
AcDbEntity
  8
2D
100
AcDbSpline
210
0.0
220
0.0
230
1.0
 70
     8
 71
     3
 72
     8
 73
     4
 74
     0
 42
0.0000000001
 43
0.0000000001
 40
-0.8615680167647188
 40
-0.8615680167647188
 40
-0.8615680167647188
 40
-0.8615680167647188
 40
0.0
 40
0.0
 40
0.0
 40
0.0
 10
2145.962905839937
 20
614.4507106690442
 30
0.0
 10
2145.797026570719
 20
614.2162713490548
 30
0.0
 10
2145.628401181286
 20
613.9837496645097
 30
0.0
 10
2145.457099766423
 20
613.7532425243446
 30
0.0
  0
SPLINE
  5
95
330
1F
100
AcDbEntity
  8
2D
100
AcDbSpline
210
0.0
220
0.0
230
1.0
 70
     8
 71
     3
 72
     8
 73
     4
 74
     0
 42
0.0000000001
 43
0.0000000001
 40
-0.0731331433116167
 40
-0.0731331433116167
 40
-0.0731331433116167
 40
-0.0731331433116167
 40
0.0
 40
0.0
 40
0.0
 40
0.0
 10
2145.457099766423
 20
613.7532425243446
 30
0.0
 10
2145.44255884099
 20
613.7336763686195
 30
0.0
 10
2145.427997383606
 20
613.7141254594261
 30
0.0
 10
2145.413415403691
 20
613.6945898582005
 30
0.0
  0
SPLINE
  5
96
330
1F
100
AcDbEntity
  8
2D
100
AcDbSpline
210
0.0
220
0.0
230
1.0
 70
     8
 71
     3
 72
     8
 73
     4
 74
     0
 42
0.0000000001
 43
0.0000000001
 40
-0.8685883903607265
 40
-0.8685883903607265
 40
-0.8685883903607265
 40
-0.8685883903607265
 40
0.0
 40
0.0
 40
0.0
 40
0.0
 10
2145.413415403691
 20
613.6945898582005
 30
0.0
 10
2145.240245348472
 20
613.462556557224
 30
0.0
 10
2145.064186598298
 20
613.2326490858534
 30
0.0
 10
2144.885322330781
 20
613.0049763294089
 30
0.0
  0
SPLINE
  5
97
330
1F
100
AcDbEntity
  8
2D
100
AcDbSpline
210
0.0
220
0.0
230
1.0
 70
    12
 71
     2
 72
     6
 73
     3
 74
     0
 42
0.0000000001
 43
0.0000000001
 40
-2.844443702008752
 40
-2.844443702008752
 40
-2.844443702008752
 40
0.0
 40
0.0
 40
0.0
 10
2144.885322330781
 20
613.0049763294089
 30
0.0
 41
1.0
 10
2144.007012983905
 20
611.8848290360864
 30
0.0
 41
0.9990032041083027
 10
2143.032298072773
 20
610.8474823702807
 30
0.0
 41
0.999999999999243
  0
SPLINE
  5
98
330
1F
100
AcDbEntity
  8
2D
100
AcDbSpline
210
0.0
220
0.0
230
1.0
 70
     8
 71
     3
 72
     8
 73
     4
 74
     0
 42
0.0000000001
 43
0.0000000001
 40
-0.0512505010656041
 40
-0.0512505010656041
 40
-0.0512505010656041
 40
-0.0512505010656041
 40
0.0
 40
0.0
 40
0.0
 40
0.0
 10
2143.032298072772
 20
610.8474823702807
 30
0.0
 10
2143.020587328476
 20
610.8350443537616
 30
0.0
 10
2143.008866225457
 20
610.8226160794895
 30
0.0
 10
2142.997134786801
 20
610.8101975798152
 30
0.0
  0
SPLINE
  5
99
330
1F
100
AcDbEntity
  8
2D
100
AcDbSpline
210
0.0
220
0.0
230
1.0
 70
     8
 71
     3
 72
     8
 73
     4
 74
     0
 42
0.0000000001
 43
0.0000000001
 40
-0.42711939198306
 40
-0.42711939198306
 40
-0.42711939198306
 40
-0.42711939198306
 40
0.0
 40
0.0
 40
0.0
 40
0.0
 10
2142.997134786801
 20
610.8101975798152
 30
0.0
 10
2142.89937440852
 20
610.7066938835798
 30
0.0
 10
2142.800845809652
 20
610.6039087451372
 30
0.0
 10
2142.701504331537
 20
610.5019000641139
 30
0.0
  0
SPLINE
  5
9A
330
1F
100
AcDbEntity
  8
2D
100
AcDbSpline
210
0.0
220
0.0
230
1.0
 70
    12
 71
     3
 72
    39
 73
    35
 74
     0
 42
0.0000000001
 43
0.0000000001
 40
0.0
 40
0.0
 40
0.0
 40
0.0
 40
0.3718871541871062
 40
1.484505835598433
 40
2.50963943250244
 40
2.50963943250244
 40
2.50963943250244
 40
105.7037713316948
 40
105.7037713316948
 40
105.7037713316948
 40
108.5707892692887
 40
108.5707892692887
 40
108.5707892692887
 40
281.8130455123176
 40
281.8130455123176
 40
281.8130455123176
 40
287.5470813875105
 40
287.5470813875105
 40
287.5470813875105
 40
387.3069638929773
 40
387.3069638929773
 40
387.3069638929773
 40
389.063170239522
 40
390.8794307272062
 40
392.7438036136572
 40
394.641831922328
 40
396.5569466238097
 40
398.4711668590422
 40
400.3660568311726
 40
402.2238192438512
 40
404.0283522347382
 40
404.0283522347382
 40
404.0283522347382
 40
566.7252206391273
 40
566.7252206391273
 40
566.7252206391273
 40
566.7252206391273
 10
2142.701504331537
 20
610.5019000641139
 30
0.0
 41
1.0
 10
2142.674958660664
 20
610.4746202648116
 30
0.0
 41
1.0
 10
2142.576374547061
 20
610.3965063497585
 30
0.0
 41
1.0
 10
2142.459960037395
 20
610.4767618179089
 30
0.0
 41
1.0
 10
2142.427342855404
 20
610.8060022014602
 30
0.0
 41
1.0
 10
2142.427342855397
 20
611.0203038661407
 30
0.0
 41
1.0
 10
2142.427342860243
 20
632.592784112569
 30
0.0
 41
1.0
 10
2142.427342865092
 20
654.165264359001
 30
0.0
 41
1.0
 10
2142.427342869938
 20
675.7377446054293
 30
0.0
 41
1.0
 10
2142.427342871259
 20
676.3370877273687
 30
0.0
 41
1.0
 10
2142.427342872576
 20
676.9364308493191
 30
0.0
 41
1.0
 10
2142.427342873896
 20
677.5357739712585
 30
0.0
 41
1.0
 10
2142.427342901585
 20
713.7516429283592
 30
0.0
 41
1.0
 10
2142.427342929281
 20
749.9675118854489
 30
0.0
 41
1.0
 10
2142.427342956973
 20
786.1833808425495
 30
0.0
 41
1.0
 10
2142.427337847956
 20
787.3820670768096
 30
0.0
 41
1.0
 10
2142.427332738935
 20
788.5807533110697
 30
0.0
 41
1.0
 10
2142.427327629914
 20
789.7794395453298
 30
0.0
 41
1.0
 10
2142.427327596059
 20
810.6339982361992
 30
0.0
 41
1.0
 10
2142.4273275622
 20
831.4885569270614
 30
0.0
 41
1.0
 10
2142.427327528345
 20
852.3431156179308
 30
0.0
 41
1.0
 10
2142.427327528345
 20
852.7102462482385
 30
0.0
 41
1.0
 10
2142.464552192287
 20
853.5936424652996
 30
0.0
 41
1.0
 10
2142.635232951143
 20
855.3319132236888
 30
0.0
 41
1.0
 10
2142.926914482363
 20
857.4961968459597
 30
0.0
 41
1.0
 10
2143.338041509123
 20
860.0470549119696
 30
0.0
 41
1.0
 10
2143.85990711052
 20
862.9202858459089
 30
0.0
 41
1.0
 10
2144.477159624141
 20
866.0315484229309
 30
0.0
 41
1.0
 10
2145.16936526935
 20
869.284902543101
 30
0.0
 41
1.0
 10
2145.912880848704
 20
872.5811168201094
 30
0.0
 41
1.0
 10
2146.435992395927
 20
874.7850036208897
 30
0.0
 41
1.0
 10
2146.699264436345
 20
875.8682545322104
 30
0.0
 41
1.0
 10
2170.435979895188
 20
973.5342409635178
 30
0.0
 41
1.0
 10
2194.172695354031
 20
1071.200227394825
 30
0.0
 41
1.0
 10
2217.909410812586
 20
1168.86621382619
 30
0.0
 41
1.0
  0
SPLINE
  5
9B
330
1F
100
AcDbEntity
  8
2D
100
AcDbSpline
210
0.0
220
0.0
230
1.0
 70
     8
 71
     3
 72
     8
 73
     4
 74
     0
 42
0.0000000001
 43
0.0000000001
 40
-31.36680624864818
 40
-31.36680624864818
 40
-31.36680624864818
 40
-31.36680624864818
 40
0.0
 40
0.0
 40
0.0
 40
0.0
 10
2217.909410812586
 20
1168.86621382619
 30
0.0
 10
2220.378528040332
 20
1179.026089565119
 30
0.0
 10
2222.847665164034
 20
1189.185960469262
 30
0.0
 10
2225.316822183333
 20
1199.345826537715
 30
0.0
  0
SPLINE
  5
9C
330
1F
100
AcDbEntity
  8
2D
100
AcDbSpline
210
0.0
220
0.0
230
1.0
 70
    12
 71
     3
 72
    91
 73
    87
 74
     0
 42
0.0000000001
 43
0.0000000001
 40
0.0
 40
0.0
 40
0.0
 40
0.0
 40
2.242613583269673
 40
4.485230646469845
 40
6.727847709669317
 40
8.970464772869489
 40
11.21308183606896
 40
13.17131946839971
 40
15.12955710073116
 40
17.08779473306191
 40
19.04603236539266
 40
21.00426999772341
 40
22.96250763005486
 40
24.92074526238631
 40
26.87898289471635
 40
28.83722052704781
 40
30.79545815937856
 40
32.7536957917093
 40
34.71193342404076
 40
36.6701710563715
 40
38.62840868870225
 40
40.586646321033
 40
42.54488395336445
 40
44.5031215856952
 40
44.5031215856952
 40
44.5031215856952
 40
351.9473233802839
 40
351.9473233802839
 40
351.9473233802839
 40
353.9055610126146
 40
355.863798644946
 40
357.8220362772768
 40
359.7802739096076
 40
361.7385115419384
 40
363.6967491742698
 40
365.6549868066005
 40
367.6132244389312
 40
369.5714620712627
 40
371.5296997035935
 40
373.4879373359242
 40
375.4461749682557
 40
377.4044126005865
 40
379.3626502329172
 40
381.3208878652479
 40
383.2791254975787
 40
385.2373631299101
 40
387.4799801931096
 40
389.7225972563097
 40
391.9652143195092
 40
394.2078313827093
 40
396.4504484459089
 40
398.693065509109
 40
400.9356825723085
 40
403.178299635508
 40
405.4209166987081
 40
407.6635337619083
 40
409.9061508251078
 40
412.1487678883079
 40
414.3913849515075
 40
416.6340020147076
 40
416.6340020147076
 40
416.6340020147076
 40
649.3169845307548
 40
649.3169845307548
 40
649.3169845307548
 40
651.8977602789431
 40
654.5546627599439
 40
657.2646636910746
 40
660.002310043194
 40
662.7412356275653
 40
665.4557248905105
 40
668.1220814244339
 40
670.7196294009348
 40
673.2312901856737
 40
673.2312901856737
 40
673.2312901856737
 40
815.9041516475685
 40
815.9041516475685
 40
815.9041516475685
 40
824.1047557931694
 40
824.1047557931694
 40
824.1047557931694
 40
1071.869366277392
 40
1071.869366277392
 40
1071.869366277392
 40
1075.969669174048
 40
1075.969669174048
 40
1075.969669174048
 40
1075.969669174048
 10
2225.316822183333
 20
1199.345826537715
 30
0.0
 41
1.0
 10
2225.587326278437
 20
1200.476858523112
 30
0.0
 41
1.0
 10
2226.115346850689
 20
1202.747805622541
 30
0.0
 41
1.0
 10
2227.0854581856
 20
1206.089368332911
 30
0.0
 41
1.0
 10
2228.3023456023
 20
1209.361323199521
 30
0.0
 41
1.0
 10
2229.746497732303
 20
1212.546407874101
 30
0.0
 41
1.0
 10
2231.301637614153
 20
1215.43755319984
 30
0.0
 41
1.0
 10
2233.110609169467
 20
1218.31904089777
 30
0.0
 41
1.0
 10
2234.974359920852
 20
1220.895855572292
 30
0.0
 41
1.0
 10
2237.002633214266
 20
1223.35747738361
 30
0.0
 41
1.0
 10
2239.180175766764
 20
1225.68102309398
 30
0.0
 41
1.0
 10
2241.516636610682
 20
1227.874560055671
 30
0.0
 41
1.0
 10
2243.968522987721
 20
1229.898825162071
 30
0.0
 41
1.0
 10
2246.571019869538
 20
1231.78119923753
 30
0.0
 41
1.0
 10
2249.255873477756
 20
1233.47317847696
 30
0.0
 41
1.0
 10
2252.067922666247
 20
1235.004935748012
 30
0.0
 41
1.0
 10
2254.958589405665
 20
1236.347234552299
 30
0.0
 41
1.0
 10
2257.935393955508
 20
1237.505557666459
 30
0.0
 41
1.0
 10
2260.97814840193
 20
1238.470636955501
 30
0.0
 41
1.0
 10
2264.071544798502
 20
1239.239069507849
 30
0.0
 41
1.0
 10
2267.216296306218
 20
1239.80996176171
 30
0.0
 41
1.0
 10
2270.380488813233
 20
1240.178539436178
 30
0.0
 41
1.0
 10
2273.580899052478
 20
1240.3442864587
 30
0.0
 41
1.0
 10
2275.704618709224
 20
1240.320797414441
 30
0.0
 41
1.0
 10
2276.767722751545
 20
1240.320795581358
 30
0.0
 41
1.0
 10
2409.569781825758
 20
1240.320795581351
 30
0.0
 41
1.0
 10
2542.374248026128
 20
1240.320795581369
 30
0.0
 41
1.0
 10
2675.175908807571
 20
1240.320795581358
 30
0.0
 41
1.0
 10
2676.239009234749
 20
1240.32079646073
 30
0.0
 41
1.0
 10
2678.362721766629
 20
1240.34428362538
 30
0.0
 41
1.0
 10
2681.563120438434
 20
1240.17853355126
 30
0.0
 41
1.0
 10
2684.727300663799
 20
1239.809952636779
 30
0.0
 41
1.0
 10
2687.872039120764
 20
1239.23905694
 30
0.0
 41
1.0
 10
2690.965421825713
 20
1238.47062077567
 30
0.0
 41
1.0
 10
2694.008161940888
 20
1237.505537705909
 30
0.0
 41
1.0
 10
2696.984951585975
 20
1236.347210659739
 30
0.0
 41
1.0
 10
2699.875602954053
 20
1235.004907800331
 30
0.0
 41
1.0
 10
2702.687636256393
 20
1233.47314633836
 30
0.0
 41
1.0
 10
2705.372473749536
 20
1231.781162847629
 30
0.0
 41
1.0
 10
2707.974954010337
 20
1229.89878438739
 30
0.0
 41
1.0
 10
2710.426823692738
 20
1227.87451487678
 30
0.0
 41
1.0
 10
2712.763267535731
 20
1225.680973430079
 30
0.0
 41
1.0
 10
2714.940793090987
 20
1223.357423235668
 30
0.0
 41
1.0
 10
2716.969049324725
 20
1220.89579692385
 30
0.0
 41
1.0
 10
2718.832783100355
 20
1218.318977770958
 30
0.0
 41
1.0
 10
2720.641736608399
 20
1215.43748531199
 30
0.0
 41
1.0
 10
2722.196859266289
 20
1212.546335442409
 30
0.0
 41
1.0
 10
2723.640993336267
 20
1209.361246003419
 30
0.0
 41
1.0
 10
2724.857863107136
 20
1206.089286481669
 30
0.0
 41
1.0
 10
2725.827957849804
 20
1202.747717533328
 30
0.0
 41
1.0
 10
2726.619972428314
 20
1199.34128977049
 30
0.0
 41
1.0
 10
2727.450951523941
 20
1195.961506326219
 30
0.0
 41
1.0
 10
2728.272199218576
 20
1192.571652165391
 30
0.0
 41
1.0
 10
2729.095674193362
 20
1189.186047309499
 30
0.0
 41
1.0
 10
2729.919878124827
 20
1185.79383520792
 30
0.0
 41
1.0
 10
2730.739606045296
 20
1182.42099320908
 30
0.0
 41
1.0
 10
2731.565294275781
 20
1179.023357784291
 30
0.0
 41
1.0
 10
2732.387599891306
 20
1175.639698949248
 30
0.0
 41
1.0
 10
2733.211858937575
 20
1172.247973075292
 30
0.0
 41
1.0
 10
2733.759625507584
 20
1169.99397605891
 30
0.0
 41
1.0
 10
2734.033725606452
 20
1168.86608320361
 30
0.0
 41
1.0
 10
2757.770606111895
 20
1071.200140313138
 30
0.0
 41
1.0
 10
2781.507486617335
 20
973.5341974226708
 30
0.0
 41
1.0
 10
2805.244367122774
 20
875.8682545322104
 30
0.0
 41
1.0
 10
2805.507639163188
 20
874.7850036208897
 30
0.0
 41
1.0
 10
2806.030750710415
 20
872.5811168201094
 30
0.0
 41
1.0
 10
2806.774266289765
 20
869.284902543101
 30
0.0
 41
1.0
 10
2807.466471934975
 20
866.03154842292
 30
0.0
 41
1.0
 10
2808.083724448603
 20
862.9202858459089
 30
0.0
 41
1.0
 10
2808.605590049992
 20
860.0470549119586
 30
0.0
 41
1.0
 10
2809.016717076753
 20
857.4961968459488
 30
0.0
 41
1.0
 10
2809.308398607973
 20
855.3319132236888
 30
0.0
 41
1.0
 10
2809.479079366829
 20
853.5936424653105
 30
0.0
 41
1.0
 10
2809.516304030774
 20
852.7102462482385
 30
0.0
 41
1.0
 10
2809.516304030774
 20
852.3431156179308
 30
0.0
 41
1.0
 10
2809.516303611861
 20
831.4885583299897
 30
0.0
 41
1.0
 10
2809.516303192948
 20
810.6340010420486
 30
0.0
 41
1.0
 10
2809.516302774035
 20
789.7794437541002
 30
0.0
 41
1.0
 10
2809.516307883052
 20
788.5807575198401
 30
0.0
 41
1.0
 10
2809.516312992069
 20
787.38207128558
 30
0.0
 41
1.0
 10
2809.516318101087
 20
786.1833850513199
 30
0.0
 41
1.0
 10
2809.516318499474
 20
749.9675146372488
 30
0.0
 41
1.0
 10
2809.516318897859
 20
713.7516442231704
 30
0.0
 41
1.0
 10
2809.516319296243
 20
677.5357738090884
 30
0.0
 41
1.0
 10
2809.516319296243
 20
676.9364306919583
 30
0.0
 41
1.0
 10
2809.516319296239
 20
676.3370875748283
 30
0.0
 41
1.0
 10
2809.516319296239
 20
675.7377444576975
 30
0.0
 41
1.0
  0
SPLINE
  5
9D
330
1F
100
AcDbEntity
  8
2D
100
AcDbSpline
210
0.0
220
0.0
230
1.0
 70
    12
 71
     3
 72
    13
 73
     9
 74
     0
 42
0.0000000001
 43
0.0000000001
 40
0.0
 40
0.0
 40
0.0
 40
0.0
 40
63.99854076328615
 40
63.99854076328615
 40
63.99854076328615
 40
64.63430418424137
 40
65.32432376924899
 40
65.5547597869468
 40
65.5547597869468
 40
65.5547597869468
 40
65.5547597869468
 10
2809.516319296239
 20
675.7377444576975
 30
0.0
 41
1.0
 10
2809.516319316768
 20
654.16526426051
 30
0.0
 41
1.0
 10
2809.516319337301
 20
632.592784063329
 30
0.0
 41
1.0
 10
2809.516319357834
 20
611.0203038661407
 30
0.0
 41
1.0
 10
2809.516319357834
 20
610.8060022014711
 30
0.0
 41
1.0
 10
2809.483702175843
 20
610.4767618179089
 30
0.0
 41
1.0
 10
2809.367302590355
 20
610.3965166383991
 30
0.0
 41
1.0
 10
2809.26874628284
 20
610.4745864119309
 30
0.0
 41
1.0
 10
2809.242237775739
 20
610.50183960149
 30
0.0
 41
1.0
  0
SPLINE
  5
9E
330
1F
100
AcDbEntity
  8
2D
100
AcDbSpline
210
0.0
220
0.0
230
1.0
 70
     8
 71
     3
 72
    10
 73
     6
 74
     0
 42
0.0000000001
 43
0.0000000001
 40
-20.66389800252067
 40
-20.66389800252067
 40
-20.66389800252067
 40
-20.66389800252067
 40
-10.31422035975438
 40
-10.31422035975438
 40
0.0
 40
0.0
 40
0.0
 40
0.0
 10
2809.242237775739
 20
610.50183960149
 30
0.0
 10
2806.833370372908
 20
612.9783113839662
 30
0.0
 10
2804.884840626906
 20
615.8608607715787
 30
0.0
 10
2801.611699554724
 20
621.877218486309
 30
0.0
 10
2800.234400487538
 20
625.1095388916223
 30
0.0
 10
2799.026923234705
 20
628.2987517776698
 30
0.0
  0
LINE
  5
9F
330
1F
100
AcDbEntity
  8
2D
100
AcDbLine
 10
2809.36775564299
 20
610.4303594318615
 30
0.0
 11
2855.673757161796
 21
610.4288707042112
 31
0.0
  0
SPLINE
  5
A0
330
1F
100
AcDbEntity
  8
2D
100
AcDbSpline
210
0.0
220
0.0
230
1.0
 70
    12
 71
     3
 72
    31
 73
    27
 74
     0
 42
0.0000000001
 43
0.0000000001
 40
-613.4426407540201
 40
-613.4426407540201
 40
-613.4426407540201
 40
-613.4426407540201
 40
-611.5080646453588
 40
-611.5080646453588
 40
-611.5080646453588
 40
-504.2953677783232
 40
-504.2953677783232
 40
-504.2953677783232
 40
-501.3167024160409
 40
-501.3167024160409
 40
-501.3167024160409
 40
-321.3280815482594
 40
-321.3280815482594
 40
-321.3280815482594
 40
-315.3707520206754
 40
-315.3707520206754
 40
-315.3707520206754
 40
-211.7260408717041
 40
-211.7260408717041
 40
-211.7260408717041
 40
-203.0238756157506
 40
-203.0238756157506
 40
-194.3530809245138
 40
-194.3530809245138
 40
-194.3530809245138
 40
0.0
 40
0.0
 40
0.0
 40
0.0
 10
2855.673757161796
 20
610.4288707042112
 30
0.0
 41
1.0
 10
2855.773057950206
 20
610.4267068948508
 30
0.0
 41
1.0
 10
2855.826284018953
 20
610.6201378244479
 30
0.0
 41
1.0
 10
2855.826284018956
 20
611.0203038661407
 30
0.0
 41
1.0
 10
2855.826285524236
 20
632.5927845553801
 30
0.0
 41
1.0
 10
2855.826287029515
 20
654.1652652446196
 30
0.0
 41
1.0
 10
2855.826288534794
 20
675.7377459338481
 30
0.0
 41
1.0
 10
2855.826288945325
 20
676.3370891765612
 30
0.0
 41
1.0
 10
2855.826289355853
 20
676.9364324192707
 30
0.0
 41
1.0
 10
2855.826289766381
 20
677.5357756619801
 30
0.0
 41
1.0
 10
2855.826289766381
 20
713.7516445181886
 30
0.0
 41
1.0
 10
2855.826289766388
 20
749.9675133743899
 30
0.0
 41
1.0
 10
2855.826289766388
 20
786.1833822305985
 30
0.0
 41
1.0
 10
2855.826284657367
 20
787.3820684648585
 30
0.0
 41
1.0
 10
2855.826279548346
 20
788.5807546991296
 30
0.0
 41
1.0
 10
2855.826274439329
 20
789.7794409333897
 30
0.0
 41
1.0
 10
2855.826272523518
 20
810.63399916157
 30
0.0
 41
1.0
 10
2855.826270607704
 20
831.4885573897504
 30
0.0
 41
1.0
 10
2855.82626869189
 20
852.3431156179308
 30
0.0
 41
1.0
 10
2855.826268691897
 20
854.1162768741401
 30
0.0
 41
1.0
 10
2855.403409341096
 20
857.366451330809
 30
0.0
 41
1.0
 10
2853.856287624476
 20
865.8490659613112
 30
0.0
 41
1.0
 10
2852.781425146073
 20
870.8192945259202
 30
0.0
 41
1.0
 10
2851.554331783889
 20
875.8682545321994
 30
0.0
 41
1.0
 10
2824.262034563853
 20
988.1642963071704
 30
0.0
 41
1.0
 10
2796.969737343818
 20
1100.460338082141
 30
0.0
 41
1.0
 10
2769.677440123785
 20
1212.756379857102
 30
0.0
 41
1.0
  0
SPLINE
  5
A1
330
1F
100
AcDbEntity
  8
2D
100
AcDbSpline
210
0.0
220
0.0
230
1.0
 70
     8
 71
     3
 72
     8
 73
     4
 74
     0
 42
0.0000000001
 43
0.0000000001
 40
-1.217114044379026
 40
-1.217114044379026
 40
-1.217114044379026
 40
-1.217114044379026
 40
0.0
 40
0.0
 40
0.0
 40
0.0
 10
2769.677440123785
 20
1212.756379857102
 30
0.0
 10
2769.581627265135
 20
1213.150608451543
 30
0.0
 10
2769.483286962542
 20
1213.544231345089
 30
0.0
 10
2769.382431321857
 20
1213.937200082142
 30
0.0
  0
SPLINE
  5
A2
330
1F
100
AcDbEntity
  8
2D
100
AcDbSpline
210
0.0
220
0.0
230
1.0
 70
    12
 71
     3
 72
    14
 73
    10
 74
     0
 42
0.0000000001
 43
0.0000000001
 40
-528.1175762541741
 40
-528.1175762541741
 40
-528.1175762541741
 40
-528.1175762541741
 40
-402.7857201750182
 40
-402.7857201750182
 40
-402.7857201750182
 40
0.0000000000009853
 40
0.0000000000009853
 40
0.0000000000009853
 40
125.3040922575019
 40
125.3040922575019
 40
125.3040922575019
 40
125.3040922575019
 10
2769.382431321858
 20
1213.937200082142
 30
0.0
 41
0.9956227716042817
 10
2758.152593811116
 20
1257.692562041736
 30
0.0000000000000085
 41
0.8574698667828089
 10
2722.461403275966
 20
1285.320795581365
 30
0.0000000000000085
 41
0.8589289429147147
 10
2677.364686085108
 20
1285.320795581358
 30
0.0
 41
1.0
 10
2543.102779360102
 20
1285.320795581358
 30
0.0
 41
1.0
 10
2408.840872635094
 20
1285.320795581358
 30
0.0
 41
1.0
 10
2274.578965910088
 20
1285.320795581358
 30
0.0
 41
1.0
 10
2229.482248719242
 20
1285.320795581364
 30
0.0000000000000097
 41
0.8589289429147186
 10
2193.791058184101
 20
1257.692562041736
 30
0.0000000000000097
 41
0.8574698667828198
 10
2182.561220673334
 20
1213.937200082142
 30
0.0
 41
0.995622771604303
  0
SPLINE
  5
A3
330
1F
100
AcDbEntity
  8
2D
100
AcDbSpline
210
0.0
220
0.0
230
1.0
 70
     8
 71
     3
 72
     8
 73
     4
 74
     0
 42
0.0000000001
 43
0.0000000001
 40
-1.217114044405857
 40
-1.217114044405857
 40
-1.217114044405857
 40
-1.217114044405857
 40
0.0
 40
0.0
 40
0.0
 40
0.0
 10
2182.561220673335
 20
1213.937200082142
 30
0.0
 10
2182.460365032643
 20
1213.544231345081
 30
0.0
 10
2182.362024730057
 20
1213.150608451559
 30
0.0
 10
2182.2662118714
 20
1212.756379857108
 30
0.0
  0
SPLINE
  5
A4
330
1F
100
AcDbEntity
  8
2D
100
AcDbSpline
210
0.0
220
0.0
230
1.0
 70
    12
 71
     3
 72
    31
 73
    27
 74
     0
 42
0.0000000001
 43
0.0000000001
 40
-611.6748735393326
 40
-611.6748735393326
 40
-611.6748735393326
 40
-611.6748735393326
 40
-417.881797715661
 40
-417.881797715661
 40
-417.881797715661
 40
-409.2359409318961
 40
-409.2359409318961
 40
-400.5589715680615
 40
-400.5589715680615
 40
-400.5589715680615
 40
-297.212900227848
 40
-297.212900227848
 40
-297.212900227848
 40
-291.2727360310474
 40
-291.2727360310474
 40
-291.2727360310474
 40
-111.8027310174478
 40
-111.8027310174478
 40
-111.8027310174478
 40
-108.8326483222817
 40
-108.8326483222817
 40
-108.8326483222817
 40
-1.928871764295206
 40
-1.928871764295206
 40
-1.928871764295206
 40
0.0
 40
0.0
 40
0.0
 40
0.0
 10
2182.2662118714
 20
1212.756379857108
 30
0.0
 41
1.0
 10
2154.973910564157
 20
1100.46033808214
 30
0.0
 41
1.0
 10
2127.68160925691
 20
988.16429630717
 30
0.0
 41
1.0
 10
2100.389307949659
 20
875.8682545322104
 30
0.0
 41
1.0
 10
2099.16220400716
 20
870.8192509924797
 30
0.0
 41
1.0
 10
2098.08743255899
 20
865.8494600225081
 30
0.0
 41
1.0
 10
2096.540279793669
 20
857.3667694481396
 30
0.0
 41
1.0
 10
2096.117371041651
 20
854.1162572213093
 30
0.0
 41
1.0
 10
2096.117371041651
 20
852.3431156179308
 30
0.0
 41
1.0
 10
2096.117372957462
 20
831.4885563380908
 30
0.0
 41
1.0
 10
2096.117374873273
 20
810.6339970582508
 30
0.0
 41
1.0
 10
2096.117376789083
 20
789.7794377784217
 30
0.0
 41
1.0
 10
2096.117381898104
 20
788.5807515441616
 30
0.0
 41
1.0
 10
2096.117387007125
 20
787.3820653099015
 30
0.0
 41
1.0
 10
2096.117392116143
 20
786.1833790756305
 30
0.0
 41
1.0
 10
2096.117392116143
 20
749.9675102194292
 30
0.0
 41
1.0
 10
2096.117392116143
 20
713.7516413632206
 30
0.0
 41
1.0
 10
2096.117392116139
 20
677.5357725070085
 30
0.0
 41
1.0
 10
2096.117392116143
 20
676.9364293898784
 30
0.0
 41
1.0
 10
2096.117392116143
 20
676.3370862727484
 30
0.0
 41
1.0
 10
2096.117392116143
 20
675.7377431556183
 30
0.0
 41
1.0
 10
2096.117390200332
 20
654.1652633924591
 30
0.0
 41
1.0
 10
2096.117388284518
 20
632.5927836292999
 30
0.0
 41
1.0
 10
2096.117386368707
 20
611.0203038661407
 30
0.0
 41
1.0
 10
2096.117386368707
 20
610.6201602045044
 30
0.0
 41
1.0
 10
2096.170613801522
 20
610.4267431665854
 30
0.0
 41
1.0
 10
2096.269913887649
 20
610.4288889658403
 30
0.0
 41
1.0
  0
LINE
  5
A5
330
1F
100
AcDbEntity
  8
2D
100
AcDbLine
 10
2096.269913887649
 20
610.4288889658403
 30
0.0
 11
2142.575906570244
 21
610.4303594318615
 31
0.0
  0
LINE
  5
A6
330
1F
100
AcDbEntity
  8
2D
100
AcDbLine
 10
1289.531959500753
 20
-86.7833911185835
 30
0.0
 11
1254.532065684762
 21
-86.78429423821899
 31
0.0
  0
SPLINE
  5
A7
330
1F
100
AcDbEntity
  8
2D
100
AcDbSpline
210
0.0
220
0.0
230
1.0
 70
     8
 71
     3
 72
    34
 73
    30
 74
     0
 42
0.0000000001
 43
0.0000000001
 40
-152.7202797104868
 40
-152.7202797104868
 40
-152.7202797104868
 40
-152.7202797104868
 40
-146.9742588430499
 40
-146.9742588430499
 40
-141.1868019350858
 40
-141.1868019350858
 40
-129.6246045174057
 40
-129.6246045174057
 40
-124.3542541159457
 40
-124.3542541159457
 40
-119.2037152677916
 40
-119.2037152677916
 40
-108.9086924288239
 40
-108.9086924288239
 40
-99.53178190267495
 40
-99.53178190267495
 40
-90.12976069287178
 40
-90.12976069287178
 40
-80.75924573689385
 40
-80.75924573689385
 40
-71.43781265947827
 40
-71.43781265947827
 40
-62.15500180582492
 40
-62.15500180582492
 40
-52.81052245851788
 40
-52.81052245851788
 40
-33.83551572020604
 40
-33.83551572020604
 40
0.0
 40
0.0
 40
0.0
 40
0.0
 10
1254.532065684762
 20
-86.78429423821899
 30
0.0
 10
1252.641625830889
 20
-86.78431349717908
 30
0.0
 10
1250.751191893156
 20
-86.78486981492286
 30
0.0
 10
1246.956687268459
 20
-86.7959281025336
 30
0.0
 10
1245.052618744623
 20
-86.8014771099877
 30
0.0
 10
1239.344596857572
 20
-86.81811193202022
 30
0.0
 10
1235.540643489283
 20
-86.82919600549558
 30
0.0
 10
1230.002749222924
 20
-86.84533805735755
 30
0.0
 10
1228.268828459684
 20
-86.8550350109229
 30
0.0
 10
1224.840322446722
 20
-86.85503953895524
 30
0.0
 10
1223.145778633094
 20
-86.85503386356184
 30
0.0
 10
1218.064139259655
 20
-86.85501128003429
 30
0.0
 10
1214.677043699878
 20
-86.85499370730848
 30
0.0
 10
1208.20491447824
 20
-86.85496437003505
 30
0.0
 10
1205.11988081639
 20
-86.85495088656651
 30
0.0
 10
1198.941551997159
 20
-86.85492480974153
 30
0.0
 10
1195.848256839778
 20
-86.8549122197351
 30
0.0
 10
1189.672032183655
 20
-86.85488822806003
 30
0.0
 10
1186.589102684913
 20
-86.85487681394017
 30
0.0
 10
1180.439391783017
 20
-86.85485515249657
 30
0.0
 10
1177.372610379862
 20
-86.85484479731322
 30
0.0
 10
1171.251754409135
 20
-86.85482606306553
 30
0.0
 10
1168.197679841567
 20
-86.85481689892846
 30
0.0
 10
1162.069241574056
 20
-86.85480401357445
 30
0.0
 10
1158.994877874204
 20
-86.85480443260474
 30
0.0
 10
1149.677676049905
 20
-86.85486300956059
 30
0.0
 10
1143.434837925641
 20
-86.85491694430412
 30
0.0
 10
1126.060006520904
 20
-86.8549593664228
 30
0.0
 10
1114.928013240722
 20
-86.85498654612455
 30
0.0
 10
1103.796019960544
 20
-86.8550137258253
 30
0.0
  0
LINE
  5
A8
330
1F
100
AcDbEntity
  8
2D
100
AcDbLine
 10
2476.04344860484
 20
1099.584856041149
 30
0.0
 11
2476.042545485205
 21
1134.584749857141
 31
0.0
  0
SPLINE
  5
A9
330
1F
100
AcDbEntity
  8
2D
100
AcDbSpline
210
0.0
220
0.0
230
1.0
 70
     8
 71
     3
 72
    34
 73
    30
 74
     0
 42
0.0000000001
 43
0.0000000001
 40
-152.7202797103609
 40
-152.7202797103609
 40
-152.7202797103609
 40
-152.7202797103609
 40
-146.9742588429295
 40
-146.9742588429295
 40
-141.1868019349787
 40
-141.1868019349787
 40
-129.6246045173133
 40
-129.6246045173133
 40
-124.3542541157553
 40
-124.3542541157553
 40
-119.2037152676502
 40
-119.2037152676502
 40
-108.9086924287743
 40
-108.9086924287743
 40
-99.53178190262878
 40
-99.53178190262878
 40
-90.12976069282907
 40
-90.12976069282907
 40
-80.75924573685732
 40
-80.75924573685732
 40
-71.43781265944033
 40
-71.43781265944033
 40
-62.15500180578419
 40
-62.15500180578419
 40
-52.81052245848127
 40
-52.81052245848127
 40
-33.83551572019721
 40
-33.83551572019721
 40
0.0
 40
0.0
 40
0.0
 40
0.0
 10
2476.042545485205
 20
1134.584749857141
 30
0.0
 10
2476.04252622624
 20
1136.475189711013
 30
0.0
 10
2476.041969908496
 20
1138.365623648751
 30
0.0
 10
2476.030911620885
 20
1142.160128273445
 30
0.0
 10
2476.025362613433
 20
1144.064196797281
 30
0.0
 10
2476.008727791399
 20
1149.772218684336
 30
0.0
 10
2475.997643717925
 20
1153.576172052628
 30
0.0
 10
2475.981501666061
 20
1159.114066319024
 30
0.0
 10
2475.971804712492
 20
1160.847987082297
 30
0.0
 10
2475.971800184459
 20
1164.276493095284
 30
0.0
 10
2475.971805859859
 20
1165.971036908902
 30
0.0
 10
2475.971828443387
 20
1171.052676282303
 30
0.0
 10
2475.971846016117
 20
1174.439771842059
 30
0.0
 10
2475.971875353389
 20
1180.911901063675
 30
0.0
 10
2475.971888836855
 20
1183.996934725526
 30
0.0
 10
2475.97191491368
 20
1190.175263544756
 30
0.0
 10
2475.971927503684
 20
1193.268558702136
 30
0.0
 10
2475.971951495361
 20
1199.444783358259
 30
0.0
 10
2475.971962909483
 20
1202.527712857002
 30
0.0
 10
2475.971984570926
 20
1208.677423758901
 30
0.0
 10
2475.971994926109
 20
1211.744205162056
 30
0.0
 10
2475.972013660354
 20
1217.865061132783
 30
0.0
 10
2475.972022824491
 20
1220.919135700351
 30
0.0
 10
2475.972035709849
 20
1227.047573967863
 30
0.0
 10
2475.972035290815
 20
1230.121937667713
 30
0.0
 10
2475.971976713859
 20
1239.439139492008
 30
0.0
 10
2475.971922779117
 20
1245.681977616266
 30
0.0
 10
2475.971880356996
 20
1263.056809020998
 30
0.0
 10
2475.971853177296
 20
1274.188802301178
 30
0.0
 10
2475.971825997596
 20
1285.320795581358
 30
0.0
  0
SPLINE
  5
AA
330
1F
100
AcDbEntity
  8
2D
100
AcDbSpline
210
0.0
220
0.0
230
1.0
 70
     8
 71
     3
 72
     8
 73
     4
 74
     0
 42
0.0000000001
 43
0.0000000001
 40
-5.939721802977784
 40
-5.939721802977784
 40
-5.939721802977784
 40
-5.939721802977784
 40
0.0
 40
0.0
 40
0.0
 40
0.0
 10
3191.125771762363
 20
236.2000994121984
 30
0.0
 10
3189.272217777514
 20
236.8960666627089
 30
0.0
 10
3187.440242255925
 20
237.6524510077169
 30
0.0
 10
3185.635596388915
 20
238.4668747999706
 30
0.0
  0
SPLINE
  5
AB
330
1F
100
AcDbEntity
  8
2D
100
AcDbSpline
210
0.0
220
0.0
230
1.0
 70
     8
 71
     3
 72
     8
 73
     4
 74
     0
 42
0.0000000001
 43
0.0000000001
 40
-0.1501552434028075
 40
-0.1501552434028075
 40
-0.1501552434028075
 40
-0.1501552434028075
 40
0.0
 40
0.0
 40
0.0
 40
0.0
 10
3185.635596388915
 20
238.4668747999706
 30
0.0
 10
3185.590029363229
 20
238.4875828571922
 30
0.0
 10
3185.544484533475
 20
238.5083398104369
 30
0.0
 10
3185.498962078211
 20
238.5291456855264
 30
0.0
  0
SPLINE
  5
AC
330
1F
100
AcDbEntity
  8
2D
100
AcDbSpline
210
0.0
220
0.0
230
1.0
 70
     8
 71
     3
 72
     8
 73
     4
 74
     0
 42
0.0000000001
 43
0.0000000001
 40
-0.8252789005193898
 40
-0.8252789005193898
 40
-0.8252789005193898
 40
-0.8252789005193898
 40
0.0
 40
0.0
 40
0.0
 40
0.0
 10
3185.498962078211
 20
238.5291456855264
 30
0.0
 10
3185.248757539954
 20
238.6434865550129
 30
0.0
 10
3184.999224923427
 20
238.7593093856909
 30
0.0
 10
3184.75039050445
 20
238.8766020638818
 30
0.0
  0
SPLINE
  5
AD
330
1F
100
AcDbEntity
  8
2D
100
AcDbSpline
210
0.0
220
0.0
230
1.0
 70
     8
 71
     3
 72
     8
 73
     4
 74
     0
 42
0.0000000001
 43
0.0000000001
 40
-0.1440171821955886
 40
-0.1440171821955886
 40
-0.1440171821955886
 40
-0.1440171821955886
 40
0.0
 40
0.0
 40
0.0
 40
0.0
 10
3184.75039050445
 20
238.8766020638818
 30
0.0
 10
3184.706966735474
 20
238.8970697495543
 30
0.0
 10
3184.663565674015
 20
238.917585665592
 30
0.0
 10
3184.620187497414
 20
238.938149826575
 30
0.0
  0
SPLINE
  5
AE
330
1F
100
AcDbEntity
  8
2D
100
AcDbSpline
210
0.0
220
0.0
230
1.0
 70
     8
 71
     3
 72
     8
 73
     4
 74
     0
 42
0.0000000001
 43
0.0000000001
 40
-2.260536727639919
 40
-2.260536727639919
 40
-2.260536727639919
 40
-2.260536727639919
 40
0.0
 40
0.0
 40
0.0
 40
0.0
 10
3184.620187497414
 20
238.938149826575
 30
0.0
 10
3183.93915205988
 20
239.2605958640382
 30
0.0
 10
3183.263903831092
 20
239.5956856173878
 30
0.0
 10
3182.595222382435
 20
239.9430266944184
 30
0.0
  0
SPLINE
  5
AF
330
1F
100
AcDbEntity
  8
2D
100
AcDbSpline
210
0.0
220
0.0
230
1.0
 70
     8
 71
     3
 72
     8
 73
     4
 74
     0
 42
0.0000000001
 43
0.0000000001
 40
-0.1273043555066604
 40
-0.1273043555066604
 40
-0.1273043555066604
 40
-0.1273043555066604
 40
0.0
 40
0.0
 40
0.0
 40
0.0
 10
3182.595222382435
 20
239.9430266944184
 30
0.0
 10
3182.557571122736
 20
239.9625994729565
 30
0.0
 10
3182.519943589617
 20
239.982217920767
 30
0.0
 10
3182.482339858256
 20
240.0018819702645
 30
0.0
  0
SPLINE
  5
B0
330
1F
100
AcDbEntity
  8
2D
100
AcDbSpline
210
0.0
220
0.0
230
1.0
 70
     8
 71
     3
 72
     8
 73
     4
 74
     0
 42
0.0000000001
 43
0.0000000001
 40
-0.8261685768834104
 40
-0.8261685768834104
 40
-0.8261685768834104
 40
-0.8261685768834104
 40
0.0
 40
0.0
 40
0.0
 40
0.0
 10
3182.482339858256
 20
240.0018819702645
 30
0.0
 10
3182.23834406049
 20
240.1295748536374
 30
0.0
 10
3181.99526972813
 20
240.2590442824637
 30
0.0
 10
3181.753155856299
 20
240.3902702884131
 30
0.0
  0
SPLINE
  5
B1
330
1F
100
AcDbEntity
  8
2D
100
AcDbSpline
210
0.0
220
0.0
230
1.0
 70
     8
 71
     3
 72
     8
 73
     4
 74
     0
 42
0.0000000001
 43
0.0000000001
 40
-0.117157548150638
 40
-0.117157548150638
 40
-0.117157548150638
 40
-0.117157548150638
 40
0.0
 40
0.0
 40
0.0
 40
0.0
 10
3181.753155856299
 20
240.3902702884131
 30
0.0
 10
3181.718825536329
 20
240.4088855552943
 30
0.0
 10
3181.684517391495
 20
240.4275417411925
 30
0.0
 10
3181.650231464911
 20
240.4462387544929
 30
0.0
  0
SPLINE
  5
B2
330
1F
100
AcDbEntity
  8
2D
100
AcDbSpline
210
0.0
220
0.0
230
1.0
 70
     8
 71
     3
 72
     8
 73
     4
 74
     0
 42
0.0000000001
 43
0.0000000001
 40
-2.24791830220478
 40
-2.24791830220478
 40
-2.24791830220478
 40
-2.24791830220478
 40
0.0
 40
0.0
 40
0.0
 40
0.0
 10
3181.650231464911
 20
240.4462387544929
 30
0.0
 10
3180.992219212316
 20
240.8046792412219
 30
0.0
 10
3180.34224102016
 20
241.1784504819262
 30
0.0
 10
3179.701474753238
 20
241.5668809461783
 30
0.0
  0
SPLINE
  5
B3
330
1F
100
AcDbEntity
  8
2D
100
AcDbSpline
210
0.0
220
0.0
230
1.0
 70
     8
 71
     3
 72
     8
 73
     4
 74
     0
 42
0.0000000001
 43
0.0000000001
 40
-1.029466438904719
 40
-1.029466438904719
 40
-1.029466438904719
 40
-1.029466438904719
 40
0.0
 40
0.0
 40
0.0
 40
0.0
 10
3179.701474753238
 20
241.5668809461783
 30
0.0
 10
3179.408115417275
 20
241.7449146039503
 30
0.0
 10
3179.11683287799
 20
241.9264161273004
 30
0.0
 10
3178.82774822638
 20
242.1113100391917
 30
0.0
  0
SPLINE
  5
B4
330
1F
100
AcDbEntity
  8
2D
100
AcDbSpline
210
0.0
220
0.0
230
1.0
 70
     8
 71
     3
 72
     8
 73
     4
 74
     0
 42
0.0000000001
 43
0.0000000001
 40
-0.8504382601721191
 40
-0.8504382601721191
 40
-0.8504382601721191
 40
-0.8504382601721191
 40
0.0
 40
0.0
 40
0.0
 40
0.0
 10
3178.82774822638
 20
242.1113100391917
 30
0.0
 10
3178.588943677012
 20
242.2640613997133
 30
0.0
 10
3178.351700486412
 20
242.4192823540411
 30
0.0
 10
3178.116094948615
 20
242.5769231234183
 30
0.0
  0
SPLINE
  5
B5
330
1F
100
AcDbEntity
  8
2D
100
AcDbSpline
210
0.0
220
0.0
230
1.0
 70
     8
 71
     3
 72
     8
 73
     4
 74
     0
 42
0.0000000001
 43
0.0000000001
 40
-0.0838420023639388
 40
-0.0838420023639388
 40
-0.0838420023639388
 40
-0.0838420023639388
 40
0.0
 40
0.0
 40
0.0
 40
0.0
 10
3178.116094948615
 20
242.5769231234183
 30
0.0
 10
3178.092867440457
 20
242.5924645632117
 30
0.0
 10
3178.069656682037
 20
242.6080310580397
 30
0.0
 10
3178.046462760867
 20
242.6236226095095
 30
0.0
  0
SPLINE
  5
B6
330
1F
100
AcDbEntity
  8
2D
100
AcDbSpline
210
0.0
220
0.0
230
1.0
 70
     8
 71
     3
 72
     8
 73
     4
 74
     0
 42
0.0000000001
 43
0.0000000001
 40
-0.8555330369652064
 40
-0.8555330369652064
 40
-0.8555330369652064
 40
-0.8555330369652064
 40
0.0
 40
0.0
 40
0.0
 40
0.0
 10
3178.046462760867
 20
242.6236226095095
 30
0.0
 10
3177.80977846685
 20
242.7827039203493
 30
0.0
 10
3177.574824259627
 20
242.9443913319434
 30
0.0
 10
3177.341686201034
 20
243.1086257809543
 30
0.0
  0
SPLINE
  5
B7
330
1F
100
AcDbEntity
  8
2D
100
AcDbSpline
210
0.0
220
0.0
230
1.0
 70
     8
 71
     3
 72
     8
 73
     4
 74
     0
 42
0.0000000001
 43
0.0000000001
 40
-0.0785113573828171
 40
-0.0785113573828171
 40
-0.0785113573828171
 40
-0.0785113573828171
 40
0.0
 40
0.0
 40
0.0
 40
0.0
 10
3177.341686201034
 20
243.1086257809543
 30
0.0
 10
3177.320291491786
 20
243.1236975757938
 30
0.0
 10
3177.298912864033
 20
243.1387922176138
 30
0.0
 10
3177.277550392464
 20
243.1539097019613
 30
0.0
  0
SPLINE
  5
B8
330
1F
100
AcDbEntity
  8
2D
100
AcDbSpline
210
0.0
220
0.0
230
1.0
 70
     8
 71
     3
 72
     8
 73
     4
 74
     0
 42
0.0000000001
 43
0.0000000001
 40
-0.8615680167697601
 40
-0.8615680167697601
 40
-0.8615680167697601
 40
-0.8615680167697601
 40
0.0
 40
0.0
 40
0.0
 40
0.0
 10
3177.277550392464
 20
243.1539097019613
 30
0.0
 10
3177.043111072478
 20
243.3197889711791
 30
0.0
 10
3176.810589387936
 20
243.4884143606149
 30
0.0
 10
3176.580082247769
 20
243.6597157754766
 30
0.0
  0
SPLINE
  5
B9
330
1F
100
AcDbEntity
  8
2D
100
AcDbSpline
210
0.0
220
0.0
230
1.0
 70
     8
 71
     3
 72
     8
 73
     4
 74
     0
 42
0.0000000001
 43
0.0000000001
 40
-0.0731331433139764
 40
-0.0731331433139764
 40
-0.0731331433139764
 40
-0.0731331433139764
 40
0.0
 40
0.0
 40
0.0
 40
0.0
 10
3176.580082247769
 20
243.6597157754766
 30
0.0
 10
3176.560516092042
 20
243.67425670091
 30
0.0
 10
3176.540965182849
 20
243.6888181582938
 30
0.0
 10
3176.521429581622
 20
243.7034001382101
 30
0.0
  0
SPLINE
  5
BA
330
1F
100
AcDbEntity
  8
2D
100
AcDbSpline
210
0.0
220
0.0
230
1.0
 70
     8
 71
     3
 72
     8
 73
     4
 74
     0
 42
0.0000000001
 43
0.0000000001
 40
-0.8685883903565266
 40
-0.8685883903565266
 40
-0.8685883903565266
 40
-0.8685883903565266
 40
0.0
 40
0.0
 40
0.0
 40
0.0
 10
3176.521429581622
 20
243.7034001382101
 30
0.0
 10
3176.289396280648
 20
243.8765701934301
 30
0.0
 10
3176.059488809275
 20
244.0526289436055
 30
0.0
 10
3175.831816052829
 20
244.2314932111199
 30
0.0
  0
SPLINE
  5
BB
330
1F
100
AcDbEntity
  8
2D
100
AcDbSpline
210
0.0
220
0.0
230
1.0
 70
    12
 71
     2
 72
     6
 73
     3
 74
     0
 42
0.0000000001
 43
0.0000000001
 40
-2.844443702007685
 40
-2.844443702007685
 40
-2.844443702007685
 40
0.0
 40
0.0
 40
0.0
 10
3175.831816052829
 20
244.2314932111199
 30
0.0
 41
1.0
 10
3174.711668759509
 20
245.1098025579944
 30
0.0
 41
0.9990032041083027
 10
3173.674322093705
 20
246.0845174691271
 30
0.0
 41
0.999999999999243
  0
SPLINE
  5
BC
330
1F
100
AcDbEntity
  8
2D
100
AcDbSpline
210
0.0
220
0.0
230
1.0
 70
     8
 71
     3
 72
     8
 73
     4
 74
     0
 42
0.0000000001
 43
0.0000000001
 40
-0.0512505010712377
 40
-0.0512505010712377
 40
-0.0512505010712377
 40
-0.0512505010712377
 40
0.0
 40
0.0
 40
0.0
 40
0.0
 10
3173.674322093702
 20
246.0845174691271
 30
0.0
 10
3173.661884077188
 20
246.0962282134313
 30
0.0
 10
3173.649455802915
 20
246.1079493164478
 30
0.0
 10
3173.637037303237
 20
246.1196807550998
 30
0.0
  0
SPLINE
  5
BD
330
1F
100
AcDbEntity
  8
2D
100
AcDbSpline
210
0.0
220
0.0
230
1.0
 70
     8
 71
     3
 72
     8
 73
     4
 74
     0
 42
0.0000000001
 43
0.0000000001
 40
-0.4271193919808426
 40
-0.4271193919808426
 40
-0.4271193919808426
 40
-0.4271193919808426
 40
0.0
 40
0.0
 40
0.0
 40
0.0
 10
3173.637037303237
 20
246.1196807550998
 30
0.0
 10
3173.533533607006
 20
246.2174411333811
 30
0.0
 10
3173.43074846856
 20
246.3159697322524
 30
0.0
 10
3173.328739787536
 20
246.4153112103636
 30
0.0
  0
SPLINE
  5
BE
330
1F
100
AcDbEntity
  8
2D
100
AcDbSpline
210
0.0
220
0.0
230
1.0
 70
    12
 71
     3
 72
    39
 73
    35
 74
     0
 42
0.0000000001
 43
0.0000000001
 40
0.0
 40
0.0
 40
0.0
 40
0.0
 40
0.371887154187115
 40
1.484505835598468
 40
2.5096394325025
 40
2.5096394325025
 40
2.5096394325025
 40
105.7037713316973
 40
105.7037713316973
 40
105.7037713316973
 40
108.5707892692913
 40
108.5707892692913
 40
108.5707892692913
 40
281.8130455123244
 40
281.8130455123244
 40
281.8130455123244
 40
287.5470813875173
 40
287.5470813875173
 40
287.5470813875173
 40
387.3069638929864
 40
387.3069638929864
 40
387.3069638929864
 40
389.0631702395312
 40
390.8794307272154
 40
392.7438036136666
 40
394.6418319223373
 40
396.556946623819
 40
398.4711668590517
 40
400.366056831182
 40
402.2238192438606
 40
404.0283522347478
 40
404.0283522347478
 40
404.0283522347478
 40
566.7252206391428
 40
566.7252206391428
 40
566.7252206391428
 40
566.7252206391428
 10
3173.328739787536
 20
246.4153112103636
 30
0.0
 41
1.0
 10
3173.301459988234
 20
246.4418568812375
 30
0.0
 41
1.0
 10
3173.22334607318
 20
246.5404409948383
 30
0.0
 41
1.0
 10
3173.303601541331
 20
246.6568555045046
 30
0.0
 41
1.0
 10
3173.632841924882
 20
246.6894726864953
 30
0.0
 41
1.0
 10
3173.847143589563
 20
246.6894726865025
 30
0.0
 41
1.0
 10
3195.419623835991
 20
246.6894726816568
 30
0.0
 41
1.0
 10
3216.992104082423
 20
246.6894726768091
 30
0.0
 41
1.0
 10
3238.564584328851
 20
246.6894726719615
 30
0.0
 41
1.0
 10
3239.163927450791
 20
246.6894726706428
 30
0.0
 41
1.0
 10
3239.763270572741
 20
246.689472669324
 30
0.0
 41
1.0
 10
3240.36261369468
 20
246.6894726680034
 30
0.0
 41
1.0
 10
3276.578482651781
 20
246.6894726403148
 30
0.0
 41
1.0
 10
3312.794351608871
 20
246.6894726126206
 30
0.0
 41
1.0
 10
3349.010220565971
 20
246.6894725849265
 30
0.0
 41
1.0
 10
3350.208906800231
 20
246.6894776939457
 30
0.0
 41
1.0
 10
3351.407593034492
 20
246.6894828029667
 30
0.0
 41
1.0
 10
3352.606279268752
 20
246.6894879119859
 30
0.0
 41
1.0
 10
3373.460837959621
 20
246.6894879458428
 30
0.0
 41
1.0
 10
3394.315396650483
 20
246.6894879796996
 30
0.0
 41
1.0
 10
3415.169955341353
 20
246.6894880135546
 30
0.0
 41
1.0
 10
3415.53708597166
 20
246.6894880135546
 30
0.0
 41
1.0
 10
3416.420482188722
 20
246.6522633496129
 30
0.0
 41
1.0
 10
3418.158752947111
 20
246.4815825907567
 30
0.0
 41
1.0
 10
3420.323036569382
 20
246.1899010595366
 30
0.0
 41
1.0
 10
3422.873894635391
 20
245.7787740327763
 30
0.0
 41
1.0
 10
3425.747125569331
 20
245.2569084313795
 30
0.0
 41
1.0
 10
3428.858388146353
 20
244.6396559177588
 30
0.0
 41
1.0
 10
3432.111742266523
 20
243.9474502725493
 30
0.0
 41
1.0
 10
3435.407956543531
 20
243.2039346931956
 30
0.0
 41
1.0
 10
3437.611843344312
 20
242.6808231459722
 30
0.0
 41
1.0
 10
3438.695094255632
 20
242.417551105556
 30
0.0
 41
1.0
 10
3536.36108068694
 20
218.6808356467118
 30
0.0
 41
1.0
 10
3634.027067118248
 20
194.9441201878713
 30
0.0
 41
1.0
 10
3731.693053549614
 20
171.2074047293111
 30
0.0
 41
1.0
  0
SPLINE
  5
BF
330
1F
100
AcDbEntity
  8
2D
100
AcDbSpline
210
0.0
220
0.0
230
1.0
 70
     8
 71
     3
 72
     8
 73
     4
 74
     0
 42
0.0000000001
 43
0.0000000001
 40
-31.36680624864197
 40
-31.36680624864197
 40
-31.36680624864197
 40
-31.36680624864197
 40
0.0
 40
0.0
 40
0.0
 40
0.0
 10
3731.693053549614
 20
171.2074047293111
 30
0.0
 10
3741.85292928854
 20
168.738287501565
 30
0.0
 10
3752.01280019269
 20
166.2691503778672
 30
0.0
 10
3762.172666261136
 20
163.7999933585663
 30
0.0
  0
SPLINE
  5
C0
330
1F
100
AcDbEntity
  8
2D
100
AcDbSpline
210
0.0
220
0.0
230
1.0
 70
    12
 71
     3
 72
    91
 73
    87
 74
     0
 42
0.0000000001
 43
0.0000000001
 40
0.0
 40
0.0
 40
0.0
 40
0.0
 40
2.242613583269551
 40
4.485230646469715
 40
6.727847709669176
 40
8.97046477286934
 40
11.2130818360688
 40
13.17131946839954
 40
15.12955710073098
 40
17.08779473306173
 40
19.04603236539247
 40
21.00426999772321
 40
22.96250763005465
 40
24.9207452623861
 40
26.87898289471613
 40
28.83722052704758
 40
30.79545815937832
 40
32.75369579170906
 40
34.7119334240405
 40
36.67017105637125
 40
38.62840868870199
 40
40.58664632103272
 40
42.54488395336416
 40
44.50312158569491
 40
44.50312158569491
 40
44.50312158569491
 40
351.9473233802823
 40
351.9473233802823
 40
351.9473233802823
 40
353.9055610126131
 40
355.8637986449445
 40
357.8220362772752
 40
359.780273909606
 40
361.7385115419367
 40
363.6967491742681
 40
365.6549868065989
 40
367.6132244389296
 40
369.5714620712611
 40
371.5296997035919
 40
373.4879373359226
 40
375.446174968254
 40
377.4044126005847
 40
379.3626502329155
 40
381.3208878652462
 40
383.279125497577
 40
385.2373631299084
 40
387.4799801931079
 40
389.7225972563081
 40
391.9652143195075
 40
394.2078313827076
 40
396.4504484459071
 40
398.6930655091073
 40
400.9356825723067
 40
403.1782996355062
 40
405.4209166987064
 40
407.6635337619065
 40
409.906150825106
 40
412.1487678883062
 40
414.3913849515056
 40
416.6340020147058
 40
416.6340020147058
 40
416.6340020147058
 40
649.3169845307522
 40
649.3169845307522
 40
649.3169845307522
 40
651.8977602789404
 40
654.5546627599412
 40
657.2646636910717
 40
660.0023100431912
 40
662.7412356275624
 40
665.4557248905077
 40
668.1220814244309
 40
670.7196294009319
 40
673.2312901856708
 40
673.2312901856708
 40
673.2312901856708
 40
815.904151647565
 40
815.904151647565
 40
815.904151647565
 40
824.104755793166
 40
824.104755793166
 40
824.104755793166
 40
1071.869366277387
 40
1071.869366277387
 40
1071.869366277387
 40
1075.969669174044
 40
1075.969669174044
 40
1075.969669174044
 40
1075.969669174044
 10
3762.172666261136
 20
163.7999933585663
 30
0.0
 41
1.0
 10
3763.303698246531
 20
163.5294892634635
 30
0.0
 41
1.0
 10
3765.574645345961
 20
163.0014686912118
 30
0.0
 41
1.0
 10
3768.916208056333
 20
162.0313573562994
 30
0.0
 41
1.0
 10
3772.188162922943
 20
160.8144699395993
 30
0.0
 41
1.0
 10
3775.373247597523
 20
159.370317809598
 30
0.0
 41
1.0
 10
3778.264392923262
 20
157.8151779277464
 30
0.0
 41
1.0
 10
3781.145880621192
 20
156.0062063724322
 30
0.0
 41
1.0
 10
3783.722695295713
 20
154.1424556210472
 30
0.0
 41
1.0
 10
3786.184317107032
 20
152.1141823276353
 30
0.0
 41
1.0
 10
3788.507862817401
 20
149.936639775136
 30
0.0
 41
1.0
 10
3790.701399779093
 20
147.6001789312172
 30
0.0
 41
1.0
 10
3792.725664885493
 20
145.1482925541782
 30
0.0
 41
1.0
 10
3794.608038960952
 20
142.5457956723617
 30
0.0
 41
1.0
 10
3796.300018200382
 20
139.8609420641437
 30
0.0
 41
1.0
 10
3797.831775471434
 20
137.0488928756527
 30
0.0
 41
1.0
 10
3799.174074275721
 20
134.158226136236
 30
0.0
 41
1.0
 10
3800.33239738988
 20
131.1814215863919
 30
0.0
 41
1.0
 10
3801.297476678923
 20
128.13866713997
 30
0.0
 41
1.0
 10
3802.065909231271
 20
125.0452707433974
 30
0.0
 41
1.0
 10
3802.636801485132
 20
121.9005192356813
 30
0.0
 41
1.0
 10
3803.0053791596
 20
118.7363267286669
 30
0.0
 41
1.0
 10
3803.171126182122
 20
115.5359164894212
 30
0.0
 41
1.0
 10
3803.147637137863
 20
113.4121968326758
 30
0.0
 41
1.0
 10
3803.14763530478
 20
112.3490927903545
 30
0.0
 41
1.0
 10
3803.147635304773
 20
-20.45296628385813
 30
0.0
 41
1.0
 10
3803.147635304791
 20
-153.2574324842285
 30
0.0
 41
1.0
 10
3803.14763530478
 20
-286.0590932656712
 30
0.0
 41
1.0
 10
3803.147636184152
 20
-287.1221936928457
 30
0.0
 41
1.0
 10
3803.171123348802
 20
-289.245906224726
 30
0.0
 41
1.0
 10
3803.005373274682
 20
-292.4463048965306
 30
0.0
 41
1.0
 10
3802.636792360201
 20
-295.6104851218995
 30
0.0
 41
1.0
 10
3802.065896663422
 20
-298.7552235788633
 30
0.0
 41
1.0
 10
3801.297460499092
 20
-301.8486062838099
 30
0.0
 41
1.0
 10
3800.332377429331
 20
-304.8913463989873
 30
0.0
 41
1.0
 10
3799.174050383161
 20
-307.8681360440758
 30
0.0
 41
1.0
 10
3797.831747523753
 20
-310.7587874121534
 30
0.0
 41
1.0
 10
3796.299986061782
 20
-313.5708207144933
 30
0.0
 41
1.0
 10
3794.608002571051
 20
-316.2556582076365
 30
0.0
 41
1.0
 10
3792.725624110812
 20
-318.8581384684373
 30
0.0
 41
1.0
 10
3790.701354600202
 20
-321.3100081508389
 30
0.0
 41
1.0
 10
3788.507813153501
 20
-323.6464519938279
 30
0.0
 41
1.0
 10
3786.18426295909
 20
-325.8239775490845
 30
0.0
 41
1.0
 10
3783.722636647271
 20
-327.852233782826
 30
0.0
 41
1.0
 10
3781.14581749438
 20
-329.715967558456
 30
0.0
 41
1.0
 10
3778.264325035412
 20
-331.5249210664995
 30
0.0
 41
1.0
 10
3775.373175165831
 20
-333.0800437243859
 30
0.0
 41
1.0
 10
3772.188085726841
 20
-334.5241777943636
 30
0.0
 41
1.0
 10
3768.916126205091
 20
-335.7410475652366
 30
0.0
 41
1.0
 10
3765.57455725675
 20
-336.7111423079048
 30
0.0
 41
1.0
 10
3762.168129493912
 20
-337.5031568864149
 30
0.0
 41
1.0
 10
3758.788346049641
 20
-338.3341359820413
 30
0.0
 41
1.0
 10
3755.398491888813
 20
-339.1553836766732
 30
0.0
 41
1.0
 10
3752.012887032921
 20
-339.9788586514594
 30
0.0
 41
1.0
 10
3748.620674931342
 20
-340.803062582924
 30
0.0
 41
1.0
 10
3745.247832932502
 20
-341.6227905033963
 30
0.0
 41
1.0
 10
3741.850197507712
 20
-342.4484787338813
 30
0.0
 41
1.0
 10
3738.46653867267
 20
-343.270784349407
 30
0.0
 41
1.0
 10
3735.074812798714
 20
-344.0950433956721
 30
0.0
 41
1.0
 10
3732.820815782332
 20
-344.6428099656848
 30
0.0
 41
1.0
 10
3731.692922927032
 20
-344.9169100645529
 30
0.0
 41
1.0
 10
3634.02698003656
 20
-368.6537905699922
 30
0.0
 41
1.0
 10
3536.361037146093
 20
-392.3906710754334
 30
0.0
 41
1.0
 10
3438.695094255632
 20
-416.1275515808709
 30
0.0
 41
1.0
 10
3437.611843344312
 20
-416.3908236212853
 30
0.0
 41
1.0
 10
3435.407956543531
 20
-416.9139351685124
 30
0.0
 41
1.0
 10
3432.111742266523
 20
-417.6574507478624
 30
0.0
 41
1.0
 10
3428.858388146342
 20
-418.3496563930755
 30
0.0
 41
1.0
 10
3425.747125569331
 20
-418.9669089066999
 30
0.0
 41
1.0
 10
3422.873894635381
 20
-419.488774508093
 30
0.0
 41
1.0
 10
3420.323036569371
 20
-419.8999015348534
 30
0.0
 41
1.0
 10
3418.158752947111
 20
-420.1915830660698
 30
0.0
 41
1.0
 10
3416.420482188732
 20
-420.3622638249296
 30
0.0
 41
1.0
 10
3415.53708597166
 20
-420.3994884888714
 30
0.0
 41
1.0
 10
3415.169955341353
 20
-420.3994884888714
 30
0.0
 41
1.0
 10
3394.315398053412
 20
-420.3994880699599
 30
0.0
 41
1.0
 10
3373.46084076547
 20
-420.3994876510449
 30
0.0
 41
1.0
 10
3352.606283477522
 20
-420.3994872321316
 30
0.0
 41
1.0
 10
3351.407597243262
 20
-420.399492341149
 30
0.0
 41
1.0
 10
3350.208911009002
 20
-420.3994974501682
 30
0.0
 41
1.0
 10
3349.010224774742
 20
-420.3995025591855
 30
0.0
 41
1.0
 10
3312.794354360671
 20
-420.3995029575715
 30
0.0
 41
1.0
 10
3276.578483946592
 20
-420.3995033559574
 30
0.0
 41
1.0
 10
3240.36261353251
 20
-420.3995037543398
 30
0.0
 41
1.0
 10
3239.76327041538
 20
-420.3995037543398
 30
0.0
 41
1.0
 10
3239.16392729825
 20
-420.399503754338
 30
0.0
 41
1.0
 10
3238.56458418112
 20
-420.3995037543376
 30
0.0
 41
1.0
  0
SPLINE
  5
C1
330
1F
100
AcDbEntity
  8
2D
100
AcDbSpline
210
0.0
220
0.0
230
1.0
 70
    12
 71
     3
 72
    13
 73
     9
 74
     0
 42
0.0000000001
 43
0.0000000001
 40
0.0
 40
0.0
 40
0.0
 40
0.0
 40
63.99854076328235
 40
63.99854076328235
 40
63.99854076328235
 40
64.63430418423754
 40
65.32432376924511
 40
65.55475978694291
 40
65.55475978694291
 40
65.55475978694291
 40
65.55475978694291
 10
3238.56458418112
 20
-420.3995037543376
 30
0.0
 41
1.0
 10
3216.992103983932
 20
-420.3995037748671
 30
0.0
 41
1.0
 10
3195.419623786751
 20
-420.3995037953998
 30
0.0
 41
1.0
 10
3173.847143589563
 20
-420.3995038159344
 30
0.0
 41
1.0
 10
3173.632841924893
 20
-420.3995038159308
 30
0.0
 41
1.0
 10
3173.303601541331
 20
-420.3668866339437
 30
0.0
 41
1.0
 10
3173.223356361821
 20
-420.2504870484543
 30
0.0
 41
1.0
 10
3173.301426135353
 20
-420.1519307409369
 30
0.0
 41
1.0
 10
3173.328679324914
 20
-420.1254222338356
 30
0.0
 41
1.0
  0
SPLINE
  5
C2
330
1F
100
AcDbEntity
  8
2D
100
AcDbSpline
210
0.0
220
0.0
230
1.0
 70
     8
 71
     3
 72
    10
 73
     6
 74
     0
 42
0.0000000001
 43
0.0000000001
 40
-20.66389800252556
 40
-20.66389800252556
 40
-20.66389800252556
 40
-20.66389800252556
 40
-10.31422035986484
 40
-10.31422035986484
 40
0.0
 40
0.0
 40
0.0
 40
0.0
 10
3173.328679324914
 20
-420.1254222338356
 30
0.0
 10
3175.805151107335
 20
-417.7165548310444
 30
0.0
 10
3178.687700495058
 20
-415.7680250849697
 30
0.0
 10
3184.704058209732
 20
-412.4948840128293
 30
0.0
 10
3187.936378615042
 20
-411.1175849456426
 30
0.0
 10
3191.125591501092
 20
-409.9101076928026
 30
0.0
  0
LINE
  5
C3
330
1F
100
AcDbEntity
  8
2D
100
AcDbLine
 10
1594.557320604923
 20
-466.7094574419284
 30
0.0
 11
1594.557320223899
 21
-420.3995044846442
 31
0.0
  0
SPLINE
  5
C4
330
1F
100
AcDbEntity
  8
2D
100
AcDbSpline
210
0.0
220
0.0
230
1.0
 70
     8
 71
     3
 72
   114
 73
   110
 74
     0
 42
0.0000000001
 43
0.0000000001
 40
-1098.975988350944
 40
-1098.975988350944
 40
-1098.975988350944
 40
-1098.975988350944
 40
-1090.211722739294
 40
-1090.211722739294
 40
-1085.842116341224
 40
-1085.842116341224
 40
-1081.475241077022
 40
-1081.475241077022
 40
-1072.722742507809
 40
-1072.722742507809
 40
-1063.978533381414
 40
-1063.978533381414
 40
-1047.272469077586
 40
-1047.272469077586
 40
-1029.785121986051
 40
-1029.785121986051
 40
-994.810417483217
 40
-994.810417483217
 40
-959.8357145322977
 40
-959.8357145322977
 40
-889.7871757105765
 40
-889.7871757105765
 40
-819.7386369236862
 40
-819.7386369236862
 40
-810.9883767663007
 40
-810.9883767663007
 40
-808.8008117280797
 40
-808.8008117280797
 40
-806.6128669594184
 40
-806.6128669594184
 40
-802.2288768714177
 40
-802.2288768714177
 40
-797.8453067634047
 40
-797.8453067634047
 40
-793.4597658501585
 40
-793.4597658501585
 40
-784.6403324170894
 40
-784.6403324170894
 40
-780.2542513503296
 40
-780.2542513503296
 40
-775.8668525359972
 40
-775.8668525359972
 40
-767.0562974159526
 40
-767.0562974159526
 40
-749.476204371825
 40
-749.476204371825
 40
-745.0847758748978
 40
-745.0847758748978
 40
-740.6954260734133
 40
-740.6954260734133
 40
-731.9168630149446
 40
-731.9168630149446
 40
-714.3597340610595
 40
-714.3597340610595
 40
-679.2454746249473
 40
-679.2454746249473
 40
-538.8854350985451
 40
-538.8854350985451
 40
-398.4533961617395
 40
-398.4533961617395
 40
-363.3248260525573
 40
-363.3248260525573
 40
-345.760545550388
 40
-345.760545550388
 40
-336.9784055071538
 40
-336.9784055071538
 40
-332.5865508560041
 40
-332.5865508560041
 40
-328.1933278993772
 40
-328.1933278993772
 40
-319.3775792491727
 40
-319.3775792491727
 40
-310.559480208538
 40
-310.559480208538
 40
-301.7389711061361
 40
-301.7389711061361
 40
-297.3476124530321
 40
-297.3476124530321
 40
-292.9573985799652
 40
-292.9573985799652
 40
-288.5671585764377
 40
-288.5671585764377
 40
-284.1747403949937
 40
-284.1747403949937
 40
-275.3340302672652
 40
-275.3340302672652
 40
-270.942632295612
 40
-270.942632295612
 40
-269.0719488287667
 40
-269.0719488287667
 40
-260.3090591958564
 40
-260.3090591958564
 40
-190.2964042117952
 40
-190.2964042117952
 40
-120.2837494402989
 40
-120.2837494402989
 40
-68.78940182596565
 40
-68.78940182596565
 40
-51.2618480205123
 40
-51.2618480205123
 40
-34.73047037219758
 40
-34.73047037219758
 40
-25.96695060137218
 40
-25.96695060137218
 40
-17.19426694984676
 40
-17.19426694984676
 40
-8.759227604709725
 40
-8.759227604709725
 40
0.0
 40
0.0
 40
0.0
 40
0.0
 10
1594.557320223899
 20
-420.3995044846442
 30
0.0
 10
1593.275021838981
 20
-417.7813038125681
 30
0.0
 10
1591.410026045312
 20
-415.6257872822443
 30
0.0
 10
1588.123371368642
 20
-412.8322072515027
 30
0.0
 10
1586.970789821837
 20
-411.9956773257322
 30
0.0
 10
1584.583871853272
 20
-410.4104461893081
 30
0.0
 10
1583.361214179859
 20
-409.6741831438713
 30
0.0
 10
1579.592679071044
 20
-407.5988384023088
 30
0.0
 10
1577.000893635195
 20
-406.4199241680452
 30
0.0
 10
1571.682829901369
 20
-404.2853243520011
 30
0.0
 10
1568.986270955575
 20
-403.3447834274929
 30
0.0
 10
1561.05263319677
 20
-400.8015360533176
 30
0.0
 10
1555.039162681413
 20
-399.1773300387571
 30
0.0
 10
1544.258996236797
 20
-396.1959447153556
 30
0.0
 10
1538.750204943419
 20
-394.6552504707292
 30
0.0
 10
1522.218548076013
 20
-390.0520637606404
 30
0.0
 10
1511.195001783428
 20
-386.9920697385805
 30
0.0
 10
1489.147802374995
 20
-380.8724491154492
 30
0.0
 10
1478.123809670691
 20
-377.8140580770724
 30
0.0
 10
1445.018778598162
 20
-368.6367224484071
 30
0.0
 10
1422.936767203279
 20
-362.5212941106633
 30
0.0
 10
1378.775587499451
 20
-350.2801763981353
 30
0.0
 10
1356.695531571357
 20
-344.1576920321001
 30
0.0
 10
1331.857198463826
 20
-337.2707676468418
 30
0.0
 10
1329.099009386311
 20
-336.5060100094581
 30
0.0
 10
1325.651269775892
 20
-335.5500747342777
 30
0.0
 10
1324.961721690903
 20
-335.3588882678944
 30
0.0
 10
1323.582505460719
 20
-334.9764834620593
 30
0.0
 10
1322.891160529398
 20
-334.7916403657616
 30
0.0
 10
1320.831417173446
 20
-334.1742196332266
 30
0.0
 10
1319.490323619899
 20
-333.6890671992476
 30
0.0
 10
1316.846367494112
 20
-332.5773219919219
 30
0.0
 10
1315.561138795299
 20
-331.9581963603924
 30
0.0
 10
1313.043956658254
 20
-330.5821705827281
 30
0.0
 10
1311.829378396644
 20
-329.8333243525097
 30
0.0
 10
1308.27617116593
 20
-327.3763964382242
 30
0.0
 10
1306.126779869286
 20
-325.5321823891429
 30
0.0
 10
1303.106974636099
 20
-322.4493373016132
 30
0.0
 10
1302.153730422044
 20
-321.3866004256263
 30
0.0
 10
1300.339207990939
 20
-319.1665194569877
 30
0.0
 10
1299.48695506094
 20
-318.0206828605255
 30
0.0
 10
1297.068845895901
 20
-314.4492289425651
 30
0.0
 10
1295.688767923475
 20
-311.9681533193299
 30
0.0
 10
1292.108836585714
 20
-304.1260334727157
 30
0.0
 10
1290.588641030401
 20
-298.5660430788221
 30
0.0
 10
1289.751947752775
 20
-291.4459757601863
 30
0.0
 10
1289.639162460448
 20
-290.0216731791707
 30
0.0
 10
1289.521404934898
 20
-287.1590285973783
 30
0.0
 10
1289.530859937047
 20
-285.7284673154218
 30
0.0
 10
1289.521076754343
 20
-281.43508404878
 30
0.0
 10
1289.514972999907
 20
-278.5728425812588
 30
0.0
 10
1289.497964396414
 20
-269.9861141913019
 30
0.0
 10
1289.488362212844
 20
-264.2616262319464
 30
0.0
 10
1289.465147621515
 20
-247.0881499485346
 30
0.0
 10
1289.457715913144
 20
-235.6391664015333
 30
0.0
 10
1289.449720511631
 20
-178.4258235942327
 30
0.0
 10
1289.529069772481
 20
-132.6615488749267
 30
0.0
 10
1289.533547085568
 20
-41.10939519576565
 30
0.0
 10
1289.446816866501
 20
4.678340857303418
 30
0.0
 10
1289.45708420291
 20
61.91982186903557
 30
0.0
 10
1289.465350968483
 20
73.37347068849353
 30
0.0
 10
1289.488373587879
 20
90.55394330739347
 30
0.0
 10
1289.497818200398
 20
96.28076272677025
 30
0.0
 10
1289.51480372938
 20
104.8709884387941
 30
0.0
 10
1289.520935339635
 20
107.7343958390038
 30
0.0
 10
1289.530858372145
 20
112.0297613921913
 30
0.0
 10
1289.521672143012
 20
113.4611033357839
 30
0.0
 10
1289.642538658758
 20
116.3251049116974
 30
0.0
 10
1289.757461489764
 20
117.7499582924485
 30
0.0
 10
1290.25983502993
 20
122.0304274995465
 30
0.0
 10
1290.791702736544
 20
124.8237788560188
 30
0.0
 10
1292.331515469872
 20
130.3708913818913
 30
0.0
 10
1293.31174057092
 20
133.039674666198
 30
0.0
 10
1295.703664109409
 20
138.2762689754581
 30
0.0
 10
1297.079590297482
 20
140.7607065317259
 30
0.0
 10
1299.502355739303
 20
144.3316376850432
 30
0.0
 10
1300.356258123262
 20
145.4770249698308
 30
0.0
 10
1302.170872669805
 20
147.6982493910485
 30
0.0
 10
1303.122474051848
 20
148.763244962848
 30
0.0
 10
1305.128566848107
 20
150.8128182515298
 30
0.0
 10
1306.172562279793
 20
151.7866383483901
 30
0.0
 10
1308.364086769496
 20
153.6382264139143
 30
0.0
 10
1309.498510501351
 20
154.5056341618465
 30
0.0
 10
1313.056969998532
 20
156.9601062253526
 30
0.0
 10
1315.534898409795
 20
158.3234282597839
 30
0.0
 10
1319.521650936811
 20
159.997195680114
 30
0.0
 10
1320.863843522893
 20
160.4803711811632
 30
0.0
 10
1322.826510311097
 20
161.0608420037611
 30
0.0
 10
1325.78786618543
 20
161.8791253448234
 30
0.0
 10
1329.13625564484
 20
162.8074344710798
 30
0.0
 10
1331.895584674079
 20
163.5724469320797
 30
0.0
 10
1356.701038390049
 20
170.4497414083883
 30
0.0
 10
1378.7470084259
 20
176.5625811411688
 30
0.0
 10
1422.839993985508
 20
188.7844896624101
 30
0.0
 10
1444.887624185736
 20
194.8913390249785
 30
0.0
 10
1483.148818611651
 20
205.4987311716921
 30
0.0
 10
1516.9481041736
 20
214.8748148636152
 30
0.0
 10
1538.675972059245
 20
220.9232437051982
 30
0.0
 10
1544.191073359783
 20
222.4681952524203
 30
0.0
 10
1554.918574720723
 20
225.4318041596081
 30
0.0
 10
1561.073093985378
 20
227.0999664849529
 30
0.0
 10
1568.950865783314
 20
229.6223034244112
 30
0.0
 10
1571.650603212813
 20
230.5637495237276
 30
0.0
 10
1576.97603508352
 20
232.6982063065238
 30
0.0
 10
1579.570801672398
 20
233.8786090740477
 30
0.0
 10
1584.508502027769
 20
236.5973668834641
 30
0.0
 10
1587.092396343025
 20
238.2496516656039
 30
0.0
 10
1591.406945398441
 20
241.9123205864775
 30
0.0
 10
1593.272866260319
 20
244.0668577429485
 30
0.0
 10
1594.557318299911
 20
246.6894713905195
 30
0.0
  0
LINE
  5
C5
330
1F
100
AcDbEntity
  8
2D
100
AcDbLine
 10
1594.557318299911
 20
246.6894713905195
 30
0.0
 11
1594.557320604923
 21
292.9994402083167
 31
0.0
  0
LINE
  5
C6
330
1F
100
AcDbEntity
  8
2D
100
AcDbLine
 10
2096.117382281493
 20
794.5594949369795
 30
0.0
 11
2142.427335238775
 21
794.5594953180032
 31
0.0
  0
SPLINE
  5
C7
330
1F
100
AcDbEntity
  8
2D
100
AcDbSpline
210
0.0
220
0.0
230
1.0
 70
     8
 71
     3
 72
   114
 73
   110
 74
     0
 42
0.0000000001
 43
0.0000000001
 40
-1098.975988350668
 40
-1098.975988350668
 40
-1098.975988350668
 40
-1098.975988350668
 40
-1090.211722741704
 40
-1090.211722741704
 40
-1085.84211634488
 40
-1085.84211634488
 40
-1081.475241081891
 40
-1081.475241081891
 40
-1072.722742515147
 40
-1072.722742515147
 40
-1063.978533391193
 40
-1063.978533391193
 40
-1047.272469091837
 40
-1047.272469091837
 40
-1029.785122005202
 40
-1029.785122005202
 40
-994.8104175121646
 40
-994.8104175121646
 40
-959.8357145710447
 40
-959.8357145710447
 40
-889.787175768887
 40
-889.787175768887
 40
-819.7386370015893
 40
-819.7386370015893
 40
-810.9883768466445
 40
-810.9883768466445
 40
-808.8008118090265
 40
-808.8008118090265
 40
-806.6128670409778
 40
-806.6128670409778
 40
-802.2288769541824
 40
-802.2288769541824
 40
-797.8453068473681
 40
-797.8453068473681
 40
-793.4597659353298
 40
-793.4597659353298
 40
-784.6403325046825
 40
-784.6403325046825
 40
-780.2542514391229
 40
-780.2542514391229
 40
-775.8668526260094
 40
-775.8668526260094
 40
-767.0562975083807
 40
-767.0562975083807
 40
-749.4762044698751
 40
-749.4762044698751
 40
-745.0847759741548
 40
-745.0847759741548
 40
-740.6954261738854
 40
-740.6954261738854
 40
-731.9168631178204
 40
-731.9168631178204
 40
-714.3597341687399
 40
-714.3597341687399
 40
-679.2454747422345
 40
-679.2454747422345
 40
-538.8854352542414
 40
-538.8854352542414
 40
-398.4533963558653
 40
-398.4533963558653
 40
-363.324826256122
 40
-363.324826256122
 40
-345.7605457586862
 40
-345.7605457586862
 40
-336.9784057178541
 40
-336.9784057178541
 40
-332.5865510679166
 40
-332.5865510679166
 40
-328.1933281125219
 40
-328.1933281125219
 40
-319.3775794647755
 40
-319.3775794647755
 40
-310.5594804265825
 40
-310.5594804265825
 40
-301.7389713265995
 40
-301.7389713265995
 40
-297.3476126747227
 40
-297.3476126747227
 40
-292.9573988028746
 40
-292.9573988028746
 40
-288.5671588005825
 40
-288.5671588005825
 40
-284.1747406203797
 40
-284.1747406203797
 40
-275.3340304951626
 40
-275.3340304951626
 40
-270.9426325247557
 40
-270.9426325247557
 40
-269.0719490596804
 40
-269.0719490596804
 40
-260.3090594292943
 40
-260.3090594292943
 40
-190.2964044653063
 40
-190.2964044653063
 40
-120.2837497138796
 40
-120.2837497138796
 40
-68.78940214413032
 40
-68.78940214413032
 40
-51.26184834369309
 40
-51.26184834369309
 40
-34.73047040061048
 40
-34.73047040061048
 40
-25.96695063230927
 40
-25.96695063230927
 40
-17.19426698329747
 40
-17.19426698329747
 40
-8.759227640427751
 40
-8.759227640427751
 40
0.0
 40
0.0
 40
0.0
 40
0.0
 10
2142.427335238775
 20
794.5594953180032
 30
0.0
 10
2145.045535910795
 20
795.8417937028753
 30
0.0
 10
2147.201052441218
 20
797.706789496634
 30
0.0
 10
2149.994632471906
 20
800.9934441732393
 30
0.0
 10
2150.831162397673
 20
802.1460257200355
 30
0.0
 10
2152.416393534088
 20
804.5329436886037
 30
0.0
 10
2153.152656579536
 20
805.7556013620136
 30
0.0
 10
2155.228001321088
 20
809.5241364708269
 30
0.0
 10
2156.406915555366
 20
812.1159219066597
 30
0.0
 10
2158.541515371398
 20
817.4339856404878
 30
0.0
 10
2159.482056295914
 20
820.1305445862812
 30
0.0
 10
2162.025303670122
 20
828.0641823451444
 30
0.0
 10
2163.649509684645
 20
834.0776528603868
 30
0.0
 10
2166.630895008046
 20
844.8578193050597
 30
0.0
 10
2168.171589252684
 20
850.3666105984289
 30
0.0
 10
2172.77477596276
 20
866.89826746582
 30
0.0
 10
2175.834769984816
 20
877.9218137583919
 30
0.0
 10
2181.954390607945
 20
899.9690131668009
 30
0.0
 10
2185.012781646317
 20
910.9930058710949
 30
0.0
 10
2194.190117274982
 20
944.0980369436136
 30
0.0
 10
2200.305545612722
 20
966.1800483384986
 30
0.0
 10
2212.546663325247
 20
1010.341228042314
 30
0.0
 10
2218.669147691282
 20
1032.4212839704
 30
0.0
 10
2225.556072076539
 20
1057.259617077922
 30
0.0
 10
2226.320829713917
 20
1060.017806155436
 30
0.0
 10
2227.276764989099
 20
1063.465545765856
 30
0.0
 10
2227.467951455488
 20
1064.155093850845
 30
0.0
 10
2227.850356261322
 20
1065.53431008103
 30
0.0
 10
2228.035199357622
 20
1066.225655012348
 30
0.0
 10
2228.65262009015
 20
1068.285398368302
 30
0.0
 10
2229.137772524115
 20
1069.626491921855
 30
0.0
 10
2230.24951773143
 20
1072.270448047647
 30
0.0
 10
2230.868643362952
 20
1073.555676746461
 30
0.0
 10
2232.244669140615
 20
1076.072858883509
 30
0.0
 10
2232.993515370828
 20
1077.28743714512
 30
0.0
 10
2235.450443285092
 20
1080.840644375851
 30
0.0
 10
2237.294657334172
 20
1082.990035672494
 30
0.0
 10
2240.377502421696
 20
1086.009840905694
 30
0.0
 10
2241.440239297684
 20
1086.963085119752
 30
0.0
 10
2243.66032026631
 20
1088.777607550874
 30
0.0
 10
2244.806156862767
 20
1089.62986048087
 30
0.0
 10
2248.377610780721
 20
1092.047969645918
 30
0.0
 10
2250.858686403964
 20
1093.428047618336
 30
0.0
 10
2258.700806250301
 20
1097.007978956069
 30
0.0
 10
2264.260796644714
 20
1098.528174511531
 30
0.0
 10
2271.380863963081
 20
1099.364867789108
 30
0.0
 10
2272.805166544094
 20
1099.477653081446
 30
0.0
 10
2275.667811125881
 20
1099.595410606996
 30
0.0
 10
2277.098372407832
 20
1099.585955604858
 30
0.0
 10
2281.391755674471
 20
1099.595738787536
 30
0.0
 10
2284.253997141994
 20
1099.601842541968
 30
0.0
 10
2292.840725531954
 20
1099.618851145451
 30
0.0
 10
2298.565213491311
 20
1099.62845332904
 30
0.0
 10
2315.738689774724
 20
1099.651667920396
 30
0.0
 10
2327.187673321725
 20
1099.659099628754
 30
0.0
 10
2384.401016129028
 20
1099.667095030267
 30
0.0
 10
2430.165290848334
 20
1099.587745769417
 30
0.0
 10
2521.717444527494
 20
1099.583268456327
 30
0.0
 10
2567.50518058056
 20
1099.669998675429
 30
0.0
 10
2624.746661592348
 20
1099.659731338972
 30
0.0
 10
2636.200310411863
 20
1099.651464573389
 30
0.0
 10
2653.380783030843
 20
1099.628441953995
 30
0.0
 10
2659.107602450247
 20
1099.618997341483
 30
0.0
 10
2667.697828162298
 20
1099.60201181251
 30
0.0
 10
2670.561235562509
 20
1099.595880202259
 30
0.0
 10
2674.856601115698
 20
1099.585957169757
 30
0.0
 10
2676.287943059291
 20
1099.595143398898
 30
0.0
 10
2679.151944635199
 20
1099.474276883133
 30
0.0
 10
2680.576798015951
 20
1099.359354052129
 30
0.0
 10
2684.85726722304
 20
1098.856980511957
 30
0.0
 10
2687.650618579504
 20
1098.32511280533
 30
0.0
 10
2693.197731105378
 20
1096.785300072027
 30
0.0
 10
2695.866514389669
 20
1095.805074970957
 30
0.0
 10
2701.103108698928
 20
1093.413151432468
 30
0.0
 10
2703.587546255203
 20
1092.037225244419
 30
0.0
 10
2707.158477408499
 20
1089.614459802559
 30
0.0
 10
2708.303864693287
 20
1088.760557418612
 30
0.0
 10
2710.525089114504
 20
1086.945942872072
 30
0.0
 10
2711.590084686293
 20
1085.994341490018
 30
0.0
 10
2713.639657974985
 20
1083.988248693772
 30
0.0
 10
2714.613478071846
 20
1082.944253262097
 30
0.0
 10
2716.465066137345
 20
1080.752728772379
 30
0.0
 10
2717.332473885304
 20
1079.618305040546
 30
0.0
 10
2719.786945948759
 20
1076.059845543341
 30
0.0
 10
2721.150267983208
 20
1073.581917132084
 30
0.0
 10
2722.824035403544
 20
1069.595164605076
 30
0.0
 10
2723.307210904604
 20
1068.252972019001
 30
0.0
 10
2723.887681727065
 20
1066.290305231179
 30
0.0
 10
2724.705965068359
 20
1063.328949356066
 30
0.0
 10
2725.634274194512
 20
1059.980559897049
 30
0.0
 10
2726.399286655509
 20
1057.221230867814
 30
0.0
 10
2733.276581131831
 20
1032.415777151856
 30
0.0
 10
2739.389420864609
 20
1010.369807116003
 30
0.0
 10
2751.611329385836
 20
966.2768215563939
 30
0.0
 10
2757.718178748397
 20
944.229191356161
 30
0.0
 10
2768.325570892513
 20
905.9679969396415
 30
0.0
 10
2777.701654589648
 20
872.1687113589286
 30
0.0
 10
2783.750083428607
 20
850.4408434826697
 30
0.0
 10
2785.295034975854
 20
844.9257421821341
 30
0.0
 10
2788.258643909092
 20
834.198240726857
 30
0.0
 10
2789.926806178504
 20
828.0437216497986
 30
0.0
 10
2792.449143147838
 20
820.1659497585913
 30
0.0
 10
2793.390589247152
 20
817.4662123290929
 30
0.0
 10
2795.52504602995
 20
812.1407804583912
 30
0.0
 10
2796.705448797475
 20
809.5460138695098
 30
0.0
 10
2799.424206606902
 20
804.6083135140844
 30
0.0
 10
2801.076491389005
 20
802.0244191989344
 30
0.0
 10
2804.739160318026
 20
797.7098701338679
 30
0.0
 10
2806.89369745494
 20
795.8439492872034
 30
0.0
 10
2809.516311113941
 20
794.559497241992
 30
0.0
  0
LINE
  5
C8
330
1F
100
AcDbEntity
  8
2D
100
AcDbLine
 10
2809.516311113941
 20
794.559497241992
 30
0.0
 11
2855.826279931738
 21
794.5594949369795
 31
0.0
  0
LINE
  5
C9
330
1F
100
AcDbEntity
  8
2D
100
AcDbLine
 10
3357.386334660401
 20
292.9994332604072
 30
0.0
 11
3357.386335041425
 21
246.6894803031221
 31
0.0
  0
SPLINE
  5
CA
330
1F
100
AcDbEntity
  8
2D
100
AcDbSpline
210
0.0
220
0.0
230
1.0
 70
     8
 71
     3
 72
   114
 73
   110
 74
     0
 42
0.0000000001
 43
0.0000000001
 40
-1098.975988351533
 40
-1098.975988351533
 40
-1098.975988351533
 40
-1098.975988351533
 40
-1090.211722737956
 40
-1090.211722737956
 40
-1085.842116338954
 40
-1085.842116338954
 40
-1081.475241073796
 40
-1081.475241073796
 40
-1072.72274250269
 40
-1072.72274250269
 40
-1063.978533374381
 40
-1063.978533374381
 40
-1047.272469065752
 40
-1047.272469065752
 40
-1029.785121970388
 40
-1029.785121970388
 40
-994.8104174599089
 40
-994.8104174599089
 40
-959.8357145013447
 40
-959.8357145013447
 40
-889.7871756644615
 40
-889.7871756644615
 40
-819.7386368626986
 40
-819.7386368626986
 40
-810.9883767034338
 40
-810.9883767034338
 40
-808.8008116647288
 40
-808.8008116647288
 40
-806.6128668956062
 40
-806.6128668956062
 40
-802.228876806636
 40
-802.228876806636
 40
-797.8453066976664
 40
-797.8453066976664
 40
-793.4597657834606
 40
-793.4597657834606
 40
-784.6403323484949
 40
-784.6403323484949
 40
-780.2542512807762
 40
-780.2542512807762
 40
-775.8668524654847
 40
-775.8668524654847
 40
-767.0562973435023
 40
-767.0562973435023
 40
-749.4762042962032
 40
-749.4762042962032
 40
-745.084775798333
 40
-745.084775798333
 40
-740.6954259959041
 40
-740.6954259959041
 40
-731.9168629355507
 40
-731.9168629355507
 40
-714.3597339778942
 40
-714.3597339778942
 40
-679.2454745342424
 40
-679.2454745342424
 40
-538.8854349777364
 40
-538.8854349777364
 40
-398.4533960108086
 40
-398.4533960108086
 40
-363.3248258940904
 40
-363.3248258940904
 40
-345.7605453881535
 40
-345.7605453881535
 40
-336.9784053430342
 40
-336.9784053430342
 40
-332.5865506909428
 40
-332.5865506909428
 40
-328.1933277333709
 40
-328.1933277333709
 40
-319.3775790812924
 40
-319.3775790812924
 40
-310.5594800387612
 40
-310.5594800387612
 40
-301.7389709344358
 40
-301.7389709344358
 40
-297.3476122803749
 40
-297.3476122803749
 40
-292.9573984063479
 40
-292.9573984063479
 40
-288.5671584018992
 40
-288.5671584018992
 40
-284.1747402195285
 40
-284.1747402195285
 40
-275.3340300899351
 40
-275.3340300899351
 40
-270.9426321173797
 40
-270.9426321173797
 40
-269.0719489476127
 40
-269.0719489476127
 40
-260.3090593128572
 40
-260.3090593128572
 40
-190.2964043140734
 40
-190.2964043140734
 40
-120.2837495278317
 40
-120.2837495278317
 40
-68.78940187730566
 40
-68.78940187730566
 40
-51.26184806814022
 40
-51.26184806814022
 40
-34.73047041743127
 40
-34.73047041743127
 40
-25.96695064478359
 40
-25.96695064478359
 40
-17.19426699142187
 40
-17.19426699142187
 40
-8.759227644732492
 40
-8.759227644732492
 40
0.0
 40
0.0
 40
0.0
 40
0.0
 10
3357.386335041425
 20
246.6894803031221
 30
0.0
 10
3358.668633426347
 20
244.0712796310363
 30
0.0
 10
3360.533629220012
 20
241.915763100724
 30
0.0
 10
3363.820283896686
 20
239.1221830699816
 30
0.0
 10
3364.972865443488
 20
238.2856531442081
 30
0.0
 10
3367.359783412059
 20
236.70042200779
 30
0.0
 10
3368.582441085477
 20
235.964158962349
 30
0.0
 10
3372.350976194295
 20
233.8888142207819
 30
0.0
 10
3374.942761630144
 20
232.709899986517
 30
0.0
 10
3380.260825363985
 20
230.5753001704694
 30
0.0
 10
3382.957384309786
 20
229.6347592459609
 30
0.0
 10
3390.891022068969
 20
227.0915118716668
 30
0.0
 10
3396.904492583653
 20
225.4673058573056
 30
0.0
 10
3407.684659028659
 20
222.4859205337974
 30
0.0
 10
3413.193450322051
 20
220.9452262891666
 30
0.0
 10
3429.725107189497
 20
216.3420395790664
 30
0.0
 10
3440.748653482107
 20
213.2820455569985
 30
0.0
 10
3462.795852890591
 20
207.1624249338539
 30
0.0
 10
3473.81984559492
 20
204.1040338954716
 30
0.0
 10
3506.924876667479
 20
194.9266982667943
 30
0.0
 10
3529.006888062373
 20
188.8112699290554
 30
0.0
 10
3573.16806776611
 20
176.5701522165322
 30
0.0
 10
3595.248123694113
 20
170.4476678505082
 30
0.0
 10
3620.086456801557
 20
163.5607434652958
 30
0.0
 10
3622.844645879068
 20
162.7959858279159
 30
0.0
 10
3626.292385489487
 20
161.8400505527402
 30
0.0
 10
3626.981933574476
 20
161.6488640863578
 30
0.0
 10
3628.361149804659
 20
161.2664592805249
 30
0.0
 10
3629.052494735977
 20
161.0816161842247
 30
0.0
 10
3631.112238091933
 20
160.4641954516944
 30
0.0
 10
3632.45333164548
 20
159.9790430177079
 30
0.0
 10
3635.097287771263
 20
158.8672978103791
 30
0.0
 10
3636.382516470068
 20
158.2481721788456
 30
0.0
 10
3638.899698607114
 20
156.8721464011838
 30
0.0
 10
3640.11427686872
 20
156.1233001709628
 30
0.0
 10
3643.667484099424
 20
153.6663722566702
 30
0.0
 10
3645.816875396053
 20
151.8221582075752
 30
0.0
 10
3648.836680629254
 20
148.7393131200664
 30
0.0
 10
3649.789924843302
 20
147.6765762440751
 30
0.0
 10
3651.604447274414
 20
145.4564952754392
 30
0.0
 10
3652.456700204406
 20
144.3106586789719
 30
0.0
 10
3654.874809369448
 20
140.7392047610145
 30
0.0
 10
3656.254887341871
 20
138.2581291377774
 30
0.0
 10
3659.834818679523
 20
130.416009291358
 30
0.0
 10
3661.355014235021
 20
124.8560188970723
 30
0.0
 10
3662.191707512546
 20
117.7359515786297
 30
0.0
 10
3662.304492804891
 20
116.3116489976159
 30
0.0
 10
3662.422250330426
 20
113.4490044158222
 30
0.0
 10
3662.412795328277
 20
112.0184431338646
 30
0.0
 10
3662.422578510981
 20
107.7250598672212
 30
0.0
 10
3662.428682265421
 20
104.8628183996994
 30
0.0
 10
3662.44569086891
 20
96.27609000974012
 30
0.0
 10
3662.455293052477
 20
90.55160205038278
 30
0.0
 10
3662.478507643806
 20
73.37812576696656
 30
0.0
 10
3662.485939352173
 20
61.92914221996257
 30
0.0
 10
3662.493934753693
 20
4.715799412659869
 30
0.0
 10
3662.41458549285
 20
-41.04847530664551
 30
0.0
 10
3662.410108179749
 20
-132.6006289858064
 30
0.0
 10
3662.49683839886
 20
-178.3883650388758
 30
0.0
 10
3662.486571062393
 20
-235.6298460506088
 30
0.0
 10
3662.478304296801
 20
-247.0834948700672
 30
0.0
 10
3662.455281677398
 20
-264.2639674889676
 30
0.0
 10
3662.445837064883
 20
-269.9907869083445
 30
0.0
 10
3662.428851535922
 20
-278.581012620369
 30
0.0
 10
3662.422719925675
 20
-281.4444200205791
 30
0.0
 10
3662.412796893186
 20
-285.7397855737671
 30
0.0
 10
3662.421983122309
 20
-287.1711275173593
 30
0.0
 10
3662.301116606563
 20
-290.0351290932732
 30
0.0
 10
3662.186193775564
 20
-291.4599824740249
 30
0.0
 10
3661.683820235354
 20
-295.7404516811148
 30
0.0
 10
3661.151952528744
 20
-298.5338030375917
 30
0.0
 10
3659.612139795463
 20
-304.0809155634757
 30
0.0
 10
3658.631914694361
 20
-306.7496988477611
 30
0.0
 10
3656.239991155919
 20
-311.9862931570394
 30
0.0
 10
3654.864064967838
 20
-314.4707307132957
 30
0.0
 10
3652.441299525985
 20
-318.0416618665946
 30
0.0
 10
3651.58739714203
 20
-319.187049151385
 30
0.0
 10
3649.772782595486
 20
-321.4082735726087
 30
0.0
 10
3648.82118121344
 20
-322.4732691444047
 30
0.0
 10
3646.815088417177
 20
-324.5228424330761
 30
0.0
 10
3645.77109298552
 20
-325.4966625299547
 30
0.0
 10
3643.579568495796
 20
-327.3482505954486
 30
0.0
 10
3642.445144763955
 20
-328.2156583433995
 30
0.0
 10
3638.886685266752
 20
-330.6701304068861
 30
0.0
 10
3636.40875685549
 20
-332.0334524413246
 30
0.0
 10
3632.422004328469
 20
-333.7072198616447
 30
0.0
 10
3631.079811742391
 20
-334.1903953626923
 30
0.0
 10
3629.117145047428
 20
-334.7708661577192
 30
0.0
 10
3626.155788986198
 20
-335.5891495523191
 30
0.0
 10
3622.807399620458
 20
-336.5174586526077
 30
0.0
 10
3620.048070591223
 20
-337.2824711136089
 30
0.0
 10
3595.242616875261
 20
-344.1597655899243
 30
0.0
 10
3573.196646839409
 20
-350.2726053227021
 30
0.0
 10
3529.103661279802
 20
-362.4945138439355
 30
0.0
 10
3507.05603107957
 20
-368.6013632065037
 30
0.0
 10
3468.794836645673
 20
-379.2087553554323
 30
0.0
 10
3434.995551099742
 20
-388.5848390429119
 30
0.0
 10
3413.267683206108
 20
-394.6332678867096
 30
0.0
 10
3407.752581905563
 20
-396.178219433936
 30
0.0
 10
3397.025080544958
 20
-399.1418283410294
 30
0.0
 10
3390.8705612796
 20
-400.8099906665725
 30
0.0
 10
3382.99278948201
 20
-403.332327605938
 30
0.0
 10
3380.293052052511
 20
-404.2737737052498
 30
0.0
 10
3374.967620181807
 20
-406.4082304880456
 30
0.0
 10
3372.372853592926
 20
-407.5886332555585
 30
0.0
 10
3367.435153237617
 20
-410.3073910649589
 30
0.0
 10
3364.851258922252
 20
-411.9596758471512
 30
0.0
 10
3360.536709857308
 20
-415.6223447761425
 30
0.0
 10
3358.670789010608
 20
-417.7768819130139
 30
0.0
 10
3357.386336965414
 20
-420.3994955720417
 30
0.0
  0
LINE
  5
CB
330
1F
100
AcDbEntity
  8
2D
100
AcDbLine
 10
3357.386336965414
 20
-420.3994955720417
 30
0.0
 11
3357.386334660401
 21
-466.7094643898389
 31
0.0
  0
SPLINE
  5
CC
330
1F
100
AcDbEntity
  8
2D
100
AcDbSpline
210
0.0
220
0.0
230
1.0
 70
    12
 71
     3
 72
    33
 73
    29
 74
     0
 42
0.0000000001
 43
0.0000000001
 40
-750.2204953855714
 40
-750.2204953855714
 40
-750.2204953855714
 40
-750.2204953855714
 40
-747.3283180964953
 40
-744.4311734323725
 40
-741.5303316972737
 40
-738.6270745221824
 40
-735.7226912166548
 40
-732.8184750627905
 40
-729.9157195789676
 40
-727.0157147811351
 40
-724.119743469495
 40
-724.119743469495
 40
-724.119743469495
 40
-635.3638949041192
 40
-635.3638949041192
 40
-635.3638949041192
 40
-631.3191716905282
 40
-627.052702054505
 40
-622.6124107265078
 40
-618.0608863926734
 40
-613.4710403684725
 40
-608.9195147155191
 40
-604.4792210006812
 40
-600.2127483275822
 40
-596.1680218846129
 40
-596.1680218846129
 40
-596.1680218846129
 40
0.0
 40
0.0
 40
0.0
 40
0.0
 10
1636.924135674311
 20
-406.943783381209
 30
0.0
 41
1.0
 10
1637.856467873513
 20
-407.1775520131278
 30
0.0
 41
1.0
 10
1639.729181722581
 20
-407.6200018351383
 30
0.0
 41
1.0
 10
1642.557139690831
 20
-408.2070728683602
 30
0.0
 41
1.0
 10
1645.403620691104
 20
-408.7172806485514
 30
0.0
 41
1.0
 10
1648.265259648953
 20
-409.1498470476845
 30
0.0
 41
1.0
 10
1651.138684319732
 20
-409.5041853889425
 30
0.0
 41
1.0
 10
1654.020481474112
 20
-409.7798919933384
 30
0.0
 41
1.0
 10
1656.907234187493
 20
-409.9767505919999
 30
0.0
 41
1.0
 10
1659.795487392654
 20
-410.0947318831977
 30
0.0
 41
1.0
 10
1661.721404015581
 20
-410.1209280176454
 30
0.0
 41
1.0
 10
1662.683641228341
 20
-410.1209280176472
 30
0.0
 41
1.0
 10
1692.174327132863
 20
-410.1209280176472
 30
0.0
 41
1.0
 10
1721.665013037393
 20
-410.1209280176472
 30
0.0
 41
1.0
 10
1751.155698941911
 20
-410.1209280176472
 30
0.0
 41
1.0
 10
1752.499629103022
 20
-410.1209280176472
 30
0.0
 41
1.0
 10
1755.266246691281
 20
-409.8956010307675
 30
0.0
 41
1.0
 10
1759.393220094513
 20
-408.8484437408852
 30
0.0
 41
1.0
 10
1763.433586617914
 20
-407.0276019399143
 30
0.0
 41
1.0
 10
1767.173153938704
 20
-404.4472888534265
 30
0.0
 41
1.0
 10
1770.408522138881
 20
-401.1995593547626
 30
0.0
 41
1.0
 10
1772.979014119472
 20
-397.4457044801138
 30
0.0
 41
1.0
 10
1774.792925448211
 20
-393.3899012624797
 30
0.0
 41
1.0
 10
1775.836097048461
 20
-389.2471603220629
 30
0.0
 41
1.0
 10
1776.060566393993
 20
-386.4699726259869
 30
0.0
 41
1.0
 10
1776.060566393982
 20
-385.1209077928679
 30
0.0
 41
1.0
 10
1776.060566393982
 20
-186.2769750088255
 30
0.0
 41
1.0
 10
1776.060566393982
 20
12.56695777521509
 30
0.0
 41
1.0
 10
1776.060566393982
 20
211.4108905592576
 30
0.0
 41
1.0
  0
SPLINE
  5
CD
330
1F
100
AcDbEntity
  8
2D
100
AcDbSpline
210
0.0
220
0.0
230
1.0
 70
    12
 71
     3
 72
    30
 73
    26
 74
     0
 42
0.0000000001
 43
0.0000000001
 40
-153.6700009209576
 40
-153.6700009209576
 40
-153.6700009209576
 40
-153.6700009209576
 40
-149.6349152549057
 40
-145.3786119002612
 40
-140.9489018136981
 40
-136.4082249150605
 40
-131.8293189834048
 40
-127.2886434007407
 40
-122.8589356953281
 40
-118.6026353705226
 40
-114.5675529261506
 40
-114.5675529261506
 40
-114.5675529261506
 40
-26.03503402167589
 40
-26.03503402167589
 40
-26.03503402167589
 40
-23.14634376537705
 40
-20.25363376414977
 40
-17.35818320751342
 40
-14.46127846513079
 40
-11.56420938522244
 40
-8.668265567841187
 40
-5.774732640666373
 40
-2.884888565112584
 40
0.0
 40
0.0
 40
0.0
 40
0.0
 10
1776.060566393982
 20
211.4108905592576
 30
0.0
 41
1.0
 10
1776.060566393993
 20
212.7599553923785
 30
0.0
 41
1.0
 10
1775.836097048461
 20
215.5371430884509
 30
0.0
 41
1.0
 10
1774.792925448211
 20
219.6798840288677
 30
0.0
 41
1.0
 10
1772.979014119472
 20
223.7356872465054
 30
0.0
 41
1.0
 10
1770.408522138881
 20
227.4895421211543
 30
0.0
 41
1.0
 10
1767.173153938704
 20
230.7372716198181
 30
0.0
 41
1.0
 10
1763.433586617914
 20
233.317584706306
 30
0.0
 41
1.0
 10
1759.393220094524
 20
235.1384265072768
 30
0.0
 41
1.0
 10
1755.266246691273
 20
236.1855837971555
 30
0.0
 41
1.0
 10
1752.499629103033
 20
236.410910784037
 30
0.0
 41
1.0
 10
1751.155698941911
 20
236.410910784037
 30
0.0
 41
1.0
 10
1721.668935279482
 20
236.410910784037
 30
0.0
 41
1.0
 10
1692.182171617063
 20
236.410910784037
 30
0.0
 41
1.0
 10
1662.695407954641
 20
236.410910784037
 30
0.0
 41
1.0
 10
1661.733296767303
 20
236.410910784037
 30
0.0
 41
1.0
 10
1659.807633595141
 20
236.3847196265335
 30
0.0
 41
1.0
 10
1656.919761893681
 20
236.2667608728764
 30
0.0
 41
1.0
 10
1654.033393174621
 20
236.0699402215444
 30
0.0
 41
1.0
 10
1651.151981362171
 20
235.7942872076903
 30
0.0
 41
1.0
 10
1648.278942219702
 20
235.4400182585516
 30
0.0
 41
1.0
 10
1645.417687792531
 20
235.0075371333835
 30
0.0
 41
1.0
 10
1642.571589132582
 20
234.497430510309
 30
0.0
 41
1.0
 10
1639.744010107861
 20
233.9104764345896
 30
0.0
 41
1.0
 10
1637.871545980452
 20
233.4681150771678
 30
0.0
 41
1.0
 10
1636.939337763339
 20
233.2343932741124
 30
0.0
 41
1.0
  0
SPLINE
  5
CE
330
1F
100
AcDbEntity
  8
2D
100
AcDbSpline
210
0.0
220
0.0
230
1.0
 70
     8
 71
     3
 72
     8
 73
     4
 74
     0
 42
0.0000000001
 43
0.0000000001
 40
-281.3211851680524
 40
-281.3211851680524
 40
-281.3211851680524
 40
-281.3211851680524
 40
0.0
 40
0.0
 40
0.0
 40
0.0
 10
1636.939337763339
 20
233.2343932741124
 30
0.0
 10
1545.982154952195
 20
210.4242413434655
 30
0.0
 10
1455.021826092958
 20
187.6266296526044
 30
0.0
 10
1364.058356937981
 20
164.8415596432525
 30
0.0
  0
SPLINE
  5
CF
330
1F
100
AcDbEntity
  8
2D
100
AcDbSpline
210
0.0
220
0.0
230
1.0
 70
     8
 71
     3
 72
    12
 73
     8
 74
     0
 42
0.0000000001
 43
0.0000000001
 40
-53.44456392199188
 40
-53.44456392199188
 40
-53.44456392199188
 40
-53.44456392199188
 40
-46.58212145159082
 40
-39.78805087982511
 40
-26.54724326036703
 40
-12.93246673734173
 40
0.0
 40
0.0
 40
0.0
 40
0.0
 10
1364.058356937981
 20
164.8415596432525
 30
0.0
 10
1361.839117509262
 20
164.287337239107
 30
0.0
 10
1357.513216607302
 20
162.8212760461367
 30
0.0
 10
1349.571180731811
 20
158.599423912666
 30
0.0
 10
1341.106161244192
 20
151.0164366782167
 30
0.0
 10
1334.579838379654
 20
139.2439149826362
 30
0.0
 10
1333.088259652224
 20
130.3954477496147
 30
0.0
 10
1333.089993494115
 20
126.0849352356636
 30
0.0
  0
SPLINE
  5
D0
330
1F
100
AcDbEntity
  8
2D
100
AcDbSpline
210
0.0
220
0.0
230
1.0
 70
     8
 71
     3
 72
     8
 73
     4
 74
     0
 42
0.0000000001
 43
0.0000000001
 40
-212.9399471224039
 40
-212.9399471224039
 40
-212.9399471224039
 40
-212.9399471224039
 40
0.0
 40
0.0
 40
0.0
 40
0.0
 10
1333.089993494115
 20
126.0849352356636
 30
0.0
 10
1333.067940807836
 20
55.10495623081545
 30
0.0
 10
1333.055609569918
 20
-15.87502640362987
 30
0.0
 10
1333.052999781077
 20
-86.85500872978636
 30
0.0
  0
LINE
  5
D1
330
1F
100
AcDbEntity
  8
2D
100
AcDbLine
 10
1333.052999780943
 20
-86.85500861680794
 30
0.0
 11
1333.067965073893
 21
-299.7934930969391
 31
0.0
  0
SPLINE
  5
D2
330
1F
100
AcDbEntity
  8
2D
100
AcDbSpline
210
0.0
220
0.0
230
1.0
 70
     8
 71
     3
 72
    12
 73
     8
 74
     0
 42
0.0000000001
 43
0.0000000001
 40
-53.44388079559565
 40
-53.44388079559565
 40
-53.44388079559565
 40
-53.44388079559565
 40
-46.96293067045047
 40
-40.50956396517022
 40
-26.89574594603797
 40
-13.65392953143607
 40
0.0
 40
0.0
 40
0.0
 40
0.0
 10
1333.067965073893
 20
-299.7934930969391
 30
0.0
 10
1333.089417175262
 20
-301.9540672426801
 30
0.0
 10
1333.453892852624
 20
-306.2641333922629
 30
0.0
 10
1335.643465494952
 20
-314.8710959914943
 30
0.0
 10
1341.107967146701
 20
-324.7258315455701
 30
0.0
 10
1351.298434316002
 20
-333.8543498151639
 30
0.0
 10
1359.642591061132
 20
-337.4463247198337
 30
0.0
 10
1364.057794203683
 20
-338.5498115341752
 30
0.0
  0
SPLINE
  5
D3
330
1F
100
AcDbEntity
  8
2D
100
AcDbSpline
210
0.0
220
0.0
230
1.0
 70
     8
 71
     3
 72
     8
 73
     4
 74
     0
 42
0.0000000001
 43
0.0000000001
 40
-281.3072617646426
 40
-281.3072617646426
 40
-281.3072617646426
 40
-281.3072617646426
 40
0.0
 40
0.0
 40
0.0
 40
0.0
 10
1364.057794203683
 20
-338.5498115341752
 30
0.0
 10
1455.016452040163
 20
-361.3349884963895
 30
0.0
 10
1545.971901198747
 20
-384.1329796137954
 30
0.0
 10
1636.924135674311
 20
-406.943783381209
 30
0.0
  0
LINE
  5
D4
330
1F
100
AcDbEntity
  8
2D
100
AcDbLine
 10
2245.590167064282
 20
1051.898514640109
 30
0.0
 11
2245.701779739997
 21
1090.234712279106
 31
0.0
  0
LINE
  5
D5
330
1F
100
AcDbEntity
  8
2D
100
AcDbLine
 10
1337.218300901797
 20
-317.2366726591413
 30
0.0
 11
1298.882103262797
 21
-317.1250599834261
 31
0.0
  0
LINE
  5
D6
330
1F
100
AcDbEntity
  8
2D
100
AcDbLine
 10
2706.241881619004
 20
1090.23500553947
 30
0.0
 11
2706.353491514008
 21
1051.899796330391
 31
0.0
  0
LINE
  5
D7
330
1F
100
AcDbEntity
  8
2D
100
AcDbLine
 10
3614.725354363531
 20
143.5266484776191
 30
0.0
 11
3653.061552002528
 21
143.4150358019049
 31
0.0
  0
LINE
  5
D8
330
1F
100
AcDbEntity
  8
2D
100
AcDbLine
 10
2245.70177364632
 20
-1263.945029720991
 30
0.0
 11
2245.590163751316
 21
-1225.609820511912
 31
0.0
  0
LINE
  5
D9
330
1F
100
AcDbEntity
  8
2D
100
AcDbLine
 10
3199.779744314234
 20
236.3988315742106
 30
0.0
 11
3193.017663431623
 21
236.3001422931804
 31
0.0
  0
SPLINE
  5
DA
330
1F
100
AcDbEntity
  8
2D
100
AcDbSpline
210
0.0
220
0.0
230
1.0
 70
     8
 71
     3
 72
     8
 73
     4
 74
     0
 42
0.0000000001
 43
0.0000000001
 40
-1.894533806012603
 40
-1.894533806012603
 40
-1.894533806012603
 40
-1.894533806012603
 40
0.0
 40
0.0
 40
0.0
 40
0.0
 10
3193.017663431623
 20
236.3001422931804
 30
0.0
 10
3192.386220180782
 20
236.2908738829888
 30
0.0
 10
3191.754670970262
 20
236.2574777070052
 30
0.0
 10
3191.125771762352
 20
236.2000994119187
 30
0.0
  0
SPLINE
  5
DB
330
1F
100
AcDbEntity
  8
2D
100
AcDbSpline
210
0.0
220
0.0
230
1.0
 70
     8
 71
     3
 72
    12
 73
     8
 74
     0
 42
0.0000000001
 43
0.0000000001
 40
-36.93812985730353
 40
-36.93812985730353
 40
-36.93812985730353
 40
-36.93812985730353
 40
-32.39055734483583
 40
-27.79577549935274
 40
-18.47368212991706
 40
-9.214053060869285
 40
0.0
 40
0.0
 40
0.0
 40
0.0
 10
3191.125771762352
 20
236.2000994119187
 30
0.0
 10
3189.615909078493
 20
236.0631087332017
 30
0.0
 10
3186.607438734092
 20
235.5054754652006
 30
0.0
 10
3180.835254552083
 20
233.2929205566902
 30
0.0
 10
3174.559914011283
 20
228.55704644973
 30
0.0
 10
3169.617647642091
 20
220.5310306685819
 30
0.0
 10
3168.473500110562
 20
214.3741312573179
 30
0.0
 10
3168.474850737792
 20
211.3027636409022
 30
0.0
  0
LINE
  5
DC
330
1F
100
AcDbEntity
  8
2D
100
AcDbLine
 10
3168.474850737792
 20
211.3027636409022
 30
0.0
 11
3168.474850737792
 21
-385.0127947703339
 31
0.0
  0
SPLINE
  5
DD
330
1F
100
AcDbEntity
  8
2D
100
AcDbSpline
210
0.0
220
0.0
230
1.0
 70
     8
 71
     3
 72
    12
 73
     8
 74
     0
 42
0.0000000001
 43
0.0000000001
 40
-36.9379145128345
 40
-36.9379145128345
 40
-36.9379145128345
 40
-36.9379145128345
 40
-32.24526381394674
 40
-27.72387003999258
 40
-18.46424962045059
 40
-9.142164861349992
 40
0.0
 40
0.0
 40
0.0
 40
0.0
 10
3168.474850737792
 20
-385.0127947703339
 30
0.0
 10
3168.474227788691
 20
-386.5771719837837
 30
0.0
 10
3168.764058473993
 20
-389.6480007282632
 30
0.0
 10
3170.452119026861
 20
-395.5961490186753
 30
0.0
 10
3174.559779634023
 20
-402.2670096618283
 30
0.0
 10
3182.066751135782
 20
-407.9322251544988
 30
0.0
 10
3188.090729458152
 20
-409.6347460774912
 30
0.0
 10
3191.125591501092
 20
-409.9101076927608
 30
0.0
  0
SPLINE
  5
DE
330
1F
100
AcDbEntity
  8
2D
100
AcDbSpline
210
0.0
220
0.0
230
1.0
 70
     8
 71
     3
 72
     8
 73
     4
 74
     0
 42
0.0000000001
 43
0.0000000001
 40
-1.894716948154482
 40
-1.894716948154482
 40
-1.894716948154482
 40
-1.894716948154482
 40
0.0
 40
0.0
 40
0.0
 40
0.0
 10
3191.125591501092
 20
-409.9101076927608
 30
0.0
 10
3191.754551246049
 20
-409.9674943604409
 30
0.0
 10
3192.386159241694
 20
-410.0008964251899
 30
0.0
 10
3193.017663493592
 20
-410.0101684388741
 30
0.0
  0
LINE
  5
DF
330
1F
100
AcDbEntity
  8
2D
100
AcDbLine
 10
3193.017663493592
 20
-410.0101684388741
 30
0.0
 11
3199.779744314234
 21
-410.108862703585
 31
0.0
  0
LINE
  5
E0
330
1F
100
AcDbEntity
  8
2D
100
AcDbLine
 10
2799.225671297634
 20
-810.6629287723334
 30
0.0
 11
2799.126982016605
 21
-803.900847889723
 31
0.0
  0
SPLINE
  5
E1
330
1F
100
AcDbEntity
  8
2D
100
AcDbSpline
210
0.0
220
0.0
230
1.0
 70
     8
 71
     3
 72
     8
 73
     4
 74
     0
 42
0.0000000001
 43
0.0000000001
 40
-1.894533806008622
 40
-1.894533806008622
 40
-1.894533806008622
 40
-1.894533806008622
 40
0.0
 40
0.0
 40
0.0
 40
0.0
 10
2799.126982016605
 20
-803.900847889723
 30
0.0
 10
2799.117713606411
 20
-803.2694046388846
 30
0.0
 10
2799.084317430428
 20
-802.6378554283621
 30
0.0
 10
2799.026939135343
 20
-802.008956220452
 30
0.0
  0
SPLINE
  5
E2
330
1F
100
AcDbEntity
  8
2D
100
AcDbSpline
210
0.0
220
0.0
230
1.0
 70
     8
 71
     3
 72
    12
 73
     8
 74
     0
 42
0.0000000001
 43
0.0000000001
 40
-36.93812985730666
 40
-36.93812985730666
 40
-36.93812985730666
 40
-36.93812985730666
 40
-32.39055734483858
 40
-27.7957754993551
 40
-18.47368212991862
 40
-9.214053060870066
 40
0.0
 40
0.0
 40
0.0
 40
0.0
 10
2799.026939135343
 20
-802.008956220452
 30
0.0
 10
2798.889948456625
 20
-800.4990935365929
 30
0.0
 10
2798.332315188622
 20
-797.4906231921921
 30
0.0
 10
2796.119760280111
 20
-791.7184390101827
 30
0.0
 10
2791.383886173153
 20
-785.4430984693824
 30
0.0
 10
2783.357870392007
 20
-780.5008321001912
 30
0.0
 10
2777.200970980739
 20
-779.3566845686616
 30
0.0
 10
2774.129603364323
 20
-779.3580351958916
 30
0.0
  0
LINE
  5
E3
330
1F
100
AcDbEntity
  8
2D
100
AcDbLine
 10
2774.129603364323
 20
-779.3580351958916
 30
0.0
 11
2177.814044953091
 21
-779.3580351958916
 31
0.0
  0
SPLINE
  5
E4
330
1F
100
AcDbEntity
  8
2D
100
AcDbSpline
210
0.0
220
0.0
230
1.0
 70
     8
 71
     3
 72
    12
 73
     8
 74
     0
 42
0.0000000001
 43
0.0000000001
 40
-36.93791451283108
 40
-36.93791451283108
 40
-36.93791451283108
 40
-36.93791451283108
 40
-32.24526381394375
 40
-27.72387003999001
 40
-18.46424962044888
 40
-9.142164861349142
 40
0.0
 40
0.0
 40
0.0
 40
0.0
 10
2177.814044953091
 20
-779.3580351958916
 30
0.0
 10
2176.249667739641
 20
-779.3574122467905
 30
0.0
 10
2173.178838995162
 20
-779.6472429320927
 30
0.0
 10
2167.230690704746
 20
-781.3353034849604
 30
0.0
 10
2160.559830061597
 20
-785.4429640921223
 30
0.0
 10
2154.894614568926
 20
-792.9499355938822
 30
0.0
 10
2153.192093645932
 20
-798.9739139162518
 30
0.0
 10
2152.916732030662
 20
-802.0087759591914
 30
0.0
  0
SPLINE
  5
E5
330
1F
100
AcDbEntity
  8
2D
100
AcDbSpline
210
0.0
220
0.0
230
1.0
 70
     8
 71
     3
 72
     8
 73
     4
 74
     0
 42
0.0000000001
 43
0.0000000001
 40
-1.894716948162803
 40
-1.894716948162803
 40
-1.894716948162803
 40
-1.894716948162803
 40
0.0
 40
0.0
 40
0.0
 40
0.0
 10
2152.916732030662
 20
-802.0087759591914
 30
0.0
 10
2152.85934536298
 20
-802.63773570415
 30
0.0
 10
2152.825943298234
 20
-803.2693436997916
 30
0.0
 10
2152.816671284549
 20
-803.9008479516923
 30
0.0
  0
LINE
  5
E6
330
1F
100
AcDbEntity
  8
2D
100
AcDbLine
 10
2152.816671284549
 20
-803.9008479516923
 30
0.0
 11
2152.717977019838
 21
-810.6629287723334
 31
0.0
  0
LINE
  5
E7
330
1F
100
AcDbEntity
  8
2D
100
AcDbLine
 10
2142.575899622338
 20
-784.1403836133826
 30
0.0
 11
2096.269898103532
 21
-784.1388948857326
 31
0.0
  0
SPLINE
  5
E8
330
1F
100
AcDbEntity
  8
2D
100
AcDbSpline
210
0.0
220
0.0
230
1.0
 70
    12
 71
     3
 72
    31
 73
    27
 74
     0
 42
0.0000000001
 43
0.0000000001
 40
-613.4426407540229
 40
-613.4426407540229
 40
-613.4426407540229
 40
-613.4426407540229
 40
-611.5080646453616
 40
-611.5080646453616
 40
-611.5080646453616
 40
-504.2953677783255
 40
-504.2953677783255
 40
-504.2953677783255
 40
-501.3167024160432
 40
-501.3167024160432
 40
-501.3167024160432
 40
-321.328081548261
 40
-321.328081548261
 40
-321.328081548261
 40
-315.3707520206769
 40
-315.3707520206769
 40
-315.3707520206769
 40
-211.7260408717051
 40
-211.7260408717051
 40
-211.7260408717051
 40
-203.0238756157515
 40
-203.0238756157515
 40
-194.3530809245146
 40
-194.3530809245146
 40
-194.3530809245146
 40
0.0
 40
0.0
 40
0.0
 40
0.0
 10
2096.269898103532
 20
-784.1388948857326
 30
0.0
 41
1.0
 10
2096.170597315122
 20
-784.1367310763725
 30
0.0
 41
1.0
 10
2096.117371246371
 20
-784.3301620059696
 30
0.0
 41
1.0
 10
2096.117371246371
 20
-784.7303280476624
 30
0.0
 41
1.0
 10
2096.117369741092
 20
-806.3028087369019
 30
0.0
 41
1.0
 10
2096.117368235813
 20
-827.8752894261413
 30
0.0
 41
1.0
 10
2096.117366730534
 20
-849.4477701153698
 30
0.0
 41
1.0
 10
2096.117366320002
 20
-850.0471133580829
 30
0.0
 41
1.0
 10
2096.117365909471
 20
-850.6464566007924
 30
0.0
 41
1.0
 10
2096.11736549894
 20
-851.2457998435018
 30
0.0
 41
1.0
 10
2096.11736549894
 20
-887.4616686997103
 30
0.0
 41
1.0
 10
2096.117365498936
 20
-923.6775375559116
 30
0.0
 41
1.0
 10
2096.117365498936
 20
-959.8934064121202
 30
0.0
 41
1.0
 10
2096.117370607957
 20
-961.0920926463803
 30
0.0
 41
1.0
 10
2096.117375716978
 20
-962.2907788806513
 30
0.0
 41
1.0
 10
2096.117380825999
 20
-963.4894651149114
 30
0.0
 41
1.0
 10
2096.11738274181
 20
-984.3440233430917
 30
0.0
 41
1.0
 10
2096.11738465762
 20
-1005.198581571272
 30
0.0
 41
1.0
 10
2096.117386573431
 20
-1026.053139799453
 30
0.0
 41
1.0
 10
2096.117386573431
 20
-1027.826301055662
 30
0.0
 41
1.0
 10
2096.540245924225
 20
-1031.076475512331
 30
0.0
 41
1.0
 10
2098.087367640845
 20
-1039.559090142833
 30
0.0
 41
1.0
 10
2099.162230119255
 20
-1044.529318707442
 30
0.0
 41
1.0
 10
2100.389323481439
 20
-1049.578278713721
 30
0.0
 41
1.0
 10
2127.681620701471
 20
-1161.874320488692
 30
0.0
 41
1.0
 10
2154.973917921507
 20
-1274.170362263663
 30
0.0
 41
1.0
 10
2182.266215141542
 20
-1386.466404038623
 30
0.0
 41
1.0
  0
SPLINE
  5
E9
330
1F
100
AcDbEntity
  8
2D
100
AcDbSpline
210
0.0
220
0.0
230
1.0
 70
     8
 71
     3
 72
     8
 73
     4
 74
     0
 42
0.0000000001
 43
0.0000000001
 40
-1.217114044380082
 40
-1.217114044380082
 40
-1.217114044380082
 40
-1.217114044380082
 40
0.0
 40
0.0
 40
0.0
 40
0.0
 10
2182.266215141542
 20
-1386.466404038623
 30
0.0
 10
2182.362028000189
 20
-1386.860632633066
 30
0.0
 10
2182.460368302782
 20
-1387.254255526611
 30
0.0
 10
2182.561223943467
 20
-1387.647224263664
 30
0.0
  0
SPLINE
  5
EA
330
1F
100
AcDbEntity
  8
2D
100
AcDbSpline
210
0.0
220
0.0
230
1.0
 70
    12
 71
     3
 72
    14
 73
    10
 74
     0
 42
0.0000000001
 43
0.0000000001
 40
-528.1175762542225
 40
-528.1175762542225
 40
-528.1175762542225
 40
-528.1175762542225
 40
-402.7857201750591
 40
-402.7857201750591
 40
-402.7857201750591
 40
0.0
 40
0.0
 40
0.0
 40
125.3040922574979
 40
125.3040922574979
 40
125.3040922574979
 40
125.3040922574979
 10
2182.561223943468
 20
-1387.647224263664
 30
0.0
 41
0.9956227716042817
 10
2193.791061454228
 20
-1431.402586223258
 30
0.0000000000000063
 41
0.8574698667828086
 10
2229.482251989361
 20
-1459.030819762886
 30
0.0000000000000063
 41
0.8589289429147148
 10
2274.57896918022
 20
-1459.03081976288
 30
0.0
 41
1.0
 10
2408.840875905236
 20
-1459.03081976288
 30
0.0
 41
1.0
 10
2543.10278263022
 20
-1459.03081976288
 30
0.0
 41
1.0
 10
2677.364689355236
 20
-1459.03081976288
 30
0.0
 41
1.0
 10
2722.461406546101
 20
-1459.030819762887
 30
0.0000000000000073
 41
0.8589289429147172
 10
2758.152597081229
 20
-1431.402586223257
 30
0.0000000000000073
 41
0.8574698667828198
 10
2769.382434591993
 20
-1387.647224263664
 30
0.0
 41
0.995622771604307
  0
SPLINE
  5
EB
330
1F
100
AcDbEntity
  8
2D
100
AcDbSpline
210
0.0
220
0.0
230
1.0
 70
     8
 71
     3
 72
     8
 73
     4
 74
     0
 42
0.0000000001
 43
0.0000000001
 40
-1.21711404440551
 40
-1.21711404440551
 40
-1.21711404440551
 40
-1.21711404440551
 40
0.0
 40
0.0
 40
0.0
 40
0.0
 10
2769.382434591993
 20
-1387.647224263664
 30
0.0
 10
2769.483290232678
 20
-1387.254255526602
 30
0.0
 10
2769.581630535267
 20
-1386.86063263308
 30
0.0
 10
2769.677443393921
 20
-1386.466404038631
 30
0.0
  0
SPLINE
  5
EC
330
1F
100
AcDbEntity
  8
2D
100
AcDbSpline
210
0.0
220
0.0
230
1.0
 70
    12
 71
     3
 72
    31
 73
    27
 74
     0
 42
0.0000000001
 43
0.0000000001
 40
-611.6748735393332
 40
-611.6748735393332
 40
-611.6748735393332
 40
-611.6748735393332
 40
-417.8817977156763
 40
-417.8817977156763
 40
-417.8817977156763
 40
-409.2359409319121
 40
-409.2359409319121
 40
-400.5589715680782
 40
-400.5589715680782
 40
-400.5589715680782
 40
-297.212900227873
 40
-297.212900227873
 40
-297.212900227873
 40
-291.2727360310729
 40
-291.2727360310729
 40
-291.2727360310729
 40
-111.8027310174875
 40
-111.8027310174875
 40
-111.8027310174875
 40
-108.8326483223216
 40
-108.8326483223216
 40
-108.8326483223216
 40
-1.928871764343664
 40
-1.928871764343664
 40
-1.928871764343664
 40
0.0
 40
0.0
 40
0.0
 40
0.0
 10
2769.677443393921
 20
-1386.466404038631
 30
0.0
 41
1.0
 10
2796.969744701168
 20
-1274.170362263663
 30
0.0
 41
1.0
 10
2824.262046008414
 20
-1161.874320488692
 30
0.0
 41
1.0
 10
2851.554347315665
 20
-1049.578278713732
 30
0.0
 41
1.0
 10
2852.781451258161
 20
-1044.529275174001
 30
0.0
 41
1.0
 10
2853.85622270633
 20
-1039.55948420403
 30
0.0
 41
1.0
 10
2855.403375471651
 20
-1031.076793629661
 30
0.0
 41
1.0
 10
2855.826284223673
 20
-1027.826281402831
 30
0.0
 41
1.0
 10
2855.826284223673
 20
-1026.053139799453
 30
0.0
 41
1.0
 10
2855.826282307862
 20
-1005.198580519613
 30
0.0
 41
1.0
 10
2855.826280392052
 20
-984.3440212397725
 30
0.0
 41
1.0
 10
2855.826278476241
 20
-963.4894619599434
 30
0.0
 41
1.0
 10
2855.82627336722
 20
-962.2907757256833
 30
0.0
 41
1.0
 10
2855.826268258199
 20
-961.0920894914232
 30
0.0
 41
1.0
 10
2855.826263149182
 20
-959.8934032571522
 30
0.0
 41
1.0
 10
2855.826263149182
 20
-923.6775344009509
 30
0.0
 41
1.0
 10
2855.826263149182
 20
-887.4616655447423
 30
0.0
 41
1.0
 10
2855.826263149182
 20
-851.2457966885302
 30
0.0
 41
1.0
 10
2855.826263149182
 20
-850.6464535714001
 30
0.0
 41
1.0
 10
2855.826263149182
 20
-850.0471104542701
 30
0.0
 41
1.0
 10
2855.826263149182
 20
-849.44776733714
 30
0.0
 41
1.0
 10
2855.826265064992
 20
-827.8752875739808
 30
0.0
 41
1.0
 10
2855.826266980803
 20
-806.3028078108216
 30
0.0
 41
1.0
 10
2855.826268896613
 20
-784.7303280476624
 30
0.0
 41
1.0
 10
2855.826268896617
 20
-784.330184386016
 30
0.0
 41
1.0
 10
2855.773041463803
 20
-784.1367673480974
 30
0.0
 41
1.0
 10
2855.673741377675
 20
-784.1389131473621
 30
0.0
 41
1.0
  0
LINE
  5
ED
330
1F
100
AcDbEntity
  8
2D
100
AcDbLine
 10
2855.673741377675
 20
-784.1389131473621
 30
0.0
 11
2809.367748695076
 21
-784.1403836133826
 31
0.0
  0
LINE
  5
EE
330
1F
100
AcDbEntity
  8
2D
100
AcDbLine
 10
3653.061845262891
 20
-317.1250660771028
 30
0.0
 11
3614.726636053812
 21
-317.236675972107
 31
0.0
  0
SPLINE
  5
EF
330
1F
100
AcDbEntity
  8
2D
100
AcDbSpline
210
0.0
220
0.0
230
1.0
 70
    15
 71
     2
 72
    20
 73
    17
 74
     0
 42
0.0000000001
 43
0.0000000001
 40
-136.4346211837442
 40
-136.4346211837442
 40
-136.4346211837442
 40
-0.0000000014305967
 40
-0.0000000014305967
 40
467.3095781276118
 40
467.3095781276118
 40
603.7441993097478
 40
603.7441993097478
 40
1071.053777436415
 40
1071.053777436415
 40
1207.488398621082
 40
1207.488398621082
 40
1674.79797674737
 40
1674.79797674737
 40
1811.232597931097
 40
1811.232597931097
 40
2278.54217605653
 40
2278.54217605653
 40
2278.54217605653
 10
2243.168098727579
 20
236.1005567320336
 30
0.0
 41
0.9999999999956743
 10
2164.917106265347
 20
224.1997092768449
 30
-0.0000000000000025
 41
0.8053864672095807
 10
2153.016258809068
 20
145.9487168147654
 30
0.0
 41
1.0
 10
2117.610169026056
 20
-86.8550120920403
 30
0.0000000000000003
 41
0.9886318222813695
 10
2153.01625880933
 20
-319.6587409988161
 30
0.0
 41
1.0
 10
2164.917106264024
 20
-397.909733461225
 30
0.0000000000000061
 41
0.8053864672075789
 10
2243.168098726255
 20
-409.8105809170562
 30
0.0
 41
1.0
 10
2475.971827631872
 20
-445.2166706998348
 30
-0.0000000000000002
 41
0.9886318222814795
 10
2708.775556537486
 20
-409.8105809170562
 30
0.0
 41
1.0
 10
2787.026549001199
 20
-397.9097334611572
 30
-0.0000000000000045
 41
0.8053864672076823
 10
2798.927396456274
 20
-319.6587409973277
 30
0.0
 41
1.0
 10
2834.333486239163
 20
-86.85501209190545
 30
-0.0000000000000003
 41
0.988631822281371
 10
2798.927396456191
 20
145.9487168135105
 30
0.0
 41
1.0
 10
2787.026549000844
 20
224.1997092767858
 30
-0.0000000000000017
 41
0.8053864672072464
 10
2708.775556537581
 20
236.1005567321506
 30
0.0
 41
1.0
 10
2475.971827632576
 20
271.50664651478
 30
0.0000000000000002
 41
0.9886318222814813
 10
2243.168098727579
 20
236.1005567320336
 30
0.0
 41
1.0
  0
LINE
  5
F0
330
1F
100
AcDbEntity
  8
2D
100
AcDbLine
 10
3662.411695764571
 20
-86.92663306293821
 30
0.0
 11
3697.411589580563
 21
-86.92572994330317
 31
0.0
  0
SPLINE
  5
F1
330
1F
100
AcDbEntity
  8
2D
100
AcDbSpline
210
0.0
220
0.0
230
1.0
 70
     8
 71
     3
 72
    34
 73
    30
 74
     0
 42
0.0000000001
 43
0.0000000001
 40
-152.7202797098076
 40
-152.7202797098076
 40
-152.7202797098076
 40
-152.7202797098076
 40
-146.9742588423869
 40
-146.9742588423869
 40
-141.1868019344724
 40
-141.1868019344724
 40
-129.6246045168472
 40
-129.6246045168472
 40
-124.3542541148753
 40
-124.3542541148753
 40
-119.2037152669275
 40
-119.2037152669275
 40
-108.9086924283614
 40
-108.9086924283614
 40
-99.53178190224472
 40
-99.53178190224472
 40
-90.12976069247395
 40
-90.12976069247395
 40
-80.75924573652833
 40
-80.75924573652833
 40
-71.43781265914491
 40
-71.43781265914491
 40
-62.15500180551253
 40
-62.15500180551253
 40
-52.81052245824876
 40
-52.81052245824876
 40
-33.83551572006904
 40
-33.83551572006904
 40
0.0
 40
0.0
 40
0.0
 40
0.0
 10
3697.411589580563
 20
-86.92572994330317
 30
0.0
 10
3699.302029434442
 20
-86.92571068434285
 30
0.0
 10
3701.192463372186
 20
-86.92515436659903
 30
0.0
 10
3704.986967996887
 20
-86.91409607898828
 30
0.0
 10
3706.891036520719
 20
-86.90854707153417
 30
0.0
 10
3712.599058407774
 20
-86.89191224950167
 30
0.0
 10
3716.403011776067
 20
-86.8808281760263
 30
0.0
 10
3721.940906042608
 20
-86.86468612416377
 30
0.0
 10
3723.674826806026
 20
-86.85498917059901
 30
0.0
 10
3727.103332819108
 20
-86.85498464256668
 30
0.0
 10
3728.797876632678
 20
-86.8549903179601
 30
0.0
 10
3733.879516005945
 20
-86.85501290148764
 30
0.0
 10
3737.26661156561
 20
-86.85503047421346
 30
0.0
 10
3743.738740787136
 20
-86.8550598114869
 30
0.0
 10
3746.823774448989
 20
-86.85507329495543
 30
0.0
 10
3753.00210326822
 20
-86.85509937178041
 30
0.0
 10
3756.095398425598
 20
-86.85511196178682
 30
0.0
 10
3762.27162308172
 20
-86.85513595346188
 30
0.0
 10
3765.354552580462
 20
-86.85514736758178
 30
0.0
 10
3771.504263482359
 20
-86.85516902902538
 30
0.0
 10
3774.571044885513
 20
-86.85517938420872
 30
0.0
 10
3780.691900856244
 20
-86.85519811845641
 30
0.0
 10
3783.745975423812
 20
-86.85520728259344
 30
0.0
 10
3789.874413691323
 20
-86.85522016794746
 30
0.0
 10
3792.948777391171
 20
-86.85521974891721
 30
0.0
 10
3802.265979215455
 20
-86.85516117196133
 30
0.0
 10
3808.508817339702
 20
-86.85510723721781
 30
0.0
 10
3825.88364874442
 20
-86.85506481509914
 30
0.0
 10
3837.015642024602
 20
-86.85503763539738
 30
0.0
 10
3848.14763530478
 20
-86.85501045569686
 30
0.0
  0
LINE
  5
F2
330
1F
100
AcDbEntity
  8
2D
100
AcDbLine
 10
2475.900206660484
 20
-1273.294880222672
 30
0.0
 11
2475.901109780119
 21
-1308.294774038663
 31
0.0
  0
SPLINE
  5
F3
330
1F
100
AcDbEntity
  8
2D
100
AcDbSpline
210
0.0
220
0.0
230
1.0
 70
     8
 71
     3
 72
    34
 73
    30
 74
     0
 42
0.0000000001
 43
0.0000000001
 40
-152.7202797104221
 40
-152.7202797104221
 40
-152.7202797104221
 40
-152.7202797104221
 40
-146.9742588429914
 40
-146.9742588429914
 40
-141.1868019350384
 40
-141.1868019350384
 40
-129.6246045173693
 40
-129.6246045173693
 40
-124.3542541158557
 40
-124.3542541158557
 40
-119.2037152677321
 40
-119.2037152677321
 40
-108.9086924288206
 40
-108.9086924288206
 40
-99.53178190266965
 40
-99.53178190266965
 40
-90.12976069286519
 40
-90.12976069286519
 40
-80.75924573688943
 40
-80.75924573688943
 40
-71.43781265946775
 40
-71.43781265946775
 40
-62.15500180580694
 40
-62.15500180580694
 40
-52.81052245850001
 40
-52.81052245850001
 40
-33.83551572020784
 40
-33.83551572020784
 40
0.0
 40
0.0
 40
0.0
 40
0.0
 10
2475.901109780119
 20
-1308.294774038663
 30
0.0
 10
2475.901129039084
 20
-1310.185213892534
 30
0.0
 10
2475.901685356832
 20
-1312.075647830271
 30
0.0
 10
2475.91274364444
 20
-1315.870152454964
 30
0.0
 10
2475.918292651892
 20
-1317.7742209788
 30
0.0
 10
2475.934927473925
 20
-1323.482242865854
 30
0.0
 10
2475.946011547399
 20
-1327.286196234146
 30
0.0
 10
2475.962153599259
 20
-1332.824090500527
 30
0.0
 10
2475.971850552825
 20
-1334.558011263785
 30
0.0
 10
2475.971855080857
 20
-1337.986517276762
 30
0.0
 10
2475.971849405465
 20
-1339.681061090385
 30
0.0
 10
2475.971826821937
 20
-1344.762700463801
 30
0.0
 10
2475.971809249208
 20
-1348.149796023567
 30
0.0
 10
2475.971779911935
 20
-1354.621925245193
 30
0.0
 10
2475.971766428469
 20
-1357.706958907044
 30
0.0
 10
2475.971740351644
 20
-1363.885287726275
 30
0.0
 10
2475.971727761636
 20
-1366.978582883655
 30
0.0
 10
2475.971703769963
 20
-1373.154807539778
 30
0.0
 10
2475.971692355844
 20
-1376.237737038521
 30
0.0
 10
2475.971670694402
 20
-1382.387447940421
 30
0.0
 10
2475.971660339219
 20
-1385.454229343576
 30
0.0
 10
2475.971641604971
 20
-1391.575085314303
 30
0.0
 10
2475.971632440836
 20
-1394.629159881871
 30
0.0
 10
2475.971619555479
 20
-1400.757598149384
 30
0.0
 10
2475.971619974505
 20
-1403.831961849234
 30
0.0
 10
2475.971678551461
 20
-1413.149163673529
 30
0.0
 10
2475.971732486207
 20
-1419.392001797788
 30
0.0
 10
2475.971774908328
 20
-1436.766833202521
 30
0.0
 10
2475.971802088028
 20
-1447.8988264827
 30
0.0
 10
2475.971829267728
 20
-1459.03081976288
 30
0.0
  0
SPLINE
  5
F4
330
1F
100
AcDbEntity
  8
2D
100
AcDbSpline
210
0.0
220
0.0
230
1.0
 70
     8
 71
     3
 72
     8
 73
     4
 74
     0
 42
0.0000000001
 43
0.0000000001
 40
-5.939721802963525
 40
-5.939721802963525
 40
-5.939721802963525
 40
-5.939721802963525
 40
0.0
 40
0.0
 40
0.0
 40
0.0
 10
1760.817883502961
 20
-409.9101235937205
 30
0.0
 10
1762.671437487807
 20
-410.6060908442272
 30
0.0
 10
1764.503413009406
 20
-411.362475189239
 30
0.0
 10
1766.308058876406
 20
-412.1768989814927
 30
0.0
  0
SPLINE
  5
F5
330
1F
100
AcDbEntity
  8
2D
100
AcDbSpline
210
0.0
220
0.0
230
1.0
 70
     8
 71
     3
 72
     8
 73
     4
 74
     0
 42
0.0000000001
 43
0.0000000001
 40
-0.1501552434199661
 40
-0.1501552434199661
 40
-0.1501552434199661
 40
-0.1501552434199661
 40
0.0
 40
0.0
 40
0.0
 40
0.0
 10
1766.308058876406
 20
-412.1768989814927
 30
0.0
 10
1766.353625902098
 20
-412.1976070387177
 30
0.0
 10
1766.399170731842
 20
-412.2183639919573
 30
0.0
 10
1766.444693187113
 20
-412.2391698670476
 30
0.0
  0
SPLINE
  5
F6
330
1F
100
AcDbEntity
  8
2D
100
AcDbSpline
210
0.0
220
0.0
230
1.0
 70
     8
 71
     3
 72
     8
 73
     4
 74
     0
 42
0.0000000001
 43
0.0000000001
 40
-0.8252789005201843
 40
-0.8252789005201843
 40
-0.8252789005201843
 40
-0.8252789005201843
 40
0.0
 40
0.0
 40
0.0
 40
0.0
 10
1766.444693187113
 20
-412.2391698670476
 30
0.0
 10
1766.694897725374
 20
-412.3535107365336
 30
0.0
 10
1766.944430341893
 20
-412.4693335672126
 30
0.0
 10
1767.193264760874
 20
-412.586626245404
 30
0.0
  0
SPLINE
  5
F7
330
1F
100
AcDbEntity
  8
2D
100
AcDbSpline
210
0.0
220
0.0
230
1.0
 70
     8
 71
     3
 72
     8
 73
     4
 74
     0
 42
0.0000000001
 43
0.0000000001
 40
-0.1440171821954495
 40
-0.1440171821954495
 40
-0.1440171821954495
 40
-0.1440171821954495
 40
0.0
 40
0.0
 40
0.0
 40
0.0
 10
1767.193264760874
 20
-412.586626245404
 30
0.0
 10
1767.236688529851
 20
-412.6070939310763
 30
0.0
 10
1767.28008959131
 20
-412.6276098471135
 30
0.0
 10
1767.32346776791
 20
-412.6481740080972
 30
0.0
  0
SPLINE
  5
F8
330
1F
100
AcDbEntity
  8
2D
100
AcDbSpline
210
0.0
220
0.0
230
1.0
 70
     8
 71
     3
 72
     8
 73
     4
 74
     0
 42
0.0000000001
 43
0.0000000001
 40
-2.260536727637667
 40
-2.260536727637667
 40
-2.260536727637667
 40
-2.260536727637667
 40
0.0
 40
0.0
 40
0.0
 40
0.0
 10
1767.32346776791
 20
-412.6481740080972
 30
0.0
 10
1768.004503205444
 20
-412.9706200455602
 30
0.0
 10
1768.679751434232
 20
-413.30570979891
 30
0.0
 10
1769.348432882889
 20
-413.6530508759406
 30
0.0
  0
SPLINE
  5
F9
330
1F
100
AcDbEntity
  8
2D
100
AcDbSpline
210
0.0
220
0.0
230
1.0
 70
     8
 71
     3
 72
     8
 73
     4
 74
     0
 42
0.0000000001
 43
0.0000000001
 40
-0.1273043555198587
 40
-0.1273043555198587
 40
-0.1273043555198587
 40
-0.1273043555198587
 40
0.0
 40
0.0
 40
0.0
 40
0.0
 10
1769.348432882889
 20
-413.6530508759406
 30
0.0
 10
1769.386084142589
 20
-413.6726236544822
 30
0.0
 10
1769.423711675703
 20
-413.692242102288
 30
0.0
 10
1769.461315407068
 20
-413.7119061517858
 30
0.0
  0
SPLINE
  5
FA
330
1F
100
AcDbEntity
  8
2D
100
AcDbSpline
210
0.0
220
0.0
230
1.0
 70
     8
 71
     3
 72
     8
 73
     4
 74
     0
 42
0.0000000001
 43
0.0000000001
 40
-0.8261685768919388
 40
-0.8261685768919388
 40
-0.8261685768919388
 40
-0.8261685768919388
 40
0.0
 40
0.0
 40
0.0
 40
0.0
 10
1769.461315407068
 20
-413.7119061517858
 30
0.0
 10
1769.705311204838
 20
-413.8395990351614
 30
0.0
 10
1769.948385537187
 20
-413.9690684639855
 30
0.0
 10
1770.190499409026
 20
-414.1002944699349
 30
0.0
  0
SPLINE
  5
FB
330
1F
100
AcDbEntity
  8
2D
100
AcDbSpline
210
0.0
220
0.0
230
1.0
 70
     8
 71
     3
 72
     8
 73
     4
 74
     0
 42
0.0000000001
 43
0.0000000001
 40
-0.1171575481611725
 40
-0.1171575481611725
 40
-0.1171575481611725
 40
-0.1171575481611725
 40
0.0
 40
0.0
 40
0.0
 40
0.0
 10
1770.190499409026
 20
-414.1002944699349
 30
0.0
 10
1770.224829728995
 20
-414.1189097368198
 30
0.0
 10
1770.259137873825
 20
-414.1375659227144
 30
0.0
 10
1770.293423800413
 20
-414.1562629360151
 30
0.0
  0
SPLINE
  5
FC
330
1F
100
AcDbEntity
  8
2D
100
AcDbSpline
210
0.0
220
0.0
230
1.0
 70
     8
 71
     3
 72
     8
 73
     4
 74
     0
 42
0.0000000001
 43
0.0000000001
 40
-2.24791830219471
 40
-2.24791830219471
 40
-2.24791830219471
 40
-2.24791830219471
 40
0.0
 40
0.0
 40
0.0
 40
0.0
 10
1770.293423800413
 20
-414.1562629360151
 30
0.0
 10
1770.951436053008
 20
-414.5147034227415
 30
0.0
 10
1771.601414245168
 20
-414.888474663449
 30
0.0
 10
1772.242180512087
 20
-415.2769051277
 30
0.0
  0
SPLINE
  5
FD
330
1F
100
AcDbEntity
  8
2D
100
AcDbSpline
210
0.0
220
0.0
230
1.0
 70
     8
 71
     3
 72
     8
 73
     4
 74
     0
 42
0.0000000001
 43
0.0000000001
 40
-1.029466438887109
 40
-1.029466438887109
 40
-1.029466438887109
 40
-1.029466438887109
 40
0.0
 40
0.0
 40
0.0
 40
0.0
 10
1772.242180512087
 20
-415.2769051277
 30
0.0
 10
1772.535539848046
 20
-415.4549387854658
 30
0.0
 10
1772.826822387342
 20
-415.6364403088222
 30
0.0
 10
1773.11590703894
 20
-415.8213342207134
 30
0.0
  0
SPLINE
  5
FE
330
1F
100
AcDbEntity
  8
2D
100
AcDbSpline
210
0.0
220
0.0
230
1.0
 70
     8
 71
     3
 72
     8
 73
     4
 74
     0
 42
0.0000000001
 43
0.0000000001
 40
-0.8504382601743968
 40
-0.8504382601743968
 40
-0.8504382601743968
 40
-0.8504382601743968
 40
0.0
 40
0.0
 40
0.0
 40
0.0
 10
1773.11590703894
 20
-415.8213342207134
 30
0.0
 10
1773.354711588312
 20
-415.9740855812362
 30
0.0
 10
1773.591954778909
 20
-416.1293065355631
 30
0.0
 10
1773.827560316706
 20
-416.2869473049402
 30
0.0
  0
SPLINE
  5
FF
330
1F
100
AcDbEntity
  8
2D
100
AcDbSpline
210
0.0
220
0.0
230
1.0
 70
     8
 71
     3
 72
     8
 73
     4
 74
     0
 42
0.0000000001
 43
0.0000000001
 40
-0.0838420023706338
 40
-0.0838420023706338
 40
-0.0838420023706338
 40
-0.0838420023706338
 40
0.0
 40
0.0
 40
0.0
 40
0.0
 10
1773.827560316706
 20
-416.2869473049402
 30
0.0
 10
1773.850787824867
 20
-416.3024887447336
 30
0.0
 10
1773.873998583284
 20
-416.3180552395598
 30
0.0
 10
1773.897192504457
 20
-416.3336467910308
 30
0.0
  0
SPLINE
  5
100
330
1F
100
AcDbEntity
  8
2D
100
AcDbSpline
210
0.0
220
0.0
230
1.0
 70
     8
 71
     3
 72
     8
 73
     4
 74
     0
 42
0.0000000001
 43
0.0000000001
 40
-0.8555330369574782
 40
-0.8555330369574782
 40
-0.8555330369574782
 40
-0.8555330369574782
 40
0.0
 40
0.0
 40
0.0
 40
0.0
 10
1773.897192504457
 20
-416.3336467910308
 30
0.0
 10
1774.133876798478
 20
-416.4927281018691
 30
0.0
 10
1774.368831005704
 20
-416.6544155134657
 30
0.0
 10
1774.601969064293
 20
-416.818649962476
 30
0.0
  0
SPLINE
  5
101
330
1F
100
AcDbEntity
  8
2D
100
AcDbSpline
210
0.0
220
0.0
230
1.0
 70
     8
 71
     3
 72
     8
 73
     4
 74
     0
 42
0.0000000001
 43
0.0000000001
 40
-0.0785113573822735
 40
-0.0785113573822735
 40
-0.0785113573822735
 40
-0.0785113573822735
 40
0.0
 40
0.0
 40
0.0
 40
0.0
 10
1774.601969064293
 20
-416.818649962476
 30
0.0
 10
1774.623363773539
 20
-416.8337217573163
 30
0.0
 10
1774.644742401291
 20
-416.8488163991368
 30
0.0
 10
1774.666104872857
 20
-416.8639338834835
 30
0.0
  0
SPLINE
  5
102
330
1F
100
AcDbEntity
  8
2D
100
AcDbSpline
210
0.0
220
0.0
230
1.0
 70
     8
 71
     3
 72
     8
 73
     4
 74
     0
 42
0.0000000001
 43
0.0000000001
 40
-0.8615680167700569
 40
-0.8615680167700569
 40
-0.8615680167700569
 40
-0.8615680167700569
 40
0.0
 40
0.0
 40
0.0
 40
0.0
 10
1774.666104872857
 20
-416.8639338834835
 30
0.0
 10
1774.900544192849
 20
-417.0298131527005
 30
0.0
 10
1775.133065877388
 20
-417.1984385421371
 30
0.0
 10
1775.363573017559
 20
-417.3697399569983
 30
0.0
  0
SPLINE
  5
103
330
1F
100
AcDbEntity
  8
2D
100
AcDbSpline
210
0.0
220
0.0
230
1.0
 70
     8
 71
     3
 72
     8
 73
     4
 74
     0
 42
0.0000000001
 43
0.0000000001
 40
-0.073133143321685
 40
-0.073133143321685
 40
-0.073133143321685
 40
-0.073133143321685
 40
0.0
 40
0.0
 40
0.0
 40
0.0
 10
1775.363573017559
 20
-417.3697399569983
 30
0.0
 10
1775.383139173282
 20
-417.3842808824372
 30
0.0
 10
1775.402690082472
 20
-417.3988423398158
 30
0.0
 10
1775.422225683702
 20
-417.4134243197318
 30
0.0
  0
SPLINE
  5
104
330
1F
100
AcDbEntity
  8
2D
100
AcDbSpline
210
0.0
220
0.0
230
1.0
 70
     8
 71
     3
 72
     8
 73
     4
 74
     0
 42
0.0000000001
 43
0.0000000001
 40
-0.8685883903552485
 40
-0.8685883903552485
 40
-0.8685883903552485
 40
-0.8685883903552485
 40
0.0
 40
0.0
 40
0.0
 40
0.0
 10
1775.422225683702
 20
-417.4134243197318
 30
0.0
 10
1775.654258984676
 20
-417.5865943749519
 30
0.0
 10
1775.88416645605
 20
-417.7626531251267
 30
0.0
 10
1776.111839212492
 20
-417.941517392642
 30
0.0
  0
SPLINE
  5
105
330
1F
100
AcDbEntity
  8
2D
100
AcDbSpline
210
0.0
220
0.0
230
1.0
 70
    12
 71
     2
 72
     6
 73
     3
 74
     0
 42
0.0000000001
 43
0.0000000001
 40
-2.844443702012541
 40
-2.844443702012541
 40
-2.844443702012541
 40
0.0
 40
0.0
 40
0.0
 10
1776.111839212492
 20
-417.941517392642
 30
0.0
 41
1.0
 10
1777.231986505816
 20
-418.8198267395165
 30
0.0
 41
0.9990032041083025
 10
1778.269333171621
 20
-419.7945416506491
 30
0.0
 41
0.9999999999992435
  0
SPLINE
  5
106
330
1F
100
AcDbEntity
  8
2D
100
AcDbSpline
210
0.0
220
0.0
230
1.0
 70
     8
 71
     3
 72
     8
 73
     4
 74
     0
 42
0.0000000001
 43
0.0000000001
 40
-0.0512505010708161
 40
-0.0512505010708161
 40
-0.0512505010708161
 40
-0.0512505010708161
 40
0.0
 40
0.0
 40
0.0
 40
0.0
 10
1778.269333171622
 20
-419.7945416506491
 30
0.0
 10
1778.28177118814
 20
-419.8062523949514
 30
0.0
 10
1778.294199462409
 20
-419.817973497969
 30
0.0
 10
1778.306617962087
 20
-419.829704936622
 30
0.0
  0
SPLINE
  5
107
330
1F
100
AcDbEntity
  8
2D
100
AcDbSpline
210
0.0
220
0.0
230
1.0
 70
     8
 71
     3
 72
     8
 73
     4
 74
     0
 42
0.0000000001
 43
0.0000000001
 40
-0.4271193919787771
 40
-0.4271193919787771
 40
-0.4271193919787771
 40
-0.4271193919787771
 40
0.0
 40
0.0
 40
0.0
 40
0.0
 10
1778.306617962087
 20
-419.829704936622
 30
0.0
 10
1778.410121658322
 20
-419.9274653149012
 30
0.0
 10
1778.512906796765
 20
-420.0259939137741
 30
0.0
 10
1778.614915477789
 20
-420.1253353918853
 30
0.0
  0
SPLINE
  5
108
330
1F
100
AcDbEntity
  8
2D
100
AcDbSpline
210
0.0
220
0.0
230
1.0
 70
    12
 71
     3
 72
    39
 73
    35
 74
     0
 42
0.0000000001
 43
0.0000000001
 40
0.0
 40
0.0
 40
0.0
 40
0.0
 40
0.3718871541871193
 40
1.484505835598485
 40
2.509639432502528
 40
2.509639432502528
 40
2.509639432502528
 40
105.7037713316985
 40
105.7037713316985
 40
105.7037713316985
 40
108.5707892692925
 40
108.5707892692925
 40
108.5707892692925
 40
281.8130455123275
 40
281.8130455123275
 40
281.8130455123275
 40
287.5470813875206
 40
287.5470813875206
 40
287.5470813875206
 40
387.3069638929909
 40
387.3069638929909
 40
387.3069638929909
 40
389.0631702395356
 40
390.8794307272199
 40
392.743803613671
 40
394.6418319223419
 40
396.5569466238236
 40
398.4711668590562
 40
400.3660568311867
 40
402.2238192438653
 40
404.0283522347524
 40
404.0283522347524
 40
404.0283522347524
 40
566.7252206391472
 40
566.7252206391472
 40
566.7252206391472
 40
566.7252206391472
 10
1778.614915477789
 20
-420.1253353918853
 30
0.0
 41
1.0
 10
1778.642195277091
 20
-420.1518810627595
 30
0.0
 41
1.0
 10
1778.720309192144
 20
-420.2504651763602
 30
0.0
 41
1.0
 10
1778.640053723993
 20
-420.3668796860266
 30
0.0
 41
1.0
 10
1778.310813340442
 20
-420.3994968680172
 30
0.0
 41
1.0
 10
1778.096511675762
 20
-420.3994968680245
 30
0.0
 41
1.0
 10
1756.524031429333
 20
-420.3994968631787
 30
0.0
 41
1.0
 10
1734.951551182901
 20
-420.3994968583311
 30
0.0
 41
1.0
 10
1713.379070936473
 20
-420.3994968534835
 30
0.0
 41
1.0
 10
1712.779727814534
 20
-420.3994968521647
 30
0.0
 41
1.0
 10
1712.180384692583
 20
-420.3994968508459
 30
0.0
 41
1.0
 10
1711.581041570644
 20
-420.3994968495253
 30
0.0
 41
1.0
 10
1675.365172613543
 20
-420.3994968218367
 30
0.0
 41
1.0
 10
1639.149303656453
 20
-420.3994967941426
 30
0.0
 41
1.0
 10
1602.933434699353
 20
-420.3994967664485
 30
0.0
 41
1.0
 10
1601.734748465093
 20
-420.3995018754676
 30
0.0
 41
1.0
 10
1600.536062230833
 20
-420.3995069844887
 30
0.0
 41
1.0
 10
1599.337375996573
 20
-420.3995120935078
 30
0.0
 41
1.0
 10
1578.482817305703
 20
-420.3995121273647
 30
0.0
 41
1.0
 10
1557.628258614841
 20
-420.3995121612215
 30
0.0
 41
1.0
 10
1536.773699923971
 20
-420.3995121950766
 30
0.0
 41
1.0
 10
1536.406569293664
 20
-420.3995121950766
 30
0.0
 41
1.0
 10
1535.523173076603
 20
-420.3622875311348
 30
0.0
 41
1.0
 10
1533.784902318213
 20
-420.1916067722786
 30
0.0
 41
1.0
 10
1531.620618695943
 20
-419.8999252410586
 30
0.0
 41
1.0
 10
1529.069760629933
 20
-419.4887982142982
 30
0.0
 41
1.0
 10
1526.196529695993
 20
-418.9669326129015
 30
0.0
 41
1.0
 10
1523.085267118971
 20
-418.3496800992807
 30
0.0
 41
1.0
 10
1519.831912998801
 20
-417.6574744540712
 30
0.0
 41
1.0
 10
1516.535698721793
 20
-416.9139588747175
 30
0.0
 41
1.0
 10
1514.331811921013
 20
-416.3908473274942
 30
0.0
 41
1.0
 10
1513.248561009692
 20
-416.1275752870779
 30
0.0
 41
1.0
 10
1415.582574578384
 20
-392.3908598282341
 30
0.0
 41
1.0
 10
1317.916588147076
 20
-368.6541443693939
 30
0.0
 41
1.0
 10
1220.250601715714
 20
-344.9174289108328
 30
0.0
 41
1.0
  0
SPLINE
  5
109
330
1F
100
AcDbEntity
  8
2D
100
AcDbSpline
210
0.0
220
0.0
230
1.0
 70
     8
 71
     3
 72
     8
 73
     4
 74
     0
 42
0.0000000001
 43
0.0000000001
 40
-31.36680624864745
 40
-31.36680624864745
 40
-31.36680624864745
 40
-31.36680624864745
 40
0.0
 40
0.0
 40
0.0
 40
0.0
 10
1220.250601715714
 20
-344.9174289108328
 30
0.0
 10
1210.090725976785
 20
-342.4483116830864
 30
0.0
 10
1199.930855072645
 20
-339.9791745593896
 30
0.0
 10
1189.770989004188
 20
-337.5100175400885
 30
0.0
  0
SPLINE
  5
10A
330
1F
100
AcDbEntity
  8
2D
100
AcDbSpline
210
0.0
220
0.0
230
1.0
 70
    12
 71
     3
 72
    91
 73
    87
 74
     0
 42
0.0000000001
 43
0.0000000001
 40
0.0
 40
0.0
 40
0.0
 40
0.0
 40
2.24261358326981
 40
4.485230646469963
 40
6.727847709669414
 40
8.970464772869567
 40
11.21308183606902
 40
13.17131946839975
 40
15.12955710073119
 40
17.08779473306192
 40
19.04603236539265
 40
21.00426999772338
 40
22.96250763005481
 40
24.92074526238625
 40
26.87898289471628
 40
28.83722052704771
 40
30.79545815937844
 40
32.75369579170918
 40
34.71193342404061
 40
36.67017105637134
 40
38.62840868870207
 40
40.58664632103281
 40
42.54488395336424
 40
44.50312158569497
 40
44.50312158569497
 40
44.50312158569497
 40
351.947323380281
 40
351.947323380281
 40
351.947323380281
 40
353.9055610126117
 40
355.8637986449431
 40
357.8220362772739
 40
359.7802739096046
 40
361.7385115419353
 40
363.6967491742668
 40
365.6549868065975
 40
367.6132244389282
 40
369.5714620712596
 40
371.5296997035904
 40
373.4879373359211
 40
375.4461749682525
 40
377.4044126005833
 40
379.362650232914
 40
381.3208878652447
 40
383.2791254975755
 40
385.2373631299069
 40
387.4799801931063
 40
389.7225972563065
 40
391.965214319506
 40
394.2078313827062
 40
396.4504484459056
 40
398.6930655091057
 40
400.9356825723052
 40
403.1782996355046
 40
405.4209166987048
 40
407.6635337619049
 40
409.9061508251044
 40
412.1487678883046
 40
414.391384951504
 40
416.6340020147042
 40
416.6340020147042
 40
416.6340020147042
 40
649.3169845307494
 40
649.3169845307494
 40
649.3169845307494
 40
651.8977602789377
 40
654.5546627599385
 40
657.264663691069
 40
660.0023100431885
 40
662.7412356275598
 40
665.455724890505
 40
668.1220814244283
 40
670.7196294009293
 40
673.2312901856682
 40
673.2312901856682
 40
673.2312901856682
 40
815.9041516475617
 40
815.9041516475617
 40
815.9041516475617
 40
824.1047557931626
 40
824.1047557931626
 40
824.1047557931626
 40
1071.869366277383
 40
1071.869366277383
 40
1071.869366277383
 40
1075.969669174039
 40
1075.969669174039
 40
1075.969669174039
 40
1075.969669174039
 10
1189.770989004188
 20
-337.5100175400885
 30
0.0
 41
1.0
 10
1188.639957018793
 20
-337.2395134449854
 30
0.0
 41
1.0
 10
1186.369009919363
 20
-336.7114928727337
 30
0.0
 41
1.0
 10
1183.027447208991
 20
-335.7413815378213
 30
0.0
 41
1.0
 10
1179.755492342381
 20
-334.5244941211213
 30
0.0
 41
1.0
 10
1176.570407667801
 20
-333.0803419911199
 30
0.0
 41
1.0
 10
1173.679262342062
 20
-331.5252021092683
 30
0.0
 41
1.0
 10
1170.797774644132
 20
-329.7162305539541
 30
0.0
 41
1.0
 10
1168.220959969611
 20
-327.8524798025692
 30
0.0
 41
1.0
 10
1165.759338158292
 20
-325.8242065091572
 30
0.0
 41
1.0
 10
1163.435792447923
 20
-323.6466639566579
 30
0.0
 41
1.0
 10
1161.242255486231
 20
-321.3102031127391
 30
0.0
 41
1.0
 10
1159.217990379831
 20
-318.8583167357001
 30
0.0
 41
1.0
 10
1157.335616304372
 20
-316.2558198538836
 30
0.0
 41
1.0
 10
1155.643637064943
 20
-313.5709662456657
 30
0.0
 41
1.0
 10
1154.111879793891
 20
-310.7589170571746
 30
0.0
 41
1.0
 10
1152.769580989603
 20
-307.8682503177579
 30
0.0
 41
1.0
 10
1151.611257875444
 20
-304.8914457679139
 30
0.0
 41
1.0
 10
1150.646178586401
 20
-301.848691321492
 30
0.0
 41
1.0
 10
1149.877746034053
 20
-298.7552949249193
 30
0.0
 41
1.0
 10
1149.306853780192
 20
-295.6105434172032
 30
0.0
 41
1.0
 10
1148.938276105724
 20
-292.4463509101888
 30
0.0
 41
1.0
 10
1148.772529083202
 20
-289.2459406709431
 30
0.0
 41
1.0
 10
1148.796018127461
 20
-287.1222210141977
 30
0.0
 41
1.0
 10
1148.796019960544
 20
-286.0591169718764
 30
0.0
 41
1.0
 10
1148.796019960551
 20
-153.2570578976638
 30
0.0
 41
1.0
 10
1148.796019960533
 20
-20.45259169729343
 30
0.0
 41
1.0
 10
1148.796019960544
 20
112.3490690841493
 30
0.0
 41
1.0
 10
1148.796019081172
 20
113.4121695113238
 30
0.0
 41
1.0
 10
1148.772531916522
 20
115.5358820432041
 30
0.0
 41
1.0
 10
1148.938281990642
 20
118.7362807150087
 30
0.0
 41
1.0
 10
1149.306862905123
 20
121.9004609403776
 30
0.0
 41
1.0
 10
1149.877758601902
 20
125.0451993973413
 30
0.0
 41
1.0
 10
1150.646194766232
 20
128.138582102288
 30
0.0
 41
1.0
 10
1151.611277835993
 20
131.1813222174653
 30
0.0
 41
1.0
 10
1152.769604882164
 20
134.1581118625538
 30
0.0
 41
1.0
 10
1154.111907741571
 20
137.0487632306315
 30
0.0
 41
1.0
 10
1155.643669203542
 20
139.8607965329713
 30
0.0
 41
1.0
 10
1157.335652694273
 20
142.5456340261146
 30
0.0
 41
1.0
 10
1159.218031154513
 20
145.1481142869154
 30
0.0
 41
1.0
 10
1161.242300665122
 20
147.599983969317
 30
0.0
 41
1.0
 10
1163.435842111823
 20
149.936427812306
 30
0.0
 41
1.0
 10
1165.759392306234
 20
152.1139533675625
 30
0.0
 41
1.0
 10
1168.221018618053
 20
154.1422096013041
 30
0.0
 41
1.0
 10
1170.797837770944
 20
156.0059433769341
 30
0.0
 41
1.0
 10
1173.679330229912
 20
157.8148968849775
 30
0.0
 41
1.0
 10
1176.570480099494
 20
159.3700195428639
 30
0.0
 41
1.0
 10
1179.755569538484
 20
160.8141536128417
 30
0.0
 41
1.0
 10
1183.027529060233
 20
162.0310233837147
 30
0.0
 41
1.0
 10
1186.369098008574
 20
163.0011181263828
 30
0.0
 41
1.0
 10
1189.775525771413
 20
163.793132704893
 30
0.0
 41
1.0
 10
1193.155309215683
 20
164.6241118005194
 30
0.0
 41
1.0
 10
1196.545163376511
 20
165.4453594951513
 30
0.0
 41
1.0
 10
1199.930768232403
 20
166.2688344699375
 30
0.0
 41
1.0
 10
1203.322980333982
 20
167.0930384014021
 30
0.0
 41
1.0
 10
1206.695822332822
 20
167.9127663218744
 30
0.0
 41
1.0
 10
1210.093457757612
 20
168.7384545523594
 30
0.0
 41
1.0
 10
1213.477116592654
 20
169.5607601678851
 30
0.0
 41
1.0
 10
1216.868842466611
 20
170.3850192141501
 30
0.0
 41
1.0
 10
1219.122839482992
 20
170.9327857841629
 30
0.0
 41
1.0
 10
1220.250732338292
 20
171.206885883031
 30
0.0
 41
1.0
 10
1317.916675228764
 20
194.9437663884703
 30
0.0
 41
1.0
 10
1415.582618119231
 20
218.6806468939114
 30
0.0
 41
1.0
 10
1513.248561009692
 20
242.417527399349
 30
0.0
 41
1.0
 10
1514.331811921013
 20
242.6807994397634
 30
0.0
 41
1.0
 10
1516.535698721793
 20
243.2039109869904
 30
0.0
 41
1.0
 10
1519.831912998801
 20
243.9474265663405
 30
0.0
 41
1.0
 10
1523.085267118982
 20
244.6396322115536
 30
0.0
 41
1.0
 10
1526.196529695993
 20
245.256884725178
 30
0.0
 41
1.0
 10
1529.069760629944
 20
245.7787503265711
 30
0.0
 41
1.0
 10
1531.620618695953
 20
246.1898773533314
 30
0.0
 41
1.0
 10
1533.784902318213
 20
246.4815588845479
 30
0.0
 41
1.0
 10
1535.523173076592
 20
246.6522396434077
 30
0.0
 41
1.0
 10
1536.406569293664
 20
246.6894643073495
 30
0.0
 41
1.0
 10
1536.773699923971
 20
246.6894643073495
 30
0.0
 41
1.0
 10
1557.628257211913
 20
246.689463888438
 30
0.0
 41
1.0
 10
1578.482814499854
 20
246.6894634695229
 30
0.0
 41
1.0
 10
1599.337371787802
 20
246.6894630506097
 30
0.0
 41
1.0
 10
1600.536058022062
 20
246.689468159627
 30
0.0
 41
1.0
 10
1601.734744256322
 20
246.6894732686462
 30
0.0
 41
1.0
 10
1602.933430490582
 20
246.6894783776636
 30
0.0
 41
1.0
 10
1639.149300904654
 20
246.6894787760496
 30
0.0
 41
1.0
 10
1675.365171318732
 20
246.6894791744355
 30
0.0
 41
1.0
 10
1711.581041732814
 20
246.6894795728178
 30
0.0
 41
1.0
 10
1712.180384849944
 20
246.6894795728178
 30
0.0
 41
1.0
 10
1712.779727967074
 20
246.689479572816
 30
0.0
 41
1.0
 10
1713.379071084208
 20
246.6894795728164
 30
0.0
 41
1.0
  0
SPLINE
  5
10B
330
1F
100
AcDbEntity
  8
2D
100
AcDbSpline
210
0.0
220
0.0
230
1.0
 70
    12
 71
     3
 72
    13
 73
     9
 74
     0
 42
0.0000000001
 43
0.0000000001
 40
0.0
 40
0.0
 40
0.0
 40
0.0
 40
63.99854076328645
 40
63.99854076328645
 40
63.99854076328645
 40
64.63430418424173
 40
65.32432376924939
 40
65.55475978694722
 40
65.55475978694722
 40
65.55475978694722
 40
65.55475978694722
 10
1713.379071084208
 20
246.6894795728164
 30
0.0
 41
1.0
 10
1734.951551281392
 20
246.6894795933451
 30
0.0
 41
1.0
 10
1756.524031478573
 20
246.6894796138779
 30
0.0
 41
1.0
 10
1778.096511675762
 20
246.6894796344125
 30
0.0
 41
1.0
 10
1778.310813340431
 20
246.6894796344088
 30
0.0
 41
1.0
 10
1778.640053723993
 20
246.6568624524218
 30
0.0
 41
1.0
 10
1778.720298903503
 20
246.5404628669323
 30
0.0
 41
1.0
 10
1778.642229129971
 20
246.441906559415
 30
0.0
 41
1.0
 10
1778.614975940414
 20
246.4153980523134
 30
0.0
 41
1.0
  0
SPLINE
  5
10C
330
1F
100
AcDbEntity
  8
2D
100
AcDbSpline
210
0.0
220
0.0
230
1.0
 70
     8
 71
     3
 72
    10
 73
     6
 74
     0
 42
0.0000000001
 43
0.0000000001
 40
-20.6638980025258
 40
-20.6638980025258
 40
-20.6638980025258
 40
-20.6638980025258
 40
-10.31422035986131
 40
-10.31422035986131
 40
0.0
 40
0.0
 40
0.0
 40
0.0
 10
1778.614975940414
 20
246.4153980523134
 30
0.0
 10
1776.138504158
 20
244.0065306495321
 30
0.0
 10
1773.255954770262
 20
242.0580009034444
 30
0.0
 10
1767.239597055606
 20
238.78485983131
 30
0.0
 10
1764.007276650267
 20
237.4075607641174
 30
0.0
 10
1760.818063764233
 20
236.2000835112805
 30
0.0
  0
SPLINE
  5
10D
330
1F
100
AcDbEntity
  8
2D
100
AcDbSpline
210
0.0
220
0.0
230
1.0
 70
     8
 71
     3
 72
     8
 73
     4
 74
     0
 42
0.0000000001
 43
0.0000000001
 40
-281.3211851680598
 40
-281.3211851680598
 40
-281.3211851680598
 40
-281.3211851680598
 40
0.0
 40
0.0
 40
0.0
 40
0.0
 10
3315.004317501982
 20
-406.9444174556346
 30
0.0
 10
3405.961500313133
 20
-384.1342655249869
 30
0.0
 10
3496.921829172363
 20
-361.3366538341267
 30
0.0
 10
3587.885298327343
 20
-338.5515838247746
 30
0.0
  0
SPLINE
  5
10E
330
1F
100
AcDbEntity
  8
2D
100
AcDbSpline
210
0.0
220
0.0
230
1.0
 70
     8
 71
     3
 72
    12
 73
     8
 74
     0
 42
0.0000000001
 43
0.0000000001
 40
-53.44456392199287
 40
-53.44456392199287
 40
-53.44456392199287
 40
-53.44456392199287
 40
-46.58212145159168
 40
-39.78805087982585
 40
-26.54724326036751
 40
-12.93246673734197
 40
0.0
 40
0.0
 40
0.0
 40
0.0
 10
3587.885298327343
 20
-338.5515838247746
 30
0.0
 10
3590.104537756062
 20
-337.997361420629
 30
0.0
 10
3594.430438658022
 20
-336.5313002276587
 30
0.0
 10
3602.372474533513
 20
-332.3094480941879
 30
0.0
 10
3610.837494021132
 20
-324.7264608597386
 30
0.0
 10
3617.363816885671
 20
-312.9539391641581
 30
0.0
 10
3618.8553956131
 20
-304.1054719311367
 30
0.0
 10
3618.853661771238
 20
-299.7949594171855
 30
0.0
  0
SPLINE
  5
10F
330
1F
100
AcDbEntity
  8
2D
100
AcDbSpline
210
0.0
220
0.0
230
1.0
 70
     8
 71
     3
 72
     8
 73
     4
 74
     0
 42
0.0000000001
 43
0.0000000001
 40
-212.9399471224039
 40
-212.9399471224039
 40
-212.9399471224039
 40
-212.9399471224039
 40
0.0
 40
0.0
 40
0.0
 40
0.0
 10
3618.853661771238
 20
-299.7949594171855
 30
0.0
 10
3618.875714457547
 20
-228.8149804123371
 30
0.0
 10
3618.888045695472
 20
-157.8349977778917
 30
0.0
 10
3618.890655484302
 20
-86.8550154517358
 30
0.0
  0
LINE
  5
110
330
1F
100
AcDbEntity
  8
2D
100
AcDbLine
 10
3618.890655484382
 20
-86.85501556471422
 30
0.0
 11
3618.875690191431
 21
126.0834689154178
 31
0.0
  0
SPLINE
  5
111
330
1F
100
AcDbEntity
  8
2D
100
AcDbSpline
210
0.0
220
0.0
230
1.0
 70
     8
 71
     3
 72
    12
 73
     8
 74
     0
 42
0.0000000001
 43
0.0000000001
 40
-53.44388079558897
 40
-53.44388079558897
 40
-53.44388079558897
 40
-53.44388079558897
 40
-46.96293067044461
 40
-40.50956396516516
 40
-26.89574594603462
 40
-13.65392953143436
 40
0.0
 40
0.0
 40
0.0
 40
0.0
 10
3618.875690191431
 20
126.0834689154178
 30
0.0
 10
3618.854238090062
 20
128.2440430611582
 30
0.0
 10
3618.489762412701
 20
132.554109210741
 30
0.0
 10
3616.300189770373
 20
141.1610718099723
 30
0.0
 10
3610.835688118623
 20
151.0158073640482
 30
0.0
 10
3600.645220949322
 20
160.144325633642
 30
0.0
 10
3592.301064204192
 20
163.7363005383118
 30
0.0
 10
3587.885861061641
 20
164.839787352653
 30
0.0
  0
SPLINE
  5
112
330
1F
100
AcDbEntity
  8
2D
100
AcDbSpline
210
0.0
220
0.0
230
1.0
 70
     8
 71
     3
 72
     8
 73
     4
 74
     0
 42
0.0000000001
 43
0.0000000001
 40
-281.3072617646391
 40
-281.3072617646391
 40
-281.3072617646391
 40
-281.3072617646391
 40
0.0
 40
0.0
 40
0.0
 40
0.0
 10
3587.885861061641
 20
164.839787352653
 30
0.0
 10
3496.927203225161
 20
187.6249643148681
 30
0.0
 10
3405.971754066577
 20
210.4229554322745
 30
0.0
 10
3315.019519591013
 20
233.2337591996877
 30
0.0
  0
SPLINE
  5
113
330
1F
100
AcDbEntity
  8
2D
100
AcDbSpline
210
0.0
220
0.0
230
1.0
 70
    12
 71
     3
 72
    33
 73
    29
 74
     0
 42
0.0000000001
 43
0.0000000001
 40
-750.2204953855475
 40
-750.2204953855475
 40
-750.2204953855475
 40
-750.2204953855475
 40
-747.3283180964714
 40
-744.4311734323486
 40
-741.5303316972501
 40
-738.6270745221588
 40
-735.7226912166312
 40
-732.8184750627671
 40
-729.9157195789442
 40
-727.0157147811118
 40
-724.1197434694719
 40
-724.1197434694719
 40
-724.1197434694719
 40
-635.3638949040989
 40
-635.3638949040989
 40
-635.3638949040989
 40
-631.3191716905079
 40
-627.0527020544849
 40
-622.612410726488
 40
-618.0608863926536
 40
-613.4710403684529
 40
-608.9195147154996
 40
-604.4792210006618
 40
-600.2127483275631
 40
-596.1680218845939
 40
-596.1680218845939
 40
-596.1680218845939
 40
0.0
 40
0.0
 40
0.0
 40
0.0
 10
3315.019519591013
 20
233.2337591996877
 30
0.0
 41
1.0
 10
3314.087187391811
 20
233.4675278316058
 30
0.0
 41
1.0
 10
3312.214473542743
 20
233.9099776536164
 30
0.0
 41
1.0
 10
3309.386515574493
 20
234.4970486868383
 30
0.0
 41
1.0
 10
3306.54003457422
 20
235.0072564670295
 30
0.0
 41
1.0
 10
3303.678395616371
 20
235.4398228661626
 30
0.0
 41
1.0
 10
3300.804970945592
 20
235.7941612074205
 30
0.0
 41
1.0
 10
3297.923173791212
 20
236.0698678118165
 30
0.0
 41
1.0
 10
3295.036421077832
 20
236.266726410478
 30
0.0
 41
1.0
 10
3292.14816787267
 20
236.3847077016758
 30
0.0
 41
1.0
 10
3290.222251249743
 20
236.4109038361235
 30
0.0
 41
1.0
 10
3289.260014036983
 20
236.4109038361253
 30
0.0
 41
1.0
 10
3259.769328132461
 20
236.4109038361253
 30
0.0
 41
1.0
 10
3230.278642227931
 20
236.4109038361253
 30
0.0
 41
1.0
 10
3200.787956323413
 20
236.4109038361253
 30
0.0
 41
1.0
 10
3199.444026162302
 20
236.4109038361253
 30
0.0
 41
1.0
 10
3196.677408574044
 20
236.1855768492455
 30
0.0
 41
1.0
 10
3192.550435170811
 20
235.1384195593632
 30
0.0
 41
1.0
 10
3188.510068647411
 20
233.3175777583924
 30
0.0
 41
1.0
 10
3184.77050132662
 20
230.7372646719045
 30
0.0
 41
1.0
 10
3181.535133126443
 20
227.4895351732407
 30
0.0
 41
1.0
 10
3178.964641145853
 20
223.7356802985919
 30
0.0
 41
1.0
 10
3177.150729817113
 20
219.6798770809578
 30
0.0
 41
1.0
 10
3176.107558216863
 20
215.537136140541
 30
0.0
 41
1.0
 10
3175.883088871331
 20
212.759948444465
 30
0.0
 41
1.0
 10
3175.883088871342
 20
211.410883611346
 30
0.0
 41
1.0
 10
3175.883088871342
 20
12.56695082730357
 30
0.0
 41
1.0
 10
3175.883088871342
 20
-186.276981956737
 30
0.0
 41
1.0
 10
3175.883088871342
 20
-385.1209147407798
 30
0.0
 41
1.0
  0
SPLINE
  5
114
330
1F
100
AcDbEntity
  8
2D
100
AcDbSpline
210
0.0
220
0.0
230
1.0
 70
    12
 71
     3
 72
    30
 73
    26
 74
     0
 42
0.0000000001
 43
0.0000000001
 40
-153.6700009209355
 40
-153.6700009209355
 40
-153.6700009209355
 40
-153.6700009209355
 40
-149.6349152548842
 40
-145.3786119002403
 40
-140.9489018136779
 40
-136.408224915041
 40
-131.8293189833859
 40
-127.2886434007224
 40
-122.8589356953105
 40
-118.6026353705056
 40
-114.5675529261341
 40
-114.5675529261341
 40
-114.5675529261341
 40
-26.03503402167216
 40
-26.03503402167216
 40
-26.03503402167216
 40
-23.14634376537373
 40
-20.25363376414686
 40
-17.35818320751093
 40
-14.46127846512872
 40
-11.56420938522078
 40
-8.668265567839944
 40
-5.774732640665545
 40
-2.884888565112171
 40
0.0
 40
0.0
 40
0.0
 40
0.0
 10
3175.883088871342
 20
-385.1209147407798
 30
0.0
 41
1.0
 10
3175.883088871331
 20
-386.4699795739004
 30
0.0
 41
1.0
 10
3176.107558216863
 20
-389.2471672699728
 30
0.0
 41
1.0
 10
3177.150729817113
 20
-393.3899082103896
 30
0.0
 41
1.0
 10
3178.964641145853
 20
-397.4457114280274
 30
0.0
 41
1.0
 10
3181.535133126443
 20
-401.1995663026762
 30
0.0
 41
1.0
 10
3184.77050132662
 20
-404.44729580134
 30
0.0
 41
1.0
 10
3188.510068647411
 20
-407.0276088878279
 30
0.0
 41
1.0
 10
3192.5504351708
 20
-408.8484506887987
 30
0.0
 41
1.0
 10
3196.677408574051
 20
-409.8956079786774
 30
0.0
 41
1.0
 10
3199.444026162291
 20
-410.1209349655589
 30
0.0
 41
1.0
 10
3200.787956323413
 20
-410.1209349655589
 30
0.0
 41
1.0
 10
3230.274719985842
 20
-410.1209349655589
 30
0.0
 41
1.0
 10
3259.761483648261
 20
-410.1209349655589
 30
0.0
 41
1.0
 10
3289.248247310683
 20
-410.1209349655589
 30
0.0
 41
1.0
 10
3290.210358498021
 20
-410.1209349655589
 30
0.0
 41
1.0
 10
3292.136021670183
 20
-410.0947438080555
 30
0.0
 41
1.0
 10
3295.023893371643
 20
-409.9767850543983
 30
0.0
 41
1.0
 10
3297.910262090703
 20
-409.7799644030663
 30
0.0
 41
1.0
 10
3300.791673903153
 20
-409.5043113892123
 30
0.0
 41
1.0
 10
3303.664713045622
 20
-409.1500424400735
 30
0.0
 41
1.0
 10
3306.525967472793
 20
-408.7175613149054
 30
0.0
 41
1.0
 10
3309.372066132742
 20
-408.2074546918309
 30
0.0
 41
1.0
 10
3312.199645157463
 20
-407.6205006161115
 30
0.0
 41
1.0
 10
3314.072109284873
 20
-407.1781392586897
 30
0.0
 41
1.0
 10
3315.004317501982
 20
-406.9444174556346
 30
0.0
 41
1.0
  0
ENDSEC
  0
SECTION
  2
OBJECTS
  0
DICTIONARY
  5
C
330
0
100
AcDbDictionary
281
     1
  3
ACAD_GROUP
350
D
  3
ACAD_LAYOUT
350
1A
  3
ACAD_MLEADERSTYLE
350
116
  3
ACAD_MLINESTYLE
350
17
  3
ACAD_PLOTSETTINGS
350
19
  3
ACAD_PLOTSTYLENAME
350
E
  3
ACAD_TABLESTYLE
350
115
  3
ACAD_VISUALSTYLE
350
2A
  0
DICTIONARY
  5
D
102
{ACAD_REACTORS
330
C
102
}
330
C
100
AcDbDictionary
281
     1
  0
DICTIONARY
  5
1A
102
{ACAD_REACTORS
330
C
102
}
330
C
100
AcDbDictionary
281
     1
  3
Layout1
350
1E
  3
Layout2
350
26
  3
Model
350
22
  0
DICTIONARY
  5
116
102
{ACAD_REACTORS
330
C
102
}
330
C
100
AcDbDictionary
281
     1
  0
DICTIONARY
  5
17
102
{ACAD_REACTORS
330
C
102
}
330
C
100
AcDbDictionary
281
     1
  3
Standard
350
18
  0
DICTIONARY
  5
19
102
{ACAD_REACTORS
330
C
102
}
330
C
100
AcDbDictionary
281
     1
  0
ACDBDICTIONARYWDFLT
  5
E
102
{ACAD_REACTORS
330
C
102
}
330
C
100
AcDbDictionary
281
     1
  3
Normal
350
F
100
AcDbDictionaryWithDefault
340
F
  0
DICTIONARY
  5
115
102
{ACAD_REACTORS
330
C
102
}
330
C
100
AcDbDictionary
281
     1
  0
DICTIONARY
  5
2A
102
{ACAD_REACTORS
330
C
102
}
330
C
100
AcDbDictionary
281
     1
  3
2dWireframe
350
2F
  3
3D Hidden
350
31
  3
3dWireframe
350
30
  3
Basic
350
32
  3
Brighten
350
36
  3
ColorChange
350
3A
  3
Conceptual
350
34
  3
Dim
350
35
  3
Facepattern
350
39
  3
Flat
350
2B
  3
FlatWithEdges
350
2C
  3
Gouraud
350
2D
  3
GouraudWithEdges
350
2E
  3
Linepattern
350
38
  3
Realistic
350
33
  3
Thicken
350
37
  0
LAYOUT
  5
1E
102
{ACAD_REACTORS
330
1A
102
}
330
1A
100
AcDbPlotSettings
  1

  2
none_device
  4

  6

 40
0.0
 41
0.0
 42
0.0
 43
0.0
 44
0.0
 45
0.0
 46
0.0
 47
0.0
 48
0.0
 49
0.0
140
0.0
141
0.0
142
1.0
143
1.0
 70
   688
 72
     0
 73
     0
 74
     5
  7

 75
    16
 76
     0
 77
     2
 78
   300
147
1.0
148
0.0
149
0.0
100
AcDbLayout
  1
Layout1
 70
     1
 71
     1
 10
0.0
 20
0.0
 11
12.0
 21
9.0
 12
0.0
 22
0.0
 32
0.0
 14
1.000000000000000E+20
 24
1.000000000000000E+20
 34
1.000000000000000E+20
 15
-1.000000000000000E+20
 25
-1.000000000000000E+20
 35
-1.000000000000000E+20
146
0.0
 13
0.0
 23
0.0
 33
0.0
 16
1.0
 26
0.0
 36
0.0
 17
0.0
 27
1.0
 37
0.0
 76
     0
330
1B
  0
LAYOUT
  5
26
102
{ACAD_REACTORS
330
1A
102
}
330
1A
100
AcDbPlotSettings
  1

  2
none_device
  4

  6

 40
0.0
 41
0.0
 42
0.0
 43
0.0
 44
0.0
 45
0.0
 46
0.0
 47
0.0
 48
0.0
 49
0.0
140
0.0
141
0.0
142
1.0
143
1.0
 70
   688
 72
     0
 73
     0
 74
     5
  7

 75
    16
 76
     0
 77
     2
 78
   300
147
1.0
148
0.0
149
0.0
100
AcDbLayout
  1
Layout2
 70
     1
 71
     2
 10
0.0
 20
0.0
 11
0.0
 21
0.0
 12
0.0
 22
0.0
 32
0.0
 14
0.0
 24
0.0
 34
0.0
 15
0.0
 25
0.0
 35
0.0
146
0.0
 13
0.0
 23
0.0
 33
0.0
 16
1.0
 26
0.0
 36
0.0
 17
0.0
 27
1.0
 37
0.0
 76
     0
330
23
  0
LAYOUT
  5
22
102
{ACAD_REACTORS
330
1A
102
}
330
1A
100
AcDbPlotSettings
  1

  2
none_device
  4

  6

 40
0.0
 41
0.0
 42
0.0
 43
0.0
 44
0.0
 45
0.0
 46
0.0
 47
0.0
 48
0.0
 49
0.0
140
0.0
141
0.0
142
1.0
143
1.0
 70
  1712
 72
     0
 73
     0
 74
     0
  7

 75
     0
 76
     0
 77
     2
 78
   300
147
1.0
148
0.0
149
0.0
100
AcDbLayout
  1
Model
 70
     1
 71
     0
 10
0.0
 20
0.0
 11
12.0
 21
9.0
 12
0.0
 22
0.0
 32
0.0
 14
1103.796019960544
 24
-1459.03081976288
 34
-0.000000000000002
 15
3848.14763530478
 25
1285.320795581358
 35
0.000000000000007
146
0.0
 13
0.0
 23
0.0
 33
0.0
 16
1.0
 26
0.0
 36
0.0
 17
0.0
 27
1.0
 37
0.0
 76
     0
330
1F
331
29
  0
MLINESTYLE
  5
18
102
{ACAD_REACTORS
330
17
102
}
330
17
100
AcDbMlineStyle
  2
Standard
 70
     0
  3

 62
   256
 51
90.0
 52
90.0
 71
     2
 49
0.5
 62
   256
  6
BYLAYER
 49
-0.5
 62
   256
  6
BYLAYER
  0
ACDBPLACEHOLDER
  5
F
102
{ACAD_REACTORS
330
E
102
}
330
E
  0
VISUALSTYLE
  5
2F
102
{ACAD_REACTORS
330
2A
102
}
330
2A
100
AcDbVisualStyle
  2
2dWireframe
 70
     4
 71
     0
 72
     2
 73
     0
 90
        0
 40
-0.6
 41
-30.0
 62
     5
 63
     7
421
 16777215
 74
     1
 91
        4
 64
     7
 65
   257
 75
     1
175
     1
 42
1.0
 92
        0
 66
   257
 43
1.0
 76
     1
 77
     6
 78
     2
 67
     7
 79
     5
170
     0
171
     0
290
     0
174
     0
 93
        1
 44
0.0
173
     0
291
     0
 45
0.0
1001
ACAD
1000
AcDbSavedByObjectVersion
1070
     0
  0
VISUALSTYLE
  5
31
102
{ACAD_REACTORS
330
2A
102
}
330
2A
100
AcDbVisualStyle
  2
3D Hidden
 70
     6
 71
     1
 72
     2
 73
     2
 90
        0
 40
-0.6
 41
-30.0
 62
     5
 63
     7
421
 16777215
 74
     2
 91
        2
 64
     7
 65
   257
 75
     2
175
     1
 42
40.0
 92
        0
 66
   257
 43
1.0
 76
     1
 77
     6
 78
     2
 67
     7
 79
     3
170
     0
171
     0
290
     0
174
     0
 93
        1
 44
0.0
173
     0
291
     0
 45
0.0
1001
ACAD
1000
AcDbSavedByObjectVersion
1070
     0
  0
VISUALSTYLE
  5
30
102
{ACAD_REACTORS
330
2A
102
}
330
2A
100
AcDbVisualStyle
  2
3dWireframe
 70
     5
 71
     0
 72
     2
 73
     0
 90
        0
 40
-0.6
 41
-30.0
 62
     5
 63
     7
421
 16777215
 74
     1
 91
        4
 64
     7
 65
   257
 75
     1
175
     1
 42
1.0
 92
        0
 66
   257
 43
1.0
 76
     1
 77
     6
 78
     2
 67
     7
 79
     5
170
     0
171
     0
290
     0
174
     0
 93
        1
 44
0.0
173
     0
291
     0
 45
0.0
1001
ACAD
1000
AcDbSavedByObjectVersion
1070
     0
  0
VISUALSTYLE
  5
32
102
{ACAD_REACTORS
330
2A
102
}
330
2A
100
AcDbVisualStyle
  2
Basic
 70
     7
 71
     1
 72
     0
 73
     1
 90
        0
 40
-0.6
 41
-30.0
 62
     5
 63
     7
421
 16777215
 74
     0
 91
        4
 64
     7
 65
   257
 75
     1
175
     1
 42
1.0
 92
        8
 66
     7
 43
1.0
 76
     1
 77
     6
 78
     2
 67
     7
 79
     5
170
     0
171
     0
290
     0
174
     0
 93
        1
 44
0.0
173
     0
291
     1
 45
0.0
1001
ACAD
1000
AcDbSavedByObjectVersion
1070
     0
  0
VISUALSTYLE
  5
36
102
{ACAD_REACTORS
330
2A
102
}
330
2A
100
AcDbVisualStyle
  2
Brighten
 70
    12
 71
     2
 72
     2
 73
     0
 90
        0
 40
-0.6
 41
-30.0
 62
     5
 63
     7
421
 16777215
 74
     1
 91
        4
 64
     7
 65
   257
 75
     1
175
     1
 42
1.0
 92
        8
 66
     7
 43
1.0
 76
     1
 77
     6
 78
     2
 67
     7
 79
     5
170
     0
171
     0
290
     0
174
     0
 93
        1
 44
50.0
173
     0
291
     1
 45
0.0
1001
ACAD
1000
AcDbSavedByObjectVersion
1070
     0
  0
VISUALSTYLE
  5
3A
102
{ACAD_REACTORS
330
2A
102
}
330
2A
100
AcDbVisualStyle
  2
ColorChange
 70
    16
 71
     2
 72
     2
 73
     3
 90
        0
 40
-0.6
 41
-30.0
 62
     5
 63
     8
421
  8421504
 74
     1
 91
        4
 64
     7
 65
   257
 75
     1
175
     1
 42
1.0
 92
        8
 66
     8
424
  8421504
 43
1.0
 76
     1
 77
     6
 78
     2
 67
     7
 79
     5
170
     0
171
     0
290
     0
174
     0
 93
        1
 44
0.0
173
     0
291
     1
 45
0.0
1001
ACAD
1000
AcDbSavedByObjectVersion
1070
     0
  0
VISUALSTYLE
  5
34
102
{ACAD_REACTORS
330
2A
102
}
330
2A
100
AcDbVisualStyle
  2
Conceptual
 70
     9
 71
     3
 72
     2
 73
     0
 90
        0
 40
-0.6
 41
-30.0
 62
     5
 63
     7
421
 16777215
 74
     2
 91
        2
 64
     7
 65
   257
 75
     1
175
     1
 42
40.0
 92
        8
 66
     7
 43
1.0
 76
     1
 77
     6
 78
     2
 67
     7
 79
     3
170
     0
171
     0
290
     0
174
     0
 93
        1
 44
0.0
173
     0
291
     0
 45
0.0
1001
ACAD
1000
AcDbSavedByObjectVersion
1070
     0
  0
VISUALSTYLE
  5
35
102
{ACAD_REACTORS
330
2A
102
}
330
2A
100
AcDbVisualStyle
  2
Dim
 70
    11
 71
     2
 72
     2
 73
     0
 90
        0
 40
-0.6
 41
-30.0
 62
     5
 63
     7
421
 16777215
 74
     1
 91
        4
 64
     7
 65
   257
 75
     1
175
     1
 42
1.0
 92
        8
 66
     7
 43
1.0
 76
     1
 77
     6
 78
     2
 67
     7
 79
     5
170
     0
171
     0
290
     0
174
     0
 93
        1
 44
-50.0
173
     0
291
     1
 45
0.0
1001
ACAD
1000
AcDbSavedByObjectVersion
1070
     0
  0
VISUALSTYLE
  5
39
102
{ACAD_REACTORS
330
2A
102
}
330
2A
100
AcDbVisualStyle
  2
Facepattern
 70
    15
 71
     2
 72
     2
 73
     0
 90
        0
 40
-0.6
 41
-30.0
 62
     5
 63
     7
421
 16777215
 74
     1
 91
        4
 64
     7
 65
   257
 75
     1
175
     1
 42
1.0
 92
        8
 66
     7
 43
1.0
 76
     1
 77
     6
 78
     2
 67
     7
 79
     5
170
     0
171
     0
290
     0
174
     0
 93
        1
 44
0.0
173
     0
291
     1
 45
0.0
1001
ACAD
1000
AcDbSavedByObjectVersion
1070
     0
  0
VISUALSTYLE
  5
2B
102
{ACAD_REACTORS
330
2A
102
}
330
2A
100
AcDbVisualStyle
  2
Flat
 70
     0
 71
     2
 72
     1
 73
     1
 90
        2
 40
-0.6
 41
30.0
 62
     5
 63
     7
421
 16777215
 74
     0
 91
        4
 64
     7
 65
   257
 75
     1
175
     1
 42
1.0
 92
        8
 66
     7
 43
1.0
 76
     1
 77
     6
 78
     2
 67
     7
 79
     5
170
     0
171
     0
290
     0
174
     0
 93
       13
 44
0.0
173
     0
291
     1
 45
0.0
1001
ACAD
1000
AcDbSavedByObjectVersion
1070
     0
  0
VISUALSTYLE
  5
2C
102
{ACAD_REACTORS
330
2A
102
}
330
2A
100
AcDbVisualStyle
  2
FlatWithEdges
 70
     1
 71
     2
 72
     1
 73
     1
 90
        2
 40
-0.6
 41
30.0
 62
     5
 63
     7
421
 16777215
 74
     1
 91
        4
 64
     7
 65
   257
 75
     1
175
     1
 42
1.0
 92
        0
 66
   257
 43
1.0
 76
     1
 77
     6
 78
     2
 67
     7
 79
     5
170
     0
171
     0
290
     0
174
     0
 93
       13
 44
0.0
173
     0
291
     1
 45
0.0
1001
ACAD
1000
AcDbSavedByObjectVersion
1070
     0
  0
VISUALSTYLE
  5
2D
102
{ACAD_REACTORS
330
2A
102
}
330
2A
100
AcDbVisualStyle
  2
Gouraud
 70
     2
 71
     2
 72
     2
 73
     1
 90
        2
 40
-0.6
 41
30.0
 62
     5
 63
     7
421
 16777215
 74
     0
 91
        4
 64
     7
 65
   257
 75
     1
175
     1
 42
1.0
 92
        0
 66
     7
 43
1.0
 76
     1
 77
     6
 78
     2
 67
     7
 79
     5
170
     0
171
     0
290
     0
174
     0
 93
       13
 44
0.0
173
     0
291
     1
 45
0.0
1001
ACAD
1000
AcDbSavedByObjectVersion
1070
     0
  0
VISUALSTYLE
  5
2E
102
{ACAD_REACTORS
330
2A
102
}
330
2A
100
AcDbVisualStyle
  2
GouraudWithEdges
 70
     3
 71
     2
 72
     2
 73
     1
 90
        2
 40
-0.6
 41
30.0
 62
     5
 63
     7
421
 16777215
 74
     1
 91
        4
 64
     7
 65
   257
 75
     1
175
     1
 42
1.0
 92
        0
 66
   257
 43
1.0
 76
     1
 77
     6
 78
     2
 67
     7
 79
     5
170
     0
171
     0
290
     0
174
     0
 93
       13
 44
0.0
173
     0
291
     1
 45
0.0
1001
ACAD
1000
AcDbSavedByObjectVersion
1070
     0
  0
VISUALSTYLE
  5
38
102
{ACAD_REACTORS
330
2A
102
}
330
2A
100
AcDbVisualStyle
  2
Linepattern
 70
    14
 71
     2
 72
     2
 73
     0
 90
        0
 40
-0.6
 41
-30.0
 62
     5
 63
     7
421
 16777215
 74
     1
 91
        4
 64
     7
 65
   257
 75
     7
175
     7
 42
1.0
 92
        8
 66
     7
 43
1.0
 76
     1
 77
     6
 78
     2
 67
     7
 79
     5
170
     0
171
     0
290
     0
174
     0
 93
        1
 44
0.0
173
     0
291
     1
 45
0.0
1001
ACAD
1000
AcDbSavedByObjectVersion
1070
     0
  0
VISUALSTYLE
  5
33
102
{ACAD_REACTORS
330
2A
102
}
330
2A
100
AcDbVisualStyle
  2
Realistic
 70
     8
 71
     2
 72
     2
 73
     0
 90
        0
 40
-0.6
 41
-30.0
 62
     5
 63
     7
421
 16777215
 74
     1
 91
        0
 64
     7
 65
   257
 75
     1
175
     1
 42
1.0
 92
        8
 66
     8
424
  7895160
 43
1.0
 76
     1
 77
     6
 78
     2
 67
     7
 79
     5
170
     0
171
     0
290
     0
174
     0
 93
       13
 44
0.0
173
     0
291
     0
 45
0.0
1001
ACAD
1000
AcDbSavedByObjectVersion
1070
     0
  0
VISUALSTYLE
  5
37
102
{ACAD_REACTORS
330
2A
102
}
330
2A
100
AcDbVisualStyle
  2
Thicken
 70
    13
 71
     2
 72
     2
 73
     0
 90
        0
 40
-0.6
 41
-30.0
 62
     5
 63
     7
421
 16777215
 74
     1
 91
        4
 64
     7
 65
   257
 75
     1
175
     1
 42
1.0
 92
       12
 66
     7
 43
1.0
 76
     1
 77
     6
 78
     2
 67
     7
 79
     5
170
     0
171
     0
290
     0
174
     0
 93
        1
 44
0.0
173
     0
291
     1
 45
0.0
1001
ACAD
1000
AcDbSavedByObjectVersion
1070
     0
  0
ENDSEC
  0
EOF
