  0
SECTION
  2
HEADER
  9
$ACADVER
  1
AC1018
  9
$ACADMAINTVER
 70
     0
  9
$DWGCODEPAGE
  3
ANSI_1252
  9
$INSBASE
 10
0.0
 20
0.0
 30
0.0
  9
$EXTMIN
 10
-5372.591056222916
 20
-6202.086390530849
 30
-0.000000000000001
  9
$EXTMAX
 10
-2384.302243917338
 20
-3350.464687260928
 30
0.0000000000000041
  9
$LIMMIN
 10
0.0
 20
0.0
  9
$LIMMAX
 10
12.0
 20
9.0
  9
$ORTHOMODE
 70
     0
  9
$REGENMODE
 70
     1
  9
$FILLMODE
 70
     1
  9
$QTEXTMODE
 70
     0
  9
$MIRRTEXT
 70
     1
  9
$LTSCALE
 40
1.0
  9
$ATTMODE
 70
     1
  9
$TEXTSIZE
 40
0.2
  9
$TRACEWID
 40
0.05
  9
$TEXTSTYLE
  7
Standard
  9
$CLAYER
  8
0
  9
$CELTYPE
  6
ByLayer
  9
$CECOLOR
 62
   256
  9
$CELTSCALE
 40
1.0
  9
$DISPSILH
 70
     0
  9
$DIMSCALE
 40
1.0
  9
$DIMASZ
 40
0.18
  9
$DIMEXO
 40
0.0625
  9
$DIMDLI
 40
0.38
  9
$DIMRND
 40
0.0
  9
$DIMDLE
 40
0.0
  9
$DIMEXE
 40
0.18
  9
$DIMTP
 40
0.0
  9
$DIMTM
 40
0.0
  9
$DIMTXT
 40
0.18
  9
$DIMCEN
 40
0.09
  9
$DIMTSZ
 40
0.0
  9
$DIMTOL
 70
     0
  9
$DIMLIM
 70
     0
  9
$DIMTIH
 70
     1
  9
$DIMTOH
 70
     1
  9
$DIMSE1
 70
     0
  9
$DIMSE2
 70
     0
  9
$DIMTAD
 70
     0
  9
$DIMZIN
 70
     0
  9
$DIMBLK
  1

  9
$DIMASO
 70
     1
  9
$DIMSHO
 70
     1
  9
$DIMPOST
  1

  9
$DIMAPOST
  1

  9
$DIMALT
 70
     0
  9
$DIMALTD
 70
     2
  9
$DIMALTF
 40
25.4
  9
$DIMLFAC
 40
1.0
  9
$DIMTOFL
 70
     0
  9
$DIMTVP
 40
0.0
  9
$DIMTIX
 70
     0
  9
$DIMSOXD
 70
     0
  9
$DIMSAH
 70
     0
  9
$DIMBLK1
  1

  9
$DIMBLK2
  1

  9
$DIMSTYLE
  2
Standard
  9
$DIMCLRD
 70
     0
  9
$DIMCLRE
 70
     0
  9
$DIMCLRT
 70
     0
  9
$DIMTFAC
 40
1.0
  9
$DIMGAP
 40
0.09
  9
$DIMJUST
 70
     0
  9
$DIMSD1
 70
     0
  9
$DIMSD2
 70
     0
  9
$DIMTOLJ
 70
     1
  9
$DIMTZIN
 70
     0
  9
$DIMALTZ
 70
     0
  9
$DIMALTTZ
 70
     0
  9
$DIMUPT
 70
     0
  9
$DIMDEC
 70
     4
  9
$DIMTDEC
 70
     4
  9
$DIMALTU
 70
     2
  9
$DIMALTTD
 70
     2
  9
$DIMTXSTY
  7
Standard
  9
$DIMAUNIT
 70
     0
  9
$DIMADEC
 70
     0
  9
$DIMALTRND
 40
0.0
  9
$DIMAZIN
 70
     0
  9
$DIMDSEP
 70
    46
  9
$DIMATFIT
 70
     3
  9
$DIMFRAC
 70
     0
  9
$DIMLDRBLK
  1

  9
$DIMLUNIT
 70
     2
  9
$DIMLWD
 70
    -2
  9
$DIMLWE
 70
    -2
  9
$DIMTMOVE
 70
     2
  9
$LUNITS
 70
     2
  9
$LUPREC
 70
     3
  9
$SKETCHINC
 40
0.1
  9
$FILLETRAD
 40
0.5
  9
$AUNITS
 70
     0
  9
$AUPREC
 70
     0
  9
$MENU
  1
.
  9
$ELEVATION
 40
0.0
  9
$PELEVATION
 40
0.0
  9
$THICKNESS
 40
0.0
  9
$LIMCHECK
 70
     0
  9
$CHAMFERA
 40
0.5
  9
$CHAMFERB
 40
0.5
  9
$CHAMFERC
 40
1.0
  9
$CHAMFERD
 40
0.0
  9
$SKPOLY
 70
     0
  9
$TDCREATE
 40
2456377.850832026
  9
$TDUCREATE
 40
2456377.809165359
  9
$TDUPDATE
 40
2456377.850832037
  9
$TDUUPDATE
 40
2456377.80916537
  9
$TDINDWG
 40
0.0000000116
  9
$TDUSRTIMER
 40
0.0000000116
  9
$USRTIMER
 70
     1
  9
$ANGBASE
 50
0.0
  9
$ANGDIR
 70
     0
  9
$PDMODE
 70
     0
  9
$PDSIZE
 40
0.0
  9
$PLINEWID
 40
0.0
  9
$SPLFRAME
 70
     0
  9
$SPLINETYPE
 70
     6
  9
$SPLINESEGS
 70
     8
  9
$HANDSEED
  5
14D
  9
$SURFTAB1
 70
     6
  9
$SURFTAB2
 70
     6
  9
$SURFTYPE
 70
     6
  9
$SURFU
 70
     6
  9
$SURFV
 70
     6
  9
$UCSBASE
  2

  9
$UCSNAME
  2

  9
$UCSORG
 10
0.0
 20
0.0
 30
0.0
  9
$UCSXDIR
 10
1.0
 20
0.0
 30
0.0
  9
$UCSYDIR
 10
0.0
 20
1.0
 30
0.0
  9
$UCSORTHOREF
  2

  9
$UCSORTHOVIEW
 70
     0
  9
$UCSORGTOP
 10
0.0
 20
0.0
 30
0.0
  9
$UCSORGBOTTOM
 10
0.0
 20
0.0
 30
0.0
  9
$UCSORGLEFT
 10
0.0
 20
0.0
 30
0.0
  9
$UCSORGRIGHT
 10
0.0
 20
0.0
 30
0.0
  9
$UCSORGFRONT
 10
0.0
 20
0.0
 30
0.0
  9
$UCSORGBACK
 10
0.0
 20
0.0
 30
0.0
  9
$PUCSBASE
  2

  9
$PUCSNAME
  2

  9
$PUCSORG
 10
0.0
 20
0.0
 30
0.0
  9
$PUCSXDIR
 10
1.0
 20
0.0
 30
0.0
  9
$PUCSYDIR
 10
0.0
 20
1.0
 30
0.0
  9
$PUCSORTHOREF
  2

  9
$PUCSORTHOVIEW
 70
     0
  9
$PUCSORGTOP
 10
0.0
 20
0.0
 30
0.0
  9
$PUCSORGBOTTOM
 10
0.0
 20
0.0
 30
0.0
  9
$PUCSORGLEFT
 10
0.0
 20
0.0
 30
0.0
  9
$PUCSORGRIGHT
 10
0.0
 20
0.0
 30
0.0
  9
$PUCSORGFRONT
 10
0.0
 20
0.0
 30
0.0
  9
$PUCSORGBACK
 10
0.0
 20
0.0
 30
0.0
  9
$USERI1
 70
     0
  9
$USERI2
 70
     0
  9
$USERI3
 70
     0
  9
$USERI4
 70
     0
  9
$USERI5
 70
     0
  9
$USERR1
 40
0.0
  9
$USERR2
 40
0.0
  9
$USERR3
 40
0.0
  9
$USERR4
 40
0.0
  9
$USERR5
 40
0.0
  9
$WORLDVIEW
 70
     1
  9
$SHADEDGE
 70
     3
  9
$SHADEDIF
 70
    70
  9
$TILEMODE
 70
     1
  9
$MAXACTVP
 70
    64
  9
$PINSBASE
 10
0.0
 20
0.0
 30
0.0
  9
$PLIMCHECK
 70
     0
  9
$PEXTMIN
 10
1.000000000000000E+20
 20
1.000000000000000E+20
 30
1.000000000000000E+20
  9
$PEXTMAX
 10
-1.000000000000000E+20
 20
-1.000000000000000E+20
 30
-1.000000000000000E+20
  9
$PLIMMIN
 10
0.0
 20
0.0
  9
$PLIMMAX
 10
12.0
 20
9.0
  9
$UNITMODE
 70
     0
  9
$VISRETAIN
 70
     1
  9
$PLINEGEN
 70
     0
  9
$PSLTSCALE
 70
     1
  9
$TREEDEPTH
 70
  3020
  9
$CMLSTYLE
  2
Standard
  9
$CMLJUST
 70
     0
  9
$CMLSCALE
 40
1.0
  9
$PROXYGRAPHICS
 70
     1
  9
$MEASUREMENT
 70
     0
  9
$CELWEIGHT
370
    -1
  9
$ENDCAPS
280
     0
  9
$JOINSTYLE
280
     0
  9
$LWDISPLAY
290
     0
  9
$INSUNITS
 70
     4
  9
$HYPERLINKBASE
  1

  9
$STYLESHEET
  1

  9
$XEDIT
290
     1
  9
$CEPSNTYPE
380
     0
  9
$PSTYLEMODE
290
     1
  9
$FINGERPRINTGUID
  2
{38CBCB39-9FE3-467D-83A4-745232698FB7}
  9
$VERSIONGUID
  2
{FAEB1C32-E019-11D5-929B-00C0DF256EC4}
  9
$EXTNAMES
290
     1
  9
$PSVPSCALE
 40
0.0
  9
$OLESTARTUP
290
     0
  9
$SORTENTS
280
   127
  9
$INDEXCTL
280
     0
  9
$HIDETEXT
280
     1
  9
$XCLIPFRAME
290
     0
  9
$HALOGAP
280
     0
  9
$OBSCOLOR
 70
   257
  9
$OBSLTYPE
280
     0
  9
$INTERSECTIONDISPLAY
280
     0
  9
$INTERSECTIONCOLOR
 70
   257
  9
$DIMASSOC
280
     2
  9
$PROJECTNAME
  1

  0
ENDSEC
  0
SECTION
  2
CLASSES
  0
CLASS
  1
ACDBDICTIONARYWDFLT
  2
AcDbDictionaryWithDefault
  3
ObjectDBX Classes
 90
        0
 91
        4
280
     0
281
     0
  0
CLASS
  1
VISUALSTYLE
  2
AcDbVisualStyle
  3
ObjectDBX Classes
 90
     4095
 91
        4
280
     0
281
     0
  0
ENDSEC
  0
SECTION
  2
TABLES
  0
TABLE
  2
VPORT
  5
8
330
0
100
AcDbSymbolTable
 70
     1
  0
VPORT
  5
29
330
8
100
AcDbSymbolTableRecord
100
AcDbViewportTableRecord
  2
*Active
 70
     0
 10
0.0
 20
0.0
 11
1.0
 21
1.0
 12
-3878.446650070127
 22
-4776.275538895889
 13
0.0
 23
0.0
 14
0.5
 24
0.5
 15
0.5
 25
0.5
 16
0.0
 26
0.0
 36
1.0
 17
0.0
 27
0.0
 37
0.0
 40
2908.654137335319
 41
1.047926100744339
 42
50.0
 43
0.0
 44
0.0
 50
0.0
 51
0.0
 71
     0
 72
   100
 73
     1
 74
     3
 75
     0
 76
     0
 77
     0
 78
     0
281
     0
 65
     1
110
0.0
120
0.0
130
0.0
111
1.0
121
0.0
131
0.0
112
0.0
122
1.0
132
0.0
 79
     0
146
0.0
  0
ENDTAB
  0
TABLE
  2
LTYPE
  5
5
330
0
100
AcDbSymbolTable
 70
     1
  0
LTYPE
  5
14
330
5
100
AcDbSymbolTableRecord
100
AcDbLinetypeTableRecord
  2
ByBlock
 70
     0
  3

 72
    65
 73
     0
 40
0.0
  0
LTYPE
  5
15
330
5
100
AcDbSymbolTableRecord
100
AcDbLinetypeTableRecord
  2
ByLayer
 70
     0
  3

 72
    65
 73
     0
 40
0.0
  0
LTYPE
  5
16
330
5
100
AcDbSymbolTableRecord
100
AcDbLinetypeTableRecord
  2
Continuous
 70
     0
  3
Solid line
 72
    65
 73
     0
 40
0.0
  0
ENDTAB
  0
TABLE
  2
LAYER
  5
2
330
0
100
AcDbSymbolTable
 70
     2
  0
LAYER
  5
10
330
2
100
AcDbSymbolTableRecord
100
AcDbLayerTableRecord
  2
0
 70
     0
 62
     7
  6
Continuous
370
    -3
390
F
  0
LAYER
  5
3B
330
2
100
AcDbSymbolTableRecord
100
AcDbLayerTableRecord
  2
2D
 70
     0
 62
     7
  6
Continuous
370
    -3
390
F
  0
ENDTAB
  0
TABLE
  2
STYLE
  5
3
330
0
100
AcDbSymbolTable
 70
     1
  0
STYLE
  5
11
330
3
100
AcDbSymbolTableRecord
100
AcDbTextStyleTableRecord
  2
Standard
 70
     0
 40
0.0
 41
1.0
 50
0.0
 71
     0
 42
0.2
  3
txt
  4

  0
ENDTAB
  0
TABLE
  2
VIEW
  5
6
330
0
100
AcDbSymbolTable
 70
     0
  0
ENDTAB
  0
TABLE
  2
UCS
  5
7
330
0
100
AcDbSymbolTable
 70
     0
  0
ENDTAB
  0
TABLE
  2
APPID
  5
9
330
0
100
AcDbSymbolTable
 70
     1
  0
APPID
  5
12
330
9
100
AcDbSymbolTableRecord
100
AcDbRegAppTableRecord
  2
ACAD
 70
     0
  0
ENDTAB
  0
TABLE
  2
DIMSTYLE
  5
A
330
0
100
AcDbSymbolTable
 70
     1
100
AcDbDimStyleTable
  0
DIMSTYLE
105
27
330
A
100
AcDbSymbolTableRecord
100
AcDbDimStyleTableRecord
  2
Standard
 70
     0
340
11
  0
ENDTAB
  0
TABLE
  2
BLOCK_RECORD
  5
1
330
0
100
AcDbSymbolTable
 70
     1
  0
BLOCK_RECORD
  5
1F
330
1
100
AcDbSymbolTableRecord
100
AcDbBlockTableRecord
  2
*Model_Space
340
22
  0
BLOCK_RECORD
  5
1B
330
1
100
AcDbSymbolTableRecord
100
AcDbBlockTableRecord
  2
*Paper_Space
340
1E
  0
BLOCK_RECORD
  5
23
330
1
100
AcDbSymbolTableRecord
100
AcDbBlockTableRecord
  2
*Paper_Space0
340
26
  0
ENDTAB
  0
ENDSEC
  0
SECTION
  2
BLOCKS
  0
BLOCK
  5
20
330
1F
100
AcDbEntity
  8
0
100
AcDbBlockBegin
  2
*Model_Space
 70
     0
 10
0.0
 20
0.0
 30
0.0
  3
*Model_Space
  1

  0
ENDBLK
  5
21
330
1F
100
AcDbEntity
  8
0
100
AcDbBlockEnd
  0
BLOCK
  5
1C
330
1B
100
AcDbEntity
 67
     1
  8
0
100
AcDbBlockBegin
  2
*Paper_Space
 70
     0
 10
0.0
 20
0.0
 30
0.0
  3
*Paper_Space
  1

  0
ENDBLK
  5
1D
330
1B
100
AcDbEntity
 67
     1
  8
0
100
AcDbBlockEnd
  0
BLOCK
  5
24
330
23
100
AcDbEntity
  8
0
100
AcDbBlockBegin
  2
*Paper_Space0
 70
     0
 10
0.0
 20
0.0
 30
0.0
  3
*Paper_Space0
  1

  0
ENDBLK
  5
25
330
23
100
AcDbEntity
  8
0
100
AcDbBlockEnd
  0
ENDSEC
  0
SECTION
  2
ENTITIES
  0
LINE
  5
3C
330
1F
100
AcDbEntity
  8
2D
100
AcDbLine
 10
-3104.832291721006
 20
-3637.909629313416
 30
0.0
 11
-3084.260600943297
 21
-3609.593589574558
 31
0.0
  0
SPLINE
  5
3D
330
1F
100
AcDbEntity
  8
2D
100
AcDbSpline
210
0.0
220
0.0
230
1.0
 70
     8
 71
     3
 72
    34
 73
    30
 74
     0
 42
0.0000000001
 43
0.0000000001
 40
-152.7202797096896
 40
-152.7202797096896
 40
-152.7202797096896
 40
-152.7202797096896
 40
-146.9742588422601
 40
-146.9742588422601
 40
-141.1868019343407
 40
-141.1868019343407
 40
-129.6246045167409
 40
-129.6246045167409
 40
-124.3542541146393
 40
-124.3542541146393
 40
-119.2037152667398
 40
-119.2037152667398
 40
-108.9086924282615
 40
-108.9086924282615
 40
-99.53178190215408
 40
-99.53178190215408
 40
-90.1297606923914
 40
-90.1297606923914
 40
-80.75924573645602
 40
-80.75924573645602
 40
-71.43781265908252
 40
-71.43781265908252
 40
-62.15500180547199
 40
-62.15500180547199
 40
-52.81052245820256
 40
-52.81052245820256
 40
-33.83551572005901
 40
-33.83551572005901
 40
0.0
 40
0.0
 40
0.0
 40
0.0
 10
-3084.260600943297
 20
-3609.593589574558
 30
0.0
 10
-3083.149443857663
 20
-3608.064180285789
 30
0.0
 10
-3082.03872473913
 20
-3606.534460108043
 30
0.0
 10
-3079.81731722358
 20
-3603.458141483047
 30
0.0
 10
-3078.702623067245
 20
-3601.914456064066
 30
0.0
 10
-3075.360989835994
 20
-3597.286791650109
 30
0.0
 10
-3073.134049349519
 20
-3594.202813674423
 30
0.0
 10
-3069.892015965142
 20
-3589.71307503968
 30
0.0
 10
-3068.880687911962
 20
-3588.304603948845
 30
0.0
 10
-3066.865466303316
 20
-3585.530881657404
 30
0.0
 10
-3065.869433848853
 20
-3584.159970250436
 30
0.0
 10
-3062.882502897344
 20
-3580.048850912475
 30
0.0
 10
-3060.891603862645
 20
-3577.308643372143
 30
0.0
 10
-3057.087358020963
 20
-3572.072598086175
 30
0.0
 10
-3055.274009823348
 20
-3569.576761350902
 30
0.0
 10
-3051.642458162994
 20
-3564.578403666881
 30
0.0
 10
-3049.824254702973
 20
-3562.075882716164
 30
0.0
 10
-3046.193941525584
 20
-3557.079226110235
 30
0.0
 10
-3044.38183179815
 20
-3554.585090462344
 30
0.0
 10
-3040.767104899674
 20
-3549.609882564493
 30
0.0
 10
-3038.964487641373
 20
-3547.128810377933
 30
0.0
 10
-3035.366723614054
 20
-3542.17694488921
 30
0.0
 10
-3033.571576209899
 20
-3539.706152048501
 30
0.0
 10
-3029.969360152198
 20
-3534.748148914928
 30
0.0
 10
-3028.16229484824
 20
-3532.260936188561
 30
0.0
 10
-3022.685828413054
 20
-3524.723127142031
 30
0.0
 10
-3019.016423865301
 20
-3519.672533304348
 30
0.0
 10
-3008.803788524758
 20
-3505.615974488443
 30
0.0
 10
-3002.260589034893
 20
-3496.609986767681
 30
0.0
 10
-2995.717389545025
 20
-3487.603999046922
 30
0.0
  0
LINE
  5
3E
330
1F
100
AcDbEntity
  8
2D
100
AcDbLine
 10
-2707.878975487747
 20
-5324.372371701439
 30
0.0
 11
-2744.372415363876
 21
-5312.632287890841
 31
0.0
  0
LINE
  5
3F
330
1F
100
AcDbEntity
  8
2D
100
AcDbLine
 10
-5191.329045617866
 20
-4885.296737149051
 30
0.0
 11
-5154.904584450331
 21
-4873.3443587026
 31
0.0
  0
LINE
  5
40
330
1F
100
AcDbEntity
  8
2D
100
AcDbLine
 10
-3878.909138295268
 20
-6016.35045099064
 30
0.0
 11
-3878.90823517563
 21
-6051.350344806631
 31
0.0
  0
SPLINE
  5
41
330
1F
100
AcDbEntity
  8
2D
100
AcDbSpline
210
0.0
220
0.0
230
1.0
 70
     8
 71
     3
 72
    34
 73
    30
 74
     0
 42
0.0000000001
 43
0.0000000001
 40
-152.7202797104551
 40
-152.7202797104551
 40
-152.7202797104551
 40
-152.7202797104551
 40
-146.9742588430302
 40
-146.9742588430302
 40
-141.1868019350783
 40
-141.1868019350783
 40
-129.6246045174113
 40
-129.6246045174113
 40
-124.3542541159294
 40
-124.3542541159294
 40
-119.2037152677946
 40
-119.2037152677946
 40
-108.9086924288656
 40
-108.9086924288656
 40
-99.53178190271059
 40
-99.53178190271059
 40
-90.12976069290133
 40
-90.12976069290133
 40
-80.75924573692284
 40
-80.75924573692284
 40
-71.43781265949842
 40
-71.43781265949842
 40
-62.15500180583352
 40
-62.15500180583352
 40
-52.8105224585204
 40
-52.8105224585204
 40
-33.8355157202185
 40
-33.8355157202185
 40
0.0
 40
0.0
 40
0.0
 40
0.0
 10
-3878.90823517563
 20
-6051.350344806631
 30
0.0
 10
-3878.908215916672
 20
-6053.240784660502
 30
0.0
 10
-3878.907659598921
 20
-6055.131218598238
 30
0.0
 10
-3878.896601311313
 20
-6058.925723222931
 30
0.0
 10
-3878.891052303865
 20
-6060.829791746767
 30
0.0
 10
-3878.874417481831
 20
-6066.537813633821
 30
0.0
 10
-3878.863333408353
 20
-6070.341767002114
 30
0.0
 10
-3878.847191356494
 20
-6075.879661268486
 30
0.0
 10
-3878.837494402916
 20
-6077.613582031733
 30
0.0
 10
-3878.837489874884
 20
-6081.042088044704
 30
0.0
 10
-3878.837495550291
 20
-6082.736631858331
 30
0.0
 10
-3878.83751813382
 20
-6087.818271231756
 30
0.0
 10
-3878.837535706542
 20
-6091.205366791527
 30
0.0
 10
-3878.837565043814
 20
-6097.677496013158
 30
0.0
 10
-3878.83757852728
 20
-6100.762529675009
 30
0.0
 10
-3878.837604604105
 20
-6106.94085849424
 30
0.0
 10
-3878.837617194116
 20
-6110.03415365162
 30
0.0
 10
-3878.837641185793
 20
-6116.210378307743
 30
0.0
 10
-3878.837652599905
 20
-6119.293307806486
 30
0.0
 10
-3878.837674261351
 20
-6125.443018708385
 30
0.0
 10
-3878.837684616534
 20
-6128.50980011154
 30
0.0
 10
-3878.837703350782
 20
-6134.630656082268
 30
0.0
 10
-3878.83771251492
 20
-6137.684730649836
 30
0.0
 10
-3878.837725400277
 20
-6143.813168917349
 30
0.0
 10
-3878.837724981247
 20
-6146.8875326172
 30
0.0
 10
-3878.837666404288
 20
-6156.204734441497
 30
0.0
 10
-3878.837612469546
 20
-6162.447572565756
 30
0.0
 10
-3878.837570047432
 20
-6179.82240397049
 30
0.0
 10
-3878.837542867725
 20
-6190.954397250669
 30
0.0
 10
-3878.837515688028
 20
-6202.086390530849
 30
0.0
  0
LINE
  5
42
330
1F
100
AcDbEntity
  8
2D
100
AcDbLine
 10
-4766.875358021716
 20
-4638.950413032599
 30
0.0
 11
-4781.183283568447
 21
-4594.910328502422
 31
0.0
  0
SPLINE
  5
43
330
1F
100
AcDbEntity
  8
2D
100
AcDbSpline
210
0.0
220
0.0
230
1.0
 70
    12
 71
     3
 72
    31
 73
    27
 74
     0
 42
0.0000000001
 43
0.0000000001
 40
-613.4426407540044
 40
-613.4426407540044
 40
-613.4426407540044
 40
-613.4426407540044
 40
-611.5080646453408
 40
-611.5080646453408
 40
-611.5080646453408
 40
-504.2953677783084
 40
-504.2953677783084
 40
-504.2953677783084
 40
-501.3167024160262
 40
-501.3167024160262
 40
-501.3167024160262
 40
-321.32808154825
 40
-321.32808154825
 40
-321.32808154825
 40
-315.370752020666
 40
-315.370752020666
 40
-315.370752020666
 40
-211.726040871698
 40
-211.726040871698
 40
-211.726040871698
 40
-203.0238756157447
 40
-203.0238756157447
 40
-194.3530809245081
 40
-194.3530809245081
 40
-194.3530809245081
 40
0.0
 40
0.0
 40
0.0
 40
0.0
 10
-4781.183283568447
 20
-4594.910328502422
 30
0.0
 41
1.0
 10
-4781.211911294627
 20
-4594.815219186666
 30
0.0
 41
1.0
 10
-4781.412322800461
 20
-4594.824371631629
 30
0.0
 41
1.0
 10
-4781.792903322013
 20
-4594.948029739083
 30
0.0
 41
1.0
 10
-4802.309552119325
 20
-4601.614291451277
 30
0.0
 41
1.0
 10
-4822.826200916636
 20
-4608.280553163472
 30
0.0
 41
1.0
 10
-4843.342849713932
 20
-4614.946814875664
 30
0.0
 41
1.0
 10
-4843.912859137272
 20
-4615.132021732687
 30
0.0
 41
1.0
 10
-4844.482868560612
 20
-4615.317228589712
 30
0.0
 41
1.0
 10
-4845.052877983948
 20
-4615.502435446736
 30
0.0
 41
1.0
 10
-4879.496216052936
 20
-4626.693754389358
 30
0.0
 41
1.0
 10
-4913.93955412192
 20
-4637.885073331974
 30
0.0
 41
1.0
 10
-4948.382892190908
 20
-4649.076392274596
 30
0.0
 41
1.0
 10
-4949.522908966217
 20
-4649.446811550874
 30
0.0
 41
1.0
 10
-4950.662925741541
 20
-4649.817230827155
 30
0.0
 41
1.0
 10
-4951.802942516853
 20
-4650.18765010343
 30
0.0
 41
1.0
 10
-4971.636805422204
 20
-4656.632064828164
 30
0.0
 41
1.0
 10
-4991.470668327551
 20
-4663.0764795529
 30
0.0
 41
1.0
 10
-5011.304531232901
 20
-4669.520894277635
 30
0.0
 41
1.0
 10
-5012.990907800064
 20
-4670.068831239568
 30
0.0
 41
1.0
 10
-5015.951336670547
 20
-4671.475353522414
 30
0.0
 41
1.0
 10
-5023.540695687305
 20
-4675.568025790066
 30
0.0
 41
1.0
 10
-5027.935513178709
 20
-4678.126165846667
 30
0.0
 41
1.0
 10
-5032.358166790593
 20
-4680.853415430734
 30
0.0
 41
1.0
 10
-5130.72426541831
 20
-4741.511317856018
 30
0.0
 41
1.0
 10
-5229.090364046024
 20
-4802.169220281302
 30
0.0
 41
1.0
 10
-5327.456462673734
 20
-4862.827122706581
 30
0.0
 41
1.0
  0
SPLINE
  5
44
330
1F
100
AcDbEntity
  8
2D
100
AcDbSpline
210
0.0
220
0.0
230
1.0
 70
     8
 71
     3
 72
     8
 73
     4
 74
     0
 42
0.0000000001
 43
0.0000000001
 40
-1.217114044379065
 40
-1.217114044379065
 40
-1.217114044379065
 40
-1.217114044379065
 40
0.0
 40
0.0
 40
0.0
 40
0.0
 10
-5327.456462673734
 20
-4862.827122706581
 30
0.0
 10
-5327.801788545785
 20
-4863.040069485493
 30
0.0
 10
-5328.14575733892
 20
-4863.255232834567
 30
0.0
 10
-5328.488326710045
 20
-4863.472586266857
 30
0.0
  0
SPLINE
  5
45
330
1F
100
AcDbEntity
  8
2D
100
AcDbSpline
210
0.0
220
0.0
230
1.0
 70
    12
 71
     3
 72
    14
 73
    10
 74
     0
 42
0.0000000001
 43
0.0000000001
 40
-528.117576254212
 40
-528.117576254212
 40
-528.117576254212
 40
-528.117576254212
 40
-402.7857201750541
 40
-402.7857201750541
 40
-402.7857201750541
 40
0.0
 40
0.0
 40
0.0
 40
125.3040922574973
 40
125.3040922574973
 40
125.3040922574973
 40
125.3040922574973
 10
-5328.488326710046
 20
-4863.472586266857
 30
0.0
 41
0.9956227716042817
 10
-5366.631938189682
 20
-4887.673946848942
 30
-0.0000000000000002
 41
0.8574698667828088
 10
-5381.878765306427
 20
-4930.155879870017
 30
-0.0000000000000001
 41
0.8589289429147151
 10
-5367.943113303932
 20
-4973.045406617901
 30
0.0
 41
1.0
 10
-5326.453902428715
 20
-5100.736067898939
 30
0.0
 41
1.0
 10
-5284.964691553505
 20
-5228.426729179948
 30
0.0
 41
1.0
 10
-5243.475480678295
 20
-5356.117390460986
 30
0.0
 41
1.0
 10
-5229.539828675821
 20
-5399.006917208874
 30
0.0000000000000057
 41
0.8589289429147169
 10
-5192.234632709379
 20
-5424.413662853339
 30
0.0000000000000057
 41
0.8574698667828196
 10
-5147.150599959971
 20
-5421.572722554348
 30
0.0
 41
0.995622771604307
  0
SPLINE
  5
46
330
1F
100
AcDbEntity
  8
2D
100
AcDbSpline
210
0.0
220
0.0
230
1.0
 70
     8
 71
     3
 72
     8
 73
     4
 74
     0
 42
0.0000000001
 43
0.0000000001
 40
-1.217114044401218
 40
-1.217114044401218
 40
-1.217114044401218
 40
-1.217114044401218
 40
0.0
 40
0.0
 40
0.0
 40
0.0
 10
-5147.150599959969
 20
-5421.572722554347
 30
0.0
 10
-5146.745698374936
 20
-5421.547207950622
 30
0.0
 10
-5146.340951932358
 20
-5421.519098972736
 30
0.0
 10
-5145.936410457092
 20
-5421.488399080949
 30
0.0
  0
SPLINE
  5
47
330
1F
100
AcDbEntity
  8
2D
100
AcDbSpline
210
0.0
220
0.0
230
1.0
 70
    12
 71
     3
 72
    31
 73
    27
 74
     0
 42
0.0000000001
 43
0.0000000001
 40
-611.6748735393735
 40
-611.6748735393735
 40
-611.6748735393735
 40
-611.6748735393735
 40
-417.8817977157006
 40
-417.8817977157006
 40
-417.8817977157006
 40
-409.2359409319357
 40
-409.2359409319357
 40
-400.558971568101
 40
-400.558971568101
 40
-400.558971568101
 40
-297.2129002278873
 40
-297.2129002278873
 40
-297.2129002278873
 40
-291.2727360310867
 40
-291.2727360310867
 40
-291.2727360310867
 40
-111.8027310174866
 40
-111.8027310174866
 40
-111.8027310174866
 40
-108.8326483223205
 40
-108.8326483223205
 40
-108.8326483223205
 40
-1.928871764333681
 40
-1.928871764333681
 40
-1.928871764333681
 40
0.0
 40
0.0
 40
0.0
 40
0.0
 10
-5145.936410457092
 20
-5421.488399080949
 30
0.0
 41
1.0
 10
-5030.702743253314
 20
-5412.743534774393
 30
0.0
 41
1.0
 10
-4915.469076049536
 20
-5403.998670467836
 30
0.0
 41
1.0
 10
-4800.235408845765
 20
-5395.253806161283
 30
0.0
 41
1.0
 10
-4795.054325156412
 20
-5394.860623463534
 30
0.0
 41
1.0
 10
-4789.995650427241
 20
-5394.347041984631
 30
0.0
 41
1.0
 10
-4781.450035783393
 20
-5393.197176158289
 30
0.0
 41
1.0
 10
-4778.227928957327
 20
-5392.59492276418
 30
0.0
 41
1.0
 10
-4776.541571081121
 20
-5392.046991875302
 30
0.0
 41
1.0
 10
-4756.707707175581
 20
-5385.602576825588
 30
0.0
 41
1.0
 10
-4736.873843270045
 20
-5379.158161775874
 30
0.0
 41
1.0
 10
-4717.039979364519
 20
-5372.713746726163
 30
0.0
 41
1.0
 10
-4715.899962589207
 20
-5372.343327449887
 30
0.0
 41
1.0
 10
-4714.759945813894
 20
-5371.97290817361
 30
0.0
 41
1.0
 10
-4713.61992903857
 20
-5371.602488897331
 30
0.0
 41
1.0
 10
-4679.17659096959
 20
-5360.411169954709
 30
0.0
 41
1.0
 10
-4644.733252900602
 20
-5349.219851012089
 30
0.0
 41
1.0
 10
-4610.28991483161
 20
-5338.028532069467
 30
0.0
 41
1.0
 10
-4609.719905654565
 20
-5337.84332486081
 30
0.0
 41
1.0
 10
-4609.149896477524
 20
-5337.658117652153
 30
0.0
 41
1.0
 10
-4608.579887300482
 20
-5337.472910443498
 30
0.0
 41
1.0
 10
-4588.063239257062
 20
-5330.806649407918
 30
0.0
 41
1.0
 10
-4567.54659121365
 20
-5324.140388372339
 30
0.0
 41
1.0
 10
-4547.02994317023
 20
-5317.474127336756
 30
0.0
 41
1.0
 10
-4546.649383933371
 20
-5317.35047614512
 30
0.0
 41
1.0
 10
-4546.481881580403
 20
-5317.240084696575
 30
0.0
 41
1.0
 10
-4546.514607770932
 20
-5317.146307791034
 30
0.0
 41
1.0
  0
LINE
  5
48
330
1F
100
AcDbEntity
  8
2D
100
AcDbLine
 10
-4546.514607770932
 20
-5317.146307791034
 30
0.0
 11
-4560.825344947545
 21
-5273.107146105725
 31
0.0
  0
SPLINE
  5
49
330
1F
100
AcDbEntity
  8
2D
100
AcDbSpline
210
0.0
220
0.0
230
1.0
 70
     8
 71
     3
 72
     8
 73
     4
 74
     0
 42
0.0000000001
 43
0.0000000001
 40
-5.939721802972112
 40
-5.939721802972112
 40
-5.939721802972112
 40
-5.939721802972112
 40
0.0
 40
0.0
 40
0.0
 40
0.0
 10
-2976.219408750694
 20
-4655.382770406247
 30
0.0
 10
-2977.76717763835
 20
-4654.148086536213
 30
0.0
 10
-2979.27575427897
 20
-4652.862610706616
 30
0.0
 10
-2980.740403697964
 20
-4651.530381410235
 30
0.0
  0
SPLINE
  5
4A
330
1F
100
AcDbEntity
  8
2D
100
AcDbSpline
210
0.0
220
0.0
230
1.0
 70
     8
 71
     3
 72
     8
 73
     4
 74
     0
 42
0.0000000001
 43
0.0000000001
 40
-0.1501552434058266
 40
-0.1501552434058266
 40
-0.1501552434058266
 40
-0.1501552434058266
 40
0.0
 40
0.0
 40
0.0
 40
0.0
 10
-2980.740403697964
 20
-4651.530381410235
 30
0.0
 10
-2980.777341373072
 20
-4651.496605892155
 30
0.0
 10
-2980.814242828885
 20
-4651.462790730114
 30
0.0
 10
-2980.851107887618
 20
-4651.428935954729
 30
0.0
  0
SPLINE
  5
4B
330
1F
100
AcDbEntity
  8
2D
100
AcDbSpline
210
0.0
220
0.0
230
1.0
 70
     8
 71
     3
 72
     8
 73
     4
 74
     0
 42
0.0000000001
 43
0.0000000001
 40
-0.8252789005189973
 40
-0.8252789005189973
 40
-0.8252789005189973
 40
-0.8252789005189973
 40
0.0
 40
0.0
 40
0.0
 40
0.0
 10
-2980.851107887618
 20
-4651.428935954729
 30
0.0
 10
-2981.053733272314
 20
-4651.242873871334
 30
0.0
 10
-2981.255261670267
 20
-4651.055609994325
 30
0.0
 10
-2981.455671835036
 20
-4650.867163964168
 30
0.0
  0
SPLINE
  5
4C
330
1F
100
AcDbEntity
  8
2D
100
AcDbSpline
210
0.0
220
0.0
230
1.0
 70
     8
 71
     3
 72
     8
 73
     4
 74
     0
 42
0.0000000001
 43
0.0000000001
 40
-0.1440171821961788
 40
-0.1440171821961788
 40
-0.1440171821961788
 40
-0.1440171821961788
 40
0.0
 40
0.0
 40
0.0
 40
0.0
 10
-2981.455671835036
 20
-4650.867163964168
 30
0.0
 10
-2981.490645430778
 20
-4650.834279355762
 30
0.0
 10
-2981.525582526385
 20
-4650.801355894562
 30
0.0
 10
-2981.560482948687
 20
-4650.768393621502
 30
0.0
  0
SPLINE
  5
4D
330
1F
100
AcDbEntity
  8
2D
100
AcDbSpline
210
0.0
220
0.0
230
1.0
 70
     8
 71
     3
 72
     8
 73
     4
 74
     0
 42
0.0000000001
 43
0.0000000001
 40
-2.260588478851517
 40
-2.260588478851517
 40
-2.260588478851517
 40
-2.260588478851517
 40
0.0
 40
0.0
 40
0.0
 40
0.0
 10
-2981.560482948687
 20
-4650.768393621502
 30
0.0
 10
-2982.108557381045
 20
-4650.251265853995
 30
0.0
 10
-2982.647183531983
 20
-4649.723937514137
 30
0.0
 10
-2983.17581518714
 20
-4649.186950294719
 30
0.0
  0
SPLINE
  5
4E
330
1F
100
AcDbEntity
  8
2D
100
AcDbSpline
210
0.0
220
0.0
230
1.0
 70
     8
 71
     3
 72
     8
 73
     4
 74
     0
 42
0.0000000001
 43
0.0000000001
 40
-0.1273043555048391
 40
-0.1273043555048391
 40
-0.1273043555048391
 40
-0.1273043555048391
 40
0.0
 40
0.0
 40
0.0
 40
0.0
 10
-2983.17581518714
 20
-4649.186950294719
 30
0.0
 10
-2983.205575341832
 20
-4649.156700597046
 30
0.0
 10
-2983.235298818618
 20
-4649.126414797226
 30
0.0
 10
-2983.26498556689
 20
-4649.09609298277
 30
0.0
  0
SPLINE
  5
4F
330
1F
100
AcDbEntity
  8
2D
100
AcDbSpline
210
0.0
220
0.0
230
1.0
 70
     8
 71
     3
 72
     8
 73
     4
 74
     0
 42
0.0000000001
 43
0.0000000001
 40
-0.8261685768799233
 40
-0.8261685768799233
 40
-0.8261685768799233
 40
-0.8261685768799233
 40
0.0
 40
0.0
 40
0.0
 40
0.0
 10
-2983.26498556689
 20
-4649.09609298277
 30
0.0
 10
-2983.457580089282
 20
-4648.899250985887
 30
0.0
 10
-2983.648749263259
 20
-4648.701004142344
 30
0.0
 10
-2983.838462172807
 20
-4648.501383493309
 30
0.0
  0
SPLINE
  5
50
330
1F
100
AcDbEntity
  8
2D
100
AcDbSpline
210
0.0
220
0.0
230
1.0
 70
     8
 71
     3
 72
     8
 73
     4
 74
     0
 42
0.0000000001
 43
0.0000000001
 40
-0.1171575481520359
 40
-0.1171575481520359
 40
-0.1171575481520359
 40
-0.1171575481520359
 40
0.0
 40
0.0
 40
0.0
 40
0.0
 10
-2983.838462172807
 20
-4648.501383493309
 30
0.0
 10
-2983.865359813499
 20
-4648.473070670145
 30
0.0
 10
-2983.892223719711
 20
-4648.44472578318
 30
0.0
 10
-2983.919053878752
 20
-4648.416348932864
 30
0.0
  0
SPLINE
  5
51
330
1F
100
AcDbEntity
  8
2D
100
AcDbSpline
210
0.0
220
0.0
230
1.0
 70
     8
 71
     3
 72
     8
 73
     4
 74
     0
 42
0.0000000001
 43
0.0000000001
 40
-2.247918302197887
 40
-2.247918302197887
 40
-2.247918302197887
 40
-2.247918302197887
 40
0.0
 40
0.0
 40
0.0
 40
0.0
 10
-2983.919053878752
 20
-4648.416348932864
 30
0.0
 10
-2984.434096517514
 20
-4647.872114803698
 30
0.0
 10
-2984.936760847231
 20
-4647.31578292227
 30
0.0
 10
-2985.42613416622
 20
-4646.748355932216
 30
0.0
  0
SPLINE
  5
52
330
1F
100
AcDbEntity
  8
2D
100
AcDbSpline
210
0.0
220
0.0
230
1.0
 70
     8
 71
     3
 72
     8
 73
     4
 74
     0
 42
0.0000000001
 43
0.0000000001
 40
-1.029466438891385
 40
-1.029466438891385
 40
-1.029466438891385
 40
-1.029466438891385
 40
0.0
 40
0.0
 40
0.0
 40
0.0
 10
-2985.42613416622
 20
-4646.748355932216
 30
0.0
 10
-2985.650120048478
 20
-4646.488382841605
 30
0.0
 10
-2985.871059150333
 20
-4646.225753380295
 30
0.0
 10
-2986.088859631069
 20
-4645.960576750411
 30
0.0
  0
SPLINE
  5
53
330
1F
100
AcDbEntity
  8
2D
100
AcDbSpline
210
0.0
220
0.0
230
1.0
 70
     8
 71
     3
 72
     8
 73
     4
 74
     0
 42
0.0000000001
 43
0.0000000001
 40
-0.850438260170799
 40
-0.850438260170799
 40
-0.850438260170799
 40
-0.850438260170799
 40
0.0
 40
0.0
 40
0.0
 40
0.0
 10
-2986.088859631069
 20
-4645.960576750411
 30
0.0
 10
-2986.268773487554
 20
-4645.741506909525
 30
0.0
 10
-2986.446439257154
 20
-4645.52057083175
 30
0.0
 10
-2986.621799762404
 20
-4645.297839435652
 30
0.0
  0
SPLINE
  5
54
330
1F
100
AcDbEntity
  8
2D
100
AcDbSpline
210
0.0
220
0.0
230
1.0
 70
     8
 71
     3
 72
     8
 73
     4
 74
     0
 42
0.0000000001
 43
0.0000000001
 40
-0.0838420023600011
 40
-0.0838420023600011
 40
-0.0838420023600011
 40
-0.0838420023600011
 40
0.0
 40
0.0
 40
0.0
 40
0.0
 10
-2986.621799762404
 20
-4645.297839435652
 30
0.0
 10
-2986.639087866388
 20
-4645.275880953309
 30
0.0
 10
-2986.656352297985
 20
-4645.253903818161
 30
0.0
 10
-2986.673592973479
 20
-4645.231908055727
 30
0.0
  0
SPLINE
  5
55
330
1F
100
AcDbEntity
  8
2D
100
AcDbSpline
210
0.0
220
0.0
230
1.0
 70
     8
 71
     3
 72
     8
 73
     4
 74
     0
 42
0.0000000001
 43
0.0000000001
 40
-0.8555330369663038
 40
-0.8555330369663038
 40
-0.8555330369663038
 40
-0.8555330369663038
 40
0.0
 40
0.0
 40
0.0
 40
0.0
 10
-2986.673592973479
 20
-4645.231908055727
 30
0.0
 10
-2986.849534285069
 20
-4645.007473269281
 30
0.0
 10
-2987.023024856917
 20
-4644.781094559947
 30
0.0
 10
-2987.194001090938
 20
-4644.552854694874
 30
0.0
  0
SPLINE
  5
56
330
1F
100
AcDbEntity
  8
2D
100
AcDbSpline
210
0.0
220
0.0
230
1.0
 70
     8
 71
     3
 72
     8
 73
     4
 74
     0
 42
0.0000000001
 43
0.0000000001
 40
-0.0785113573802507
 40
-0.0785113573802507
 40
-0.0785113573802507
 40
-0.0785113573802507
 40
0.0
 40
0.0
 40
0.0
 40
0.0
 10
-2987.194001090938
 20
-4644.552854694874
 30
0.0
 10
-2987.209691227843
 20
-4644.531909237432
 30
0.0
 10
-2987.22535901023
 20
-4644.510947020675
 30
0.0
 10
-2987.241004368443
 20
-4644.489968071923
 30
0.0
  0
SPLINE
  5
57
330
1F
100
AcDbEntity
  8
2D
100
AcDbSpline
210
0.0
220
0.0
230
1.0
 70
     8
 71
     3
 72
     8
 73
     4
 74
     0
 42
0.0000000001
 43
0.0000000001
 40
-0.8615680167624546
 40
-0.8615680167624546
 40
-0.8615680167624546
 40
-0.8615680167624546
 40
0.0
 40
0.0
 40
0.0
 40
0.0
 10
-2987.241004368443
 20
-4644.489968071923
 30
0.0
 10
-2987.412709898184
 20
-4644.259761777987
 30
0.0
 10
-2987.581743050432
 20
-4644.027536350467
 30
0.0
 10
-2987.748033319789
 20
-4643.793388399978
 30
0.0
  0
SPLINE
  5
58
330
1F
100
AcDbEntity
  8
2D
100
AcDbSpline
210
0.0
220
0.0
230
1.0
 70
     8
 71
     3
 72
     8
 73
     4
 74
     0
 42
0.0000000001
 43
0.0000000001
 40
-0.0731331433115216
 40
-0.0731331433115216
 40
-0.0731331433115216
 40
-0.0731331433115216
 40
0.0
 40
0.0
 40
0.0
 40
0.0
 10
-2987.748033319789
 20
-4643.793388399978
 30
0.0
 10
-2987.762148446625
 20
-4643.77351288346
 30
0.0
 10
-2987.776242728414
 20
-4643.753622551331
 30
0.0
 10
-2987.790316109647
 20
-4643.733717431535
 30
0.0
  0
SPLINE
  5
59
330
1F
100
AcDbEntity
  8
2D
100
AcDbSpline
210
0.0
220
0.0
230
1.0
 70
     8
 71
     3
 72
     8
 73
     4
 74
     0
 42
0.0000000001
 43
0.0000000001
 40
-0.8685883903512391
 40
-0.8685883903512391
 40
-0.8685883903512391
 40
-0.8685883903512391
 40
0.0
 40
0.0
 40
0.0
 40
0.0
 10
-2987.790316109647
 20
-4643.733717431535
 30
0.0
 10
-2987.957480402561
 20
-4643.497320688832
 30
0.0
 10
-2988.121730255541
 20
-4643.258833551436
 30
0.0
 10
-2988.282987815794
 20
-4643.018368773387
 30
0.0
  0
SPLINE
  5
5A
330
1F
100
AcDbEntity
  8
2D
100
AcDbSpline
210
0.0
220
0.0
230
1.0
 70
    12
 71
     2
 72
     6
 73
     3
 74
     0
 42
0.0000000001
 43
0.0000000001
 40
-2.844443702008505
 40
-2.844443702008505
 40
-2.844443702008505
 40
0.0
 40
0.0
 40
0.0
 10
-2988.282987815794
 20
-4643.018368773387
 30
0.0
 41
1.0
 10
-2989.076898683812
 20
-4641.836902395878
 30
0.0
 41
0.9990032041083025
 10
-2989.762270517778
 20
-4640.589335679324
 30
0.0
 41
0.9999999999992435
  0
SPLINE
  5
5B
330
1F
100
AcDbEntity
  8
2D
100
AcDbSpline
210
0.0
220
0.0
230
1.0
 70
     8
 71
     3
 72
     8
 73
     4
 74
     0
 42
0.0000000001
 43
0.0000000001
 40
-0.0512505010698781
 40
-0.0512505010698781
 40
-0.0512505010698781
 40
-0.0512505010698781
 40
0.0
 40
0.0
 40
0.0
 40
0.0
 10
-2989.762270517778
 20
-4640.589335679324
 30
0.0
 10
-2989.770480955427
 20
-4640.574354541162
 30
0.0
 10
-2989.778678926636
 20
-4640.559366561801
 30
0.0
 10
-2989.786864407761
 20
-4640.54437177318
 30
0.0
  0
SPLINE
  5
5C
330
1F
100
AcDbEntity
  8
2D
100
AcDbSpline
210
0.0
220
0.0
230
1.0
 70
     8
 71
     3
 72
     8
 73
     4
 74
     0
 42
0.0000000001
 43
0.0000000001
 40
-0.427119391983534
 40
-0.427119391983534
 40
-0.427119391983534
 40
-0.427119391983534
 40
0.0
 40
0.0
 40
0.0
 40
0.0
 10
-2989.786864407761
 20
-4640.54437177318
 30
0.0
 10
-2989.855092654259
 20
-4640.419411727265
 30
0.0
 10
-2989.92240011847
 20
-4640.293943106718
 30
0.0
 10
-2989.988717934299
 20
-4640.167941330611
 30
0.0
  0
SPLINE
  5
5D
330
1F
100
AcDbEntity
  8
2D
100
AcDbSpline
210
0.0
220
0.0
230
1.0
 70
    12
 71
     3
 72
    39
 73
    35
 74
     0
 42
0.0000000001
 43
0.0000000001
 40
0.0
 40
0.0
 40
0.0
 40
0.0
 40
0.3718871541871115
 40
1.484505835598455
 40
2.509639432502476
 40
2.509639432502476
 40
2.509639432502476
 40
105.7037713316963
 40
105.7037713316963
 40
105.7037713316963
 40
108.5707892692903
 40
108.5707892692903
 40
108.5707892692903
 40
281.8130455123217
 40
281.8130455123217
 40
281.8130455123217
 40
287.5470813875146
 40
287.5470813875146
 40
287.5470813875146
 40
387.3069638929829
 40
387.3069638929829
 40
387.3069638929829
 40
389.0631702395276
 40
390.8794307272119
 40
392.7438036136629
 40
394.6418319223337
 40
396.5569466238154
 40
398.471166859048
 40
400.3660568311784
 40
402.223819243857
 40
404.028352234744
 40
404.028352234744
 40
404.028352234744
 40
566.725220639134
 40
566.725220639134
 40
566.725220639134
 40
566.725220639134
 10
-2989.988717934299
 20
-4640.167941330611
 30
0.0
 41
1.0
 10
-2990.006459501757
 20
-4640.134264975759
 30
0.0
 41
1.0
 10
-2990.050286083206
 20
-4640.016367384867
 30
0.0
 41
1.0
 10
-2989.937984535372
 20
-4639.930450910408
 30
0.0
 41
1.0
 10
-2989.614779059626
 20
-4640.001171000685
 30
0.0
 41
1.0
 10
-2989.410966064977
 20
-4640.067393856986
 30
0.0
 41
1.0
 10
-2968.89431815546
 20
-4646.73365686856
 30
0.0
 41
1.0
 10
-2948.37767024594
 20
-4653.399919880135
 30
0.0
 41
1.0
 10
-2927.861022336423
 20
-4660.06618289171
 30
0.0
 41
1.0
 10
-2927.291013155213
 20
-4660.251390103105
 30
0.0
 41
1.0
 10
-2926.721003973995
 20
-4660.436597314503
 30
0.0
 41
1.0
 10
-2926.150994792784
 20
-4660.6218045259
 30
0.0
 41
1.0
 10
-2891.707656636401
 20
-4671.813123526034
 30
0.0
 41
1.0
 10
-2857.264318480025
 20
-4683.004442526169
 30
0.0
 41
1.0
 10
-2822.820980323642
 20
-4694.195761526308
 30
0.0
 41
1.0
 10
-2821.680960390782
 20
-4694.566171084653
 30
0.0
 41
1.0
 10
-2820.540940457922
 20
-4694.936580642994
 30
0.0
 41
1.0
 10
-2819.400920525062
 20
-4695.306990201338
 30
0.0
 41
1.0
 10
-2799.567056577187
 20
-4701.751403214806
 30
0.0
 41
1.0
 10
-2779.733192629323
 20
-4708.195816228273
 30
0.0
 41
1.0
 10
-2759.899328681448
 20
-4714.640229241743
 30
0.0
 41
1.0
 10
-2759.550166703164
 20
-4714.753678845664
 30
0.0
 41
1.0
 10
-2758.721510028223
 20
-4715.062066048711
 30
0.0
 41
1.0
 10
-2757.121059551471
 20
-4715.761548301794
 30
0.0
 41
1.0
 10
-2755.152838059494
 20
-4716.707754342674
 30
0.0
 41
1.0
 10
-2752.853873111788
 20
-4717.887017873135
 30
0.0
 41
1.0
 10
-2750.282533448852
 20
-4719.271218741324
 30
0.0
 41
1.0
 10
-2747.514288417602
 20
-4720.819693776865
 30
0.0
 41
1.0
 10
-2744.63406808977
 20
-4722.483362178211
 30
0.0
 41
1.0
 10
-2741.72894097212
 20
-4724.209073743618
 30
0.0
 41
1.0
 10
-2739.794570427104
 20
-4725.387620864474
 30
0.0
 41
1.0
 10
-2738.845693123745
 20
-4725.972750394841
 30
0.0
 41
1.0
 10
-2653.29486877528
 20
-4778.728157887085
 30
0.0
 41
1.0
 10
-2567.744044426814
 20
-4831.483565379325
 30
0.0
 41
1.0
 10
-2482.19322007821
 20
-4884.238972871319
 30
0.0
 41
1.0
  0
SPLINE
  5
5E
330
1F
100
AcDbEntity
  8
2D
100
AcDbSpline
210
0.0
220
0.0
230
1.0
 70
     8
 71
     3
 72
     8
 73
     4
 74
     0
 42
0.0000000001
 43
0.0000000001
 40
-31.36680624864512
 40
-31.36680624864512
 40
-31.36680624864512
 40
-31.36680624864512
 40
0.0
 40
0.0
 40
0.0
 40
0.0
 10
-2482.19322007821
 20
-4884.238972871319
 30
0.0
 10
-2473.29360323643
 20
-4889.726817164329
 30
0.0
 10
-2464.393997140993
 20
-4895.214678885484
 30
0.0
 10
-2455.494401792646
 20
-4900.702558034172
 30
0.0
  0
SPLINE
  5
5F
330
1F
100
AcDbEntity
  8
2D
100
AcDbSpline
210
0.0
220
0.0
230
1.0
 70
    12
 71
     3
 72
    91
 73
    87
 74
     0
 42
0.0000000001
 43
0.0000000001
 40
0.0
 40
0.0
 40
0.0
 40
0.0
 40
2.242613583269134
 40
4.485230646469317
 40
6.727847709668797
 40
8.97046477286898
 40
11.21308183606846
 40
13.17131946839922
 40
15.12955710073068
 40
17.08779473306143
 40
19.04603236539219
 40
21.00426999772295
 40
22.96250763005441
 40
24.92074526238587
 40
26.87898289471593
 40
28.83722052704738
 40
30.79545815937814
 40
32.75369579170889
 40
34.71193342404035
 40
36.67017105637111
 40
38.62840868870187
 40
40.58664632103263
 40
42.54488395336409
 40
44.50312158569484
 40
44.50312158569484
 40
44.50312158569484
 40
351.9473233802848
 40
351.9473233802848
 40
351.9473233802848
 40
353.9055610126156
 40
355.8637986449471
 40
357.8220362772778
 40
359.7802739096086
 40
361.7385115419393
 40
363.6967491742708
 40
365.6549868066015
 40
367.6132244389323
 40
369.5714620712637
 40
371.5296997035945
 40
373.4879373359253
 40
375.4461749682567
 40
377.4044126005875
 40
379.3626502329183
 40
381.320887865249
 40
383.2791254975797
 40
385.2373631299112
 40
387.4799801931107
 40
389.7225972563109
 40
391.9652143195104
 40
394.2078313827105
 40
396.45044844591
 40
398.6930655091102
 40
400.9356825723097
 40
403.1782996355092
 40
405.4209166987094
 40
407.6635337619095
 40
409.906150825109
 40
412.1487678883092
 40
414.3913849515087
 40
416.6340020147089
 40
416.6340020147089
 40
416.6340020147089
 40
649.3169845307574
 40
649.3169845307574
 40
649.3169845307574
 40
651.8977602789456
 40
654.5546627599465
 40
657.2646636910771
 40
660.0023100431965
 40
662.7412356275678
 40
665.455724890513
 40
668.1220814244364
 40
670.7196294009374
 40
673.2312901856762
 40
673.2312901856762
 40
673.2312901856762
 40
815.9041516475718
 40
815.9041516475718
 40
815.9041516475718
 40
824.1047557931727
 40
824.1047557931727
 40
824.1047557931727
 40
1071.869366277396
 40
1071.869366277396
 40
1071.869366277396
 40
1075.969669174053
 40
1075.969669174053
 40
1075.969669174053
 40
1075.969669174053
 10
-2455.494401792646
 20
-4900.702558034172
 30
0.0
 41
1.0
 10
-2454.502316815233
 20
-4901.309330821175
 30
0.0
 41
1.0
 10
-2452.505685108365
 20
-4902.513269474202
 30
0.0
 41
1.0
 10
-2449.627451006982
 20
-4904.468499846076
 30
0.0
 41
1.0
 10
-2446.891675902069
 20
-4906.636918211937
 30
0.0
 41
1.0
 10
-2444.308747917992
 20
-4908.994633798665
 30
0.0
 41
1.0
 10
-2442.039669968515
 20
-4911.367072755911
 30
0.0
 41
1.0
 10
-2439.858215269705
 20
-4913.977935609128
 30
0.0
 41
1.0
 10
-2437.983449537674
 20
-4916.546747431764
 30
0.0
 41
1.0
 10
-2436.269078990266
 20
-4919.236432937712
 30
0.0
 41
1.0
 10
-2434.732153356206
 20
-4922.025414083489
 30
0.0
 41
1.0
 10
-2433.367981842519
 20
-4924.925360593118
 30
0.0
 41
1.0
 10
-2432.200465881149
 20
-4927.882775428214
 30
0.0
 41
1.0
 10
-2431.214437514867
 20
-4930.939582625391
 30
0.0
 41
1.0
 10
-2430.434935026122
 20
-4934.015880483898
 30
0.0
 41
1.0
 10
-2429.847118280366
 20
-4937.163637216768
 30
0.0
 41
1.0
 10
-2429.463781403287
 20
-4940.327617797782
 30
0.0
 41
1.0
 10
-2429.282033852425
 20
-4943.516668689901
 30
0.0
 41
1.0
 10
-2429.304451739496
 20
-4946.70872603489
 30
0.0
 41
1.0
 10
-2429.529541010132
 20
-4949.888179553041
 30
0.0
 41
1.0
 10
-2429.958371870962
 20
-4953.055431374984
 30
0.0
 41
1.0
 10
-2430.585622930041
 20
-4956.178654042749
 30
0.0
 41
1.0
 10
-2431.416969297112
 20
-4959.273643702328
 30
0.0
 41
1.0
 10
-2432.09557417094
 20
-4961.286162606802
 30
0.0
 41
1.0
 10
-2432.424093130172
 20
-4962.297234067298
 30
0.0
 41
1.0
 10
-2473.462186272096
 20
-5088.599497727239
 30
0.0
 41
1.0
 10
-2514.501023256886
 20
-5214.904050700206
 30
0.0
 41
1.0
 10
-2555.53899331958
 20
-5341.205935561213
 30
0.0
 41
1.0
 10
-2555.86750858197
 20
-5342.217004421694
 30
0.0
 41
1.0
 10
-2556.501434224498
 20
-5344.244032996903
 30
0.0
 41
1.0
 10
-2557.64804949093
 20
-5347.236573418743
 30
0.0
 41
1.0
 10
-2558.976376234332
 20
-5350.131989874436
 30
0.0
 41
1.0
 10
-2560.491107932947
 20
-5352.946397403654
 30
0.0
 41
1.0
 10
-2562.177841980323
 20
-5355.650919348719
 30
0.0
 41
1.0
 10
-2564.035948927642
 20
-5358.246510093111
 30
0.0
 41
1.0
 10
-2566.057462001914
 20
-5360.719662540401
 30
0.0
 41
1.0
 10
-2568.227328280744
 20
-5363.054040965194
 30
0.0
 41
1.0
 10
-2570.553086079733
 20
-5365.255103238346
 30
0.0
 41
1.0
 10
-2572.991918416574
 20
-5367.285683778556
 30
0.0
 41
1.0
 10
-2575.586377345429
 20
-5369.179102655061
 30
0.0
 41
1.0
 10
-2578.269241454087
 20
-5370.885435613642
 30
0.0
 41
1.0
 10
-2581.077424194624
 20
-5372.429684170577
 30
0.0
 41
1.0
 10
-2583.960144150216
 20
-5373.782617541948
 30
0.0
 41
1.0
 10
-2586.928055539927
 20
-5374.950919485611
 30
0.0
 41
1.0
 10
-2589.95468159626
 20
-5375.927154727889
 30
0.0
 41
1.0
 10
-2593.254141152036
 20
-5376.757141610405
 30
0.0
 41
1.0
 10
-2596.484347404712
 20
-5377.34273670484
 30
0.0
 41
1.0
 10
-2599.959809440425
 20
-5377.731943057244
 30
0.0
 41
1.0
 10
-2603.44766130378
 20
-5377.878163885188
 30
0.0
 41
1.0
 10
-2606.925457988385
 20
-5377.768177218713
 30
0.0
 41
1.0
 10
-2610.409909274076
 20
-5377.468783775778
 30
0.0
 41
1.0
 10
-2613.881061004933
 20
-5377.214681337992
 30
0.0
 41
1.0
 10
-2617.358783388114
 20
-5376.948211765315
 30
0.0
 41
1.0
 10
-2620.833152709562
 20
-5376.685173569383
 30
0.0
 41
1.0
 10
-2624.314031155074
 20
-5376.420786901246
 30
0.0
 41
1.0
 10
-2627.775104374698
 20
-5376.158128984617
 30
0.0
 41
1.0
 10
-2631.261599380712
 20
-5375.893478069698
 30
0.0
 41
1.0
 10
-2634.733756574467
 20
-5375.629929100534
 30
0.0
 41
1.0
 10
-2638.214189621445
 20
-5375.365745102286
 30
0.0
 41
1.0
 10
-2640.527137350669
 20
-5375.190178684774
 30
0.0
 41
1.0
 10
-2641.684528789094
 20
-5375.102325309797
 30
0.0
 41
1.0
 10
-2741.905459664817
 20
-5367.497004066206
 30
0.0
 41
1.0
 10
-2842.126390540532
 20
-5359.891682822617
 30
0.0
 41
1.0
 10
-2942.347321416244
 20
-5352.286361579028
 30
0.0
 41
1.0
 10
-2943.458909788871
 20
-5352.202005227852
 30
0.0
 41
1.0
 10
-2945.716581049976
 20
-5352.018475398472
 30
0.0
 41
1.0
 10
-2949.081226066832
 20
-5351.707014506483
 30
0.0
 41
1.0
 10
-2952.389253010617
 20
-5351.359999484123
 30
0.0
 41
1.0
 10
-2955.538981074922
 20
-5350.985608499146
 30
0.0
 41
1.0
 10
-2958.432851417085
 20
-5350.594054992627
 30
0.0
 41
1.0
 10
-2960.985906841022
 20
-5350.196801537817
 30
0.0
 41
1.0
 10
-2963.134397433176
 20
-5349.805406738838
 30
0.0
 41
1.0
 10
-2964.840334420118
 20
-5349.430578581594
 30
0.0
 41
1.0
 10
-2965.691997202601
 20
-5349.192996896961
 30
0.0
 41
1.0
 10
-2966.041159180888
 20
-5349.079547293039
 30
0.0
 41
1.0
 10
-2985.875021654585
 20
-5342.635134282492
 30
0.0
 41
1.0
 10
-3005.708884128278
 20
-5336.19072127194
 30
0.0
 41
1.0
 10
-3025.542746601983
 20
-5329.746308261388
 30
0.0
 41
1.0
 10
-3026.682766534843
 20
-5329.375898703042
 30
0.0
 41
1.0
 10
-3027.822786467703
 20
-5329.005489144699
 30
0.0
 41
1.0
 10
-3028.962806400559
 20
-5328.635079586354
 30
0.0
 41
1.0
 10
-3063.406146074274
 20
-5317.443760541212
 30
0.0
 41
1.0
 10
-3097.849485747989
 20
-5306.252441496069
 30
0.0
 41
1.0
 10
-3132.292825421711
 20
-5295.06112245092
 30
0.0
 41
1.0
 10
-3132.862834598753
 20
-5294.875915242265
 30
0.0
 41
1.0
 10
-3133.432843775798
 20
-5294.690708033609
 30
0.0
 41
1.0
 10
-3134.002852952839
 20
-5294.505500824955
 30
0.0
 41
1.0
  0
SPLINE
  5
60
330
1F
100
AcDbEntity
  8
2D
100
AcDbSpline
210
0.0
220
0.0
230
1.0
 70
    12
 71
     3
 72
    13
 73
     9
 74
     0
 42
0.0000000001
 43
0.0000000001
 40
0.0
 40
0.0
 40
0.0
 40
0.0
 40
63.99854076329422
 40
63.99854076329422
 40
63.99854076329422
 40
64.63430418424953
 40
65.32432376925723
 40
65.55475978695507
 40
65.55475978695507
 40
65.55475978695507
 40
65.55475978695507
 10
-3134.002852952839
 20
-5294.505500824955
 30
0.0
 41
1.0
 10
-3154.519500823368
 20
-5287.839237852731
 30
0.0
 41
1.0
 10
-3175.036148693889
 20
-5281.172974880512
 30
0.0
 41
1.0
 10
-3195.552796564421
 20
-5274.506711908293
 30
0.0
 41
1.0
 10
-3195.756609559056
 20
-5274.440489051985
 30
0.0
 41
1.0
 10
-3196.059656507729
 20
-5274.307727394757
 30
0.0
 41
1.0
 10
-3196.100004758548
 20
-5274.172227686298
 30
0.0
 41
1.0
 10
-3195.995300417777
 20
-5274.10261995458
 30
0.0
 41
1.0
 10
-3195.961189515067
 20
-5274.085830564889
 30
0.0
 41
1.0
  0
SPLINE
  5
61
330
1F
100
AcDbEntity
  8
2D
100
AcDbSpline
210
0.0
220
0.0
230
1.0
 70
     8
 71
     3
 72
    10
 73
     6
 74
     0
 42
0.0000000001
 43
0.0000000001
 40
-20.66389800250802
 40
-20.66389800250802
 40
-20.66389800250802
 40
-20.66389800250802
 40
-10.3142203599598
 40
-10.3142203599598
 40
0.0
 40
0.0
 40
0.0
 40
0.0
 10
-3195.961189515067
 20
-5274.085830564889
 30
0.0
 10
-3192.861543924319
 20
-5272.560133391432
 30
0.0
 10
-3189.517947740005
 20
-5271.597728227167
 30
0.0
 10
-3182.784595314752
 20
-5270.343942859812
 30
0.0
 10
-3179.284867112565
 20
-5270.032895543602
 30
0.0
 10
-3175.878614423917
 20
-5269.870037414473
 30
0.0
  0
LINE
  5
62
330
1F
100
AcDbEntity
  8
2D
100
AcDbLine
 10
-4778.757488326177
 20
-4107.246091176223
 30
0.0
 11
-4741.291949598988
 21
-4080.025783485317
 31
0.0
  0
SPLINE
  5
63
330
1F
100
AcDbEntity
  8
2D
100
AcDbSpline
210
0.0
220
0.0
230
1.0
 70
     8
 71
     3
 72
   114
 73
   110
 74
     0
 42
0.0000000001
 43
0.0000000001
 40
-1098.975988350564
 40
-1098.975988350564
 40
-1098.975988350564
 40
-1098.975988350564
 40
-1090.211722719058
 40
-1090.211722719058
 40
-1085.842116321379
 40
-1085.842116321379
 40
-1081.475241057535
 40
-1081.475241057535
 40
-1072.722742489073
 40
-1072.722742489073
 40
-1063.978533363407
 40
-1063.978533363407
 40
-1047.272469058179
 40
-1047.272469058179
 40
-1029.785121968112
 40
-1029.785121968112
 40
-994.8104174682126
 40
-994.8104174682126
 40
-959.8357145202358
 40
-959.8357145202358
 40
-889.7871757043138
 40
-889.7871757043138
 40
-819.7386369232448
 40
-819.7386369232448
 40
-810.9883767665765
 40
-810.9883767665765
 40
-808.8008117285325
 40
-808.8008117285325
 40
-806.612866960059
 40
-806.612866960059
 40
-802.2288768724106
 40
-802.2288768724106
 40
-797.8453067647517
 40
-797.8453067647517
 40
-793.4597658518612
 40
-793.4597658518612
 40
-784.6403324195351
 40
-784.6403324195351
 40
-780.2542513531357
 40
-780.2542513531357
 40
-775.8668525391696
 40
-775.8668525391696
 40
-767.0562974198436
 40
-767.0562974198436
 40
-749.4762043823443
 40
-749.4762043823443
 40
-745.0847758857791
 40
-745.0847758857791
 40
-740.6954260846422
 40
-740.6954260846422
 40
-731.9168630268965
 40
-731.9168630268965
 40
-714.359734074467
 40
-714.359734074467
 40
-679.2454746412515
 40
-679.2454746412515
 40
-538.885435126465
 40
-538.885435126465
 40
-398.4533962012949
 40
-398.4533962012949
 40
-363.3248260948219
 40
-363.3248260948219
 40
-345.760545594033
 40
-345.760545594033
 40
-336.978405551513
 40
-336.978405551513
 40
-332.5865509007314
 40
-332.5865509007314
 40
-328.1933279444642
 40
-328.1933279444642
 40
-319.3775792949753
 40
-319.3775792949753
 40
-310.5594802550432
 40
-310.5594802550432
 40
-301.7389711533251
 40
-301.7389711533251
 40
-297.3476125005693
 40
-297.3476125005693
 40
-292.9573986278402
 40
-292.9573986278402
 40
-288.5671586246759
 40
-288.5671586246759
 40
-284.1747404435837
 40
-284.1747404435837
 40
-275.3340303165527
 40
-275.3340303165527
 40
-270.9426323452433
 40
-270.9426323452433
 40
-269.0719488794512
 40
-269.0719488794512
 40
-260.3090592472477
 40
-260.3090592472477
 40
-190.2964042687457
 40
-190.2964042687457
 40
-120.2837495027994
 40
-120.2837495027994
 40
-68.7894018908561
 40
-68.7894018908561
 40
-51.26184808680494
 40
-51.26184808680494
 40
-34.73047044122809
 40
-34.73047044122809
 40
-25.96695067109679
 40
-25.96695067109679
 40
-17.19426702028859
 40
-17.19426702028859
 40
-8.759227642300587
 40
-8.759227642300587
 40
0.0
 40
0.0
 40
0.0
 40
0.0
 10
-4741.291949598988
 20
-4080.025783485317
 30
0.0
 10
-4739.927496837077
 20
-4077.449442551414
 30
0.0
 10
-4739.27986435924
 20
-4074.673648445118
 30
0.0
 10
-4738.951657787013
 20
-4070.372663807153
 30
0.0
 10
-4738.952361296033
 20
-4068.948505794924
 30
0.0
 10
-4739.072877547016
 20
-4066.085673110716
 30
0.0
 10
-4739.195888379963
 20
-4064.663757714703
 30
0.0
 10
-4739.73198857456
 20
-4060.395091735267
 30
0.0
 10
-4740.301640180413
 20
-4057.605344871281
 30
0.0
 10
-4741.700592086538
 20
-4052.048254642036
 30
0.0
 10
-4742.524676074969
 20
-4049.31385654395
 30
0.0
 10
-4745.130421000304
 20
-4041.400525469525
 30
0.0
 10
-4747.351040015594
 20
-4035.580841287102
 30
0.0
 10
-4751.275471475885
 20
-4025.107089105872
 30
0.0
 10
-4753.267009929052
 20
-4019.744785975786
 30
0.0
 10
-4759.260017754925
 20
-4003.664709363162
 30
0.0
 10
-4763.263908527133
 20
-3992.947853715928
 30
0.0
 10
-4771.272050110503
 20
-3971.514271964259
 30
0.0
 10
-4775.27750011798
 20
-3960.797997372526
 30
0.0
 10
-4787.311528672417
 20
-3928.621162097684
 30
0.0
 10
-4795.34352385817
 20
-3907.161881020863
 30
0.0
 10
-4811.397541752343
 20
-3864.239587685831
 30
0.0
 10
-4819.422679096744
 20
-3842.77774118551
 30
0.0
 10
-4828.450646122226
 20
-3818.635075002266
 30
0.0
 10
-4829.453167059808
 20
-3815.954139904027
 30
0.0
 10
-4830.706329673412
 20
-3812.602975310118
 30
0.0
 10
-4830.956962768119
 20
-3811.932742605545
 30
0.0
 10
-4831.458273741293
 20
-3810.592161331133
 30
0.0
 10
-4831.715094889969
 20
-3809.924203486729
 30
0.0
 10
-4832.426277792798
 20
-3807.894925306668
 30
0.0
 10
-4832.822056241585
 20
-3806.524792384999
 30
0.0
 10
-4833.476713893899
 20
-3803.732319509686
 30
0.0
 10
-4833.731269211334
 20
-3802.328634735164
 30
0.0
 10
-4834.097603510003
 20
-3799.483383949472
 30
0.0
 10
-4834.205685373527
 20
-3798.060608724476
 30
0.0
 10
-4834.306511745479
 20
-3793.741857696331
 30
0.0
 10
-4834.077891744077
 20
-3790.918961789666
 30
0.0
 10
-4833.358814658139
 20
-3786.663837158761
 30
0.0
 10
-4833.05934535577
 20
-3785.267985327027
 30
0.0
 10
-4832.329811648237
 20
-3782.495074991321
 30
0.0
 10
-4831.903752072394
 20
-3781.132082034513
 30
0.0
 10
-4830.435714063809
 20
-3777.076542683515
 30
0.0
 10
-4829.239671199488
 20
-3774.5016964891
 30
0.0
 10
-4824.999493817078
 20
-3766.995988807062
 30
0.0
 10
-4821.394915625831
 20
-3762.498044408972
 30
0.0
 10
-4816.12645613448
 20
-3757.63607476422
 30
0.0
 10
-4815.04046467282
 20
-3756.707645494077
 30
0.0
 10
-4812.793752694153
 20
-3754.929757386958
 30
0.0
 10
-4811.630846794731
 20
-3754.09654382033
 30
0.0
 10
-4808.163177179158
 20
-3751.565041692692
 30
0.0
 10
-4805.851162886771
 20
-3749.877720328515
 30
0.0
 10
-4798.914351099505
 20
-3744.816807766186
 30
0.0
 10
-4794.288787078189
 20
-3741.444269837056
 30
0.0
 10
-4780.408798106833
 20
-3731.331172748164
 30
0.0
 10
-4771.150744097566
 20
-3724.595616687131
 30
0.0
 10
-4724.868877040557
 20
-3690.959989134941
 30
0.0
 10
-4687.798160732087
 20
-3664.124618273591
 30
0.0
 10
-4613.728280835418
 20
-3610.315234747747
 30
0.0
 10
-4576.736202978267
 20
-3583.331712538696
 30
0.0
 10
-4530.420837067562
 20
-3549.694320630295
 30
0.0
 10
-4521.149781442062
 20
-3542.968722723097
 30
0.0
 10
-4507.236954765754
 20
-3532.888919980588
 30
0.0
 10
-4502.598309127796
 20
-3529.530420835345
 30
0.0
 10
-4495.638686697799
 20
-3524.494954429524
 30
0.0
 10
-4493.318537379128
 20
-3522.816846365269
 30
0.0
 10
-4489.837681037388
 20
-3520.30012174182
 30
0.0
 10
-4488.685100610277
 20
-3519.4513682409
 30
0.0
 10
-4486.297031107988
 20
-3517.865733417342
 30
0.0
 10
-4485.07675056325
 20
-3517.121200136785
 30
0.0
 10
-4481.31849047276
 20
-3515.01163219549
 30
0.0
 10
-4478.745997759997
 20
-3513.800031477102
 30
0.0
 10
-4473.353210240926
 20
-3511.785255210992
 30
0.0
 10
-4470.617957351289
 20
-3511.009602520005
 30
0.0
 10
-4464.975526181926
 20
-3509.866716404651
 30
0.0
 10
-4462.156824855861
 20
-3509.51954831798
 30
0.0
 10
-4457.843815070621
 20
-3509.38066606497
 30
0.0
 10
-4456.415266063901
 20
-3509.398245850959
 30
0.0
 10
-4453.551654089759
 20
-3509.560696900525
 30
0.0
 10
-4452.130717314813
 20
-3509.704569899615
 30
0.0
 10
-4449.293425932687
 20
-3510.122824111507
 30
0.0
 10
-4447.891943806662
 20
-3510.395037066449
 30
0.0
 10
-4445.105831819994
 20
-3511.079681463994
 30
0.0
 10
-4443.737286671429
 20
-3511.487600059921
 30
0.0
 10
-4439.659967046511
 20
-3512.923751785854
 30
0.0
 10
-4437.100526575468
 20
-3514.127097395446
 30
0.0
 10
-4433.40306594787
 20
-3516.368632136737
 30
0.0
 10
-4432.223247748425
 20
-3517.170485314822
 30
0.0
 10
-4430.600010395166
 20
-3518.417123911677
 30
0.0
 10
-4428.197363955824
 20
-3520.331936260709
 30
0.0
 10
-4425.47821215371
 20
-3522.49519382299
 30
0.0
 10
-4423.237411162248
 20
-3524.277874858316
 30
0.0
 10
-4403.093283184928
 20
-3540.303536198864
 30
0.0
 10
-4385.189595897664
 20
-3554.546063570794
 30
0.0
 10
-4349.3846575588
 20
-3583.034180637592
 30
0.0
 10
-4331.4848407627
 20
-3597.281572161985
 30
0.0
 10
-4300.41391443093
 20
-3622.00066000886
 30
0.0
 10
-4272.961781793045
 20
-3643.833732707124
 30
0.0
 10
-4255.297179763562
 20
-3657.85676980586
 30
0.0
 10
-4250.805592497021
 20
-3661.410480748729
 30
0.0
 10
-4242.102515432889
 20
-3668.347246047414
 30
0.0
 10
-4237.135408102858
 20
-3672.345835512032
 30
0.0
 10
-4230.464356569908
 20
-3677.236494319763
 30
0.0
 10
-4228.115844830147
 20
-3678.867259647568
 30
0.0
 10
-4223.258822703421
 20
-3681.921022314775
 30
0.0
 10
-4220.778691270203
 20
-3683.326409243093
 30
0.0
 10
-4215.676862539731
 20
-3685.723047003469
 30
0.0
 10
-4212.821361120114
 20
-3686.842272781363
 30
0.0
 10
-4207.322171390304
 20
-3688.179953520128
 30
0.0
 10
-4204.482353475993
 20
-3688.423110040667
 30
0.0
 10
-4201.605632486695
 20
-3687.920719942467
 30
0.0
  0
LINE
  5
64
330
1F
100
AcDbEntity
  8
2D
100
AcDbLine
 10
-4201.605632486695
 20
-3687.920719942467
 30
0.0
 11
-4164.140079349272
 21
-3660.700405102036
 31
0.0
  0
SPLINE
  5
65
330
1F
100
AcDbEntity
  8
2D
100
AcDbSpline
210
0.0
220
0.0
230
1.0
 70
     8
 71
     3
 72
     8
 73
     4
 74
     0
 42
0.0000000001
 43
0.0000000001
 40
-5.939721802971562
 40
-5.939721802971562
 40
-5.939721802971562
 40
-5.939721802971562
 40
0.0
 40
0.0
 40
0.0
 40
0.0
 10
-4635.080355064489
 20
-4208.367901279065
 30
0.0
 10
-4634.553912701056
 20
-4210.276537238726
 30
0.0
 10
-4634.089032296291
 20
-4212.203228132035
 30
0.0
 10
-4633.687170758614
 20
-4214.141923601475
 30
0.0
  0
SPLINE
  5
66
330
1F
100
AcDbEntity
  8
2D
100
AcDbSpline
210
0.0
220
0.0
230
1.0
 70
     8
 71
     3
 72
     8
 73
     4
 74
     0
 42
0.0000000001
 43
0.0000000001
 40
-0.1501552434076863
 40
-0.1501552434076863
 40
-0.1501552434076863
 40
-0.1501552434076863
 40
0.0
 40
0.0
 40
0.0
 40
0.0
 10
-4633.687170758614
 20
-4214.141923601475
 30
0.0
 10
-4633.677140303134
 20
-4214.190959990282
 30
0.0
 10
-4633.667162451817
 20
-4214.240007162553
 30
0.0
 10
-4633.657237330492
 20
-4214.289064989027
 30
0.0
  0
SPLINE
  5
67
330
1F
100
AcDbEntity
  8
2D
100
AcDbSpline
210
0.0
220
0.0
230
1.0
 70
     8
 71
     3
 72
     8
 73
     4
 74
     0
 42
0.0000000001
 43
0.0000000001
 40
-0.8252789005183954
 40
-0.8252789005183954
 40
-0.8252789005183954
 40
-0.8252789005183954
 40
0.0
 40
0.0
 40
0.0
 40
0.0
 10
-4633.657237330492
 20
-4214.289064989027
 30
0.0
 10
-4633.602674499412
 20
-4214.558692589367
 30
0.0
 10
-4633.549705545811
 20
-4214.828647668536
 30
0.0
 10
-4633.498336114048
 20
-4215.098901848717
 30
0.0
  0
SPLINE
  5
68
330
1F
100
AcDbEntity
  8
2D
100
AcDbSpline
210
0.0
220
0.0
230
1.0
 70
     8
 71
     3
 72
     8
 73
     4
 74
     0
 42
0.0000000001
 43
0.0000000001
 40
-0.1440171821977171
 40
-0.1440171821977171
 40
-0.1440171821977171
 40
-0.1440171821977171
 40
0.0
 40
0.0
 40
0.0
 40
0.0
 10
-4633.498336114048
 20
-4215.098901848717
 30
0.0
 10
-4633.489370968589
 20
-4215.146063019566
 30
0.0
 10
-4633.480458189464
 20
-4215.193234168744
 30
0.0
 10
-4633.471597892691
 20
-4215.240415161354
 30
0.0
  0
SPLINE
  5
69
330
1F
100
AcDbEntity
  8
2D
100
AcDbSpline
210
0.0
220
0.0
230
1.0
 70
     8
 71
     3
 72
     8
 73
     4
 74
     0
 42
0.0000000001
 43
0.0000000001
 40
-2.260536727636535
 40
-2.260536727636535
 40
-2.260536727636535
 40
-2.260536727636535
 40
0.0
 40
0.0
 40
0.0
 40
0.0
 10
-4633.471597892691
 20
-4215.240415161354
 30
0.0
 10
-4633.332159630299
 20
-4215.980913429569
 30
0.0
 10
-4633.206351984882
 20
-4216.724161537294
 30
0.0
 10
-4633.09431572504
 20
-4217.469298155675
 30
0.0
  0
SPLINE
  5
6A
330
1F
100
AcDbEntity
  8
2D
100
AcDbSpline
210
0.0
220
0.0
230
1.0
 70
     8
 71
     3
 72
     8
 73
     4
 74
     0
 42
0.0000000001
 43
0.0000000001
 40
-0.1273043555089704
 40
-0.1273043555089704
 40
-0.1273043555089704
 40
-0.1273043555089704
 40
0.0
 40
0.0
 40
0.0
 40
0.0
 10
-4633.09431572504
 20
-4217.469298155675
 30
0.0
 10
-4633.088019580326
 20
-4217.511263255202
 30
0.0
 10
-4633.081774328959
 20
-4217.553236003246
 30
0.0
 10
-4633.075579960452
 20
-4217.595216299265
 30
0.0
  0
SPLINE
  5
6B
330
1F
100
AcDbEntity
  8
2D
100
AcDbSpline
210
0.0
220
0.0
230
1.0
 70
     8
 71
     3
 72
     8
 73
     4
 74
     0
 42
0.0000000001
 43
0.0000000001
 40
-0.8261685768864292
 40
-0.8261685768864292
 40
-0.8261685768864292
 40
-0.8261685768864292
 40
0.0
 40
0.0
 40
0.0
 40
0.0
 10
-4633.075579960452
 20
-4217.595216299265
 30
0.0
 10
-4633.035468541617
 20
-4217.867669039885
 30
0.0
 10
-4632.997336002016
 20
-4218.140420526545
 30
0.0
 10
-4632.961189107693
 20
-4218.413427474447
 30
0.0
  0
SPLINE
  5
6C
330
1F
100
AcDbEntity
  8
2D
100
AcDbSpline
210
0.0
220
0.0
230
1.0
 70
     8
 71
     3
 72
     8
 73
     4
 74
     0
 42
0.0000000001
 43
0.0000000001
 40
-0.1171575481497403
 40
-0.1171575481497403
 40
-0.1171575481497403
 40
-0.1171575481497403
 40
0.0
 40
0.0
 40
0.0
 40
0.0
 10
-4632.961189107693
 20
-4218.413427474447
 30
0.0
 10
-4632.956070319175
 20
-4218.452143066063
 30
0.0
 10
-4632.95099766905
 20
-4218.490864769215
 30
0.0
 10
-4632.945971108544
 20
-4218.529592495169
 30
0.0
  0
SPLINE
  5
6D
330
1F
100
AcDbEntity
  8
2D
100
AcDbSpline
210
0.0
220
0.0
230
1.0
 70
     8
 71
     3
 72
     8
 73
     4
 74
     0
 42
0.0000000001
 43
0.0000000001
 40
-2.247918302199757
 40
-2.247918302199757
 40
-2.247918302199757
 40
-2.247918302199757
 40
0.0
 40
0.0
 40
0.0
 40
0.0
 10
-4632.945971108544
 20
-4218.529592495169
 30
0.0
 10
-4632.849185655868
 20
-4219.272621621948
 30
0.0
 10
-4632.76952534595
 20
-4220.018162248396
 30
0.0
 10
-4632.707139230799
 20
-4220.764866746184
 30
0.0
  0
SPLINE
  5
6E
330
1F
100
AcDbEntity
  8
2D
100
AcDbSpline
210
0.0
220
0.0
230
1.0
 70
     8
 71
     3
 72
     8
 73
     4
 74
     0
 42
0.0000000001
 43
0.0000000001
 40
-1.029455893309039
 40
-1.029455893309039
 40
-1.029455893309039
 40
-1.029455893309039
 40
0.0
 40
0.0
 40
0.0
 40
0.0
 10
-4632.707139230799
 20
-4220.764866746184
 30
0.0
 10
-4632.678739485105
 20
-4221.106841489745
 30
0.0
 10
-4632.654365221904
 20
-4221.449184945047
 30
0.0
 10
-4632.63402805226
 20
-4221.791733746639
 30
0.0
  0
SPLINE
  5
6F
330
1F
100
AcDbEntity
  8
2D
100
AcDbSpline
210
0.0
220
0.0
230
1.0
 70
     8
 71
     3
 72
     8
 73
     4
 74
     0
 42
0.0000000001
 43
0.0000000001
 40
-0.8504382601721155
 40
-0.8504382601721155
 40
-0.8504382601721155
 40
-0.8504382601721155
 40
0.0
 40
0.0
 40
0.0
 40
0.0
 10
-4632.63402805226
 20
-4221.791733746639
 30
0.0
 10
-4632.617240706535
 20
-4222.074715682395
 30
0.0
 10
-4632.603369047829
 20
-4222.35788604319
 30
0.0
 10
-4632.592417648786
 20
-4222.641153846636
 30
0.0
  0
SPLINE
  5
70
330
1F
100
AcDbEntity
  8
2D
100
AcDbSpline
210
0.0
220
0.0
230
1.0
 70
     8
 71
     3
 72
     8
 73
     4
 74
     0
 42
0.0000000001
 43
0.0000000001
 40
-0.083842002363263
 40
-0.083842002363263
 40
-0.083842002363263
 40
-0.083842002363263
 40
0.0
 40
0.0
 40
0.0
 40
0.0
 10
-4632.592417648786
 20
-4222.641153846636
 30
0.0
 10
-4632.591338150956
 20
-4222.669080324586
 30
0.0
 10
-4632.590288768319
 20
-4222.697007978689
 30
0.0
 10
-4632.589269553617
 20
-4222.724936739097
 30
0.0
  0
SPLINE
  5
71
330
1F
100
AcDbEntity
  8
2D
100
AcDbSpline
210
0.0
220
0.0
230
1.0
 70
     8
 71
     3
 72
     8
 73
     4
 74
     0
 42
0.0000000001
 43
0.0000000001
 40
-0.8555330369648805
 40
-0.8555330369648805
 40
-0.8555330369648805
 40
-0.8555330369648805
 40
0.0
 40
0.0
 40
0.0
 40
0.0
 10
-4632.589269553617
 20
-4222.724936739097
 30
0.0
 10
-4632.5788495001
 20
-4223.009924003683
 30
0.0
 10
-4632.571554745882
 20
-4223.295043426245
 30
0.0
 10
-4632.567388093608
 20
-4223.58019066473
 30
0.0
  0
SPLINE
  5
72
330
1F
100
AcDbEntity
  8
2D
100
AcDbSpline
210
0.0
220
0.0
230
1.0
 70
     8
 71
     3
 72
     8
 73
     4
 74
     0
 42
0.0000000001
 43
0.0000000001
 40
-0.0785113573802542
 40
-0.0785113573802542
 40
-0.0785113573802542
 40
-0.0785113573802542
 40
0.0
 40
0.0
 40
0.0
 40
0.0
 10
-4632.567388093608
 20
-4223.58019066473
 30
0.0
 10
-4632.567005937206
 20
-4223.606358326832
 30
0.0
 10
-4632.566651716847
 20
-4223.632526407854
 30
0.0
 10
-4632.566325472857
 20
-4223.658694844742
 30
0.0
  0
SPLINE
  5
73
330
1F
100
AcDbEntity
  8
2D
100
AcDbSpline
210
0.0
220
0.0
230
1.0
 70
     8
 71
     3
 72
     8
 73
     4
 74
     0
 42
0.0000000001
 43
0.0000000001
 40
-0.8615680167620311
 40
-0.8615680167620311
 40
-0.8615680167620311
 40
-0.8615680167620311
 40
0.0
 40
0.0
 40
0.0
 40
0.0
 10
-4632.566325472857
 20
-4223.658694844742
 30
0.0
 10
-4632.562724645821
 20
-4223.945861626867
 30
0.0
 10
-4632.562472634549
 20
-4224.233091138299
 30
0.0
 10
-4632.565569692793
 20
-4224.52026377737
 30
0.0
  0
SPLINE
  5
74
330
1F
100
AcDbEntity
  8
2D
100
AcDbSpline
210
0.0
220
0.0
230
1.0
 70
     8
 71
     3
 72
     8
 73
     4
 74
     0
 42
0.0000000001
 43
0.0000000001
 40
-0.0731331433133548
 40
-0.0731331433133548
 40
-0.0731331433133548
 40
-0.0731331433133548
 40
0.0
 40
0.0
 40
0.0
 40
0.0
 10
-4632.565569692793
 20
-4224.52026377737
 30
0.0
 10
-4632.565832850803
 20
-4224.544640071392
 30
0.0
 10
-4632.566121581203
 20
-4224.569016099087
 30
0.0
 10
-4632.566435912464
 20
-4224.593391805217
 30
0.0
  0
SPLINE
  5
75
330
1F
100
AcDbEntity
  8
2D
100
AcDbSpline
210
0.0
220
0.0
230
1.0
 70
     8
 71
     3
 72
     8
 73
     4
 74
     0
 42
0.0000000001
 43
0.0000000001
 40
-0.8685883903513913
 40
-0.8685883903513913
 40
-0.8685883903513913
 40
-0.8685883903513913
 40
0.0
 40
0.0
 40
0.0
 40
0.0
 10
-4632.566435912464
 20
-4224.593391805217
 30
0.0
 10
-4632.570147677707
 20
-4224.882897493562
 30
0.0
 10
-4632.577445977542
 20
-4225.17238128193
 30
0.0
 10
-4632.588327521058
 20
-4225.461706189654
 30
0.0
  0
SPLINE
  5
76
330
1F
100
AcDbEntity
  8
2D
100
AcDbSpline
210
0.0
220
0.0
230
1.0
 70
    12
 71
     2
 72
     6
 73
     3
 74
     0
 42
0.0000000001
 43
0.0000000001
 40
-2.844443702008323
 40
-2.844443702008323
 40
-2.844443702008323
 40
0.0
 40
0.0
 40
0.0
 10
-4632.588327521058
 20
-4225.461706189654
 30
0.0
 41
1.0
 10
-4632.640488649586
 20
-4226.8841816672
 30
0.0
 41
0.9990032041083028
 10
-4632.819312505683
 20
-4228.296335798848
 30
0.0
 41
0.9999999999992428
  0
SPLINE
  5
77
330
1F
100
AcDbEntity
  8
2D
100
AcDbSpline
210
0.0
220
0.0
230
1.0
 70
     8
 71
     3
 72
     8
 73
     4
 74
     0
 42
0.0000000001
 43
0.0000000001
 40
-0.0512505010709203
 40
-0.0512505010709203
 40
-0.0512505010709203
 40
-0.0512505010709203
 40
0.0
 40
0.0
 40
0.0
 40
0.0
 10
-4632.819312505686
 20
-4228.296335798848
 30
0.0
 10
-4632.821475814169
 20
-4228.313281768382
 30
0.0
 10
-4632.82365322937
 20
-4228.330225944972
 30
0.0
 10
-4632.825844751645
 20
-4228.347168288883
 30
0.0
  0
SPLINE
  5
78
330
1F
100
AcDbEntity
  8
2D
100
AcDbSpline
210
0.0
220
0.0
230
1.0
 70
     8
 71
     3
 72
     8
 73
     4
 74
     0
 42
0.0000000001
 43
0.0000000001
 40
-0.4271193919755597
 40
-0.4271193919755597
 40
-0.4271193919755597
 40
-0.4271193919755597
 40
0.0
 40
0.0
 40
0.0
 40
0.0
 10
-4632.825844751645
 20
-4228.347168288883
 30
0.0
 10
-4632.844096612847
 20
-4228.488366646727
 30
0.0
 10
-4632.863392335232
 20
-4228.629435227846
 30
0.0
 10
-4632.88380208096
 20
-4228.770353440141
 30
0.0
  0
SPLINE
  5
79
330
1F
100
AcDbEntity
  8
2D
100
AcDbSpline
210
0.0
220
0.0
230
1.0
 70
    12
 71
     3
 72
    39
 73
    35
 74
     0
 42
0.0000000001
 43
0.0000000001
 40
0.0
 40
0.0
 40
0.0
 40
0.0
 40
0.3718871541871092
 40
1.484505835598445
 40
2.50963943250246
 40
2.50963943250246
 40
2.50963943250246
 40
105.7037713316956
 40
105.7037713316956
 40
105.7037713316956
 40
108.5707892692896
 40
108.5707892692896
 40
108.5707892692896
 40
281.8130455123199
 40
281.8130455123199
 40
281.8130455123199
 40
287.5470813875128
 40
287.5470813875128
 40
287.5470813875128
 40
387.3069638929804
 40
387.3069638929804
 40
387.3069638929804
 40
389.0631702395252
 40
390.8794307272094
 40
392.7438036136605
 40
394.6418319223313
 40
396.5569466238129
 40
398.4711668590455
 40
400.3660568311759
 40
402.2238192438545
 40
404.0283522347415
 40
404.0283522347415
 40
404.0283522347415
 40
566.7252206391319
 40
566.7252206391319
 40
566.7252206391319
 40
566.7252206391319
 10
-4632.88380208096
 20
-4228.770353440141
 30
0.0
 41
1.0
 10
-4632.889243316109
 20
-4228.808026415231
 30
0.0
 41
1.0
 10
-4632.923085332121
 20
-4228.929168188091
 30
0.0
 41
1.0
 10
-4633.06443962943
 20
-4228.932666882401
 30
0.0
 41
1.0
 10
-4633.284350125879
 20
-4228.685477715419
 30
0.0
 41
1.0
 10
-4633.410313483924
 20
-4228.512104026774
 30
0.0
 41
1.0
 10
-4646.090299224226
 20
-4211.059600893747
 30
0.0
 41
1.0
 10
-4658.770284964528
 20
-4193.607097760717
 30
0.0
 41
1.0
 10
-4671.450270704827
 20
-4176.154594627689
 30
0.0
 41
1.0
 10
-4671.802555751899
 20
-4175.669715855804
 30
0.0
 41
1.0
 10
-4672.154840798976
 20
-4175.184837083909
 30
0.0
 41
1.0
 10
-4672.507125846048
 20
-4174.699958312021
 30
0.0
 41
1.0
 10
-4693.794279495589
 20
-4145.400704843396
 30
0.0
 41
1.0
 10
-4715.081433145118
 20
-4116.101451374776
 30
0.0
 41
1.0
 10
-4736.368586794651
 20
-4086.802197906147
 30
0.0
 41
1.0
 10
-4737.073161018561
 20
-4085.832443374714
 30
0.0
 41
1.0
 10
-4737.777735242467
 20
-4084.862688843281
 30
0.0
 41
1.0
 10
-4738.482309466377
 20
-4083.892934311848
 30
0.0
 41
1.0
 10
-4750.74031153533
 20
-4067.021241940645
 30
0.0
 41
1.0
 10
-4762.998313604276
 20
-4050.149549569448
 30
0.0
 41
1.0
 10
-4775.256315673225
 20
-4033.277857198245
 30
0.0
 41
1.0
 10
-4775.472109643386
 20
-4032.98084227917
 30
0.0
 41
1.0
 10
-4775.961241525965
 20
-4032.244279618315
 30
0.0
 41
1.0
 10
-4776.844887807711
 20
-4030.737665401047
 30
0.0
 41
1.0
 10
-4777.881046486957
 20
-4028.815277067565
 30
0.0
 41
1.0
 10
-4779.047794487353
 20
-4026.509935138776
 30
0.0
 41
1.0
 10
-4780.314439116446
 20
-4023.878697580276
 30
0.0
 41
1.0
 10
-4781.643825601888
 20
-4020.998821357055
 30
0.0
 41
1.0
 10
-4782.996093043632
 20
-4017.95993431531
 30
0.0
 41
1.0
 10
-4784.332042444774
 20
-4014.856213455716
 30
0.0
 41
1.0
 10
-4785.204248472335
 20
-4012.765754327444
 30
0.0
 41
1.0
 10
-4785.627975827701
 20
-4011.734638508316
 30
0.0
 41
1.0
 10
-4823.831196105773
 20
-3918.769104428423
 30
0.0
 41
1.0
 10
-4862.034416383845
 20
-3825.803570348533
 30
0.0
 41
1.0
 10
-4900.237636662183
 20
-3732.838036268762
 30
0.0
 41
1.0
  0
SPLINE
  5
7A
330
1F
100
AcDbEntity
  8
2D
100
AcDbSpline
210
0.0
220
0.0
230
1.0
 70
     8
 71
     3
 72
     8
 73
     4
 74
     0
 42
0.0000000001
 43
0.0000000001
 40
-31.36680624864465
 40
-31.36680624864465
 40
-31.36680624864465
 40
-31.36680624864465
 40
0.0
 40
0.0
 40
0.0
 40
0.0
 10
-4900.237636662183
 20
-3732.838036268762
 30
0.0
 10
-4904.211903988304
 20
-3723.167213442581
 30
0.0
 10
-4908.186152376442
 20
-3713.496382833274
 30
0.0
 10
-4912.160381826347
 20
-3703.825544441785
 30
0.0
  0
SPLINE
  5
7B
330
1F
100
AcDbEntity
  8
2D
100
AcDbSpline
210
0.0
220
0.0
230
1.0
 70
    12
 71
     3
 72
    91
 73
    87
 74
     0
 42
0.0000000001
 43
0.0000000001
 40
0.0
 40
0.0
 40
0.0
 40
0.0
 40
2.242613583268835
 40
4.485230646469008
 40
6.727847709668478
 40
8.970464772868652
 40
11.21308183606812
 40
13.17131946839887
 40
15.12955710073032
 40
17.08779473306107
 40
19.04603236539182
 40
21.00426999772257
 40
22.96250763005402
 40
24.92074526238547
 40
26.87898289471552
 40
28.83722052704697
 40
30.79545815937772
 40
32.75369579170847
 40
34.71193342403992
 40
36.67017105637067
 40
38.62840868870142
 40
40.58664632103216
 40
42.54488395336362
 40
44.50312158569437
 40
44.50312158569437
 40
44.50312158569437
 40
351.947323380283
 40
351.947323380283
 40
351.947323380283
 40
353.9055610126138
 40
355.8637986449452
 40
357.822036277276
 40
359.7802739096068
 40
361.7385115419375
 40
363.696749174269
 40
365.6549868065997
 40
367.6132244389304
 40
369.5714620712619
 40
371.5296997035926
 40
373.4879373359233
 40
375.4461749682548
 40
377.4044126005856
 40
379.3626502329163
 40
381.3208878652471
 40
383.2791254975778
 40
385.2373631299093
 40
387.4799801931087
 40
389.7225972563089
 40
391.9652143195083
 40
394.2078313827085
 40
396.450448445908
 40
398.6930655091082
 40
400.9356825723077
 40
403.1782996355072
 40
405.4209166987073
 40
407.6635337619075
 40
409.906150825107
 40
412.1487678883071
 40
414.3913849515067
 40
416.6340020147068
 40
416.6340020147068
 40
416.6340020147068
 40
649.316984530754
 40
649.316984530754
 40
649.316984530754
 40
651.8977602789422
 40
654.554662759943
 40
657.2646636910737
 40
660.0023100431931
 40
662.7412356275644
 40
665.4557248905097
 40
668.122081424433
 40
670.719629400934
 40
673.2312901856728
 40
673.2312901856728
 40
673.2312901856728
 40
815.9041516475676
 40
815.9041516475676
 40
815.9041516475676
 40
824.1047557931685
 40
824.1047557931685
 40
824.1047557931685
 40
1071.869366277391
 40
1071.869366277391
 40
1071.869366277391
 40
1075.969669174047
 40
1075.969669174047
 40
1075.969669174047
 40
1075.969669174047
 10
-4912.160381826347
 20
-3703.825544441785
 30
0.0
 41
1.0
 10
-4912.606343337247
 20
-3702.75152202663
 30
0.0
 41
1.0
 10
-4913.513994934696
 20
-3700.603924524588
 30
0.0
 41
1.0
 10
-4914.693279659085
 20
-3697.330326368387
 30
0.0
 41
1.0
 10
-4915.632003875493
 20
-3693.967990799235
 30
0.0
 41
1.0
 10
-4916.33580605888
 20
-3690.542351844895
 30
0.0
 41
1.0
 10
-4916.777044050534
 20
-3687.289277855361
 30
0.0
 41
1.0
 10
-4917.007251293449
 20
-3683.894818536622
 30
0.0
 41
1.0
 10
-4917.014058925874
 20
-3680.714646467967
 30
0.0
 41
1.0
 10
-4916.820056359684
 20
-3677.5309634594
 30
0.0
 41
1.0
 10
-4916.424133330318
 20
-3674.371248093905
 30
0.0
 41
1.0
 10
-4915.823225477336
 20
-3671.223302187493
 30
0.0
 41
1.0
 10
-4915.029440906306
 20
-3668.144454662575
 30
0.0
 41
1.0
 10
-4914.030408421964
 20
-3665.091872759489
 30
0.0
 41
1.0
 10
-4912.852836669626
 20
-3662.144915445186
 30
0.0
 41
1.0
 10
-4911.478185421136
 20
-3659.252816739931
 30
0.0
 41
1.0
 10
-4909.928570345204
 20
-3656.467782917012
 30
0.0
 41
1.0
 10
-4908.201130119342
 20
-3653.780958019324
 30
0.0
 41
1.0
 10
-4906.306749435866
 20
-3651.211706283616
 30
0.0
 41
1.0
 10
-4904.255812502353
 20
-3648.771778508335
 30
0.0
 41
1.0
 10
-4902.047217136991
 20
-3646.461478414644
 30
0.0
 41
1.0
 10
-4899.70397614672
 20
-3644.303427121215
 30
0.0
 41
1.0
 10
-4897.212213529649
 20
-3642.288181023313
 30
0.0
 41
1.0
 10
-4895.480281722248
 20
-3641.058892965062
 30
0.0
 41
1.0
 10
-4894.620211407761
 20
-3640.434017570328
 30
0.0
 41
1.0
 10
-4787.181088728732
 20
-3562.374925772438
 30
0.0
 41
1.0
 10
-4679.740018643752
 20
-3484.314419101272
 30
0.0
 41
1.0
 10
-4572.30121819034
 20
-3406.255561414001
 30
0.0
 41
1.0
 10
-4571.441152394909
 20
-3405.630685949774
 30
0.0
 41
1.0
 10
-4569.736838274453
 20
-3404.363397528075
 30
0.0
 41
1.0
 10
-4567.050235911054
 20
-3402.616345014114
 30
0.0
 41
1.0
 10
-4564.273713909657
 20
-3401.054674765664
 30
0.0
 41
1.0
 10
-4561.394002983943
 20
-3399.668108199054
 30
0.0
 41
1.0
 10
-4558.439728360816
 20
-3398.471541381425
 30
0.0
 41
1.0
 10
-4555.410838302527
 20
-3397.463832219585
 30
0.0
 41
1.0
 10
-4552.321717335901
 20
-3396.651225432421
 30
0.0
 41
1.0
 10
-4549.194145429443
 20
-3396.038089013605
 30
0.0
 41
1.0
 10
-4546.018815901727
 20
-3395.624438363597
 30
0.0
 41
1.0
 10
-4542.852213799662
 20
-3395.415173878529
 30
0.0
 41
1.0
 10
-4539.640328742989
 20
-3395.408350526027
 30
0.0
 41
1.0
 10
-4536.466888736933
 20
-3395.604846121447
 30
0.0
 41
1.0
 10
-4533.287334648889
 20
-3396.006131195975
 30
0.0
 41
1.0
 10
-4530.159930931764
 20
-3396.606005382667
 30
0.0
 41
1.0
 10
-4527.072129526976
 20
-3397.405323800665
 30
0.0
 41
1.0
 10
-4524.04972093361
 20
-3398.39453905927
 30
0.0
 41
1.0
 10
-4520.892548031592
 20
-3399.662439233628
 30
0.0
 41
1.0
 10
-4517.935052117518
 20
-3401.087350447593
 30
0.0
 41
1.0
 10
-4514.894574513281
 20
-3402.815301223674
 30
0.0
 41
1.0
 10
-4511.986896635721
 20
-3404.747113976397
 30
0.0
 41
1.0
 10
-4509.237948555394
 20
-3406.880292660413
 30
0.0
 41
1.0
 10
-4506.594947299593
 20
-3409.170616121811
 30
0.0
 41
1.0
 10
-4503.936084224773
 20
-3411.41648110816
 30
0.0
 41
1.0
 10
-4501.279174600069
 20
-3413.67621344934
 30
0.0
 41
1.0
 10
-4498.622960746641
 20
-3415.931198868183
 30
0.0
 41
1.0
 10
-4495.962273513302
 20
-3418.191101191088
 30
0.0
 41
1.0
 10
-4493.316592909643
 20
-3420.437963704946
 30
0.0
 41
1.0
 10
-4490.651517103768
 20
-3422.70138113942
 30
0.0
 41
1.0
 10
-4487.997393124209
 20
-3424.955479526453
 30
0.0
 41
1.0
 10
-4485.336947099484
 20
-3427.214956087282
 30
0.0
 41
1.0
 10
-4483.568928430454
 20
-3428.716508867253
 30
0.0
 41
1.0
 10
-4482.684218005797
 20
-3429.467881359258
 30
0.0
 41
1.0
 10
-4406.07407740119
 20
-3494.529100632777
 30
0.0
 41
1.0
 10
-4329.463936796586
 20
-3559.590319906291
 30
0.0
 41
1.0
 10
-4252.853796191986
 20
-3624.651539179802
 30
0.0
 41
1.0
 10
-4252.004085726941
 20
-3625.373160153536
 30
0.0
 41
1.0
 10
-4250.285467436061
 20
-3626.848664776282
 30
0.0
 41
1.0
 10
-4247.746484556363
 20
-3629.078330651091
 30
0.0
 41
1.0
 10
-4245.274204853456
 20
-3631.303481153227
 30
0.0
 41
1.0
 10
-4242.946082821338
 20
-3633.457733527543
 30
0.0
 41
1.0
 10
-4240.835041911625
 20
-3635.475481277696
 30
0.0
 41
1.0
 10
-4239.003076408237
 20
-3637.297514400187
 30
0.0
 41
1.0
 10
-4237.494967097595
 20
-3638.877010528828
 30
0.0
 41
1.0
 10
-4236.335153546795
 20
-3640.182977480273
 30
0.0
 41
1.0
 10
-4235.785790892733
 20
-3640.875779924164
 30
0.0
 41
1.0
 10
-4235.569996922575
 20
-3641.172794843239
 30
0.0
 41
1.0
 10
-4223.31199604454
 20
-3658.044486345579
 30
0.0
 41
1.0
 10
-4211.053995166509
 20
-3674.916177847922
 30
0.0
 41
1.0
 10
-4198.79599428847
 20
-3691.787869350268
 30
0.0
 41
1.0
 10
-4198.091420064564
 20
-3692.757623881703
 30
0.0
 41
1.0
 10
-4197.386845840658
 20
-3693.727378413137
 30
0.0
 41
1.0
 10
-4196.682271616752
 20
-3694.697132944571
 30
0.0
 41
1.0
 10
-4175.395116766125
 20
-3723.99638734147
 30
0.0
 41
1.0
 10
-4154.107961915492
 20
-3753.295641738375
 30
0.0
 41
1.0
 10
-4132.820807064862
 20
-3782.594896135286
 30
0.0
 41
1.0
 10
-4132.46852201955
 20
-3783.079774902506
 30
0.0
 41
1.0
 10
-4132.116236974241
 20
-3783.564653669726
 30
0.0
 41
1.0
 10
-4131.76395192893
 20
-3784.049532436946
 30
0.0
 41
1.0
  0
SPLINE
  5
7C
330
1F
100
AcDbEntity
  8
2D
100
AcDbSpline
210
0.0
220
0.0
230
1.0
 70
    12
 71
     3
 72
    13
 73
     9
 74
     0
 42
0.0000000001
 43
0.0000000001
 40
0.0
 40
0.0
 40
0.0
 40
0.0
 40
63.99854076329431
 40
63.99854076329431
 40
63.99854076329431
 40
64.63430418424961
 40
65.32432376925732
 40
65.55475978695516
 40
65.55475978695516
 40
65.55475978695516
 40
65.55475978695516
 10
-4131.76395192893
 20
-3784.049532436946
 30
0.0
 41
1.0
 10
-4119.083966197042
 20
-3801.502035515222
 30
0.0
 41
1.0
 10
-4106.403980465155
 20
-3818.954538593489
 30
0.0
 41
1.0
 10
-4093.723994733264
 20
-3836.407041671762
 30
0.0
 41
1.0
 10
-4093.598031375233
 20
-3836.580415360404
 30
0.0
 41
1.0
 10
-4093.430896587852
 20
-3836.865948324484
 30
0.0
 41
1.0
 10
-4093.477898897567
 20
-3836.999285998148
 30
0.0
 41
1.0
 10
-4093.603520886783
 20
-3836.994056168693
 30
0.0
 41
1.0
 10
-4093.640985742426
 20
-3836.987589184723
 30
0.0
 41
1.0
  0
SPLINE
  5
7D
330
1F
100
AcDbEntity
  8
2D
100
AcDbSpline
210
0.0
220
0.0
230
1.0
 70
     8
 71
     3
 72
    10
 73
     6
 74
     0
 42
0.0000000001
 43
0.0000000001
 40
-20.66389800252956
 40
-20.66389800252956
 40
-20.66389800252956
 40
-20.66389800252956
 40
-10.31422035987684
 40
-10.31422035987684
 40
0.0
 40
0.0
 40
0.0
 40
0.0
 10
-4093.640985742426
 20
-3836.987589184723
 30
0.0
 10
-4097.045433999891
 20
-3836.399978160744
 30
0.0
 10
-4100.316147697653
 20
-3835.213263767342
 30
0.0
 10
-4106.500500787184
 20
-3832.269832182807
 30
0.0
 10
-4109.514669403805
 20
-3830.464386123333
 30
0.0
 10
-4112.36611132251
 20
-3828.593996021543
 30
0.0
  0
LINE
  5
7E
330
1F
100
AcDbEntity
  8
2D
100
AcDbLine
 10
-4458.950104273816
 20
-3509.4173955054
 30
0.0
 11
-4436.326939355371
 21
-3540.365628588171
 31
0.0
  0
LINE
  5
7F
330
1F
100
AcDbEntity
  8
2D
100
AcDbLine
 10
-5087.672954005553
 20
-5093.737090836901
 30
0.0
 11
-5021.857110705365
 21
-5296.248999541897
 31
0.0
  0
SPLINE
  5
80
330
1F
100
AcDbEntity
  8
2D
100
AcDbSpline
210
0.0
220
0.0
230
1.0
 70
     8
 71
     3
 72
    12
 73
     8
 74
     0
 42
0.0000000001
 43
0.0000000001
 40
-53.44388079559307
 40
-53.44388079559307
 40
-53.44388079559307
 40
-53.44388079559307
 40
-46.9629306704482
 40
-40.50956396516826
 40
-26.89574594603667
 40
-13.65392953143541
 40
0.0
 40
0.0
 40
0.0
 40
0.0
 10
-5021.857110705365
 20
-5296.248999541897
 30
0.0
 10
-5021.169054415928
 20
-5298.297198598255
 30
0.0
 10
-5019.490533760843
 20
-5302.283685917138
 30
0.0
 10
-5014.748428718343
 20
-5309.792778625748
 30
0.0
 10
-5006.506098052861
 20
-5317.476565214636
 30
0.0
 10
-4993.993520568638
 20
-5323.009274463119
 30
0.0
 10
-4984.947774634282
 20
-5323.8469593646
 30
0.0
 10
-4980.407670736091
 20
-5323.532064885359
 30
0.0
  0
SPLINE
  5
81
330
1F
100
AcDbEntity
  8
2D
100
AcDbSpline
210
0.0
220
0.0
230
1.0
 70
     8
 71
     3
 72
     8
 73
     4
 74
     0
 42
0.0000000001
 43
0.0000000001
 40
-281.3072617646404
 40
-281.3072617646404
 40
-281.3072617646404
 40
-281.3072617646404
 40
0.0
 40
0.0
 40
0.0
 40
0.0
 10
-4980.407670736091
 20
-5323.532064885359
 30
0.0
 10
-4886.859839586083
 20
-5317.094284853203
 30
0.0
 10
-4793.31110027837
 20
-5310.669683342843
 30
0.0
 10
-4699.761458989298
 20
-5304.258260778447
 30
0.0
  0
SPLINE
  5
82
330
1F
100
AcDbEntity
  8
2D
100
AcDbSpline
210
0.0
220
0.0
230
1.0
 70
    12
 71
     3
 72
    33
 73
    29
 74
     0
 42
0.0000000001
 43
0.0000000001
 40
-750.220495385534
 40
-750.220495385534
 40
-750.220495385534
 40
-750.220495385534
 40
-747.3283180964581
 40
-744.4311734323353
 40
-741.5303316972368
 40
-738.6270745221456
 40
-735.722691216618
 40
-732.8184750627539
 40
-729.9157195789311
 40
-727.0157147810988
 40
-724.119743469459
 40
-724.119743469459
 40
-724.119743469459
 40
-635.3638949040875
 40
-635.3638949040875
 40
-635.3638949040875
 40
-631.3191716904967
 40
-627.0527020544737
 40
-622.6124107264768
 40
-618.0608863926426
 40
-613.4710403684419
 40
-608.9195147154887
 40
-604.479221000651
 40
-600.2127483275523
 40
-596.1680218845833
 40
-596.1680218845833
 40
-596.1680218845833
 40
0.0
 40
0.0
 40
0.0
 40
0.0
 10
-4699.761458989298
 20
-5304.258260778447
 30
0.0
 41
1.0
 10
-4698.802519895882
 20
-5304.192481465183
 30
0.0
 41
1.0
 10
-4696.884738672408
 20
-5304.034575846576
 30
0.0
 41
1.0
 10
-4694.013775892727
 20
-5303.719026506683
 30
0.0
 41
1.0
 10
-4691.148948714163
 20
-5303.324651937448
 30
0.0
 41
1.0
 10
-4688.293697967489
 20
-5302.851751960333
 30
0.0
 41
1.0
 10
-4685.451412141054
 20
-5302.300810693433
 30
0.0
 41
1.0
 10
-4682.625462152522
 20
-5301.672498961085
 30
0.0
 41
1.0
 10
-4679.819164521054
 20
-5300.967666967137
 30
0.0
 41
1.0
 10
-4677.035814265575
 20
-5300.187354518479
 30
0.0
 41
1.0
 10
-4675.196063660769
 20
-5299.617127556614
 30
0.0
 41
1.0
 10
-4674.280921689351
 20
-5299.319779905253
 30
0.0
 41
1.0
 10
-4646.233612689841
 20
-5290.206656784982
 30
0.0
 41
1.0
 10
-4618.186303690323
 20
-5281.093533664708
 30
0.0
 41
1.0
 10
-4590.138994690817
 20
-5271.980410544438
 30
0.0
 41
1.0
 10
-4588.860841153648
 20
-5271.565113285402
 30
0.0
 41
1.0
 10
-4586.299261336477
 20
-5270.495882734524
 30
0.0
 41
1.0
 10
-4582.697865787111
 20
-5268.224672053464
 30
0.0
 41
1.0
 10
-4579.417919937379
 20
-5265.244406674274
 30
0.0
 41
1.0
 10
-4576.658740663348
 20
-5261.634793245554
 30
0.0
 41
1.0
 10
-4574.585326262175
 20
-5257.54623518577
 30
0.0
 41
1.0
 10
-4573.300648064636
 20
-5253.181781340103
 30
0.0
 41
1.0
 10
-4572.828827995545
 20
-5248.763953834291
 30
0.0
 41
1.0
 10
-4573.116890201396
 20
-5244.501615315058
 30
0.0
 41
1.0
 10
-4573.761605362277
 20
-5241.790988017245
 30
0.0
 41
1.0
 10
-4574.178489322232
 20
-5240.507951116806
 30
0.0
 41
1.0
 10
-4635.624643780851
 20
-5051.396133116787
 30
0.0
 41
1.0
 10
-4697.070798239471
 20
-4862.28431511677
 30
0.0
 41
1.0
 10
-4758.51695269809
 20
-4673.17249711675
 30
0.0
 41
1.0
  0
SPLINE
  5
83
330
1F
100
AcDbEntity
  8
2D
100
AcDbSpline
210
0.0
220
0.0
230
1.0
 70
    12
 71
     3
 72
    30
 73
    26
 74
     0
 42
0.0000000001
 43
0.0000000001
 40
-153.6700009209395
 40
-153.6700009209395
 40
-153.6700009209395
 40
-153.6700009209395
 40
-149.6349152548881
 40
-145.3786119002441
 40
-140.9489018136815
 40
-136.4082249150445
 40
-131.8293189833893
 40
-127.2886434007257
 40
-122.8589356953136
 40
-118.6026353705087
 40
-114.5675529261371
 40
-114.5675529261371
 40
-114.5675529261371
 40
-26.03503402167282
 40
-26.03503402167282
 40
-26.03503402167282
 40
-23.14634376537433
 40
-20.25363376414738
 40
-17.35818320751138
 40
-14.46127846512909
 40
-11.56420938522107
 40
-8.668265567840168
 40
-5.774732640665693
 40
-2.884888565112245
 40
0.0
 40
0.0
 40
0.0
 40
0.0
 10
-4758.51695269809
 20
-4673.17249711675
 30
0.0
 41
1.0
 10
-4758.933836658027
 20
-4671.889460216303
 30
0.0
 41
1.0
 10
-4760.00551788646
 20
-4669.317562603464
 30
0.0
 41
1.0
 10
-4762.277810388372
 20
-4665.699939589284
 30
0.0
 41
1.0
 10
-4765.256254697641
 20
-4662.403170937209
 30
0.0
 41
1.0
 10
-4768.860942796549
 20
-4659.627368503355
 30
0.0
 41
1.0
 10
-4772.941564414163
 20
-4657.538377957402
 30
0.0
 41
1.0
 10
-4777.295464877257
 20
-4656.239944236149
 30
0.0
 41
1.0
 10
-4781.700752848119
 20
-4655.756762695424
 30
0.0
 41
1.0
 10
-4785.949327194212
 20
-4656.036161848237
 30
0.0
 41
1.0
 10
-4788.650166747844
 20
-4656.67679500077
 30
0.0
 41
1.0
 10
-4789.928320285024
 20
-4657.092092259809
 30
0.0
 41
1.0
 10
-4817.97189901063
 20
-4666.204003340617
 30
0.0
 41
1.0
 10
-4846.01547773623
 20
-4675.315914421422
 30
0.0
 41
1.0
 10
-4874.059056461832
 20
-4684.427825502228
 30
0.0
 41
1.0
 10
-4874.97407857595
 20
-4684.725134209594
 30
0.0
 41
1.0
 10
-4876.797399571253
 20
-4685.345106126248
 30
0.0
 41
1.0
 10
-4879.507477511637
 20
-4686.349693000892
 30
0.0
 41
1.0
 10
-4882.191756364224
 20
-4687.428817550105
 30
0.0
 41
1.0
 10
-4884.846960378753
 20
-4688.581384363008
 30
0.0
 41
1.0
 10
-4887.469907850904
 20
-4689.806132076134
 30
0.0
 41
1.0
 10
-4890.057478501221
 20
-4691.101622311626
 30
0.0
 41
1.0
 10
-4892.606647562312
 20
-4692.466255393098
 30
0.0
 41
1.0
 10
-4895.114456234798
 20
-4693.898251863155
 30
0.0
 41
1.0
 10
-4896.7585782676
 20
-4694.897585751414
 30
0.0
 41
1.0
 10
-4897.572936957928
 20
-4695.407936576593
 30
0.0
 41
1.0
  0
SPLINE
  5
84
330
1F
100
AcDbEntity
  8
2D
100
AcDbSpline
210
0.0
220
0.0
230
1.0
 70
     8
 71
     3
 72
     8
 73
     4
 74
     0
 42
0.0000000001
 43
0.0000000001
 40
-281.3211851680566
 40
-281.3211851680566
 40
-281.3211851680566
 40
-281.3211851680566
 40
0.0
 40
0.0
 40
0.0
 40
0.0
 10
-4897.572936957928
 20
-4695.407936576593
 30
0.0
 10
-4977.029633783473
 20
-4745.208995457034
 30
0.0
 10
-5056.493197825759
 20
-4794.999100043028
 30
0.0
 10
-5135.963624059503
 20
-4844.778247185854
 30
0.0
  0
SPLINE
  5
85
330
1F
100
AcDbEntity
  8
2D
100
AcDbSpline
210
0.0
220
0.0
230
1.0
 70
     8
 71
     3
 72
    12
 73
     8
 74
     0
 42
0.0000000001
 43
0.0000000001
 40
-53.44456392198775
 40
-53.44456392198775
 40
-53.44456392198775
 40
-53.44456392198775
 40
-46.58212145158722
 40
-39.78805087982204
 40
-26.54724326036497
 40
-12.93246673734073
 40
0.0
 40
0.0
 40
0.0
 40
0.0
 10
-5135.963624059503
 20
-4844.778247185854
 30
0.0
 10
-5137.902982037864
 20
-4845.991126712854
 30
0.0
 10
-5141.564120456096
 20
-4848.722210658403
 30
0.0
 10
-5147.812821371153
 20
-4855.191654696237
 30
0.0
 10
-5153.520261391845
 20
-4865.019338997933
 30
0.0
 10
-5156.089254009028
 20
-4878.232417145661
 30
0.0
 10
-5154.773502928143
 20
-4887.108732742074
 30
0.0
 10
-5153.439827266393
 20
-4891.207753556606
 30
0.0
  0
SPLINE
  5
86
330
1F
100
AcDbEntity
  8
2D
100
AcDbSpline
210
0.0
220
0.0
230
1.0
 70
     8
 71
     3
 72
     8
 73
     4
 74
     0
 42
0.0000000001
 43
0.0000000001
 40
-212.9399471223774
 40
-212.9399471223774
 40
-212.9399471223774
 40
-212.9399471223774
 40
0.0
 40
0.0
 40
0.0
 40
0.0
 10
-5153.439827266393
 20
-4891.207753556606
 30
0.0
 10
-5131.52677916703
 20
-4958.720544929132
 30
0.0
 10
-5109.604489360961
 20
-5026.230320075658
 30
0.0
 10
-5087.672954005553
 20
-5093.737090836901
 30
0.0
  0
LINE
  5
87
330
1F
100
AcDbEntity
  8
2D
100
AcDbLine
 10
-5129.086053984014
 20
-5107.11771960799
 30
0.0
 11
-5162.372651988037
 21
-5117.934140516263
 31
0.0
  0
SPLINE
  5
88
330
1F
100
AcDbEntity
  8
2D
100
AcDbSpline
210
0.0
220
0.0
230
1.0
 70
     8
 71
     3
 72
    34
 73
    30
 74
     0
 42
0.0000000001
 43
0.0000000001
 40
-152.7202797109071
 40
-152.7202797109071
 40
-152.7202797109071
 40
-152.7202797109071
 40
-146.9742588434888
 40
-146.9742588434888
 40
-141.1868019355231
 40
-141.1868019355231
 40
-129.6246045178156
 40
-129.6246045178156
 40
-124.3542541167244
 40
-124.3542541167244
 40
-119.203715268448
 40
-119.203715268448
 40
-108.9086924292348
 40
-108.9086924292348
 40
-99.53178190305776
 40
-99.53178190305776
 40
-90.12976069322072
 40
-90.12976069322072
 40
-80.75924573721421
 40
-80.75924573721421
 40
-71.43781265976752
 40
-71.43781265976752
 40
-62.15500180608125
 40
-62.15500180608125
 40
-52.81052245874474
 40
-52.81052245874474
 40
-33.83551572032174
 40
-33.83551572032174
 40
0.0
 40
0.0
 40
0.0
 40
0.0
 10
-5162.372651988037
 20
-5117.934140516263
 30
0.0
 10
-5164.170561178369
 20
-5118.518336874309
 30
0.0
 10
-5165.968298781831
 20
-5119.103042177425
 30
0.0
 10
-5169.573669932444
 20
-5120.286125648177
 30
0.0
 10
-5171.382831971907
 20
-5120.879792600194
 30
0.0
 10
-5176.806342940039
 20
-5122.659489023452
 30
0.0
 10
-5180.420692411572
 20
-5123.845516840372
 30
0.0
 10
-5185.682554671683
 20
-5125.5721722853
 30
0.0
 10
-5187.328614788741
 20
-5126.117205618877
 30
0.0
 10
-5190.589316374208
 20
-5127.176676548589
 30
0.0
 10
-5192.200925064135
 20
-5127.700313987108
 30
0.0
 10
-5197.033858282506
 20
-5129.270605434608
 30
0.0
 10
-5200.255183016292
 20
-5130.317258811519
 30
0.0
 10
-5206.410552752623
 20
-5132.317228829414
 30
0.0
 10
-5209.344598286334
 20
-5133.270543835603
 30
0.0
 10
-5215.220546227858
 20
-5135.179727637048
 30
0.0
 10
-5218.162448634634
 20
-5136.135596435488
 30
0.0
 10
-5224.036394753777
 20
-5138.044131997869
 30
0.0
 10
-5226.96843846999
 20
-5138.996798749967
 30
0.0
 10
-5232.817167790326
 20
-5140.897143327888
 30
0.0
 10
-5235.733853427777
 20
-5141.844821051134
 30
0.0
 10
-5241.555139173241
 20
-5143.736251748882
 30
0.0
 10
-5244.459739523852
 20
-5144.680003976735
 30
0.0
 10
-5250.288234654676
 20
-5146.573783295673
 30
0.0
 10
-5253.212128155388
 20
-5147.523814324339
 30
0.0
 10
-5262.073295562768
 20
-5150.403043738069
 30
0.0
 10
-5268.010570774288
 20
-5152.332238106591
 30
0.0
 10
-5284.535004292156
 20
-5157.701396630892
 30
0.0
 10
-5295.122150641633
 20
-5161.141397585168
 30
0.0
 10
-5305.709296991114
 20
-5164.581398539443
 30
0.0
  0
SPLINE
  5
89
330
1F
100
AcDbEntity
  8
2D
100
AcDbSpline
210
0.0
220
0.0
230
1.0
 70
     8
 71
     3
 72
    12
 73
     8
 74
     0
 42
0.0000000001
 43
0.0000000001
 40
-53.44388079559027
 40
-53.44388079559027
 40
-53.44388079559027
 40
-53.44388079559027
 40
-46.96293067044742
 40
-40.50956396516759
 40
-26.89574594603623
 40
-13.65392953143518
 40
0.0
 40
0.0
 40
0.0
 40
0.0
 10
-3302.750906214656
 20
-3547.926801157096
 30
0.0
 10
-3304.511456644977
 20
-3546.674202652317
 30
0.0
 10
-3308.212606834844
 20
-3544.435676350209
 30
0.0
 10
-3316.462784355554
 20
-3541.148032145411
 30
0.0
 10
-3327.647386375898
 20
-3539.776438623538
 30
0.0
 10
-3341.022319105548
 20
-3542.655091329973
 30
0.0
 10
-3348.832860124399
 20
-3547.294346064942
 30
0.0
 10
-3352.320791003338
 20
-3550.217707165314
 30
0.0
  0
SPLINE
  5
8A
330
1F
100
AcDbEntity
  8
2D
100
AcDbSpline
210
0.0
220
0.0
230
1.0
 70
     8
 71
     3
 72
     8
 73
     4
 74
     0
 42
0.0000000001
 43
0.0000000001
 40
-281.3072617646337
 40
-281.3072617646337
 40
-281.3072617646337
 40
-281.3072617646337
 40
0.0
 40
0.0
 40
0.0
 40
0.0
 10
-3352.320791003338
 20
-3550.217707165314
 30
0.0
 10
-3424.218544030209
 20
-3610.412016151297
 30
0.0
 10
-3496.124777912857
 20
-3670.596197290894
 30
0.0
 10
-3568.039487903829
 20
-3730.770246610577
 30
0.0
  0
SPLINE
  5
8B
330
1F
100
AcDbEntity
  8
2D
100
AcDbSpline
210
0.0
220
0.0
230
1.0
 70
    12
 71
     3
 72
    33
 73
    29
 74
     0
 42
0.0000000001
 43
0.0000000001
 40
-750.2204953855181
 40
-750.2204953855181
 40
-750.2204953855181
 40
-750.2204953855181
 40
-747.3283180964422
 40
-744.4311734323195
 40
-741.5303316972211
 40
-738.6270745221299
 40
-735.7226912166025
 40
-732.8184750627385
 40
-729.9157195789156
 40
-727.0157147810834
 40
-724.1197434694436
 40
-724.1197434694436
 40
-724.1197434694436
 40
-635.3638949040741
 40
-635.3638949040741
 40
-635.3638949040741
 40
-631.3191716904832
 40
-627.0527020544604
 40
-622.6124107264635
 40
-618.0608863926295
 40
-613.4710403684289
 40
-608.9195147154758
 40
-604.4792210006382
 40
-600.2127483275395
 40
-596.1680218845706
 40
-596.1680218845706
 40
-596.1680218845706
 40
0.0
 40
0.0
 40
0.0
 40
0.0
 10
-3568.039487903829
 20
-3730.770246610577
 30
0.0
 41
1.0
 10
-3568.776621816731
 20
-3731.387113449843
 30
0.0
 41
1.0
 10
-3570.235324824142
 20
-3732.642105299084
 30
0.0
 41
1.0
 10
-3572.37250725476
 20
-3734.5848996594
 30
0.0
 41
1.0
 10
-3574.458393572488
 20
-3736.587858553984
 30
0.0
 41
1.0
 10
-3576.490376317393
 20
-3738.648716952602
 30
0.0
 41
1.0
 10
-3578.465998702286
 20
-3740.765091492005
 30
0.0
 41
1.0
 10
-3580.382927898147
 20
-3742.934458088217
 30
0.0
 41
1.0
 10
-3582.238980521892
 20
-3745.154179510819
 30
0.0
 41
1.0
 10
-3584.032102030371
 20
-3747.42147777484
 30
0.0
 41
1.0
 10
-3585.185320536428
 20
-3748.964179351042
 30
0.0
 41
1.0
 10
-3585.750909379298
 20
-3749.742645608784
 30
0.0
 41
1.0
 10
-3603.085099633965
 20
-3773.601111681316
 30
0.0
 41
1.0
 10
-3620.419289888636
 20
-3797.459577753854
 30
0.0
 41
1.0
 10
-3637.753480143303
 20
-3821.318043826383
 30
0.0
 41
1.0
 10
-3638.543422472114
 20
-3822.405306165975
 30
0.0
 41
1.0
 10
-3639.98730612755
 20
-3824.775990691644
 30
0.0
 41
1.0
 10
-3641.565912187274
 20
-3828.730285922016
 30
0.0
 41
1.0
 10
-3642.467688082532
 20
-3833.069275060319
 30
0.0
 41
1.0
 10
-3642.578233465869
 20
-3837.611318552982
 30
0.0
 41
1.0
 10
-3641.852466822118
 20
-3842.137753912736
 30
0.0
 41
1.0
 10
-3640.326431711437
 20
-3846.423786143503
 30
0.0
 41
1.0
 10
-3638.111408310528
 20
-3850.275212552268
 30
0.0
 41
1.0
 10
-3635.373021368676
 20
-3853.554198133765
 30
0.0
 41
1.0
 10
-3633.258169096876
 20
-3855.368187619618
 30
0.0
 41
1.0
 10
-3632.166752720364
 20
-3856.161148032903
 30
0.0
 41
1.0
 10
-3471.298631869722
 20
-3973.038679231199
 30
0.0
 41
1.0
 10
-3310.430511019087
 20
-4089.916210429494
 30
0.0
 41
1.0
 10
-3149.562390168445
 20
-4206.793741627789
 30
0.0
 41
1.0
  0
SPLINE
  5
8C
330
1F
100
AcDbEntity
  8
2D
100
AcDbSpline
210
0.0
220
0.0
230
1.0
 70
    12
 71
     3
 72
    30
 73
    26
 74
     0
 42
0.0000000001
 43
0.0000000001
 40
-153.6700009209519
 40
-153.6700009209519
 40
-153.6700009209519
 40
-153.6700009209519
 40
-149.6349152549002
 40
-145.3786119002558
 40
-140.9489018136929
 40
-136.4082249150555
 40
-131.8293189833999
 40
-127.288643400736
 40
-122.8589356953236
 40
-118.6026353705183
 40
-114.5675529261463
 40
-114.5675529261463
 40
-114.5675529261463
 40
-26.03503402167493
 40
-26.03503402167493
 40
-26.03503402167493
 40
-23.14634376537619
 40
-20.25363376414902
 40
-17.35818320751278
 40
-14.46127846513026
 40
-11.56420938522201
 40
-8.668265567840868
 40
-5.77473264066616
 40
-2.884888565112478
 40
0.0
 40
0.0
 40
0.0
 40
0.0
 10
-3149.562390168445
 20
-4206.793741627789
 30
0.0
 41
1.0
 10
-3148.470973791944
 20
-4207.586702041093
 30
0.0
 41
1.0
 10
-3146.092241978356
 20
-4209.037492496441
 30
0.0
 41
1.0
 10
-3142.127533272029
 20
-4210.628590972635
 30
0.0
 41
1.0
 10
-3137.78012921512
 20
-4211.545047198923
 30
0.0
 41
1.0
 10
-3133.232299549785
 20
-4211.671936037286
 30
0.0
 41
1.0
 10
-3128.703129478432
 20
-4210.963435683032
 30
0.0
 41
1.0
 10
-3124.41754981954
 20
-4209.454732147438
 30
0.0
 41
1.0
 10
-3120.569590002182
 20
-4207.256270923881
 30
0.0
 41
1.0
 10
-3117.296647855852
 20
-4204.532982917139
 30
0.0
 41
1.0
 10
-3115.488177477073
 20
-4202.427186151148
 30
0.0
 41
1.0
 10
-3114.698235148255
 20
-4201.339923811548
 30
0.0
 41
1.0
 10
-3097.366350329645
 20
-4177.484630899525
 30
0.0
 41
1.0
 10
-3080.034465511042
 20
-4153.629337987511
 30
0.0
 41
1.0
 10
-3062.702580692436
 20
-4129.774045075494
 30
0.0
 41
1.0
 10
-3062.137065925453
 20
-4128.995680774458
 30
0.0
 41
1.0
 10
-3061.026378603499
 20
-4127.422391766616
 30
0.0
 41
1.0
 10
-3059.424360843212
 20
-4125.016720066783
 30
0.0
 41
1.0
 10
-3057.88702712924
 20
-4122.56591044483
 30
0.0
 41
1.0
 10
-3056.41638373286
 20
-4120.072774544473
 30
0.0
 41
1.0
 10
-3055.014263296089
 20
-4117.540202989062
 30
0.0
 41
1.0
 10
-3053.68234472075
 20
-4114.971193504982
 30
0.0
 41
1.0
 10
-3052.422134828874
 20
-4112.368818171275
 30
0.0
 41
1.0
 10
-3051.234981400623
 20
-4109.736255737856
 30
0.0
 41
1.0
 10
-3050.492252456897
 20
-4107.961386955349
 30
0.0
 41
1.0
 10
-3050.13339912544
 20
-4107.069836436436
 30
0.0
 41
1.0
  0
SPLINE
  5
8D
330
1F
100
AcDbEntity
  8
2D
100
AcDbSpline
210
0.0
220
0.0
230
1.0
 70
     8
 71
     3
 72
     8
 73
     4
 74
     0
 42
0.0000000001
 43
0.0000000001
 40
-281.3211851680625
 40
-281.3211851680625
 40
-281.3211851680625
 40
-281.3211851680625
 40
0.0
 40
0.0
 40
0.0
 40
0.0
 10
-3050.13339912544
 20
-4107.069836436436
 30
0.0
 10
-3015.123909035145
 20
-4020.07645887436
 30
0.0
 10
-2980.102424477085
 20
-3933.087907073932
 30
0.0
 10
-2945.068947666012
 20
-3846.104186536303
 30
0.0
  0
SPLINE
  5
8E
330
1F
100
AcDbEntity
  8
2D
100
AcDbSpline
210
0.0
220
0.0
230
1.0
 70
     8
 71
     3
 72
    12
 73
     8
 74
     0
 42
0.0000000001
 43
0.0000000001
 40
-53.44456392199194
 40
-53.44456392199194
 40
-53.44456392199194
 40
-53.44456392199194
 40
-46.58212145159087
 40
-39.78805087982516
 40
-26.54724326036705
 40
-12.93246673734174
 40
0.0
 40
0.0
 40
0.0
 40
0.0
 10
-2945.068947666012
 20
-3846.104186536303
 30
0.0
 10
-2944.212886802121
 20
-3843.983020368235
 30
0.0
 10
-2942.856254468978
 20
-3839.621563874381
 30
0.0
 10
-2941.603593031905
 20
-3830.71477945976
 30
0.0
 10
-2942.762744957508
 20
-3819.409266771829
 30
0.0
 10
-2948.450838744408
 20
-3807.209646028685
 30
0.0
 10
-2954.732671131474
 20
-3800.801934944783
 30
0.0
 10
-2958.220969473841
 20
-3798.269680994472
 30
0.0
  0
SPLINE
  5
8F
330
1F
100
AcDbEntity
  8
2D
100
AcDbSpline
210
0.0
220
0.0
230
1.0
 70
     8
 71
     3
 72
     8
 73
     4
 74
     0
 42
0.0000000001
 43
0.0000000001
 40
-212.939947122357
 40
-212.939947122357
 40
-212.939947122357
 40
-212.939947122357
 40
0.0
 40
0.0
 40
0.0
 40
0.0
 10
-2958.220969473841
 20
-3798.269680994472
 30
0.0
 10
-3015.632017842934
 20
-3756.530854157297
 30
0.0
 10
-3073.04878193506
 20
-3714.799890975989
 30
0.0
 10
-3130.471259902177
 20
-3673.07679279349
 30
0.0
  0
LINE
  5
90
330
1F
100
AcDbEntity
  8
2D
100
AcDbLine
 10
-3130.471257135287
 20
-3673.076794803704
 30
0.0
 11
-3302.750906214656
 21
-3547.926801157096
 31
0.0
  0
LINE
  5
91
330
1F
100
AcDbEntity
  8
2D
100
AcDbLine
 10
-3196.067958350257
 20
-5274.183116563274
 30
0.0
 11
-3210.378715625255
 21
-5318.222281009163
 31
0.0
  0
SPLINE
  5
92
330
1F
100
AcDbEntity
  8
2D
100
AcDbSpline
210
0.0
220
0.0
230
1.0
 70
    12
 71
     3
 72
    31
 73
    27
 74
     0
 42
0.0000000001
 43
0.0000000001
 40
-613.4426407540117
 40
-613.4426407540117
 40
-613.4426407540117
 40
-613.4426407540117
 40
-611.5080646453645
 40
-611.5080646453645
 40
-611.5080646453645
 40
-504.2953677783279
 40
-504.2953677783279
 40
-504.2953677783279
 40
-501.3167024160456
 40
-501.3167024160456
 40
-501.3167024160456
 40
-321.3280815482624
 40
-321.3280815482624
 40
-321.3280815482624
 40
-315.3707520206783
 40
-315.3707520206783
 40
-315.3707520206783
 40
-211.7260408717061
 40
-211.7260408717061
 40
-211.7260408717061
 40
-203.0238756157526
 40
-203.0238756157526
 40
-194.3530809245157
 40
-194.3530809245157
 40
-194.3530809245157
 40
0.0
 40
0.0
 40
0.0
 40
0.0
 10
-3210.378715625255
 20
-5318.222281009163
 30
0.0
 41
1.0
 10
-3210.411459161416
 20
-5318.316053017193
 30
0.0
 41
1.0
 10
-3210.243943175159
 20
-5318.426447461194
 30
0.0
 41
1.0
 10
-3209.86336265361
 20
-5318.550105568649
 30
0.0
 41
1.0
 10
-3189.346714786614
 20
-5325.216370144055
 30
0.0
 41
1.0
 10
-3168.830066919618
 20
-5331.882634719461
 30
0.0
 41
1.0
 10
-3148.313419052633
 20
-5338.548899294864
 30
0.0
 41
1.0
 10
-3147.743409883013
 20
-5338.734106932764
 30
0.0
 41
1.0
 10
-3147.173400713396
 20
-5338.919314570662
 30
0.0
 41
1.0
 10
-3146.60339154378
 20
-5339.10452220856
 30
0.0
 41
1.0
 10
-3112.160053474792
 20
-5350.295841151183
 30
0.0
 41
1.0
 10
-3077.716715405815
 20
-5361.487160093809
 30
0.0
 41
1.0
 10
-3043.273377336827
 20
-5372.678479036432
 30
0.0
 41
1.0
 10
-3042.133357403967
 20
-5373.048888594773
 30
0.0
 41
1.0
 10
-3040.993337471096
 20
-5373.419298153119
 30
0.0
 41
1.0
 10
-3039.853317538236
 20
-5373.789707711462
 30
0.0
 41
1.0
 10
-3020.019453448851
 20
-5380.234118792107
 30
0.0
 41
1.0
 10
-3000.185589359462
 20
-5386.678529872752
 30
0.0
 41
1.0
 10
-2980.351725270077
 20
-5393.122940953395
 30
0.0
 41
1.0
 10
-2978.665348702918
 20
-5393.670877915335
 30
0.0
 41
1.0
 10
-2975.443578381179
 20
-5394.273073916076
 30
0.0
 41
1.0
 10
-2966.898045558817
 20
-5395.422945803542
 30
0.0
 41
1.0
 10
-2961.838926522527
 20
-5395.936575931724
 30
0.0
 41
1.0
 10
-2956.657887505444
 20
-5396.329755239377
 30
0.0
 41
1.0
 10
-2841.424221564681
 20
-5405.074623433105
 30
0.0
 41
1.0
 10
-2726.190555623918
 20
-5413.81949162683
 30
0.0
 41
1.0
 10
-2610.956889683166
 20
-5422.564359820554
 30
0.0
 41
1.0
  0
SPLINE
  5
93
330
1F
100
AcDbEntity
  8
2D
100
AcDbSpline
210
0.0
220
0.0
230
1.0
 70
     8
 71
     3
 72
     8
 73
     4
 74
     0
 42
0.0000000001
 43
0.0000000001
 40
-1.21711404438774
 40
-1.21711404438774
 40
-1.21711404438774
 40
-1.21711404438774
 40
0.0
 40
0.0
 40
0.0
 40
0.0
 10
-2610.956889683166
 20
-5422.564359820554
 30
0.0
 10
-2610.552348207908
 20
-5422.595059712344
 30
0.0
 10
-2610.147601765315
 20
-5422.623168690231
 30
0.0
 10
-2609.742700180283
 20
-5422.648683293957
 30
0.0
  0
SPLINE
  5
94
330
1F
100
AcDbEntity
  8
2D
100
AcDbSpline
210
0.0
220
0.0
230
1.0
 70
    12
 71
     3
 72
    14
 73
    10
 74
     0
 42
0.0000000001
 43
0.0000000001
 40
-528.1175762542288
 40
-528.1175762542288
 40
-528.1175762542288
 40
-528.1175762542288
 40
-402.7857201750735
 40
-402.7857201750735
 40
-402.7857201750735
 40
0.0000000000008963
 40
0.0000000000008963
 40
0.0000000000008963
 40
125.304092257509
 40
125.304092257509
 40
125.304092257509
 40
125.304092257509
 10
-2609.742700180281
 20
-5422.648683293957
 30
0.0
 41
0.995622771604256
 10
-2564.658667430851
 20
-5425.489623592948
 30
0.0000000000000011
 41
0.8574698667828088
 10
-2527.353471464453
 20
-5400.082877948491
 30
0.0000000000000011
 41
0.8589289429147234
 10
-2513.417819461956
 20
-5357.193351200603
 30
0.0
 41
1.0
 10
-2471.928608586739
 20
-5229.50268991956
 30
0.0
 41
1.0
 10
-2430.43939771154
 20
-5101.812028638559
 30
0.0
 41
1.0
 10
-2388.950186836326
 20
-4974.121367357517
 30
0.0
 41
1.0
 10
-2375.014534833819
 20
-4931.231840609631
 30
0.0000000000000057
 41
0.8589289429147202
 10
-2390.261361950584
 20
-4888.749907588564
 30
0.0000000000000057
 41
0.8574698667828196
 10
-2428.404973430208
 20
-4864.548547006467
 30
0.0
 41
0.9956227716042974
  0
SPLINE
  5
95
330
1F
100
AcDbEntity
  8
2D
100
AcDbSpline
210
0.0
220
0.0
230
1.0
 70
     8
 71
     3
 72
     8
 73
     4
 74
     0
 42
0.0000000001
 43
0.0000000001
 40
-1.217114044405169
 40
-1.217114044405169
 40
-1.217114044405169
 40
-1.217114044405169
 40
0.0
 40
0.0
 40
0.0
 40
0.0
 10
-2428.40497343021
 20
-4864.548547006467
 30
0.0
 10
-2428.747542801339
 20
-4864.331193574174
 30
0.0
 10
-2429.091511594455
 20
-4864.116030225111
 30
0.0
 10
-2429.436837466514
 20
-4863.90308344619
 30
0.0
  0
SPLINE
  5
96
330
1F
100
AcDbEntity
  8
2D
100
AcDbSpline
210
0.0
220
0.0
230
1.0
 70
    12
 71
     3
 72
    31
 73
    27
 74
     0
 42
0.0000000001
 43
0.0000000001
 40
-611.674873539358
 40
-611.674873539358
 40
-611.674873539358
 40
-611.674873539358
 40
-417.881797715693
 40
-417.881797715693
 40
-417.881797715693
 40
-409.2359409319284
 40
-409.2359409319284
 40
-400.5589715680941
 40
-400.5589715680941
 40
-400.5589715680941
 40
-297.2129002278842
 40
-297.2129002278842
 40
-297.2129002278842
 40
-291.2727360310838
 40
-291.2727360310838
 40
-291.2727360310838
 40
-111.8027310174905
 40
-111.8027310174905
 40
-111.8027310174905
 40
-108.8326483223244
 40
-108.8326483223244
 40
-108.8326483223244
 40
-1.928871764341691
 40
-1.928871764341691
 40
-1.928871764341691
 40
0.0
 40
0.0
 40
0.0
 40
0.0
 10
-2429.436837466514
 20
-4863.90308344619
 30
0.0
 41
1.0
 10
-2527.802934831208
 20
-4803.245177133739
 30
0.0
 41
1.0
 10
-2626.169032195907
 20
-4742.587270821286
 30
0.0
 41
1.0
 10
-2724.535129560594
 20
-4681.929364508835
 30
0.0
 41
1.0
 10
-2728.957821305754
 20
-4679.202091409713
 30
0.0
 41
1.0
 10
-2733.352250749816
 20
-4676.644173152191
 30
0.0
 41
1.0
 10
-2740.941672398909
 20
-4672.551447887525
 30
0.0
 41
1.0
 10
-2743.902407242087
 20
-4671.144774244605
 30
0.0
 41
1.0
 10
-2745.588765118297
 20
-4670.596843355728
 30
0.0
 41
1.0
 10
-2765.422630207868
 20
-4664.152431950102
 30
0.0
 41
1.0
 10
-2785.256495297443
 20
-4657.708020544476
 30
0.0
 41
1.0
 10
-2805.090360387007
 20
-4651.263609138853
 30
0.0
 41
1.0
 10
-2806.230380319867
 20
-4650.89319958051
 30
0.0
 41
1.0
 10
-2807.370400252727
 20
-4650.522790022168
 30
0.0
 41
1.0
 10
-2808.510420185597
 20
-4650.152380463821
 30
0.0
 41
1.0
 10
-2842.953758254578
 20
-4638.9610615212
 30
0.0
 41
1.0
 10
-2877.397096323566
 20
-4627.769742578575
 30
0.0
 41
1.0
 10
-2911.840434392558
 20
-4616.57842363595
 30
0.0
 41
1.0
 10
-2912.410443569599
 20
-4616.393216427296
 30
0.0
 41
1.0
 10
-2912.980452746644
 20
-4616.208009218643
 30
0.0
 41
1.0
 10
-2913.550461923685
 20
-4616.022802009988
 30
0.0
 41
1.0
 10
-2934.067108783067
 20
-4609.356537330317
 30
0.0
 41
1.0
 10
-2954.583755642445
 20
-4602.690272650645
 30
0.0
 41
1.0
 10
-2975.100402501826
 20
-4596.024007970976
 30
0.0
 41
1.0
 10
-2975.480961738689
 20
-4595.900356779333
 30
0.0
 41
1.0
 10
-2975.681360454269
 20
-4595.891209924441
 30
0.0
 41
1.0
 10
-2975.710005092053
 20
-4595.986313006859
 30
0.0
 41
1.0
  0
LINE
  5
97
330
1F
100
AcDbEntity
  8
2D
100
AcDbLine
 10
-2975.710005092053
 20
-4595.986313006859
 30
0.0
 11
-2990.017945276086
 21
-4640.026383490147
 31
0.0
  0
LINE
  5
98
330
1F
100
AcDbEntity
  8
2D
100
AcDbLine
 10
-4589.183858623772
 20
-5271.65737449631
 30
0.0
 11
-4582.783234201652
 21
-5269.473917502432
 31
0.0
  0
SPLINE
  5
99
330
1F
100
AcDbEntity
  8
2D
100
AcDbSpline
210
0.0
220
0.0
230
1.0
 70
     8
 71
     3
 72
     8
 73
     4
 74
     0
 42
0.0000000001
 43
0.0000000001
 40
-1.894533806007199
 40
-1.894533806007199
 40
-1.894533806007199
 40
-1.894533806007199
 40
0.0
 40
0.0
 40
0.0
 40
0.0
 10
-4582.783234201652
 20
-5269.473917502432
 30
0.0
 10
-4582.185560079532
 20
-5269.269976025031
 30
0.0
 10
-4581.595241073432
 20
-5269.043054935407
 30
0.0
 10
-4581.014853251945
 20
-5268.794144390978
 30
0.0
  0
SPLINE
  5
9A
330
1F
100
AcDbEntity
  8
2D
100
AcDbSpline
210
0.0
220
0.0
230
1.0
 70
     8
 71
     3
 72
    12
 73
     8
 74
     0
 42
0.0000000001
 43
0.0000000001
 40
-36.93812985731092
 40
-36.93812985731092
 40
-36.93812985731092
 40
-36.93812985731092
 40
-32.39055734484231
 40
-27.7957754993583
 40
-18.47368212992075
 40
-9.214053060871127
 40
0.0
 40
0.0
 40
0.0
 40
0.0
 10
-4581.014853251945
 20
-5268.794144390978
 30
0.0
 10
-4579.621220955545
 20
-5268.197285284828
 30
0.0
 10
-4576.932313786863
 20
-5266.737276068099
 30
0.0
 10
-4572.126357475023
 20
-5262.849308297797
 30
0.0
 10
-4567.621619543996
 20
-5256.406037495421
 30
0.0
 10
-4565.401420181806
 20
-5247.245598588064
 30
0.0
 10
-4566.215857767078
 20
-5241.036478251493
 30
0.0
 10
-4567.166247079353
 20
-5238.11585143273
 30
0.0
  0
LINE
  5
9B
330
1F
100
AcDbEntity
  8
2D
100
AcDbLine
 10
-4567.166247079353
 20
-5238.11585143273
 30
0.0
 11
-4751.437888638611
 21
-4670.986053837541
 31
0.0
  0
SPLINE
  5
9C
330
1F
100
AcDbEntity
  8
2D
100
AcDbSpline
210
0.0
220
0.0
230
1.0
 70
     8
 71
     3
 72
    12
 73
     8
 74
     0
 42
0.0000000001
 43
0.0000000001
 40
-36.93791451282694
 40
-36.93791451282694
 40
-36.93791451282694
 40
-36.93791451282694
 40
-32.24526381394014
 40
-27.72387003998691
 40
-18.46424962044681
 40
-9.14216486134812
 40
0.0
 40
0.0
 40
0.0
 40
0.0
 10
-4751.437888638611
 20
-4670.986053837541
 30
0.0
 10
-4751.92071532338
 20
-4669.498050192888
 30
0.0
 10
-4753.145298954118
 20
-4666.667081112273
 30
0.0
 10
-4756.588818849621
 20
-4661.531695319157
 30
0.0
 10
-4762.556845542633
 20
-4656.456666769927
 30
0.0
 10
-4771.447047571055
 20
-4653.388508429739
 30
0.0
 10
-4777.70229930705
 20
-4653.630826487157
 30
0.0
 10
-4780.673716047764
 20
-4654.306765975469
 30
0.0
  0
SPLINE
  5
9D
330
1F
100
AcDbEntity
  8
2D
100
AcDbSpline
210
0.0
220
0.0
230
1.0
 70
     8
 71
     3
 72
     8
 73
     4
 74
     0
 42
0.0000000001
 43
0.0000000001
 40
-1.894716948170955
 40
-1.894716948170955
 40
-1.894716948170955
 40
-1.894716948170955
 40
0.0
 40
0.0
 40
0.0
 40
0.0
 10
-4780.673716047764
 20
-4654.306765975469
 30
0.0
 10
-4781.289625767258
 20
-4654.446547261192
 30
0.0
 10
-4781.900642472909
 20
-4654.609957614291
 30
0.0
 10
-4782.504103916548
 20
-4654.796284951115
 30
0.0
  0
LINE
  5
9E
330
1F
100
AcDbEntity
  8
2D
100
AcDbLine
 10
-4782.504103916548
 20
-4654.796284951115
 30
0.0
 11
-4788.965723149777
 21
-4656.792019018457
 31
0.0
  0
LINE
  5
9F
330
1F
100
AcDbEntity
  8
2D
100
AcDbLine
 10
-2967.927580148011
 20
-4657.86798947595
 30
0.0
 11
-2974.389197900131
 21
-4655.872250649698
 31
0.0
  0
SPLINE
  5
A0
330
1F
100
AcDbEntity
  8
2D
100
AcDbSpline
210
0.0
220
0.0
230
1.0
 70
     8
 71
     3
 72
     8
 73
     4
 74
     0
 42
0.0000000001
 43
0.0000000001
 40
-1.894533806009459
 40
-1.894533806009459
 40
-1.894533806009459
 40
-1.894533806009459
 40
0.0
 40
0.0
 40
0.0
 40
0.0
 10
-2974.389197900131
 20
-4655.872250649698
 30
0.0
 10
-2974.992600214773
 20
-4655.685938736114
 30
0.0
 10
-2975.603559192721
 20
-4655.522540948066
 30
0.0
 10
-2976.219408750792
 20
-4655.38277040651
 30
0.0
  0
SPLINE
  5
A1
330
1F
100
AcDbEntity
  8
2D
100
AcDbSpline
210
0.0
220
0.0
230
1.0
 70
     8
 71
     3
 72
    12
 73
     8
 74
     0
 42
0.0000000001
 43
0.0000000001
 40
-36.93812985730965
 40
-36.93812985730965
 40
-36.93812985730965
 40
-36.93812985730965
 40
-32.3905573448412
 40
-27.79577549935735
 40
-18.47368212992012
 40
-9.214053060870812
 40
0.0
 40
0.0
 40
0.0
 40
0.0
 10
-2976.219408750792
 20
-4655.38277040651
 30
0.0
 10
-2977.697705942781
 20
-4655.04648305569
 30
0.0
 10
-2980.731249424345
 20
-4654.647155345432
 30
0.0
 10
-2986.90463987162
 20
-4654.967717101929
 30
0.0
 10
-2994.336308967191
 20
-4657.532614159109
 30
0.0
 10
-3001.516858876374
 20
-4663.638564468851
 30
0.0
 10
-3004.507594392573
 20
-4669.140562742792
 30
0.0
 10
-3005.455414659191
 20
-4672.062024295089
 30
0.0
  0
LINE
  5
A2
330
1F
100
AcDbEntity
  8
2D
100
AcDbLine
 10
-3005.455414659191
 20
-4672.062024295089
 30
0.0
 11
-3189.727056218449
 21
-5239.191821890278
 31
0.0
  0
SPLINE
  5
A3
330
1F
100
AcDbEntity
  8
2D
100
AcDbSpline
210
0.0
220
0.0
230
1.0
 70
     8
 71
     3
 72
    12
 73
     8
 74
     0
 42
0.0000000001
 43
0.0000000001
 40
-36.93791451283402
 40
-36.93791451283402
 40
-36.93791451283402
 40
-36.93791451283402
 40
-32.24526381394632
 40
-27.72387003999222
 40
-18.46424962045035
 40
-9.14216486134987
 40
0.0
 40
0.0
 40
0.0
 40
0.0
 10
-3189.727056218449
 20
-5239.191821890278
 30
0.0
 10
-3190.21106782282
 20
-5240.679440531215
 30
0.0
 10
-3190.8843607298
 20
-5243.689534826328
 30
0.0
 10
-3191.116998647896
 20
-5249.868199416184
 30
0.0
 10
-3189.271790566567
 20
-5257.48190183489
 30
0.0
 10
-3183.882884266208
 20
-5265.189623715743
 30
0.0
 10
-3178.679848327178
 20
-5268.670329009042
 30
0.0
 10
-3175.878614423902
 20
-5269.870037414433
 30
0.0
  0
SPLINE
  5
A4
330
1F
100
AcDbEntity
  8
2D
100
AcDbSpline
210
0.0
220
0.0
230
1.0
 70
     8
 71
     3
 72
     8
 73
     4
 74
     0
 42
0.0000000001
 43
0.0000000001
 40
-1.894716948161006
 40
-1.894716948161006
 40
-1.894716948161006
 40
-1.894716948161006
 40
0.0
 40
0.0
 40
0.0
 40
0.0
 10
-3175.878614423902
 20
-5269.870037414433
 30
0.0
 10
-3175.298171615537
 20
-5270.118974628649
 30
0.0
 10
-3174.707798521191
 20
-5270.345919484423
 30
0.0
 10
-3174.110067497153
 20
-5270.549883239313
 30
0.0
  0
LINE
  5
A5
330
1F
100
AcDbEntity
  8
2D
100
AcDbLine
 10
-3174.110067497153
 20
-5270.549883239313
 30
0.0
 11
-3167.709444674012
 21
-5272.733344953802
 31
0.0
  0
LINE
  5
A6
330
1F
100
AcDbEntity
  8
2D
100
AcDbLine
 10
-4650.680252896786
 20
-3637.160451581239
 30
0.0
 11
-4671.25340495276
 21
-3608.845473523185
 31
0.0
  0
SPLINE
  5
A7
330
1F
100
AcDbEntity
  8
2D
100
AcDbSpline
210
0.0
220
0.0
230
1.0
 70
     8
 71
     3
 72
    34
 73
    30
 74
     0
 42
0.0000000001
 43
0.0000000001
 40
-152.7202797106232
 40
-152.7202797106232
 40
-152.7202797106232
 40
-152.7202797106232
 40
-146.9742588431811
 40
-146.9742588431811
 40
-141.1868019352161
 40
-141.1868019352161
 40
-129.6246045175369
 40
-129.6246045175369
 40
-124.3542541161536
 40
-124.3542541161536
 40
-119.203715267981
 40
-119.203715267981
 40
-108.9086924289751
 40
-108.9086924289751
 40
-99.53178190281417
 40
-99.53178190281417
 40
-90.12976069300194
 40
-90.12976069300194
 40
-80.75924573701023
 40
-80.75924573701023
 40
-71.43781265958113
 40
-71.43781265958113
 40
-62.15500180591201
 40
-62.15500180591201
 40
-52.81052245859631
 40
-52.81052245859631
 40
-33.83551572026712
 40
-33.83551572026712
 40
0.0
 40
0.0
 40
0.0
 40
0.0
 10
-4671.25340495276
 20
-3608.845473523185
 30
0.0
 10
-4672.364593200036
 20
-3607.31608687469
 30
0.0
 10
-4673.476212459576
 20
-3605.78702068768
 30
0.0
 10
-4675.715512660336
 20
-3602.723701859441
 30
0.0
 10
-4676.839185299337
 20
-3601.186539689953
 30
0.0
 10
-4680.207734238033
 20
-3596.578430682128
 30
0.0
 10
-4682.452609132131
 20
-3593.507482816299
 30
0.0
 10
-4685.720760904911
 20
-3589.036720301808
 30
0.0
 10
-4686.747778958405
 20
-3587.639648663772
 30
0.0
 10
-4688.763007893467
 20
-3584.865931695493
 30
0.0
 10
-4689.759031164995
 20
-3583.495013616633
 30
0.0
 10
-4692.745925575728
 20
-3579.383867729956
 30
0.0
 10
-4694.736796177243
 20
-3576.643639531519
 30
0.0
 10
-4698.540994550312
 20
-3571.407559757393
 30
0.0
 10
-4700.354320931219
 20
-3568.911707171352
 30
0.0
 10
-4703.985830398378
 20
-3563.913318832184
 30
0.0
 10
-4705.804013487344
 20
-3561.410783081025
 30
0.0
 10
-4709.434287845386
 20
-3556.414098271191
 30
0.0
 10
-4711.246379104396
 20
-3553.919949205198
 30
0.0
 10
-4714.861070953921
 20
-3548.944715842791
 30
0.0
 10
-4716.663671457176
 20
-3546.46363148298
 30
0.0
 10
-4720.261405171852
 20
-3541.511743970826
 30
0.0
 10
-4722.056537748122
 20
-3539.040940357029
 30
0.0
 10
-4725.658732956879
 20
-3534.082922075814
 30
0.0
 10
-4727.465798938836
 20
-3531.595709842044
 30
0.0
 10
-4732.942360153542
 20
-3524.057969656836
 30
0.0
 10
-4736.611851969559
 20
-3519.007439223227
 30
0.0
 10
-4746.824555950545
 20
-3504.950930277493
 30
0.0
 10
-4753.367799418094
 20
-3495.944974508387
 30
0.0
 10
-4759.911042885644
 20
-3486.939018739279
 30
0.0
  0
LINE
  5
A8
330
1F
100
AcDbEntity
  8
2D
100
AcDbLine
 10
-2601.989936684105
 20
-4874.419929639032
 30
0.0
 11
-2565.564536323142
 21
-4886.372616171739
 31
0.0
  0
LINE
  5
A9
330
1F
100
AcDbEntity
  8
2D
100
AcDbLine
 10
-4109.107571309432
 20
-6007.00060048896
 30
0.0
 11
-4109.219181204433
 21
-5968.665391279881
 31
0.0
  0
LINE
  5
AA
330
1F
100
AcDbEntity
  8
2D
100
AcDbLine
 10
-3648.455856754706
 20
-5968.664109589599
 30
0.0
 11
-3648.567469430425
 21
-6007.000307228596
 31
0.0
  0
SPLINE
  5
AB
330
1F
100
AcDbEntity
  8
2D
100
AcDbSpline
210
0.0
220
0.0
230
1.0
 70
     8
 71
     3
 72
     8
 73
     4
 74
     0
 42
0.0000000001
 43
0.0000000001
 40
-281.3072617646352
 40
-281.3072617646352
 40
-281.3072617646352
 40
-281.3072617646352
 40
0.0
 40
0.0
 40
0.0
 40
0.0
 10
-3627.142717879673
 20
-5941.824616287709
 30
0.0
 10
-3604.357540917459
 20
-5850.865958451232
 30
0.0
 10
-3581.559549800051
 20
-5759.910509292643
 30
0.0
 10
-3558.748746032637
 20
-5668.958274817081
 30
0.0
  0
SPLINE
  5
AC
330
1F
100
AcDbEntity
  8
2D
100
AcDbSpline
210
0.0
220
0.0
230
1.0
 70
    12
 71
     3
 72
    33
 73
    29
 74
     0
 42
0.0000000001
 43
0.0000000001
 40
-750.2204953855647
 40
-750.2204953855647
 40
-750.2204953855647
 40
-750.2204953855647
 40
-747.3283180964887
 40
-744.4311734323658
 40
-741.5303316972671
 40
-738.6270745221757
 40
-735.7226912166482
 40
-732.8184750627839
 40
-729.915719578961
 40
-727.0157147811286
 40
-724.1197434694885
 40
-724.1197434694885
 40
-724.1197434694885
 40
-635.3638949041135
 40
-635.3638949041135
 40
-635.3638949041135
 40
-631.3191716905225
 40
-627.0527020544994
 40
-622.6124107265023
 40
-618.0608863926678
 40
-613.471040368467
 40
-608.9195147155136
 40
-604.4792210006757
 40
-600.2127483275768
 40
-596.1680218846076
 40
-596.1680218846076
 40
-596.1680218846076
 40
0.0
 40
0.0
 40
0.0
 40
0.0
 10
-3558.748746032637
 20
-5668.958274817081
 30
0.0
 41
1.0
 10
-3558.514977400722
 20
-5668.02594261788
 30
0.0
 41
1.0
 10
-3558.072527578712
 20
-5666.153228768811
 30
0.0
 41
1.0
 10
-3557.485456545488
 20
-5663.325270800562
 30
0.0
 41
1.0
 10
-3556.975248765299
 20
-5660.478789800289
 30
0.0
 41
1.0
 10
-3556.542682366166
 20
-5657.61715084244
 30
0.0
 41
1.0
 10
-3556.188344024908
 20
-5654.74372617166
 30
0.0
 41
1.0
 10
-3555.912637420512
 20
-5651.861929017281
 30
0.0
 41
1.0
 10
-3555.71577882185
 20
-5648.9751763039
 30
0.0
 41
1.0
 10
-3555.597797530652
 20
-5646.086923098739
 30
0.0
 41
1.0
 10
-3555.571601396205
 20
-5644.161006475812
 30
0.0
 41
1.0
 10
-3555.571601396201
 20
-5643.198769263052
 30
0.0
 41
1.0
 10
-3555.571601396201
 20
-5613.70808335853
 30
0.0
 41
1.0
 10
-3555.571601396201
 20
-5584.217397454
 30
0.0
 41
1.0
 10
-3555.571601396201
 20
-5554.726711549481
 30
0.0
 41
1.0
 10
-3555.571601396201
 20
-5553.382781388371
 30
0.0
 41
1.0
 10
-3555.796928383083
 20
-5550.616163800112
 30
0.0
 41
1.0
 10
-3556.844085672965
 20
-5546.48919039688
 30
0.0
 41
1.0
 10
-3558.664927473936
 20
-5542.448823873479
 30
0.0
 41
1.0
 10
-3561.245240560424
 20
-5538.709256552689
 30
0.0
 41
1.0
 10
-3564.492970059087
 20
-5535.473888352511
 30
0.0
 41
1.0
 10
-3568.246824933736
 20
-5532.903396371921
 30
0.0
 41
1.0
 10
-3572.30262815137
 20
-5531.089485043181
 30
0.0
 41
1.0
 10
-3576.445369091787
 20
-5530.046313442932
 30
0.0
 41
1.0
 10
-3579.222556787863
 20
-5529.8218440974
 30
0.0
 41
1.0
 10
-3580.571621620984
 20
-5529.821844097411
 30
0.0
 41
1.0
 10
-3779.415554405023
 20
-5529.821844097411
 30
0.0
 41
1.0
 10
-3978.259487189065
 20
-5529.821844097411
 30
0.0
 41
1.0
 10
-4177.103419973108
 20
-5529.821844097411
 30
0.0
 41
1.0
  0
SPLINE
  5
AD
330
1F
100
AcDbEntity
  8
2D
100
AcDbSpline
210
0.0
220
0.0
230
1.0
 70
    12
 71
     3
 72
    30
 73
    26
 74
     0
 42
0.0000000001
 43
0.0000000001
 40
-153.6700009209454
 40
-153.6700009209454
 40
-153.6700009209454
 40
-153.6700009209454
 40
-149.6349152548939
 40
-145.3786119002497
 40
-140.948901813687
 40
-136.4082249150497
 40
-131.8293189833944
 40
-127.2886434007306
 40
-122.8589356953184
 40
-118.6026353705133
 40
-114.5675529261415
 40
-114.5675529261415
 40
-114.5675529261415
 40
-26.03503402167383
 40
-26.03503402167383
 40
-26.03503402167383
 40
-23.14634376537522
 40
-20.25363376414817
 40
-17.35818320751205
 40
-14.46127846512965
 40
-11.56420938522152
 40
-8.668265567840503
 40
-5.774732640665917
 40
-2.884888565112356
 40
0.0
 40
0.0
 40
0.0
 40
0.0
 10
-4177.103419973108
 20
-5529.821844097411
 30
0.0
 41
1.0
 10
-4178.452484806228
 20
-5529.8218440974
 30
0.0
 41
1.0
 10
-4181.229672502301
 20
-5530.046313442932
 30
0.0
 41
1.0
 10
-4185.372413442718
 20
-5531.089485043181
 30
0.0
 41
1.0
 10
-4189.428216660355
 20
-5532.903396371921
 30
0.0
 41
1.0
 10
-4193.182071535004
 20
-5535.473888352511
 30
0.0
 41
1.0
 10
-4196.429801033668
 20
-5538.709256552689
 30
0.0
 41
1.0
 10
-4199.010114120156
 20
-5542.448823873479
 30
0.0
 41
1.0
 10
-4200.830955921127
 20
-5546.489190396869
 30
0.0
 41
1.0
 10
-4201.878113211005
 20
-5550.616163800119
 30
0.0
 41
1.0
 10
-4202.103440197887
 20
-5553.38278138836
 30
0.0
 41
1.0
 10
-4202.103440197887
 20
-5554.726711549481
 30
0.0
 41
1.0
 10
-4202.103440197887
 20
-5584.213475211911
 30
0.0
 41
1.0
 10
-4202.103440197887
 20
-5613.700238874329
 30
0.0
 41
1.0
 10
-4202.103440197887
 20
-5643.187002536752
 30
0.0
 41
1.0
 10
-4202.103440197887
 20
-5644.14911372409
 30
0.0
 41
1.0
 10
-4202.077249040383
 20
-5646.074776896252
 30
0.0
 41
1.0
 10
-4201.959290286726
 20
-5648.962648597711
 30
0.0
 41
1.0
 10
-4201.762469635396
 20
-5651.849017316772
 30
0.0
 41
1.0
 10
-4201.486816621538
 20
-5654.730429129222
 30
0.0
 41
1.0
 10
-4201.132547672401
 20
-5657.603468271691
 30
0.0
 41
1.0
 10
-4200.700066547233
 20
-5660.464722698862
 30
0.0
 41
1.0
 10
-4200.189959924159
 20
-5663.310821358811
 30
0.0
 41
1.0
 10
-4199.603005848439
 20
-5666.138400383532
 30
0.0
 41
1.0
 10
-4199.160644491018
 20
-5668.010864510941
 30
0.0
 41
1.0
 10
-4198.926922687962
 20
-5668.943072728051
 30
0.0
 41
1.0
  0
SPLINE
  5
AE
330
1F
100
AcDbEntity
  8
2D
100
AcDbSpline
210
0.0
220
0.0
230
1.0
 70
     8
 71
     3
 72
     8
 73
     4
 74
     0
 42
0.0000000001
 43
0.0000000001
 40
-281.3211851680567
 40
-281.3211851680567
 40
-281.3211851680567
 40
-281.3211851680567
 40
0.0
 40
0.0
 40
0.0
 40
0.0
 10
-4198.926922687962
 20
-5668.943072728051
 30
0.0
 10
-4176.116770757319
 20
-5759.900255539202
 30
0.0
 10
-4153.319159066457
 20
-5850.860584398432
 30
0.0
 10
-4130.534089057102
 20
-5941.824053553411
 30
0.0
  0
SPLINE
  5
AF
330
1F
100
AcDbEntity
  8
2D
100
AcDbSpline
210
0.0
220
0.0
230
1.0
 70
     8
 71
     3
 72
    12
 73
     8
 74
     0
 42
0.0000000001
 43
0.0000000001
 40
-53.44456392199149
 40
-53.44456392199149
 40
-53.44456392199149
 40
-53.44456392199149
 40
-46.58212145159048
 40
-39.78805087982483
 40
-26.54724326036683
 40
-12.93246673734163
 40
0.0
 40
0.0
 40
0.0
 40
0.0
 10
-4130.534089057102
 20
-5941.824053553411
 30
0.0
 10
-4129.979866652957
 20
-5944.043292982131
 30
0.0
 10
-4128.513805459988
 20
-5948.369193884091
 30
0.0
 10
-4124.291953326516
 20
-5956.311229759582
 30
0.0
 10
-4116.708966092068
 20
-5964.776249247201
 30
0.0
 10
-4104.936444396488
 20
-5971.302572111739
 30
0.0
 10
-4096.087977163465
 20
-5972.794150839169
 30
0.0
 10
-4091.777464638464
 20
-5972.792416997288
 30
0.0
  0
SPLINE
  5
B0
330
1F
100
AcDbEntity
  8
2D
100
AcDbSpline
210
0.0
220
0.0
230
1.0
 70
     8
 71
     3
 72
     8
 73
     4
 74
     0
 42
0.0000000001
 43
0.0000000001
 40
-212.9399471223997
 40
-212.9399471223997
 40
-212.9399471223997
 40
-212.9399471223997
 40
0.0
 40
0.0
 40
0.0
 40
0.0
 10
-4091.777464638464
 20
-5972.792416997288
 30
0.0
 10
-4020.79748562257
 20
-5972.814469683572
 30
0.0
 10
-3949.817502988128
 20
-5972.826800921493
 30
0.0
 10
-3878.837520661971
 20
-5972.829410710325
 30
0.0
  0
LINE
  5
B1
330
1F
100
AcDbEntity
  8
2D
100
AcDbLine
 10
-3878.837520797042
 20
-5972.82941071045
 30
0.0
 11
-3665.89903631691
 21
-5972.8144454175
 31
0.0
  0
SPLINE
  5
B2
330
1F
100
AcDbEntity
  8
2D
100
AcDbSpline
210
0.0
220
0.0
230
1.0
 70
     8
 71
     3
 72
    12
 73
     8
 74
     0
 42
0.0000000001
 43
0.0000000001
 40
-53.44388079558827
 40
-53.44388079558827
 40
-53.44388079558827
 40
-53.44388079558827
 40
-46.96293067044399
 40
-40.50956396516462
 40
-26.89574594603426
 40
-13.65392953143419
 40
0.0
 40
0.0
 40
0.0
 40
0.0
 10
-3665.89903631691
 20
-5972.8144454175
 30
0.0
 10
-3663.738462171168
 20
-5972.79299331613
 30
0.0
 10
-3659.428396021587
 20
-5972.428517638769
 30
0.0
 10
-3650.821433422356
 20
-5970.238944996441
 30
0.0
 10
-3640.96669786828
 20
-5964.774443344691
 30
0.0
 10
-3631.838179598686
 20
-5954.58397617539
 30
0.0
 10
-3628.246204694016
 20
-5946.23981943026
 30
0.0
 10
-3627.142717879673
 20
-5941.824616287709
 30
0.0
  0
LINE
  5
B3
330
1F
100
AcDbEntity
  8
2D
100
AcDbLine
 10
-3591.488344814832
 20
-3661.365391415691
 30
0.0
 11
-3554.022805639725
 21
-3688.585698490086
 31
0.0
  0
SPLINE
  5
B4
330
1F
100
AcDbEntity
  8
2D
100
AcDbSpline
210
0.0
220
0.0
230
1.0
 70
     8
 71
     3
 72
   114
 73
   110
 74
     0
 42
0.0000000001
 43
0.0000000001
 40
-1098.975988350596
 40
-1098.975988350596
 40
-1098.975988350596
 40
-1098.975988350596
 40
-1090.211722736786
 40
-1090.211722736786
 40
-1085.842116337611
 40
-1085.842116337611
 40
-1081.475241072265
 40
-1081.475241072265
 40
-1072.722742500819
 40
-1072.722742500819
 40
-1063.978533372147
 40
-1063.978533372147
 40
-1047.272469063893
 40
-1047.272469063893
 40
-1029.785121967835
 40
-1029.785121967835
 40
-994.8104174559359
 40
-994.8104174559359
 40
-959.8357144959456
 40
-959.8357144959456
 40
-889.7871756560128
 40
-889.7871756560128
 40
-819.738636850876
 40
-819.738636850876
 40
-810.9883766912108
 40
-810.9883766912108
 40
-808.8008116524168
 40
-808.8008116524168
 40
-806.6128668831799
 40
-806.6128668831799
 40
-802.228876794005
 40
-802.228876794005
 40
-797.8453066848442
 40
-797.8453066848442
 40
-793.4597657704272
 40
-793.4597657704272
 40
-784.6403323350346
 40
-784.6403323350346
 40
-780.2542512671184
 40
-780.2542512671184
 40
-775.8668524516248
 40
-775.8668524516248
 40
-767.0562973292617
 40
-767.0562973292617
 40
-749.4762042857525
 40
-749.4762042857525
 40
-745.0847757876719
 40
-745.0847757876719
 40
-740.6954259850328
 40
-740.6954259850328
 40
-731.9168629242586
 40
-731.9168629242586
 40
-714.3597339657576
 40
-714.3597339657576
 40
-679.245474520441
 40
-679.245474520441
 40
-538.8854349572005
 40
-538.8854349572005
 40
-398.4533959836984
 40
-398.4533959836984
 40
-363.3248258649681
 40
-363.3248258649681
 40
-345.7605453580616
 40
-345.7605453580616
 40
-336.978405312506
 40
-336.978405312506
 40
-332.586550660224
 40
-332.586550660224
 40
-328.1933277024575
 40
-328.1933277024575
 40
-319.3775790499819
 40
-319.3775790499819
 40
-310.559480007059
 40
-310.559480007059
 40
-301.7389709023535
 40
-301.7389709023535
 40
-297.3476122481113
 40
-297.3476122481113
 40
-292.9573983739048
 40
-292.9573983739048
 40
-288.5671583692601
 40
-288.5671583692601
 40
-284.1747401866901
 40
-284.1747401866901
 40
-275.3340300566826
 40
-275.3340300566826
 40
-270.9426320839045
 40
-270.9426320839045
 40
-269.071948914575
 40
-269.071948914575
 40
-260.3090592794252
 40
-260.3090592794252
 40
-190.2964042773211
 40
-190.2964042773211
 40
-120.2837494877606
 40
-120.2837494877606
 40
-68.78940188108629
 40
-68.78940188108629
 40
-51.26184807109742
 40
-51.26184807109742
 40
-34.73047041941413
 40
-34.73047041941413
 40
-25.96695064633763
 40
-25.96695064633763
 40
-17.19426699255671
 40
-17.19426699255671
 40
-8.759227645228775
 40
-8.759227645228775
 40
0.0
 40
0.0
 40
0.0
 40
0.0
 10
-3554.022805639725
 20
-3688.585698490086
 30
0.0
 10
-3551.150920721677
 20
-3689.08723704742
 30
0.0
 10
-3548.310854193824
 20
-3688.845404583492
 30
0.0
 10
-3544.118953325535
 20
-3687.828470238606
 30
0.0
 10
-3542.764715964015
 20
-3687.387712133313
 30
0.0
 10
-3540.079241854284
 20
-3686.388430416025
 30
0.0
 10
-3538.764932389149
 20
-3685.832044139855
 30
0.0
 10
-3534.870853864337
 20
-3684.00309222544
 30
0.0
 10
-3532.393678957618
 20
-3682.599242162692
 30
0.0
 10
-3527.540871996756
 20
-3679.551524516281
 30
0.0
 10
-3525.194960824647
 20
-3677.922798587403
 30
0.0
 10
-3518.474155206357
 20
-3672.999234112772
 30
0.0
 10
-3513.625515654217
 20
-3669.088918612747
 30
0.0
 10
-3504.877101407394
 20
-3662.119995081347
 30
0.0
 10
-3500.392667300155
 20
-3658.568886661825
 30
0.0
 10
-3486.951546920805
 20
-3647.900180572668
 30
0.0
 10
-3477.996481815535
 20
-3640.780563641963
 30
0.0
 10
-3460.086586065681
 20
-3626.54102739408
 30
0.0
 10
-3451.132555407228
 20
-3619.420107098538
 30
0.0
 10
-3424.249285879443
 20
-3598.031876899425
 30
0.0
 10
-3406.322319787458
 20
-3583.761712999359
 30
0.0
 10
-3370.461757374123
 20
-3555.229716590314
 30
0.0
 10
-3352.530232229874
 20
-3540.965282125477
 30
0.0
 10
-3332.358987471085
 20
-3524.918681116837
 30
0.0
 10
-3330.119062683068
 20
-3523.13677254026
 30
0.0
 10
-3327.319164303175
 20
-3520.909377260148
 30
0.0
 10
-3326.759185007671
 20
-3520.46389772633
 30
0.0
 10
-3325.639130061194
 20
-3519.572860262467
 30
0.0
 10
-3325.083226500123
 20
-3519.122198510046
 30
0.0
 10
-3323.37303586668
 20
-3517.818741932073
 30
0.0
 10
-3322.19226429001
 20
-3517.018939902004
 30
0.0
 10
-3319.738765105427
 20
-3515.53340190103
 30
0.0
 10
-3318.482443472891
 20
-3514.857542957562
 30
0.0
 10
-3315.889652696576
 20
-3513.629907489634
 30
0.0
 10
-3314.569912180221
 20
-3513.087453805355
 30
0.0
 10
-3310.493692935059
 20
-3511.656994765111
 30
0.0
 10
-3307.738311922512
 20
-3511.002102498698
 30
0.0
 10
-3303.469240874816
 20
-3510.371079622883
 30
0.0
 10
-3302.049165790741
 20
-3510.224549916692
 30
0.0
 10
-3299.186533033266
 20
-3510.061501285507
 30
0.0
 10
-3297.758590050478
 20
-3510.04552003457
 30
0.0
 10
-3293.447894230583
 20
-3510.188476568007
 30
0.0
 10
-3290.629472407854
 20
-3510.530309695915
 30
0.0
 10
-3282.180833337152
 20
-3512.243566797132
 30
0.0
 10
-3276.78915808873
 20
-3514.281783115681
 30
0.0
 10
-3270.5371066591
 20
-3517.789954599411
 30
0.0
 10
-3269.318528134416
 20
-3518.535893433116
 30
0.0
 10
-3266.933383882024
 20
-3520.123245861461
 30
0.0
 10
-3265.781593004249
 20
-3520.971757942912
 30
0.0
 10
-3262.302422567675
 20
-3523.487430548447
 30
0.0
 10
-3259.983232881608
 20
-3525.164875830493
 30
0.0
 10
-3253.026426281758
 20
-3530.198267894284
 30
0.0
 10
-3248.389574216628
 20
-3533.555269164003
 30
0.0
 10
-3234.482294856407
 20
-3543.630804255049
 30
0.0
 10
-3225.215504350002
 20
-3550.354335559362
 30
0.0
 10
-3178.924238134809
 20
-3583.977026280146
 30
0.0
 10
-3141.946802476952
 20
-3610.94078694253
 30
0.0
 10
-3067.882185977534
 20
-3664.7574149131
 30
0.0
 10
-3030.788150633027
 20
-3691.600604679817
 30
0.0
 10
-2984.484854700167
 20
-3725.254609487484
 30
0.0
 10
-2975.223517240411
 20
-3731.993583302381
 30
0.0
 10
-2961.337755276363
 20
-3742.110637425623
 30
0.0
 10
-2956.710212446291
 20
-3745.484418274935
 30
0.0
 10
-2949.770557703163
 20
-3750.547367843979
 30
0.0
 10
-2947.457616524654
 20
-3752.235397062038
 30
0.0
 10
-2943.988425407253
 20
-3754.768177489358
 30
0.0
 10
-2942.825045920123
 20
-3755.602067359303
 30
0.0
 10
-2940.579063528759
 20
-3757.383268313461
 30
0.0
 10
-2939.493882874456
 20
-3758.313750640665
 30
0.0
 10
-2936.326198300096
 20
-3761.236176045022
 30
0.0
 10
-2934.378953575568
 20
-3763.308356790228
 30
0.0
 10
-2930.796324488369
 20
-3767.814602395143
 30
0.0
 10
-2929.213395315412
 20
-3770.176292616297
 30
0.0
 10
-2926.38283890712
 20
-3775.189392315396
 30
0.0
 10
-2925.18163582421
 20
-3777.762855740354
 30
0.0
 10
-2923.716757631926
 20
-3781.821854825047
 30
0.0
 10
-2923.292031081593
 20
-3783.185918119368
 30
0.0
 10
-2922.561626445564
 20
-3785.959575082579
 30
0.0
 10
-2922.259364187466
 20
-3787.355425463379
 30
0.0
 10
-2921.780376326093
 20
-3790.183097580419
 30
0.0
 10
-2921.606184436459
 20
-3791.600104718015
 30
0.0
 10
-2921.396363999967
 20
-3794.461421432004
 30
0.0
 10
-2921.361413930277
 20
-3795.889038991854
 30
0.0
 10
-2921.467314332003
 20
-3800.210595679956
 30
0.0
 10
-2921.820853413716
 20
-3803.016622461472
 30
0.0
 10
-2922.810101465962
 20
-3807.225788813625
 30
0.0
 10
-2923.208125282177
 20
-3808.595648859272
 30
0.0
 10
-2923.892141082677
 20
-3810.524671742331
 30
0.0
 10
-2924.970777329938
 20
-3813.401434034138
 30
0.0
 10
-2926.187893379825
 20
-3816.655984333357
 30
0.0
 10
-2927.190878207573
 20
-3819.337991453473
 30
0.0
 10
-2936.207309971589
 20
-3843.448397331707
 30
0.0
 10
-2944.220214803427
 20
-3864.876998792749
 30
0.0
 10
-2960.249689747521
 20
-3907.732831026853
 30
0.0
 10
-2968.268416710816
 20
-3929.159254537823
 30
0.0
 10
-2982.176222014379
 20
-3966.348079716183
 30
0.0
 10
-2994.45753256305
 20
-3999.203399864704
 30
0.0
 10
-3002.33557114549
 20
-4020.336791501939
 30
0.0
 10
-3004.327374297645
 20
-4025.706701914749
 30
0.0
 10
-3008.235231420858
 20
-4036.127398431862
 30
0.0
 10
-3010.503195409205
 20
-4042.087030323015
 30
0.0
 10
-3013.093020043299
 20
-4049.9428740394
 30
0.0
 10
-3013.91823999579
 20
-4052.680375633221
 30
0.0
 10
-3015.321638500423
 20
-4058.243342737592
 30
0.0
 10
-3015.89183813538
 20
-4061.036376342945
 30
0.0
 10
-3016.594624313097
 20
-4066.629105588514
 30
0.0
 10
-3016.776672816795
 20
-4069.690708628724
 30
0.0
 10
-3016.349539719133
 20
-4075.334114925923
 30
0.0
 10
-3015.703243316035
 20
-4078.110081755573
 30
0.0
 10
-3014.336486265645
 20
-4080.690758919857
 30
0.0
  0
LINE
  5
B5
330
1F
100
AcDbEntity
  8
2D
100
AcDbLine
 10
-3014.336486265645
 20
-4080.690758919857
 30
0.0
 11
-2976.870935837927
 21
-4107.911077489878
 31
0.0
  0
LINE
  5
B6
330
1F
100
AcDbEntity
  8
2D
100
AcDbLine
 10
-3122.68506188838
 20
-4229.567041852885
 30
0.0
 11
-3085.223594770268
 21
-4256.786231044242
 31
0.0
  0
SPLINE
  5
B7
330
1F
100
AcDbEntity
  8
2D
100
AcDbSpline
210
0.0
220
0.0
230
1.0
 70
    12
 71
     3
 72
    31
 73
    27
 74
     0
 42
0.0000000001
 43
0.0000000001
 40
-613.4426407540254
 40
-613.4426407540254
 40
-613.4426407540254
 40
-613.4426407540254
 40
-611.5080646453703
 40
-611.5080646453703
 40
-611.5080646453703
 40
-504.2953677783325
 40
-504.2953677783325
 40
-504.2953677783325
 40
-501.3167024160502
 40
-501.3167024160502
 40
-501.3167024160502
 40
-321.3280815482655
 40
-321.3280815482655
 40
-321.3280815482655
 40
-315.3707520206812
 40
-315.3707520206812
 40
-315.3707520206812
 40
-211.7260408717081
 40
-211.7260408717081
 40
-211.7260408717081
 40
-203.0238756157544
 40
-203.0238756157544
 40
-194.3530809245175
 40
-194.3530809245175
 40
-194.3530809245175
 40
0.0
 40
0.0
 40
0.0
 40
0.0
 10
-3085.223594770268
 20
-4256.786231044242
 30
0.0
 41
1.0
 10
-3085.144530600119
 20
-4256.846349141755
 30
0.0
 41
1.0
 10
-3084.987773958208
 20
-4256.721145730719
 30
0.0
 41
1.0
 10
-3084.75256226043
 20
-4256.39740460242
 30
0.0
 41
1.0
 10
-3072.072575038135
 20
-4238.944901998781
 30
0.0
 41
1.0
 10
-3059.392587815841
 20
-4221.492399395142
 30
0.0
 41
1.0
 10
-3046.71260059355
 20
-4204.039896791512
 30
0.0
 41
1.0
 10
-3046.360315142294
 20
-4203.555018163997
 30
0.0
 41
1.0
 10
-3046.008029691046
 20
-4203.070139536485
 30
0.0
 41
1.0
 10
-3045.655744239793
 20
-4202.585260908972
 30
0.0
 41
1.0
 10
-3024.368590627157
 20
-4173.286007538245
 30
0.0
 41
1.0
 10
-3003.081437014516
 20
-4143.986754167528
 30
0.0
 41
1.0
 10
-2981.79428340188
 20
-4114.6875007968
 30
0.0
 41
1.0
 10
-2981.089717444542
 20
-4113.717740259353
 30
0.0
 41
1.0
 10
-2980.385151487197
 20
-4112.747979721898
 30
0.0
 41
1.0
 10
-2979.680585529855
 20
-4111.778219184452
 30
0.0
 41
1.0
 10
-2967.422585310178
 20
-4094.906526041586
 30
0.0
 41
1.0
 10
-2955.164585090504
 20
-4078.034832898721
 30
0.0
 41
1.0
 10
-2942.906584870831
 20
-4061.163139755854
 30
0.0
 41
1.0
 10
-2941.864346834493
 20
-4059.728622165816
 30
0.0
 41
1.0
 10
-2940.296042622511
 20
-4056.850625305494
 30
0.0
 41
1.0
 10
-2936.561734602932
 20
-4049.078670584154
 30
0.0
 41
1.0
 10
-2934.509889563778
 20
-4044.425882896408
 30
0.0
 41
1.0
 10
-2932.534924716365
 20
-4039.619921065931
 30
0.0
 41
1.0
 10
-2888.608899736755
 20
-3932.728505061822
 30
0.0
 41
1.0
 10
-2844.682874757149
 20
-3825.837089057711
 30
0.0
 41
1.0
 10
-2800.75684977755
 20
-3718.94567305361
 30
0.0
 41
1.0
  0
SPLINE
  5
B8
330
1F
100
AcDbEntity
  8
2D
100
AcDbSpline
210
0.0
220
0.0
230
1.0
 70
     8
 71
     3
 72
     8
 73
     4
 74
     0
 42
0.0000000001
 43
0.0000000001
 40
-1.217114044384899
 40
-1.217114044384899
 40
-1.217114044384899
 40
-1.217114044384899
 40
0.0
 40
0.0
 40
0.0
 40
0.0
 10
-2800.75684977755
 20
-3718.94567305361
 30
0.0
 10
-2800.602642254631
 20
-3718.570418035742
 30
0.0
 10
-2800.450835498868
 20
-3718.194167445923
 30
0.0
 10
-2800.301448197912
 20
-3717.816967601182
 30
0.0
  0
SPLINE
  5
B9
330
1F
100
AcDbEntity
  8
2D
100
AcDbSpline
210
0.0
220
0.0
230
1.0
 70
    12
 71
     3
 72
    14
 73
    10
 74
     0
 42
0.0000000001
 43
0.0000000001
 40
-528.1175762542322
 40
-528.1175762542322
 40
-528.1175762542322
 40
-528.1175762542322
 40
-402.7857201750771
 40
-402.7857201750771
 40
-402.7857201750771
 40
0.0000000000025251
 40
0.0000000000025251
 40
0.0000000000025251
 40
125.3040922575068
 40
125.3040922575068
 40
125.3040922575068
 40
125.3040922575068
 10
-2800.30144819791
 20
-3717.816967601181
 30
0.0
 41
0.9956227716042747
 10
-2783.667821119618
 20
-3675.817403306376
 30
0.0000000000000022
 41
0.8574698667828086
 10
-2796.303132590516
 20
-3632.486937414948
 30
0.0000000000000022
 41
0.8589289429147172
 10
-2832.787143188456
 20
-3605.979752123361
 30
0.0
 41
1.0
 10
-2941.407307426183
 20
-3527.062583405725
 30
0.0
 41
1.0
 10
-3050.027471663867
 20
-3448.14541468812
 30
0.0
 41
1.0
 10
-3158.647635901594
 20
-3369.228245970483
 30
0.0
 41
1.0
 10
-3195.131646499523
 20
-3342.721060678888
 30
0.0000000000000026
 41
0.858928942914721
 10
-3240.245894413397
 20
-3344.094015703694
 30
0.0000000000000025
 41
0.8574698667828196
 10
-3275.049780272246
 20
-3372.892114249565
 30
0.0
 41
0.995622771604295
  0
SPLINE
  5
BA
330
1F
100
AcDbEntity
  8
2D
100
AcDbSpline
210
0.0
220
0.0
230
1.0
 70
     8
 71
     3
 72
     8
 73
     4
 74
     0
 42
0.0000000001
 43
0.0000000001
 40
-1.217114044411931
 40
-1.217114044411931
 40
-1.217114044411931
 40
-1.217114044411931
 40
0.0
 40
0.0
 40
0.0
 40
0.0
 10
-3275.049780272246
 20
-3372.892114249565
 30
0.0
 10
-3275.362355427798
 20
-3373.1507511779
 30
0.0
 10
-3275.673280135601
 20
-3373.411395808565
 30
0.0
 10
-3275.982516120384
 20
-3373.674016055847
 30
0.0
  0
SPLINE
  5
BB
330
1F
100
AcDbEntity
  8
2D
100
AcDbSpline
210
0.0
220
0.0
230
1.0
 70
    12
 71
     3
 72
    31
 73
    27
 74
     0
 42
0.0000000001
 43
0.0000000001
 40
-611.6748735393314
 40
-611.6748735393314
 40
-611.6748735393314
 40
-611.6748735393314
 40
-417.881797715675
 40
-417.881797715675
 40
-417.881797715675
 40
-409.2359409319108
 40
-409.2359409319108
 40
-400.5589715680769
 40
-400.5589715680769
 40
-400.5589715680769
 40
-297.2129002278714
 40
-297.2129002278714
 40
-297.2129002278714
 40
-291.2727360310713
 40
-291.2727360310713
 40
-291.2727360310713
 40
-111.8027310174858
 40
-111.8027310174858
 40
-111.8027310174858
 40
-108.8326483223199
 40
-108.8326483223199
 40
-108.8326483223199
 40
-1.928871764341826
 40
-1.928871764341826
 40
-1.928871764341826
 40
0.0
 40
0.0
 40
0.0
 40
0.0
 10
-3275.982516120384
 20
-3373.674016055847
 30
0.0
 41
1.0
 10
-3364.068408939689
 20
-3448.481410043314
 30
0.0
 41
1.0
 10
-3452.154301759001
 20
-3523.288804030782
 30
0.0
 41
1.0
 10
-3540.240194578309
 20
-3598.09619801824
 30
0.0
 41
1.0
 10
-3544.200672341081
 20
-3601.45965408611
 30
0.0
 41
1.0
 10
-3547.991350546847
 20
-3604.848564632489
 30
0.0
 41
1.0
 10
-3554.229023846259
 20
-3610.801811886678
 30
0.0
 41
1.0
 10
-3556.481767363039
 20
-3613.182951991106
 30
0.0
 41
1.0
 10
-3557.523993847732
 20
-3614.617453681672
 30
0.0
 41
1.0
 10
-3569.781994685556
 20
-3631.489147675348
 30
0.0
 41
1.0
 10
-3582.039995523381
 20
-3648.360841669024
 30
0.0
 41
1.0
 10
-3594.297996361202
 20
-3665.23253566269
 30
0.0
 41
1.0
 10
-3595.002562318543
 20
-3666.202296200136
 30
0.0
 41
1.0
 10
-3595.707128275881
 20
-3667.172056737583
 30
0.0
 41
1.0
 10
-3596.411694233229
 20
-3668.141817275038
 30
0.0
 41
1.0
 10
-3617.698847845862
 20
-3697.441070645759
 30
0.0
 41
1.0
 10
-3638.986001458499
 20
-3726.740324016485
 30
0.0
 41
1.0
 10
-3660.273155071143
 20
-3756.039577387214
 30
0.0
 41
1.0
 10
-3660.625440116455
 20
-3756.524456154435
 30
0.0
 41
1.0
 10
-3660.977725161763
 20
-3757.009334921656
 30
0.0
 41
1.0
 10
-3661.330010207075
 20
-3757.494213688875
 30
0.0
 41
1.0
 10
-3674.009997217163
 20
-3774.946715301995
 30
0.0
 41
1.0
 10
-3686.689984227251
 20
-3792.399216915114
 30
0.0
 41
1.0
 10
-3699.369971237338
 20
-3809.851718528234
 30
0.0
 41
1.0
 10
-3699.605169780454
 20
-3810.175441550696
 30
0.0
 41
1.0
 10
-3699.675795565166
 20
-3810.363205521401
 30
0.0
 41
1.0
 10
-3699.594198838786
 20
-3810.419836659506
 30
0.0
 41
1.0
  0
LINE
  5
BC
330
1F
100
AcDbEntity
  8
2D
100
AcDbLine
 10
-3699.594198838786
 20
-3810.419836659506
 30
0.0
 11
-3662.130999498924
 21
-3837.636626619099
 31
0.0
  0
LINE
  5
BD
330
1F
100
AcDbEntity
  8
2D
100
AcDbLine
 10
-2627.851511361878
 20
-5108.329914642269
 30
0.0
 11
-2594.564355199225
 21
-5119.144617714915
 31
0.0
  0
SPLINE
  5
BE
330
1F
100
AcDbEntity
  8
2D
100
AcDbSpline
210
0.0
220
0.0
230
1.0
 70
     8
 71
     3
 72
    34
 73
    30
 74
     0
 42
0.0000000001
 43
0.0000000001
 40
-152.7202797100019
 40
-152.7202797100019
 40
-152.7202797100019
 40
-152.7202797100019
 40
-146.9742588425865
 40
-146.9742588425865
 40
-141.1868019346514
 40
-141.1868019346514
 40
-129.624604517016
 40
-129.624604517016
 40
-124.3542541151769
 40
-124.3542541151769
 40
-119.2037152671721
 40
-119.2037152671721
 40
-108.9086924285013
 40
-108.9086924285013
 40
-99.53178190238285
 40
-99.53178190238285
 40
-90.12976069260866
 40
-90.12976069260866
 40
-80.75924573665819
 40
-80.75924573665819
 40
-71.43781265925452
 40
-71.43781265925452
 40
-62.15500180561362
 40
-62.15500180561362
 40
-52.81052245833239
 40
-52.81052245833239
 40
-33.83551572013024
 40
-33.83551572013024
 40
0.0
 40
0.0
 40
0.0
 40
0.0
 10
-2594.564355199225
 20
-5119.144617714915
 30
0.0
 10
-2592.766434106186
 20
-5119.728777440247
 30
0.0
 10
-2590.96835267944
 20
-5120.312424564138
 30
0.0
 10
-2587.356147131206
 20
-5121.47447392191
 30
0.0
 10
-2585.543555616532
 20
-5122.057586034531
 30
0.0
 10
-2580.109763762983
 20
-5123.805641146003
 30
0.0
 10
-2576.488563957315
 20
-5124.970585802313
 30
0.0
 10
-2571.21672536026
 20
-5126.666537240101
 30
0.0
 10
-2569.564672196073
 20
-5127.193125872006
 30
0.0
 10
-2566.30396781196
 20
-5128.252588188942
 30
0.0
 10
-2564.692362629696
 20
-5128.776236422675
 30
0.0
 10
-2559.859443368936
 20
-5130.346570826525
 30
0.0
 10
-2556.638129495837
 20
-5131.3932576287
 30
0.0
 10
-2550.482777891088
 20
-5133.393283449357
 30
0.0
 10
-2547.548740690614
 20
-5134.346624102626
 30
0.0
 10
-2541.672808865453
 20
-5136.25585750514
 30
0.0
 10
-2538.730914239728
 20
-5137.211750251196
 30
0.0
 10
-2532.856982948255
 20
-5139.120331448454
 30
0.0
 10
-2529.924946286355
 20
-5140.073019911498
 30
0.0
 10
-2524.076230353527
 20
-5141.973405691934
 30
0.0
 10
-2521.159551115928
 20
-5142.921103111906
 30
0.0
 10
-2515.338276948867
 20
-5144.812569444311
 30
0.0
 10
-2512.433682262003
 20
-5145.756339103389
 30
0.0
 10
-2506.605195094766
 20
-5147.650142931728
 30
0.0
 10
-2503.68130133508
 20
-5148.600173163351
 30
0.0
 10
-2494.820097725191
 20
-5151.479291157079
 30
0.0
 10
-2488.882789180199
 20
-5153.408382935613
 30
0.0
 10
-2472.358329444058
 20
-5158.777460768238
 30
0.0
 10
-2461.771166296599
 20
-5162.217410023649
 30
0.0
 10
-2451.184003149141
 20
-5165.657359279059
 30
0.0
  0
LINE
  5
BF
330
1F
100
AcDbEntity
  8
2D
100
AcDbLine
 10
-3638.336325628428
 20
-3822.140800373258
 30
0.0
 11
-3642.231135740527
 21
-3827.669446828576
 31
0.0
  0
SPLINE
  5
C0
330
1F
100
AcDbEntity
  8
2D
100
AcDbSpline
210
0.0
220
0.0
230
1.0
 70
     8
 71
     3
 72
     8
 73
     4
 74
     0
 42
0.0000000001
 43
0.0000000001
 40
-1.894533806010143
 40
-1.894533806010143
 40
-1.894533806010143
 40
-1.894533806010143
 40
0.0
 40
0.0
 40
0.0
 40
0.0
 10
-3642.231135740527
 20
-3827.669446828576
 30
0.0
 10
-3642.59479046967
 20
-3828.18574298431
 30
0.0
 10
-3642.938987707796
 20
-3828.716306808133
 30
0.0
 10
-3643.262225371545
 20
-3829.258823070736
 30
0.0
  0
SPLINE
  5
C1
330
1F
100
AcDbEntity
  8
2D
100
AcDbSpline
210
0.0
220
0.0
230
1.0
 70
     8
 71
     3
 72
    12
 73
     8
 74
     0
 42
0.0000000001
 43
0.0000000001
 40
-36.93812985731299
 40
-36.93812985731299
 40
-36.93812985731299
 40
-36.93812985731299
 40
-32.39055734484413
 40
-27.79577549935987
 40
-18.47368212992179
 40
-9.214053060871645
 40
0.0
 40
0.0
 40
0.0
 40
0.0
 10
-3643.262225371545
 20
-3829.258823070736
 30
0.0
 10
-3644.038872602956
 20
-3830.560848741801
 30
0.0
 10
-3645.356072312912
 20
-3833.322520988613
 30
0.0
 10
-3646.95888252664
 20
-3839.292823231631
 30
0.0
 10
-3646.816032513885
 20
-3847.153357331413
 30
0.0
 10
-3643.227840634525
 20
-3855.869308525642
 30
0.0
 10
-3638.919317423635
 20
-3860.413877996511
 30
0.0
 10
-3636.433734947215
 20
-3862.218089905427
 30
0.0
  0
LINE
  5
C2
330
1F
100
AcDbEntity
  8
2D
100
AcDbLine
 10
-3636.433734947215
 20
-3862.218089905427
 30
0.0
 11
-3154.004314182341
 21
-4212.723580852102
 31
0.0
  0
SPLINE
  5
C3
330
1F
100
AcDbEntity
  8
2D
100
AcDbSpline
210
0.0
220
0.0
230
1.0
 70
     8
 71
     3
 72
    12
 73
     8
 74
     0
 42
0.0000000001
 43
0.0000000001
 40
-36.93791451284228
 40
-36.93791451284228
 40
-36.93791451284228
 40
-36.93791451284228
 40
-32.24526381395353
 40
-27.72387003999842
 40
-18.46424962045448
 40
-9.142164861351915
 40
0.0
 40
0.0
 40
0.0
 40
0.0
 10
-3154.004314182341
 20
-4212.723580852102
 30
0.0
 10
-3152.739072591339
 20
-4213.6436026836
 30
0.0
 10
-3150.084361747759
 20
-4215.21411258202
 30
0.0
 10
-3144.279991597799
 20
-4217.344676750768
 30
0.0
 10
-3136.468729644072
 20
-4217.942543018594
 30
0.0
 10
-3127.472986895591
 20
-4215.199205615032
 30
0.0
 10
-3122.554812917591
 20
-4211.326421468743
 30
0.0
 10
-3120.548193539656
 20
-4209.033019996925
 30
0.0
  0
SPLINE
  5
C4
330
1F
100
AcDbEntity
  8
2D
100
AcDbSpline
210
0.0
220
0.0
230
1.0
 70
     8
 71
     3
 72
     8
 73
     4
 74
     0
 42
0.0000000001
 43
0.0000000001
 40
-1.894716948161374
 40
-1.894716948161374
 40
-1.894716948161374
 40
-1.894716948161374
 40
0.0
 40
0.0
 40
0.0
 40
0.0
 10
-3120.548193539656
 20
-4209.033019996925
 30
0.0
 10
-3120.132073487879
 20
-4208.557911911417
 30
0.0
 10
-3119.733800784783
 20
-4208.066563550214
 30
0.0
 10
-3119.355110682114
 20
-4207.56111583131
 30
0.0
  0
LINE
  5
C5
330
1F
100
AcDbEntity
  8
2D
100
AcDbLine
 10
-3119.355110682114
 20
-4207.56111583131
 30
0.0
 11
-3115.300613963533
 21
-4202.148488563356
 31
0.0
  0
SPLINE
  5
C6
330
1F
100
AcDbEntity
  8
2D
100
AcDbSpline
210
0.0
220
0.0
230
1.0
 70
     8
 71
     3
 72
     8
 73
     4
 74
     0
 42
0.0000000001
 43
0.0000000001
 40
-281.3072617646382
 40
-281.3072617646382
 40
-281.3072617646382
 40
-281.3072617646382
 40
0.0
 40
0.0
 40
0.0
 40
0.0
 10
-4810.558379072776
 20
-3845.437707318639
 30
0.0
 10
-4775.527816810449
 20
-3932.417598283152
 30
0.0
 10
-4740.509507430987
 20
-4019.402425344159
 30
0.0
 10
-4705.503453246391
 20
-4106.392182758689
 30
0.0
  0
SPLINE
  5
C7
330
1F
100
AcDbEntity
  8
2D
100
AcDbSpline
210
0.0
220
0.0
230
1.0
 70
    12
 71
     3
 72
    33
 73
    29
 74
     0
 42
0.0000000001
 43
0.0000000001
 40
-750.2204953855339
 40
-750.2204953855339
 40
-750.2204953855339
 40
-750.2204953855339
 40
-747.328318096458
 40
-744.4311734323352
 40
-741.5303316972366
 40
-738.6270745221454
 40
-735.7226912166179
 40
-732.8184750627538
 40
-729.915719578931
 40
-727.0157147810987
 40
-724.1197434694589
 40
-724.1197434694589
 40
-724.1197434694589
 40
-635.3638949040875
 40
-635.3638949040875
 40
-635.3638949040875
 40
-631.3191716904965
 40
-627.0527020544736
 40
-622.6124107264767
 40
-618.0608863926425
 40
-613.4710403684418
 40
-608.9195147154886
 40
-604.4792210006509
 40
-600.2127483275522
 40
-596.1680218845831
 40
-596.1680218845831
 40
-596.1680218845831
 40
0.0
 40
0.0
 40
0.0
 40
0.0
 10
-4705.503453246391
 20
-4106.392182758689
 30
0.0
 41
1.0
 10
-4705.144564925438
 20
-4107.283861106535
 30
0.0
 41
1.0
 10
-4704.401760768356
 20
-4109.05898391629
 30
0.0
 41
1.0
 10
-4703.214479223298
 20
-4111.691921667358
 30
0.0
 41
1.0
 10
-4701.954126435245
 20
-4114.294665779546
 30
0.0
 41
1.0
 10
-4700.622050826529
 20
-4116.864036478259
 30
0.0
 41
1.0
 10
-4699.219759921307
 20
-4119.396960720289
 30
0.0
 41
1.0
 10
-4697.748933382281
 20
-4121.890439868546
 30
0.0
 41
1.0
 10
-4696.21140466215
 20
-4124.341582453309
 30
0.0
 41
1.0
 10
-4694.609180892865
 20
-4126.747576043355
 30
0.0
 41
1.0
 10
-4693.498348622717
 20
-4128.321073022548
 30
0.0
 41
1.0
 10
-4692.932759779855
 20
-4129.099539280292
 30
0.0
 41
1.0
 10
-4675.598569525184
 20
-4152.958005352824
 30
0.0
 41
1.0
 10
-4658.264379270513
 20
-4176.816471425363
 30
0.0
 41
1.0
 10
-4640.930189015846
 20
-4200.674937497892
 30
0.0
 41
1.0
 10
-4640.140246687035
 20
-4201.762199837483
 30
0.0
 41
1.0
 10
-4638.331776308245
 20
-4203.86799660349
 30
0.0
 41
1.0
 10
-4635.058834161926
 20
-4206.591284610215
 30
0.0
 41
1.0
 10
-4631.210874344561
 20
-4208.789745833781
 30
0.0
 41
1.0
 10
-4626.925294685669
 20
-4210.298449369375
 30
0.0
 41
1.0
 10
-4622.396124614315
 20
-4211.006949723629
 30
0.0
 41
1.0
 10
-4617.848294948981
 20
-4210.880060885266
 30
0.0
 41
1.0
 10
-4613.500890892075
 20
-4209.96360465898
 30
0.0
 41
1.0
 10
-4609.536182185748
 20
-4208.372506182786
 30
0.0
 41
1.0
 10
-4607.157450372157
 20
-4206.921715727436
 30
0.0
 41
1.0
 10
-4606.066033995659
 20
-4206.128755314134
 30
0.0
 41
1.0
 10
-4445.197913145017
 20
-4089.251224115838
 30
0.0
 41
1.0
 10
-4284.329792294378
 20
-3972.373692917543
 30
0.0
 41
1.0
 10
-4123.46167144374
 20
-3855.496161719247
 30
0.0
 41
1.0
  0
SPLINE
  5
C8
330
1F
100
AcDbEntity
  8
2D
100
AcDbSpline
210
0.0
220
0.0
230
1.0
 70
    12
 71
     3
 72
    30
 73
    26
 74
     0
 42
0.0000000001
 43
0.0000000001
 40
-153.6700009209565
 40
-153.6700009209565
 40
-153.6700009209565
 40
-153.6700009209565
 40
-149.6349152549047
 40
-145.3786119002602
 40
-140.9489018136971
 40
-136.4082249150596
 40
-131.8293189834039
 40
-127.2886434007398
 40
-122.8589356953272
 40
-118.6026353705218
 40
-114.5675529261498
 40
-114.5675529261498
 40
-114.5675529261498
 40
-26.03503402167571
 40
-26.03503402167571
 40
-26.03503402167571
 40
-23.14634376537689
 40
-20.25363376414963
 40
-17.3581832075133
 40
-14.46127846513069
 40
-11.56420938522236
 40
-8.668265567841129
 40
-5.774732640666334
 40
-2.884888565112564
 40
0.0
 40
0.0
 40
0.0
 40
0.0
 10
-4123.46167144374
 20
-3855.496161719247
 30
0.0
 41
1.0
 10
-4122.370255067224
 20
-3854.703201305961
 30
0.0
 41
1.0
 10
-4120.255402795428
 20
-3852.88921182011
 30
0.0
 41
1.0
 10
-4117.517015853577
 20
-3849.610226238613
 30
0.0
 41
1.0
 10
-4115.301992452667
 20
-3845.758799829846
 30
0.0
 41
1.0
 10
-4113.775957341983
 20
-3841.472767599079
 30
0.0
 41
1.0
 10
-4113.050190698232
 20
-3836.946332239325
 30
0.0
 41
1.0
 10
-4113.160736081569
 20
-3832.404288746662
 30
0.0
 41
1.0
 10
-4114.062511976823
 20
-3828.065299608368
 30
0.0
 41
1.0
 10
-4115.641118036561
 20
-3824.111004377984
 30
0.0
 41
1.0
 10
-4117.085001691983
 20
-3821.740319852328
 30
0.0
 41
1.0
 10
-4117.874944020801
 20
-3820.653057512728
 30
0.0
 41
1.0
 10
-4135.206828839411
 20
-3796.797764600704
 30
0.0
 41
1.0
 10
-4152.538713658014
 20
-3772.94247168869
 30
0.0
 41
1.0
 10
-4169.87059847662
 20
-3749.087178776673
 30
0.0
 41
1.0
 10
-4170.436113243602
 20
-3748.308814475638
 30
0.0
 41
1.0
 10
-4171.589178748603
 20
-3746.766315020038
 30
0.0
 41
1.0
 10
-4173.382057781579
 20
-3744.499312151761
 30
0.0
 41
1.0
 10
-4175.237853999093
 20
-3742.279879082208
 30
0.0
 41
1.0
 10
-4177.154513340989
 20
-3740.110792734437
 30
0.0
 41
1.0
 10
-4179.129852978625
 20
-3737.994689306324
 30
0.0
 41
1.0
 10
-4181.16154071398
 20
-3735.934091876781
 30
0.0
 41
1.0
 10
-4183.247120459877
 20
-3733.931382843354
 30
0.0
 41
1.0
 10
-4185.383985532477
 20
-3731.988826308898
 30
0.0
 41
1.0
 10
-4186.842470187821
 20
-3730.733984490543
 30
0.0
 41
1.0
 10
-4187.579493340534
 20
-3730.117190429581
 30
0.0
 41
1.0
  0
SPLINE
  5
C9
330
1F
100
AcDbEntity
  8
2D
100
AcDbSpline
210
0.0
220
0.0
230
1.0
 70
     8
 71
     3
 72
     8
 73
     4
 74
     0
 42
0.0000000001
 43
0.0000000001
 40
-281.3211851680563
 40
-281.3211851680563
 40
-281.3211851680563
 40
-281.3211851680563
 40
0.0
 40
0.0
 40
0.0
 40
0.0
 10
-4187.579493340534
 20
-3730.117190429581
 30
0.0
 10
-4259.496584543165
 20
-3669.938754682277
 30
0.0
 10
-4331.40537967936
 20
-3609.750402760602
 30
0.0
 10
-4403.305874201607
 20
-3549.552138470871
 30
0.0
  0
SPLINE
  5
CA
330
1F
100
AcDbEntity
  8
2D
100
AcDbSpline
210
0.0
220
0.0
230
1.0
 70
     8
 71
     3
 72
    12
 73
     8
 74
     0
 42
0.0000000001
 43
0.0000000001
 40
-53.44456392198855
 40
-53.44456392198855
 40
-53.44456392198855
 40
-53.44456392198855
 40
-46.58212145158792
 40
-39.78805087982264
 40
-26.54724326036537
 40
-12.93246673734093
 40
0.0
 40
0.0
 40
0.0
 40
0.0
 10
-4403.305874201607
 20
-3549.552138470871
 30
0.0
 10
-4405.058685752734
 20
-3548.082499814097
 30
0.0
 10
-4408.787454925692
 20
-3545.444501616616
 30
0.0
 10
-4416.871216610198
 20
-3541.500802044822
 30
0.0
 10
-4427.981595766185
 20
-3539.109625486354
 30
0.0
 10
-4441.341842216032
 20
-3540.749434013121
 30
0.0
 10
-4449.377130560333
 20
-3544.743720019145
 30
0.0
 10
-4452.863400624978
 20
-3547.278786626307
 30
0.0
  0
SPLINE
  5
CB
330
1F
100
AcDbEntity
  8
2D
100
AcDbSpline
210
0.0
220
0.0
230
1.0
 70
     8
 71
     3
 72
     8
 73
     4
 74
     0
 42
0.0000000001
 43
0.0000000001
 40
-212.9399471223429
 40
-212.9399471223429
 40
-212.9399471223429
 40
-212.9399471223429
 40
0.0
 40
0.0
 40
0.0
 40
0.0
 10
-4452.863400624978
 20
-3547.278786626307
 30
0.0
 10
-4510.300383455582
 20
-3588.9819387116
 30
0.0
 10
-4567.731643785595
 20
-3630.692949533158
 30
0.0
 10
-4625.157189741771
 20
-3672.411824990973
 30
0.0
  0
LINE
  5
CC
330
1F
100
AcDbEntity
  8
2D
100
AcDbLine
 10
-4625.157167028825
 20
-3672.411808490052
 30
0.0
 11
-4797.4192233512
 21
-3797.586016489305
 31
0.0
  0
SPLINE
  5
CD
330
1F
100
AcDbEntity
  8
2D
100
AcDbSpline
210
0.0
220
0.0
230
1.0
 70
     8
 71
     3
 72
    12
 73
     8
 74
     0
 42
0.0000000001
 43
0.0000000001
 40
-53.4438807955864
 40
-53.4438807955864
 40
-53.4438807955864
 40
-53.4438807955864
 40
-46.96293067044235
 40
-40.50956396516321
 40
-26.89574594603332
 40
-13.65392953143371
 40
0.0
 40
0.0
 40
0.0
 40
0.0
 10
-4797.4192233512
 20
-3797.586016489305
 30
0.0
 10
-4799.154555323898
 20
-3798.873325223229
 30
0.0
 10
-4802.427238657816
 20
-3801.70158555938
 30
0.0
 10
-4808.103419162559
 20
-3808.532032720303
 30
0.0
 10
-4812.864114218854
 20
-3818.745375646286
 30
0.0
 10
-4814.259434316329
 20
-3832.355245181021
 30
0.0
 10
-4812.260830779975
 20
-3841.217119667129
 30
0.0
 10
-4810.558379072776
 20
-3845.437707318639
 30
0.0
  0
LINE
  5
CE
330
1F
100
AcDbEntity
  8
2D
100
AcDbLine
 10
-4640.327810200619
 20
-4201.483502249735
 30
0.0
 11
-4636.273317477495
 21
-4206.896132497157
 31
0.0
  0
SPLINE
  5
CF
330
1F
100
AcDbEntity
  8
2D
100
AcDbSpline
210
0.0
220
0.0
230
1.0
 70
     8
 71
     3
 72
     8
 73
     4
 74
     0
 42
0.0000000001
 43
0.0000000001
 40
-1.894533806006997
 40
-1.894533806006997
 40
-1.894533806006997
 40
-1.894533806006997
 40
0.0
 40
0.0
 40
0.0
 40
0.0
 10
-4636.273317477495
 20
-4206.896132497157
 30
0.0
 10
-4635.894666145636
 20
-4207.401532983245
 30
0.0
 10
-4635.496432759675
 20
-4207.892837247614
 30
0.0
 10
-4635.080355064259
 20
-4208.367901278911
 30
0.0
  0
SPLINE
  5
D0
330
1F
100
AcDbEntity
  8
2D
100
AcDbSpline
210
0.0
220
0.0
230
1.0
 70
     8
 71
     3
 72
    12
 73
     8
 74
     0
 42
0.0000000001
 43
0.0000000001
 40
-36.93812985731241
 40
-36.93812985731241
 40
-36.93812985731241
 40
-36.93812985731241
 40
-32.39055734484362
 40
-27.79577549935943
 40
-18.4736821299215
 40
-9.2140530608715
 40
0.0
 40
0.0
 40
0.0
 40
0.0
 10
-4635.080355064259
 20
-4208.367901278911
 30
0.0
 10
-4634.082052258542
 20
-4209.508884748673
 30
0.0
 10
-4631.862582967704
 20
-4211.615019773249
 30
0.0
 10
-4626.679783710031
 20
-4214.984307726047
 30
0.0
 10
-4619.159828451284
 20
-4217.277487912259
 30
0.0
 10
-4609.761654002501
 20
-4216.558291684837
 30
0.0
 10
-4604.108104700652
 20
-4213.864991808127
 30
0.0
 10
-4601.624109981763
 20
-4212.058594538447
 30
0.0
  0
LINE
  5
D1
330
1F
100
AcDbEntity
  8
2D
100
AcDbLine
 10
-4601.624109981763
 20
-4212.058594538447
 30
0.0
 11
-4119.194689216889
 21
-3861.553103591772
 31
0.0
  0
SPLINE
  5
D2
330
1F
100
AcDbEntity
  8
2D
100
AcDbSpline
210
0.0
220
0.0
230
1.0
 70
     8
 71
     3
 72
    12
 73
     8
 74
     0
 42
0.0000000001
 43
0.0000000001
 40
-36.93791451283394
 40
-36.93791451283394
 40
-36.93791451283394
 40
-36.93791451283394
 40
-32.24526381394625
 40
-27.72387003999216
 40
-18.46424962045031
 40
-9.142164861349851
 40
0.0
 40
0.0
 40
0.0
 40
0.0
 10
-4119.194689216889
 20
-3861.553103591772
 30
0.0
 10
-4117.928715305301
 20
-3860.634089713093
 30
0.0
 10
-4115.614720866684
 20
-3858.594623914872
 30
0.0
 10
-4111.794784912632
 20
-3853.732720396515
 30
0.0
 10
-4108.812367611525
 20
-3846.488519652053
 30
0.0
 10
-4108.641599139271
 20
-3837.08532201319
 30
0.0
 10
-4110.805036397313
 20
-3831.211104486392
 30
0.0
 10
-4112.366111322539
 20
-3828.593996021567
 30
0.0
  0
SPLINE
  5
D3
330
1F
100
AcDbEntity
  8
2D
100
AcDbSpline
210
0.0
220
0.0
230
1.0
 70
     8
 71
     3
 72
     8
 73
     4
 74
     0
 42
0.0000000001
 43
0.0000000001
 40
-1.894716948166546
 40
-1.894716948166546
 40
-1.894716948166546
 40
-1.894716948166546
 40
0.0
 40
0.0
 40
0.0
 40
0.0
 10
-4112.366111322539
 20
-3828.593996021567
 30
0.0
 10
-4112.689377795505
 20
-3828.051425862175
 30
0.0
 10
-4113.033604822551
 20
-3827.520811018865
 30
0.0
 10
-4113.397292491936
 20
-3827.004463394154
 30
0.0
  0
LINE
  5
D4
330
1F
100
AcDbEntity
  8
2D
100
AcDbLine
 10
-4113.397292491936
 20
-3827.004463394154
 30
0.0
 11
-4117.29209853572
 21
-3821.475814059636
 31
0.0
  0
SPLINE
  5
D5
330
1F
100
AcDbEntity
  8
2D
100
AcDbSpline
210
0.0
220
0.0
230
1.0
 70
    12
 71
     3
 72
    30
 73
    26
 74
     0
 42
0.0000000001
 43
0.0000000001
 40
-153.6700009210026
 40
-153.6700009210026
 40
-153.6700009210026
 40
-153.6700009210026
 40
-149.6349152549495
 40
-145.3786119003038
 40
-140.9489018137394
 40
-136.4082249151005
 40
-131.8293189834434
 40
-127.288643400778
 40
-122.8589356953641
 40
-118.6026353705574
 40
-114.5675529261841
 40
-114.5675529261841
 40
-114.5675529261841
 40
-26.03503402168351
 40
-26.03503402168351
 40
-26.03503402168351
 40
-23.14634376538383
 40
-20.2536337641557
 40
-17.3581832075185
 40
-14.46127846513503
 40
-11.56420938522582
 40
-8.668265567843726
 40
-5.774732640668065
 40
-2.88488856511343
 40
0.0
 40
0.0
 40
0.0
 40
0.0
 10
-3182.71481397557
 20
-5241.583921574356
 30
0.0
 41
1.0
 10
-3183.131697935529
 20
-5242.866958474797
 30
0.0
 41
1.0
 10
-3183.776413096406
 20
-5245.577585772607
 30
0.0
 41
1.0
 10
-3184.064475302257
 20
-5249.839924291839
 30
0.0
 41
1.0
 10
-3183.592655233169
 20
-5254.257751797654
 30
0.0
 41
1.0
 10
-3182.307977035627
 20
-5258.622205643323
 30
0.0
 41
1.0
 10
-3180.234562634454
 20
-5262.710763703106
 30
0.0
 41
1.0
 10
-3177.475383360426
 20
-5266.320377131825
 30
0.0
 41
1.0
 10
-3174.195437510702
 20
-5269.300642511012
 30
0.0
 41
1.0
 10
-3170.594041961322
 20
-5271.571853192075
 30
0.0
 41
1.0
 10
-3168.032462144165
 20
-5272.641083742948
 30
0.0
 41
1.0
 10
-3166.754308606985
 20
-5273.056381001988
 30
0.0
 41
1.0
 10
-3138.710729881375
 20
-5282.168292082797
 30
0.0
 41
1.0
 10
-3110.66715115578
 20
-5291.280203163602
 30
0.0
 41
1.0
 10
-3082.623572430177
 20
-5300.392114244408
 30
0.0
 41
1.0
 10
-3081.708550316056
 20
-5300.689422951774
 30
0.0
 41
1.0
 10
-3079.869042295213
 20
-5301.259576326401
 30
0.0
 41
1.0
 10
-3077.086061835798
 20
-5302.039792318406
 30
0.0
 41
1.0
 10
-3074.280141130999
 20
-5302.744541741637
 30
0.0
 41
1.0
 10
-3071.454574184809
 20
-5303.372785364415
 30
0.0
 41
1.0
 10
-3068.612676460929
 20
-5303.923673492343
 30
0.0
 41
1.0
 10
-3065.757817775768
 20
-5304.396535743304
 30
0.0
 41
1.0
 10
-3062.893385483731
 20
-5304.790888369015
 30
0.0
 41
1.0
 10
-3060.022819242615
 20
-5305.106431842113
 30
0.0
 41
1.0
 10
-3058.105302855616
 20
-5305.264344427307
 30
0.0
 41
1.0
 10
-3057.146496147085
 20
-5305.330129964894
 30
0.0
 41
1.0
  0
SPLINE
  5
D6
330
1F
100
AcDbEntity
  8
2D
100
AcDbSpline
210
0.0
220
0.0
230
1.0
 70
     8
 71
     3
 72
     8
 73
     4
 74
     0
 42
0.0000000001
 43
0.0000000001
 40
-281.3211851680592
 40
-281.3211851680592
 40
-281.3211851680592
 40
-281.3211851680592
 40
0.0
 40
0.0
 40
0.0
 40
0.0
 10
-3057.146496147085
 20
-5305.330129964894
 30
0.0
 10
-2963.59235013985
 20
-5311.743701582684
 30
0.0
 10
-2870.039087210294
 20
-5318.170171859561
 30
0.0
 10
-2776.486713274724
 20
-5324.609540389115
 30
0.0
  0
SPLINE
  5
D7
330
1F
100
AcDbEntity
  8
2D
100
AcDbSpline
210
0.0
220
0.0
230
1.0
 70
     8
 71
     3
 72
    12
 73
     8
 74
     0
 42
0.0000000001
 43
0.0000000001
 40
-53.44456392198907
 40
-53.44456392198907
 40
-53.44456392198907
 40
-53.44456392198907
 40
-46.58212145158838
 40
-39.78805087982303
 40
-26.54724326036563
 40
-12.93246673734105
 40
0.0
 40
0.0
 40
0.0
 40
0.0
 10
-2776.486713274724
 20
-5324.609540389115
 30
0.0
 10
-2774.204827013276
 20
-5324.768226258237
 30
0.0
 10
-2769.637612948198
 20
-5324.710696102063
 30
0.0
 10
-2760.779663919184
 20
-5323.149700175152
 30
0.0
 10
-2750.385680051342
 20
-5318.553685632236
 30
0.0
 10
-2740.540868892997
 20
-5309.374096836348
 30
0.0
 10
-2736.387966475533
 20
-5301.419627590383
 30
0.0
 10
-2735.05758834062
 20
-5297.319533894096
 30
0.0
  0
SPLINE
  5
D8
330
1F
100
AcDbEntity
  8
2D
100
AcDbSpline
210
0.0
220
0.0
230
1.0
 70
     8
 71
     3
 72
     8
 73
     4
 74
     0
 42
0.0000000001
 43
0.0000000001
 40
-212.9399471223899
 40
-212.9399471223899
 40
-212.9399471223899
 40
-212.9399471223899
 40
0.0
 40
0.0
 40
0.0
 40
0.0
 10
-2735.05758834062
 20
-5297.319533894096
 30
0.0
 10
-2713.102589724524
 20
-5229.820360094182
 30
0.0
 10
-2691.156841128919
 20
-5162.318195644227
 30
0.0
 10
-2669.220338276147
 20
-5094.813027394513
 30
0.0
  0
LINE
  5
D9
330
1F
100
AcDbEntity
  8
2D
100
AcDbLine
 10
-2669.220349292253
 20
-5094.813061294448
 30
0.0
 11
-2603.432971670823
 21
-4892.291903529755
 31
0.0
  0
SPLINE
  5
DA
330
1F
100
AcDbEntity
  8
2D
100
AcDbSpline
210
0.0
220
0.0
230
1.0
 70
     8
 71
     3
 72
    12
 73
     8
 74
     0
 42
0.0000000001
 43
0.0000000001
 40
-53.44388079558843
 40
-53.44388079558843
 40
-53.44388079558843
 40
-53.44388079558843
 40
-46.96293067044412
 40
-40.50956396516474
 40
-26.89574594603434
 40
-13.65392953143422
 40
0.0
 40
0.0
 40
0.0
 40
0.0
 10
-2603.432971670823
 20
-4892.291903529755
 30
0.0
 10
-2602.785719702977
 20
-4890.230446345622
 30
0.0
 10
-2601.800472983861
 20
-4886.018700670057
 30
0.0
 10
-2601.223182600137
 20
-4877.156377647651
 30
0.0
 10
-2603.374951743059
 20
-4866.095343306401
 30
0.0
 10
-2610.245794669747
 20
-4854.264578986051
 30
0.0
 10
-2617.07157802628
 20
-4848.269921608623
 30
0.0
 10
-2620.92968956707
 20
-4845.856070478531
 30
0.0
  0
SPLINE
  5
DB
330
1F
100
AcDbEntity
  8
2D
100
AcDbSpline
210
0.0
220
0.0
230
1.0
 70
     8
 71
     3
 72
     8
 73
     4
 74
     0
 42
0.0000000001
 43
0.0000000001
 40
-281.3072617646405
 40
-281.3072617646405
 40
-281.3072617646405
 40
-281.3072617646405
 40
0.0
 40
0.0
 40
0.0
 40
0.0
 10
-2620.92968956707
 20
-4845.856070478531
 30
0.0
 10
-2700.395506914749
 20
-4796.078308396673
 30
0.0
 10
-2779.85431283668
 20
-4746.289350865018
 30
0.0
 10
-2859.30610208679
 20
-4696.489201170762
 30
0.0
  0
SPLINE
  5
DC
330
1F
100
AcDbEntity
  8
2D
100
AcDbSpline
210
0.0
220
0.0
230
1.0
 70
    12
 71
     3
 72
    33
 73
    29
 74
     0
 42
0.0000000001
 43
0.0000000001
 40
-750.2204953855436
 40
-750.2204953855436
 40
-750.2204953855436
 40
-750.2204953855436
 40
-747.3283180964676
 40
-744.4311734323448
 40
-741.5303316972462
 40
-738.6270745221549
 40
-735.7226912166275
 40
-732.8184750627632
 40
-729.9157195789404
 40
-727.015714781108
 40
-724.1197434694682
 40
-724.1197434694682
 40
-724.1197434694682
 40
-635.3638949040957
 40
-635.3638949040957
 40
-635.3638949040957
 40
-631.3191716905046
 40
-627.0527020544816
 40
-622.6124107264847
 40
-618.0608863926504
 40
-613.4710403684497
 40
-608.9195147154965
 40
-604.4792210006588
 40
-600.2127483275599
 40
-596.1680218845908
 40
-596.1680218845908
 40
-596.1680218845908
 40
0.0
 40
0.0
 40
0.0
 40
0.0
 10
-2859.30610208679
 20
-4696.489201170762
 30
0.0
 41
1.0
 10
-2860.120564220182
 20
-4695.978767496114
 30
0.0
 41
1.0
 10
-2861.764896415334
 20
-4694.979272304793
 30
0.0
 41
1.0
 10
-2864.273029342676
 20
-4693.547047501552
 30
0.0
 41
1.0
 10
-2866.822530771755
 20
-4692.182200064287
 30
0.0
 41
1.0
 10
-2869.410440781376
 20
-4690.88650990192
 30
0.0
 41
1.0
 10
-2872.033733469394
 20
-4689.661577058167
 30
0.0
 41
1.0
 10
-2874.68928740549
 20
-4688.508840200426
 30
0.0
 41
1.0
 10
-2877.373919732006
 20
-4687.429560900388
 30
0.0
 41
1.0
 10
-2880.084353539489
 20
-4686.42483470014
 30
0.0
 41
1.0
 10
-2881.907914042833
 20
-4685.804779729538
 30
0.0
 41
1.0
 10
-2882.823056014247
 20
-4685.507432078173
 30
0.0
 41
1.0
 10
-2910.870365013758
 20
-4676.394308957902
 30
0.0
 41
1.0
 10
-2938.917674013275
 20
-4667.281185837629
 30
0.0
 41
1.0
 10
-2966.964983012782
 20
-4658.168062717359
 30
0.0
 41
1.0
 10
-2968.243136549951
 20
-4657.752765458323
 30
0.0
 41
1.0
 10
-2970.943976103597
 20
-4657.112132305783
 30
0.0
 41
1.0
 10
-2975.192550449676
 20
-4656.83273315298
 30
0.0
 41
1.0
 10
-2979.597838420545
 20
-4657.315914693701
 30
0.0
 41
1.0
 10
-2983.951738883639
 20
-4658.614348414953
 30
0.0
 41
1.0
 10
-2988.032360501253
 20
-4660.703338960907
 30
0.0
 41
1.0
 10
-2991.637048600162
 20
-4663.479141394761
 30
0.0
 41
1.0
 10
-2994.61549290943
 20
-4666.775910046833
 30
0.0
 41
1.0
 10
-2996.887785411345
 20
-4670.393533061013
 30
0.0
 41
1.0
 10
-2997.959466639775
 20
-4672.965430673855
 30
0.0
 41
1.0
 10
-2998.376350599712
 20
-4674.248467574301
 30
0.0
 41
1.0
 10
-3059.822505058331
 20
-4863.360285574319
 30
0.0
 41
1.0
 10
-3121.268659516951
 20
-5052.472103574337
 30
0.0
 41
1.0
 10
-3182.71481397557
 20
-5241.583921574356
 30
0.0
 41
1.0
  0
LINE
  5
DD
330
1F
100
AcDbEntity
  8
2D
100
AcDbLine
 10
-4093.49742466518
 20
-3836.971640305444
 30
0.0
 11
-4056.034207442757
 21
-3809.754859926026
 31
0.0
  0
SPLINE
  5
DE
330
1F
100
AcDbEntity
  8
2D
100
AcDbSpline
210
0.0
220
0.0
230
1.0
 70
    12
 71
     3
 72
    31
 73
    27
 74
     0
 42
0.0000000001
 43
0.0000000001
 40
-613.4426407540207
 40
-613.4426407540207
 40
-613.4426407540207
 40
-613.4426407540207
 40
-611.5080646453481
 40
-611.5080646453481
 40
-611.5080646453481
 40
-504.2953677783144
 40
-504.2953677783144
 40
-504.2953677783144
 40
-501.3167024160321
 40
-501.3167024160321
 40
-501.3167024160321
 40
-321.3280815482538
 40
-321.3280815482538
 40
-321.3280815482538
 40
-315.3707520206698
 40
-315.3707520206698
 40
-315.3707520206698
 40
-211.7260408717005
 40
-211.7260408717005
 40
-211.7260408717005
 40
-203.0238756157471
 40
-203.0238756157471
 40
-194.3530809245104
 40
-194.3530809245104
 40
-194.3530809245104
 40
0.0
 40
0.0
 40
0.0
 40
0.0
 10
-4056.034207442757
 20
-3809.754859926026
 30
0.0
 41
1.0
 10
-4055.952599562144
 20
-3809.698242945603
 30
0.0
 41
1.0
 10
-4056.023234615739
 20
-3809.510468538075
 30
0.0
 41
1.0
 10
-4056.258446313514
 20
-3809.18672740977
 30
0.0
 41
1.0
 10
-4068.938431100218
 20
-3791.734223036569
 30
0.0
 41
1.0
 10
-4081.618415886922
 20
-3774.281718663368
 30
0.0
 41
1.0
 10
-4094.298400673615
 20
-3756.829214290176
 30
0.0
 41
1.0
 10
-4094.65068546062
 20
-3756.344335180053
 30
0.0
 41
1.0
 10
-4095.002970247617
 20
-3755.859456069934
 30
0.0
 41
1.0
 10
-4095.355255034618
 20
-3755.374576959815
 30
0.0
 41
1.0
 10
-4116.642408647254
 20
-3726.075323589088
 30
0.0
 41
1.0
 10
-4137.929562259887
 20
-3696.776070218364
 30
0.0
 41
1.0
 10
-4159.216715872524
 20
-3667.476816847637
 30
0.0
 41
1.0
 10
-4159.921290096434
 20
-3666.507062316204
 30
0.0
 41
1.0
 10
-4160.625864320347
 20
-3665.537307784763
 30
0.0
 41
1.0
 10
-4161.330438544253
 20
-3664.567553253329
 30
0.0
 41
1.0
 10
-4173.588441863776
 20
-3647.695862362635
 30
0.0
 41
1.0
 10
-4185.846445183299
 20
-3630.824171471941
 30
0.0
 41
1.0
 10
-4198.104448502825
 20
-3613.952480581248
 30
0.0
 41
1.0
 10
-4199.146686539156
 20
-3612.517962991205
 30
0.0
 41
1.0
 10
-4201.399191553191
 20
-3610.137067111269
 30
0.0
 41
1.0
 10
-4207.636795094993
 20
-3604.18386304699
 30
0.0
 41
1.0
 10
-4211.42780415744
 20
-3600.794651985343
 30
0.0
 41
1.0
 10
-4215.388247772236
 20
-3597.431224917822
 30
0.0
 41
1.0
 10
-4303.474137284924
 20
-3522.62382852795
 30
0.0
 41
1.0
 10
-4391.560026797611
 20
-3447.816432138079
 30
0.0
 41
1.0
 10
-4479.645916310292
 20
-3373.009035748216
 30
0.0
 41
1.0
  0
SPLINE
  5
DF
330
1F
100
AcDbEntity
  8
2D
100
AcDbSpline
210
0.0
220
0.0
230
1.0
 70
     8
 71
     3
 72
     8
 73
     4
 74
     0
 42
0.0000000001
 43
0.0000000001
 40
-1.217114044382015
 40
-1.217114044382015
 40
-1.217114044382015
 40
-1.217114044382015
 40
0.0
 40
0.0
 40
0.0
 40
0.0
 10
-4479.645916310292
 20
-3373.009035748216
 30
0.0
 10
-4479.955152295064
 20
-3372.746415500937
 30
0.0
 10
-4480.266077002882
 20
-3372.485770870253
 30
0.0
 10
-4480.57865215843
 20
-3372.227133941925
 30
0.0
  0
SPLINE
  5
E0
330
1F
100
AcDbEntity
  8
2D
100
AcDbSpline
210
0.0
220
0.0
230
1.0
 70
    12
 71
     3
 72
    14
 73
    10
 74
     0
 42
0.0000000001
 43
0.0000000001
 40
-528.1175762542384
 40
-528.1175762542384
 40
-528.1175762542384
 40
-528.1175762542384
 40
-402.7857201750853
 40
-402.7857201750853
 40
-402.7857201750853
 40
-0.0000000000001391
 40
-0.0000000000001391
 40
-0.0000000000001391
 40
125.3040922575024
 40
125.3040922575024
 40
125.3040922575024
 40
125.3040922575024
 10
-4480.578652158432
 20
-3372.227133941925
 30
0.0
 41
0.9956227716042794
 10
-4515.382538017262
 20
-3343.429035396051
 30
0.0000000000000022
 41
0.8574698667828086
 10
-4560.496785931161
 20
-3342.056080371245
 30
0.0000000000000022
 41
0.8589289429147156
 10
-4596.980796529075
 20
-3368.563265662841
 30
0.0
 41
1.0
 10
-4705.600960766802
 20
-3447.480434380479
 30
0.0
 41
1.0
 10
-4814.221125004489
 20
-3526.397603098081
 30
0.0
 41
1.0
 10
-4922.84128924222
 20
-3605.314771815718
 30
0.0
 41
1.0
 10
-4959.325299840146
 20
-3631.821957107305
 30
0.0000000000000057
 41
0.8589289429147172
 10
-4971.960611311054
 20
-3675.152422998733
 30
0.0000000000000057
 41
0.8574698667828198
 10
-4955.326984232765
 20
-3717.151987293543
 30
0.0
 41
0.995622771604307
  0
SPLINE
  5
E1
330
1F
100
AcDbEntity
  8
2D
100
AcDbSpline
210
0.0
220
0.0
230
1.0
 70
     8
 71
     3
 72
     8
 73
     4
 74
     0
 42
0.0000000001
 43
0.0000000001
 40
-1.217114044412749
 40
-1.217114044412749
 40
-1.217114044412749
 40
-1.217114044412749
 40
0.0
 40
0.0
 40
0.0
 40
0.0
 10
-4955.326984232765
 20
-3717.151987293543
 30
0.0
 10
-4955.177596931808
 20
-3717.529187138296
 30
0.0
 10
-4955.025790176056
 20
-3717.905437728092
 30
0.0
 10
-4954.871582653133
 20
-3718.280692745967
 30
0.0
  0
SPLINE
  5
E2
330
1F
100
AcDbEntity
  8
2D
100
AcDbSpline
210
0.0
220
0.0
230
1.0
 70
    12
 71
     3
 72
    31
 73
    27
 74
     0
 42
0.0000000001
 43
0.0000000001
 40
-611.6748735393153
 40
-611.6748735393153
 40
-611.6748735393153
 40
-611.6748735393153
 40
-417.8817977156553
 40
-417.8817977156553
 40
-417.8817977156553
 40
-409.2359409318909
 40
-409.2359409318909
 40
-400.5589715680568
 40
-400.5589715680568
 40
-400.5589715680568
 40
-297.21290022785
 40
-297.21290022785
 40
-297.21290022785
 40
-291.2727360310497
 40
-291.2727360310497
 40
-291.2727360310497
 40
-111.8027310174615
 40
-111.8027310174615
 40
-111.8027310174615
 40
-108.8326483222956
 40
-108.8326483222956
 40
-108.8326483222956
 40
-1.928871764315874
 40
-1.928871764315874
 40
-1.928871764315874
 40
0.0
 40
0.0
 40
0.0
 40
0.0
 10
-4954.871582653133
 20
-3718.280692745967
 30
0.0
 41
1.0
 10
-4910.945560980152
 20
-3825.172111152477
 30
0.0
 41
1.0
 10
-4867.01953930717
 20
-3932.06352955899
 30
0.0
 41
1.0
 10
-4823.093517634195
 20
-4038.954947965495
 30
0.0
 41
1.0
 10
-4821.118535758116
 20
-4043.760951234227
 30
0.0
 41
1.0
 10
-4819.066874285629
 20
-4048.413331394245
 30
0.0
 41
1.0
 10
-4815.332546746293
 20
-4056.185365805432
 30
0.0
 41
1.0
 10
-4813.764083964415
 20
-4059.063664964863
 30
0.0
 41
1.0
 10
-4812.721857479726
 20
-4060.498166655429
 30
0.0
 41
1.0
 10
-4800.463853542053
 20
-4077.369858396934
 30
0.0
 41
1.0
 10
-4788.205849604379
 20
-4094.241550138439
 30
0.0
 41
1.0
 10
-4775.947845666713
 20
-4111.113241879936
 30
0.0
 41
1.0
 10
-4775.243271442807
 20
-4112.082996411369
 30
0.0
 41
1.0
 10
-4774.538697218897
 20
-4113.052750942802
 30
0.0
 41
1.0
 10
-4773.834122994984
 20
-4114.022505474244
 30
0.0
 41
1.0
 10
-4752.546969382351
 20
-4143.321758844966
 30
0.0
 41
1.0
 10
-4731.259815769714
 20
-4172.621012215694
 30
0.0
 41
1.0
 10
-4709.972662157077
 20
-4201.920265586425
 30
0.0
 41
1.0
 10
-4709.620377111762
 20
-4202.405144353644
 30
0.0
 41
1.0
 10
-4709.26809206645
 20
-4202.890023120863
 30
0.0
 41
1.0
 10
-4708.915807021138
 20
-4203.374901888083
 30
0.0
 41
1.0
 10
-4696.235823110899
 20
-4220.827405753374
 30
0.0
 41
1.0
 10
-4683.555839200661
 20
-4238.279909618665
 30
0.0
 41
1.0
 10
-4670.875855290422
 20
-4255.732413483956
 30
0.0
 41
1.0
 10
-4670.640656747313
 20
-4256.056136506417
 30
0.0
 41
1.0
 10
-4670.483907167167
 20
-4256.181327877069
 30
0.0
 41
1.0
 10
-4670.404832979108
 20
-4256.121224762823
 30
0.0
 41
1.0
  0
LINE
  5
E3
330
1F
100
AcDbEntity
  8
2D
100
AcDbLine
 10
-4670.404832979108
 20
-4256.121224762823
 30
0.0
 11
-4632.943362275724
 21
-4228.90205553923
 31
0.0
  0
LINE
  5
E4
330
1F
100
AcDbEntity
  8
2D
100
AcDbLine
 10
-3555.583673658119
 20
-5553.718499540302
 30
0.0
 11
-3555.682362939147
 21
-5546.956418657692
 31
0.0
  0
SPLINE
  5
E5
330
1F
100
AcDbEntity
  8
2D
100
AcDbSpline
210
0.0
220
0.0
230
1.0
 70
     8
 71
     3
 72
     8
 73
     4
 74
     0
 42
0.0000000001
 43
0.0000000001
 40
-1.894533806009927
 40
-1.894533806009927
 40
-1.894533806009927
 40
-1.894533806009927
 40
0.0
 40
0.0
 40
0.0
 40
0.0
 10
-3555.682362939147
 20
-5546.956418657692
 30
0.0
 10
-3555.691631349338
 20
-5546.324975406853
 30
0.0
 10
-3555.725027525321
 20
-5545.693426196331
 30
0.0
 10
-3555.78240582041
 20
-5545.064526988421
 30
0.0
  0
SPLINE
  5
E6
330
1F
100
AcDbEntity
  8
2D
100
AcDbSpline
210
0.0
220
0.0
230
1.0
 70
     8
 71
     3
 72
    12
 73
     8
 74
     0
 42
0.0000000001
 43
0.0000000001
 40
-36.93812985730319
 40
-36.93812985730319
 40
-36.93812985730319
 40
-36.93812985730319
 40
-32.39055734483553
 40
-27.79577549935249
 40
-18.47368212991688
 40
-9.2140530608692
 40
0.0
 40
0.0
 40
0.0
 40
0.0
 10
-3555.78240582041
 20
-5545.064526988421
 30
0.0
 10
-3555.919396499128
 20
-5543.554664304562
 30
0.0
 10
-3556.477029767128
 20
-5540.546193960161
 30
0.0
 10
-3558.689584675638
 20
-5534.774009778152
 30
0.0
 10
-3563.4254587826
 20
-5528.498669237351
 30
0.0
 10
-3571.451474563746
 20
-5523.55640286816
 30
0.0
 10
-3577.60837397501
 20
-5522.412255336631
 30
0.0
 10
-3580.679741591426
 20
-5522.41360596386
 30
0.0
  0
LINE
  5
E7
330
1F
100
AcDbEntity
  8
2D
100
AcDbLine
 10
-3580.679741591426
 20
-5522.41360596386
 30
0.0
 11
-4176.995300002662
 21
-5522.41360596386
 31
0.0
  0
SPLINE
  5
E8
330
1F
100
AcDbEntity
  8
2D
100
AcDbSpline
210
0.0
220
0.0
230
1.0
 70
     8
 71
     3
 72
    12
 73
     8
 74
     0
 42
0.0000000001
 43
0.0000000001
 40
-36.93791451282956
 40
-36.93791451282956
 40
-36.93791451282956
 40
-36.93791451282956
 40
-32.24526381394243
 40
-27.72387003998888
 40
-18.46424962044812
 40
-9.14216486134877
 40
0.0
 40
0.0
 40
0.0
 40
0.0
 10
-4176.995300002662
 20
-5522.41360596386
 30
0.0
 10
-4178.559677216112
 20
-5522.412983014759
 30
0.0
 10
-4181.630505960591
 20
-5522.702813700062
 30
0.0
 10
-4187.578654251003
 20
-5524.390874252929
 30
0.0
 10
-4194.249514894156
 20
-5528.498534860091
 30
0.0
 10
-4199.914730386827
 20
-5536.005506361851
 30
0.0
 10
-4201.617251309821
 20
-5542.029484684221
 30
0.0
 10
-4201.89261292509
 20
-5545.06434672716
 30
0.0
  0
SPLINE
  5
E9
330
1F
100
AcDbEntity
  8
2D
100
AcDbSpline
210
0.0
220
0.0
230
1.0
 70
     8
 71
     3
 72
     8
 73
     4
 74
     0
 42
0.0000000001
 43
0.0000000001
 40
-1.894716948161949
 40
-1.894716948161949
 40
-1.894716948161949
 40
-1.894716948161949
 40
0.0
 40
0.0
 40
0.0
 40
0.0
 10
-4201.89261292509
 20
-5545.06434672716
 30
0.0
 10
-4201.949999592769
 20
-5545.693306472119
 30
0.0
 10
-4201.983401657515
 20
-5546.324914467761
 30
0.0
 10
-4201.9926736712
 20
-5546.956418719661
 30
0.0
  0
LINE
  5
EA
330
1F
100
AcDbEntity
  8
2D
100
AcDbLine
 10
-4201.9926736712
 20
-5546.956418719661
 30
0.0
 11
-4202.091367935915
 21
-5553.718499540302
 31
0.0
  0
LINE
  5
EB
330
1F
100
AcDbEntity
  8
2D
100
AcDbLine
 10
-3498.983071971918
 20
-5711.32508988647
 30
0.0
 11
-3545.293024929204
 21
-5711.325090267494
 31
0.0
  0
SPLINE
  5
EC
330
1F
100
AcDbEntity
  8
2D
100
AcDbSpline
210
0.0
220
0.0
230
1.0
 70
     8
 71
     3
 72
   114
 73
   110
 74
     0
 42
0.0000000001
 43
0.0000000001
 40
-1098.975988351147
 40
-1098.975988351147
 40
-1098.975988351147
 40
-1098.975988351147
 40
-1090.211722745492
 40
-1090.211722745492
 40
-1085.842116350338
 40
-1085.842116350338
 40
-1081.47524108902
 40
-1081.47524108902
 40
-1072.722742525601
 40
-1072.722742525601
 40
-1063.978533404973
 40
-1063.978533404973
 40
-1047.272469109999
 40
-1047.272469109999
 40
-1029.785122030009
 40
-1029.785122030009
 40
-994.8104175502801
 40
-994.8104175502801
 40
-959.835714622475
 40
-959.835714622475
 40
-889.7871758471281
 40
-889.7871758471281
 40
-819.7386371065729
 40
-819.7386371065729
 40
-810.988376954974
 40
-810.988376954974
 40
-808.8008119181983
 40
-808.8008119181983
 40
-806.6128671509887
 40
-806.6128671509887
 40
-802.2288770658694
 40
-802.2288770658694
 40
-797.8453069607386
 40
-797.8453069607386
 40
-793.4597660503772
 40
-793.4597660503772
 40
-784.6403326231
 40
-784.6403326231
 40
-780.2542515592246
 40
-780.2542515592246
 40
-775.8668527477813
 40
-775.8668527477813
 40
-767.0562976335359
 40
-767.0562976335359
 40
-749.4762046013514
 40
-749.4762046013514
 40
-745.0847761073139
 40
-745.0847761073139
 40
-740.6954263087154
 40
-740.6954263087154
 40
-731.9168632560256
 40
-731.9168632560256
 40
-714.3597343136843
 40
-714.3597343136843
 40
-679.2454749006685
 40
-679.2454749006685
 40
-538.8854354665634
 40
-538.8854354665634
 40
-398.4533966218906
 40
-398.4533966218906
 40
-363.3248265361361
 40
-363.3248265361361
 40
-345.7605460456445
 40
-345.7605460456445
 40
-336.9784060082009
 40
-336.9784060082009
 40
-332.5865513599245
 40
-332.5865513599245
 40
-328.1933284061802
 40
-328.1933284061802
 40
-319.3775797617793
 40
-319.3775797617793
 40
-310.5594807269332
 40
-310.5594807269332
 40
-301.7389716302744
 40
-301.7389716302744
 40
-297.347612980045
 40
-297.347612980045
 40
-292.9573991098598
 40
-292.9573991098598
 40
-288.5671591092328
 40
-288.5671591092328
 40
-284.1747409306792
 40
-284.1747409306792
 40
-275.3340308087842
 40
-275.3340308087842
 40
-270.9426328400276
 40
-270.9426328400276
 40
-269.0719490786682
 40
-269.0719490786682
 40
-260.3090594515598
 40
-260.3090594515598
 40
-190.2964045139998
 40
-190.2964045139998
 40
-120.2837497889914
 40
-120.2837497889914
 40
-68.78940209996904
 40
-68.78940209996904
 40
-51.26184830614643
 40
-51.26184830614643
 40
-34.73047036839194
 40
-34.73047036839194
 40
-25.96695060338639
 40
-25.96695060338639
 40
-17.19426695768782
 40
-17.19426695768782
 40
-8.759227617824822
 40
-8.759227617824822
 40
0.0
 40
0.0
 40
0.0
 40
0.0
 10
-3545.293024929204
 20
-5711.325090267494
 30
0.0
 10
-3547.911225601241
 20
-5712.607388652381
 30
0.0
 10
-3550.066742131639
 20
-5714.472384446126
 30
0.0
 10
-3552.860322162349
 20
-5717.759039122741
 30
0.0
 10
-3553.696852088116
 20
-5718.911620669542
 30
0.0
 10
-3555.282083224531
 20
-5721.298538638112
 30
0.0
 10
-3556.018346269968
 20
-5722.521196311531
 30
0.0
 10
-3558.093691011534
 20
-5726.289731420346
 30
0.0
 10
-3559.272605245817
 20
-5728.881516856185
 30
0.0
 10
-3561.407205061856
 20
-5734.199580590025
 30
0.0
 10
-3562.34774598635
 20
-5736.89613953583
 30
0.0
 10
-3564.890993360743
 20
-5744.82977729533
 30
0.0
 10
-3566.515199374917
 20
-5750.843247809344
 30
0.0
 10
-3569.496584698514
 20
-5761.623414254659
 30
0.0
 10
-3571.037278943146
 20
-5767.132205548047
 30
0.0
 10
-3575.64046565324
 20
-5783.663862415475
 30
0.0
 10
-3578.700459675303
 20
-5794.687408708071
 30
0.0
 10
-3584.820080298439
 20
-5816.734608116529
 30
0.0
 10
-3587.878471336811
 20
-5827.758600820848
 30
0.0
 10
-3597.055806965487
 20
-5860.863631893388
 30
0.0
 10
-3603.171235303224
 20
-5882.945643288273
 30
0.0
 10
-3615.412353015781
 20
-5927.1068229921
 30
0.0
 10
-3621.534837381838
 20
-5949.186878920199
 30
0.0
 10
-3628.421761767066
 20
-5974.025212027751
 30
0.0
 10
-3629.186519404444
 20
-5976.783401105266
 30
0.0
 10
-3630.142454679619
 20
-5980.231140715688
 30
0.0
 10
-3630.333641146
 20
-5980.920688800678
 30
0.0
 10
-3630.716045951835
 20
-5982.299905030864
 30
0.0
 10
-3630.900889048164
 20
-5982.991249962174
 30
0.0
 10
-3631.518309780658
 20
-5985.05099331814
 30
0.0
 10
-3632.003462214667
 20
-5986.392086871675
 30
0.0
 10
-3633.115207422001
 20
-5989.036042997454
 30
0.0
 10
-3633.734333053537
 20
-5990.321271696261
 30
0.0
 10
-3635.110358831207
 20
-5992.838453833301
 30
0.0
 10
-3635.859205061435
 20
-5994.053032094904
 30
0.0
 10
-3638.316132975731
 20
-5997.606239325612
 30
0.0
 10
-3640.160347024826
 20
-5999.755630622245
 30
0.0
 10
-3643.243192112375
 20
-6002.775435855418
 30
0.0
 10
-3644.305928988371
 20
-6003.728680069465
 30
0.0
 10
-3646.526009957008
 20
-6005.543202500578
 30
0.0
 10
-3647.671846553483
 20
-6006.395455430555
 30
0.0
 10
-3651.24330047144
 20
-6008.813564595586
 30
0.0
 10
-3653.72437609468
 20
-6010.193642568
 30
0.0
 10
-3661.566495941177
 20
-6013.773573905686
 30
0.0
 10
-3667.126486335321
 20
-6015.293769461077
 30
0.0
 10
-3674.24655365384
 20
-6016.130462738631
 30
0.0
 10
-3675.670856234858
 20
-6016.243248030953
 30
0.0
 10
-3678.533500816648
 20
-6016.361005556499
 30
0.0
 10
-3679.964062098603
 20
-6016.351550554351
 30
0.0
 10
-3684.257445365241
 20
-6016.361333737027
 30
0.0
 10
-3687.119686832764
 20
-6016.367437491457
 30
0.0
 10
-3695.706415222718
 20
-6016.38444609494
 30
0.0
 10
-3701.43090318207
 20
-6016.394048278531
 30
0.0
 10
-3718.60437946548
 20
-6016.417262869889
 30
0.0
 10
-3730.053363012477
 20
-6016.424694578244
 30
0.0
 10
-3787.266705819773
 20
-6016.432689979755
 30
0.0
 10
-3833.030980539079
 20
-6016.353340718909
 30
0.0
 10
-3924.583134218308
 20
-6016.348863405821
 30
0.0
 10
-3970.370870271447
 20
-6016.435593624928
 30
0.0
 10
-4027.61235128314
 20
-6016.425326288453
 30
0.0
 10
-4039.066000102488
 20
-6016.41705952287
 30
0.0
 10
-4056.246472721239
 20
-6016.394036903476
 30
0.0
 10
-4061.973292140574
 20
-6016.384592290969
 30
0.0
 10
-4070.563517852548
 20
-6016.367606761998
 30
0.0
 10
-4073.426925252752
 20
-6016.361475151746
 30
0.0
 10
-4077.722290805941
 20
-6016.351552119247
 30
0.0
 10
-4079.153632749541
 20
-6016.360738348391
 30
0.0
 10
-4082.017634325461
 20
-6016.239871832638
 30
0.0
 10
-4083.442487706216
 20
-6016.124949001634
 30
0.0
 10
-4087.722956913316
 20
-6015.622575461467
 30
0.0
 10
-4090.516308269791
 20
-6015.090707754858
 30
0.0
 10
-4096.063420795672
 20
-6013.550895021558
 30
0.0
 10
-4098.73220407997
 20
-6012.570669920485
 30
0.0
 10
-4103.968798389251
 20
-6010.178746382025
 30
0.0
 10
-4106.453235945533
 20
-6008.80282019398
 30
0.0
 10
-4110.024167098836
 20
-6006.380054752106
 30
0.0
 10
-4111.169554383639
 20
-6005.526152368161
 30
0.0
 10
-4113.390778804867
 20
-6003.711537821622
 30
0.0
 10
-4114.455774376664
 20
-6002.759936439569
 30
0.0
 10
-4116.505347665341
 20
-6000.753843643309
 30
0.0
 10
-4117.47916776222
 20
-5999.709848211644
 30
0.0
 10
-4119.33075582773
 20
-5997.518323721923
 30
0.0
 10
-4120.198163575678
 20
-5996.383899990075
 30
0.0
 10
-4122.652635639195
 20
-5992.825440492888
 30
0.0
 10
-4124.015957673611
 20
-5990.347512081609
 30
0.0
 10
-4125.689725093958
 20
-5986.360759554597
 30
0.0
 10
-4126.172900595015
 20
-5985.018566968518
 30
0.0
 10
-4126.753371445022
 20
-5983.055900087616
 30
0.0
 10
-4127.571654732852
 20
-5980.094544399087
 30
0.0
 10
-4128.499963884933
 20
-5976.746154846543
 30
0.0
 10
-4129.264976345938
 20
-5973.9868258173
 30
0.0
 10
-4136.14227082226
 20
-5949.181372101334
 30
0.0
 10
-4142.25511055503
 20
-5927.135402065482
 30
0.0
 10
-4154.477019076257
 20
-5883.042416505873
 30
0.0
 10
-4160.583868438829
 20
-5860.994786305641
 30
0.0
 10
-4171.191260595064
 20
-5822.733591845444
 30
0.0
 10
-4180.567344267936
 20
-5788.934306352078
 30
0.0
 10
-4186.615773119043
 20
-5767.206438432151
 30
0.0
 10
-4188.160724666282
 20
-5761.691337131612
 30
0.0
 10
-4191.124333599597
 20
-5750.963835676045
 30
0.0
 10
-4192.792495868842
 20
-5744.809316599567
 30
0.0
 10
-4195.314832838259
 20
-5736.931544708071
 30
0.0
 10
-4196.256278937592
 20
-5734.231807278576
 30
0.0
 10
-4198.390735720379
 20
-5728.90637540787
 30
0.0
 10
-4199.571138487881
 20
-5726.311608818984
 30
0.0
 10
-4202.289896297385
 20
-5721.373908463532
 30
0.0
 10
-4203.942181079383
 20
-5718.790014148453
 30
0.0
 10
-4207.604850004373
 20
-5714.475465088195
 30
0.0
 10
-4209.759387151109
 20
-5712.609544233845
 30
0.0
 10
-4212.382000804369
 20
-5711.325092191482
 30
0.0
  0
LINE
  5
ED
330
1F
100
AcDbEntity
  8
2D
100
AcDbLine
 10
-4212.382000804369
 20
-5711.325092191482
 30
0.0
 11
-4258.691969622167
 21
-5711.32508988647
 31
0.0
  0
LINE
  5
EE
330
1F
100
AcDbEntity
  8
2D
100
AcDbLine
 10
-4721.586085570674
 20
-5374.190860398649
 30
0.0
 11
-4735.896648405556
 21
-5330.147477987044
 31
0.0
  0
SPLINE
  5
EF
330
1F
100
AcDbEntity
  8
2D
100
AcDbSpline
210
0.0
220
0.0
230
1.0
 70
     8
 71
     3
 72
   114
 73
   110
 74
     0
 42
0.0000000001
 43
0.0000000001
 40
-1098.975988351368
 40
-1098.975988351368
 40
-1098.975988351368
 40
-1098.975988351368
 40
-1090.211722738838
 40
-1090.211722738838
 40
-1085.842116340215
 40
-1085.842116340215
 40
-1081.475241075465
 40
-1081.475241075465
 40
-1072.722742505161
 40
-1072.722742505161
 40
-1063.978533377652
 40
-1063.978533377652
 40
-1047.272469071299
 40
-1047.272469071299
 40
-1029.785121977554
 40
-1029.785121977554
 40
-994.8104174703032
 40
-994.8104174703032
 40
-959.835714514967
 40
-959.835714514967
 40
-889.787175684504
 40
-889.787175684504
 40
-819.7386368889636
 40
-819.7386368889636
 40
-810.9883767304916
 40
-810.9883767304916
 40
-808.8008116919867
 40
-808.8008116919867
 40
-806.6128669230627
 40
-806.6128669230627
 40
-802.2288768344788
 40
-802.2288768344788
 40
-797.8453067258938
 40
-797.8453067258938
 40
-793.4597658120842
 40
-793.4597658120842
 40
-784.6403323778846
 40
-784.6403323778846
 40
-780.2542513105519
 40
-780.2542513105519
 40
-775.8668524956583
 40
-775.8668524956583
 40
-767.056297374479
 40
-767.056297374479
 40
-749.4762043279817
 40
-749.4762043279817
 40
-745.0847758304972
 40
-745.0847758304972
 40
-740.6954260284621
 40
-740.6954260284621
 40
-731.9168629688854
 40
-731.9168629688854
 40
-714.3597340127916
 40
-714.3597340127916
 40
-679.2454745722642
 40
-679.2454745722642
 40
-538.8854350282298
 40
-538.8854350282298
 40
-398.453396073839
 40
-398.453396073839
 40
-363.3248259603552
 40
-363.3248259603552
 40
-345.7605454560229
 40
-345.7605454560229
 40
-336.9784054116884
 40
-336.9784054116884
 40
-332.5865507599863
 40
-332.5865507599863
 40
-328.1933278027998
 40
-328.1933278027998
 40
-319.377579151482
 40
-319.377579151482
 40
-310.5594801097162
 40
-310.5594801097162
 40
-301.7389710061735
 40
-301.7389710061735
 40
-297.3476123525007
 40
-297.3476123525007
 40
-292.9573984788665
 40
-292.9573984788665
 40
-288.5671584747907
 40
-288.5671584747907
 40
-284.1747402927796
 40
-284.1747402927796
 40
-275.3340301639017
 40
-275.3340301639017
 40
-270.9426321916794
 40
-270.9426321916794
 40
-269.071949022572
 40
-269.071949022572
 40
-260.3090593885789
 40
-260.3090593885789
 40
-190.2964043959169
 40
-190.2964043959169
 40
-120.2837496158401
 40
-120.2837496158401
 40
-68.78940194008119
 40
-68.78940194008119
 40
-51.26184813249483
 40
-51.26184813249483
 40
-34.73047048222232
 40
-34.73047048222232
 40
-25.96695071032636
 40
-25.96695071032636
 40
-17.19426705771811
 40
-17.19426705771811
 40
-8.759227643896683
 40
-8.759227643896683
 40
0.0
 40
0.0
 40
0.0
 40
0.0
 10
-4735.896648405556
 20
-5330.147477987044
 30
0.0
 10
-4737.92525514268
 20
-5328.053673169723
 30
0.0
 10
-4740.365062784742
 20
-5326.579970522218
 30
0.0
 10
-4744.354120836389
 20
-5324.938750179919
 30
0.0
 10
-4745.708792990416
 20
-5324.499330228315
 30
0.0
 10
-4748.468750239459
 20
-5323.729284042654
 30
0.0
 10
-4749.85908458033
 20
-5323.406878274974
 30
0.0
 10
-4754.084491246787
 20
-5322.597649527472
 30
0.0
 10
-4756.913730207685
 20
-5322.277341208272
 30
0.0
 10
-4762.631136995169
 20
-5321.890588214465
 30
0.0
 10
-4765.486360081726
 20
-5321.829363179956
 30
0.0
 10
-4773.817604629836
 20
-5321.862220086881
 30
0.0
 10
-4780.038662209648
 20
-5322.175772957343
 30
0.0
 10
-4791.212508485405
 20
-5322.67156165152
 30
0.0
 10
-4796.927781046616
 20
-5322.908584478667
 30
0.0
 10
-4814.072783957239
 20
-5323.639256679518
 30
0.0
 10
-4825.502389647005
 20
-5324.135492567701
 30
0.0
 10
-4848.36158908216
 20
-5325.1283467924
 30
0.0
 10
-4859.791123985498
 20
-5325.626245157471
 30
0.0
 10
-4894.111832181537
 20
-5327.128097506322
 30
0.0
 10
-4917.002844295792
 20
-5328.135696326776
 30
0.0
 10
-4962.785335423683
 20
-5330.140256579662
 30
0.0
 10
-4985.67666821113
 20
-5331.140540445957
 30
0.0
 10
-5011.427503440944
 20
-5332.266153174303
 30
0.0
 10
-5014.287020242817
 20
-5332.391152738534
 30
0.0
 10
-5017.861415711348
 20
-5332.547414397718
 30
0.0
 10
-5018.576294778086
 20
-5332.578667339736
 30
0.0
 10
-5020.006176944913
 20
-5332.64118001133
 30
0.0
 10
-5020.720804704899
 20
-5332.679021112853
 30
0.0
 10
-5022.870530544507
 20
-5332.72831480292
 30
0.0
 10
-5024.295906654537
 20
-5332.681328118272
 30
0.0
 10
-5027.154006519253
 20
-5332.441022969628
 30
0.0
 10
-5028.567651989979
 20
-5332.249357012939
 30
0.0
 10
-5031.386849814116
 20
-5331.718530788777
 30
0.0
 10
-5032.773388595677
 20
-5331.381661025649
 30
0.0
 10
-5036.91192196566
 20
-5330.142985141523
 30
0.0
 10
-5039.526008046822
 20
-5329.053231790906
 30
0.0
 10
-5043.350665014852
 20
-5327.054443018432
 30
0.0
 10
-5044.585657891475
 20
-5326.338288849345
 30
0.0
 10
-5046.997414021742
 20
-5324.787584645305
 30
0.0
 10
-5048.162037705428
 20
-5323.961189922504
 30
0.0
 10
-5051.565436139212
 20
-5321.311772227413
 30
0.0
 10
-5053.644662819799
 20
-5319.378596635559
 30
0.0
 10
-5059.472728150995
 20
-5313.026557075871
 30
0.0
 10
-5062.636651560126
 20
-5308.208458242655
 30
0.0
 10
-5065.632615956518
 20
-5301.695424264629
 30
0.0
 10
-5066.180014846384
 20
-5300.375684585819
 30
0.0
 10
-5067.176614733031
 20
-5297.689536879079
 30
0.0
 10
-5067.609690239238
 20
-5296.326070493568
 30
0.0
 10
-5068.945722991622
 20
-5292.24584353058
 30
0.0
 10
-5069.836009262519
 20
-5289.525576295531
 30
0.0
 10
-5072.505630404274
 20
-5281.364368254131
 30
0.0
 10
-5074.283726687088
 20
-5275.923023915846
 30
0.0
 10
-5079.612701099555
 20
-5259.597251092317
 30
0.0
 10
-5083.157699558556
 20
-5248.710917209162
 30
0.0
 10
-5100.845198869727
 20
-5194.300265428195
 30
0.0
 10
-5114.911671861639
 20
-5150.751333472783
 30
0.0
 10
-5143.19858504233
 20
-5063.678677569542
 30
0.0
 10
-5157.430258956825
 20
-5020.158753941549
 30
0.0
 10
-5175.109084555261
 20
-4965.715697641514
 30
0.0
 10
-5178.640594526674
 20
-4954.820075725355
 30
0.0
 10
-5183.927756725043
 20
-4938.473360907505
 30
0.0
 10
-5185.688458889083
 20
-4933.023913435306
 30
0.0
 10
-5188.326830421665
 20
-4924.848874478364
 30
0.0
 10
-5189.205840462302
 20
-4922.12371743983
 30
0.0
 10
-5190.523744050639
 20
-4918.035515654948
 30
0.0
 10
-5190.974789659031
 20
-4916.677067273361
 30
0.0
 10
-5191.744863930511
 20
-4913.915890104495
 30
0.0
 10
-5192.075869732351
 20
-4912.525260904141
 30
0.0
 10
-5192.920821832249
 20
-4908.299050810493
 30
0.0
 10
-5193.278178624478
 20
-4905.478059640513
 30
0.0
 10
-5193.527881730806
 20
-4899.726613823405
 30
0.0
 10
-5193.420331650144
 20
-4896.885543875747
 30
0.0
 10
-5192.763673816626
 20
-4891.166101712087
 30
0.0
 10
-5192.222823675882
 20
-4888.378076609751
 30
0.0
 10
-5191.022115227079
 20
-4884.233243572241
 30
0.0
 10
-5190.563949936681
 20
-4882.88004518318
 30
0.0
 10
-5189.524545042106
 20
-4880.206788490102
 30
0.0
 10
-5188.948620077419
 20
-4878.899856512793
 30
0.0
 10
-5187.674065428673
 20
-4876.330679714631
 30
0.0
 10
-5186.982093729795
 20
-4875.081909435367
 30
0.0
 10
-5185.470002262056
 20
-4872.643726229257
 30
0.0
 10
-5184.6591449148
 20
-4871.468216226327
 30
0.0
 10
-5182.033322401865
 20
-4868.034250117835
 30
0.0
 10
-5180.097962116855
 20
-4865.971931823255
 30
0.0
 10
-5176.8235577247
 20
-4863.148110128152
 30
0.0
 10
-5175.696366160675
 20
-4862.273822600538
 30
0.0
 10
-5174.009134551645
 20
-4861.115264705466
 30
0.0
 10
-5171.445581047396
 20
-4859.421921601339
 30
0.0
 10
-5168.547936810166
 20
-4857.504337964666
 30
0.0
 10
-5166.160060807659
 20
-4855.92408831548
 30
0.0
 10
-5144.693873279924
 20
-4841.71808583789
 30
0.0
 10
-5125.615881180598
 20
-4829.091850378396
 30
0.0
 10
-5087.457737377987
 20
-4803.842642767057
 30
0.0
 10
-5068.376315242323
 20
-4791.221591469184
 30
0.0
 10
-5035.265621386643
 20
-4769.310002734529
 30
0.0
 10
-5006.017959838377
 20
-4749.948263625539
 30
0.0
 10
-4987.222596786847
 20
-4737.481585524265
 30
0.0
 10
-4982.454840040533
 20
-4734.307989260343
 30
0.0
 10
-4973.168185484672
 20
-4728.174449469732
 30
0.0
 10
-4967.830380341184
 20
-4724.686081774943
 30
0.0
 10
-4961.11761911873
 20
-4719.852831429019
 30
0.0
 10
-4958.840939088095
 20
-4718.123198235455
 30
0.0
 10
-4954.435735825013
 20
-4714.447560252994
 30
0.0
 10
-4952.332730667749
 20
-4712.523103536706
 30
0.0
 10
-4948.476840920826
 20
-4708.411577866683
 30
0.0
 10
-4946.529995498971
 20
-4706.041694437909
 30
0.0
 10
-4943.558442427944
 20
-4701.225020282863
 30
0.0
 10
-4942.449634838118
 20
-4698.599332447383
 30
0.0
 10
-4942.038480540981
 20
-4695.708161126854
 30
0.0
  0
LINE
  5
F0
330
1F
100
AcDbEntity
  8
2D
100
AcDbLine
 10
-4942.038480540981
 20
-4695.708161126854
 30
0.0
 11
-4956.349045722458
 21
-4651.664762800975
 31
0.0
  0
SPLINE
  5
F1
330
1F
100
AcDbEntity
  8
2D
100
AcDbSpline
210
0.0
220
0.0
230
1.0
 70
     8
 71
     3
 72
     8
 73
     4
 74
     0
 42
0.0000000001
 43
0.0000000001
 40
-5.939721802973254
 40
-5.939721802973254
 40
-5.939721802973254
 40
-5.939721802973254
 40
0.0
 40
0.0
 40
0.0
 40
0.0
 10
-3643.262225371771
 20
-3829.258823070562
 30
0.0
 10
-3644.91476640158
 20
-3830.349300458368
 30
0.0
 10
-3646.603502385125
 20
-3831.386808225554
 30
0.0
 10
-3648.323129299919
 20
-3832.368091106587
 30
0.0
  0
SPLINE
  5
F2
330
1F
100
AcDbEntity
  8
2D
100
AcDbSpline
210
0.0
220
0.0
230
1.0
 70
     8
 71
     3
 72
     8
 73
     4
 74
     0
 42
0.0000000001
 43
0.0000000001
 40
-0.1501552434040915
 40
-0.1501552434040915
 40
-0.1501552434040915
 40
-0.1501552434040915
 40
0.0
 40
0.0
 40
0.0
 40
0.0
 10
-3648.323129299919
 20
-3832.368091106587
 30
0.0
 10
-3648.366666095822
 20
-3832.392783714115
 30
0.0
 10
-3648.410229402994
 20
-3832.417429624389
 30
0.0
 10
-3648.453819137379
 20
-3832.442028677786
 30
0.0
  0
SPLINE
  5
F3
330
1F
100
AcDbEntity
  8
2D
100
AcDbSpline
210
0.0
220
0.0
230
1.0
 70
     8
 71
     3
 72
     8
 73
     4
 74
     0
 42
0.0000000001
 43
0.0000000001
 40
-0.8252789005097776
 40
-0.8252789005097776
 40
-0.8252789005097776
 40
-0.8252789005097776
 40
0.0
 40
0.0
 40
0.0
 40
0.0
 10
-3648.453819137379
 20
-3832.442028677786
 30
0.0
 10
-3648.693389381588
 20
-3832.577240524489
 30
0.0
 10
-3648.933763611905
 20
-3832.711037700155
 30
0.0
 10
-3649.174916583612
 20
-3832.84340606745
 30
0.0
  0
SPLINE
  5
F4
330
1F
100
AcDbEntity
  8
2D
100
AcDbSpline
210
0.0
220
0.0
230
1.0
 70
     8
 71
     3
 72
     8
 73
     4
 74
     0
 42
0.0000000001
 43
0.0000000001
 40
-0.1440171821975881
 40
-0.1440171821975881
 40
-0.1440171821975881
 40
-0.1440171821975881
 40
0.0
 40
0.0
 40
0.0
 40
0.0
 10
-3649.174916583612
 20
-3832.84340606745
 30
0.0
 10
-3649.216999140164
 20
-3832.866506030727
 30
0.0
 10
-3649.259107368747
 20
-3832.889559274136
 30
0.0
 10
-3649.301241176938
 20
-3832.912565645641
 30
0.0
  0
SPLINE
  5
F5
330
1F
100
AcDbEntity
  8
2D
100
AcDbSpline
210
0.0
220
0.0
230
1.0
 70
     8
 71
     3
 72
     8
 73
     4
 74
     0
 42
0.0000000001
 43
0.0000000001
 40
-2.260536727625584
 40
-2.260536727625584
 40
-2.260536727625584
 40
-2.260536727625584
 40
0.0
 40
0.0
 40
0.0
 40
0.0
 10
-3649.301241176938
 20
-3832.912565645641
 30
0.0
 10
-3649.962408087482
 20
-3833.274005862894
 30
0.0
 10
-3650.630402343108
 20
-3833.623332340196
 30
0.0
 10
-3651.304448271268
 20
-3833.960145033386
 30
0.0
  0
SPLINE
  5
F6
330
1F
100
AcDbEntity
  8
2D
100
AcDbSpline
210
0.0
220
0.0
230
1.0
 70
     8
 71
     3
 72
     8
 73
     4
 74
     0
 42
0.0000000001
 43
0.0000000001
 40
-0.1273043555068569
 40
-0.1273043555068569
 40
-0.1273043555068569
 40
-0.1273043555068569
 40
0.0
 40
0.0
 40
0.0
 40
0.0
 10
-3651.304448271268
 20
-3833.960145033386
 30
0.0
 10
-3651.342413836916
 20
-3833.979100951771
 30
0.0
 10
-3651.380402403644
 20
-3833.998010831224
 30
0.0
 10
-3651.41841387259
 20
-3834.016874650654
 30
0.0
  0
SPLINE
  5
F7
330
1F
100
AcDbEntity
  8
2D
100
AcDbSpline
210
0.0
220
0.0
230
1.0
 70
     8
 71
     3
 72
     8
 73
     4
 74
     0
 42
0.0000000001
 43
0.0000000001
 40
-0.8261685768814547
 40
-0.8261685768814547
 40
-0.8261685768814547
 40
-0.8261685768814547
 40
0.0
 40
0.0
 40
0.0
 40
0.0
 10
-3651.41841387259
 20
-3834.016874650654
 30
0.0
 10
-3651.665136716849
 20
-3834.139215403932
 30
0.0
 10
-3651.912755192796
 20
-3834.259766448822
 30
0.0
 10
-3652.161230224949
 20
-3834.378507974694
 30
0.0
  0
SPLINE
  5
F8
330
1F
100
AcDbEntity
  8
2D
100
AcDbSpline
210
0.0
220
0.0
230
1.0
 70
     8
 71
     3
 72
     8
 73
     4
 74
     0
 42
0.0000000001
 43
0.0000000001
 40
-0.117157548143465
 40
-0.117157548143465
 40
-0.117157548143465
 40
-0.117157548143465
 40
0.0
 40
0.0
 40
0.0
 40
0.0
 10
-3652.161230224949
 20
-3834.378507974694
 30
0.0
 10
-3652.196469147992
 20
-3834.395340007629
 30
0.0
 10
-3652.231728141003
 20
-3834.412130048913
 30
0.0
 10
-3652.267007104514
 20
-3834.428878117506
 30
0.0
  0
SPLINE
  5
F9
330
1F
100
AcDbEntity
  8
2D
100
AcDbSpline
210
0.0
220
0.0
230
1.0
 70
     8
 71
     3
 72
     8
 73
     4
 74
     0
 42
0.0000000001
 43
0.0000000001
 40
-2.247918302201501
 40
-2.247918302201501
 40
-2.247918302201501
 40
-2.247918302201501
 40
0.0
 40
0.0
 40
0.0
 40
0.0
 10
-3652.267007104514
 20
-3834.428878117506
 30
0.0
 10
-3652.943761447652
 20
-3834.75053518044
 30
0.0
 10
-3653.628196329053
 20
-3835.056681360852
 30
0.0
 10
-3654.319076137628
 20
-3835.346758461783
 30
0.0
  0
SPLINE
  5
FA
330
1F
100
AcDbEntity
  8
2D
100
AcDbSpline
210
0.0
220
0.0
230
1.0
 70
     8
 71
     3
 72
     8
 73
     4
 74
     0
 42
0.0000000001
 43
0.0000000001
 40
-1.029455893314787
 40
-1.029455893314787
 40
-1.029455893314787
 40
-1.029455893314787
 40
0.0
 40
0.0
 40
0.0
 40
0.0
 10
-3654.319076137628
 20
-3835.346758461783
 30
0.0
 10
-3654.635537441845
 20
-3835.479444232395
 30
0.0
 10
-3654.953593354265
 20
-3835.608415479843
 30
0.0
 10
-3655.273092093132
 20
-3835.733610678652
 30
0.0
  0
SPLINE
  5
FB
330
1F
100
AcDbEntity
  8
2D
100
AcDbSpline
210
0.0
220
0.0
230
1.0
 70
     8
 71
     3
 72
     8
 73
     4
 74
     0
 42
0.0000000001
 43
0.0000000001
 40
-0.8504382601653825
 40
-0.8504382601653825
 40
-0.8504382601653825
 40
-0.8504382601653825
 40
0.0
 40
0.0
 40
0.0
 40
0.0
 10
-3655.273092093132
 20
-3835.733610678652
 30
0.0
 10
-3655.537036332003
 20
-3835.837022620443
 30
0.0
 10
-3655.802060770584
 20
-3835.937719805638
 30
0.0
 10
-3656.068080292491
 20
-3836.035669770285
 30
0.0
  0
SPLINE
  5
FC
330
1F
100
AcDbEntity
  8
2D
100
AcDbSpline
210
0.0
220
0.0
230
1.0
 70
     8
 71
     3
 72
     8
 73
     4
 74
     0
 42
0.0000000001
 43
0.0000000001
 40
-0.0838420023639494
 40
-0.0838420023639494
 40
-0.0838420023639494
 40
-0.0838420023639494
 40
0.0
 40
0.0
 40
0.0
 40
0.0
 10
-3656.068080292491
 20
-3836.035669770285
 30
0.0
 10
-3656.094306368144
 20
-3836.045326190014
 30
0.0
 10
-3656.120542868495
 20
-3836.054954331938
 30
0.0
 10
-3656.146789743412
 20
-3836.064554124317
 30
0.0
  0
SPLINE
  5
FD
330
1F
100
AcDbEntity
  8
2D
100
AcDbSpline
210
0.0
220
0.0
230
1.0
 70
     8
 71
     3
 72
     8
 73
     4
 74
     0
 42
0.0000000001
 43
0.0000000001
 40
-0.8555330369734678
 40
-0.8555330369734678
 40
-0.8555330369734678
 40
-0.8555330369734678
 40
0.0
 40
0.0
 40
0.0
 40
0.0
 10
-3656.146789743412
 20
-3836.064554124317
 30
0.0
 10
-3656.414608764844
 20
-3836.162530092054
 30
0.0
 10
-3656.683519246566
 20
-3836.25757456258
 30
0.0
 10
-3656.953422819472
 20
-3836.34965262697
 30
0.0
  0
SPLINE
  5
FE
330
1F
100
AcDbEntity
  8
2D
100
AcDbSpline
210
0.0
220
0.0
230
1.0
 70
     8
 71
     3
 72
     8
 73
     4
 74
     0
 42
0.0000000001
 43
0.0000000001
 40
-0.0785113573851508
 40
-0.0785113573851508
 40
-0.0785113573851508
 40
-0.0785113573851508
 40
0.0
 40
0.0
 40
0.0
 40
0.0
 10
-3656.953422819472
 20
-3836.34965262697
 30
0.0
 10
-3656.978191652212
 20
-3836.35810233161
 30
0.0
 10
-3657.00296951607
 20
-3836.366525596927
 30
0.0
 10
-3657.027756363554
 20
-3836.374922365113
 30
0.0
  0
SPLINE
  5
FF
330
1F
100
AcDbEntity
  8
2D
100
AcDbSpline
210
0.0
220
0.0
230
1.0
 70
     8
 71
     3
 72
     8
 73
     4
 74
     0
 42
0.0000000001
 43
0.0000000001
 40
-0.8615680167665803
 40
-0.8615680167665803
 40
-0.8615680167665803
 40
-0.8615680167665803
 40
0.0
 40
0.0
 40
0.0
 40
0.0
 10
-3657.027756363554
 20
-3836.374922365113
 30
0.0
 10
-3657.299755486212
 20
-3836.467086371028
 30
0.0
 10
-3657.572849108961
 20
-3836.55608484831
 30
0.0
 10
-3657.846923562283
 20
-3836.641880596677
 30
0.0
  0
SPLINE
  5
100
330
1F
100
AcDbEntity
  8
2D
100
AcDbSpline
210
0.0
220
0.0
230
1.0
 70
     8
 71
     3
 72
     8
 73
     4
 74
     0
 42
0.0000000001
 43
0.0000000001
 40
-0.0731331433058036
 40
-0.0731331433058036
 40
-0.0731331433058036
 40
-0.0731331433058036
 40
0.0
 40
0.0
 40
0.0
 40
0.0
 10
-3657.846923562283
 20
-3836.641880596677
 30
0.0
 10
-3657.870188115849
 20
-3836.649163007647
 30
0.0
 10
-3657.893460318435
 20
-3836.65642101554
 30
0.0
 10
-3657.916740126289
 20
-3836.663654576183
 30
0.0
  0
SPLINE
  5
101
330
1F
100
AcDbEntity
  8
2D
100
AcDbSpline
210
0.0
220
0.0
230
1.0
 70
     8
 71
     3
 72
     8
 73
     4
 74
     0
 42
0.0000000001
 43
0.0000000001
 40
-0.8685883903527156
 40
-0.8685883903527156
 40
-0.8685883903527156
 40
-0.8685883903527156
 40
0.0
 40
0.0
 40
0.0
 40
0.0
 10
-3657.916740126289
 20
-3836.663654576183
 30
0.0
 10
-3658.193223396232
 20
-3836.749586655336
 30
0.0
 10
-3658.470794138197
 20
-3836.832100969921
 30
0.0
 10
-3658.749321058887
 20
-3836.911158320432
 30
0.0
  0
SPLINE
  5
102
330
1F
100
AcDbEntity
  8
2D
100
AcDbSpline
210
0.0
220
0.0
230
1.0
 70
    12
 71
     2
 72
     6
 73
     3
 74
     0
 42
0.0000000001
 43
0.0000000001
 40
-2.844443702011813
 40
-2.844443702011813
 40
-2.844443702011813
 40
0.0
 40
0.0
 40
0.0
 10
-3658.749321058887
 20
-3836.911158320432
 30
0.0
 41
1.0
 10
-3660.118294306244
 20
-3837.30111923589
 30
0.0
 41
0.9990032041083032
 10
-3661.516592305697
 20
-3837.567427267632
 30
0.0
 41
0.9999999999992419
  0
SPLINE
  5
103
330
1F
100
AcDbEntity
  8
2D
100
AcDbSpline
210
0.0
220
0.0
230
1.0
 70
     8
 71
     3
 72
     8
 73
     4
 74
     0
 42
0.0000000001
 43
0.0000000001
 40
-0.0512505010650516
 40
-0.0512505010650516
 40
-0.0512505010650516
 40
-0.0512505010650516
 40
0.0
 40
0.0
 40
0.0
 40
0.0
 10
-3661.516592305696
 20
-3837.567427267632
 30
0.0
 10
-3661.533377379525
 20
-3837.570606431575
 30
0.0
 10
-3661.550165107386
 20
-3837.573771625178
 30
0.0
 10
-3661.566955451592
 20
-3837.576922835833
 30
0.0
  0
SPLINE
  5
104
330
1F
100
AcDbEntity
  8
2D
100
AcDbSpline
210
0.0
220
0.0
230
1.0
 70
     8
 71
     3
 72
     8
 73
     4
 74
     0
 42
0.0000000001
 43
0.0000000001
 40
-0.4271193919836143
 40
-0.4271193919836143
 40
-0.4271193919836143
 40
-0.4271193919836143
 40
0.0
 40
0.0
 40
0.0
 40
0.0
 10
-3661.566955451592
 20
-3837.576922835833
 30
0.0
 10
-3661.706883205203
 20
-3837.603196976455
 30
0.0
 10
-3661.847010104655
 20
-3837.628438242878
 30
0.0
 10
-3661.987338247007
 20
-3837.652573543626
 30
0.0
  0
SPLINE
  5
105
330
1F
100
AcDbEntity
  8
2D
100
AcDbSpline
210
0.0
220
0.0
230
1.0
 70
    12
 71
     3
 72
    39
 73
    35
 74
     0
 42
0.0000000001
 43
0.0000000001
 40
0.0
 40
0.0
 40
0.0
 40
0.0
 40
0.371887154187111
 40
1.484505835598452
 40
2.509639432502473
 40
2.509639432502473
 40
2.509639432502473
 40
105.7037713316962
 40
105.7037713316962
 40
105.7037713316962
 40
108.5707892692902
 40
108.5707892692902
 40
108.5707892692902
 40
281.8130455123213
 40
281.8130455123213
 40
281.8130455123213
 40
287.5470813875143
 40
287.5470813875143
 40
287.5470813875143
 40
387.3069638929824
 40
387.3069638929824
 40
387.3069638929824
 40
389.0631702395272
 40
390.8794307272114
 40
392.7438036136625
 40
394.6418319223333
 40
396.556946623815
 40
398.4711668590475
 40
400.3660568311779
 40
402.2238192438564
 40
404.0283522347436
 40
404.0283522347436
 40
404.0283522347436
 40
566.7252206391363
 40
566.7252206391363
 40
566.7252206391363
 40
566.7252206391363
 10
-3661.987338247007
 20
-3837.652573543626
 30
0.0
 41
1.0
 10
-3662.024848809586
 20
-3837.659040211013
 30
0.0
 41
1.0
 10
-3662.150519240131
 20
-3837.664289407703
 30
0.0
 41
1.0
 10
-3662.197527576245
 20
-3837.530934638143
 30
0.0
 41
1.0
 10
-3662.030392788874
 20
-3837.24540167407
 30
0.0
 41
1.0
 10
-3661.904429430841
 20
-3837.072027985417
 30
0.0
 41
1.0
 10
-3649.224443682699
 20
-3819.619524858087
 30
0.0
 41
1.0
 10
-3636.544457934553
 20
-3802.167021730755
 30
0.0
 41
1.0
 10
-3623.864472186411
 20
-3784.714518603425
 30
0.0
 41
1.0
 10
-3623.512187137203
 20
-3784.22963983309
 30
0.0
 41
1.0
 10
-3623.159902087995
 20
-3783.744761062746
 30
0.0
 41
1.0
 10
-3622.807617038787
 20
-3783.259882292411
 30
0.0
 41
1.0
 10
-3601.520463344445
 20
-3753.960628856335
 30
0.0
 41
1.0
 10
-3580.233309650106
 20
-3724.661375420272
 30
0.0
 41
1.0
 10
-3558.94615595576
 20
-3695.3621219842
 30
0.0
 41
1.0
 10
-3558.241589998419
 20
-3694.392361446754
 30
0.0
 41
1.0
 10
-3557.537024041078
 20
-3693.422600909307
 30
0.0
 41
1.0
 10
-3556.83245808374
 20
-3692.452840371861
 30
0.0
 41
1.0
 10
-3544.574456069568
 20
-3675.581147960857
 30
0.0
 41
1.0
 10
-3532.316454055403
 20
-3658.709455549859
 30
0.0
 41
1.0
 10
-3520.05845204123
 20
-3641.837763138857
 30
0.0
 41
1.0
 10
-3519.842658071073
 20
-3641.540748219782
 30
0.0
 41
1.0
 10
-3519.293295417014
 20
-3640.8479457759
 30
0.0
 41
1.0
 10
-3518.133481866214
 20
-3639.541978824444
 30
0.0
 41
1.0
 10
-3516.625372555562
 20
-3637.962482695797
 30
0.0
 41
1.0
 10
-3514.793407052173
 20
-3636.140449573305
 30
0.0
 41
1.0
 10
-3512.682366142464
 20
-3634.122701823164
 30
0.0
 41
1.0
 10
-3510.354244110342
 20
-3631.968449448837
 30
0.0
 41
1.0
 10
-3507.881964407443
 20
-3629.743298946707
 30
0.0
 41
1.0
 10
-3505.342981527741
 20
-3627.5136330719
 30
0.0
 41
1.0
 10
-3503.624363236864
 20
-3626.038128449152
 30
0.0
 41
1.0
 10
-3502.774652771819
 20
-3625.316507475419
 30
0.0
 41
1.0
 10
-3426.164620100051
 20
-3560.255155964669
 30
0.0
 41
1.0
 10
-3349.554587428287
 20
-3495.193804453916
 30
0.0
 41
1.0
 10
-3272.944554756716
 20
-3430.132452942955
 30
0.0
 41
1.0
  0
SPLINE
  5
106
330
1F
100
AcDbEntity
  8
2D
100
AcDbSpline
210
0.0
220
0.0
230
1.0
 70
     8
 71
     3
 72
     8
 73
     4
 74
     0
 42
0.0000000001
 43
0.0000000001
 40
-31.36680624865273
 40
-31.36680624865273
 40
-31.36680624865273
 40
-31.36680624865273
 40
0.0
 40
0.0
 40
0.0
 40
0.0
 10
-3272.944554756716
 20
-3430.132452942955
 30
0.0
 10
-3264.975171833896
 20
-3423.364251502074
 30
0.0
 10
-3257.005775656733
 20
-3416.596065667165
 30
0.0
 10
-3249.036366226035
 20
-3409.827895438752
 30
0.0
  0
SPLINE
  5
107
330
1F
100
AcDbEntity
  8
2D
100
AcDbSpline
210
0.0
220
0.0
230
1.0
 70
    12
 71
     3
 72
    91
 73
    87
 74
     0
 42
0.0000000001
 43
0.0000000001
 40
0.0
 40
0.0
 40
0.0
 40
0.0
 40
2.242613583267045
 40
4.485230646467287
 40
6.727847709666826
 40
8.970464772867066
 40
11.21308183606661
 40
13.17131946839742
 40
15.12955710072893
 40
17.08779473305973
 40
19.04603236539054
 40
21.00426999772135
 40
22.96250763005287
 40
24.92074526238438
 40
26.87898289471449
 40
28.837220527046
 40
30.7954581593768
 40
32.75369579170761
 40
34.71193342403912
 40
36.67017105636993
 40
38.62840868870074
 40
40.58664632103155
 40
42.54488395336306
 40
44.50312158569388
 40
44.50312158569388
 40
44.50312158569388
 40
351.9473233802919
 40
351.9473233802919
 40
351.9473233802919
 40
353.9055610126227
 40
355.8637986449543
 40
357.8220362772851
 40
359.7802739096159
 40
361.7385115419467
 40
363.6967491742782
 40
365.654986806609
 40
367.6132244389398
 40
369.5714620712714
 40
371.5296997036021
 40
373.4879373359329
 40
375.4461749682645
 40
377.4044126005953
 40
379.3626502329261
 40
381.3208878652569
 40
383.2791254975877
 40
385.2373631299192
 40
387.4799801931188
 40
389.722597256319
 40
391.9652143195186
 40
394.2078313827188
 40
396.4504484459183
 40
398.6930655091185
 40
400.9356825723181
 40
403.1782996355176
 40
405.4209166987179
 40
407.6635337619181
 40
409.9061508251177
 40
412.1487678883179
 40
414.3913849515175
 40
416.6340020147177
 40
416.6340020147177
 40
416.6340020147177
 40
649.3169845307722
 40
649.3169845307722
 40
649.3169845307722
 40
651.8977602789605
 40
654.5546627599615
 40
657.2646636910922
 40
660.0023100432118
 40
662.7412356275831
 40
665.4557248905285
 40
668.1220814244517
 40
670.7196294009528
 40
673.2312901856918
 40
673.2312901856918
 40
673.2312901856918
 40
815.904151647591
 40
815.904151647591
 40
815.904151647591
 40
824.1047557931922
 40
824.1047557931922
 40
824.1047557931922
 40
1071.869366277422
 40
1071.869366277422
 40
1071.869366277422
 40
1075.969669174079
 40
1075.969669174079
 40
1075.969669174079
 40
1075.969669174079
 10
-3249.036366226035
 20
-3409.827895438752
 30
0.0
 41
1.0
 10
-3248.152719895159
 20
-3409.071869659168
 30
0.0
 41
1.0
 10
-3246.390713065048
 20
-3407.544997567682
 30
0.0
 41
1.0
 10
-3243.641755227905
 20
-3405.411833682967
 30
0.0
 41
1.0
 10
-3240.734065810793
 20
-3403.480035068289
 30
0.0
 41
1.0
 10
-3237.693576396137
 20
-3401.752098762111
 30
0.0
 41
1.0
 10
-3234.736069218387
 20
-3400.327201348185
 30
0.0
 41
1.0
 10
-3231.578884514292
 20
-3399.059315633508
 30
0.0
 41
1.0
 10
-3228.556464819569
 20
-3398.070113976078
 30
0.0
 41
1.0
 10
-3225.468652258547
 20
-3397.270809226483
 30
0.0
 41
1.0
 10
-3222.341237426015
 20
-3396.670948658186
 30
0.0
 41
1.0
 10
-3219.161672220154
 20
-3396.269677205003
 30
0.0
 41
1.0
 10
-3215.988221296582
 20
-3396.073194985525
 30
0.0
 41
1.0
 10
-3212.776325370531
 20
-3396.080031654976
 30
0.0
 41
1.0
 10
-3209.609712729951
 20
-3396.289309051623
 30
0.0
 41
1.0
 10
-3206.43437281343
 20
-3396.702972429801
 30
0.0
 41
1.0
 10
-3203.306790854836
 20
-3397.316121164325
 30
0.0
 41
1.0
 10
-3200.217660141188
 20
-3398.128739893348
 30
0.0
 41
1.0
 10
-3197.188760710931
 20
-3399.136460537547
 30
0.0
 41
1.0
 10
-3194.234477134112
 20
-3400.333038325067
 30
0.0
 41
1.0
 10
-3191.354757673816
 20
-3401.719615348096
 30
0.0
 41
1.0
 10
-3188.578227640792
 20
-3403.281295436742
 30
0.0
 41
1.0
 10
-3185.891617712819
 20
-3405.028357218669
 30
0.0
 41
1.0
 10
-3184.18729893303
 20
-3406.295651348895
 30
0.0
 41
1.0
 10
-3183.327230773462
 20
-3406.920529709619
 30
0.0
 41
1.0
 10
-3075.888108094445
 20
-3484.979621507521
 30
0.0
 41
1.0
 10
-2968.447038009443
 20
-3563.040128178658
 30
0.0
 41
1.0
 10
-2861.008237556045
 20
-3641.098985865946
 30
0.0
 41
1.0
 10
-2860.14817072685
 20
-3641.723859907318
 30
0.0
 41
1.0
 10
-2858.416245788394
 20
-3642.953145298315
 30
0.0
 41
1.0
 10
-2855.924494323262
 20
-3644.96838706584
 30
0.0
 41
1.0
 10
-2853.581265173481
 20
-3647.126433761525
 30
0.0
 41
1.0
 10
-2851.372682390098
 20
-3649.436728969555
 30
0.0
 41
1.0
 10
-2849.32175865641
 20
-3651.876651619254
 30
0.0
 41
1.0
 10
-2847.42739178941
 20
-3654.445897989935
 30
0.0
 41
1.0
 10
-2845.699965932923
 20
-3657.132717307891
 30
0.0
 41
1.0
 10
-2844.150365676207
 20
-3659.917745376425
 30
0.0
 41
1.0
 10
-2842.77572974324
 20
-3662.809838134559
 30
0.0
 41
1.0
 10
-2841.598173527127
 20
-3665.756789416033
 30
0.0
 41
1.0
 10
-2840.599157066776
 20
-3668.809365096893
 30
0.0
 41
1.0
 10
-2839.805388590721
 20
-3671.88820637203
 30
0.0
 41
1.0
 10
-2839.204497128005
 20
-3675.036145913995
 30
0.0
 41
1.0
 10
-2838.808590485351
 20
-3678.195854916427
 30
0.0
 41
1.0
 10
-2838.614604366048
 20
-3681.379531538552
 30
0.0
 41
1.0
 10
-2838.621428364469
 20
-3684.559697252187
 30
0.0
 41
1.0
 10
-2838.851653006401
 20
-3687.954149814766
 30
0.0
 41
1.0
 10
-2839.29290760334
 20
-3691.207217356354
 30
0.0
 41
1.0
 10
-2839.996727198042
 20
-3694.632849549767
 30
0.0
 41
1.0
 10
-2840.935468426447
 20
-3697.995178513049
 30
0.0
 41
1.0
 10
-2842.114770240827
 20
-3701.268771963199
 30
0.0
 41
1.0
 10
-2843.476264989018
 20
-3704.490164402295
 30
0.0
 41
1.0
 10
-2844.790575643172
 20
-3707.712903903389
 30
0.0
 41
1.0
 10
-2846.118678584779
 20
-3710.938070811336
 30
0.0
 41
1.0
 10
-2847.442481940117
 20
-3714.161109121802
 30
0.0
 41
1.0
 10
-2848.769579198688
 20
-3717.3899212763
 30
0.0
 41
1.0
 10
-2850.088912165495
 20
-3720.600431755249
 30
0.0
 41
1.0
 10
-2851.417996350334
 20
-3723.834503919465
 30
0.0
 41
1.0
 10
-2852.741601894832
 20
-3727.055280533864
 30
0.0
 41
1.0
 10
-2854.068368767166
 20
-3730.28373171762
 30
0.0
 41
1.0
 10
-2854.950082508014
 20
-3732.429222720695
 30
0.0
 41
1.0
 10
-2855.391289656382
 20
-3733.502819204234
 30
0.0
 41
1.0
 10
-2893.594350816293
 20
-3826.468415070804
 30
0.0
 41
1.0
 10
-2931.7974119762
 20
-3919.434010937372
 30
0.0
 41
1.0
 10
-2970.000473136104
 20
-4012.399606803933
 30
0.0
 41
1.0
 10
-2970.42420049147
 20
-4013.43072262306
 30
0.0
 41
1.0
 10
-2971.296406519032
 20
-4015.521181751334
 30
0.0
 41
1.0
 10
-2972.632355920177
 20
-4018.624902610927
 30
0.0
 41
1.0
 10
-2973.984623361925
 20
-4021.663789652683
 30
0.0
 41
1.0
 10
-2975.31400984736
 20
-4024.543665875896
 30
0.0
 41
1.0
 10
-2976.580654476456
 20
-4027.174903434403
 30
0.0
 41
1.0
 10
-2977.747402476853
 20
-4029.480245363192
 30
0.0
 41
1.0
 10
-2978.783561156095
 20
-4031.402633696663
 30
0.0
 41
1.0
 10
-2979.667207437833
 20
-4032.909247913924
 30
0.0
 41
1.0
 10
-2980.15633932042
 20
-4033.645810574788
 30
0.0
 41
1.0
 10
-2980.372133290577
 20
-4033.942825493863
 30
0.0
 41
1.0
 10
-2992.630134846426
 20
-4050.814516503743
 30
0.0
 41
1.0
 10
-3004.888136402275
 20
-4067.686207513621
 30
0.0
 41
1.0
 10
-3017.146137958127
 20
-4084.557898523507
 30
0.0
 41
1.0
 10
-3017.850703915472
 20
-4085.527659060951
 30
0.0
 41
1.0
 10
-3018.55526987281
 20
-4086.497419598397
 30
0.0
 41
1.0
 10
-3019.259835830155
 20
-4087.467180135842
 30
0.0
 41
1.0
 10
-3040.546990036179
 20
-4116.766435001072
 30
0.0
 41
1.0
 10
-3061.83414424221
 20
-4146.065689866307
 30
0.0
 41
1.0
 10
-3083.121298448241
 20
-4175.364944731544
 30
0.0
 41
1.0
 10
-3083.473583493556
 20
-4175.849823498764
 30
0.0
 41
1.0
 10
-3083.825868538868
 20
-4176.334702265983
 30
0.0
 41
1.0
 10
-3084.17815358418
 20
-4176.819581033202
 30
0.0
 41
1.0
  0
SPLINE
  5
108
330
1F
100
AcDbEntity
  8
2D
100
AcDbSpline
210
0.0
220
0.0
230
1.0
 70
    12
 71
     3
 72
    13
 73
     9
 74
     0
 42
0.0000000001
 43
0.0000000001
 40
0.0
 40
0.0
 40
0.0
 40
0.0
 40
63.99854076328472
 40
63.99854076328472
 40
63.99854076328472
 40
64.63430418423994
 40
65.32432376924754
 40
65.55475978694534
 40
65.55475978694534
 40
65.55475978694534
 40
65.55475978694534
 10
-3084.17815358418
 20
-4176.819581033202
 30
0.0
 41
1.0
 10
-3096.858139282849
 20
-4194.272084135611
 30
0.0
 41
1.0
 10
-3109.538124981515
 20
-4211.724587238017
 30
0.0
 41
1.0
 10
-3122.21811068018
 20
-4229.177090340429
 30
0.0
 41
1.0
 10
-3122.344074038218
 20
-4229.350464029068
 30
0.0
 41
1.0
 10
-3122.56398453467
 20
-4229.59765319606
 30
0.0
 41
1.0
 10
-3122.705320710553
 20
-4229.594154950277
 30
0.0
 41
1.0
 10
-3122.739166176703
 20
-4229.473065232663
 30
0.0
 41
1.0
 10
-3122.744592986543
 20
-4229.435435629625
 30
0.0
 41
1.0
  0
SPLINE
  5
109
330
1F
100
AcDbEntity
  8
2D
100
AcDbSpline
210
0.0
220
0.0
230
1.0
 70
     8
 71
     3
 72
    10
 73
     6
 74
     0
 42
0.0000000001
 43
0.0000000001
 40
-20.66389800252212
 40
-20.66389800252212
 40
-20.66389800252212
 40
-20.66389800252212
 40
-10.31422037359155
 40
-10.31422037359155
 40
0.0
 40
0.0
 40
0.0
 40
0.0
 10
-3122.744592986543
 20
-4229.435435629625
 30
0.0
 10
-3123.237774062363
 20
-4226.016031129288
 30
0.0
 10
-3123.119847721744
 20
-4222.538682655414
 30
0.0
 10
-3122.231548133601
 20
-4215.74744294387
 30
0.0
 10
-3121.445896227127
 20
-4212.322884758752
 30
0.0
 10
-3120.548193539624
 20
-4209.033019996948
 30
0.0
  0
SPLINE
  5
10A
330
1F
100
AcDbEntity
  8
2D
100
AcDbSpline
210
0.0
220
0.0
230
1.0
 70
     8
 71
     3
 72
     8
 73
     4
 74
     0
 42
0.0000000001
 43
0.0000000001
 40
-5.939721802968184
 40
-5.939721802968184
 40
-5.939721802968184
 40
-5.939721802968184
 40
0.0
 40
0.0
 40
0.0
 40
0.0
 10
-4581.014853251872
 20
-5268.794144391248
 30
0.0
 10
-4579.03695294834
 20
-5268.883268898661
 30
0.0
 10
-4577.060905073948
 20
-5269.036521589356
 30
0.0
 10
-4575.092914070094
 20
-5269.253418402272
 30
0.0
  0
SPLINE
  5
10B
330
1F
100
AcDbEntity
  8
2D
100
AcDbSpline
210
0.0
220
0.0
230
1.0
 70
     8
 71
     3
 72
     8
 73
     4
 74
     0
 42
0.0000000001
 43
0.0000000001
 40
-0.1501552434232842
 40
-0.1501552434232842
 40
-0.1501552434232842
 40
-0.1501552434232842
 40
0.0
 40
0.0
 40
0.0
 40
0.0
 10
-4575.092914070094
 20
-5269.253418402272
 30
0.0
 10
-4575.043178111773
 20
-5269.259031949713
 30
0.0
 10
-4574.993448153364
 20
-5269.264698858955
 30
0.0
 10
-4574.943724356657
 20
-5269.270419209732
 30
0.0
  0
SPLINE
  5
10C
330
1F
100
AcDbEntity
  8
2D
100
AcDbSpline
210
0.0
220
0.0
230
1.0
 70
     8
 71
     3
 72
     8
 73
     4
 74
     0
 42
0.0000000001
 43
0.0000000001
 40
-0.8252789005161972
 40
-0.8252789005161972
 40
-0.8252789005161972
 40
-0.8252789005161972
 40
0.0
 40
0.0
 40
0.0
 40
0.0
 10
-4574.943724356657
 20
-5269.270419209732
 30
0.0
 10
-4574.670432428316
 20
-5269.301846384342
 30
0.0
 10
-4574.397321584333
 20
-5269.334890623038
 30
0.0
 10
-4574.124420557804
 20
-5269.369548524698
 30
0.0
  0
SPLINE
  5
10D
330
1F
100
AcDbEntity
  8
2D
100
AcDbSpline
210
0.0
220
0.0
230
1.0
 70
     8
 71
     3
 72
     8
 73
     4
 74
     0
 42
0.0000000001
 43
0.0000000001
 40
-0.1440171821953417
 40
-0.1440171821953417
 40
-0.1440171821953417
 40
-0.1440171821953417
 40
0.0
 40
0.0
 40
0.0
 40
0.0
 10
-4574.124420557804
 20
-5269.369548524698
 30
0.0
 10
-4574.076797236645
 20
-5269.375595767956
 30
0.0
 10
-4574.02918060762
 20
-5269.381695898026
 30
0.0
 10
-4573.981570834883
 20
-5269.387848983576
 30
0.0
  0
SPLINE
  5
10E
330
1F
100
AcDbEntity
  8
2D
100
AcDbSpline
210
0.0
220
0.0
230
1.0
 70
     8
 71
     3
 72
     8
 73
     4
 74
     0
 42
0.0000000001
 43
0.0000000001
 40
-2.260536727648437
 40
-2.260536727648437
 40
-2.260536727648437
 40
-2.260536727648437
 40
0.0
 40
0.0
 40
0.0
 40
0.0
 10
-4573.981570834883
 20
-5269.387848983576
 30
0.0
 10
-4573.234226338838
 20
-5269.484061864689
 30
0.0
 10
-4572.488478682313
 20
-5269.59408798004
 30
0.0
 10
-4571.745190537593
 20
-5269.717795043269
 30
0.0
  0
SPLINE
  5
10F
330
1F
100
AcDbEntity
  8
2D
100
AcDbSpline
210
0.0
220
0.0
230
1.0
 70
     8
 71
     3
 72
     8
 73
     4
 74
     0
 42
0.0000000001
 43
0.0000000001
 40
-0.1273043555234086
 40
-0.1273043555234086
 40
-0.1273043555234086
 40
-0.1273043555234086
 40
0.0
 40
0.0
 40
0.0
 40
0.0
 10
-4571.745190537593
 20
-5269.717795043269
 30
0.0
 10
-4571.703333740505
 20
-5269.724774982736
 30
0.0
 10
-4571.661485396176
 20
-5269.731805688173
 30
0.0
 10
-4571.619645596955
 20
-5269.738887118541
 30
0.0
  0
SPLINE
  5
110
330
1F
100
AcDbEntity
  8
2D
100
AcDbSpline
210
0.0
220
0.0
230
1.0
 70
     8
 71
     3
 72
     8
 73
     4
 74
     0
 42
0.0000000001
 43
0.0000000001
 40
-0.826168576882769
 40
-0.826168576882769
 40
-0.826168576882769
 40
-0.826168576882769
 40
0.0
 40
0.0
 40
0.0
 40
0.0
 10
-4571.619645596955
 20
-5269.738887118541
 30
0.0
 10
-4571.348132532516
 20
-5269.784931419294
 30
0.0
 10
-4571.076946851019
 20
-5269.832950063644
 30
0.0
 10
-4570.806131809586
 20
-5269.882936110738
 30
0.0
  0
SPLINE
  5
111
330
1F
100
AcDbEntity
  8
2D
100
AcDbSpline
210
0.0
220
0.0
230
1.0
 70
     8
 71
     3
 72
     8
 73
     4
 74
     0
 42
0.0000000001
 43
0.0000000001
 40
-0.117157548150866
 40
-0.117157548150866
 40
-0.117157548150866
 40
-0.117157548150866
 40
0.0
 40
0.0
 40
0.0
 40
0.0
 10
-4570.806131809586
 20
-5269.882936110738
 30
0.0
 10
-4570.767729301246
 20
-5269.890031629317
 30
0.0
 10
-4570.729335238051
 20
-5269.897172916683
 30
0.0
 10
-4570.690949689306
 20
-5269.904359899037
 30
0.0
  0
SPLINE
  5
112
330
1F
100
AcDbEntity
  8
2D
100
AcDbSpline
210
0.0
220
0.0
230
1.0
 70
     8
 71
     3
 72
     8
 73
     4
 74
     0
 42
0.0000000001
 43
0.0000000001
 40
-2.247918302198217
 40
-2.247918302198217
 40
-2.247918302198217
 40
-2.247918302198217
 40
0.0
 40
0.0
 40
0.0
 40
0.0
 10
-4570.690949689306
 20
-5269.904359899037
 30
0.0
 10
-4569.954378646802
 20
-5270.041920091083
 30
0.0
 10
-4569.220710986312
 20
-5270.19654335781
 30
0.0
 10
-4568.491274438151
 20
-5270.367955016065
 30
0.0
  0
SPLINE
  5
113
330
1F
100
AcDbEntity
  8
2D
100
AcDbSpline
210
0.0
220
0.0
230
1.0
 70
     8
 71
     3
 72
     8
 73
     4
 74
     0
 42
0.0000000001
 43
0.0000000001
 40
-1.029455893302551
 40
-1.029455893302551
 40
-1.029455893302551
 40
-1.029455893302551
 40
0.0
 40
0.0
 40
0.0
 40
0.0
 10
-4568.491274438151
 20
-5270.367955016065
 30
0.0
 10
-4568.157261125823
 20
-5270.446621260267
 30
0.0
 10
-4567.824141090292
 20
-5270.529229904021
 30
0.0
 10
-4567.492073289352
 20
-5270.615741507401
 30
0.0
  0
SPLINE
  5
114
330
1F
100
AcDbEntity
  8
2D
100
AcDbSpline
210
0.0
220
0.0
230
1.0
 70
     8
 71
     3
 72
     8
 73
     4
 74
     0
 42
0.0000000001
 43
0.0000000001
 40
-0.8504382601753482
 40
-0.8504382601753482
 40
-0.8504382601753482
 40
-0.8504382601753482
 40
0.0
 40
0.0
 40
0.0
 40
0.0
 10
-4567.492073289352
 20
-5270.615741507401
 30
0.0
 10
-4567.217753900237
 20
-5270.68722202011
 30
0.0
 10
-4566.9441563051
 20
-5270.761533742493
 30
0.0
 10
-4566.671368446361
 20
-5270.838652908295
 30
0.0
  0
SPLINE
  5
115
330
1F
100
AcDbEntity
  8
2D
100
AcDbSpline
210
0.0
220
0.0
230
1.0
 70
     8
 71
     3
 72
     8
 73
     4
 74
     0
 42
0.0000000001
 43
0.0000000001
 40
-0.0838420023627596
 40
-0.0838420023627596
 40
-0.0838420023627596
 40
-0.0838420023627596
 40
0.0
 40
0.0
 40
0.0
 40
0.0
 10
-4566.671368446361
 20
-5270.838652908295
 30
0.0
 10
-4566.64447520435
 20
-5270.846256001123
 30
0.0
 10
-4566.617590149865
 20
-5270.853888098662
 30
0.0
 10
-4566.590713365626
 20
-5270.861549229479
 30
0.0
  0
SPLINE
  5
116
330
1F
100
AcDbEntity
  8
2D
100
AcDbSpline
210
0.0
220
0.0
230
1.0
 70
     8
 71
     3
 72
     8
 73
     4
 74
     0
 42
0.0000000001
 43
0.0000000001
 40
-0.8555330369568891
 40
-0.8555330369568891
 40
-0.8555330369568891
 40
-0.8555330369568891
 40
0.0
 40
0.0
 40
0.0
 40
0.0
 10
-4566.590713365626
 20
-5270.861549229479
 30
0.0
 10
-4566.316454396961
 20
-5270.939705077618
 30
0.0
 10
-4566.043035509185
 20
-5271.020874101087
 30
0.0
 10
-4565.77055680356
 20
-5271.105026721879
 30
0.0
  0
SPLINE
  5
117
330
1F
100
AcDbEntity
  8
2D
100
AcDbSpline
210
0.0
220
0.0
230
1.0
 70
     8
 71
     3
 72
     8
 73
     4
 74
     0
 42
0.0000000001
 43
0.0000000001
 40
-0.078511357366899
 40
-0.078511357366899
 40
-0.078511357366899
 40
-0.078511357366899
 40
0.0
 40
0.0
 40
0.0
 40
0.0
 10
-4565.77055680356
 20
-5271.105026721879
 30
0.0
 10
-4565.745551785178
 20
-5271.112749521824
 30
0.0
 10
-4565.720555001088
 20
-5271.120499019998
 30
0.0
 10
-4565.695566523733
 20
-5271.128275235242
 30
0.0
  0
SPLINE
  5
118
330
1F
100
AcDbEntity
  8
2D
100
AcDbSpline
210
0.0
220
0.0
230
1.0
 70
     8
 71
     3
 72
     8
 73
     4
 74
     0
 42
0.0000000001
 43
0.0000000001
 40
-0.8615680167699491
 40
-0.8615680167699491
 40
-0.8615680167699491
 40
-0.8615680167699491
 40
0.0
 40
0.0
 40
0.0
 40
0.0
 10
-4565.695566523733
 20
-5271.128275235242
 30
0.0
 10
-4565.421341967576
 20
-5271.213590061123
 30
0.0
 10
-4565.148092593296
 20
-5271.302109184475
 30
0.0
 10
-4564.875932227234
 20
-5271.393795887692
 30
0.0
  0
SPLINE
  5
119
330
1F
100
AcDbEntity
  8
2D
100
AcDbSpline
210
0.0
220
0.0
230
1.0
 70
     8
 71
     3
 72
     8
 73
     4
 74
     0
 42
0.0000000001
 43
0.0000000001
 40
-0.0731331433211784
 40
-0.0731331433211784
 40
-0.0731331433211784
 40
-0.0731331433211784
 40
0.0
 40
0.0
 40
0.0
 40
0.0
 10
-4564.875932227234
 20
-5271.393795887692
 30
0.0
 10
-4564.852830314256
 20
-5271.40157885495
 30
0.0
 10
-4564.82973655688
 20
-5271.409386060684
 30
0.0
 10
-4564.806651016428
 20
-5271.417217514927
 30
0.0
  0
SPLINE
  5
11A
330
1F
100
AcDbEntity
  8
2D
100
AcDbSpline
210
0.0
220
0.0
230
1.0
 70
     8
 71
     3
 72
     8
 73
     4
 74
     0
 42
0.0000000001
 43
0.0000000001
 40
-0.8685883903501024
 40
-0.8685883903501024
 40
-0.8685883903501024
 40
-0.8685883903501024
 40
0.0
 40
0.0
 40
0.0
 40
0.0
 10
-4564.806651016428
 20
-5271.417217514927
 30
0.0
 10
-4564.532461743562
 20
-5271.510209791109
 30
0.0
 10
-4564.259401598949
 20
-5271.606606296927
 30
0.0
 10
-4563.987599842003
 20
-5271.70636157318
 30
0.0
  0
SPLINE
  5
11B
330
1F
100
AcDbEntity
  8
2D
100
AcDbSpline
210
0.0
220
0.0
230
1.0
 70
    12
 71
     2
 72
     6
 73
     3
 74
     0
 42
0.0000000001
 43
0.0000000001
 40
-2.844443702013169
 40
-2.844443702013169
 40
-2.844443702013169
 40
0.0
 40
0.0
 40
0.0
 10
-4563.987599842003
 20
-5271.70636157318
 30
0.0
 41
1.0
 10
-4562.650863944979
 20
-5272.19553885101
 30
0.0
 41
0.9990032041083019
 10
-4561.363085166594
 20
-5272.80199006998
 30
0.0
 41
0.9999999999992446
  0
SPLINE
  5
11C
330
1F
100
AcDbEntity
  8
2D
100
AcDbSpline
210
0.0
220
0.0
230
1.0
 70
     8
 71
     3
 72
     8
 73
     4
 74
     0
 42
0.0000000001
 43
0.0000000001
 40
-0.0512505010795331
 40
-0.0512505010795331
 40
-0.0512505010795331
 40
-0.0512505010795331
 40
0.0
 40
0.0
 40
0.0
 40
0.0
 10
-4561.363085166595
 20
-5272.80199006998
 30
0.0
 10
-4561.347637090927
 20
-5272.809284091183
 30
0.0
 10
-4561.332195079678
 20
-5272.816590974622
 30
0.0
 10
-4561.316759170717
 20
-5272.823910708353
 30
0.0
  0
SPLINE
  5
11D
330
1F
100
AcDbEntity
  8
2D
100
AcDbSpline
210
0.0
220
0.0
230
1.0
 70
     8
 71
     3
 72
     8
 73
     4
 74
     0
 42
0.0000000001
 43
0.0000000001
 40
-0.4271193919727931
 40
-0.4271193919727931
 40
-0.4271193919727931
 40
-0.4271193919727931
 40
0.0
 40
0.0
 40
0.0
 40
0.0
 10
-4561.316759170717
 20
-5272.823910708353
 30
0.0
 10
-4561.18811168769
 20
-5272.884901952031
 30
0.0
 10
-4561.059910200511
 20
-5272.946845863485
 30
0.0
 10
-4560.932195974725
 20
-5273.009802807572
 30
0.0
  0
SPLINE
  5
11E
330
1F
100
AcDbEntity
  8
2D
100
AcDbSpline
210
0.0
220
0.0
230
1.0
 70
    12
 71
     3
 72
    39
 73
    35
 74
     0
 42
0.0000000001
 43
0.0000000001
 40
0.0
 40
0.0
 40
0.0
 40
0.0
 40
0.3718871541871026
 40
1.484505835598419
 40
2.509639432502416
 40
2.509639432502416
 40
2.509639432502416
 40
105.7037713316937
 40
105.7037713316937
 40
105.7037713316937
 40
108.5707892692877
 40
108.5707892692877
 40
108.5707892692877
 40
281.8130455123149
 40
281.8130455123149
 40
281.8130455123149
 40
287.5470813875077
 40
287.5470813875077
 40
287.5470813875077
 40
387.3069638929736
 40
387.3069638929736
 40
387.3069638929736
 40
389.0631702395183
 40
390.8794307272025
 40
392.7438036136535
 40
394.6418319223243
 40
396.5569466238059
 40
398.4711668590384
 40
400.3660568311687
 40
402.2238192438473
 40
404.0283522347344
 40
404.0283522347344
 40
404.0283522347344
 40
566.7252206391219
 40
566.7252206391219
 40
566.7252206391219
 40
566.7252206391219
 10
-4560.932195974725
 20
-5273.009802807572
 30
0.0
 41
1.0
 10
-4560.898048280407
 20
-5273.026619319248
 30
0.0
 41
1.0
 10
-4560.793293366005
 20
-5273.096239855643
 30
0.0
 41
1.0
 10
-4560.833646790077
 20
-5273.231756937202
 30
0.0
 41
1.0
 10
-4561.136693738739
 20
-5273.36451859443
 30
0.0
 41
1.0
 10
-4561.340506733384
 20
-5273.430741450746
 30
0.0
 41
1.0
 10
-4581.857154645895
 20
-5280.097004453101
 30
0.0
 41
1.0
 10
-4602.37380255841
 20
-5286.763267455456
 30
0.0
 41
1.0
 10
-4622.890450470921
 20
-5293.42953045781
 30
0.0
 41
1.0
 10
-4623.460459652946
 20
-5293.614737666697
 30
0.0
 41
1.0
 10
-4624.030468834982
 20
-5293.799944875587
 30
0.0
 41
1.0
 10
-4624.600478017008
 20
-5293.985152084472
 30
0.0
 41
1.0
 10
-4659.043816190504
 20
-5305.176471031938
 30
0.0
 41
1.0
 10
-4693.487154363997
 20
-5316.367789979397
 30
0.0
 41
1.0
 10
-4727.930492537496
 20
-5327.559108926858
 30
0.0
 41
1.0
 10
-4729.070509312805
 20
-5327.929528203133
 30
0.0
 41
1.0
 10
-4730.210526088122
 20
-5328.299947479411
 30
0.0
 41
1.0
 10
-4731.350542863431
 20
-5328.670366755687
 30
0.0
 41
1.0
 10
-4751.18440679038
 20
-5335.114779833555
 30
0.0
 41
1.0
 10
-4771.018270717323
 20
-5341.559192911421
 30
0.0
 41
1.0
 10
-4790.852134644272
 20
-5348.003605989287
 30
0.0
 41
1.0
 10
-4791.201296622559
 20
-5348.117055593209
 30
0.0
 41
1.0
 10
-4792.052959405031
 20
-5348.354637277838
 30
0.0
 41
1.0
 10
-4793.758896391984
 20
-5348.729465435089
 30
0.0
 41
1.0
 10
-4795.907386984145
 20
-5349.120860234068
 30
0.0
 41
1.0
 10
-4798.460442408086
 20
-5349.518113688878
 30
0.0
 41
1.0
 10
-4801.354312750242
 20
-5349.90966719539
 30
0.0
 41
1.0
 10
-4804.504040814551
 20
-5350.284058180375
 30
0.0
 41
1.0
 10
-4807.812067758328
 20
-5350.631073202734
 30
0.0
 41
1.0
 10
-4811.176712775185
 20
-5350.94253409472
 30
0.0
 41
1.0
 10
-4813.434384036289
 20
-5351.126063924104
 30
0.0
 41
1.0
 10
-4814.545972408916
 20
-5351.210420275277
 30
0.0
 41
1.0
 10
-4914.766893692231
 20
-5358.815911942367
 30
0.0
 41
1.0
 10
-5014.987814975546
 20
-5366.42140360946
 30
0.0
 41
1.0
 10
-5115.208736258825
 20
-5374.026895276837
 30
0.0
 41
1.0
  0
SPLINE
  5
11F
330
1F
100
AcDbEntity
  8
2D
100
AcDbSpline
210
0.0
220
0.0
230
1.0
 70
     8
 71
     3
 72
     8
 73
     4
 74
     0
 42
0.0000000001
 43
0.0000000001
 40
-31.36680624864821
 40
-31.36680624864821
 40
-31.36680624864821
 40
-31.36680624864821
 40
0.0
 40
0.0
 40
0.0
 40
0.0
 10
-5115.208736258825
 20
-5374.026895276837
 30
0.0
 10
-5125.634351469558
 20
-5374.818199511959
 30
0.0
 10
-5136.059968230329
 20
-5375.609483330877
 30
0.0
 10
-5146.485586540162
 20
-5376.400746733639
 30
0.0
  0
SPLINE
  5
120
330
1F
100
AcDbEntity
  8
2D
100
AcDbSpline
210
0.0
220
0.0
230
1.0
 70
    12
 71
     3
 72
    91
 73
    87
 74
     0
 42
0.0000000001
 43
0.0000000001
 40
0.0
 40
0.0
 40
0.0
 40
0.0
 40
2.242613583266835
 40
4.485230646466967
 40
6.727847709666396
 40
8.970464772866528
 40
11.21308183606596
 40
13.17131946839667
 40
15.12955710072809
 40
17.0877947330588
 40
19.04603236538951
 40
21.00426999772023
 40
22.96250763005164
 40
24.92074526238305
 40
26.87898289471307
 40
28.83722052704448
 40
30.7954581593752
 40
32.75369579170591
 40
34.71193342403733
 40
36.67017105636804
 40
38.62840868869875
 40
40.58664632102946
 40
42.54488395336087
 40
44.50312158569159
 40
44.50312158569159
 40
44.50312158569159
 40
351.9473233802746
 40
351.9473233802746
 40
351.9473233802746
 40
353.9055610126053
 40
355.8637986449368
 40
357.8220362772674
 40
359.7802739095982
 40
361.7385115419289
 40
363.6967491742603
 40
365.654986806591
 40
367.6132244389217
 40
369.5714620712531
 40
371.5296997035838
 40
373.4879373359146
 40
375.446174968246
 40
377.4044126005767
 40
379.3626502329074
 40
381.3208878652381
 40
383.2791254975688
 40
385.2373631299002
 40
387.4799801930997
 40
389.7225972562998
 40
391.9652143194992
 40
394.2078313826994
 40
396.4504484458988
 40
398.6930655090989
 40
400.9356825722983
 40
403.1782996354978
 40
405.4209166986979
 40
407.6635337618981
 40
409.9061508250975
 40
412.1487678882976
 40
414.3913849514971
 40
416.6340020146972
 40
416.6340020146972
 40
416.6340020146972
 40
649.3169845307401
 40
649.3169845307401
 40
649.3169845307401
 40
651.8977602789283
 40
654.5546627599292
 40
657.2646636910597
 40
660.0023100431791
 40
662.7412356275503
 40
665.4557248904955
 40
668.1220814244188
 40
670.7196294009196
 40
673.2312901856586
 40
673.2312901856586
 40
673.2312901856586
 40
815.9041516475509
 40
815.9041516475509
 40
815.9041516475509
 40
824.1047557931515
 40
824.1047557931515
 40
824.1047557931515
 40
1071.86936627737
 40
1071.86936627737
 40
1071.86936627737
 40
1075.969669174026
 40
1075.969669174026
 40
1075.969669174026
 40
1075.969669174026
 10
-5146.485586540162
 20
-5376.400746733639
 30
0.0
 41
1.0
 10
-5147.644852242447
 20
-5376.492990155976
 30
0.0
 41
1.0
 10
-5149.967818609726
 20
-5376.692573997048
 30
0.0
 41
1.0
 10
-5153.445614488952
 20
-5376.802542955722
 30
0.0
 41
1.0
 10
-5156.933467377869
 20
-5376.656303907082
 30
0.0
 41
1.0
 10
-5160.408930463211
 20
-5376.267078906291
 30
0.0
 41
1.0
 10
-5163.639137716935
 20
-5375.681466026767
 30
0.0
 41
1.0
 10
-5166.938598321609
 20
-5374.851460509036
 30
0.0
 41
1.0
 10
-5169.965225364554
 20
-5373.875207737963
 30
0.0
 41
1.0
 10
-5172.933137745764
 20
-5372.706888178857
 30
0.0
 41
1.0
 10
-5175.815858689217
 20
-5371.353937256504
 30
0.0
 41
1.0
 10
-5178.624042417832
 20
-5369.809671144779
 30
0.0
 41
1.0
 10
-5181.306907496764
 20
-5368.103320947678
 30
0.0
 41
1.0
 10
-5183.901367391623
 20
-5366.209884908677
 30
0.0
 41
1.0
 10
-5186.340200665065
 20
-5364.179287728396
 30
0.0
 41
1.0
 10
-5188.665959387345
 20
-5361.978209051551
 30
0.0
 41
1.0
 10
-5190.835826559531
 20
-5359.643814754645
 30
0.0
 41
1.0
 10
-5192.857340500064
 20
-5357.170646917032
 30
0.0
 41
1.0
 10
-5194.715448280302
 20
-5354.57504137451
 30
0.0
 41
1.0
 10
-5196.402183123424
 20
-5351.870505291772
 30
0.0
 41
1.0
 10
-5197.916915580532
 20
-5349.05608428663
 30
0.0
 41
1.0
 10
-5199.245243037738
 20
-5346.160655149179
 30
0.0
 41
1.0
 10
-5200.391858976462
 20
-5343.168102783053
 30
0.0
 41
1.0
 10
-5201.025785033082
 20
-5341.141066850863
 30
0.0
 41
1.0
 10
-5201.354300505584
 20
-5340.129994257461
 30
0.0
 41
1.0
 10
-5242.392393647493
 20
-5213.827730597514
 30
0.0
 41
1.0
 10
-5283.431230632319
 20
-5087.523177624558
 30
0.0
 41
1.0
 10
-5324.469200694988
 20
-4961.221292763546
 30
0.0
 41
1.0
 10
-5324.797717630045
 20
-4960.210224446546
 30
0.0
 41
1.0
 10
-5325.476318514553
 20
-4958.19771173739
 30
0.0
 41
1.0
 10
-5326.307658404847
 20
-4955.102732136105
 30
0.0
 41
1.0
 10
-5326.934902587251
 20
-4951.979520147659
 30
0.0
 41
1.0
 10
-5327.363726140771
 20
-4948.8122796738
 30
0.0
 41
1.0
 10
-5327.588807745262
 20
-4945.632838060996
 30
0.0
 41
1.0
 10
-5327.611217608057
 20
-4942.440793177524
 30
0.0
 41
1.0
 10
-5327.429461711807
 20
-4939.251755245611
 30
0.0
 41
1.0
 10
-5327.046116228077
 20
-4936.087788030509
 30
0.0
 41
1.0
 10
-5326.45829058743
 20
-4932.940045111201
 30
0.0
 41
1.0
 10
-5325.678779075621
 20
-4929.863761265316
 30
0.0
 41
1.0
 10
-5324.692741402992
 20
-4926.806968520693
 30
0.0
 41
1.0
 10
-5323.525216094044
 20
-4923.849568202165
 30
0.0
 41
1.0
 10
-5322.161035061283
 20
-4920.949636475436
 30
0.0
 41
1.0
 10
-5320.624099910208
 20
-4918.160670109354
 30
0.0
 41
1.0
 10
-5318.909719810843
 20
-4915.470999437385
 30
0.0
 41
1.0
 10
-5317.034944573832
 20
-4912.902202375759
 30
0.0
 41
1.0
 10
-5314.853479770092
 20
-4910.291355215275
 30
0.0
 41
1.0
 10
-5312.584392176665
 20
-4907.918931234868
 30
0.0
 41
1.0
 10
-5310.001454080513
 20
-4905.56123135196
 30
0.0
 41
1.0
 10
-5307.265669095439
 20
-4903.392828329761
 30
0.0
 41
1.0
 10
-5304.387423934109
 20
-4901.43761181041
 30
0.0
 41
1.0
 10
-5301.392464577522
 20
-4899.631717115689
 30
0.0
 41
1.0
 10
-5298.434886171701
 20
-4897.796998510302
 30
0.0
 41
1.0
 10
-5295.464722776989
 20
-4895.968422994682
 30
0.0
 41
1.0
 10
-5292.499288978845
 20
-4894.139042317196
 30
0.0
 41
1.0
 10
-5289.527796576636
 20
-4892.306926609508
 30
0.0
 41
1.0
 10
-5286.573343073393
 20
-4890.485053532171
 30
0.0
 41
1.0
 10
-5283.597151457929
 20
-4888.649850273189
 30
0.0
 41
1.0
 10
-5280.633207083709
 20
-4886.822183075963
 30
0.0
 41
1.0
 10
-5277.66219414286
 20
-4884.990165203583
 30
0.0
 41
1.0
 10
-5275.687784771802
 20
-4883.772684854432
 30
0.0
 41
1.0
 10
-5274.699796510798
 20
-4883.163462109164
 30
0.0
 41
1.0
 10
-5189.149064574332
 20
-4830.407911103138
 30
0.0
 41
1.0
 10
-5103.59833263787
 20
-4777.652360097111
 30
0.0
 41
1.0
 10
-5018.047600701415
 20
-4724.89680909109
 30
0.0
 41
1.0
 10
-5017.098723398056
 20
-4724.311679560726
 30
0.0
 41
1.0
 10
-5015.16435285304
 20
-4723.133132439866
 30
0.0
 41
1.0
 10
-5012.25922573539
 20
-4721.407420874461
 30
0.0
 41
1.0
 10
-5009.379005407551
 20
-4719.743752473109
 30
0.0
 41
1.0
 10
-5006.610760376308
 20
-4718.195277437569
 30
0.0
 41
1.0
 10
-5004.039420713365
 20
-4716.811076569379
 30
0.0
 41
1.0
 10
-5001.740455765655
 20
-4715.631813038918
 30
0.0
 41
1.0
 10
-4999.772234273689
 20
-4714.685606998046
 30
0.0
 41
1.0
 10
-4998.171783796948
 20
-4713.986124744962
 30
0.0
 41
1.0
 10
-4997.343127121996
 20
-4713.677737541911
 30
0.0
 41
1.0
 10
-4996.993965143713
 20
-4713.564287937991
 30
0.0
 41
1.0
 10
-4977.160102411115
 20
-4707.11987572426
 30
0.0
 41
1.0
 10
-4957.326239678514
 20
-4700.675463510532
 30
0.0
 41
1.0
 10
-4937.492376945909
 20
-4694.2310512968
 30
0.0
 41
1.0
 10
-4936.352360170597
 20
-4693.860632020526
 30
0.0
 41
1.0
 10
-4935.212343395284
 20
-4693.49021274425
 30
0.0
 41
1.0
 10
-4934.072326619971
 20
-4693.119793467977
 30
0.0
 41
1.0
 10
-4899.628987192475
 20
-4681.92847366506
 30
0.0
 41
1.0
 10
-4865.185647764974
 20
-4670.737153862142
 30
0.0
 41
1.0
 10
-4830.742308337467
 20
-4659.545834059225
 30
0.0
 41
1.0
 10
-4830.172299160426
 20
-4659.36062685057
 30
0.0
 41
1.0
 10
-4829.602289983381
 20
-4659.175419641917
 30
0.0
 41
1.0
 10
-4829.032280806336
 20
-4658.990212433262
 30
0.0
 41
1.0
  0
SPLINE
  5
121
330
1F
100
AcDbEntity
  8
2D
100
AcDbSpline
210
0.0
220
0.0
230
1.0
 70
    12
 71
     3
 72
    13
 73
     9
 74
     0
 42
0.0000000001
 43
0.0000000001
 40
0.0
 40
0.0
 40
0.0
 40
0.0
 40
63.99854076328518
 40
63.99854076328518
 40
63.99854076328518
 40
64.63430418424039
 40
65.32432376924801
 40
65.55475978694581
 40
65.55475978694581
 40
65.55475978694581
 40
65.55475978694581
 10
-4829.032280806336
 20
-4658.990212433262
 30
0.0
 41
1.0
 10
-4808.515632948496
 20
-4652.32394942199
 30
0.0
 41
1.0
 10
-4787.998985090664
 20
-4645.657686410716
 30
0.0
 41
1.0
 10
-4767.482337232825
 20
-4638.991423399439
 30
0.0
 41
1.0
 10
-4767.278524238187
 20
-4638.925200543136
 30
0.0
 41
1.0
 10
-4766.95531876243
 20
-4638.854480452853
 30
0.0
 41
1.0
 10
-4766.843031611505
 20
-4638.940385912942
 30
0.0
 41
1.0
 10
-4766.88682480442
 20
-4639.058243418196
 30
0.0
 41
1.0
 10
-4766.904552548753
 20
-4639.091876205337
 30
0.0
 41
1.0
  0
SPLINE
  5
122
330
1F
100
AcDbEntity
  8
2D
100
AcDbSpline
210
0.0
220
0.0
230
1.0
 70
     8
 71
     3
 72
    10
 73
     6
 74
     0
 42
0.0000000001
 43
0.0000000001
 40
-20.66389800251475
 40
-20.66389800251475
 40
-20.66389800251475
 40
-20.66389800251475
 40
-10.31422035978734
 40
-10.31422035978734
 40
0.0
 40
0.0
 40
0.0
 40
0.0
 10
-4766.904552548753
 20
-4639.091876205337
 30
0.0
 10
-4768.515436210222
 20
-4642.148117112554
 30
0.0
 10
-4770.654774783303
 20
-4644.892035772596
 30
0.0
 10
-4775.365214775975
 20
-4649.864134696137
 30
0.0
 10
-4778.013725342083
 20
-4652.172865885357
 30
0.0
 10
-4780.673716047771
 20
-4654.306765975429
 30
0.0
  0
SPLINE
  5
123
330
1F
100
AcDbEntity
  8
2D
100
AcDbSpline
210
0.0
220
0.0
230
1.0
 70
     8
 71
     3
 72
     8
 73
     4
 74
     0
 42
0.0000000001
 43
0.0000000001
 40
-5.939721802971579
 40
-5.939721802971579
 40
-5.939721802971579
 40
-5.939721802971579
 40
0.0
 40
0.0
 40
0.0
 40
0.0
 10
-3555.782405820129
 20
-5545.064526988432
 30
0.0
 10
-3555.086438569622
 20
-5543.210973003585
 30
0.0
 10
-3554.330054224611
 20
-5541.37899748199
 30
0.0
 10
-3553.515630432357
 20
-5539.574351614985
 30
0.0
  0
SPLINE
  5
124
330
1F
100
AcDbEntity
  8
2D
100
AcDbSpline
210
0.0
220
0.0
230
1.0
 70
     8
 71
     3
 72
     8
 73
     4
 74
     0
 42
0.0000000001
 43
0.0000000001
 40
-0.1501552434159726
 40
-0.1501552434159726
 40
-0.1501552434159726
 40
-0.1501552434159726
 40
0.0
 40
0.0
 40
0.0
 40
0.0
 10
-3553.515630432357
 20
-5539.574351614985
 30
0.0
 10
-3553.494922375143
 20
-5539.528784589291
 30
0.0
 10
-3553.474165421896
 20
-5539.483239759546
 30
0.0
 10
-3553.453359546802
 20
-5539.437717304279
 30
0.0
  0
SPLINE
  5
125
330
1F
100
AcDbEntity
  8
2D
100
AcDbSpline
210
0.0
220
0.0
230
1.0
 70
     8
 71
     3
 72
     8
 73
     4
 74
     0
 42
0.0000000001
 43
0.0000000001
 40
-0.8252789005178678
 40
-0.8252789005178678
 40
-0.8252789005178678
 40
-0.8252789005178678
 40
0.0
 40
0.0
 40
0.0
 40
0.0
 10
-3553.453359546802
 20
-5539.437717304279
 30
0.0
 10
-3553.339018677318
 20
-5539.187512766021
 30
0.0
 10
-3553.22319584664
 20
-5538.937980149498
 30
0.0
 10
-3553.105903168449
 20
-5538.689145730521
 30
0.0
  0
SPLINE
  5
126
330
1F
100
AcDbEntity
  8
2D
100
AcDbSpline
210
0.0
220
0.0
230
1.0
 70
     8
 71
     3
 72
     8
 73
     4
 74
     0
 42
0.0000000001
 43
0.0000000001
 40
-0.1440171821965976
 40
-0.1440171821965976
 40
-0.1440171821965976
 40
-0.1440171821965976
 40
0.0
 40
0.0
 40
0.0
 40
0.0
 10
-3553.105903168449
 20
-5538.689145730521
 30
0.0
 10
-3553.085435482772
 20
-5538.645721961543
 30
0.0
 10
-3553.064919566736
 20
-5538.602320900083
 30
0.0
 10
-3553.044355405753
 20
-5538.558942723481
 30
0.0
  0
SPLINE
  5
127
330
1F
100
AcDbEntity
  8
2D
100
AcDbSpline
210
0.0
220
0.0
230
1.0
 70
     8
 71
     3
 72
     8
 73
     4
 74
     0
 42
0.0000000001
 43
0.0000000001
 40
-2.260536727640599
 40
-2.260536727640599
 40
-2.260536727640599
 40
-2.260536727640599
 40
0.0
 40
0.0
 40
0.0
 40
0.0
 10
-3553.044355405753
 20
-5538.558942723481
 30
0.0
 10
-3552.721909368291
 20
-5537.877907285948
 30
0.0
 10
-3552.386819614938
 20
-5537.202659057161
 30
0.0
 10
-3552.03947853791
 20
-5536.533977608504
 30
0.0
  0
SPLINE
  5
128
330
1F
100
AcDbEntity
  8
2D
100
AcDbSpline
210
0.0
220
0.0
230
1.0
 70
     8
 71
     3
 72
     8
 73
     4
 74
     0
 42
0.0000000001
 43
0.0000000001
 40
-0.1273043555156395
 40
-0.1273043555156395
 40
-0.1273043555156395
 40
-0.1273043555156395
 40
0.0
 40
0.0
 40
0.0
 40
0.0
 10
-3552.03947853791
 20
-5536.533977608504
 30
0.0
 10
-3552.019905759371
 20
-5536.496326348802
 30
0.0
 10
-3552.000287311563
 20
-5536.45869881569
 30
0.0
 10
-3551.980623262061
 20
-5536.421095084324
 30
0.0
  0
SPLINE
  5
129
330
1F
100
AcDbEntity
  8
2D
100
AcDbSpline
210
0.0
220
0.0
230
1.0
 70
     8
 71
     3
 72
     8
 73
     4
 74
     0
 42
0.0000000001
 43
0.0000000001
 40
-0.8261685768850889
 40
-0.8261685768850889
 40
-0.8261685768850889
 40
-0.8261685768850889
 40
0.0
 40
0.0
 40
0.0
 40
0.0
 10
-3551.980623262061
 20
-5536.421095084324
 30
0.0
 10
-3551.852930378685
 20
-5536.177099286559
 30
0.0
 10
-3551.723460949863
 20
-5535.934024954199
 30
0.0
 10
-3551.592234943913
 20
-5535.691911082366
 30
0.0
  0
SPLINE
  5
12A
330
1F
100
AcDbEntity
  8
2D
100
AcDbSpline
210
0.0
220
0.0
230
1.0
 70
     8
 71
     3
 72
     8
 73
     4
 74
     0
 42
0.0000000001
 43
0.0000000001
 40
-0.1171575481533335
 40
-0.1171575481533335
 40
-0.1171575481533335
 40
-0.1171575481533335
 40
0.0
 40
0.0
 40
0.0
 40
0.0
 10
-3551.592234943913
 20
-5535.691911082366
 30
0.0
 10
-3551.57361967703
 20
-5535.657580762396
 30
0.0
 10
-3551.554963491137
 20
-5535.623272617562
 30
0.0
 10
-3551.536266477837
 20
-5535.58898669098
 30
0.0
  0
SPLINE
  5
12B
330
1F
100
AcDbEntity
  8
2D
100
AcDbSpline
210
0.0
220
0.0
230
1.0
 70
     8
 71
     3
 72
     8
 73
     4
 74
     0
 42
0.0000000001
 43
0.0000000001
 40
-2.247918302194154
 40
-2.247918302194154
 40
-2.247918302194154
 40
-2.247918302194154
 40
0.0
 40
0.0
 40
0.0
 40
0.0
 10
-3551.536266477837
 20
-5535.58898669098
 30
0.0
 10
-3551.177825991108
 20
-5534.930974438388
 30
0.0
 10
-3550.804054750402
 20
-5534.280996246225
 30
0.0
 10
-3550.41562428615
 20
-5533.640229979306
 30
0.0
  0
SPLINE
  5
12C
330
1F
100
AcDbEntity
  8
2D
100
AcDbSpline
210
0.0
220
0.0
230
1.0
 70
     8
 71
     3
 72
     8
 73
     4
 74
     0
 42
0.0000000001
 43
0.0000000001
 40
-1.029466438889888
 40
-1.029466438889888
 40
-1.029466438889888
 40
-1.029466438889888
 40
0.0
 40
0.0
 40
0.0
 40
0.0
 10
-3550.41562428615
 20
-5533.640229979306
 30
0.0
 10
-3550.237590628381
 20
-5533.346870643347
 30
0.0
 10
-3550.056089105026
 20
-5533.055588104051
 30
0.0
 10
-3549.871195193136
 20
-5532.766503452451
 30
0.0
  0
SPLINE
  5
12D
330
1F
100
AcDbEntity
  8
2D
100
AcDbSpline
210
0.0
220
0.0
230
1.0
 70
     8
 71
     3
 72
     8
 73
     4
 74
     0
 42
0.0000000001
 43
0.0000000001
 40
-0.8504382601720326
 40
-0.8504382601720326
 40
-0.8504382601720326
 40
-0.8504382601720326
 40
0.0
 40
0.0
 40
0.0
 40
0.0
 10
-3549.871195193136
 20
-5532.766503452451
 30
0.0
 10
-3549.718443832615
 20
-5532.527698903081
 30
0.0
 10
-3549.563222878289
 20
-5532.290455712481
 30
0.0
 10
-3549.40558210891
 20
-5532.054850174685
 30
0.0
  0
SPLINE
  5
12E
330
1F
100
AcDbEntity
  8
2D
100
AcDbSpline
210
0.0
220
0.0
230
1.0
 70
     8
 71
     3
 72
     8
 73
     4
 74
     0
 42
0.0000000001
 43
0.0000000001
 40
-0.083842002365865
 40
-0.083842002365865
 40
-0.083842002365865
 40
-0.083842002365865
 40
0.0
 40
0.0
 40
0.0
 40
0.0
 10
-3549.40558210891
 20
-5532.054850174685
 30
0.0
 10
-3549.390040669117
 20
-5532.03162266652
 30
0.0
 10
-3549.374474174292
 20
-5532.008411908104
 30
0.0
 10
-3549.358882622819
 20
-5531.985217986934
 30
0.0
  0
SPLINE
  5
12F
330
1F
100
AcDbEntity
  8
2D
100
AcDbSpline
210
0.0
220
0.0
230
1.0
 70
     8
 71
     3
 72
     8
 73
     4
 74
     0
 42
0.0000000001
 43
0.0000000001
 40
-0.8555330369600271
 40
-0.8555330369600271
 40
-0.8555330369600271
 40
-0.8555330369600271
 40
0.0
 40
0.0
 40
0.0
 40
0.0
 10
-3549.358882622819
 20
-5531.985217986934
 30
0.0
 10
-3549.199801311977
 20
-5531.748533692919
 30
0.0
 10
-3549.038113900384
 20
-5531.513579485691
 30
0.0
 10
-3548.873879451374
 20
-5531.2804414271
 30
0.0
  0
SPLINE
  5
130
330
1F
100
AcDbEntity
  8
2D
100
AcDbSpline
210
0.0
220
0.0
230
1.0
 70
     8
 71
     3
 72
     8
 73
     4
 74
     0
 42
0.0000000001
 43
0.0000000001
 40
-0.0785113573685376
 40
-0.0785113573685376
 40
-0.0785113573685376
 40
-0.0785113573685376
 40
0.0
 40
0.0
 40
0.0
 40
0.0
 10
-3548.873879451374
 20
-5531.2804414271
 30
0.0
 10
-3548.858807656539
 20
-5531.259046717855
 30
0.0
 10
-3548.84371301471
 20
-5531.237668090097
 30
0.0
 10
-3548.828595530365
 20
-5531.216305618535
 30
0.0
  0
SPLINE
  5
131
330
1F
100
AcDbEntity
  8
2D
100
AcDbSpline
210
0.0
220
0.0
230
1.0
 70
     8
 71
     3
 72
     8
 73
     4
 74
     0
 42
0.0000000001
 43
0.0000000001
 40
-0.8615680167626657
 40
-0.8615680167626657
 40
-0.8615680167626657
 40
-0.8615680167626657
 40
0.0
 40
0.0
 40
0.0
 40
0.0
 10
-3548.828595530365
 20
-5531.216305618535
 30
0.0
 10
-3548.662716261155
 20
-5530.981866298544
 30
0.0
 10
-3548.494090871714
 20
-5530.749344614002
 30
0.0
 10
-3548.322789456852
 20
-5530.518837473835
 30
0.0
  0
SPLINE
  5
132
330
1F
100
AcDbEntity
  8
2D
100
AcDbSpline
210
0.0
220
0.0
230
1.0
 70
     8
 71
     3
 72
     8
 73
     4
 74
     0
 42
0.0000000001
 43
0.0000000001
 40
-0.0731331433166173
 40
-0.0731331433166173
 40
-0.0731331433166173
 40
-0.0731331433166173
 40
0.0
 40
0.0
 40
0.0
 40
0.0
 10
-3548.322789456852
 20
-5530.518837473835
 30
0.0
 10
-3548.308248531415
 20
-5530.499271318109
 30
0.0
 10
-3548.29368707403
 20
-5530.479720408916
 30
0.0
 10
-3548.279105094116
 20
-5530.460184807691
 30
0.0
  0
SPLINE
  5
133
330
1F
100
AcDbEntity
  8
2D
100
AcDbSpline
210
0.0
220
0.0
230
1.0
 70
     8
 71
     3
 72
     8
 73
     4
 74
     0
 42
0.0000000001
 43
0.0000000001
 40
-0.8685883903536826
 40
-0.8685883903536826
 40
-0.8685883903536826
 40
-0.8685883903536826
 40
0.0
 40
0.0
 40
0.0
 40
0.0
 10
-3548.279105094116
 20
-5530.460184807691
 30
0.0
 10
-3548.1059350389
 20
-5530.228151506714
 30
0.0
 10
-3547.929876288723
 20
-5529.998244035342
 30
0.0
 10
-3547.751012021206
 20
-5529.770571278899
 30
0.0
  0
SPLINE
  5
134
330
1F
100
AcDbEntity
  8
2D
100
AcDbSpline
210
0.0
220
0.0
230
1.0
 70
    12
 71
     2
 72
     6
 73
     3
 74
     0
 42
0.0000000001
 43
0.0000000001
 40
-2.844443702006881
 40
-2.844443702006881
 40
-2.844443702006881
 40
0.0
 40
0.0
 40
0.0
 10
-3547.751012021207
 20
-5529.770571278899
 30
0.0
 41
0.9999999999999978
 10
-3546.872702674335
 20
-5528.650423985575
 30
0.0
 41
0.9990032041083038
 10
-3545.897987763199
 20
-5527.613077319771
 30
0.0
 41
0.999999999999243
  0
SPLINE
  5
135
330
1F
100
AcDbEntity
  8
2D
100
AcDbSpline
210
0.0
220
0.0
230
1.0
 70
     8
 71
     3
 72
     8
 73
     4
 74
     0
 42
0.0000000001
 43
0.0000000001
 40
-0.0512505010602012
 40
-0.0512505010602012
 40
-0.0512505010602012
 40
-0.0512505010602012
 40
0.0
 40
0.0
 40
0.0
 40
0.0
 10
-3545.897987763201
 20
-5527.613077319771
 30
0.0
 10
-3545.886277018897
 20
-5527.600639303257
 30
0.0
 10
-3545.874555915882
 20
-5527.58821102898
 30
0.0
 10
-3545.86282447723
 20
-5527.575792529306
 30
0.0
  0
SPLINE
  5
136
330
1F
100
AcDbEntity
  8
2D
100
AcDbSpline
210
0.0
220
0.0
230
1.0
 70
     8
 71
     3
 72
     8
 73
     4
 74
     0
 42
0.0000000001
 43
0.0000000001
 40
-0.4271193919760004
 40
-0.4271193919760004
 40
-0.4271193919760004
 40
-0.4271193919760004
 40
0.0
 40
0.0
 40
0.0
 40
0.0
 10
-3545.86282447723
 20
-5527.575792529306
 30
0.0
 10
-3545.765064098949
 20
-5527.472288833073
 30
0.0
 10
-3545.666535500077
 20
-5527.369503694627
 30
0.0
 10
-3545.567194021965
 20
-5527.267495013604
 30
0.0
  0
SPLINE
  5
137
330
1F
100
AcDbEntity
  8
2D
100
AcDbSpline
210
0.0
220
0.0
230
1.0
 70
    12
 71
     3
 72
    39
 73
    35
 74
     0
 42
0.0000000001
 43
0.0000000001
 40
0.0
 40
0.0
 40
0.0
 40
0.0
 40
0.3718871541871145
 40
1.484505835598466
 40
2.509639432502496
 40
2.509639432502496
 40
2.509639432502496
 40
105.7037713316971
 40
105.7037713316971
 40
105.7037713316971
 40
108.5707892692912
 40
108.5707892692912
 40
108.5707892692912
 40
281.813045512324
 40
281.813045512324
 40
281.813045512324
 40
287.547081387517
 40
287.547081387517
 40
287.547081387517
 40
387.3069638929859
 40
387.3069638929859
 40
387.3069638929859
 40
389.0631702395308
 40
390.879430727215
 40
392.7438036136661
 40
394.641831922337
 40
396.5569466238186
 40
398.4711668590512
 40
400.3660568311816
 40
402.2238192438601
 40
404.0283522347473
 40
404.0283522347473
 40
404.0283522347473
 40
566.7252206391398
 40
566.7252206391398
 40
566.7252206391398
 40
566.7252206391398
 10
-3545.567194021965
 20
-5527.267495013604
 30
0.0
 41
1.0
 10
-3545.540648351089
 20
-5527.240215214302
 30
0.0
 41
1.0
 10
-3545.44206423749
 20
-5527.162101299249
 30
0.0
 41
1.0
 10
-3545.325649727823
 20
-5527.2423567674
 30
0.0
 41
1.0
 10
-3545.293032545833
 20
-5527.571597150951
 30
0.0
 41
1.0
 10
-3545.293032545826
 20
-5527.785898815631
 30
0.0
 41
1.0
 10
-3545.293032550671
 20
-5549.35837906206
 30
0.0
 41
1.0
 10
-3545.293032555521
 20
-5570.930859308492
 30
0.0
 41
1.0
 10
-3545.293032560367
 20
-5592.50333955492
 30
0.0
 41
1.0
 10
-3545.293032561684
 20
-5593.102682676859
 30
0.0
 41
1.0
 10
-3545.293032563004
 20
-5593.70202579881
 30
0.0
 41
1.0
 10
-3545.293032564325
 20
-5594.301368920749
 30
0.0
 41
1.0
 10
-3545.293032592013
 20
-5630.51723787785
 30
0.0
 41
1.0
 10
-3545.293032619709
 20
-5666.733106834939
 30
0.0
 41
1.0
 10
-3545.293032647402
 20
-5702.94897579204
 30
0.0
 41
1.0
 10
-3545.293027538384
 20
-5704.1476620263
 30
0.0
 41
1.0
 10
-3545.29302242936
 20
-5705.34634826056
 30
0.0
 41
1.0
 10
-3545.293017320342
 20
-5706.54503449482
 30
0.0
 41
1.0
 10
-3545.293017286487
 20
-5727.39959318569
 30
0.0
 41
1.0
 10
-3545.293017252628
 20
-5748.254151876552
 30
0.0
 41
1.0
 10
-3545.293017218773
 20
-5769.108710567421
 30
0.0
 41
1.0
 10
-3545.293017218773
 20
-5769.475841197729
 30
0.0
 41
1.0
 10
-3545.330241882715
 20
-5770.35923741479
 30
0.0
 41
1.0
 10
-3545.500922641571
 20
-5772.097508173179
 30
0.0
 41
1.0
 10
-3545.792604172791
 20
-5774.26179179545
 30
0.0
 41
1.0
 10
-3546.203731199552
 20
-5776.81264986146
 30
0.0
 41
1.0
 10
-3546.725596800949
 20
-5779.685880795399
 30
0.0
 41
1.0
 10
-3547.342849314569
 20
-5782.797143372421
 30
0.0
 41
1.0
 10
-3548.035054959779
 20
-5786.050497492592
 30
0.0
 41
1.0
 10
-3548.778570539132
 20
-5789.3467117696
 30
0.0
 41
1.0
 10
-3549.301682086356
 20
-5791.55059857038
 30
0.0
 41
1.0
 10
-3549.56495412677
 20
-5792.633849481701
 30
0.0
 41
1.0
 10
-3573.301669585617
 20
-5890.299835913009
 30
0.0
 41
1.0
 10
-3597.038385044456
 20
-5987.965822344317
 30
0.0
 41
1.0
 10
-3620.775100503015
 20
-6085.631808775681
 30
0.0
 41
1.0
  0
SPLINE
  5
138
330
1F
100
AcDbEntity
  8
2D
100
AcDbSpline
210
0.0
220
0.0
230
1.0
 70
     8
 71
     3
 72
     8
 73
     4
 74
     0
 42
0.0000000001
 43
0.0000000001
 40
-31.36680624864844
 40
-31.36680624864844
 40
-31.36680624864844
 40
-31.36680624864844
 40
0.0
 40
0.0
 40
0.0
 40
0.0
 10
-3620.775100503015
 20
-6085.631808775681
 30
0.0
 10
-3623.24421773076
 20
-6095.791684514609
 30
0.0
 10
-3625.713354854459
 20
-6105.951555418753
 30
0.0
 10
-3628.182511873762
 20
-6116.111421487205
 30
0.0
  0
SPLINE
  5
139
330
1F
100
AcDbEntity
  8
2D
100
AcDbSpline
210
0.0
220
0.0
230
1.0
 70
    12
 71
     3
 72
    91
 73
    87
 74
     0
 42
0.0000000001
 43
0.0000000001
 40
0.0
 40
0.0
 40
0.0
 40
0.0
 40
2.242613583269633
 40
4.485230646469764
 40
6.727847709669195
 40
8.970464772869327
 40
11.21308183606876
 40
13.17131946839947
 40
15.12955710073089
 40
17.0877947330616
 40
19.04603236539231
 40
21.00426999772303
 40
22.96250763005445
 40
24.92074526238586
 40
26.87898289471587
 40
28.83722052704729
 40
30.795458159378
 40
32.75369579170872
 40
34.71193342404013
 40
36.67017105637084
 40
38.62840868870156
 40
40.58664632103228
 40
42.54488395336369
 40
44.5031215856944
 40
44.5031215856944
 40
44.5031215856944
 40
351.9473233802775
 40
351.9473233802775
 40
351.9473233802775
 40
353.9055610126082
 40
355.8637986449397
 40
357.8220362772703
 40
359.7802739096011
 40
361.7385115419318
 40
363.6967491742632
 40
365.654986806594
 40
367.6132244389246
 40
369.5714620712561
 40
371.5296997035867
 40
373.4879373359175
 40
375.4461749682489
 40
377.4044126005796
 40
379.3626502329104
 40
381.320887865241
 40
383.2791254975718
 40
385.2373631299032
 40
387.4799801931026
 40
389.7225972563027
 40
391.9652143195021
 40
394.2078313827023
 40
396.4504484459018
 40
398.6930655091019
 40
400.9356825723013
 40
403.1782996355007
 40
405.4209166987009
 40
407.663533761901
 40
409.9061508251004
 40
412.1487678883005
 40
414.3913849515
 40
416.6340020147001
 40
416.6340020147001
 40
416.6340020147001
 40
649.3169845307432
 40
649.3169845307432
 40
649.3169845307432
 40
651.8977602789314
 40
654.5546627599322
 40
657.2646636910628
 40
660.0023100431822
 40
662.7412356275534
 40
665.4557248904986
 40
668.1220814244218
 40
670.7196294009228
 40
673.2312901856616
 40
673.2312901856616
 40
673.2312901856616
 40
815.9041516475539
 40
815.9041516475539
 40
815.9041516475539
 40
824.1047557931546
 40
824.1047557931546
 40
824.1047557931546
 40
1071.869366277373
 40
1071.869366277373
 40
1071.869366277373
 40
1075.969669174029
 40
1075.969669174029
 40
1075.969669174029
 40
1075.969669174029
 10
-3628.182511873762
 20
-6116.111421487205
 30
0.0
 41
1.0
 10
-3628.453015968866
 20
-6117.242453472603
 30
0.0
 41
1.0
 10
-3628.981036541118
 20
-6119.513400572032
 30
0.0
 41
1.0
 10
-3629.951147876029
 20
-6122.854963282402
 30
0.0
 41
1.0
 10
-3631.168035292729
 20
-6126.126918149012
 30
0.0
 41
1.0
 10
-3632.612187422732
 20
-6129.312002823592
 30
0.0
 41
1.0
 10
-3634.167327304582
 20
-6132.20314814933
 30
0.0
 41
1.0
 10
-3635.976298859896
 20
-6135.084635847261
 30
0.0
 41
1.0
 10
-3637.840049611281
 20
-6137.661450521782
 30
0.0
 41
1.0
 10
-3639.868322904695
 20
-6140.123072333101
 30
0.0
 41
1.0
 10
-3642.045865457192
 20
-6142.44661804347
 30
0.0
 41
1.0
 10
-3644.382326301111
 20
-6144.640155005161
 30
0.0
 41
1.0
 10
-3646.83421267815
 20
-6146.664420111561
 30
0.0
 41
1.0
 10
-3649.436709559966
 20
-6148.546794187021
 30
0.0
 41
1.0
 10
-3652.121563168184
 20
-6150.23877342645
 30
0.0
 41
1.0
 10
-3654.933612356675
 20
-6151.770530697502
 30
0.0
 41
1.0
 10
-3657.824279096094
 20
-6153.11282950179
 30
0.0
 41
1.0
 10
-3660.801083645936
 20
-6154.271152615949
 30
0.0
 41
1.0
 10
-3663.843838092358
 20
-6155.236231904992
 30
0.0
 41
1.0
 10
-3666.937234488931
 20
-6156.004664457339
 30
0.0
 41
1.0
 10
-3670.081985996647
 20
-6156.575556711201
 30
0.0
 41
1.0
 10
-3673.246178503661
 20
-6156.944134385669
 30
0.0
 41
1.0
 10
-3676.446588742907
 20
-6157.109881408191
 30
0.0
 41
1.0
 10
-3678.570308399652
 20
-6157.086392363932
 30
0.0
 41
1.0
 10
-3679.633412441974
 20
-6157.086390530849
 30
0.0
 41
1.0
 10
-3812.435471516186
 20
-6157.086390530842
 30
0.0
 41
1.0
 10
-3945.239937716557
 20
-6157.08639053086
 30
0.0
 41
1.0
 10
-4078.041598497999
 20
-6157.086390530849
 30
0.0
 41
1.0
 10
-4079.104698925174
 20
-6157.086391410221
 30
0.0
 41
1.0
 10
-4081.228411457054
 20
-6157.109878574871
 30
0.0
 41
1.0
 10
-4084.428810128858
 20
-6156.944128500751
 30
0.0
 41
1.0
 10
-4087.592990354227
 20
-6156.57554758627
 30
0.0
 41
1.0
 10
-4090.737728811189
 20
-6156.004651889491
 30
0.0
 41
1.0
 10
-4093.831111516138
 20
-6155.236215725161
 30
0.0
 41
1.0
 10
-4096.873851631317
 20
-6154.2711326554
 30
0.0
 41
1.0
 10
-4099.850641276404
 20
-6153.112805609229
 30
0.0
 41
1.0
 10
-4102.741292644481
 20
-6151.770502749821
 30
0.0
 41
1.0
 10
-4105.553325946821
 20
-6150.238741287851
 30
0.0
 41
1.0
 10
-4108.238163439964
 20
-6148.546757797119
 30
0.0
 41
1.0
 10
-4110.840643700765
 20
-6146.66437933688
 30
0.0
 41
1.0
 10
-4113.292513383167
 20
-6144.64010982627
 30
0.0
 41
1.0
 10
-4115.628957226156
 20
-6142.44656837957
 30
0.0
 41
1.0
 10
-4117.806482781412
 20
-6140.123018185159
 30
0.0
 41
1.0
 10
-4119.834739015154
 20
-6137.66139187334
 30
0.0
 41
1.0
 10
-4121.698472790784
 20
-6135.084572720449
 30
0.0
 41
1.0
 10
-4123.507426298827
 20
-6132.203080261481
 30
0.0
 41
1.0
 10
-4125.062548956714
 20
-6129.311930391899
 30
0.0
 41
1.0
 10
-4126.506683026691
 20
-6126.126840952909
 30
0.0
 41
1.0
 10
-4127.723552797564
 20
-6122.85488143116
 30
0.0
 41
1.0
 10
-4128.693647540233
 20
-6119.513312482819
 30
0.0
 41
1.0
 10
-4129.485662118743
 20
-6116.10688471998
 30
0.0
 41
1.0
 10
-4130.316641214369
 20
-6112.72710127571
 30
0.0
 41
1.0
 10
-4131.137888909001
 20
-6109.337247114881
 30
0.0
 41
1.0
 10
-4131.961363883787
 20
-6105.95164225899
 30
0.0
 41
1.0
 10
-4132.785567815252
 20
-6102.559430157411
 30
0.0
 41
1.0
 10
-4133.605295735724
 20
-6099.186588158571
 30
0.0
 41
1.0
 10
-4134.430983966209
 20
-6095.788952733781
 30
0.0
 41
1.0
 10
-4135.253289581735
 20
-6092.405293898739
 30
0.0
 41
1.0
 10
-4136.077548628
 20
-6089.013568024782
 30
0.0
 41
1.0
 10
-4136.625315198013
 20
-6086.759571008401
 30
0.0
 41
1.0
 10
-4136.899415296881
 20
-6085.6316781531
 30
0.0
 41
1.0
 10
-4160.63629580232
 20
-5987.965735262629
 30
0.0
 41
1.0
 10
-4184.373176307759
 20
-5890.299792372161
 30
0.0
 41
1.0
 10
-4208.110056813199
 20
-5792.633849481701
 30
0.0
 41
1.0
 10
-4208.373328853613
 20
-5791.55059857038
 30
0.0
 41
1.0
 10
-4208.89644040084
 20
-5789.3467117696
 30
0.0
 41
1.0
 10
-4209.63995598019
 20
-5786.050497492592
 30
0.0
 41
1.0
 10
-4210.332161625403
 20
-5782.797143372411
 30
0.0
 41
1.0
 10
-4210.949414139028
 20
-5779.685880795399
 30
0.0
 41
1.0
 10
-4211.471279740421
 20
-5776.812649861449
 30
0.0
 41
1.0
 10
-4211.882406767181
 20
-5774.261791795439
 30
0.0
 41
1.0
 10
-4212.174088298398
 20
-5772.097508173179
 30
0.0
 41
1.0
 10
-4212.344769057258
 20
-5770.359237414801
 30
0.0
 41
1.0
 10
-4212.381993721199
 20
-5769.475841197729
 30
0.0
 41
1.0
 10
-4212.381993721199
 20
-5769.108710567421
 30
0.0
 41
1.0
 10
-4212.38199330229
 20
-5748.25415327948
 30
0.0
 41
1.0
 10
-4212.381992883373
 20
-5727.399595991539
 30
0.0
 41
1.0
 10
-4212.381992464459
 20
-5706.545038703591
 30
0.0
 41
1.0
 10
-4212.381997573477
 20
-5705.346352469331
 30
0.0
 41
1.0
 10
-4212.382002682498
 20
-5704.147666235071
 30
0.0
 41
1.0
 10
-4212.382007791515
 20
-5702.94898000081
 30
0.0
 41
1.0
 10
-4212.382008189899
 20
-5666.733109586739
 30
0.0
 41
1.0
 10
-4212.382008588283
 20
-5630.517239172661
 30
0.0
 41
1.0
 10
-4212.382008986668
 20
-5594.301368758579
 30
0.0
 41
1.0
 10
-4212.382008986668
 20
-5593.702025641449
 30
0.0
 41
1.0
 10
-4212.382008986664
 20
-5593.102682524319
 30
0.0
 41
1.0
 10
-4212.382008986664
 20
-5592.503339407189
 30
0.0
 41
1.0
  0
SPLINE
  5
13A
330
1F
100
AcDbEntity
  8
2D
100
AcDbSpline
210
0.0
220
0.0
230
1.0
 70
    12
 71
     3
 72
    13
 73
     9
 74
     0
 42
0.0000000001
 43
0.0000000001
 40
0.0
 40
0.0
 40
0.0
 40
0.0
 40
63.99854076328621
 40
63.99854076328621
 40
63.99854076328621
 40
64.63430418424143
 40
65.32432376924905
 40
65.55475978694686
 40
65.55475978694686
 40
65.55475978694686
 40
65.55475978694686
 10
-4212.382008986664
 20
-5592.503339407189
 30
0.0
 41
1.0
 10
-4212.382009007197
 20
-5570.930859210001
 30
0.0
 41
1.0
 10
-4212.38200902773
 20
-5549.35837901282
 30
0.0
 41
1.0
 10
-4212.382009048262
 20
-5527.785898815631
 30
0.0
 41
1.0
 10
-4212.382009048259
 20
-5527.571597150962
 30
0.0
 41
1.0
 10
-4212.349391866272
 20
-5527.2423567674
 30
0.0
 41
1.0
 10
-4212.232992280784
 20
-5527.16211158789
 30
0.0
 41
1.0
 10
-4212.134435973265
 20
-5527.240181361421
 30
0.0
 41
1.0
 10
-4212.107927466161
 20
-5527.26743455098
 30
0.0
 41
1.0
  0
SPLINE
  5
13B
330
1F
100
AcDbEntity
  8
2D
100
AcDbSpline
210
0.0
220
0.0
230
1.0
 70
     8
 71
     3
 72
    10
 73
     6
 74
     0
 42
0.0000000001
 43
0.0000000001
 40
-20.66389800251942
 40
-20.66389800251942
 40
-20.66389800251942
 40
-20.66389800251942
 40
-10.31422034741706
 40
-10.31422034741706
 40
0.0
 40
0.0
 40
0.0
 40
0.0
 10
-4212.107927466161
 20
-5527.26743455098
 30
0.0
 10
-4209.699060057483
 20
-5529.74390633948
 30
0.0
 10
-4207.750530321322
 20
-5532.626455713738
 30
0.0
 10
-4204.477389245094
 20
-5538.642813435931
 30
0.0
 10
-4203.100090178024
 20
-5541.875133840975
 30
0.0
 10
-4201.89261292513
 20
-5545.06434672716
 30
0.0
  0
LINE
  5
13C
330
1F
100
AcDbEntity
  8
2D
100
AcDbLine
 10
-5012.519667850775
 20
-5311.555924826253
 30
0.0
 11
-5049.014048638906
 21
-5323.296311433879
 31
0.0
  0
LINE
  5
13D
330
1F
100
AcDbEntity
  8
2D
100
AcDbLine
 10
-2924.093551570091
 20
-3780.781061290703
 30
0.0
 11
-2946.536127884938
 21
-3811.860499674061
 31
0.0
  0
LINE
  5
13E
330
1F
100
AcDbEntity
  8
2D
100
AcDbLine
 10
-2800.544257575344
 20
-4652.740733258523
 30
0.0
 11
-2814.854819685475
 21
-4696.784115905613
 31
0.0
  0
SPLINE
  5
13F
330
1F
100
AcDbEntity
  8
2D
100
AcDbSpline
210
0.0
220
0.0
230
1.0
 70
     8
 71
     3
 72
   114
 73
   110
 74
     0
 42
0.0000000001
 43
0.0000000001
 40
-1098.975988351001
 40
-1098.975988351001
 40
-1098.975988351001
 40
-1098.975988351001
 40
-1090.211722738004
 40
-1090.211722738004
 40
-1085.842116339169
 40
-1085.842116339169
 40
-1081.475241074163
 40
-1081.475241074163
 40
-1072.72274250337
 40
-1072.72274250337
 40
-1063.978533375364
 40
-1063.978533375364
 40
-1047.272469067287
 40
-1047.272469067287
 40
-1029.785121972553
 40
-1029.785121972553
 40
-994.8104174633402
 40
-994.8104174633402
 40
-959.8357145060459
 40
-959.8357145060459
 40
-889.7871756715748
 40
-889.7871756715748
 40
-819.7386368719665
 40
-819.7386368719665
 40
-810.9883767129833
 40
-810.9883767129833
 40
-808.8008116743554
 40
-808.8008116743554
 40
-806.6128669053023
 40
-806.6128669053023
 40
-802.2288768164774
 40
-802.2288768164774
 40
-797.8453067076467
 40
-797.8453067076467
 40
-793.459765793574
 40
-793.459765793574
 40
-784.6403323588836
 40
-784.6403323588836
 40
-780.2542512913125
 40
-780.2542512913125
 40
-775.8668524761677
 40
-775.8668524761677
 40
-767.0562973544743
 40
-767.0562973544743
 40
-749.4762043116347
 40
-749.4762043116347
 40
-745.0847758139075
 40
-745.0847758139075
 40
-740.6954260116178
 40
-740.6954260116178
 40
-731.91686295155
 40
-731.91686295155
 40
-714.3597339944713
 40
-714.3597339944713
 40
-679.245474551978
 40
-679.245474551978
 40
-538.8854350000652
 40
-538.8854350000652
 40
-398.4533960377826
 40
-398.4533960377826
 40
-363.3248259222293
 40
-363.3248259222293
 40
-345.7605454168691
 40
-345.7605454168691
 40
-336.9784053720416
 40
-336.9784053720416
 40
-332.5865507200938
 40
-332.5865507200938
 40
-328.1933277626698
 40
-328.1933277626698
 40
-319.3775791108591
 40
-319.3775791108591
 40
-310.5594800686096
 40
-310.5594800686096
 40
-301.7389709645799
 40
-301.7389709645799
 40
-297.3476123106598
 40
-297.3476123106598
 40
-292.9573984367922
 40
-292.9573984367922
 40
-288.5671584324628
 40
-288.5671584324628
 40
-284.174740250204
 40
-284.174740250204
 40
-275.3340301208409
 40
-275.3340301208409
 40
-270.9426321483714
 40
-270.9426321483714
 40
-269.0719489780673
 40
-269.0719489780673
 40
-260.3090593435853
 40
-260.3090593435853
 40
-190.2964043469468
 40
-190.2964043469468
 40
-120.2837495628458
 40
-120.2837495628458
 40
-68.78940191011215
 40
-68.78940191011215
 40
-51.26184810147719
 40
-51.26184810147719
 40
-34.73047045057444
 40
-34.73047045057444
 40
-25.96695067818375
 40
-25.96695067818375
 40
-17.19426702508612
 40
-17.19426702508612
 40
-8.759227644545708
 40
-8.759227644545708
 40
0.0
 40
0.0
 40
0.0
 40
0.0
 10
-2814.854819685475
 20
-4696.784115905613
 30
0.0
 10
-2814.444349953035
 20
-4699.670424708493
 30
0.0
 10
-2813.336724790068
 20
-4702.29675814544
 30
0.0
 10
-2811.074194147706
 20
-4705.969242787137
 30
0.0
 10
-2810.236525920431
 20
-4707.120997309479
 30
0.0
 10
-2808.456295393724
 20
-4709.36623992807
 30
0.0
 10
-2807.520996639596
 20
-4710.444289694536
 30
0.0
 10
-2804.578223561799
 20
-4713.582601227087
 30
0.0
 10
-2802.477593667496
 20
-4715.504721037185
 30
0.0
 10
-2798.079442118706
 20
-4719.178218172841
 30
0.0
 10
-2795.805505291304
 20
-4720.906008288522
 30
0.0
 10
-2789.046074062066
 20
-4725.776409171206
 30
0.0
 10
-2783.828831004375
 20
-4729.179385469152
 30
0.0
 10
-2774.497582191856
 20
-4735.346106042355
 30
0.0
 10
-2769.734511040097
 20
-4738.513703471438
 30
0.0
 10
-2755.434433972892
 20
-4748.000157105002
 30
0.0
 10
-2745.896008594147
 20
-4754.316847502198
 30
0.0
 10
-2726.818942702372
 20
-4766.949911868662
 30
0.0
 10
-2717.279597411649
 20
-4773.265215686587
 30
0.0
 10
-2688.630794560308
 20
-4792.223397739182
 30
0.0
 10
-2669.519325014535
 20
-4804.863232500723
 30
0.0
 10
-2631.302260693268
 20
-4830.151782288097
 30
0.0
 10
-2612.19483133961
 20
-4842.797723458871
 30
0.0
 10
-2590.700349457798
 20
-4857.023044814853
 30
0.0
 10
-2588.313478868979
 20
-4858.60269984792
 30
0.0
 10
-2585.329883891547
 20
-4860.577258452335
 30
0.0
 10
-2584.733164559224
 20
-4860.972169663714
 30
0.0
 10
-2583.539621559859
 20
-4861.762059500209
 30
0.0
 10
-2582.939233115972
 20
-4862.151493064184
 30
0.0
 10
-2581.17109427445
 20
-4863.375190776216
 30
0.0
 10
-2580.045558858343
 20
-4864.251018859039
 30
0.0
 10
-2577.874555318591
 20
-4866.125378758168
 30
0.0
 10
-2576.843550531459
 20
-4867.111359734035
 30
0.0
 10
-2574.874783407318
 20
-4869.197890074756
 30
0.0
 10
-2573.951057048373
 20
-4870.285410485541
 30
0.0
 10
-2571.330988637343
 20
-4873.720089207322
 30
0.0
 10
-2569.856689521021
 20
-4876.138239434356
 30
0.0
 10
-2567.937335599141
 20
-4880.003370480341
 30
0.0
 10
-2567.359150232973
 20
-4881.308661973289
 30
0.0
 10
-2566.319479599093
 20
-4883.980802713097
 30
0.0
 10
-2565.863021877591
 20
-4885.333918713652
 30
0.0
 10
-2564.666903354315
 20
-4889.477810061218
 30
0.0
 10
-2564.121065737556
 20
-4892.263920747156
 30
0.0
 10
-2563.139697015649
 20
-4900.828479549439
 30
0.0
 10
-2563.412036647049
 20
-4906.586110908378
 30
0.0
 10
-2564.81651585552
 20
-4913.616249768647
 30
0.0
 10
-2565.149384370976
 20
-4915.005694591543
 30
0.0
 10
-2565.921996133584
 20
-4917.764620451507
 30
0.0
 10
-2566.373056122615
 20
-4919.122243324326
 30
0.0
 10
-2567.690480155696
 20
-4923.208516626741
 30
0.0
 10
-2568.56915639573
 20
-4925.932556189489
 30
0.0
 10
-2571.206425251126
 20
-4934.104276125945
 30
0.0
 10
-2572.966257095417
 20
-4939.551554940047
 30
0.0
 10
-2578.25107473115
 20
-4955.891675170058
 30
0.0
 10
-2581.781937240808
 20
-4966.782602101576
 30
0.0
 10
-2599.454228394552
 20
-5021.198195312432
 30
0.0
 10
-2613.671632649661
 20
-5064.698086727654
 30
0.0
 10
-2641.96706218593
 20
-5151.767975499229
 30
0.0
 10
-2656.033765420172
 20
-5195.341501350539
 30
0.0
 10
-2673.732120653334
 20
-5249.778212087627
 30
0.0
 10
-2677.279354947455
 20
-5260.668724861662
 30
0.0
 10
-2682.61030877029
 20
-5277.001210918243
 30
0.0
 10
-2684.38897565486
 20
-5282.444821298915
 30
0.0
 10
-2687.059655583376
 20
-5290.609362621678
 30
0.0
 10
-2687.950328639734
 20
-5293.330730116688
 30
0.0
 10
-2689.287106957418
 20
-5297.412799130244
 30
0.0
 10
-2689.720679319653
 20
-5298.776924913666
 30
0.0
 10
-2690.720655365949
 20
-5301.463402467693
 30
0.0
 10
-2691.270257382395
 20
-5302.783005452401
 30
0.0
 10
-2693.070780740269
 20
-5306.698731623179
 30
0.0
 10
-2694.439810028878
 20
-5309.191010472941
 30
0.0
 10
-2697.618411002943
 20
-5313.990799684566
 30
0.0
 10
-2699.375359861908
 20
-5316.226057203127
 30
0.0
 10
-2703.268410963854
 20
-5320.467209321515
 30
0.0
 10
-2705.344727957294
 20
-5322.404865273619
 30
0.0
 10
-2708.75239323033
 20
-5325.052346921298
 30
0.0
 10
-2709.918446793017
 20
-5325.877804613999
 30
0.0
 10
-2712.330643876539
 20
-5327.429567840842
 30
0.0
 10
-2713.564772302467
 20
-5328.148377820303
 30
0.0
 10
-2716.106032906053
 20
-5329.477721085794
 30
0.0
 10
-2717.399858523724
 20
-5330.08126670418
 30
0.0
 10
-2720.056294349113
 20
-5331.165013288469
 30
0.0
 10
-2721.403239166691
 20
-5331.639410867476
 30
0.0
 10
-2725.546008839312
 20
-5332.874128059109
 30
0.0
 10
-2728.323948479207
 20
-5333.405002373843
 30
0.0
 10
-2732.6327980264
 20
-5333.764875502507
 30
0.0
 10
-2734.058608472606
 20
-5333.809642392474
 30
0.0
 10
-2736.104590762763
 20
-5333.755205561556
 30
0.0
 10
-2739.173871216648
 20
-5333.618329966866
 30
0.0
 10
-2742.645242030241
 20
-5333.466495168023
 30
0.0
 10
-2745.505921735457
 20
-5333.341385690997
 30
0.0
 10
-2771.222511000182
 20
-5332.216774665757
 30
0.0
 10
-2794.078445822146
 20
-5331.217851328128
 30
0.0
 10
-2839.790144498278
 20
-5329.21609519817
 30
0.0
 10
-2862.645807104203
 20
-5328.21096166091
 30
0.0
 10
-2902.312229833056
 20
-5326.47583177983
 30
0.0
 10
-2937.354629795347
 20
-5324.948463636817
 30
0.0
 10
-2959.888127444028
 20
-5323.986580871341
 30
0.0
 10
-2965.610716757525
 20
-5323.751657080125
 30
0.0
 10
-2976.728982347293
 20
-5323.255236415343
 30
0.0
 10
-2983.097768506752
 20
-5322.939902020104
 30
0.0
 10
-2991.36941968877
 20
-5322.904421639307
 30
0.0
 10
-2994.227945407354
 20
-5322.965525340736
 30
0.0
 10
-2999.952315509712
 20
-5323.34986542233
 30
0.0
 10
-3002.784849697699
 20
-5323.670668193831
 30
0.0
 10
-3008.321024173787
 20
-5324.730527203859
 30
0.0
 10
-3011.289037755731
 20
-5325.503476151285
 30
0.0
 10
-3016.524244713051
 20
-5327.653612323333
 30
0.0
 10
-3018.964629483475
 20
-5329.126097655178
 30
0.0
 10
-3020.996648161257
 20
-5331.223433954893
 30
0.0
  0
LINE
  5
140
330
1F
100
AcDbEntity
  8
2D
100
AcDbLine
 10
-3020.996648161257
 20
-5331.223433954893
 30
0.0
 11
-3035.307217727132
 21
-5375.266830856197
 31
0.0
  0
LINE
  5
141
330
1F
100
AcDbEntity
  8
2D
100
AcDbLine
 10
-4809.091545861254
 20
-3811.196552406192
 30
0.0
 11
-4831.534700910986
 21
-3780.116312731772
 31
0.0
  0
SPLINE
  5
142
330
1F
100
AcDbEntity
  8
2D
100
AcDbSpline
210
0.0
220
0.0
230
1.0
 70
    15
 71
     2
 72
    24
 73
    21
 74
     0
 42
0.0000000001
 43
0.0000000001
 40
-451.975426411486
 40
-451.975426411486
 40
-451.975426411486
 40
-0.0000000071041596
 40
-0.0000000071041596
 40
114.3215785404029
 40
114.3215785404029
 40
566.2970049444403
 40
566.2970049444403
 40
680.6185834927782
 40
680.6185834927782
 40
1132.59400990909
 40
1132.59400990909
 40
1246.915588445643
 40
1246.915588445643
 40
1698.891014865592
 40
1698.891014865592
 40
1813.212593398632
 40
1813.212593398632
 40
2265.188019817119
 40
2265.188019817119
 40
2379.509598351904
 40
2379.509598351904
 40
2379.509598351904
 10
-3458.926512225229
 20
-4507.245403516372
 30
0.0
 41
0.9999999999995697
 10
-3620.831221727574
 20
-4347.035521516516
 30
0.0000000000000002
 41
0.9884977482787878
 10
-3823.231180683517
 20
-4242.562568729301
 30
0.0
 41
1.0
 10
-3878.271849646827
 20
-4214.152181493652
 30
0.0000000000000016
 41
0.8886055227292752
 10
-3933.312518612216
 20
-4242.562568725252
 30
0.0
 41
1.0
 10
-4135.712477568938
 20
-4347.035521510735
 30
-0.0000000000000001
 41
0.9884977482784435
 10
-4297.61718707137
 20
-4507.245403510342
 30
0.0
 41
1.0
 10
-4341.645573074086
 20
-4550.812897916801
 30
0.0000000000000003
 41
0.8886055227295488
 10
-4331.634191259149
 20
-4611.938977269372
 30
0.0
 41
1.0
 10
-4294.819535712781
 20
-4836.71669500233
 30
0.0000000000000003
 41
0.9884977482781708
 10
-4192.48219016373
 20
-5040.204800203132
 30
0.0
 41
1.0
 10
-4164.652560219454
 20
-5095.54137977974
 30
-0.0000000000000022
 41
0.8886055227300466
 10
-4103.424517023439
 20
-5104.908987182882
 30
0.0
 41
1.0
 10
-3878.271849647807
 20
-5139.356303866561
 30
-0.0000000000000002
 41
0.9884977482782337
 10
-3653.119182272378
 20
-5104.908987181541
 30
0.0
 41
1.0
 10
-3591.891139078607
 20
-5095.541379776151
 30
-0.0000000000000005
 41
0.8886055227298935
 10
-3564.061509137508
 20
-5040.204800200052
 30
0.0
 41
1.0
 10
-3461.724163588879
 20
-4836.71669499782
 30
0.0000000000000003
 41
0.9884977482782171
 10
-3424.909508043198
 20
-4611.938977263642
 30
0.0
 41
1.0
 10
-3414.898126228397
 20
-4550.812897918431
 30
-0.000000000000002
 41
0.8886055227294162
 10
-3458.926512225229
 20
-4507.245403516372
 30
0.0
 41
1.0
  0
LINE
  5
143
330
1F
100
AcDbEntity
  8
2D
100
AcDbLine
 10
-3319.302241108107
 20
-3541.031649674479
 30
0.0
 11
-3296.678492955496
 21
-3510.082618569568
 31
0.0
  0
LINE
  5
144
330
1F
100
AcDbEntity
  8
2D
100
AcDbLine
 10
-4212.233445333412
 20
-5527.195954381352
 30
0.0
 11
-4258.539446852221
 21
-5527.194465653702
 31
0.0
  0
SPLINE
  5
145
330
1F
100
AcDbEntity
  8
2D
100
AcDbSpline
210
0.0
220
0.0
230
1.0
 70
    12
 71
     3
 72
    31
 73
    27
 74
     0
 42
0.0000000001
 43
0.0000000001
 40
-613.4426407540294
 40
-613.4426407540294
 40
-613.4426407540294
 40
-613.4426407540294
 40
-611.5080646454168
 40
-611.5080646454168
 40
-611.5080646454168
 40
-504.295367778371
 40
-504.295367778371
 40
-504.295367778371
 40
-501.3167024160884
 40
-501.3167024160884
 40
-501.3167024160884
 40
-321.32808154829
 40
-321.32808154829
 40
-321.32808154829
 40
-315.3707520207053
 40
-315.3707520207053
 40
-315.3707520207053
 40
-211.7260408717242
 40
-211.7260408717242
 40
-211.7260408717242
 40
-203.0238756157699
 40
-203.0238756157699
 40
-194.3530809245322
 40
-194.3530809245322
 40
-194.3530809245322
 40
0.0
 40
0.0
 40
0.0
 40
0.0
 10
-4258.539446852221
 20
-5527.194465653702
 30
0.0
 41
1.0
 10
-4258.638747640634
 20
-5527.192301844351
 30
0.0
 41
1.0
 10
-4258.691973709378
 20
-5527.385732773949
 30
0.0
 41
1.0
 10
-4258.691973709381
 20
-5527.785898815631
 30
0.0
 41
1.0
 10
-4258.69197521466
 20
-5549.358379504871
 30
0.0
 41
1.0
 10
-4258.69197671994
 20
-5570.93086019411
 30
0.0
 41
1.0
 10
-4258.691978225219
 20
-5592.503340883339
 30
0.0
 41
1.0
 10
-4258.69197863575
 20
-5593.102684126052
 30
0.0
 41
1.0
 10
-4258.691979046278
 20
-5593.702027368761
 30
0.0
 41
1.0
 10
-4258.691979456809
 20
-5594.301370611471
 30
0.0
 41
1.0
 10
-4258.691979456809
 20
-5630.517239467679
 30
0.0
 41
1.0
 10
-4258.691979456817
 20
-5666.733108323881
 30
0.0
 41
1.0
 10
-4258.691979456817
 20
-5702.948977180089
 30
0.0
 41
1.0
 10
-4258.691974347792
 20
-5704.147663414349
 30
0.0
 41
1.0
 10
-4258.691969238775
 20
-5705.34634964862
 30
0.0
 41
1.0
 10
-4258.691964129754
 20
-5706.54503588288
 30
0.0
 41
1.0
 10
-4258.691962213943
 20
-5727.399594111061
 30
0.0
 41
1.0
 10
-4258.691960298129
 20
-5748.254152339241
 30
0.0
 41
1.0
 10
-4258.691958382318
 20
-5769.108710567421
 30
0.0
 41
1.0
 10
-4258.691958382322
 20
-5770.881871823631
 30
0.0
 41
1.0
 10
-4258.269099031524
 20
-5774.1320462803
 30
0.0
 41
1.0
 10
-4256.721977314905
 20
-5782.614660910802
 30
0.0
 41
1.0
 10
-4255.647114836498
 20
-5787.584889475411
 30
0.0
 41
1.0
 10
-4254.420021474314
 20
-5792.63384948169
 30
0.0
 41
1.0
 10
-4227.127724254278
 20
-5904.929891256661
 30
0.0
 41
1.0
 10
-4199.835427034246
 20
-6017.225933031632
 30
0.0
 41
1.0
 10
-4172.54312981421
 20
-6129.521974806592
 30
0.0
 41
1.0
  0
SPLINE
  5
146
330
1F
100
AcDbEntity
  8
2D
100
AcDbSpline
210
0.0
220
0.0
230
1.0
 70
     8
 71
     3
 72
     8
 73
     4
 74
     0
 42
0.0000000001
 43
0.0000000001
 40
-1.217114044381492
 40
-1.217114044381492
 40
-1.217114044381492
 40
-1.217114044381492
 40
0.0
 40
0.0
 40
0.0
 40
0.0
 10
-4172.54312981421
 20
-6129.521974806592
 30
0.0
 10
-4172.44731695556
 20
-6129.916203401036
 30
0.0
 10
-4172.348976652975
 20
-6130.30982629458
 30
0.0
 10
-4172.248121012282
 20
-6130.702795031633
 30
0.0
  0
SPLINE
  5
147
330
1F
100
AcDbEntity
  8
2D
100
AcDbSpline
210
0.0
220
0.0
230
1.0
 70
    12
 71
     3
 72
    14
 73
    10
 74
     0
 42
0.0000000001
 43
0.0000000001
 40
-528.1175762542257
 40
-528.1175762542257
 40
-528.1175762542257
 40
-528.1175762542257
 40
-402.7857201750719
 40
-402.7857201750719
 40
-402.7857201750719
 40
0.0
 40
0.0
 40
0.0
 40
125.304092257499
 40
125.304092257499
 40
125.304092257499
 40
125.304092257499
 10
-4172.248121012281
 20
-6130.702795031634
 30
0.0
 41
0.9956227716042817
 10
-4161.018283501504
 20
-6174.458156991224
 30
0.0000000000000022
 41
0.8574698667828089
 10
-4125.327092966391
 20
-6202.086390530856
 30
0.0000000000000022
 41
0.8589289429147147
 10
-4080.230375775533
 20
-6202.086390530849
 30
0.0
 41
1.0
 10
-3945.968469050513
 20
-6202.086390530849
 30
0.0
 41
1.0
 10
-3811.706562325537
 20
-6202.086390530849
 30
0.0
 41
1.0
 10
-3677.444655600517
 20
-6202.086390530849
 30
0.0
 41
1.0
 10
-3632.347938409649
 20
-6202.086390530852
 30
0.0000000000000045
 41
0.8589289429147173
 10
-3596.656747874527
 20
-6174.458156991225
 30
0.0000000000000044
 41
0.8574698667828193
 10
-3585.426910363763
 20
-6130.702795031632
 30
0.0
 41
0.995622771604307
  0
SPLINE
  5
148
330
1F
100
AcDbEntity
  8
2D
100
AcDbSpline
210
0.0
220
0.0
230
1.0
 70
     8
 71
     3
 72
     8
 73
     4
 74
     0
 42
0.0000000001
 43
0.0000000001
 40
-1.217114044408552
 40
-1.217114044408552
 40
-1.217114044408552
 40
-1.217114044408552
 40
0.0
 40
0.0
 40
0.0
 40
0.0
 10
-3585.42691036376
 20
-6130.702795031632
 30
0.0
 10
-3585.326054723071
 20
-6130.30982629457
 30
0.0
 10
-3585.227714420485
 20
-6129.91620340105
 30
0.0
 10
-3585.131901561828
 20
-6129.521974806599
 30
0.0
  0
SPLINE
  5
149
330
1F
100
AcDbEntity
  8
2D
100
AcDbSpline
210
0.0
220
0.0
230
1.0
 70
    12
 71
     3
 72
    31
 73
    27
 74
     0
 42
0.0000000001
 43
0.0000000001
 40
-611.6748735393467
 40
-611.6748735393467
 40
-611.6748735393467
 40
-611.6748735393467
 40
-417.8817977156705
 40
-417.8817977156705
 40
-417.8817977156705
 40
-409.2359409319054
 40
-409.2359409319054
 40
-400.5589715680706
 40
-400.5589715680706
 40
-400.5589715680706
 40
-297.2129002278547
 40
-297.2129002278547
 40
-297.2129002278547
 40
-291.272736031054
 40
-291.272736031054
 40
-291.272736031054
 40
-111.8027310174504
 40
-111.8027310174504
 40
-111.8027310174504
 40
-108.8326483222842
 40
-108.8326483222842
 40
-108.8326483222842
 40
-1.928871764295378
 40
-1.928871764295378
 40
-1.928871764295378
 40
0.0
 40
0.0
 40
0.0
 40
0.0
 10
-3585.131901561828
 20
-6129.521974806599
 30
0.0
 41
1.0
 10
-3557.839600254585
 20
-6017.225933031632
 30
0.0
 41
1.0
 10
-3530.547298947335
 20
-5904.929891256661
 30
0.0
 41
1.0
 10
-3503.254997640088
 20
-5792.633849481701
 30
0.0
 41
1.0
 10
-3502.027893697588
 20
-5787.58484594197
 30
0.0
 41
1.0
 10
-3500.953122249419
 20
-5782.615054971999
 30
0.0
 41
1.0
 10
-3499.405969484098
 20
-5774.13236439763
 30
0.0
 41
1.0
 10
-3498.98306073208
 20
-5770.8818521708
 30
0.0
 41
1.0
 10
-3498.98306073208
 20
-5769.108710567421
 30
0.0
 41
1.0
 10
-3498.983062647891
 20
-5748.254151287581
 30
0.0
 41
1.0
 10
-3498.983064563701
 20
-5727.399592007741
 30
0.0
 41
1.0
 10
-3498.983066479512
 20
-5706.545032727912
 30
0.0
 41
1.0
 10
-3498.983071588533
 20
-5705.346346493652
 30
0.0
 41
1.0
 10
-3498.98307669755
 20
-5704.147660259392
 30
0.0
 41
1.0
 10
-3498.983081806571
 20
-5702.948974025121
 30
0.0
 41
1.0
 10
-3498.983081806571
 20
-5666.73310516892
 30
0.0
 41
1.0
 10
-3498.983081806567
 20
-5630.517236312711
 30
0.0
 41
1.0
 10
-3498.983081806567
 20
-5594.301367456499
 30
0.0
 41
1.0
 10
-3498.983081806567
 20
-5593.702024339369
 30
0.0
 41
1.0
 10
-3498.983081806571
 20
-5593.102681222239
 30
0.0
 41
1.0
 10
-3498.983081806571
 20
-5592.503338105109
 30
0.0
 41
1.0
 10
-3498.983079890757
 20
-5570.93085834195
 30
0.0
 41
1.0
 10
-3498.983077974946
 20
-5549.358378578791
 30
0.0
 41
1.0
 10
-3498.983076059136
 20
-5527.785898815631
 30
0.0
 41
1.0
 10
-3498.983076059136
 20
-5527.385755153995
 30
0.0
 41
1.0
 10
-3499.036303491946
 20
-5527.192338116076
 30
0.0
 41
1.0
 10
-3499.135603578077
 20
-5527.194483915331
 30
0.0
 41
1.0
  0
LINE
  5
14A
330
1F
100
AcDbEntity
  8
2D
100
AcDbLine
 10
-3499.135603578077
 20
-5527.194483915331
 30
0.0
 11
-3545.441596260673
 21
-5527.195954381352
 31
0.0
  0
ENDSEC
  0
SECTION
  2
OBJECTS
  0
DICTIONARY
  5
C
330
0
100
AcDbDictionary
281
     1
  3
ACAD_GROUP
350
D
  3
ACAD_LAYOUT
350
1A
  3
ACAD_MLEADERSTYLE
350
14C
  3
ACAD_MLINESTYLE
350
17
  3
ACAD_PLOTSETTINGS
350
19
  3
ACAD_PLOTSTYLENAME
350
E
  3
ACAD_TABLESTYLE
350
14B
  3
ACAD_VISUALSTYLE
350
2A
  0
DICTIONARY
  5
D
102
{ACAD_REACTORS
330
C
102
}
330
C
100
AcDbDictionary
281
     1
  0
DICTIONARY
  5
1A
102
{ACAD_REACTORS
330
C
102
}
330
C
100
AcDbDictionary
281
     1
  3
Layout1
350
1E
  3
Layout2
350
26
  3
Model
350
22
  0
DICTIONARY
  5
14C
102
{ACAD_REACTORS
330
C
102
}
330
C
100
AcDbDictionary
281
     1
  0
DICTIONARY
  5
17
102
{ACAD_REACTORS
330
C
102
}
330
C
100
AcDbDictionary
281
     1
  3
Standard
350
18
  0
DICTIONARY
  5
19
102
{ACAD_REACTORS
330
C
102
}
330
C
100
AcDbDictionary
281
     1
  0
ACDBDICTIONARYWDFLT
  5
E
102
{ACAD_REACTORS
330
C
102
}
330
C
100
AcDbDictionary
281
     1
  3
Normal
350
F
100
AcDbDictionaryWithDefault
340
F
  0
DICTIONARY
  5
14B
102
{ACAD_REACTORS
330
C
102
}
330
C
100
AcDbDictionary
281
     1
  0
DICTIONARY
  5
2A
102
{ACAD_REACTORS
330
C
102
}
330
C
100
AcDbDictionary
281
     1
  3
2dWireframe
350
2F
  3
3D Hidden
350
31
  3
3dWireframe
350
30
  3
Basic
350
32
  3
Brighten
350
36
  3
ColorChange
350
3A
  3
Conceptual
350
34
  3
Dim
350
35
  3
Facepattern
350
39
  3
Flat
350
2B
  3
FlatWithEdges
350
2C
  3
Gouraud
350
2D
  3
GouraudWithEdges
350
2E
  3
Linepattern
350
38
  3
Realistic
350
33
  3
Thicken
350
37
  0
LAYOUT
  5
1E
102
{ACAD_REACTORS
330
1A
102
}
330
1A
100
AcDbPlotSettings
  1

  2
none_device
  4

  6

 40
0.0
 41
0.0
 42
0.0
 43
0.0
 44
0.0
 45
0.0
 46
0.0
 47
0.0
 48
0.0
 49
0.0
140
0.0
141
0.0
142
1.0
143
1.0
 70
   688
 72
     0
 73
     0
 74
     5
  7

 75
    16
 76
     0
 77
     2
 78
   300
147
1.0
148
0.0
149
0.0
100
AcDbLayout
  1
Layout1
 70
     1
 71
     1
 10
0.0
 20
0.0
 11
12.0
 21
9.0
 12
0.0
 22
0.0
 32
0.0
 14
1.000000000000000E+20
 24
1.000000000000000E+20
 34
1.000000000000000E+20
 15
-1.000000000000000E+20
 25
-1.000000000000000E+20
 35
-1.000000000000000E+20
146
0.0
 13
0.0
 23
0.0
 33
0.0
 16
1.0
 26
0.0
 36
0.0
 17
0.0
 27
1.0
 37
0.0
 76
     0
330
1B
  0
LAYOUT
  5
26
102
{ACAD_REACTORS
330
1A
102
}
330
1A
100
AcDbPlotSettings
  1

  2
none_device
  4

  6

 40
0.0
 41
0.0
 42
0.0
 43
0.0
 44
0.0
 45
0.0
 46
0.0
 47
0.0
 48
0.0
 49
0.0
140
0.0
141
0.0
142
1.0
143
1.0
 70
   688
 72
     0
 73
     0
 74
     5
  7

 75
    16
 76
     0
 77
     2
 78
   300
147
1.0
148
0.0
149
0.0
100
AcDbLayout
  1
Layout2
 70
     1
 71
     2
 10
0.0
 20
0.0
 11
0.0
 21
0.0
 12
0.0
 22
0.0
 32
0.0
 14
0.0
 24
0.0
 34
0.0
 15
0.0
 25
0.0
 35
0.0
146
0.0
 13
0.0
 23
0.0
 33
0.0
 16
1.0
 26
0.0
 36
0.0
 17
0.0
 27
1.0
 37
0.0
 76
     0
330
23
  0
LAYOUT
  5
22
102
{ACAD_REACTORS
330
1A
102
}
330
1A
100
AcDbPlotSettings
  1

  2
none_device
  4

  6

 40
0.0
 41
0.0
 42
0.0
 43
0.0
 44
0.0
 45
0.0
 46
0.0
 47
0.0
 48
0.0
 49
0.0
140
0.0
141
0.0
142
1.0
143
1.0
 70
  1712
 72
     0
 73
     0
 74
     0
  7

 75
     0
 76
     0
 77
     2
 78
   300
147
1.0
148
0.0
149
0.0
100
AcDbLayout
  1
Model
 70
     1
 71
     0
 10
0.0
 20
0.0
 11
12.0
 21
9.0
 12
0.0
 22
0.0
 32
0.0
 14
-5372.591056222916
 24
-6202.086390530849
 34
-0.000000000000001
 15
-2384.302243917338
 25
-3350.464687260928
 35
0.0000000000000041
146
0.0
 13
0.0
 23
0.0
 33
0.0
 16
1.0
 26
0.0
 36
0.0
 17
0.0
 27
1.0
 37
0.0
 76
     0
330
1F
331
29
  0
MLINESTYLE
  5
18
102
{ACAD_REACTORS
330
17
102
}
330
17
100
AcDbMlineStyle
  2
Standard
 70
     0
  3

 62
   256
 51
90.0
 52
90.0
 71
     2
 49
0.5
 62
   256
  6
BYLAYER
 49
-0.5
 62
   256
  6
BYLAYER
  0
ACDBPLACEHOLDER
  5
F
102
{ACAD_REACTORS
330
E
102
}
330
E
  0
VISUALSTYLE
  5
2F
102
{ACAD_REACTORS
330
2A
102
}
330
2A
100
AcDbVisualStyle
  2
2dWireframe
 70
     4
 71
     0
 72
     2
 73
     0
 90
        0
 40
-0.6
 41
-30.0
 62
     5
 63
     7
421
 16777215
 74
     1
 91
        4
 64
     7
 65
   257
 75
     1
175
     1
 42
1.0
 92
        0
 66
   257
 43
1.0
 76
     1
 77
     6
 78
     2
 67
     7
 79
     5
170
     0
171
     0
290
     0
174
     0
 93
        1
 44
0.0
173
     0
291
     0
 45
0.0
1001
ACAD
1000
AcDbSavedByObjectVersion
1070
     0
  0
VISUALSTYLE
  5
31
102
{ACAD_REACTORS
330
2A
102
}
330
2A
100
AcDbVisualStyle
  2
3D Hidden
 70
     6
 71
     1
 72
     2
 73
     2
 90
        0
 40
-0.6
 41
-30.0
 62
     5
 63
     7
421
 16777215
 74
     2
 91
        2
 64
     7
 65
   257
 75
     2
175
     1
 42
40.0
 92
        0
 66
   257
 43
1.0
 76
     1
 77
     6
 78
     2
 67
     7
 79
     3
170
     0
171
     0
290
     0
174
     0
 93
        1
 44
0.0
173
     0
291
     0
 45
0.0
1001
ACAD
1000
AcDbSavedByObjectVersion
1070
     0
  0
VISUALSTYLE
  5
30
102
{ACAD_REACTORS
330
2A
102
}
330
2A
100
AcDbVisualStyle
  2
3dWireframe
 70
     5
 71
     0
 72
     2
 73
     0
 90
        0
 40
-0.6
 41
-30.0
 62
     5
 63
     7
421
 16777215
 74
     1
 91
        4
 64
     7
 65
   257
 75
     1
175
     1
 42
1.0
 92
        0
 66
   257
 43
1.0
 76
     1
 77
     6
 78
     2
 67
     7
 79
     5
170
     0
171
     0
290
     0
174
     0
 93
        1
 44
0.0
173
     0
291
     0
 45
0.0
1001
ACAD
1000
AcDbSavedByObjectVersion
1070
     0
  0
VISUALSTYLE
  5
32
102
{ACAD_REACTORS
330
2A
102
}
330
2A
100
AcDbVisualStyle
  2
Basic
 70
     7
 71
     1
 72
     0
 73
     1
 90
        0
 40
-0.6
 41
-30.0
 62
     5
 63
     7
421
 16777215
 74
     0
 91
        4
 64
     7
 65
   257
 75
     1
175
     1
 42
1.0
 92
        8
 66
     7
 43
1.0
 76
     1
 77
     6
 78
     2
 67
     7
 79
     5
170
     0
171
     0
290
     0
174
     0
 93
        1
 44
0.0
173
     0
291
     1
 45
0.0
1001
ACAD
1000
AcDbSavedByObjectVersion
1070
     0
  0
VISUALSTYLE
  5
36
102
{ACAD_REACTORS
330
2A
102
}
330
2A
100
AcDbVisualStyle
  2
Brighten
 70
    12
 71
     2
 72
     2
 73
     0
 90
        0
 40
-0.6
 41
-30.0
 62
     5
 63
     7
421
 16777215
 74
     1
 91
        4
 64
     7
 65
   257
 75
     1
175
     1
 42
1.0
 92
        8
 66
     7
 43
1.0
 76
     1
 77
     6
 78
     2
 67
     7
 79
     5
170
     0
171
     0
290
     0
174
     0
 93
        1
 44
50.0
173
     0
291
     1
 45
0.0
1001
ACAD
1000
AcDbSavedByObjectVersion
1070
     0
  0
VISUALSTYLE
  5
3A
102
{ACAD_REACTORS
330
2A
102
}
330
2A
100
AcDbVisualStyle
  2
ColorChange
 70
    16
 71
     2
 72
     2
 73
     3
 90
        0
 40
-0.6
 41
-30.0
 62
     5
 63
     8
421
  8421504
 74
     1
 91
        4
 64
     7
 65
   257
 75
     1
175
     1
 42
1.0
 92
        8
 66
     8
424
  8421504
 43
1.0
 76
     1
 77
     6
 78
     2
 67
     7
 79
     5
170
     0
171
     0
290
     0
174
     0
 93
        1
 44
0.0
173
     0
291
     1
 45
0.0
1001
ACAD
1000
AcDbSavedByObjectVersion
1070
     0
  0
VISUALSTYLE
  5
34
102
{ACAD_REACTORS
330
2A
102
}
330
2A
100
AcDbVisualStyle
  2
Conceptual
 70
     9
 71
     3
 72
     2
 73
     0
 90
        0
 40
-0.6
 41
-30.0
 62
     5
 63
     7
421
 16777215
 74
     2
 91
        2
 64
     7
 65
   257
 75
     1
175
     1
 42
40.0
 92
        8
 66
     7
 43
1.0
 76
     1
 77
     6
 78
     2
 67
     7
 79
     3
170
     0
171
     0
290
     0
174
     0
 93
        1
 44
0.0
173
     0
291
     0
 45
0.0
1001
ACAD
1000
AcDbSavedByObjectVersion
1070
     0
  0
VISUALSTYLE
  5
35
102
{ACAD_REACTORS
330
2A
102
}
330
2A
100
AcDbVisualStyle
  2
Dim
 70
    11
 71
     2
 72
     2
 73
     0
 90
        0
 40
-0.6
 41
-30.0
 62
     5
 63
     7
421
 16777215
 74
     1
 91
        4
 64
     7
 65
   257
 75
     1
175
     1
 42
1.0
 92
        8
 66
     7
 43
1.0
 76
     1
 77
     6
 78
     2
 67
     7
 79
     5
170
     0
171
     0
290
     0
174
     0
 93
        1
 44
-50.0
173
     0
291
     1
 45
0.0
1001
ACAD
1000
AcDbSavedByObjectVersion
1070
     0
  0
VISUALSTYLE
  5
39
102
{ACAD_REACTORS
330
2A
102
}
330
2A
100
AcDbVisualStyle
  2
Facepattern
 70
    15
 71
     2
 72
     2
 73
     0
 90
        0
 40
-0.6
 41
-30.0
 62
     5
 63
     7
421
 16777215
 74
     1
 91
        4
 64
     7
 65
   257
 75
     1
175
     1
 42
1.0
 92
        8
 66
     7
 43
1.0
 76
     1
 77
     6
 78
     2
 67
     7
 79
     5
170
     0
171
     0
290
     0
174
     0
 93
        1
 44
0.0
173
     0
291
     1
 45
0.0
1001
ACAD
1000
AcDbSavedByObjectVersion
1070
     0
  0
VISUALSTYLE
  5
2B
102
{ACAD_REACTORS
330
2A
102
}
330
2A
100
AcDbVisualStyle
  2
Flat
 70
     0
 71
     2
 72
     1
 73
     1
 90
        2
 40
-0.6
 41
30.0
 62
     5
 63
     7
421
 16777215
 74
     0
 91
        4
 64
     7
 65
   257
 75
     1
175
     1
 42
1.0
 92
        8
 66
     7
 43
1.0
 76
     1
 77
     6
 78
     2
 67
     7
 79
     5
170
     0
171
     0
290
     0
174
     0
 93
       13
 44
0.0
173
     0
291
     1
 45
0.0
1001
ACAD
1000
AcDbSavedByObjectVersion
1070
     0
  0
VISUALSTYLE
  5
2C
102
{ACAD_REACTORS
330
2A
102
}
330
2A
100
AcDbVisualStyle
  2
FlatWithEdges
 70
     1
 71
     2
 72
     1
 73
     1
 90
        2
 40
-0.6
 41
30.0
 62
     5
 63
     7
421
 16777215
 74
     1
 91
        4
 64
     7
 65
   257
 75
     1
175
     1
 42
1.0
 92
        0
 66
   257
 43
1.0
 76
     1
 77
     6
 78
     2
 67
     7
 79
     5
170
     0
171
     0
290
     0
174
     0
 93
       13
 44
0.0
173
     0
291
     1
 45
0.0
1001
ACAD
1000
AcDbSavedByObjectVersion
1070
     0
  0
VISUALSTYLE
  5
2D
102
{ACAD_REACTORS
330
2A
102
}
330
2A
100
AcDbVisualStyle
  2
Gouraud
 70
     2
 71
     2
 72
     2
 73
     1
 90
        2
 40
-0.6
 41
30.0
 62
     5
 63
     7
421
 16777215
 74
     0
 91
        4
 64
     7
 65
   257
 75
     1
175
     1
 42
1.0
 92
        0
 66
     7
 43
1.0
 76
     1
 77
     6
 78
     2
 67
     7
 79
     5
170
     0
171
     0
290
     0
174
     0
 93
       13
 44
0.0
173
     0
291
     1
 45
0.0
1001
ACAD
1000
AcDbSavedByObjectVersion
1070
     0
  0
VISUALSTYLE
  5
2E
102
{ACAD_REACTORS
330
2A
102
}
330
2A
100
AcDbVisualStyle
  2
GouraudWithEdges
 70
     3
 71
     2
 72
     2
 73
     1
 90
        2
 40
-0.6
 41
30.0
 62
     5
 63
     7
421
 16777215
 74
     1
 91
        4
 64
     7
 65
   257
 75
     1
175
     1
 42
1.0
 92
        0
 66
   257
 43
1.0
 76
     1
 77
     6
 78
     2
 67
     7
 79
     5
170
     0
171
     0
290
     0
174
     0
 93
       13
 44
0.0
173
     0
291
     1
 45
0.0
1001
ACAD
1000
AcDbSavedByObjectVersion
1070
     0
  0
VISUALSTYLE
  5
38
102
{ACAD_REACTORS
330
2A
102
}
330
2A
100
AcDbVisualStyle
  2
Linepattern
 70
    14
 71
     2
 72
     2
 73
     0
 90
        0
 40
-0.6
 41
-30.0
 62
     5
 63
     7
421
 16777215
 74
     1
 91
        4
 64
     7
 65
   257
 75
     7
175
     7
 42
1.0
 92
        8
 66
     7
 43
1.0
 76
     1
 77
     6
 78
     2
 67
     7
 79
     5
170
     0
171
     0
290
     0
174
     0
 93
        1
 44
0.0
173
     0
291
     1
 45
0.0
1001
ACAD
1000
AcDbSavedByObjectVersion
1070
     0
  0
VISUALSTYLE
  5
33
102
{ACAD_REACTORS
330
2A
102
}
330
2A
100
AcDbVisualStyle
  2
Realistic
 70
     8
 71
     2
 72
     2
 73
     0
 90
        0
 40
-0.6
 41
-30.0
 62
     5
 63
     7
421
 16777215
 74
     1
 91
        0
 64
     7
 65
   257
 75
     1
175
     1
 42
1.0
 92
        8
 66
     8
424
  7895160
 43
1.0
 76
     1
 77
     6
 78
     2
 67
     7
 79
     5
170
     0
171
     0
290
     0
174
     0
 93
       13
 44
0.0
173
     0
291
     0
 45
0.0
1001
ACAD
1000
AcDbSavedByObjectVersion
1070
     0
  0
VISUALSTYLE
  5
37
102
{ACAD_REACTORS
330
2A
102
}
330
2A
100
AcDbVisualStyle
  2
Thicken
 70
    13
 71
     2
 72
     2
 73
     0
 90
        0
 40
-0.6
 41
-30.0
 62
     5
 63
     7
421
 16777215
 74
     1
 91
        4
 64
     7
 65
   257
 75
     1
175
     1
 42
1.0
 92
       12
 66
     7
 43
1.0
 76
     1
 77
     6
 78
     2
 67
     7
 79
     5
170
     0
171
     0
290
     0
174
     0
 93
        1
 44
0.0
173
     0
291
     1
 45
0.0
1001
ACAD
1000
AcDbSavedByObjectVersion
1070
     0
  0
ENDSEC
  0
EOF
