  0
SECTION
  2
HEADER
  9
$ACADVER
  1
AC1018
  9
$ACADMAINTVER
 70
     0
  9
$DWGCODEPAGE
  3
ANSI_1252
  9
$INSBASE
 10
0.0
 20
0.0
 30
0.0
  9
$EXTMIN
 10
-9887.076826583918
 20
2338.596569473798
 30
-0.0000000000000045
  9
$EXTMAX
 10
-8179.936694894222
 20
5011.692626230472
 30
0.0000000000000027
  9
$LIMMIN
 10
0.0
 20
0.0
  9
$LIMMAX
 10
12.0
 20
9.0
  9
$ORTHOMODE
 70
     0
  9
$REGENMODE
 70
     1
  9
$FILLMODE
 70
     1
  9
$QTEXTMODE
 70
     0
  9
$MIRRTEXT
 70
     1
  9
$LTSCALE
 40
1.0
  9
$ATTMODE
 70
     1
  9
$TEXTSIZE
 40
0.2
  9
$TRACEWID
 40
0.05
  9
$TEXTSTYLE
  7
Standard
  9
$CLAYER
  8
0
  9
$CELTYPE
  6
ByLayer
  9
$CECOLOR
 62
   256
  9
$CELTSCALE
 40
1.0
  9
$DISPSILH
 70
     0
  9
$DIMSCALE
 40
1.0
  9
$DIMASZ
 40
0.18
  9
$DIMEXO
 40
0.0625
  9
$DIMDLI
 40
0.38
  9
$DIMRND
 40
0.0
  9
$DIMDLE
 40
0.0
  9
$DIMEXE
 40
0.18
  9
$DIMTP
 40
0.0
  9
$DIMTM
 40
0.0
  9
$DIMTXT
 40
0.18
  9
$DIMCEN
 40
0.09
  9
$DIMTSZ
 40
0.0
  9
$DIMTOL
 70
     0
  9
$DIMLIM
 70
     0
  9
$DIMTIH
 70
     1
  9
$DIMTOH
 70
     1
  9
$DIMSE1
 70
     0
  9
$DIMSE2
 70
     0
  9
$DIMTAD
 70
     0
  9
$DIMZIN
 70
     0
  9
$DIMBLK
  1

  9
$DIMASO
 70
     1
  9
$DIMSHO
 70
     1
  9
$DIMPOST
  1

  9
$DIMAPOST
  1

  9
$DIMALT
 70
     0
  9
$DIMALTD
 70
     2
  9
$DIMALTF
 40
25.4
  9
$DIMLFAC
 40
1.0
  9
$DIMTOFL
 70
     0
  9
$DIMTVP
 40
0.0
  9
$DIMTIX
 70
     0
  9
$DIMSOXD
 70
     0
  9
$DIMSAH
 70
     0
  9
$DIMBLK1
  1

  9
$DIMBLK2
  1

  9
$DIMSTYLE
  2
Standard
  9
$DIMCLRD
 70
     0
  9
$DIMCLRE
 70
     0
  9
$DIMCLRT
 70
     0
  9
$DIMTFAC
 40
1.0
  9
$DIMGAP
 40
0.09
  9
$DIMJUST
 70
     0
  9
$DIMSD1
 70
     0
  9
$DIMSD2
 70
     0
  9
$DIMTOLJ
 70
     1
  9
$DIMTZIN
 70
     0
  9
$DIMALTZ
 70
     0
  9
$DIMALTTZ
 70
     0
  9
$DIMUPT
 70
     0
  9
$DIMDEC
 70
     4
  9
$DIMTDEC
 70
     4
  9
$DIMALTU
 70
     2
  9
$DIMALTTD
 70
     2
  9
$DIMTXSTY
  7
Standard
  9
$DIMAUNIT
 70
     0
  9
$DIMADEC
 70
     0
  9
$DIMALTRND
 40
0.0
  9
$DIMAZIN
 70
     0
  9
$DIMDSEP
 70
    46
  9
$DIMATFIT
 70
     3
  9
$DIMFRAC
 70
     0
  9
$DIMLDRBLK
  1

  9
$DIMLUNIT
 70
     2
  9
$DIMLWD
 70
    -2
  9
$DIMLWE
 70
    -2
  9
$DIMTMOVE
 70
     2
  9
$LUNITS
 70
     2
  9
$LUPREC
 70
     3
  9
$SKETCHINC
 40
0.1
  9
$FILLETRAD
 40
0.5
  9
$AUNITS
 70
     0
  9
$AUPREC
 70
     0
  9
$MENU
  1
.
  9
$ELEVATION
 40
0.0
  9
$PELEVATION
 40
0.0
  9
$THICKNESS
 40
0.0
  9
$LIMCHECK
 70
     0
  9
$CHAMFERA
 40
0.5
  9
$CHAMFERB
 40
0.5
  9
$CHAMFERC
 40
1.0
  9
$CHAMFERD
 40
0.0
  9
$SKPOLY
 70
     0
  9
$TDCREATE
 40
2456377.855887291
  9
$TDUCREATE
 40
2456377.814220625
  9
$TDUPDATE
 40
2456377.855887303
  9
$TDUUPDATE
 40
2456377.814220637
  9
$TDINDWG
 40
0.0000000116
  9
$TDUSRTIMER
 40
0.0000000116
  9
$USRTIMER
 70
     1
  9
$ANGBASE
 50
0.0
  9
$ANGDIR
 70
     0
  9
$PDMODE
 70
     0
  9
$PDSIZE
 40
0.0
  9
$PLINEWID
 40
0.0
  9
$SPLFRAME
 70
     0
  9
$SPLINETYPE
 70
     6
  9
$SPLINESEGS
 70
     8
  9
$HANDSEED
  5
5B
  9
$SURFTAB1
 70
     6
  9
$SURFTAB2
 70
     6
  9
$SURFTYPE
 70
     6
  9
$SURFU
 70
     6
  9
$SURFV
 70
     6
  9
$UCSBASE
  2

  9
$UCSNAME
  2

  9
$UCSORG
 10
0.0
 20
0.0
 30
0.0
  9
$UCSXDIR
 10
1.0
 20
0.0
 30
0.0
  9
$UCSYDIR
 10
0.0
 20
1.0
 30
0.0
  9
$UCSORTHOREF
  2

  9
$UCSORTHOVIEW
 70
     0
  9
$UCSORGTOP
 10
0.0
 20
0.0
 30
0.0
  9
$UCSORGBOTTOM
 10
0.0
 20
0.0
 30
0.0
  9
$UCSORGLEFT
 10
0.0
 20
0.0
 30
0.0
  9
$UCSORGRIGHT
 10
0.0
 20
0.0
 30
0.0
  9
$UCSORGFRONT
 10
0.0
 20
0.0
 30
0.0
  9
$UCSORGBACK
 10
0.0
 20
0.0
 30
0.0
  9
$PUCSBASE
  2

  9
$PUCSNAME
  2

  9
$PUCSORG
 10
0.0
 20
0.0
 30
0.0
  9
$PUCSXDIR
 10
1.0
 20
0.0
 30
0.0
  9
$PUCSYDIR
 10
0.0
 20
1.0
 30
0.0
  9
$PUCSORTHOREF
  2

  9
$PUCSORTHOVIEW
 70
     0
  9
$PUCSORGTOP
 10
0.0
 20
0.0
 30
0.0
  9
$PUCSORGBOTTOM
 10
0.0
 20
0.0
 30
0.0
  9
$PUCSORGLEFT
 10
0.0
 20
0.0
 30
0.0
  9
$PUCSORGRIGHT
 10
0.0
 20
0.0
 30
0.0
  9
$PUCSORGFRONT
 10
0.0
 20
0.0
 30
0.0
  9
$PUCSORGBACK
 10
0.0
 20
0.0
 30
0.0
  9
$USERI1
 70
     0
  9
$USERI2
 70
     0
  9
$USERI3
 70
     0
  9
$USERI4
 70
     0
  9
$USERI5
 70
     0
  9
$USERR1
 40
0.0
  9
$USERR2
 40
0.0
  9
$USERR3
 40
0.0
  9
$USERR4
 40
0.0
  9
$USERR5
 40
0.0
  9
$WORLDVIEW
 70
     1
  9
$SHADEDGE
 70
     3
  9
$SHADEDIF
 70
    70
  9
$TILEMODE
 70
     1
  9
$MAXACTVP
 70
    64
  9
$PINSBASE
 10
0.0
 20
0.0
 30
0.0
  9
$PLIMCHECK
 70
     0
  9
$PEXTMIN
 10
1.000000000000000E+20
 20
1.000000000000000E+20
 30
1.000000000000000E+20
  9
$PEXTMAX
 10
-1.000000000000000E+20
 20
-1.000000000000000E+20
 30
-1.000000000000000E+20
  9
$PLIMMIN
 10
0.0
 20
0.0
  9
$PLIMMAX
 10
12.0
 20
9.0
  9
$UNITMODE
 70
     0
  9
$VISRETAIN
 70
     1
  9
$PLINEGEN
 70
     0
  9
$PSLTSCALE
 70
     1
  9
$TREEDEPTH
 70
  3020
  9
$CMLSTYLE
  2
Standard
  9
$CMLJUST
 70
     0
  9
$CMLSCALE
 40
1.0
  9
$PROXYGRAPHICS
 70
     1
  9
$MEASUREMENT
 70
     0
  9
$CELWEIGHT
370
    -1
  9
$ENDCAPS
280
     0
  9
$JOINSTYLE
280
     0
  9
$LWDISPLAY
290
     0
  9
$INSUNITS
 70
     4
  9
$HYPERLINKBASE
  1

  9
$STYLESHEET
  1

  9
$XEDIT
290
     1
  9
$CEPSNTYPE
380
     0
  9
$PSTYLEMODE
290
     1
  9
$FINGERPRINTGUID
  2
{3809BBA1-D16F-4720-9DF1-630A11B197A3}
  9
$VERSIONGUID
  2
{FAEB1C32-E019-11D5-929B-00C0DF256EC4}
  9
$EXTNAMES
290
     1
  9
$PSVPSCALE
 40
0.0
  9
$OLESTARTUP
290
     0
  9
$SORTENTS
280
   127
  9
$INDEXCTL
280
     0
  9
$HIDETEXT
280
     1
  9
$XCLIPFRAME
290
     0
  9
$HALOGAP
280
     0
  9
$OBSCOLOR
 70
   257
  9
$OBSLTYPE
280
     0
  9
$INTERSECTIONDISPLAY
280
     0
  9
$INTERSECTIONCOLOR
 70
   257
  9
$DIMASSOC
280
     2
  9
$PROJECTNAME
  1

  0
ENDSEC
  0
SECTION
  2
CLASSES
  0
CLASS
  1
ACDBDICTIONARYWDFLT
  2
AcDbDictionaryWithDefault
  3
ObjectDBX Classes
 90
        0
 91
        4
280
     0
281
     0
  0
CLASS
  1
VISUALSTYLE
  2
AcDbVisualStyle
  3
ObjectDBX Classes
 90
     4095
 91
        4
280
     0
281
     0
  0
ENDSEC
  0
SECTION
  2
TABLES
  0
TABLE
  2
VPORT
  5
8
330
0
100
AcDbSymbolTable
 70
     1
  0
VPORT
  5
29
330
8
100
AcDbSymbolTableRecord
100
AcDbViewportTableRecord
  2
*Active
 70
     0
 10
0.0
 20
0.0
 11
1.0
 21
1.0
 12
-9033.50676073907
 22
3675.144597852135
 13
0.0
 23
0.0
 14
0.5
 24
0.5
 15
0.5
 25
0.5
 16
0.0
 26
0.0
 36
1.0
 17
0.0
 27
0.0
 37
0.0
 40
2726.557977891808
 41
0.6386377801031983
 42
50.0
 43
0.0
 44
0.0
 50
0.0
 51
0.0
 71
     0
 72
   100
 73
     1
 74
     3
 75
     0
 76
     0
 77
     0
 78
     0
281
     0
 65
     1
110
0.0
120
0.0
130
0.0
111
1.0
121
0.0
131
0.0
112
0.0
122
1.0
132
0.0
 79
     0
146
0.0
  0
ENDTAB
  0
TABLE
  2
LTYPE
  5
5
330
0
100
AcDbSymbolTable
 70
     1
  0
LTYPE
  5
14
330
5
100
AcDbSymbolTableRecord
100
AcDbLinetypeTableRecord
  2
ByBlock
 70
     0
  3

 72
    65
 73
     0
 40
0.0
  0
LTYPE
  5
15
330
5
100
AcDbSymbolTableRecord
100
AcDbLinetypeTableRecord
  2
ByLayer
 70
     0
  3

 72
    65
 73
     0
 40
0.0
  0
LTYPE
  5
16
330
5
100
AcDbSymbolTableRecord
100
AcDbLinetypeTableRecord
  2
Continuous
 70
     0
  3
Solid line
 72
    65
 73
     0
 40
0.0
  0
ENDTAB
  0
TABLE
  2
LAYER
  5
2
330
0
100
AcDbSymbolTable
 70
     2
  0
LAYER
  5
10
330
2
100
AcDbSymbolTableRecord
100
AcDbLayerTableRecord
  2
0
 70
     0
 62
     7
  6
Continuous
370
    -3
390
F
  0
LAYER
  5
3B
330
2
100
AcDbSymbolTableRecord
100
AcDbLayerTableRecord
  2
2D
 70
     0
 62
     7
  6
Continuous
370
    -3
390
F
  0
ENDTAB
  0
TABLE
  2
STYLE
  5
3
330
0
100
AcDbSymbolTable
 70
     1
  0
STYLE
  5
11
330
3
100
AcDbSymbolTableRecord
100
AcDbTextStyleTableRecord
  2
Standard
 70
     0
 40
0.0
 41
1.0
 50
0.0
 71
     0
 42
0.2
  3
txt
  4

  0
ENDTAB
  0
TABLE
  2
VIEW
  5
6
330
0
100
AcDbSymbolTable
 70
     0
  0
ENDTAB
  0
TABLE
  2
UCS
  5
7
330
0
100
AcDbSymbolTable
 70
     0
  0
ENDTAB
  0
TABLE
  2
APPID
  5
9
330
0
100
AcDbSymbolTable
 70
     1
  0
APPID
  5
12
330
9
100
AcDbSymbolTableRecord
100
AcDbRegAppTableRecord
  2
ACAD
 70
     0
  0
ENDTAB
  0
TABLE
  2
DIMSTYLE
  5
A
330
0
100
AcDbSymbolTable
 70
     1
100
AcDbDimStyleTable
  0
DIMSTYLE
105
27
330
A
100
AcDbSymbolTableRecord
100
AcDbDimStyleTableRecord
  2
Standard
 70
     0
340
11
  0
ENDTAB
  0
TABLE
  2
BLOCK_RECORD
  5
1
330
0
100
AcDbSymbolTable
 70
     1
  0
BLOCK_RECORD
  5
1F
330
1
100
AcDbSymbolTableRecord
100
AcDbBlockTableRecord
  2
*Model_Space
340
22
  0
BLOCK_RECORD
  5
1B
330
1
100
AcDbSymbolTableRecord
100
AcDbBlockTableRecord
  2
*Paper_Space
340
1E
  0
BLOCK_RECORD
  5
23
330
1
100
AcDbSymbolTableRecord
100
AcDbBlockTableRecord
  2
*Paper_Space0
340
26
  0
ENDTAB
  0
ENDSEC
  0
SECTION
  2
BLOCKS
  0
BLOCK
  5
20
330
1F
100
AcDbEntity
  8
0
100
AcDbBlockBegin
  2
*Model_Space
 70
     0
 10
0.0
 20
0.0
 30
0.0
  3
*Model_Space
  1

  0
ENDBLK
  5
21
330
1F
100
AcDbEntity
  8
0
100
AcDbBlockEnd
  0
BLOCK
  5
1C
330
1B
100
AcDbEntity
 67
     1
  8
0
100
AcDbBlockBegin
  2
*Paper_Space
 70
     0
 10
0.0
 20
0.0
 30
0.0
  3
*Paper_Space
  1

  0
ENDBLK
  5
1D
330
1B
100
AcDbEntity
 67
     1
  8
0
100
AcDbBlockEnd
  0
BLOCK
  5
24
330
23
100
AcDbEntity
  8
0
100
AcDbBlockBegin
  2
*Paper_Space0
 70
     0
 10
0.0
 20
0.0
 30
0.0
  3
*Paper_Space0
  1

  0
ENDBLK
  5
25
330
23
100
AcDbEntity
  8
0
100
AcDbBlockEnd
  0
ENDSEC
  0
SECTION
  2
ENTITIES
  0
SPLINE
  5
3C
330
1F
100
AcDbEntity
  8
2D
100
AcDbSpline
210
0.0
220
0.0
230
1.0
 70
     8
 71
     3
 72
    16
 73
    12
 74
     0
 42
0.0000000001
 43
0.0000000001
 40
-88.08913465921962
 40
-88.08913465921962
 40
-88.08913465921962
 40
-88.08913465921962
 40
-82.52016867412763
 40
-82.52016867412763
 40
-76.940205805487
 40
-76.940205805487
 40
-65.78632029618201
 40
-65.78632029618201
 40
-43.73198787810276
 40
-43.73198787810276
 40
0.0
 40
0.0
 40
0.0
 40
0.0
 10
-9838.951186538576
 20
4595.848357176815
 30
0.0
 10
-9837.200708988992
 20
4595.292973442833
 30
0.0
 10
-9835.43243655546
 20
4594.822765650044
 30
0.0
 10
-9831.848016069667
 20
4594.009644825387
 30
0.0
 10
-9830.044348268417
 20
4593.670247110428
 30
0.0
 10
-9824.595861688791
 20
4592.811313790522
 30
0.0
 10
-9820.955493676604
 20
4592.454798474401
 30
0.0
 10
-9810.034948871998
 20
4591.817249971232
 30
0.0
 10
-9802.518487726567
 20
4591.958680447782
 30
0.0
 10
-9780.918504355683
 20
4593.276994304994
 30
0.0
 10
-9765.735045540245
 20
4595.457836714937
 30
0.0
 10
-9751.606281901044
 20
4598.01933542986
 30
0.0
  0
LINE
  5
3D
330
1F
100
AcDbEntity
  8
2D
100
AcDbLine
 10
-9865.486320672451
 20
4667.367811858601
 30
0.0
 11
-9887.076826583918
 21
4726.125216867709
 31
0.0
  0
SPLINE
  5
3E
330
1F
100
AcDbEntity
  8
2D
100
AcDbSpline
210
0.0
220
0.0
230
1.0
 70
     8
 71
     3
 72
    82
 73
    78
 74
     0
 42
0.0000000001
 43
0.0000000001
 40
-1810.448731358783
 40
-1810.448731358783
 40
-1810.448731358783
 40
-1810.448731358783
 40
-1807.4432673881
 40
-1807.4432673881
 40
-1804.230668473838
 40
-1804.230668473838
 40
-1797.643136704603
 40
-1797.643136704603
 40
-1790.727947105996
 40
-1790.727947105996
 40
-1783.743473251637
 40
-1783.743473251637
 40
-1775.667447978048
 40
-1775.667447978048
 40
-1768.581210332155
 40
-1768.581210332155
 40
-1754.408794023366
 40
-1754.408794023366
 40
-1697.718804240963
 40
-1697.718804240963
 40
-1584.338790911648
 40
-1584.338790911648
 40
-1358.23628295463
 40
-1358.23628295463
 40
-1131.984710042133
 40
-1131.984710042133
 40
-1075.437346038486
 40
-1075.437346038486
 40
-1061.313564297475
 40
-1061.313564297475
 40
-1044.772908574342
 40
-1044.772908574342
 40
-1016.479302736239
 40
-1016.479302736239
 40
-959.9144854001188
 40
-959.9144854001188
 40
-903.3587748400636
 40
-903.3587748400636
 40
-846.8236541059424
 40
-846.8236541059424
 40
-790.2819948882341
 40
-790.2819948882341
 40
-761.9985491972699
 40
-761.9985491972699
 40
-754.9332804706194
 40
-754.9332804706194
 40
-747.8675627064716
 40
-747.8675627064716
 40
-733.7371967760753
 40
-733.7371967760753
 40
-677.2157330545264
 40
-677.2157330545264
 40
-451.371499310989
 40
-451.371499310989
 40
-225.2303635337046
 40
-225.2303635337046
 40
-112.4841181855191
 40
-112.4841181855191
 40
-56.11099551143196
 40
-56.11099551143196
 40
-42.01771484291249
 40
-42.01771484291249
 40
-34.97107450864716
 40
-34.97107450864716
 40
-31.44742706430205
 40
-31.44742706430205
 40
-27.91240877523149
 40
-27.91240877523149
 40
-20.78193226440039
 40
-20.78193226440039
 40
-13.50639499295839
 40
-13.50639499295839
 40
-6.526420931126342
 40
-6.526420931126342
 40
-3.074847475778808
 40
-3.074847475778808
 40
0.0
 40
0.0
 40
0.0
 40
0.0
 10
-9887.076826583918
 20
4726.125216867709
 30
0.0
 10
-9887.497611511335
 20
4727.259394081905
 30
0.0
 10
-9886.805107850403
 20
4728.514357969938
 30
0.0
 10
-9885.580919753385
 20
4730.226875360903
 30
0.0
 10
-9884.71299646881
 20
4731.087009579401
 30
0.0
 10
-9882.238738142998
 20
4733.254162746781
 30
0.0
 10
-9880.202000527115
 20
4734.625682645762
 30
0.0
 10
-9876.340125800049
 20
4736.955706384722
 30
0.0
 10
-9874.308733541988
 20
4738.033530818549
 30
0.0
 10
-9870.133250608425
 20
4740.057823691629
 30
0.0
 10
-9868.00415717559
 20
4740.995132442763
 30
0.0
 10
-9863.34322367657
 20
4742.878752983143
 30
0.0
 10
-9861.775580676363
 20
4743.421893110076
 30
0.0
 10
-9857.011658618354
 20
4745.121997710661
 30
0.0
 10
-9854.78519123622
 20
4745.916558871251
 30
0.0
 10
-9848.105807622018
 20
4748.300235739406
 30
0.0
 10
-9843.652891389956
 20
4749.889351446956
 30
0.0
 10
-9821.388208258137
 20
4757.834966375233
 30
0.0
 10
-9803.576441358298
 20
4764.191465595716
 30
0.0
 10
-9750.141130050044
 20
4783.260967042863
 30
0.0
 10
-9714.517585641555
 20
4795.973969269312
 30
0.0
 10
-9607.85354215033
 20
4834.039250112598
 30
0.0
 10
-9536.813043072918
 20
4859.391528744333
 30
0.0
 10
-9394.685209336094
 20
4910.112800346464
 30
0.0
 10
-9323.597874848361
 20
4935.481793797918
 30
0.0
 10
-9234.74358547432
 20
4967.191293004184
 30
0.0
 10
-9216.976630859284
 20
4973.531799519128
 30
0.0
 10
-9194.772039269868
 20
4981.455964193997
 30
0.0
 10
-9190.334403476201
 20
4983.039625662426
 30
0.0
 10
-9180.699759853025
 20
4986.477946462747
 30
0.0
 10
-9177.751722355766
 20
4987.541654247744
 30
0.0
 10
-9163.551600939976
 20
4992.246190814754
 30
0.0
 10
-9154.518284474208
 20
4994.920680695814
 30
0.0
 10
-9127.126256241016
 20
5002.084714240801
 30
0.0
 10
-9108.583319605837
 20
5005.683965138685
 30
0.0
 10
-9071.147932332737
 20
5010.492472998805
 30
0.0
 10
-9052.292798912193
 20
5011.696207745049
 30
0.0
 10
-9014.559840833877
 20
5011.689046019792
 30
0.0
 10
-8995.709215642517
 20
5010.478782772258
 30
0.0
 10
-8958.289934272896
 20
5005.659518839525
 30
0.0
 10
-8939.754842145765
 20
5002.055634696756
 30
0.0
 10
-8912.375639720114
 20
4994.886599166699
 30
0.0
 10
-8903.346323892278
 20
4992.210506686793
 30
0.0
 10
-8892.151508489584
 20
4988.498339480157
 30
0.0
 10
-8889.920268671944
 20
4987.738561402276
 30
0.0
 10
-8885.469407079701
 20
4986.183011457191
 30
0.0
 10
-8883.251147313113
 20
4985.385031137304
 30
0.0
 10
-8876.590595538033
 20
4983.008074494845
 30
0.0
 10
-8872.150339723019
 20
4981.423476715245
 30
0.0
 10
-8849.94906064796
 20
4973.500487817238
 30
0.0
 10
-8832.188037387914
 20
4967.16209669883
 30
0.0
 10
-8743.458846912185
 20
4935.497236818839
 30
0.0
 10
-8672.490679696497
 20
4910.170768057249
 30
0.0
 10
-8530.461048248737
 20
4859.484535550367
 30
0.0
 10
-8459.399584016657
 20
4834.124771805072
 30
0.0
 10
-8352.909301168398
 20
4796.121496142446
 30
0.0
 10
-8317.480482552219
 20
4783.477984225114
 30
0.0
 10
-8264.337254627946
 20
4764.512716349116
 30
0.0
 10
-8246.622845319853
 20
4758.190960390453
 30
0.0
 10
-8224.479833684742
 20
4750.288765442121
 30
0.0
 10
-8220.051231357716
 20
4748.708326452452
 30
0.0
 10
-8213.408327867182
 20
4746.337667967951
 30
0.0
 10
-8211.19402670367
 20
4745.54744847312
 30
0.0
 10
-8207.87247211644
 20
4744.362082529573
 30
0.0
 10
-8206.764727724898
 20
4743.96831446481
 30
0.0
 10
-8204.547583753785
 20
4743.174118397007
 30
0.0
 10
-8203.442296922516
 20
4742.763799921127
 30
0.0
 10
-8200.127877632476
 20
4741.468066030005
 30
0.0
 10
-8197.944382598504
 20
4740.536389937259
 30
0.0
 10
-8193.594979489731
 20
4738.488445686711
 30
0.0
 10
-8191.445456719855
 20
4737.379449838059
 30
0.0
 10
-8187.339080586356
 20
4734.972710409577
 30
0.0
 10
-8185.165693935596
 20
4733.546779669226
 30
0.0
 10
-8182.500253044149
 20
4731.280565145147
 30
0.0
 10
-8181.56048609571
 20
4730.376869999368
 30
0.0
 10
-8180.252256667707
 20
4728.597799585927
 30
0.0
 10
-8179.503035143276
 20
4727.294097043271
 30
0.0
 10
-8179.936694894266
 20
4726.125217675964
 30
0.0
  0
LINE
  5
3F
330
1F
100
AcDbEntity
  8
2D
100
AcDbLine
 10
-8179.936694894266
 20
4726.125217675964
 30
0.0
 11
-8201.527200692446
 21
4667.367812996848
 31
0.0
  0
LINE
  5
40
330
1F
100
AcDbEntity
  8
2D
100
AcDbLine
 10
-9865.486320672451
 20
2682.921383845671
 30
0.0
 11
-9887.076826583918
 21
2624.163978836563
 31
0.0
  0
SPLINE
  5
41
330
1F
100
AcDbEntity
  8
2D
100
AcDbSpline
210
0.0
220
0.0
230
1.0
 70
     8
 71
     3
 72
    82
 73
    78
 74
     0
 42
0.0000000001
 43
0.0000000001
 40
-1810.448731358802
 40
-1810.448731358802
 40
-1810.448731358802
 40
-1810.448731358802
 40
-1807.44326740261
 40
-1807.44326740261
 40
-1804.23066850868
 40
-1804.23066850868
 40
-1797.643136738837
 40
-1797.643136738837
 40
-1790.727947154527
 40
-1790.727947154527
 40
-1783.743473314563
 40
-1783.743473314563
 40
-1775.667444362117
 40
-1775.667444362117
 40
-1768.581206730807
 40
-1768.581206730807
 40
-1754.40879045123
 40
-1754.40879045123
 40
-1697.718800785668
 40
-1697.718800785668
 40
-1584.338787690059
 40
-1584.338787690059
 40
-1358.23628019914
 40
-1358.23628019914
 40
-1131.984707753053
 40
-1131.984707753053
 40
-1075.437343865985
 40
-1075.437343865985
 40
-1061.313562154075
 40
-1061.313562154075
 40
-1044.772906463485
 40
-1044.772906463485
 40
-1016.479300683692
 40
-1016.479300683692
 40
-959.9144834642245
 40
-959.9144834642245
 40
-903.3587730209578
 40
-903.3587730209578
 40
-846.8236524032661
 40
-846.8236524032661
 40
-790.281993302122
 40
-790.281993302122
 40
-761.9985476694437
 40
-761.9985476694437
 40
-754.9332789573369
 40
-754.9332789573369
 40
-747.867561207757
 40
-747.867561207757
 40
-733.7371953064707
 40
-733.7371953064707
 40
-677.2157317013458
 40
-677.2157317013458
 40
-451.3714984230566
 40
-451.3714984230566
 40
-225.2303631116429
 40
-225.2303631116429
 40
-112.4841179957526
 40
-112.4841179957526
 40
-56.11099543779675
 40
-56.11099543779675
 40
-42.01771479831048
 40
-42.01771479831048
 40
-34.97107447856176
 40
-34.97107447856176
 40
-31.44742704146464
 40
-31.44742704146464
 40
-27.91240875965289
 40
-27.91240875965289
 40
-20.78193226350897
 40
-20.78193226350897
 40
-13.50639500706496
 40
-13.50639500706496
 40
-6.526420959283116
 40
-6.526420959283116
 40
-3.074847469416229
 40
-3.074847469416229
 40
0.0
 40
0.0
 40
0.0
 40
0.0
 10
-9887.076826583918
 20
2624.163978836563
 30
0.0
 10
-9887.497611510193
 20
2623.02980162548
 30
0.0
 10
-9886.805107848773
 20
2621.774837732054
 30
0.0
 10
-9885.580919756077
 20
2620.062320347135
 30
0.0
 10
-9884.712996465354
 20
2619.202186121839
 30
0.0
 10
-9882.238738139404
 20
2617.03503295433
 30
0.0
 10
-9880.202000531153
 20
2615.663513060958
 30
0.0
 10
-9876.34012580002
 20
2613.333489319551
 30
0.0
 10
-9874.308733541966
 20
2612.255664885728
 30
0.0
 10
-9870.133250608418
 20
2610.231372012627
 30
0.0
 10
-9868.004157175583
 20
2609.294063261497
 30
0.0
 10
-9863.343222532876
 20
2607.41044225893
 30
0.0
 10
-9861.775581837446
 20
2606.867303008542
 30
0.0
 10
-9857.011658618318
 20
2605.1671979936
 30
0.0
 10
-9854.785191236177
 20
2604.372636833007
 30
0.0
 10
-9848.105807621967
 20
2601.988959964852
 30
0.0
 10
-9843.652891389906
 20
2600.399844257301
 30
0.0
 10
-9821.388208258086
 20
2592.45422932902
 30
0.0
 10
-9803.57644135824
 20
2586.097730108535
 30
0.0
 10
-9750.141130049971
 20
2567.028228661386
 30
0.0
 10
-9714.517585641475
 20
2554.315226434933
 30
0.0
 10
-9607.853542150242
 20
2516.249945591643
 30
0.0
 10
-9536.81304307283
 20
2490.897666959908
 30
0.0
 10
-9394.685209336007
 20
2440.176395357781
 30
0.0
 10
-9323.597874848274
 20
2414.807401906331
 30
0.0
 10
-9234.74358547424
 20
2383.09790270006
 30
0.0
 10
-9216.976630859204
 20
2376.757396185119
 30
0.0
 10
-9194.772039269792
 20
2368.833231510243
 30
0.0
 10
-9190.334403476121
 20
2367.249570041814
 30
0.0
 10
-9180.699759852454
 20
2363.811249241325
 30
0.0
 10
-9177.751722356184
 20
2362.747541456665
 30
0.0
 10
-9163.5516009399
 20
2358.04300488951
 30
0.0
 10
-9154.518284474132
 20
2355.368515008444
 30
0.0
 10
-9127.126256240965
 20
2348.204481463452
 30
0.0
 10
-9108.583319605725
 20
2344.605230565577
 30
0.0
 10
-9071.14793233274
 20
2339.796722705466
 30
0.0
 10
-9052.292798912036
 20
2338.592987959222
 30
0.0
 10
-9014.559840833783
 20
2338.600149684478
 30
0.0
 10
-8995.70921564247
 20
2339.810412932021
 30
0.0
 10
-8958.289934272852
 20
2344.629676864756
 30
0.0
 10
-8939.754842145678
 20
2348.233561007539
 30
0.0
 10
-8912.375639720052
 20
2355.402596537588
 30
0.0
 10
-8903.34632389222
 20
2358.078689017493
 30
0.0
 10
-8892.151508489529
 20
2361.79085622413
 30
0.0
 10
-8889.920268671893
 20
2362.55063430201
 30
0.0
 10
-8885.46940707965
 20
2364.106184247094
 30
0.0
 10
-8883.251147313069
 20
2364.90416456698
 30
0.0
 10
-8876.590595537993
 20
2367.281121209438
 30
0.0
 10
-8872.150339722983
 20
2368.865718989043
 30
0.0
 10
-8849.94906064792
 20
2376.78870788705
 30
0.0
 10
-8832.188037387867
 20
2383.127099005456
 30
0.0
 10
-8743.458846912134
 20
2414.791958885446
 30
0.0
 10
-8672.49067969645
 20
2440.118427647035
 30
0.0
 10
-8530.461048248693
 20
2490.804660153918
 30
0.0
 10
-8459.39958401662
 20
2516.164423899212
 30
0.0
 10
-8352.909301168376
 20
2554.167699561835
 30
0.0
 10
-8317.4804825522
 20
2566.811211479164
 30
0.0
 10
-8264.337254627939
 20
2585.776479355157
 30
0.0
 10
-8246.622845319853
 20
2592.098235313821
 30
0.0
 10
-8224.479833684742
 20
2600.000430262152
 30
0.0
 10
-8220.05123135772
 20
2601.580869251818
 30
0.0
 10
-8213.408327867186
 20
2603.951527736317
 30
0.0
 10
-8211.194026703677
 20
2604.741747231154
 30
0.0
 10
-8207.872472116444
 20
2605.927113174701
 30
0.0
 10
-8206.764727724902
 20
2606.320881239462
 30
0.0
 10
-8204.547583753785
 20
2607.115077307271
 30
0.0
 10
-8203.442296922509
 20
2607.525395783147
 30
0.0
 10
-8200.127877632462
 20
2608.821129674267
 30
0.0
 10
-8197.944382598485
 20
2609.752805767013
 30
0.0
 10
-8193.594979489724
 20
2611.800750017563
 30
0.0
 10
-8191.445456719855
 20
2612.909745866221
 30
0.0
 10
-8187.339080586265
 20
2615.316485294748
 30
0.0
 10
-8185.165693935676
 20
2616.742416034985
 30
0.0
 10
-8182.500253033508
 20
2619.008630568163
 30
0.0
 10
-8181.560486104016
 20
2619.912325693519
 30
0.0
 10
-8180.252256667736
 20
2621.691396118373
 30
0.0
 10
-8179.503035143262
 20
2622.995098660969
 30
0.0
 10
-8179.936694894266
 20
2624.163978028309
 30
0.0
  0
LINE
  5
42
330
1F
100
AcDbEntity
  8
2D
100
AcDbLine
 10
-8179.936694894266
 20
2624.163978028309
 30
0.0
 11
-8201.527200692446
 21
2682.921382707424
 31
0.0
  0
LINE
  5
43
330
1F
100
AcDbEntity
  8
2D
100
AcDbLine
 10
-8440.509673602824
 20
4624.149015886746
 30
0.0
 11
-8315.405855187728
 21
4597.774740684545
 31
0.0
  0
SPLINE
  5
44
330
1F
100
AcDbEntity
  8
2D
100
AcDbSpline
210
0.0
220
0.0
230
1.0
 70
     8
 71
     3
 72
    71
 73
    67
 74
     0
 42
0.0000000001
 43
0.0000000001
 40
-1365.072843744118
 40
-1365.072843744118
 40
-1365.072843744118
 40
-1365.072843744118
 40
-1228.510684887873
 40
-1228.510684887873
 40
-1228.510684887873
 40
-1222.459635485708
 40
-1222.459635485708
 40
-1216.031572471149
 40
-1216.031572471149
 40
-1209.327602993371
 40
-1209.327602993371
 40
-1205.918147527471
 40
-1205.918147527471
 40
-1202.515211853798
 40
-1202.515211853798
 40
-1195.656288625535
 40
-1195.656288625535
 40
-1188.931503645065
 40
-1188.931503645065
 40
-1185.720770216238
 40
-1185.720770216238
 40
-1182.52153471624
 40
-1182.52153471624
 40
-1176.442266121827
 40
-1176.442266121827
 40
-1176.442266121827
 40
-787.5530354495461
 40
-787.5530354495461
 40
-787.5530354495461
 40
-786.1417837913916
 40
-786.1417837913916
 40
-786.1417837913916
 40
-734.3842813032312
 40
-734.3842813032312
 40
-682.7220086647701
 40
-682.7220086647701
 40
-631.0037301374147
 40
-631.0037301374147
 40
-579.1947619403558
 40
-579.1947619403558
 40
-579.1947619403558
 40
-188.6052599709683
 40
-188.6052599709683
 40
-188.6052599709683
 40
-182.5290592753165
 40
-182.5290592753165
 40
-176.077986771847
 40
-176.077986771847
 40
-169.3558044307881
 40
-169.3558044307881
 40
-165.9405536663649
 40
-165.9405536663649
 40
-162.5320600385126
 40
-162.5320600385126
 40
-155.6818763350387
 40
-155.6818763350387
 40
-148.975422796703
 40
-148.975422796703
 40
-145.7711520211179
 40
-145.7711520211179
 40
-142.5786941278475
 40
-142.5786941278475
 40
-136.5268949755175
 40
-136.5268949755175
 40
-136.5268949755175
 40
0.0
 40
0.0
 40
0.0
 40
0.0
 10
-8449.66098559288
 20
2776.007402644887
 30
0.0
 10
-8444.462565808695
 20
2762.750575120523
 30
0.0
 10
-8439.264146024514
 20
2749.49374759616
 30
0.0
 10
-8434.06572624033
 20
2736.236920071796
 30
0.0
 10
-8433.83382388725
 20
2735.645530837207
 30
0.0
 10
-8433.814967338603
 20
2734.991577845701
 30
0.0
 10
-8434.213583107809
 20
2733.480333299168
 30
0.0
 10
-8434.648344927507
 20
2732.648252954018
 30
0.0
 10
-8436.028903066774
 20
2730.791356531136
 30
0.0
 10
-8436.960675490282
 20
2729.806483346533
 30
0.0
 10
-8438.750299695344
 20
2728.220158365107
 30
0.0
 10
-8439.40913180471
 20
2727.678208476686
 30
0.0
 10
-8440.846743196136
 20
2726.572444874671
 30
0.0
 10
-8441.615851084269
 20
2726.015937392002
 30
0.0
 10
-8444.107022627093
 20
2724.311979631532
 30
0.0
 10
-8445.933773602297
 20
2723.183277618887
 30
0.0
 10
-8449.984514304506
 20
2720.897984926235
 30
0.0
 10
-8452.099894560673
 20
2719.798988984702
 30
0.0
 10
-8455.481685427916
 20
2718.17416771612
 30
0.0
 10
-8456.595475853075
 20
2717.658312312787
 30
0.0
 10
-8458.876388609944
 20
2716.639660437403
 30
0.0
 10
-8460.030177583572
 20
2716.142687680281
 30
0.0
 10
-8463.444227051838
 20
2714.724548059537
 30
0.0
 10
-8465.69445719037
 20
2713.852653136813
 30
0.0
 10
-8468.013704267232
 20
2713.016526306482
 30
0.0
 10
-8615.386912481903
 20
2659.886053624356
 30
0.0
 10
-8762.760120696574
 20
2606.755580942231
 30
0.0
 10
-8910.133328911248
 20
2553.625108260106
 30
0.0
 10
-8910.668150662998
 20
2553.433681395336
 30
0.0
 10
-8911.202972414754
 20
2553.242254530567
 30
0.0
 10
-8911.737794166507
 20
2553.050827665797
 30
0.0
 10
-8931.394224547734
 20
2546.066104043507
 30
0.0
 10
-8951.60420364793
 20
2540.769775790123
 30
0.0
 10
-8992.689455196265
 20
2533.710409726506
 30
0.0
 10
-9013.468655904991
 20
2531.957048199948
 30
0.0
 10
-9055.141680020792
 20
2532.046640859454
 30
0.0
 10
-9075.93011592513
 20
2533.892834691495
 30
0.0
 10
-9117.02617531132
 20
2541.142028593372
 30
0.0
 10
-9137.236002228758
 20
2546.536328335903
 30
0.0
 10
-9156.879617557952
 20
2553.618068655122
 30
0.0
 10
-9304.896639286872
 20
2606.980646135666
 30
0.0
 10
-9452.913661015788
 20
2660.343223616209
 30
0.0
 10
-9600.93068274471
 20
2713.705801096753
 30
0.0
 10
-9603.24829972372
 20
2714.541340249919
 30
0.0
 10
-9605.497027161891
 20
2715.412610314826
 30
0.0
 10
-9610.105726812242
 20
2717.326805054682
 30
0.0
 10
-9612.35883276293
 20
2718.333107514777
 30
0.0
 10
-9616.841865777282
 20
2720.486968614286
 30
0.0
 10
-9618.956189890163
 20
2721.585331076002
 30
0.0
 10
-9621.97901043022
 20
2723.290480956976
 30
0.0
 10
-9622.948612148426
 20
2723.862314963882
 30
0.0
 10
-9624.803694585502
 20
2725.00865415771
 30
0.0
 10
-9625.67718154845
 20
2725.575640238597
 30
0.0
 10
-9628.166812863823
 20
2727.278688875013
 30
0.0
 10
-9629.582252556971
 20
2728.367369035947
 30
0.0
 10
-9631.981450540621
 20
2730.493493262261
 30
0.0
 10
-9632.913723129906
 20
2731.47860634617
 30
0.0
 10
-9633.955888156339
 20
2732.879845024609
 30
0.0
 10
-9634.233685237206
 20
2733.316056295415
 30
0.0
 10
-9634.673944508886
 20
2734.159408509872
 30
0.0
 10
-9634.834246216615
 20
2734.561711995163
 30
0.0
 10
-9635.129418707274
 20
2735.680961391007
 30
0.0
 10
-9635.110543756218
 20
2736.334854976848
 30
0.0
 10
-9634.878660771577
 20
2736.926194861989
 30
0.0
 10
-9629.68158372732
 20
2750.179599147641
 30
0.0
 10
-9624.484506683064
 20
2763.433003433292
 30
0.0
 10
-9619.287429638807
 20
2776.686407718944
 30
0.0
  0
LINE
  5
45
330
1F
100
AcDbEntity
  8
2D
100
AcDbLine
 10
-9421.603292597905
 20
2449.782764845283
 30
0.0
 11
-9351.04022520922
 21
2623.623502055511
 31
0.0
  0
SPLINE
  5
46
330
1F
100
AcDbEntity
  8
2D
100
AcDbSpline
210
0.0
220
0.0
230
1.0
 70
     8
 71
     3
 72
    10
 73
     6
 74
     0
 42
0.0000000001
 43
0.0000000001
 40
-41.45007750492108
 40
-41.45007750492108
 40
-41.45007750492108
 40
-41.45007750492108
 40
-20.56994634009271
 40
-20.56994634009271
 40
0.0
 40
0.0
 40
0.0
 40
0.0
 10
-9738.826301357829
 20
2876.303922462674
 30
0.0
 10
-9745.393118565251
 20
2878.471613899615
 30
0.0
 10
-9752.00598851615
 20
2880.427396661197
 30
0.0
 10
-9765.34068422615
 20
2883.711551444896
 30
0.0
 10
-9772.302065579494
 20
2885.101704985778
 30
0.0
 10
-9779.081195680814
 20
2885.89660188288
 30
0.0
  0
SPLINE
  5
47
330
1F
100
AcDbEntity
  8
2D
100
AcDbSpline
210
0.0
220
0.0
230
1.0
 70
     8
 71
     3
 72
   152
 73
   148
 74
     0
 42
0.0000000001
 43
0.0000000001
 40
0.0
 40
0.0
 40
0.0
 40
0.0
 40
8.591839372500338
 40
8.591839372500338
 40
12.48485714685914
 40
12.48485714685914
 40
12.98693816202962
 40
12.98693816202962
 40
13.48778621958283
 40
13.48778621958283
 40
14.48948233467978
 40
14.48948233467978
 40
16.49287456485129
 40
16.49287456485129
 40
32.52001240524174
 40
32.52001240524174
 40
64.5742880820882
 40
64.5742880820882
 40
128.6828394316223
 40
128.6828394316223
 40
192.7913907938832
 40
192.7913907938832
 40
208.8185286354037
 40
208.8185286354037
 40
209.8202247505112
 40
209.8202247505112
 40
210.3210728080608
 40
210.3210728080608
 40
210.8233699694047
 40
210.8233699694047
 40
212.8766602931733
 40
212.8766602931733
 40
217.019266327828
 40
217.019266327828
 40
221.5576789065026
 40
221.5576789065026
 40
226.053261129021
 40
226.053261129021
 40
235.0611327141667
 40
235.0611327141667
 40
239.5181136867148
 40
239.5181136867148
 40
244.5710705032978
 40
244.5710705032978
 40
253.3500185258852
 40
253.3500185258852
 40
262.1323717534858
 40
262.1323717534858
 40
542.9901866704303
 40
542.9901866704303
 40
824.0916244382727
 40
824.0916244382727
 40
894.4329764311368
 40
894.4329764311368
 40
964.7743235887139
 40
964.7743235887139
 40
973.5675741242591
 40
973.5675741242591
 40
982.3581122318482
 40
982.3581122318482
 40
999.9588450631203
 40
999.9588450631203
 40
1035.195054901581
 40
1035.195054901581
 40
1052.774216355406
 40
1052.774216355406
 40
1070.377733276798
 40
1070.377733276798
 40
1079.174875072968
 40
1079.174875072968
 40
1087.965935352881
 40
1087.965935352881
 40
1096.740747173004
 40
1096.740747173004
 40
1105.551425985915
 40
1105.551425985915
 40
1140.729324846924
 40
1140.729324846924
 40
1158.301174335949
 40
1158.301174335949
 40
1175.866514814426
 40
1175.866514814426
 40
1193.42733014465
 40
1193.42733014465
 40
1211.021496510491
 40
1211.021496510491
 40
1228.563877579444
 40
1228.563877579444
 40
1237.345437473205
 40
1237.345437473205
 40
1246.099032966439
 40
1246.099032966439
 40
1316.341792297851
 40
1316.341792297851
 40
1386.584485397782
 40
1386.584485397782
 40
1668.020731437651
 40
1668.020731437651
 40
1949.026908188299
 40
1949.026908188299
 40
1957.826868394896
 40
1957.826868394896
 40
1966.627131287193
 40
1966.627131287193
 40
1971.021764975707
 40
1971.021764975707
 40
1975.393001206571
 40
1975.393001206571
 40
1979.723133140848
 40
1979.723133140848
 40
1984.027861107763
 40
1984.027861107763
 40
1992.149086875422
 40
1992.149086875422
 40
1996.192102519876
 40
1996.192102519876
 40
1998.199621775518
 40
1998.199621775518
 40
1999.271735011932
 40
1999.271735011932
 40
1999.800017536163
 40
1999.800017536163
 40
2000.326227578355
 40
2000.326227578355
 40
2017.165384889364
 40
2017.165384889364
 40
2084.522014133418
 40
2084.522014133418
 40
2151.878643377471
 40
2151.878643377471
 40
2185.556957999496
 40
2185.556957999496
 40
2202.396115310507
 40
2202.396115310507
 40
2206.605904638263
 40
2206.605904638263
 40
2207.131476368593
 40
2207.131476368593
 40
2207.663190691647
 40
2207.663190691647
 40
2208.763290308508
 40
2208.763290308508
 40
2210.88812638921
 40
2210.88812638921
 40
2215.193436233174
 40
2215.193436233174
 40
2219.714932114001
 40
2219.714932114001
 40
2219.714932114001
 40
2219.714932114001
 10
-9779.081195680814
 20
2885.89660188288
 30
0.0
 10
-9781.606804639818
 20
2886.192439773785
 30
0.0
 10
-9784.8293035215
 20
2886.385515190715
 30
0.0
 10
-9788.53655048394
 20
2885.667367650755
 30
0.0
 10
-9790.298870298062
 20
2885.154998858686
 30
0.0
 10
-9790.995990433763
 20
2883.721983085215
 30
0.0
 10
-9791.05182469243
 20
2883.550153691127
 30
0.0
 10
-9791.177586753143
 20
2883.211180836961
 30
0.0
 10
-9791.240390480267
 20
2883.041902769156
 30
0.0
 10
-9791.428801661594
 20
2882.534068565729
 30
0.0
 10
-9791.55440911576
 20
2882.195512430092
 30
0.0
 10
-9791.931231478124
 20
2881.179844023136
 30
0.0
 10
-9792.182446386174
 20
2880.502731751762
 30
0.0
 10
-9794.443380556684
 20
2874.408721309074
 30
0.0
 10
-9796.453099806891
 20
2868.99182313321
 30
0.0
 10
-9802.482257522668
 20
2852.741128594209
 30
0.0
 10
-9806.501695953917
 20
2841.907332218338
 30
0.0
 10
-9818.560011134377
 20
2809.405943050291
 30
0.0
 10
-9826.598887770833
 20
2787.73835021628
 30
0.0
 10
-9842.676640875554
 20
2744.403164480969
 30
0.0
 10
-9850.715517343819
 20
2722.735571579668
 30
0.0
 10
-9860.764112904984
 20
2695.65108044371
 30
0.0
 10
-9862.773832016104
 20
2690.234182215808
 30
0.0
 10
-9864.90915857146
 20
2684.478727848583
 30
0.0
 10
-9865.034766015899
 20
2684.14017170933
 30
0.0
 10
-9865.223177182557
 20
2683.632337500455
 30
0.0
 10
-9865.28598090477
 20
2683.46305943083
 30
0.0
 10
-9865.411770059229
 20
2683.124013519303
 30
0.0
 10
-9865.476272563803
 20
2682.956427700128
 30
0.0
 10
-9865.65171768468
 20
2682.042407332524
 30
0.0
 10
-9865.384784854683
 20
2681.286767205819
 30
0.0
 10
-9864.387016634744
 20
2679.433523511629
 30
0.0
 10
-9863.17456649651
 20
2678.232836285991
 30
0.0
 10
-9861.009399065155
 20
2676.357805922676
 30
0.0
 10
-9859.80795991854
 20
2675.487346585029
 30
0.0
 10
-9857.326851194677
 20
2673.845628529728
 30
0.0
 10
-9856.06082121332
 20
2673.086735177704
 30
0.0
 10
-9852.179643055166
 20
2670.919167144259
 30
0.0
 10
-9849.523644819299
 20
2669.635573968702
 30
0.0
 10
-9845.460251200147
 20
2667.87097592375
 30
0.0
 10
-9844.104859691291
 20
2667.314406767972
 30
0.0
 10
-9841.187861452749
 20
2666.182808360843
 30
0.0
 10
-9840.219245557953
 20
2665.839130715065
 30
0.0
 10
-9835.933944223918
 20
2664.310341758088
 30
0.0
 10
-9833.21424143211
 20
2663.339679275075
 30
0.0
 10
-9827.773730323814
 20
2661.398119534214
 30
0.0
 10
-9825.052947301385
 20
2660.427151426
 30
0.0
 10
-9735.322093656647
 20
2628.404826796836
 30
0.0
 10
-9648.312022952905
 20
2597.353470504053
 30
0.0
 10
-9474.216406851807
 20
2535.223823382303
 30
0.0
 10
-9387.130861462898
 20
2504.14553252967
 30
0.0
 10
-9278.253485167657
 20
2465.29037287094
 30
0.0
 10
-9256.461654252147
 20
2457.513504090557
 30
0.0
 10
-9212.877993932347
 20
2441.959767027267
 30
0.0
 10
-9191.088039303642
 20
2434.177647723896
 30
0.0
 10
-9166.569482180137
 20
2425.435801835526
 30
0.0
 10
-9163.846342682147
 20
2424.460778986075
 30
0.0
 10
-9158.394658163706
 20
2422.528511216002
 30
0.0
 10
-9155.659691924895
 20
2421.59201814752
 30
0.0
 10
-9147.415662226846
 20
2418.872055526463
 30
0.0
 10
-9141.8834163393
 20
2417.185497573583
 30
0.0
 10
-9125.148286396376
 20
2412.494592913044
 30
0.0
 10
-9113.904072236292
 20
2409.885361969207
 30
0.0
 10
-9096.819208078054
 20
2406.73331393299
 30
0.0
 10
-9091.11622960064
 20
2405.814362627193
 30
0.0
 10
-9079.651404420845
 20
2404.235016881901
 30
0.0
 10
-9073.904510784665
 20
2403.576123567334
 30
0.0
 10
-9065.256336938495
 20
2402.784502228843
 30
0.0
 10
-9062.372541563625
 20
2402.553840265281
 30
0.0
 10
-9056.60054004653
 20
2402.15848295963
 30
0.0
 10
-9053.714222285795
 20
2401.993701655918
 30
0.0
 10
-9047.942072947772
 20
2401.729787028833
 30
0.0
 10
-9045.058105384942
 20
2401.630999966401
 30
0.0
 10
-9039.274969053506
 20
2401.499360991515
 30
0.0
 10
-9036.37769327774
 20
2401.466573040488
 30
0.0
 10
-9021.907940216417
 20
2401.467420203101
 30
0.0
 10
-9010.396391745118
 20
2401.993868007397
 30
0.0
 10
-8993.116976046276
 20
2403.5754825411
 30
0.0
 10
-8987.380374518496
 20
2404.232775973234
 30
0.0
 10
-8975.930320133477
 20
2405.809598660693
 30
0.0
 10
-8970.23167290652
 20
2406.726999765481
 30
0.0
 10
-8958.86870834605
 20
2408.822001712592
 30
0.0
 10
-8953.21906387198
 20
2409.997017807354
 30
0.0
 10
-8941.953709871159
 20
2412.607920508527
 30
0.0
 10
-8936.352628748238
 20
2414.041018126058
 30
0.0
 10
-8925.223066252223
 20
2417.158238990124
 30
0.0
 10
-8919.708648070176
 20
2418.83779889271
 30
0.0
 10
-8911.484598447609
 20
2421.547799103169
 30
0.0
 10
-8908.752094097275
 20
2422.482417193421
 30
0.0
 10
-8903.314769676017
 20
2424.407411958724
 30
0.0
 10
-8900.60414549202
 20
2425.378730668705
 30
0.0
 10
-8876.128264804043
 20
2434.105218885509
 30
0.0
 10
-8854.368775999712
 20
2441.876534718902
 30
0.0
 10
-8810.84602549365
 20
2457.408534244514
 30
0.0
 10
-8789.08466049996
 20
2465.174530346059
 30
0.0
 10
-8680.1336306138
 20
2504.05597338055
 30
0.0
 10
-8592.943965721319
 20
2535.171420313467
 30
0.0
 10
-8418.697872496094
 20
2597.354765939387
 30
0.0
 10
-8331.641444163353
 20
2628.422664632397
 30
0.0
 10
-8241.858765774781
 20
2660.463482409839
 30
0.0
 10
-8239.132515718946
 20
2661.436401494262
 30
0.0
 10
-8233.679921834475
 20
2663.382273127881
 30
0.0
 10
-8230.954337872521
 20
2664.357351728688
 30
0.0
 10
-8226.86508802807
 20
2665.812149681013
 30
0.0
 10
-8225.506579063327
 20
2666.304760912229
 30
0.0
 10
-8222.81911360081
 20
2667.35098494796
 30
0.0
 10
-8221.489999665977
 20
2667.897370747708
 30
0.0
 10
-8218.864730012916
 20
2669.039019074858
 30
0.0
 10
-8217.571149350664
 20
2669.632700645084
 30
0.0
 10
-8215.01750215936
 20
2670.877795170378
 30
0.0
 10
-8213.760376023594
 20
2671.526327243496
 30
0.0
 10
-8210.18151580857
 20
2673.503624680838
 30
0.0
 10
-8207.599850334209
 20
2675.105338572447
 30
0.0
 10
-8204.478464132302
 20
2677.641710514062
 30
0.0
 10
-8203.36931618132
 20
2678.65912502061
 30
0.0
 10
-8202.158713510686
 20
2680.278951845501
 30
0.0
 10
-8201.766007521644
 20
2680.92589002546
 30
0.0
 10
-8201.47998406969
 20
2681.937252046032
 30
0.0
 10
-8201.4352446154
 20
2682.275311300496
 30
0.0
 10
-8201.50432811946
 20
2682.824261661661
 30
0.0
 10
-8201.553213832434
 20
2682.994724279153
 30
0.0
 10
-8201.680231163431
 20
2683.334282454131
 30
0.0
 10
-8201.742748106739
 20
2683.50404827251
 30
0.0
 10
-8203.819433755423
 20
2689.101444774109
 30
0.0
 10
-8205.833191115831
 20
2694.529227458198
 30
0.0
 10
-8215.90197791786
 20
2721.668140878642
 30
0.0
 10
-8223.957007359466
 20
2743.379271615005
 30
0.0
 10
-8240.06706624249
 20
2786.801533087799
 30
0.0
 10
-8248.122095683917
 20
2808.512663824229
 30
0.0
 10
-8260.204639845819
 20
2841.07935992896
 30
0.0
 10
-8264.232154566416
 20
2851.934925297217
 30
0.0
 10
-8270.273426647236
 20
2868.21827334963
 30
0.0
 10
-8272.287184007491
 20
2873.646056033773
 30
0.0
 10
-8274.804380707807
 20
2880.430784388956
 30
0.0
 10
-8275.307820047863
 20
2881.787730059995
 30
0.0
 10
-8275.874111341906
 20
2883.314083800833
 30
0.0
 10
-8275.936782453871
 20
2883.483558804267
 30
0.0
 10
-8276.063049636352
 20
2883.824418292632
 30
0.0
 10
-8276.14041596125
 20
2883.985229384139
 30
0.0
 10
-8276.44979017588
 20
2884.455179778407
 30
0.0
 10
-8276.707713720461
 20
2884.694495286656
 30
0.0
 10
-8277.610178002844
 20
2885.322826677971
 30
0.0
 10
-8278.357809172274
 20
2885.588891234894
 30
0.0
 10
-8280.44235673004
 20
2886.11061664008
 30
0.0
 10
-8282.05184447414
 20
2886.201729629355
 30
0.0
 10
-8284.969417406202
 20
2886.184280682779
 30
0.0
 10
-8286.449646202225
 20
2886.070276351724
 30
0.0
 10
-8287.93235639072
 20
2885.896599505112
 30
0.0
  0
SPLINE
  5
48
330
1F
100
AcDbEntity
  8
2D
100
AcDbSpline
210
0.0
220
0.0
230
1.0
 70
     8
 71
     3
 72
    11
 73
     7
 74
     0
 42
0.0000000001
 43
0.0000000001
 40
-41.44573281671383
 40
-41.44573281671383
 40
-41.44573281671383
 40
-41.44573281671383
 40
-37.03005546957839
 40
-32.35861714981559
 40
-22.34064696671014
 40
0.0
 40
0.0
 40
0.0
 40
0.0
 10
-8287.93235639072
 20
2885.896599505112
 30
0.0
 10
-8289.39438108743
 20
2885.725453707775
 30
0.0
 10
-8292.396624012417
 20
2885.318337828568
 30
0.0
 10
-8298.67818097633
 20
2884.263112351261
 30
0.0
 10
-8310.753701224869
 20
2881.677211437652
 30
0.0
 10
-8321.114765034577
 20
2878.635679771461
 30
0.0
 10
-8328.186729108176
 20
2876.304094734887
 30
0.0
  0
LINE
  5
49
330
1F
100
AcDbEntity
  8
2D
100
AcDbLine
 10
-9751.606281901044
 20
4597.774740684545
 30
0.0
 11
-9626.502463485947
 21
4624.149015886746
 31
0.0
  0
LINE
  5
4A
330
1F
100
AcDbEntity
  8
2D
100
AcDbLine
 10
-8645.408935923453
 20
4900.506174652334
 30
0.0
 11
-8715.971911879558
 21
4726.665693648761
 31
0.0
  0
SPLINE
  5
4B
330
1F
100
AcDbEntity
  8
2D
100
AcDbSpline
210
0.0
220
0.0
230
1.0
 70
     8
 71
     3
 72
    71
 73
    67
 74
     0
 42
0.0000000001
 43
0.0000000001
 40
-1365.072843744134
 40
-1365.072843744134
 40
-1365.072843744134
 40
-1365.072843744134
 40
-1228.510684887889
 40
-1228.510684887889
 40
-1228.510684887889
 40
-1222.459635485723
 40
-1222.459635485723
 40
-1216.031572471164
 40
-1216.031572471164
 40
-1209.327602993386
 40
-1209.327602993386
 40
-1205.918147527486
 40
-1205.918147527486
 40
-1202.515211853812
 40
-1202.515211853812
 40
-1195.65628862555
 40
-1195.65628862555
 40
-1188.931503645079
 40
-1188.931503645079
 40
-1185.720770216253
 40
-1185.720770216253
 40
-1182.521534716255
 40
-1182.521534716255
 40
-1176.442266121841
 40
-1176.442266121841
 40
-1176.442266121841
 40
-787.5530354495558
 40
-787.5530354495558
 40
-787.5530354495558
 40
-786.1417837914013
 40
-786.1417837914013
 40
-786.1417837914013
 40
-734.3842813032403
 40
-734.3842813032403
 40
-682.7220086647785
 40
-682.7220086647785
 40
-631.0037301374224
 40
-631.0037301374224
 40
-579.1947619403629
 40
-579.1947619403629
 40
-579.1947619403629
 40
-188.6052599709706
 40
-188.6052599709706
 40
-188.6052599709706
 40
-182.5290592753187
 40
-182.5290592753187
 40
-176.0779867718492
 40
-176.0779867718492
 40
-169.3558044307902
 40
-169.3558044307902
 40
-165.940553666367
 40
-165.940553666367
 40
-162.5320600385146
 40
-162.5320600385146
 40
-155.6818763350406
 40
-155.6818763350406
 40
-148.9754227967048
 40
-148.9754227967048
 40
-145.7711520211197
 40
-145.7711520211197
 40
-142.5786941278492
 40
-142.5786941278492
 40
-136.5268949755192
 40
-136.5268949755192
 40
-136.5268949755192
 40
0.0
 40
0.0
 40
0.0
 40
0.0
 10
-8449.66098559288
 20
4574.281793059386
 30
0.0
 10
-8444.462565808695
 20
4587.538620583749
 30
0.0
 10
-8439.264146024514
 20
4600.795448108113
 30
0.0
 10
-8434.06572624033
 20
4614.052275632476
 30
0.0
 10
-8433.83382388725
 20
4614.643664867065
 30
0.0
 10
-8433.814967338603
 20
4615.297617858571
 30
0.0
 10
-8434.213583107809
 20
4616.808862405104
 30
0.0
 10
-8434.648344927507
 20
4617.640942750254
 30
0.0
 10
-8436.028903066774
 20
4619.497839173136
 30
0.0
 10
-8436.960675490282
 20
4620.482712357739
 30
0.0
 10
-8438.750299695344
 20
4622.069037339165
 30
0.0
 10
-8439.40913180471
 20
4622.610987227586
 30
0.0
 10
-8440.846743196136
 20
4623.716750829602
 30
0.0
 10
-8441.615851084269
 20
4624.27325831227
 30
0.0
 10
-8444.107022627093
 20
4625.97721607274
 30
0.0
 10
-8445.933773602297
 20
4627.105918085385
 30
0.0
 10
-8449.984514304506
 20
4629.391210778037
 30
0.0
 10
-8452.099894560673
 20
4630.49020671957
 30
0.0
 10
-8455.481685427916
 20
4632.115027988152
 30
0.0
 10
-8456.595475853075
 20
4632.630883391485
 30
0.0
 10
-8458.876388609944
 20
4633.649535266869
 30
0.0
 10
-8460.030177583572
 20
4634.146508023991
 30
0.0
 10
-8463.444227051838
 20
4635.564647644735
 30
0.0
 10
-8465.69445719037
 20
4636.436542567459
 30
0.0
 10
-8468.013704267232
 20
4637.27266939779
 30
0.0
 10
-8615.386912481903
 20
4690.403142079916
 30
0.0
 10
-8762.760120696574
 20
4743.533614762041
 30
0.0
 10
-8910.133328911248
 20
4796.664087444166
 30
0.0
 10
-8910.668150662998
 20
4796.855514308936
 30
0.0
 10
-8911.202972414754
 20
4797.046941173706
 30
0.0
 10
-8911.737794166507
 20
4797.238368038475
 30
0.0
 10
-8931.394224547734
 20
4804.223091660765
 30
0.0
 10
-8951.60420364793
 20
4809.519419914149
 30
0.0
 10
-8992.689455196265
 20
4816.578785977766
 30
0.0
 10
-9013.468655904991
 20
4818.332147504324
 30
0.0
 10
-9055.141680020792
 20
4818.242554844818
 30
0.0
 10
-9075.93011592513
 20
4816.396361012777
 30
0.0
 10
-9117.02617531132
 20
4809.1471671109
 30
0.0
 10
-9137.236002228758
 20
4803.752867368369
 30
0.0
 10
-9156.879617557952
 20
4796.67112704915
 30
0.0
 10
-9304.896639286872
 20
4743.308549568606
 30
0.0
 10
-9452.913661015788
 20
4689.945972088063
 30
0.0
 10
-9600.93068274471
 20
4636.583394607519
 30
0.0
 10
-9603.24829972372
 20
4635.747855454353
 30
0.0
 10
-9605.497027161891
 20
4634.876585389447
 30
0.0
 10
-9610.105726812242
 20
4632.96239064959
 30
0.0
 10
-9612.35883276293
 20
4631.956088189495
 30
0.0
 10
-9616.841865777282
 20
4629.802227089986
 30
0.0
 10
-9618.956189890163
 20
4628.70386462827
 30
0.0
 10
-9621.97901043022
 20
4626.998714747296
 30
0.0
 10
-9622.948612148426
 20
4626.426880740391
 30
0.0
 10
-9624.803694585502
 20
4625.280541546562
 30
0.0
 10
-9625.67718154845
 20
4624.713555465675
 30
0.0
 10
-9628.166812863823
 20
4623.010506829259
 30
0.0
 10
-9629.582252556971
 20
4621.921826668325
 30
0.0
 10
-9631.981450540621
 20
4619.795702442011
 30
0.0
 10
-9632.913723129906
 20
4618.810589358102
 30
0.0
 10
-9633.955888156339
 20
4617.409350679663
 30
0.0
 10
-9634.233685237206
 20
4616.973139408857
 30
0.0
 10
-9634.673944508886
 20
4616.1297871944
 30
0.0
 10
-9634.834246216615
 20
4615.727483709109
 30
0.0
 10
-9635.129418707274
 20
4614.608234313265
 30
0.0
 10
-9635.110543756218
 20
4613.954340727424
 30
0.0
 10
-9634.878660771577
 20
4613.363000842283
 30
0.0
 10
-9629.68158372732
 20
4600.109596556632
 30
0.0
 10
-9624.484506683064
 20
4586.856192270981
 30
0.0
 10
-9619.287429638807
 20
4573.602787985328
 30
0.0
  0
SPLINE
  5
4C
330
1F
100
AcDbEntity
  8
2D
100
AcDbSpline
210
0.0
220
0.0
230
1.0
 70
     8
 71
     3
 72
    16
 73
    12
 74
     0
 42
0.0000000001
 43
0.0000000001
 40
-88.08913465920892
 40
-88.08913465920892
 40
-88.08913465920892
 40
-88.08913465920892
 40
-82.52016867411231
 40
-82.52016867411231
 40
-76.94020580546709
 40
-76.94020580546709
 40
-65.78632029618562
 40
-65.78632029618562
 40
-43.73198787829668
 40
-43.73198787829668
 40
0.0
 40
0.0
 40
0.0
 40
0.0
 10
-8228.060950550196
 20
4595.848357176815
 30
0.0
 10
-8229.81142809978
 20
4595.292973442833
 30
0.0
 10
-8231.579700533315
 20
4594.822765650048
 30
0.0
 10
-8235.164121019116
 20
4594.009644825386
 30
0.0
 10
-8236.967788820366
 20
4593.67024711043
 30
0.0
 10
-8242.416275399992
 20
4592.811313790524
 30
0.0
 10
-8246.05664341218
 20
4592.4547984744
 30
0.0
 10
-8256.977188216737
 20
4591.817249971234
 30
0.0
 10
-8264.493649362244
 20
4591.958680447778
 30
0.0
 10
-8286.093632733198
 20
4593.27699430501
 30
0.0
 10
-8301.277091548418
 20
4595.457836714918
 30
0.0
 10
-8315.405855187728
 20
4598.01933542986
 30
0.0
  0
LINE
  5
4D
330
1F
100
AcDbEntity
  8
2D
100
AcDbLine
 10
-8645.408935923453
 20
2449.783021051938
 30
0.0
 11
-8715.971911879558
 21
2623.623502055511
 31
0.0
  0
LINE
  5
4E
330
1F
100
AcDbEntity
  8
2D
100
AcDbLine
 10
-8440.509673602824
 20
2726.140179817526
 30
0.0
 11
-8315.405855187728
 21
2752.514455019728
 31
0.0
  0
SPLINE
  5
4F
330
1F
100
AcDbEntity
  8
2D
100
AcDbSpline
210
0.0
220
0.0
230
1.0
 70
     8
 71
     3
 72
    16
 73
    12
 74
     0
 42
0.0000000001
 43
0.0000000001
 40
-88.08913465920583
 40
-88.08913465920583
 40
-88.08913465920583
 40
-88.08913465920583
 40
-82.52016867409101
 40
-82.52016867409101
 40
-76.94020580543891
 40
-76.94020580543891
 40
-65.7863202961437
 40
-65.7863202961437
 40
-43.73198787825002
 40
-43.73198787825002
 40
0.0
 40
0.0
 40
0.0
 40
0.0
 10
-8228.060950550196
 20
2754.440838527457
 30
0.0
 10
-8229.81142809978
 20
2754.996222261439
 30
0.0
 10
-8231.579700533319
 20
2755.466430054224
 30
0.0
 10
-8235.164121019116
 20
2756.279550878886
 30
0.0
 10
-8236.967788820366
 20
2756.618948593842
 30
0.0
 10
-8242.416275399992
 20
2757.477881913749
 30
0.0
 10
-8246.05664341218
 20
2757.83439722987
 30
0.0
 10
-8256.977188216719
 20
2758.471945733036
 30
0.0
 10
-8264.493649362263
 20
2758.330515256494
 30
0.0
 10
-8286.093632733155
 20
2757.012201399265
 30
0.0
 10
-8301.277091548465
 20
2754.831358989347
 30
0.0
 10
-8315.405855187728
 20
2752.269860274412
 30
0.0
  0
LINE
  5
50
330
1F
100
AcDbEntity
  8
2D
100
AcDbLine
 10
-9421.603292597905
 20
4900.50643085899
 30
0.0
 11
-9351.04022520922
 21
4726.665693648761
 31
0.0
  0
SPLINE
  5
51
330
1F
100
AcDbEntity
  8
2D
100
AcDbSpline
210
0.0
220
0.0
230
1.0
 70
    15
 71
     2
 72
    28
 73
    25
 74
     0
 42
0.0000000001
 43
0.0000000001
 40
-130.0407598076682
 40
-130.0407598076682
 40
-130.0407598076682
 40
-0.000000001849414
 40
-0.000000001849414
 40
497.6049600333633
 40
497.6049600333633
 40
656.0150483767276
 40
656.0150483767276
 40
1153.620008379191
 40
1153.620008379191
 40
1283.660768201941
 40
1283.660768201941
 40
1703.888898599088
 40
1703.888898599088
 40
1833.929658408072
 40
1833.929658408072
 40
2331.534618428213
 40
2331.534618428213
 40
2489.944706791205
 40
2489.944706791205
 40
2987.549666823127
 40
2987.549666823127
 40
3117.590426615654
 40
3117.590426615654
 40
3537.818557016434
 40
3537.818557016434
 40
3537.818557016434
 10
-8413.195241907804
 20
3884.601445669096
 30
0.0
 41
0.9999999999963851
 10
-8423.120507236416
 20
3954.983655497354
 30
-0.0000000000000096
 41
0.8774142021119732
 10
-8487.728558305087
 20
3984.614148055856
 30
0.0
 41
1.0
 10
-8714.43218606873
 20
4088.584783979735
 30
-0.0000000000000001
 41
0.9965620097353659
 10
-8955.192306284767
 20
4153.692329542305
 30
0.0
 41
1.0
 10
-9033.506760900455
 20
4174.870512692997
 30
-0.0000000000000001
 41
0.9653257722832419
 10
-9111.821215514956
 20
4153.692329537885
 30
0.0
 41
1.0
 10
-9352.581335715106
 20
4088.584783979446
 30
0.0000000000000002
 41
0.9965620097352861
 10
-9579.284963463582
 20
3984.614148061826
 30
0.0
 41
1.0
 10
-9643.89301454259
 20
3954.983655503356
 30
0.0000000000000058
 41
0.8774142021104993
 10
-9653.818279875883
 20
3884.601445666296
 30
0.0
 41
1.0
 10
-9683.35578366186
 20
3675.144597853817
 30
-0.0000000000000007
 41
0.9902026344594665
 10
-9653.818279876341
 20
3465.687750041275
 30
0.0
 41
1.0
 10
-9643.893014548816
 20
3395.305540210976
 30
0.0000000000000014
 41
0.8774142021102486
 10
-9579.284963478593
 20
3365.675047651357
 30
0.0
 41
1.0
 10
-9352.581335722141
 20
3261.704411729915
 30
-0.0000000000000002
 41
0.9965620097354209
 10
-9111.821215513704
 20
3196.596866168256
 30
0.0
 41
1.0
 10
-9033.506760888797
 20
3175.418683012289
 30
-0.0000000000000019
 41
0.9653257722795144
 10
-8955.192306264285
 20
3196.596866169706
 30
0.0
 41
1.0
 10
-8714.432186050182
 20
3261.704411733198
 30
0.0000000000000001
 41
0.9965620097352336
 10
-8487.728558288913
 20
3365.675047658385
 30
0.0
 41
1.0
 10
-8423.120507228674
 20
3395.305540218315
 30
-0.0000000000000041
 41
0.8774142021096561
 10
-8413.195241906968
 20
3465.687750040397
 30
0.0
 41
1.0
 10
-8383.657738122081
 20
3675.144597854806
 30
0.0000000000000002
 41
0.9902026344599274
 10
-8413.195241907804
 20
3884.601445669096
 30
0.0
 41
1.0
  0
SPLINE
  5
52
330
1F
100
AcDbEntity
  8
2D
100
AcDbSpline
210
0.0
220
0.0
230
1.0
 70
     8
 71
     3
 72
    10
 73
     6
 74
     0
 42
0.0000000001
 43
0.0000000001
 40
-41.45007750493144
 40
-41.45007750493144
 40
-41.45007750493144
 40
-41.45007750493144
 40
-20.5699463400068
 40
-20.5699463400068
 40
0.0
 40
0.0
 40
0.0
 40
0.0
 10
-9738.826301357829
 20
4473.985273241598
 30
0.0
 10
-9745.393118565251
 20
4471.817581804663
 30
0.0
 10
-9752.00598851615
 20
4469.861799043075
 30
0.0
 10
-9765.340684226092
 20
4466.577644259389
 30
0.0
 10
-9772.302065579552
 20
4465.187490718484
 30
0.0
 10
-9779.081195680814
 20
4464.392593821392
 30
0.0
  0
SPLINE
  5
53
330
1F
100
AcDbEntity
  8
2D
100
AcDbSpline
210
0.0
220
0.0
230
1.0
 70
     8
 71
     3
 72
   152
 73
   148
 74
     0
 42
0.0000000001
 43
0.0000000001
 40
0.0
 40
0.0
 40
0.0
 40
0.0
 40
8.591839484651441
 40
8.591839484651441
 40
12.48485726226294
 40
12.48485726226294
 40
12.98693827784417
 40
12.98693827784417
 40
13.48778633580003
 40
13.48778633580003
 40
14.48948245170939
 40
14.48948245170939
 40
16.49287468349981
 40
16.49287468349981
 40
32.52001253685917
 40
32.52001253685917
 40
64.57428823964936
 40
64.57428823964936
 40
128.6828396410651
 40
128.6828396410651
 40
192.7913910552017
 40
192.7913910552017
 40
208.8185289096926
 40
208.8185289096926
 40
209.8202250256035
 40
209.8202250256035
 40
210.3210730835672
 40
210.3210730835672
 40
210.8233702453228
 40
210.8233702453228
 40
212.8766605706432
 40
212.8766605706432
 40
217.0192666091463
 40
217.0192666091463
 40
221.5576791923276
 40
221.5576791923276
 40
226.0532614193117
 40
226.0532614193117
 40
235.0611330134241
 40
235.0611330134241
 40
239.5181139903846
 40
239.5181139903846
 40
244.5710685899861
 40
244.5710685899861
 40
253.3500166212777
 40
253.3500166212777
 40
262.1323698575837
 40
262.1323698575837
 40
542.9901850529529
 40
542.9901850529529
 40
824.0916230994611
 40
824.0916230994611
 40
894.4329751620568
 40
894.4329751620568
 40
964.774322389365
 40
964.774322389365
 40
973.5675729336231
 40
973.5675729336231
 40
982.3581110499349
 40
982.3581110499349
 40
999.9588438986586
 40
999.9588438986586
 40
1035.195053772069
 40
1035.195053772069
 40
1052.774215243353
 40
1052.774215243353
 40
1070.377732182206
 40
1070.377732182206
 40
1079.174873987101
 40
1079.174873987101
 40
1087.965934275746
 40
1087.965934275746
 40
1096.740746104572
 40
1096.740746104572
 40
1105.551424926223
 40
1105.551424926223
 40
1140.729323822123
 40
1140.729323822123
 40
1158.301173328594
 40
1158.301173328594
 40
1175.866513824488
 40
1175.866513824488
 40
1193.427329172136
 40
1193.427329172136
 40
1211.021495555423
 40
1211.021495555423
 40
1228.563876641783
 40
1228.563876641783
 40
1237.345436544246
 40
1237.345436544246
 40
1246.099032046176
 40
1246.099032046176
 40
1316.341791447431
 40
1316.341791447431
 40
1386.584484617099
 40
1386.584484617099
 40
1668.020730936321
 40
1668.020730936321
 40
1949.026907966035
 40
1949.026907966035
 40
1957.826868181372
 40
1957.826868181372
 40
1966.627131082398
 40
1966.627131082398
 40
1971.021764775272
 40
1971.021764775272
 40
1975.393001010483
 40
1975.393001010483
 40
1979.723132949078
 40
1979.723132949078
 40
1984.027860920274
 40
1984.027860920274
 40
1992.149086695858
 40
1992.149086695858
 40
1996.192102343865
 40
1996.192102343865
 40
1998.199621600736
 40
1998.199621600736
 40
1999.271734838125
 40
1999.271734838125
 40
1999.800017362854
 40
1999.800017362854
 40
2000.326227405529
 40
2000.326227405529
 40
2017.165384732122
 40
2017.165384732122
 40
2084.522014038486
 40
2084.522014038486
 40
2151.878643344851
 40
2151.878643344851
 40
2185.556957998038
 40
2185.556957998038
 40
2202.396115324628
 40
2202.396115324628
 40
2206.605904656276
 40
2206.605904656276
 40
2207.131476387094
 40
2207.131476387094
 40
2207.663190710643
 40
2207.663190710643
 40
2208.763290328571
 40
2208.763290328571
 40
2210.888126364203
 40
2210.888126364203
 40
2215.19343622902
 40
2215.19343622902
 40
2219.714932114329
 40
2219.714932114329
 40
2219.714932114329
 40
2219.714932114329
 10
-9779.081195680814
 20
4464.392593821392
 30
0.0
 10
-9781.606804670755
 20
4464.096755926866
 30
0.0
 10
-9784.829303490264
 20
4463.903680507475
 30
0.0
 10
-9788.53655048399
 20
4464.621828053532
 30
0.0
 10
-9790.298870298026
 20
4465.134196845569
 30
0.0
 10
-9790.995990433756
 20
4466.567212619053
 30
0.0
 10
-9791.051824692437
 20
4466.73904201314
 30
0.0
 10
-9791.17758675315
 20
4467.078014867307
 30
0.0
 10
-9791.240390480267
 20
4467.247292935112
 30
0.0
 10
-9791.428801661594
 20
4467.75512713854
 30
0.0
 10
-9791.554409115768
 20
4468.093683274175
 30
0.0
 10
-9791.931231478131
 20
4469.109351681131
 30
0.0
 10
-9792.182446386174
 20
4469.786463952505
 30
0.0
 10
-9794.443380556684
 20
4475.880474395191
 30
0.0
 10
-9796.453099806891
 20
4481.297372571056
 30
0.0
 10
-9802.482257522668
 20
4497.548067110058
 30
0.0
 10
-9806.501695953917
 20
4508.381863485931
 30
0.0
 10
-9818.560011134377
 20
4540.883252653979
 30
0.0
 10
-9826.598887770833
 20
4562.55084548799
 30
0.0
 10
-9842.676640875547
 20
4605.886031223302
 30
0.0
 10
-9850.715517343811
 20
4627.553624124604
 30
0.0
 10
-9860.764112904984
 20
4654.638115260562
 30
0.0
 10
-9862.773832016112
 20
4660.055013488462
 30
0.0
 10
-9864.909158571467
 20
4665.810467855685
 30
0.0
 10
-9865.034766015899
 20
4666.149023994938
 30
0.0
 10
-9865.22317718255
 20
4666.656858203817
 30
0.0
 10
-9865.28598090477
 20
4666.826136273441
 30
0.0
 10
-9865.411770059229
 20
4667.16518218497
 30
0.0
 10
-9865.476272563774
 20
4667.332768004155
 30
0.0
 10
-9865.651717684774
 20
4668.246788371659
 30
0.0
 10
-9865.384784854581
 20
4669.002428498561
 30
0.0
 10
-9864.387016634824
 20
4670.855672192627
 30
0.0
 10
-9863.17456649643
 20
4672.056359418316
 30
0.0
 10
-9861.00939906517
 20
4673.931389781617
 30
0.0
 10
-9859.807959918533
 20
4674.801849119234
 30
0.0
 10
-9857.326851194684
 20
4676.443567174553
 30
0.0
 10
-9856.06082121332
 20
4677.202460526567
 30
0.0
 10
-9852.179643055159
 20
4679.370028560003
 30
0.0
 10
-9849.523644819299
 20
4680.65362173557
 30
0.0
 10
-9845.460251200155
 20
4682.418219780518
 30
0.0
 10
-9844.104859691306
 20
4682.974788936295
 30
0.0
 10
-9841.187862134331
 20
4684.106387079026
 30
0.0
 10
-9840.219244869568
 20
4684.450065234793
 30
0.0
 10
-9835.933944223932
 20
4685.978853946179
 30
0.0
 10
-9833.214241432117
 20
4686.949516429189
 30
0.0
 10
-9827.773730323821
 20
4688.891076170049
 30
0.0
 10
-9825.052947301407
 20
4689.862044278268
 30
0.0
 10
-9735.322093656669
 20
4721.884368907431
 30
0.0
 10
-9648.31202295292
 20
4752.935725200212
 30
0.0
 10
-9474.216406851821
 20
4815.065372321961
 30
0.0
 10
-9387.130861462909
 20
4846.143663174591
 30
0.0
 10
-9278.253485167668
 20
4884.998822833325
 30
0.0
 10
-9256.461654252158
 20
4892.775691613708
 30
0.0
 10
-9212.877993932358
 20
4908.329428676997
 30
0.0
 10
-9191.088039303664
 20
4916.111547980388
 30
0.0
 10
-9166.569482180152
 20
4924.853393868739
 30
0.0
 10
-9163.846342682173
 20
4925.828416718194
 30
0.0
 10
-9158.394658163728
 20
4927.760684488261
 30
0.0
 10
-9155.659691924913
 20
4928.697177556744
 30
0.0
 10
-9147.415662226867
 20
4931.417140177799
 30
0.0
 10
-9141.883416339326
 20
4933.103698130677
 30
0.0
 10
-9125.148286396408
 20
4937.794602791227
 30
0.0
 10
-9113.90407223632
 20
4940.403833735056
 30
0.0
 10
-9096.819208078075
 20
4943.555881771282
 30
0.0
 10
-9091.116229600659
 20
4944.474833077077
 30
0.0
 10
-9079.651404420863
 20
4946.054178822369
 30
0.0
 10
-9073.904510784683
 20
4946.713072136937
 30
0.0
 10
-9065.256336938513
 20
4947.504693475426
 30
0.0
 10
-9062.372541563644
 20
4947.735355438985
 30
0.0
 10
-9056.600540046544
 20
4948.130712744642
 30
0.0
 10
-9053.714222285813
 20
4948.295494048355
 30
0.0
 10
-9047.942072947786
 20
4948.559408675436
 30
0.0
 10
-9045.058105384953
 20
4948.658195737867
 30
0.0
 10
-9039.274969053517
 20
4948.789834712758
 30
0.0
 10
-9036.377693277751
 20
4948.822622663783
 30
0.0
 10
-9021.907940216428
 20
4948.821775501179
 30
0.0
 10
-9010.39639174513
 20
4948.295327696881
 30
0.0
 10
-8993.116976046287
 20
4946.713713163166
 30
0.0
 10
-8987.380374518503
 20
4946.056419731047
 30
0.0
 10
-8975.930320133484
 20
4944.479597043579
 30
0.0
 10
-8970.231672906535
 20
4943.562195938796
 30
0.0
 10
-8958.868708346068
 20
4941.467193991684
 30
0.0
 10
-8953.219063871999
 20
4940.292177896921
 30
0.0
 10
-8941.95370987118
 20
4937.681275195753
 30
0.0
 10
-8936.352628748267
 20
4936.248177578219
 30
0.0
 10
-8925.223066252249
 20
4933.130956714162
 30
0.0
 10
-8919.708648070195
 20
4931.451396811574
 30
0.0
 10
-8911.48459844763
 20
4928.74139660111
 30
0.0
 10
-8908.7520940973
 20
4927.806778510858
 30
0.0
 10
-8903.314769676042
 20
4925.881783745551
 30
0.0
 10
-8900.604145492038
 20
4924.910465035577
 30
0.0
 10
-8876.12826480404
 20
4916.183976818755
 30
0.0
 10
-8854.368775999683
 20
4908.412660985358
 30
0.0
 10
-8810.846025493604
 20
4892.880661459752
 30
0.0
 10
-8789.08466049992
 20
4885.114665358214
 30
0.0
 10
-8680.133630613815
 20
4846.233222323761
 30
0.0
 10
-8592.943965721388
 20
4815.117775390854
 30
0.0
 10
-8418.697872496228
 20
4752.934429764939
 30
0.0
 10
-8331.641444163499
 20
4721.86653107193
 30
0.0
 10
-8241.858765774934
 20
4689.825713294491
 30
0.0
 10
-8239.132515719099
 20
4688.852794210068
 30
0.0
 10
-8233.679921834631
 20
4686.90692257645
 30
0.0
 10
-8230.954337872681
 20
4685.931843975634
 30
0.0
 10
-8226.86508802823
 20
4684.477046023316
 30
0.0
 10
-8225.506579063484
 20
4683.984434792101
 30
0.0
 10
-8222.819113600963
 20
4682.938210756379
 30
0.0
 10
-8221.489999666126
 20
4682.39182495663
 30
0.0
 10
-8218.864730013061
 20
4681.250176629478
 30
0.0
 10
-8217.57114935081
 20
4680.65649505925
 30
0.0
 10
-8215.01750215951
 20
4679.411400533954
 30
0.0
 10
-8213.760376023733
 20
4678.762868460853
 30
0.0
 10
-8210.181515808752
 20
4676.785571023531
 30
0.0
 10
-8207.599850334278
 20
4675.183857131879
 30
0.0
 10
-8204.47846413252
 20
4672.647485190402
 30
0.0
 10
-8203.369316181313
 20
4671.630070683639
 30
0.0
 10
-8202.158713510918
 20
4670.010243859077
 30
0.0
 10
-8201.766007521583
 20
4669.363305678726
 30
0.0
 10
-8201.47998406976
 20
4668.35194365837
 30
0.0
 10
-8201.435244615437
 20
4668.013884403898
 30
0.0
 10
-8201.504328119438
 20
4667.464934042734
 30
0.0
 10
-8201.55321383239
 20
4667.294471425239
 30
0.0
 10
-8201.680231163398
 20
4666.954913250262
 30
0.0
 10
-8201.742748106695
 20
4666.785147431879
 30
0.0
 10
-8203.81943375538
 20
4661.187750930277
 30
0.0
 10
-8205.833191115787
 20
4655.759968246186
 30
0.0
 10
-8215.901977917823
 20
4628.621054825725
 30
0.0
 10
-8223.95700735943
 20
4606.909924089348
 30
0.0
 10
-8240.06706624246
 20
4563.48766261653
 30
0.0
 10
-8248.122095683888
 20
4541.776531880088
 30
0.0
 10
-8260.2046398458
 20
4509.209835775337
 30
0.0
 10
-8264.232154566402
 20
4498.354270407072
 30
0.0
 10
-8270.273426647233
 20
4482.07092235465
 30
0.0
 10
-8272.287184007499
 20
4476.643139670506
 30
0.0
 10
-8274.804380707814
 20
4469.858411315318
 30
0.0
 10
-8275.307820047874
 20
4468.501465644279
 30
0.0
 10
-8275.874111341913
 20
4466.975111903438
 30
0.0
 10
-8275.936782453886
 20
4466.805636900007
 30
0.0
 10
-8276.063049636352
 20
4466.464777411635
 30
0.0
 10
-8276.140415961261
 20
4466.303966320133
 30
0.0
 10
-8276.44979017587
 20
4465.834015925842
 30
0.0
 10
-8276.707713720472
 20
4465.594700417617
 30
0.0
 10
-8277.610177989645
 20
4464.966369035475
 30
0.0
 10
-8278.35780918759
 20
4464.700304465536
 30
0.0
 10
-8280.442356735439
 20
4464.178579062851
 30
0.0
 10
-8282.051844468671
 20
4464.087466074893
 30
0.0
 10
-8284.96941740621
 20
4464.104915021483
 30
0.0
 10
-8286.449646202229
 20
4464.218919352541
 30
0.0
 10
-8287.93235639072
 20
4464.392596199159
 30
0.0
  0
SPLINE
  5
54
330
1F
100
AcDbEntity
  8
2D
100
AcDbSpline
210
0.0
220
0.0
230
1.0
 70
     8
 71
     3
 72
    11
 73
     7
 74
     0
 42
0.0000000001
 43
0.0000000001
 40
-41.44573281670098
 40
-41.44573281670098
 40
-41.44573281670098
 40
-41.44573281670098
 40
-37.03005546956691
 40
-32.35861714980555
 40
-22.34064696670321
 40
0.0
 40
0.0
 40
0.0
 40
0.0
 10
-8287.93235639072
 20
4464.392596199159
 30
0.0
 10
-8289.39438108743
 20
4464.563741996497
 30
0.0
 10
-8292.396624012417
 20
4464.970857875704
 30
0.0
 10
-8298.67818097633
 20
4466.026083353011
 30
0.0
 10
-8310.753701224869
 20
4468.61198426662
 30
0.0
 10
-8321.114765034577
 20
4471.653515932811
 30
0.0
 10
-8328.186729108176
 20
4473.985100969385
 30
0.0
  0
SPLINE
  5
55
330
1F
100
AcDbEntity
  8
2D
100
AcDbSpline
210
0.0
220
0.0
230
1.0
 70
    11
 71
     3
 72
   198
 73
   194
 74
     0
 42
0.0000000001
 43
0.0000000001
 40
-3565.443895360874
 40
-3565.443895360874
 40
-3565.443895360874
 40
-3565.443895360874
 40
-3118.687473312817
 40
-3118.687473312817
 40
-3090.738386100814
 40
-3090.738386100814
 40
-3086.924151702458
 40
-3086.924151702458
 40
-3083.484321291744
 40
-3083.484321291744
 40
-3076.608481058561
 40
-3076.608481058561
 40
-3069.780108345218
 40
-3069.780108345218
 40
-3063.020050523158
 40
-3063.020050523158
 40
-3056.16505998916
 40
-3056.16505998916
 40
-3048.967387960092
 40
-3048.967387960092
 40
-3041.665401201175
 40
-3041.665401201175
 40
-3034.34658037723
 40
-3034.34658037723
 40
-3027.114613052153
 40
-3027.114613052153
 40
-3025.342305540203
 40
-3025.342305540203
 40
-3023.596990178833
 40
-3023.596990178833
 40
-3020.1063594561
 40
-3020.1063594561
 40
-3006.143836565167
 40
-3006.143836565167
 40
-2894.443653437673
 40
-2894.443653437673
 40
-2671.043287182659
 40
-2671.043287182659
 40
-2667.55382311136
 40
-2667.55382311136
 40
-2663.560944834103
 40
-2663.560944834103
 40
-2660.086322629129
 40
-2660.086322629129
 40
-2656.61767420999
 40
-2656.61767420999
 40
-2649.723958686406
 40
-2649.723958686406
 40
-2646.281903065608
 40
-2646.281903065608
 40
-2642.853445040192
 40
-2642.853445040192
 40
-2636.081456568739
 40
-2636.081456568739
 40
-2632.735413354371
 40
-2632.735413354371
 40
-2629.449733143734
 40
-2629.449733143734
 40
-2622.4283379736
 40
-2622.4283379736
 40
-2620.604215391547
 40
-2620.604215391547
 40
-2618.86202556561
 40
-2618.86202556561
 40
-2615.37764591378
 40
-2615.37764591378
 40
-2559.627571484485
 40
-2559.627571484485
 40
-2448.127422625893
 40
-2448.127422625893
 40
-2225.127124908689
 40
-2225.127124908689
 40
-2113.634030623071
 40
-2113.634030623071
 40
-2057.887483480262
 40
-2057.887483480262
 40
-2030.014209908857
 40
-2030.014209908857
 40
-2023.045891516006
 40
-2023.045891516006
 40
-2016.079064576402
 40
-2016.079064576402
 40
-2002.12998419192
 40
-2002.12998419192
 40
-1946.348953723937
 40
-1946.348953723937
 40
-1890.596045483796
 40
-1890.596045483796
 40
-1862.672791908935
 40
-1862.672791908935
 40
-1834.755252436535
 40
-1834.755252436535
 40
-1779.031276134538
 40
-1779.031276134538
 40
-1765.109607803888
 40
-1765.109607803888
 40
-1758.139838553592
 40
-1758.139838553592
 40
-1751.174180260858
 40
-1751.174180260858
 40
-1723.311547050579
 40
-1723.311547050579
 40
-1667.586280582574
 40
-1667.586280582574
 40
-1556.135746114483
 40
-1556.135746114483
 40
-1333.234674756512
 40
-1333.234674756512
 40
-1221.959002739174
 40
-1221.959002739174
 40
-1166.321167471145
 40
-1166.321167471145
 40
-1162.843802787992
 40
-1162.843802787992
 40
-1161.122613214185
 40
-1161.122613214185
 40
-1159.502613439638
 40
-1159.502613439638
 40
-1152.497384866936
 40
-1152.497384866936
 40
-1145.126411260512
 40
-1145.126411260512
 40
-1137.879844791627
 40
-1137.879844791627
 40
-1130.710994737246
 40
-1130.710994737246
 40
-1123.538698368146
 40
-1123.538698368146
 40
-1116.43027199146
 40
-1116.43027199146
 40
-1115.467394316492
 40
-1115.467394316492
 40
-1111.987468696557
 40
-1111.987468696557
 40
-889.2722290308882
 40
-889.2722290308882
 40
-777.8615860921128
 40
-777.8615860921128
 40
-763.9352557239494
 40
-763.9352557239494
 40
-760.4536731318431
 40
-760.4536731318431
 40
-756.5531519588728
 40
-756.5531519588728
 40
-749.7034216828669
 40
-749.7034216828669
 40
-742.904187456721
 40
-742.904187456721
 40
-736.155391358295
 40
-736.155391358295
 40
-729.3212634670083
 40
-729.3212634670083
 40
-722.128782298402
 40
-722.128782298402
 40
-714.8572954554849
 40
-714.8572954554849
 40
-707.556383168225
 40
-707.556383168225
 40
-700.3517478798794
 40
-700.3517478798794
 40
-696.7497608486215
 40
-696.7497608486215
 40
-695.6457802355699
 40
-695.6457802355699
 40
-667.8150524564101
 40
-667.8150524564101
 40
-445.1692302231448
 40
-445.1692302231448
 40
-333.9946622245354
 40
-333.9946622245354
 40
-278.4073782252307
 40
-278.4073782252307
 40
-250.6137362255784
 40
-250.6137362255784
 40
-236.7169152257466
 40
-236.7169152257466
 40
-229.768504725842
 40
-229.768504725842
 40
-222.8053207392636
 40
-222.8053207392636
 40
-194.9987048651807
 40
-194.9987048651807
 40
-167.0871039282792
 40
-167.0871039282792
 40
-139.3413268598066
 40
-139.3413268598066
 40
-111.5229760404739
 40
-111.5229760404739
 40
-83.68643186419725
 40
-83.68643186419725
 40
-55.84941317578544
 40
-55.84941317578544
 40
0.0
 40
0.0
 40
0.0
 40
0.0
 10
-9143.882568959034
 20
4250.307287037099
 30
0.0
 10
-9287.257703518775
 20
4211.249493462167
 30
0.0
 10
-9430.632838078516
 20
4172.191699887235
 30
0.0
 10
-9582.97752280493
 20
4130.690450269905
 30
0.0
 10
-9591.947072971594
 20
4128.246994227507
 30
0.0
 10
-9602.140704859576
 20
4125.470077774859
 30
0.0
 10
-9603.028143667889
 20
4125.214113869182
 30
0.0
 10
-9605.38730576928
 20
4124.695996956121
 30
0.0
 10
-9606.511450860806
 20
4124.499681918742
 30
0.0
 10
-9609.916953894648
 20
4124.052642764834
 30
0.0
 10
-9612.171159119953
 20
4123.950401209785
 30
0.0
 10
-9616.730526111027
 20
4124.133702466374
 30
0.0
 10
-9618.954506400474
 20
4124.412630504052
 30
0.0
 10
-9623.379910826803
 20
4125.354895994334
 30
0.0
 10
-9625.50448377235
 20
4125.997472586276
 30
0.0
 10
-9629.718352590698
 20
4127.669588499036
 30
0.0
 10
-9631.730919619291
 20
4128.675032427047
 30
0.0
 10
-9635.723726945198
 20
4131.114623992848
 30
0.0
 10
-9637.618572044612
 20
4132.519420166148
 30
0.0
 10
-9641.224207451716
 20
4135.730136754546
 30
0.0
 10
-9642.859098090576
 20
4137.476054942051
 30
0.0
 10
-9645.85004773572
 20
4141.317341342681
 30
0.0
 10
-9647.14558937513
 20
4143.334475201194
 30
0.0
 10
-9649.381321889286
 20
4147.633094086327
 30
0.0
 10
-9650.282469554473
 20
4149.825117814962
 30
0.0
 10
-9651.169005284555
 20
4152.689450101679
 30
0.0
 10
-9651.326989425968
 20
4153.257650235146
 30
0.0
 10
-9651.635202055968
 20
4154.387399738512
 30
0.0
 10
-9651.788125850555
 20
4154.947939976544
 30
0.0
 10
-9652.246897234309
 20
4156.629560690644
 30
0.0
 10
-9652.552744823482
 20
4157.750641166711
 30
0.0
 10
-9654.081982769323
 20
4163.356043547043
 30
0.0
 10
-9655.30537312599
 20
4167.840365451312
 30
0.0
 10
-9666.31588633607
 20
4208.199262589703
 30
0.0
 10
-9676.103009189475
 20
4244.073837823827
 30
0.0
 10
-9705.464377749693
 20
4351.697563526215
 30
0.0
 10
-9725.038623456672
 20
4423.44671399443
 30
0.0
 10
-9744.918614530503
 20
4496.316570247293
 30
0.0
 10
-9745.224359898162
 20
4497.437276031722
 30
0.0
 10
-9745.879959573507
 20
4499.840368363316
 30
0.0
 10
-9746.090158855888
 20
4500.633238955229
 30
0.0
 10
-9746.530772935304
 20
4503.083734565173
 30
0.0
 10
-9746.672191248701
 20
4504.226541207342
 30
0.0
 10
-9746.82890505141
 20
4506.536286320302
 30
0.0
 10
-9746.843515587363
 20
4507.685678171393
 30
0.0
 10
-9746.694610707225
 20
4511.13763159779
 30
0.0
 10
-9746.340441552838
 20
4513.426708967708
 30
0.0
 10
-9745.429730599699
 20
4516.751397446015
 30
0.0
 10
-9745.067192357881
 20
4517.832970535584
 30
0.0
 10
-9744.216329715393
 20
4519.960667180177
 30
0.0
 10
-9743.735269271452
 20
4520.989959581173
 30
0.0
 10
-9742.122088431362
 20
4523.985338443031
 30
0.0
 10
-9740.820689029268
 20
4525.85475634773
 30
0.0
 10
-9738.58739537487
 20
4528.385021789059
 30
0.0
 10
-9737.807457149796
 20
4529.173238414308
 30
0.0
 10
-9736.164470371568
 20
4530.654338281571
 30
0.0
 10
-9735.316094332575
 20
4531.337234156238
 30
0.0
 10
-9732.520363656466
 20
4533.338225330918
 30
0.0
 10
-9730.468674977968
 20
4534.462330175781
 30
0.0
 10
-9727.7289436444
 20
4535.558002154933
 30
0.0
 10
-9727.155788776141
 20
4535.760148567321
 30
0.0
 10
-9726.033848990071
 20
4536.153750204655
 30
0.0
 10
-9725.485766865746
 20
4536.34602970504
 30
0.0
 10
-9723.841520492762
 20
4536.922868206198
 30
0.0
 10
-9722.745356244104
 20
4537.307427206967
 30
0.0
 10
-9704.110564017032
 20
4543.844930220068
 30
0.0
 10
-9686.571936038617
 20
4549.997874232401
 30
0.0
 10
-9633.956052103353
 20
4568.456706269392
 30
0.0
 10
-9598.878796146502
 20
4580.762594294054
 30
0.0
 10
-9493.647028275966
 20
4617.68025836804
 30
0.0
 10
-9423.492516362272
 20
4642.292034417362
 30
0.0
 10
-9318.262967816681
 20
4679.208919902383
 30
0.0
 10
-9283.187931184784
 20
4691.514029338085
 30
0.0
 10
-9230.575376236939
 20
4709.971693491633
 30
0.0
 10
-9213.037857920986
 20
4716.124248209482
 30
0.0
 10
-9186.731580447064
 20
4725.353080286257
 30
0.0
 10
-9177.96282128909
 20
4728.429357645182
 30
0.0
 10
-9167.001872341621
 20
4732.274704343838
 30
0.0
 10
-9164.809682552128
 20
4733.04377368357
 30
0.0
 10
-9160.425772175091
 20
4734.581747756466
 30
0.0
 10
-9158.236434294195
 20
4735.3573568315
 30
0.0
 10
-9151.641149736806
 20
4737.622379098324
 30
0.0
 10
-9147.21852024331
 20
4739.050398242093
 30
0.0
 10
-9124.96682129956
 20
4745.78357561586
 30
0.0
 10
-9106.792349718347
 20
4749.846031745145
 30
0.0
 10
-9070.002468226376
 20
4755.255897670619
 30
0.0
 10
-9051.437786989805
 20
4756.59725862168
 30
0.0
 10
-9023.540133293169
 20
4756.548699406079
 30
0.0
 10
-9014.262838053382
 20
4756.189382683959
 30
0.0
 10
-8995.698770455732
 20
4754.781676152806
 30
0.0
 10
-8986.475244519195
 20
4753.73822746926
 30
0.0
 10
-8958.900629472591
 20
4749.581570935325
 30
0.0
 10
-8940.759306987547
 20
4745.459061106954
 30
0.0
 10
-8918.557992588052
 20
4738.657100466826
 30
0.0
 10
-8914.148953876062
 20
4737.216763672359
 30
0.0
 10
-8907.569096016025
 20
4734.932065533276
 30
0.0
 10
-8905.378239942322
 20
4734.157623657145
 30
0.0
 10
-8900.994156024844
 20
4732.619588729752
 30
0.0
 10
-8898.802760719507
 20
4731.85079812652
 30
0.0
 10
-8887.845784180536
 20
4728.006845105787
 30
0.0
 10
-8879.080202947127
 20
4724.931682687622
 30
0.0
 10
-8852.783459232749
 20
4715.706195425728
 30
0.0
 10
-8835.25229675254
 20
4709.555870579825
 30
0.0
 10
-8782.658808833097
 20
4691.104895863934
 30
0.0
 10
-8747.596483397054
 20
4678.804245984858
 30
0.0
 10
-8642.409506340911
 20
4641.902296040764
 30
0.0
 10
-8572.284854734702
 20
4617.300995936167
 30
0.0
 10
-8467.15288944566
 20
4580.418345161192
 30
0.0
 10
-8432.145575746661
 20
4568.136994536895
 30
0.0
 10
-8379.634605439784
 20
4549.714968657641
 30
0.0
 10
-8362.130948827595
 20
4543.57429341496
 30
0.0
 10
-8343.533313685359
 20
4537.04982596745
 30
0.0
 10
-8342.439335153831
 20
4536.666033766831
 30
0.0
 10
-8340.80387057929
 20
4536.09227611982
 30
0.0
 10
-8340.261395796599
 20
4535.905156592596
 30
0.0
 10
-8339.212553047335
 20
4535.52980022768
 30
0.0
 10
-8338.71008008143
 20
4535.333966916296
 30
0.0
 10
-8336.060657176073
 20
4534.215776260239
 30
0.0
 10
-8334.025761792047
 20
4533.051841078517
 30
0.0
 10
-8330.181163622561
 20
4530.18928622714
 30
0.0
 10
-8328.410573400102
 20
4528.486090592832
 30
0.0
 10
-8325.346094652534
 20
4524.696998682456
 30
0.0
 10
-8324.063642668782
 20
4522.63730069263
 30
0.0
 10
-8322.03224416294
 20
4518.283060768839
 30
0.0
 10
-8321.27948069289
 20
4515.99058179082
 30
0.0
 10
-8320.331324571765
 20
4511.306159418184
 30
0.0
 10
-8320.134104996469
 20
4508.985303639623
 30
0.0
 10
-8320.272346025271
 20
4504.228415461
 30
0.0
 10
-8320.59780788709
 20
4501.940355133931
 30
0.0
 10
-8321.26918102181
 20
4499.336062321443
 30
0.0
 10
-8322.016011639265
 20
4496.60378567397
 30
0.0
 10
-8322.405576894114
 20
4495.175839294038
 30
0.0
 10
-8322.710712643104
 20
4494.057368170837
 30
0.0
 10
-8342.544536326332
 20
4421.356745165936
 30
0.0
 10
-8362.073225367858
 20
4349.774593586322
 30
0.0
 10
-8391.370901183203
 20
4242.384322315136
 30
0.0
 10
-8401.139892659568
 20
4206.57620390649
 30
0.0
 10
-8412.130008070562
 20
4166.292070696505
 30
0.0
 10
-8413.351132005188
 20
4161.816055895162
 30
0.0
 10
-8414.877536923465
 20
4156.221037393462
 30
0.0
 10
-8415.182817907127
 20
4155.102033693105
 30
0.0
 10
-8415.830114313074
 20
4152.729376658264
 30
0.0
 10
-8416.061176743468
 20
4151.918315207307
 30
0.0
 10
-8417.249442063414
 20
4148.536446757139
 30
0.0
 10
-8418.173814936417
 20
4146.483746666674
 30
0.0
 10
-8420.389253928366
 20
4142.508267660211
 30
0.0
 10
-8421.638550058768
 20
4140.654976826294
 30
0.0
 10
-8424.471544258904
 20
4137.136233145498
 30
0.0
 10
-8426.003336574195
 20
4135.530861299017
 30
0.0
 10
-8429.3941729432
 20
4132.528371242293
 30
0.0
 10
-8431.196487981455
 20
4131.187879612892
 30
0.0
 10
-8435.173039622707
 20
4128.725872528895
 30
0.0
 10
-8437.28280420827
 20
4127.66753056637
 30
0.0
 10
-8441.77047912349
 20
4125.900650000311
 30
0.0
 10
-8444.060093470674
 20
4125.230479012636
 30
0.0
 10
-8448.82780836738
 20
4124.292217317655
 30
0.0
 10
-8451.209957100142
 20
4124.044469669295
 30
0.0
 10
-8456.046505311548
 20
4123.983036074434
 30
0.0
 10
-8458.404261239142
 20
4124.164277207917
 30
0.0
 10
-8461.95829142335
 20
4124.75898932194
 30
0.0
 10
-8463.127972827904
 20
4125.009522356129
 30
0.0
 10
-8464.646046331985
 20
4125.4067419559
 30
0.0
 10
-8467.2868695711
 20
4126.127853067394
 30
0.0
 10
-8476.594945989877
 20
4128.663529342311
 30
0.0
 10
-8485.547880211547
 20
4131.102458920818
 30
0.0
 10
-8566.124288206542
 20
4153.0528251274
 30
0.0
 10
-8637.74776197987
 20
4172.564261755475
 30
0.0
 10
-8745.135251782958
 20
4201.818416735055
 30
0.0
 10
-8780.899267812718
 20
4211.56113508656
 30
0.0
 10
-8834.545291857357
 20
4226.17521261382
 30
0.0
 10
-8852.427299872234
 20
4231.046571789573
 30
0.0
 10
-8879.250311894553
 20
4238.353610553203
 30
0.0
 10
-8888.19131590199
 20
4240.789290141079
 30
0.0
 10
-8901.602821913151
 20
4244.442809522894
 30
0.0
 10
-8906.07332391687
 20
4245.660649316833
 30
0.0
 10
-8912.779076922448
 20
4247.48740900774
 30
0.0
 10
-8915.01432792431
 20
4248.096328904709
 30
0.0
 10
-8919.489582446731
 20
4249.315463364525
 30
0.0
 10
-8921.72855989583
 20
4249.929429740969
 30
0.0
 10
-8932.92003886418
 20
4252.953412743341
 30
0.0
 10
-8941.925390388817
 20
4255.070723409469
 30
0.0
 10
-8960.141218427449
 20
4258.718617880563
 30
0.0
 10
-8969.302091233509
 20
4260.236989506185
 30
0.0
 10
-8987.69894414191
 20
4262.66947056487
 30
0.0
 10
-8996.884593620885
 20
4263.579952150385
 30
0.0
 10
-9015.371520806555
 20
4264.786658380513
 30
0.0
 10
-9024.621811643974
 20
4265.078727412904
 30
0.0
 10
-9043.17787208355
 20
4265.061757134366
 30
0.0
 10
-9052.43357076868
 20
4264.751850205986
 30
0.0
 10
-9070.954517676444
 20
4263.506992624425
 30
0.0
 10
-9080.168442379072
 20
4262.575407386696
 30
0.0
 10
-9107.822149845615
 20
4258.859079808607
 30
0.0
 10
-9125.915752225497
 20
4255.20178556304
 30
0.0
 10
-9143.882568959034
 20
4250.307287037099
 30
0.0
  0
LINE
  5
56
330
1F
100
AcDbEntity
  8
2D
100
AcDbLine
 10
-9751.606281901044
 20
2752.514455019728
 30
0.0
 11
-9626.502463485947
 21
2726.140179817527
 31
0.0
  0
SPLINE
  5
57
330
1F
100
AcDbEntity
  8
2D
100
AcDbSpline
210
0.0
220
0.0
230
1.0
 70
     8
 71
     3
 72
    16
 73
    12
 74
     0
 42
0.0000000001
 43
0.0000000001
 40
-88.08913465922359
 40
-88.08913465922359
 40
-88.08913465922359
 40
-88.08913465922359
 40
-82.5201686741444
 40
-82.5201686741444
 40
-76.94020580549387
 40
-76.94020580549387
 40
-65.78632029621377
 40
-65.78632029621377
 40
-43.7319878783829
 40
-43.7319878783829
 40
0.0
 40
0.0
 40
0.0
 40
0.0
 10
-9838.951186538576
 20
2754.440838527457
 30
0.0
 10
-9837.200708988992
 20
2754.996222261438
 30
0.0
 10
-9835.43243655546
 20
2755.466430054222
 30
0.0
 10
-9831.84801606966
 20
2756.279550878891
 30
0.0
 10
-9830.044348268402
 20
2756.618948593844
 30
0.0
 10
-9824.59586168877
 20
2757.477881913751
 30
0.0
 10
-9820.955493676589
 20
2757.834397229871
 30
0.0
 10
-9810.03494887205
 20
2758.471945733038
 30
0.0
 10
-9802.51848772651
 20
2758.330515256492
 30
0.0
 10
-9780.918504355544
 20
2757.012201399258
 30
0.0
 10
-9765.735045540383
 20
2754.831358989358
 30
0.0
 10
-9751.606281901044
 20
2752.269860274412
 30
0.0
  0
SPLINE
  5
58
330
1F
100
AcDbEntity
  8
2D
100
AcDbSpline
210
0.0
220
0.0
230
1.0
 70
    11
 71
     3
 72
   198
 73
   194
 74
     0
 42
0.0000000001
 43
0.0000000001
 40
-3565.443895360996
 40
-3565.443895360996
 40
-3565.443895360996
 40
-3565.443895360996
 40
-3118.687472830207
 40
-3118.687472830207
 40
-3090.738385588012
 40
-3090.738385588012
 40
-3086.924151185263
 40
-3086.924151185263
 40
-3083.48432077083
 40
-3083.48432077083
 40
-3076.608480530256
 40
-3076.608480530256
 40
-3069.78010780955
 40
-3069.78010780955
 40
-3063.020049980203
 40
-3063.020049980203
 40
-3056.165059438796
 40
-3056.165059438796
 40
-3048.967387401924
 40
-3048.967387401924
 40
-3041.665400635093
 40
-3041.665400635093
 40
-3034.34657980322
 40
-3034.34657980322
 40
-3027.114612470325
 40
-3027.114612470325
 40
-3025.34230495641
 40
-3025.34230495641
 40
-3023.596989593153
 40
-3023.596989593153
 40
-3020.106358866649
 40
-3020.106358866649
 40
-3006.14383596061
 40
-3006.14383596061
 40
-2894.443652712304
 40
-2894.443652712304
 40
-2671.043286215673
 40
-2671.043286215673
 40
-2667.553822140601
 40
-2667.553822140601
 40
-2663.560943859357
 40
-2663.560943859357
 40
-2660.08632165063
 40
-2660.08632165063
 40
-2656.617673227742
 40
-2656.617673227742
 40
-2649.723957696428
 40
-2649.723957696428
 40
-2646.281902071924
 40
-2646.281902071924
 40
-2642.853444042814
 40
-2642.853444042814
 40
-2636.081455564049
 40
-2636.081455564049
 40
-2632.735412346065
 40
-2632.735412346065
 40
-2629.449732131896
 40
-2629.449732131896
 40
-2622.428336303043
 40
-2622.428336303043
 40
-2620.604213719032
 40
-2620.604213719032
 40
-2618.862023891244
 40
-2618.862023891244
 40
-2615.377644235673
 40
-2615.377644235673
 40
-2559.627569746488
 40
-2559.627569746488
 40
-2448.12742076812
 40
-2448.12742076812
 40
-2225.127122811384
 40
-2225.127122811384
 40
-2113.634028405996
 40
-2113.634028405996
 40
-2057.887481203302
 40
-2057.887481203302
 40
-2030.014207601955
 40
-2030.014207601955
 40
-2023.045889201618
 40
-2023.045889201618
 40
-2016.07906225453
 40
-2016.07906225453
 40
-2002.129981855074
 40
-2002.129981855074
 40
-1946.348951327225
 40
-1946.348951327225
 40
-1890.596043027248
 40
-1890.596043027248
 40
-1862.672789422392
 40
-1862.672789422392
 40
-1834.755249920004
 40
-1834.755249920004
 40
-1779.031273558191
 40
-1779.031273558191
 40
-1765.1096052126
 40
-1765.1096052126
 40
-1758.139835954807
 40
-1758.139835954807
 40
-1751.174177654593
 40
-1751.174177654593
 40
-1723.311544414393
 40
-1723.311544414393
 40
-1667.586277886558
 40
-1667.586277886558
 40
-1556.135743298773
 40
-1556.135743298773
 40
-1333.234671701449
 40
-1333.234671701449
 40
-1221.958999564606
 40
-1221.958999564606
 40
-1166.321164236819
 40
-1166.321164236819
 40
-1162.843799549931
 40
-1162.843799549931
 40
-1161.12260997431
 40
-1161.12260997431
 40
-1159.502610198025
 40
-1159.502610198025
 40
-1152.497381617963
 40
-1152.497381617963
 40
-1145.126408003429
 40
-1145.126408003429
 40
-1137.879841526679
 40
-1137.879841526679
 40
-1130.710991464473
 40
-1130.710991464473
 40
-1123.538695087665
 40
-1123.538695087665
 40
-1116.430268703346
 40
-1116.430268703346
 40
-1115.467395184768
 40
-1115.467395184768
 40
-1111.987469561108
 40
-1111.987469561108
 40
-889.2722296568548
 40
-889.2722296568548
 40
-777.861586598747
 40
-777.861586598747
 40
-763.935256215667
 40
-763.935256215667
 40
-760.4536736198298
 40
-760.4536736198298
 40
-756.5531527693961
 40
-756.5531527693961
 40
-749.703422486063
 40
-749.703422486063
 40
-742.9041882526382
 40
-742.9041882526382
 40
-736.1553921469903
 40
-736.1553921469903
 40
-729.3212642483768
 40
-729.3212642483768
 40
-722.1287830720635
 40
-722.1287830720635
 40
-714.857296221344
 40
-714.857296221344
 40
-707.5563839262614
 40
-707.5563839262614
 40
-700.3517486301961
 40
-700.3517486301961
 40
-696.7497615950621
 40
-696.7497615950621
 40
-695.6457809796868
 40
-695.6457809796868
 40
-667.8150531707647
 40
-667.8150531707647
 40
-445.1692306993107
 40
-445.1692306993107
 40
-333.9946625817661
 40
-333.9946625817661
 40
-278.4073785229939
 40
-278.4073785229939
 40
-250.6137364936078
 40
-250.6137364936078
 40
-236.71691547892
 40
-236.71691547892
 40
-229.768504971571
 40
-229.768504971571
 40
-222.8053209775441
 40
-222.8053209775441
 40
-194.9987050737138
 40
-194.9987050737138
 40
-167.0871041069525
 40
-167.0871041069525
 40
-139.3413270088194
 40
-139.3413270088194
 40
-111.5229761597267
 40
-111.5229761597267
 40
-83.68643195368152
 40
-83.68643195368152
 40
-55.8494132355114
 40
-55.8494132355114
 40
0.0
 40
0.0
 40
0.0
 40
0.0
 10
-9143.882568959034
 20
3099.981908667173
 30
0.0
 10
-9287.257703518815
 20
3139.039702242116
 30
0.0
 10
-9430.6328380786
 20
3178.097495817061
 30
0.0
 10
-9582.977522805053
 20
3219.598745434401
 30
0.0
 10
-9591.947072971718
 20
3222.0422014768
 30
0.0
 10
-9602.140704859787
 20
3224.819117929472
 30
0.0
 10
-9603.028143667867
 20
3225.075081835086
 30
0.0
 10
-9605.387305769345
 20
3225.593198748164
 30
0.0
 10
-9606.511450860871
 20
3225.789513785542
 30
0.0
 10
-9609.91695389472
 20
3226.236552939441
 30
0.0
 10
-9612.171159120026
 20
3226.338794494489
 30
0.0
 10
-9616.730526111092
 20
3226.155493237892
 30
0.0
 10
-9618.954506400532
 20
3225.876565200212
 30
0.0
 10
-9623.379910826861
 20
3224.934299709921
 30
0.0
 10
-9625.504483772416
 20
3224.291723117978
 30
0.0
 10
-9629.718352590757
 20
3222.619607205208
 30
0.0
 10
-9631.730919619342
 20
3221.6141632772
 30
0.0
 10
-9635.723726945242
 20
3219.174571711391
 30
0.0
 10
-9637.618572044663
 20
3217.769775538094
 30
0.0
 10
-9641.224207451753
 20
3214.559058949677
 30
0.0
 10
-9642.85909809062
 20
3212.813140762174
 30
0.0
 10
-9645.850047735763
 20
3208.971854361534
 30
0.0
 10
-9647.145589375159
 20
3206.954720503017
 30
0.0
 10
-9649.381321889308
 20
3202.65610161788
 30
0.0
 10
-9650.282469554502
 20
3200.464077889249
 30
0.0
 10
-9651.169005284592
 20
3197.599745602517
 30
0.0
 10
-9651.326989425997
 20
3197.031545469033
 30
0.0
 10
-9651.635202056004
 20
3195.901795965653
 30
0.0
 10
-9651.788125850584
 20
3195.34125572762
 30
0.0
 10
-9652.246897234338
 20
3193.659635013521
 30
0.0
 10
-9652.552744823497
 20
3192.538554537453
 30
0.0
 10
-9654.081982769338
 20
3186.933152157122
 30
0.0
 10
-9655.305373126026
 20
3182.448830252858
 30
0.0
 10
-9666.315886336106
 20
3142.089933114468
 30
0.0
 10
-9676.103009189497
 20
3106.215357880344
 30
0.0
 10
-9705.464377749715
 20
2998.591632177967
 30
0.0
 10
-9725.038623456694
 20
2926.842481709761
 30
0.0
 10
-9744.918614530518
 20
2853.972625456903
 30
0.0
 10
-9745.224359898177
 20
2852.851919672474
 30
0.0
 10
-9745.879959573485
 20
2850.448827340985
 30
0.0
 10
-9746.090158855917
 20
2849.655956748893
 30
0.0
 10
-9746.530772935312
 20
2847.205461139054
 30
0.0
 10
-9746.672191248694
 20
2846.062654496885
 30
0.0
 10
-9746.828905051403
 20
2843.752909383926
 30
0.0
 10
-9746.843515587363
 20
2842.603517532835
 30
0.0
 10
-9746.69461070721
 20
2839.151564106342
 30
0.0
 10
-9746.340441552853
 20
2836.862486736611
 30
0.0
 10
-9745.429730599677
 20
2833.537798258218
 30
0.0
 10
-9745.067192357867
 20
2832.456225168648
 30
0.0
 10
-9744.216329715378
 20
2830.328528524056
 30
0.0
 10
-9743.73526927143
 20
2829.299236123062
 30
0.0
 10
-9742.122088431333
 20
2826.303857261207
 30
0.0
 10
-9740.820689029253
 20
2824.434439356513
 30
0.0
 10
-9738.587395374856
 20
2821.904173915179
 30
0.0
 10
-9737.807457149775
 20
2821.115957289936
 30
0.0
 10
-9736.16447037154
 20
2819.634857422676
 30
0.0
 10
-9735.316094332546
 20
2818.951961548011
 30
0.0
 10
-9732.520363479813
 20
2816.950970246905
 30
0.0
 10
-9730.468675179614
 20
2815.826865609135
 30
0.0
 10
-9727.728943644357
 20
2814.731193549323
 30
0.0
 10
-9727.155788776105
 20
2814.529047136937
 30
0.0
 10
-9726.033848990042
 20
2814.135445499605
 30
0.0
 10
-9725.48576686571
 20
2813.943165999222
 30
0.0
 10
-9723.841520492733
 20
2813.366327498066
 30
0.0
 10
-9722.74535624409
 20
2812.981768497294
 30
0.0
 10
-9704.110564017017
 20
2806.444265484193
 30
0.0
 10
-9686.571936038588
 20
2800.291321471864
 30
0.0
 10
-9633.956052103324
 20
2781.832489434873
 30
0.0
 10
-9598.878796146488
 20
2769.526601410211
 30
0.0
 10
-9493.647028275958
 20
2732.60893733623
 30
0.0
 10
-9423.492516362276
 20
2707.99716128691
 30
0.0
 10
-9318.262967816692
 20
2671.08027580189
 30
0.0
 10
-9283.187931184792
 20
2658.775166366192
 30
0.0
 10
-9230.575376236946
 20
2640.317502212643
 30
0.0
 10
-9213.037857920997
 20
2634.164947494793
 30
0.0
 10
-9186.731580447075
 20
2624.936115418019
 30
0.0
 10
-9177.962821289097
 20
2621.859838059094
 30
0.0
 10
-9167.001872341629
 20
2618.014491360438
 30
0.0
 10
-9164.809682552135
 20
2617.245422020707
 30
0.0
 10
-9160.425772175098
 20
2615.707447947811
 30
0.0
 10
-9158.236434294206
 20
2614.931838872775
 30
0.0
 10
-9151.64114973682
 20
2612.666816605951
 30
0.0
 10
-9147.218520243321
 20
2611.238797462183
 30
0.0
 10
-9124.966821299593
 20
2604.505620088423
 30
0.0
 10
-9106.792349718333
 20
2600.443163959124
 30
0.0
 10
-9070.002468226412
 20
2595.033298033658
 30
0.0
 10
-9051.437786989794
 20
2593.691937082593
 30
0.0
 10
-9023.540133293187
 20
2593.740496298193
 30
0.0
 10
-9014.2628380534
 20
2594.099813020314
 30
0.0
 10
-8995.69877045575
 20
2595.507519551466
 30
0.0
 10
-8986.475244519213
 20
2596.550968235011
 30
0.0
 10
-8958.900629472613
 20
2600.707624768944
 30
0.0
 10
-8940.75930698754
 20
2604.830134597319
 30
0.0
 10
-8918.55799258806
 20
2611.632095237444
 30
0.0
 10
-8914.148953876072
 20
2613.072432031911
 30
0.0
 10
-8907.569096016035
 20
2615.357130170994
 30
0.0
 10
-8905.378239942329
 20
2616.131572047125
 30
0.0
 10
-8900.994156024848
 20
2617.669606974519
 30
0.0
 10
-8898.802760719514
 20
2618.438397577749
 30
0.0
 10
-8887.845784180543
 20
2622.282350598482
 30
0.0
 10
-8879.080202947138
 20
2625.357513016645
 30
0.0
 10
-8852.783459232764
 20
2634.583000278538
 30
0.0
 10
-8835.252296752555
 20
2640.733325124444
 30
0.0
 10
-8782.658808833112
 20
2659.184299840336
 30
0.0
 10
-8747.596483397065
 20
2671.48494971941
 30
0.0
 10
-8642.409506340922
 20
2708.386899663506
 30
0.0
 10
-8572.284854734713
 20
2732.988199768102
 30
0.0
 10
-8467.152889445671
 20
2769.870850543078
 30
0.0
 10
-8432.145575746672
 20
2782.152201167376
 30
0.0
 10
-8379.634605439787
 20
2800.574227046631
 30
0.0
 10
-8362.130948827598
 20
2806.714902289313
 30
0.0
 10
-8343.533313685359
 20
2813.239369736823
 30
0.0
 10
-8342.439335153831
 20
2813.623161937442
 30
0.0
 10
-8340.8038705793
 20
2814.19691958445
 30
0.0
 10
-8340.261395796613
 20
2814.384039111673
 30
0.0
 10
-8339.21255304736
 20
2814.759395476583
 30
0.0
 10
-8338.710080081459
 20
2814.955228787968
 30
0.0
 10
-8336.06065717615
 20
2816.073419443995
 30
0.0
 10
-8334.025761792025
 20
2817.237354625774
 30
0.0
 10
-8330.181163622525
 20
2820.099909477156
 30
0.0
 10
-8328.410573400164
 20
2821.803105111368
 30
0.0
 10
-8325.346094652537
 20
2825.592197021818
 30
0.0
 10
-8324.063642668796
 20
2827.651895011598
 30
0.0
 10
-8322.032244162925
 20
2832.006134935454
 30
0.0
 10
-8321.279480692916
 20
2834.298613913394
 30
0.0
 10
-8320.331324571769
 20
2838.983036286068
 30
0.0
 10
-8320.134104996476
 20
2841.303892064628
 30
0.0
 10
-8320.272346025275
 20
2846.060780243252
 30
0.0
 10
-8320.59780788708
 20
2848.348840570321
 30
0.0
 10
-8321.269180675987
 20
2850.953132041373
 30
0.0
 10
-8322.016012003802
 20
2853.685411366515
 30
0.0
 10
-8322.40557689411
 20
2855.113356410223
 30
0.0
 10
-8322.710712643096
 20
2856.231827533425
 30
0.0
 10
-8342.544536326324
 20
2928.932450538336
 30
0.0
 10
-8362.073225367865
 20
3000.514602117957
 30
0.0
 10
-8391.370901183203
 20
3107.904873389155
 30
0.0
 10
-8401.139892659583
 20
3143.712991797797
 30
0.0
 10
-8412.130008070573
 20
3183.997125007784
 30
0.0
 10
-8413.351132005191
 20
3188.473139809127
 30
0.0
 10
-8414.877536923468
 20
3194.068158310827
 30
0.0
 10
-8415.18281790713
 20
3195.187162011184
 30
0.0
 10
-8415.830114284428
 20
3197.559818941017
 30
0.0
 10
-8416.061176779578
 20
3198.370880599751
 30
0.0
 10
-8417.24944206341
 20
3201.752748947141
 30
0.0
 10
-8418.173814936417
 20
3203.805449037603
 30
0.0
 10
-8420.389253928359
 20
3207.78092804407
 30
0.0
 10
-8421.638550058764
 20
3209.634218877984
 30
0.0
 10
-8424.471544258908
 20
3213.152962558775
 30
0.0
 10
-8426.003336574198
 20
3214.758334405253
 30
0.0
 10
-8429.3941729432
 20
3217.760824461981
 30
0.0
 10
-8431.196487981455
 20
3219.101316091381
 30
0.0
 10
-8435.173039622714
 20
3221.563323175371
 30
0.0
 10
-8437.28280420827
 20
3222.621665137905
 30
0.0
 10
-8441.770479123494
 20
3224.388545703964
 30
0.0
 10
-8444.060093470678
 20
3225.058716691636
 30
0.0
 10
-8448.82780836738
 20
3225.996978386617
 30
0.0
 10
-8451.209957100142
 20
3226.244726034977
 30
0.0
 10
-8456.046505311548
 20
3226.306159629837
 30
0.0
 10
-8458.404261239142
 20
3226.124918496355
 30
0.0
 10
-8461.95829142335
 20
3225.530206382331
 30
0.0
 10
-8463.127972827908
 20
3225.279673348143
 30
0.0
 10
-8464.64604633236
 20
3224.882453748274
 30
0.0
 10
-8467.286869570744
 20
3224.161342636979
 30
0.0
 10
-8476.594945989884
 20
3221.625666361962
 30
0.0
 10
-8485.54788021155
 20
3219.186736783451
 30
0.0
 10
-8566.124288206542
 20
3197.23637057687
 30
0.0
 10
-8637.747761979874
 20
3177.724933948798
 30
0.0
 10
-8745.135251782962
 20
3148.470778969218
 30
0.0
 10
-8780.899267812718
 20
3138.728060617711
 30
0.0
 10
-8834.545291857357
 20
3124.113983090451
 30
0.0
 10
-8852.427299872237
 20
3119.242623914698
 30
0.0
 10
-8879.250311894557
 20
3111.935585151068
 30
0.0
 10
-8888.191315901997
 20
3109.499905563192
 30
0.0
 10
-8901.602821913155
 20
3105.846386181377
 30
0.0
 10
-8906.073323916877
 20
3104.628546387438
 30
0.0
 10
-8912.779076922456
 20
3102.801786696531
 30
0.0
 10
-8915.014327924313
 20
3102.192866799561
 30
0.0
 10
-8919.489582446738
 20
3100.973732339746
 30
0.0
 10
-8921.72855989583
 20
3100.3597659633
 30
0.0
 10
-8932.92003886418
 20
3097.335782960929
 30
0.0
 10
-8941.925390388817
 20
3095.218472294802
 30
0.0
 10
-8960.141218427449
 20
3091.570577823707
 30
0.0
 10
-8969.302091233512
 20
3090.052206198086
 30
0.0
 10
-8987.698944141914
 20
3087.619725139402
 30
0.0
 10
-8996.884593620889
 20
3086.709243553886
 30
0.0
 10
-9015.371520806559
 20
3085.502537323759
 30
0.0
 10
-9024.621811643978
 20
3085.210468291367
 30
0.0
 10
-9043.177872083557
 20
3085.227438569905
 30
0.0
 10
-9052.43357076868
 20
3085.537345498287
 30
0.0
 10
-9070.95451767644
 20
3086.782203079847
 30
0.0
 10
-9080.168442379072
 20
3087.713788317575
 30
0.0
 10
-9107.822149845611
 20
3091.430115895665
 30
0.0
 10
-9125.915752225497
 20
3095.087410141231
 30
0.0
 10
-9143.882568959034
 20
3099.981908667173
 30
0.0
  0
ENDSEC
  0
SECTION
  2
OBJECTS
  0
DICTIONARY
  5
C
330
0
100
AcDbDictionary
281
     1
  3
ACAD_GROUP
350
D
  3
ACAD_LAYOUT
350
1A
  3
ACAD_MLEADERSTYLE
350
5A
  3
ACAD_MLINESTYLE
350
17
  3
ACAD_PLOTSETTINGS
350
19
  3
ACAD_PLOTSTYLENAME
350
E
  3
ACAD_TABLESTYLE
350
59
  3
ACAD_VISUALSTYLE
350
2A
  0
DICTIONARY
  5
D
102
{ACAD_REACTORS
330
C
102
}
330
C
100
AcDbDictionary
281
     1
  0
DICTIONARY
  5
1A
102
{ACAD_REACTORS
330
C
102
}
330
C
100
AcDbDictionary
281
     1
  3
Layout1
350
1E
  3
Layout2
350
26
  3
Model
350
22
  0
DICTIONARY
  5
5A
102
{ACAD_REACTORS
330
C
102
}
330
C
100
AcDbDictionary
281
     1
  0
DICTIONARY
  5
17
102
{ACAD_REACTORS
330
C
102
}
330
C
100
AcDbDictionary
281
     1
  3
Standard
350
18
  0
DICTIONARY
  5
19
102
{ACAD_REACTORS
330
C
102
}
330
C
100
AcDbDictionary
281
     1
  0
ACDBDICTIONARYWDFLT
  5
E
102
{ACAD_REACTORS
330
C
102
}
330
C
100
AcDbDictionary
281
     1
  3
Normal
350
F
100
AcDbDictionaryWithDefault
340
F
  0
DICTIONARY
  5
59
102
{ACAD_REACTORS
330
C
102
}
330
C
100
AcDbDictionary
281
     1
  0
DICTIONARY
  5
2A
102
{ACAD_REACTORS
330
C
102
}
330
C
100
AcDbDictionary
281
     1
  3
2dWireframe
350
2F
  3
3D Hidden
350
31
  3
3dWireframe
350
30
  3
Basic
350
32
  3
Brighten
350
36
  3
ColorChange
350
3A
  3
Conceptual
350
34
  3
Dim
350
35
  3
Facepattern
350
39
  3
Flat
350
2B
  3
FlatWithEdges
350
2C
  3
Gouraud
350
2D
  3
GouraudWithEdges
350
2E
  3
Linepattern
350
38
  3
Realistic
350
33
  3
Thicken
350
37
  0
LAYOUT
  5
1E
102
{ACAD_REACTORS
330
1A
102
}
330
1A
100
AcDbPlotSettings
  1

  2
none_device
  4

  6

 40
0.0
 41
0.0
 42
0.0
 43
0.0
 44
0.0
 45
0.0
 46
0.0
 47
0.0
 48
0.0
 49
0.0
140
0.0
141
0.0
142
1.0
143
1.0
 70
   688
 72
     0
 73
     0
 74
     5
  7

 75
    16
 76
     0
 77
     2
 78
   300
147
1.0
148
0.0
149
0.0
100
AcDbLayout
  1
Layout1
 70
     1
 71
     1
 10
0.0
 20
0.0
 11
12.0
 21
9.0
 12
0.0
 22
0.0
 32
0.0
 14
1.000000000000000E+20
 24
1.000000000000000E+20
 34
1.000000000000000E+20
 15
-1.000000000000000E+20
 25
-1.000000000000000E+20
 35
-1.000000000000000E+20
146
0.0
 13
0.0
 23
0.0
 33
0.0
 16
1.0
 26
0.0
 36
0.0
 17
0.0
 27
1.0
 37
0.0
 76
     0
330
1B
  0
LAYOUT
  5
26
102
{ACAD_REACTORS
330
1A
102
}
330
1A
100
AcDbPlotSettings
  1

  2
none_device
  4

  6

 40
0.0
 41
0.0
 42
0.0
 43
0.0
 44
0.0
 45
0.0
 46
0.0
 47
0.0
 48
0.0
 49
0.0
140
0.0
141
0.0
142
1.0
143
1.0
 70
   688
 72
     0
 73
     0
 74
     5
  7

 75
    16
 76
     0
 77
     2
 78
   300
147
1.0
148
0.0
149
0.0
100
AcDbLayout
  1
Layout2
 70
     1
 71
     2
 10
0.0
 20
0.0
 11
0.0
 21
0.0
 12
0.0
 22
0.0
 32
0.0
 14
0.0
 24
0.0
 34
0.0
 15
0.0
 25
0.0
 35
0.0
146
0.0
 13
0.0
 23
0.0
 33
0.0
 16
1.0
 26
0.0
 36
0.0
 17
0.0
 27
1.0
 37
0.0
 76
     0
330
23
  0
LAYOUT
  5
22
102
{ACAD_REACTORS
330
1A
102
}
330
1A
100
AcDbPlotSettings
  1

  2
none_device
  4

  6

 40
0.0
 41
0.0
 42
0.0
 43
0.0
 44
0.0
 45
0.0
 46
0.0
 47
0.0
 48
0.0
 49
0.0
140
0.0
141
0.0
142
1.0
143
1.0
 70
  1712
 72
     0
 73
     0
 74
     0
  7

 75
     0
 76
     0
 77
     2
 78
   300
147
1.0
148
0.0
149
0.0
100
AcDbLayout
  1
Model
 70
     1
 71
     0
 10
0.0
 20
0.0
 11
12.0
 21
9.0
 12
0.0
 22
0.0
 32
0.0
 14
-9887.076826583918
 24
2338.596569473798
 34
-0.0000000000000045
 15
-8179.936694894222
 25
5011.692626230472
 35
0.0000000000000027
146
0.0
 13
0.0
 23
0.0
 33
0.0
 16
1.0
 26
0.0
 36
0.0
 17
0.0
 27
1.0
 37
0.0
 76
     0
330
1F
331
29
  0
MLINESTYLE
  5
18
102
{ACAD_REACTORS
330
17
102
}
330
17
100
AcDbMlineStyle
  2
Standard
 70
     0
  3

 62
   256
 51
90.0
 52
90.0
 71
     2
 49
0.5
 62
   256
  6
BYLAYER
 49
-0.5
 62
   256
  6
BYLAYER
  0
ACDBPLACEHOLDER
  5
F
102
{ACAD_REACTORS
330
E
102
}
330
E
  0
VISUALSTYLE
  5
2F
102
{ACAD_REACTORS
330
2A
102
}
330
2A
100
AcDbVisualStyle
  2
2dWireframe
 70
     4
 71
     0
 72
     2
 73
     0
 90
        0
 40
-0.6
 41
-30.0
 62
     5
 63
     7
421
 16777215
 74
     1
 91
        4
 64
     7
 65
   257
 75
     1
175
     1
 42
1.0
 92
        0
 66
   257
 43
1.0
 76
     1
 77
     6
 78
     2
 67
     7
 79
     5
170
     0
171
     0
290
     0
174
     0
 93
        1
 44
0.0
173
     0
291
     0
 45
0.0
1001
ACAD
1000
AcDbSavedByObjectVersion
1070
     0
  0
VISUALSTYLE
  5
31
102
{ACAD_REACTORS
330
2A
102
}
330
2A
100
AcDbVisualStyle
  2
3D Hidden
 70
     6
 71
     1
 72
     2
 73
     2
 90
        0
 40
-0.6
 41
-30.0
 62
     5
 63
     7
421
 16777215
 74
     2
 91
        2
 64
     7
 65
   257
 75
     2
175
     1
 42
40.0
 92
        0
 66
   257
 43
1.0
 76
     1
 77
     6
 78
     2
 67
     7
 79
     3
170
     0
171
     0
290
     0
174
     0
 93
        1
 44
0.0
173
     0
291
     0
 45
0.0
1001
ACAD
1000
AcDbSavedByObjectVersion
1070
     0
  0
VISUALSTYLE
  5
30
102
{ACAD_REACTORS
330
2A
102
}
330
2A
100
AcDbVisualStyle
  2
3dWireframe
 70
     5
 71
     0
 72
     2
 73
     0
 90
        0
 40
-0.6
 41
-30.0
 62
     5
 63
     7
421
 16777215
 74
     1
 91
        4
 64
     7
 65
   257
 75
     1
175
     1
 42
1.0
 92
        0
 66
   257
 43
1.0
 76
     1
 77
     6
 78
     2
 67
     7
 79
     5
170
     0
171
     0
290
     0
174
     0
 93
        1
 44
0.0
173
     0
291
     0
 45
0.0
1001
ACAD
1000
AcDbSavedByObjectVersion
1070
     0
  0
VISUALSTYLE
  5
32
102
{ACAD_REACTORS
330
2A
102
}
330
2A
100
AcDbVisualStyle
  2
Basic
 70
     7
 71
     1
 72
     0
 73
     1
 90
        0
 40
-0.6
 41
-30.0
 62
     5
 63
     7
421
 16777215
 74
     0
 91
        4
 64
     7
 65
   257
 75
     1
175
     1
 42
1.0
 92
        8
 66
     7
 43
1.0
 76
     1
 77
     6
 78
     2
 67
     7
 79
     5
170
     0
171
     0
290
     0
174
     0
 93
        1
 44
0.0
173
     0
291
     1
 45
0.0
1001
ACAD
1000
AcDbSavedByObjectVersion
1070
     0
  0
VISUALSTYLE
  5
36
102
{ACAD_REACTORS
330
2A
102
}
330
2A
100
AcDbVisualStyle
  2
Brighten
 70
    12
 71
     2
 72
     2
 73
     0
 90
        0
 40
-0.6
 41
-30.0
 62
     5
 63
     7
421
 16777215
 74
     1
 91
        4
 64
     7
 65
   257
 75
     1
175
     1
 42
1.0
 92
        8
 66
     7
 43
1.0
 76
     1
 77
     6
 78
     2
 67
     7
 79
     5
170
     0
171
     0
290
     0
174
     0
 93
        1
 44
50.0
173
     0
291
     1
 45
0.0
1001
ACAD
1000
AcDbSavedByObjectVersion
1070
     0
  0
VISUALSTYLE
  5
3A
102
{ACAD_REACTORS
330
2A
102
}
330
2A
100
AcDbVisualStyle
  2
ColorChange
 70
    16
 71
     2
 72
     2
 73
     3
 90
        0
 40
-0.6
 41
-30.0
 62
     5
 63
     8
421
  8421504
 74
     1
 91
        4
 64
     7
 65
   257
 75
     1
175
     1
 42
1.0
 92
        8
 66
     8
424
  8421504
 43
1.0
 76
     1
 77
     6
 78
     2
 67
     7
 79
     5
170
     0
171
     0
290
     0
174
     0
 93
        1
 44
0.0
173
     0
291
     1
 45
0.0
1001
ACAD
1000
AcDbSavedByObjectVersion
1070
     0
  0
VISUALSTYLE
  5
34
102
{ACAD_REACTORS
330
2A
102
}
330
2A
100
AcDbVisualStyle
  2
Conceptual
 70
     9
 71
     3
 72
     2
 73
     0
 90
        0
 40
-0.6
 41
-30.0
 62
     5
 63
     7
421
 16777215
 74
     2
 91
        2
 64
     7
 65
   257
 75
     1
175
     1
 42
40.0
 92
        8
 66
     7
 43
1.0
 76
     1
 77
     6
 78
     2
 67
     7
 79
     3
170
     0
171
     0
290
     0
174
     0
 93
        1
 44
0.0
173
     0
291
     0
 45
0.0
1001
ACAD
1000
AcDbSavedByObjectVersion
1070
     0
  0
VISUALSTYLE
  5
35
102
{ACAD_REACTORS
330
2A
102
}
330
2A
100
AcDbVisualStyle
  2
Dim
 70
    11
 71
     2
 72
     2
 73
     0
 90
        0
 40
-0.6
 41
-30.0
 62
     5
 63
     7
421
 16777215
 74
     1
 91
        4
 64
     7
 65
   257
 75
     1
175
     1
 42
1.0
 92
        8
 66
     7
 43
1.0
 76
     1
 77
     6
 78
     2
 67
     7
 79
     5
170
     0
171
     0
290
     0
174
     0
 93
        1
 44
-50.0
173
     0
291
     1
 45
0.0
1001
ACAD
1000
AcDbSavedByObjectVersion
1070
     0
  0
VISUALSTYLE
  5
39
102
{ACAD_REACTORS
330
2A
102
}
330
2A
100
AcDbVisualStyle
  2
Facepattern
 70
    15
 71
     2
 72
     2
 73
     0
 90
        0
 40
-0.6
 41
-30.0
 62
     5
 63
     7
421
 16777215
 74
     1
 91
        4
 64
     7
 65
   257
 75
     1
175
     1
 42
1.0
 92
        8
 66
     7
 43
1.0
 76
     1
 77
     6
 78
     2
 67
     7
 79
     5
170
     0
171
     0
290
     0
174
     0
 93
        1
 44
0.0
173
     0
291
     1
 45
0.0
1001
ACAD
1000
AcDbSavedByObjectVersion
1070
     0
  0
VISUALSTYLE
  5
2B
102
{ACAD_REACTORS
330
2A
102
}
330
2A
100
AcDbVisualStyle
  2
Flat
 70
     0
 71
     2
 72
     1
 73
     1
 90
        2
 40
-0.6
 41
30.0
 62
     5
 63
     7
421
 16777215
 74
     0
 91
        4
 64
     7
 65
   257
 75
     1
175
     1
 42
1.0
 92
        8
 66
     7
 43
1.0
 76
     1
 77
     6
 78
     2
 67
     7
 79
     5
170
     0
171
     0
290
     0
174
     0
 93
       13
 44
0.0
173
     0
291
     1
 45
0.0
1001
ACAD
1000
AcDbSavedByObjectVersion
1070
     0
  0
VISUALSTYLE
  5
2C
102
{ACAD_REACTORS
330
2A
102
}
330
2A
100
AcDbVisualStyle
  2
FlatWithEdges
 70
     1
 71
     2
 72
     1
 73
     1
 90
        2
 40
-0.6
 41
30.0
 62
     5
 63
     7
421
 16777215
 74
     1
 91
        4
 64
     7
 65
   257
 75
     1
175
     1
 42
1.0
 92
        0
 66
   257
 43
1.0
 76
     1
 77
     6
 78
     2
 67
     7
 79
     5
170
     0
171
     0
290
     0
174
     0
 93
       13
 44
0.0
173
     0
291
     1
 45
0.0
1001
ACAD
1000
AcDbSavedByObjectVersion
1070
     0
  0
VISUALSTYLE
  5
2D
102
{ACAD_REACTORS
330
2A
102
}
330
2A
100
AcDbVisualStyle
  2
Gouraud
 70
     2
 71
     2
 72
     2
 73
     1
 90
        2
 40
-0.6
 41
30.0
 62
     5
 63
     7
421
 16777215
 74
     0
 91
        4
 64
     7
 65
   257
 75
     1
175
     1
 42
1.0
 92
        0
 66
     7
 43
1.0
 76
     1
 77
     6
 78
     2
 67
     7
 79
     5
170
     0
171
     0
290
     0
174
     0
 93
       13
 44
0.0
173
     0
291
     1
 45
0.0
1001
ACAD
1000
AcDbSavedByObjectVersion
1070
     0
  0
VISUALSTYLE
  5
2E
102
{ACAD_REACTORS
330
2A
102
}
330
2A
100
AcDbVisualStyle
  2
GouraudWithEdges
 70
     3
 71
     2
 72
     2
 73
     1
 90
        2
 40
-0.6
 41
30.0
 62
     5
 63
     7
421
 16777215
 74
     1
 91
        4
 64
     7
 65
   257
 75
     1
175
     1
 42
1.0
 92
        0
 66
   257
 43
1.0
 76
     1
 77
     6
 78
     2
 67
     7
 79
     5
170
     0
171
     0
290
     0
174
     0
 93
       13
 44
0.0
173
     0
291
     1
 45
0.0
1001
ACAD
1000
AcDbSavedByObjectVersion
1070
     0
  0
VISUALSTYLE
  5
38
102
{ACAD_REACTORS
330
2A
102
}
330
2A
100
AcDbVisualStyle
  2
Linepattern
 70
    14
 71
     2
 72
     2
 73
     0
 90
        0
 40
-0.6
 41
-30.0
 62
     5
 63
     7
421
 16777215
 74
     1
 91
        4
 64
     7
 65
   257
 75
     7
175
     7
 42
1.0
 92
        8
 66
     7
 43
1.0
 76
     1
 77
     6
 78
     2
 67
     7
 79
     5
170
     0
171
     0
290
     0
174
     0
 93
        1
 44
0.0
173
     0
291
     1
 45
0.0
1001
ACAD
1000
AcDbSavedByObjectVersion
1070
     0
  0
VISUALSTYLE
  5
33
102
{ACAD_REACTORS
330
2A
102
}
330
2A
100
AcDbVisualStyle
  2
Realistic
 70
     8
 71
     2
 72
     2
 73
     0
 90
        0
 40
-0.6
 41
-30.0
 62
     5
 63
     7
421
 16777215
 74
     1
 91
        0
 64
     7
 65
   257
 75
     1
175
     1
 42
1.0
 92
        8
 66
     8
424
  7895160
 43
1.0
 76
     1
 77
     6
 78
     2
 67
     7
 79
     5
170
     0
171
     0
290
     0
174
     0
 93
       13
 44
0.0
173
     0
291
     0
 45
0.0
1001
ACAD
1000
AcDbSavedByObjectVersion
1070
     0
  0
VISUALSTYLE
  5
37
102
{ACAD_REACTORS
330
2A
102
}
330
2A
100
AcDbVisualStyle
  2
Thicken
 70
    13
 71
     2
 72
     2
 73
     0
 90
        0
 40
-0.6
 41
-30.0
 62
     5
 63
     7
421
 16777215
 74
     1
 91
        4
 64
     7
 65
   257
 75
     1
175
     1
 42
1.0
 92
       12
 66
     7
 43
1.0
 76
     1
 77
     6
 78
     2
 67
     7
 79
     5
170
     0
171
     0
290
     0
174
     0
 93
        1
 44
0.0
173
     0
291
     1
 45
0.0
1001
ACAD
1000
AcDbSavedByObjectVersion
1070
     0
  0
ENDSEC
  0
EOF
