  0
SECTION
  2
HEADER
  9
$ACADVER
  1
AC1018
  9
$ACADMAINTVER
 70
     0
  9
$DWGCODEPAGE
  3
ANSI_1252
  9
$INSBASE
 10
0.0
 20
0.0
 30
0.0
  9
$EXTMIN
 10
-2719.485123480121
 20
-1168.932364137195
 30
-0.0000000000000057
  9
$EXTMAX
 10
-745.0220923495789
 20
1094.911790264176
 30
0.0000000000000022
  9
$LIMMIN
 10
0.0
 20
0.0
  9
$LIMMAX
 10
12.0
 20
9.0
  9
$ORTHOMODE
 70
     0
  9
$REGENMODE
 70
     1
  9
$FILLMODE
 70
     1
  9
$QTEXTMODE
 70
     0
  9
$MIRRTEXT
 70
     1
  9
$LTSCALE
 40
1.0
  9
$ATTMODE
 70
     1
  9
$TEXTSIZE
 40
0.2
  9
$TRACEWID
 40
0.05
  9
$TEXTSTYLE
  7
Standard
  9
$CLAYER
  8
0
  9
$CELTYPE
  6
ByLayer
  9
$CECOLOR
 62
   256
  9
$CELTSCALE
 40
1.0
  9
$DISPSILH
 70
     0
  9
$DIMSCALE
 40
1.0
  9
$DIMASZ
 40
0.18
  9
$DIMEXO
 40
0.0625
  9
$DIMDLI
 40
0.38
  9
$DIMRND
 40
0.0
  9
$DIMDLE
 40
0.0
  9
$DIMEXE
 40
0.18
  9
$DIMTP
 40
0.0
  9
$DIMTM
 40
0.0
  9
$DIMTXT
 40
0.18
  9
$DIMCEN
 40
0.09
  9
$DIMTSZ
 40
0.0
  9
$DIMTOL
 70
     0
  9
$DIMLIM
 70
     0
  9
$DIMTIH
 70
     1
  9
$DIMTOH
 70
     1
  9
$DIMSE1
 70
     0
  9
$DIMSE2
 70
     0
  9
$DIMTAD
 70
     0
  9
$DIMZIN
 70
     0
  9
$DIMBLK
  1

  9
$DIMASO
 70
     1
  9
$DIMSHO
 70
     1
  9
$DIMPOST
  1

  9
$DIMAPOST
  1

  9
$DIMALT
 70
     0
  9
$DIMALTD
 70
     2
  9
$DIMALTF
 40
25.4
  9
$DIMLFAC
 40
1.0
  9
$DIMTOFL
 70
     0
  9
$DIMTVP
 40
0.0
  9
$DIMTIX
 70
     0
  9
$DIMSOXD
 70
     0
  9
$DIMSAH
 70
     0
  9
$DIMBLK1
  1

  9
$DIMBLK2
  1

  9
$DIMSTYLE
  2
Standard
  9
$DIMCLRD
 70
     0
  9
$DIMCLRE
 70
     0
  9
$DIMCLRT
 70
     0
  9
$DIMTFAC
 40
1.0
  9
$DIMGAP
 40
0.09
  9
$DIMJUST
 70
     0
  9
$DIMSD1
 70
     0
  9
$DIMSD2
 70
     0
  9
$DIMTOLJ
 70
     1
  9
$DIMTZIN
 70
     0
  9
$DIMALTZ
 70
     0
  9
$DIMALTTZ
 70
     0
  9
$DIMUPT
 70
     0
  9
$DIMDEC
 70
     4
  9
$DIMTDEC
 70
     4
  9
$DIMALTU
 70
     2
  9
$DIMALTTD
 70
     2
  9
$DIMTXSTY
  7
Standard
  9
$DIMAUNIT
 70
     0
  9
$DIMADEC
 70
     0
  9
$DIMALTRND
 40
0.0
  9
$DIMAZIN
 70
     0
  9
$DIMDSEP
 70
    46
  9
$DIMATFIT
 70
     3
  9
$DIMFRAC
 70
     0
  9
$DIMLDRBLK
  1

  9
$DIMLUNIT
 70
     2
  9
$DIMLWD
 70
    -2
  9
$DIMLWE
 70
    -2
  9
$DIMTMOVE
 70
     2
  9
$LUNITS
 70
     2
  9
$LUPREC
 70
     3
  9
$SKETCHINC
 40
0.1
  9
$FILLETRAD
 40
0.5
  9
$AUNITS
 70
     0
  9
$AUPREC
 70
     0
  9
$MENU
  1
.
  9
$ELEVATION
 40
0.0
  9
$PELEVATION
 40
0.0
  9
$THICKNESS
 40
0.0
  9
$LIMCHECK
 70
     0
  9
$CHAMFERA
 40
0.5
  9
$CHAMFERB
 40
0.5
  9
$CHAMFERC
 40
1.0
  9
$CHAMFERD
 40
0.0
  9
$SKPOLY
 70
     0
  9
$TDCREATE
 40
2456377.849210301
  9
$TDUCREATE
 40
2456377.807543634
  9
$TDUPDATE
 40
2456377.849210313
  9
$TDUUPDATE
 40
2456377.807543646
  9
$TDINDWG
 40
0.0000000116
  9
$TDUSRTIMER
 40
0.0000000116
  9
$USRTIMER
 70
     1
  9
$ANGBASE
 50
0.0
  9
$ANGDIR
 70
     0
  9
$PDMODE
 70
     0
  9
$PDSIZE
 40
0.0
  9
$PLINEWID
 40
0.0
  9
$SPLFRAME
 70
     0
  9
$SPLINETYPE
 70
     6
  9
$SPLINESEGS
 70
     8
  9
$HANDSEED
  5
D6
  9
$SURFTAB1
 70
     6
  9
$SURFTAB2
 70
     6
  9
$SURFTYPE
 70
     6
  9
$SURFU
 70
     6
  9
$SURFV
 70
     6
  9
$UCSBASE
  2

  9
$UCSNAME
  2

  9
$UCSORG
 10
0.0
 20
0.0
 30
0.0
  9
$UCSXDIR
 10
1.0
 20
0.0
 30
0.0
  9
$UCSYDIR
 10
0.0
 20
1.0
 30
0.0
  9
$UCSORTHOREF
  2

  9
$UCSORTHOVIEW
 70
     0
  9
$UCSORGTOP
 10
0.0
 20
0.0
 30
0.0
  9
$UCSORGBOTTOM
 10
0.0
 20
0.0
 30
0.0
  9
$UCSORGLEFT
 10
0.0
 20
0.0
 30
0.0
  9
$UCSORGRIGHT
 10
0.0
 20
0.0
 30
0.0
  9
$UCSORGFRONT
 10
0.0
 20
0.0
 30
0.0
  9
$UCSORGBACK
 10
0.0
 20
0.0
 30
0.0
  9
$PUCSBASE
  2

  9
$PUCSNAME
  2

  9
$PUCSORG
 10
0.0
 20
0.0
 30
0.0
  9
$PUCSXDIR
 10
1.0
 20
0.0
 30
0.0
  9
$PUCSYDIR
 10
0.0
 20
1.0
 30
0.0
  9
$PUCSORTHOREF
  2

  9
$PUCSORTHOVIEW
 70
     0
  9
$PUCSORGTOP
 10
0.0
 20
0.0
 30
0.0
  9
$PUCSORGBOTTOM
 10
0.0
 20
0.0
 30
0.0
  9
$PUCSORGLEFT
 10
0.0
 20
0.0
 30
0.0
  9
$PUCSORGRIGHT
 10
0.0
 20
0.0
 30
0.0
  9
$PUCSORGFRONT
 10
0.0
 20
0.0
 30
0.0
  9
$PUCSORGBACK
 10
0.0
 20
0.0
 30
0.0
  9
$USERI1
 70
     0
  9
$USERI2
 70
     0
  9
$USERI3
 70
     0
  9
$USERI4
 70
     0
  9
$USERI5
 70
     0
  9
$USERR1
 40
0.0
  9
$USERR2
 40
0.0
  9
$USERR3
 40
0.0
  9
$USERR4
 40
0.0
  9
$USERR5
 40
0.0
  9
$WORLDVIEW
 70
     1
  9
$SHADEDGE
 70
     3
  9
$SHADEDIF
 70
    70
  9
$TILEMODE
 70
     1
  9
$MAXACTVP
 70
    64
  9
$PINSBASE
 10
0.0
 20
0.0
 30
0.0
  9
$PLIMCHECK
 70
     0
  9
$PEXTMIN
 10
1.000000000000000E+20
 20
1.000000000000000E+20
 30
1.000000000000000E+20
  9
$PEXTMAX
 10
-1.000000000000000E+20
 20
-1.000000000000000E+20
 30
-1.000000000000000E+20
  9
$PLIMMIN
 10
0.0
 20
0.0
  9
$PLIMMAX
 10
12.0
 20
9.0
  9
$UNITMODE
 70
     0
  9
$VISRETAIN
 70
     1
  9
$PLINEGEN
 70
     0
  9
$PSLTSCALE
 70
     1
  9
$TREEDEPTH
 70
  3020
  9
$CMLSTYLE
  2
Standard
  9
$CMLJUST
 70
     0
  9
$CMLSCALE
 40
1.0
  9
$PROXYGRAPHICS
 70
     1
  9
$MEASUREMENT
 70
     0
  9
$CELWEIGHT
370
    -1
  9
$ENDCAPS
280
     0
  9
$JOINSTYLE
280
     0
  9
$LWDISPLAY
290
     0
  9
$INSUNITS
 70
     4
  9
$HYPERLINKBASE
  1

  9
$STYLESHEET
  1

  9
$XEDIT
290
     1
  9
$CEPSNTYPE
380
     0
  9
$PSTYLEMODE
290
     1
  9
$FINGERPRINTGUID
  2
{D35AA9F1-D9F5-4251-81BD-E21AE60BB0E3}
  9
$VERSIONGUID
  2
{FAEB1C32-E019-11D5-929B-00C0DF256EC4}
  9
$EXTNAMES
290
     1
  9
$PSVPSCALE
 40
0.0
  9
$OLESTARTUP
290
     0
  9
$SORTENTS
280
   127
  9
$INDEXCTL
280
     0
  9
$HIDETEXT
280
     1
  9
$XCLIPFRAME
290
     0
  9
$HALOGAP
280
     0
  9
$OBSCOLOR
 70
   257
  9
$OBSLTYPE
280
     0
  9
$INTERSECTIONDISPLAY
280
     0
  9
$INTERSECTIONCOLOR
 70
   257
  9
$DIMASSOC
280
     2
  9
$PROJECTNAME
  1

  0
ENDSEC
  0
SECTION
  2
CLASSES
  0
CLASS
  1
ACDBDICTIONARYWDFLT
  2
AcDbDictionaryWithDefault
  3
ObjectDBX Classes
 90
        0
 91
        4
280
     0
281
     0
  0
CLASS
  1
VISUALSTYLE
  2
AcDbVisualStyle
  3
ObjectDBX Classes
 90
     4095
 91
        4
280
     0
281
     0
  0
ENDSEC
  0
SECTION
  2
TABLES
  0
TABLE
  2
VPORT
  5
8
330
0
100
AcDbSymbolTable
 70
     1
  0
VPORT
  5
29
330
8
100
AcDbSymbolTableRecord
100
AcDbViewportTableRecord
  2
*Active
 70
     0
 10
0.0
 20
0.0
 11
1.0
 21
1.0
 12
-1732.25360791485
 22
-37.01028693650915
 13
0.0
 23
0.0
 14
0.5
 24
0.5
 15
0.5
 25
0.5
 16
0.0
 26
0.0
 36
1.0
 17
0.0
 27
0.0
 37
0.0
 40
2309.121037489399
 41
0.8721726834825563
 42
50.0
 43
0.0
 44
0.0
 50
0.0
 51
0.0
 71
     0
 72
   100
 73
     1
 74
     3
 75
     0
 76
     0
 77
     0
 78
     0
281
     0
 65
     1
110
0.0
120
0.0
130
0.0
111
1.0
121
0.0
131
0.0
112
0.0
122
1.0
132
0.0
 79
     0
146
0.0
  0
ENDTAB
  0
TABLE
  2
LTYPE
  5
5
330
0
100
AcDbSymbolTable
 70
     1
  0
LTYPE
  5
14
330
5
100
AcDbSymbolTableRecord
100
AcDbLinetypeTableRecord
  2
ByBlock
 70
     0
  3

 72
    65
 73
     0
 40
0.0
  0
LTYPE
  5
15
330
5
100
AcDbSymbolTableRecord
100
AcDbLinetypeTableRecord
  2
ByLayer
 70
     0
  3

 72
    65
 73
     0
 40
0.0
  0
LTYPE
  5
16
330
5
100
AcDbSymbolTableRecord
100
AcDbLinetypeTableRecord
  2
Continuous
 70
     0
  3
Solid line
 72
    65
 73
     0
 40
0.0
  0
ENDTAB
  0
TABLE
  2
LAYER
  5
2
330
0
100
AcDbSymbolTable
 70
     2
  0
LAYER
  5
10
330
2
100
AcDbSymbolTableRecord
100
AcDbLayerTableRecord
  2
0
 70
     0
 62
     7
  6
Continuous
370
    -3
390
F
  0
LAYER
  5
3B
330
2
100
AcDbSymbolTableRecord
100
AcDbLayerTableRecord
  2
2D
 70
     0
 62
     7
  6
Continuous
370
    -3
390
F
  0
ENDTAB
  0
TABLE
  2
STYLE
  5
3
330
0
100
AcDbSymbolTable
 70
     1
  0
STYLE
  5
11
330
3
100
AcDbSymbolTableRecord
100
AcDbTextStyleTableRecord
  2
Standard
 70
     0
 40
0.0
 41
1.0
 50
0.0
 71
     0
 42
0.2
  3
txt
  4

  0
ENDTAB
  0
TABLE
  2
VIEW
  5
6
330
0
100
AcDbSymbolTable
 70
     0
  0
ENDTAB
  0
TABLE
  2
UCS
  5
7
330
0
100
AcDbSymbolTable
 70
     0
  0
ENDTAB
  0
TABLE
  2
APPID
  5
9
330
0
100
AcDbSymbolTable
 70
     1
  0
APPID
  5
12
330
9
100
AcDbSymbolTableRecord
100
AcDbRegAppTableRecord
  2
ACAD
 70
     0
  0
ENDTAB
  0
TABLE
  2
DIMSTYLE
  5
A
330
0
100
AcDbSymbolTable
 70
     1
100
AcDbDimStyleTable
  0
DIMSTYLE
105
27
330
A
100
AcDbSymbolTableRecord
100
AcDbDimStyleTableRecord
  2
Standard
 70
     0
340
11
  0
ENDTAB
  0
TABLE
  2
BLOCK_RECORD
  5
1
330
0
100
AcDbSymbolTable
 70
     1
  0
BLOCK_RECORD
  5
1F
330
1
100
AcDbSymbolTableRecord
100
AcDbBlockTableRecord
  2
*Model_Space
340
22
  0
BLOCK_RECORD
  5
1B
330
1
100
AcDbSymbolTableRecord
100
AcDbBlockTableRecord
  2
*Paper_Space
340
1E
  0
BLOCK_RECORD
  5
23
330
1
100
AcDbSymbolTableRecord
100
AcDbBlockTableRecord
  2
*Paper_Space0
340
26
  0
ENDTAB
  0
ENDSEC
  0
SECTION
  2
BLOCKS
  0
BLOCK
  5
20
330
1F
100
AcDbEntity
  8
0
100
AcDbBlockBegin
  2
*Model_Space
 70
     0
 10
0.0
 20
0.0
 30
0.0
  3
*Model_Space
  1

  0
ENDBLK
  5
21
330
1F
100
AcDbEntity
  8
0
100
AcDbBlockEnd
  0
BLOCK
  5
1C
330
1B
100
AcDbEntity
 67
     1
  8
0
100
AcDbBlockBegin
  2
*Paper_Space
 70
     0
 10
0.0
 20
0.0
 30
0.0
  3
*Paper_Space
  1

  0
ENDBLK
  5
1D
330
1B
100
AcDbEntity
 67
     1
  8
0
100
AcDbBlockEnd
  0
BLOCK
  5
24
330
23
100
AcDbEntity
  8
0
100
AcDbBlockBegin
  2
*Paper_Space0
 70
     0
 10
0.0
 20
0.0
 30
0.0
  3
*Paper_Space0
  1

  0
ENDBLK
  5
25
330
23
100
AcDbEntity
  8
0
100
AcDbBlockEnd
  0
ENDSEC
  0
SECTION
  2
ENTITIES
  0
LINE
  5
3C
330
1F
100
AcDbEntity
  8
2D
100
AcDbLine
 10
-2141.22031566871
 20
389.965099190827
 30
0.0
 11
-2141.31900524192
 21
396.7271789152064
 31
0.0
  0
LINE
  5
3D
330
1F
100
AcDbEntity
  8
2D
100
AcDbLine
 10
-1266.587612782874
 20
370.7945782315674
 30
0.0
 11
-1266.587857809725
 21
646.8777796703473
 31
0.0
  0
LINE
  5
3E
330
1F
100
AcDbEntity
  8
2D
100
AcDbLine
 10
-1266.587857809725
 20
646.8777796703473
 30
0.0
 11
-1266.587597471247
 21
654.9761879709067
 31
0.0
  0
LINE
  5
3F
330
1F
100
AcDbEntity
  8
2D
100
AcDbLine
 10
-1266.587597471247
 20
654.9761879709067
 30
0.0
 11
-1266.587596827143
 21
656.2439473324076
 31
0.0
  0
LINE
  5
40
330
1F
100
AcDbEntity
  8
2D
100
AcDbLine
 10
-1266.587596827143
 20
656.2439473324076
 30
0.0
 11
-1266.587594344492
 21
662.418877399072
 31
0.0
  0
SPLINE
  5
41
330
1F
100
AcDbEntity
  8
2D
100
AcDbSpline
210
0.0
220
0.0
230
1.0
 70
     8
 71
     3
 72
     8
 73
     4
 74
     0
 42
0.0000000001
 43
0.0000000001
 40
-5.956244519695128
 40
-5.956244519695128
 40
-5.956244519695128
 40
-5.956244519695128
 40
0.0
 40
0.0
 40
0.0
 40
0.0
 10
-1266.587594344492
 20
662.418877399072
 30
0.0
 10
-1266.587614616423
 20
664.4042922388732
 30
0.0
 10
-1266.5876371946
 20
666.3897070786289
 30
0.0
 10
-1266.587665330982
 20
668.375121918327
 30
0.0
  0
LINE
  5
42
330
1F
100
AcDbEntity
  8
2D
100
AcDbLine
 10
-1266.587665330982
 20
668.375121918327
 30
0.0
 11
-1266.587247239662
 21
673.6825039180467
 31
0.0
  0
SPLINE
  5
43
330
1F
100
AcDbEntity
  8
2D
100
AcDbSpline
210
0.0
220
0.0
230
1.0
 70
     8
 71
     3
 72
     8
 73
     4
 74
     0
 42
0.0000000001
 43
0.0000000001
 40
-0.4884861954246316
 40
-0.4884861954246316
 40
-0.4884861954246316
 40
-0.4884861954246316
 40
0.0
 40
0.0
 40
0.0
 40
0.0
 10
-1266.587247239662
 20
673.6825039180467
 30
0.0
 10
-1266.587195949494
 20
673.8453326417767
 30
0.0
 10
-1266.587145051853
 20
674.0081613656328
 30
0.0
 10
-1266.587094546827
 20
674.1709901035019
 30
0.0
  0
SPLINE
  5
44
330
1F
100
AcDbEntity
  8
2D
100
AcDbSpline
210
0.0
220
0.0
230
1.0
 70
     8
 71
     3
 72
     8
 73
     4
 74
     0
 42
0.0000000001
 43
0.0000000001
 40
-14.45092956368226
 40
-14.45092956368226
 40
-14.45092956368226
 40
-14.45092956368226
 40
0.0
 40
0.0
 40
0.0
 40
0.0
 10
-1266.587094546827
 20
674.1709901035019
 30
0.0
 10
-1266.587262646415
 20
678.9879666356895
 30
0.0
 10
-1266.587429974945
 20
683.8049431536157
 30
0.0
 10
-1266.58759972157
 20
688.6219196724761
 30
0.0
  0
SPLINE
  5
45
330
1F
100
AcDbEntity
  8
2D
100
AcDbSpline
210
0.0
220
0.0
230
1.0
 70
    12
 71
     3
 72
    23
 73
    19
 74
     0
 42
0.0000000001
 43
0.0000000001
 40
-1.98243045690675
 40
-1.98243045690675
 40
-1.98243045690675
 40
-1.98243045690675
 40
0.0
 40
0.0
 40
0.0
 40
6.78548651859575
 40
6.78548651859575
 40
13.54569576792314
 40
13.54569576792314
 40
20.10807516634107
 40
20.10807516634107
 40
26.44433597621215
 40
26.44433597621215
 40
26.44433597621215
 40
342.1913106663186
 40
342.1913106663186
 40
342.1913106663186
 40
361.1806534994101
 40
361.1806534994101
 40
361.1806534994101
 40
361.1806534994101
 10
-1266.58759972157
 20
688.6219196724761
 30
0.0
 41
1.0
 10
-1266.587642697705
 20
689.2827298240339
 30
0.0
 41
1.0
 10
-1266.587683061669
 20
689.9435838546347
 30
0.0
 41
1.0
 10
-1266.587719822637
 20
690.6043940059144
 30
0.0
 41
1.0
 10
-1266.587714697092
 20
690.8520099911747
 30
0.0
 41
1.0
 10
-1266.742480634854
 20
691.729634192975
 30
0.0
 41
1.0
 10
-1267.339215204978
 20
694.6260143102776
 30
0.0
 41
1.0
 10
-1267.773311134257
 20
696.6076839696286
 30
0.0
 41
1.0
 10
-1268.843287257609
 20
701.3277592584068
 30
0.0
 41
1.0
 10
-1269.463246633099
 20
703.999954842277
 30
0.0
 41
1.0
 10
-1270.799112345729
 20
709.6559444823276
 30
0.0
 41
1.0
 10
-1271.501326172816
 20
712.5851067552676
 30
0.0
 41
1.0
 10
-1272.217501208208
 20
715.5318785517379
 30
0.0
 41
1.0
 10
-1297.073535755942
 20
817.8037112901212
 30
0.0
 41
1.0
 10
-1321.929570303681
 20
920.0755440284863
 30
0.0
 41
1.0
 10
-1346.785604851415
 20
1022.34737676687
 30
0.0000000000000001
 41
1.0
 10
-1348.25447131349
 20
1028.391127031227
 30
0.0000000000000021
 41
0.9778498669261779
 10
-1350.322587035937
 20
1034.322117575185
 30
-0.0000000000000008
 41
0.9591416440757868
 10
-1353.002959984214
 20
1040.068760202565
 30
0.0
 41
0.9438753314488268
  0
SPLINE
  5
46
330
1F
100
AcDbEntity
  8
2D
100
AcDbSpline
210
0.0
220
0.0
230
1.0
 70
     8
 71
     3
 72
     8
 73
     4
 74
     0
 42
0.0000000001
 43
0.0000000001
 40
-3.856059846688941
 40
-3.856059846688941
 40
-3.856059846688941
 40
-3.856059846688941
 40
0.0
 40
0.0
 40
0.0
 40
0.0
 10
-1353.002959984216
 20
1040.068760202565
 30
0.0
 10
-1353.546285263001
 20
1041.233633991226
 30
0.0
 10
-1354.113373271877
 20
1042.387716164212
 30
0.0
 10
-1354.703523535543
 20
1043.529581186812
 30
0.0
  0
SPLINE
  5
47
330
1F
100
AcDbEntity
  8
2D
100
AcDbSpline
210
0.0
220
0.0
230
1.0
 70
    12
 71
     3
 72
     8
 73
     4
 74
     0
 42
0.0000000001
 43
0.0000000001
 40
-102.8953763350979
 40
-102.8953763350979
 40
-102.8953763350979
 40
-102.8953763350979
 40
0.0
 40
0.0
 40
0.0
 40
0.0
 10
-1354.703523535542
 20
1043.529581186812
 30
0.0
 41
0.937857046289255
 10
-1371.509052727385
 20
1076.046123415926
 30
0.0000000000000016
 41
0.865460630447916
 10
-1402.564953976618
 20
1094.612160452616
 30
-0.0000000000000056
 41
0.8861749483514977
 10
-1438.310753815407
 20
1094.908525902748
 30
0.0
 41
1.0
  0
SPLINE
  5
48
330
1F
100
AcDbEntity
  8
2D
100
AcDbSpline
210
0.0
220
0.0
230
1.0
 70
     8
 71
     3
 72
     8
 73
     4
 74
     0
 42
0.0000000001
 43
0.0000000001
 40
-0.7876168655593262
 40
-0.7876168655593262
 40
-0.7876168655593262
 40
-0.7876168655593262
 40
0.0
 40
0.0
 40
0.0
 40
0.0
 10
-1438.310753815407
 20
1094.908525902748
 30
0.0
 10
-1438.573283749312
 20
1094.910702320574
 30
0.0
 10
-1438.835824961014
 20
1094.911790459548
 30
0.0
 10
-1439.0983639162
 20
1094.911790263576
 30
0.0
  0
LINE
  5
49
330
1F
100
AcDbEntity
  8
2D
100
AcDbLine
 10
-1439.0983639162
 20
1094.911790263576
 30
0.0
 11
-1682.253607914849
 21
1094.911790169676
 31
0.0
  0
LINE
  5
4A
330
1F
100
AcDbEntity
  8
2D
100
AcDbLine
 10
-1682.253607914849
 20
1094.911790169676
 30
0.0
 11
-1782.253607914849
 21
1094.911790169676
 31
0.0
  0
LINE
  5
4B
330
1F
100
AcDbEntity
  8
2D
100
AcDbLine
 10
-1782.253607914849
 20
1094.911790169676
 30
0.0
 11
-2025.408851903536
 21
1094.911790263576
 31
0.0
  0
SPLINE
  5
4C
330
1F
100
AcDbEntity
  8
2D
100
AcDbSpline
210
0.0
220
0.0
230
1.0
 70
     8
 71
     3
 72
     8
 73
     4
 74
     0
 42
0.0000000001
 43
0.0000000001
 40
0.0
 40
0.0
 40
0.0
 40
0.0
 40
0.7876168655686322
 40
0.7876168655686322
 40
0.7876168655686322
 40
0.7876168655686322
 10
-2025.408851903536
 20
1094.911790263576
 30
0.0
 10
-2025.671390868687
 20
1094.911790459548
 30
0.0
 10
-2025.933932080381
 20
1094.910702320573
 30
0.0
 10
-2026.19646201429
 20
1094.908525902742
 30
0.0
  0
SPLINE
  5
4D
330
1F
100
AcDbEntity
  8
2D
100
AcDbSpline
210
0.0
220
0.0
230
1.0
 70
    12
 71
     3
 72
     8
 73
     4
 74
     0
 42
0.0000000001
 43
0.0000000001
 40
-103.30639543147
 40
-103.30639543147
 40
-103.30639543147
 40
-103.30639543147
 40
0.0
 40
0.0
 40
0.0
 40
0.0
 10
-2026.196462014289
 20
1094.908525902742
 30
0.0
 41
0.999999999999987
 10
-2061.942261853091
 20
1094.612160452613
 30
-0.0000000000000011
 41
0.8861749483514932
 10
-2092.998163102312
 20
1076.046123415925
 30
-0.0000000000000127
 41
0.8654606304479175
 10
-2109.803692294157
 20
1043.529581186812
 30
0.0
 41
0.9378570462892603
  0
SPLINE
  5
4E
330
1F
100
AcDbEntity
  8
2D
100
AcDbSpline
210
0.0
220
0.0
230
1.0
 70
     8
 71
     3
 72
     8
 73
     4
 74
     0
 42
0.0000000001
 43
0.0000000001
 40
0.0
 40
0.0
 40
0.0
 40
0.0
 40
3.856059846688289
 40
3.856059846688289
 40
3.856059846688289
 40
3.856059846688289
 10
-2109.803692294157
 20
1043.529581186812
 30
0.0
 10
-2110.39384255782
 20
1042.387716164212
 30
0.0
 10
-2110.960930566696
 20
1041.233633991226
 30
0.0
 10
-2111.504255845481
 20
1040.068760202566
 30
0.0
  0
SPLINE
  5
4F
330
1F
100
AcDbEntity
  8
2D
100
AcDbSpline
210
0.0
220
0.0
230
1.0
 70
    12
 71
     3
 72
    21
 73
    17
 74
     0
 42
0.0000000001
 43
0.0000000001
 40
-18.62663024147402
 40
-18.62663024147402
 40
-18.62663024147402
 40
-18.62663024147402
 40
0.0
 40
0.0
 40
0.0
 40
315.7469746900977
 40
315.7469746900977
 40
315.7469746900977
 40
330.6266500482558
 40
330.6266500482558
 40
338.0675022298765
 40
338.0675022298765
 40
340.3336286956201
 40
340.3336286956201
 40
340.3336286956201
 40
342.3161364061183
 40
342.3161364061183
 40
342.3161364061183
 40
342.3161364061183
 10
-2111.50425584548
 20
1040.068760202566
 30
0.0
 41
0.946568510968095
 10
-2114.18462879376
 20
1034.322117575186
 30
0.0000000000000066
 41
0.961878383288938
 10
-2116.252744516203
 20
1028.391127031228
 30
-0.0000000000000007
 41
0.9806399867087154
 10
-2117.721610978274
 20
1022.34737676687
 30
0.0
 41
1.002853321227427
 10
-2142.577645526009
 20
920.0755440284897
 30
0.0
 41
1.002853321227427
 10
-2167.433680073748
 20
817.8037112901177
 30
0.0
 41
1.002853321227427
 10
-2192.289714621486
 20
715.5318785517381
 30
0.0
 41
1.002853321227427
 10
-2193.29568551807
 20
711.3927135157709
 30
0.0
 41
1.002853321227427
 10
-2194.285095200602
 20
707.2497640427807
 30
0.0
 41
1.002853321227427
 10
-2195.731732978241
 20
701.0258577816803
 30
0.0
 41
1.002853321227427
 10
-2196.207752393881
 20
698.9496834641576
 30
0.0
 41
1.002853321227427
 10
-2196.810637432701
 20
696.2369676073406
 30
0.0
 41
1.002853321227427
 10
-2197.919509942892
 20
691.2776371928308
 30
0.0
 41
1.002853321227427
 10
-2197.91949600705
 20
690.6043940059144
 30
0.0
 41
1.002853321227427
 10
-2197.919532769455
 20
689.9435581034375
 30
0.0
 41
1.002853321227427
 10
-2197.919573130353
 20
689.2827555752311
 30
0.0
 41
1.002853321227427
 10
-2197.919614125909
 20
688.6219196724852
 30
0.0
 41
1.002853321227427
  0
SPLINE
  5
50
330
1F
100
AcDbEntity
  8
2D
100
AcDbSpline
210
0.0
220
0.0
230
1.0
 70
     8
 71
     3
 72
     8
 73
     4
 74
     0
 42
0.0000000001
 43
0.0000000001
 40
0.0
 40
0.0
 40
0.0
 40
0.0
 40
14.45092956343474
 40
14.45092956343474
 40
14.45092956343474
 40
14.45092956343474
 10
-2197.919614125909
 20
688.6219196724852
 30
0.0
 10
-2197.919781890301
 20
683.8049431537155
 30
0.0
 10
-2197.919953183475
 20
678.9879666356071
 30
0.0
 10
-2197.920121282965
 20
674.1709901035024
 30
0.0
  0
SPLINE
  5
51
330
1F
100
AcDbEntity
  8
2D
100
AcDbSpline
210
0.0
220
0.0
230
1.0
 70
     8
 71
     3
 72
     8
 73
     4
 74
     0
 42
0.0000000001
 43
0.0000000001
 40
0.0
 40
0.0
 40
0.0
 40
0.0
 40
0.4884861954247879
 40
0.4884861954247879
 40
0.4884861954247879
 40
0.4884861954247879
 10
-2197.920121282965
 20
674.1709901035024
 30
0.0
 10
-2197.92007077784
 20
674.0081613656326
 30
0.0
 10
-2197.920019880206
 20
673.8453326417767
 30
0.0
 10
-2197.919968590038
 20
673.6825039180467
 30
0.0
  0
LINE
  5
52
330
1F
100
AcDbEntity
  8
2D
100
AcDbLine
 10
-2197.919968590038
 20
673.6825039180467
 30
0.0
 11
-2197.9195504987
 21
668.375121918327
 31
0.0
  0
SPLINE
  5
53
330
1F
100
AcDbEntity
  8
2D
100
AcDbSpline
210
0.0
220
0.0
230
1.0
 70
     8
 71
     3
 72
     8
 73
     4
 74
     0
 42
0.0000000001
 43
0.0000000001
 40
0.0
 40
0.0
 40
0.0
 40
0.0
 40
5.956244519694749
 40
5.956244519694749
 40
5.956244519694749
 40
5.956244519694749
 10
-2197.9195504987
 20
668.375121918327
 30
0.0
 10
-2197.91957863505
 20
666.3897070786289
 30
0.0
 10
-2197.919601212994
 20
664.4042922388732
 30
0.0
 10
-2197.919621485067
 20
662.418877399072
 30
0.0
  0
LINE
  5
54
330
1F
100
AcDbEntity
  8
2D
100
AcDbLine
 10
-2197.919621485067
 20
662.418877399072
 30
0.0
 11
-2197.919619002554
 21
656.2439473324076
 31
0.0
  0
LINE
  5
55
330
1F
100
AcDbEntity
  8
2D
100
AcDbLine
 10
-2197.919619002554
 20
656.2439473324076
 30
0.0
 11
-2197.91961835845
 21
654.9761879709067
 31
0.0
  0
LINE
  5
56
330
1F
100
AcDbEntity
  8
2D
100
AcDbLine
 10
-2197.91961835845
 20
654.9761879709067
 30
0.0
 11
-2197.919488182582
 21
650.9269838358766
 31
0.0
  0
LINE
  5
57
330
1F
100
AcDbEntity
  8
2D
100
AcDbLine
 10
-2197.919488182582
 20
650.9269838358766
 30
0.0
 11
-2197.919603046823
 21
370.7945782315674
 31
0.0
  0
SPLINE
  5
58
330
1F
100
AcDbEntity
  8
2D
100
AcDbSpline
210
0.0
220
0.0
230
1.0
 70
    12
 71
     3
 72
    19
 73
    15
 74
     0
 42
0.0000000001
 43
0.0000000001
 40
-81.0748943421777
 40
-81.0748943421777
 40
-81.0748943421777
 40
-81.0748943421777
 40
-73.48000972008727
 40
-73.48000972008727
 40
-69.38681998382691
 40
-69.38681998382691
 40
-65.29045456056814
 40
-65.29045456056814
 40
-57.23558246889852
 40
-57.23558246889852
 40
-49.47249060968466
 40
-49.47249060968466
 40
-49.47249060968466
 40
0.0
 40
0.0
 40
0.0
 40
0.0
 10
-2051.838783686668
 20
-1046.510749726435
 30
0.0
 41
1.0
 10
-2053.93707994838
 20
-1044.966555621256
 30
0.0
 41
1.0
 10
-2055.877283248738
 20
-1043.287643448147
 30
0.0
 41
1.0
 10
-2058.675601221039
 20
-1040.446928365526
 30
0.0
 41
1.0
 10
-2059.605879952258
 20
-1039.416729519885
 30
0.0
 41
1.0
 10
-2061.378072104875
 20
-1037.273154043315
 30
0.0
 41
1.0
 10
-2062.211514261689
 20
-1036.169675672484
 30
0.0
 41
1.0
 10
-2064.539729183474
 20
-1032.784453334366
 30
0.0
 41
1.0
 10
-2065.858062749823
 20
-1030.458367305265
 30
0.0
 41
1.0
 10
-2068.055914019424
 20
-1025.627132782795
 30
0.0
 41
1.0
 10
-2068.91415485437
 20
-1023.212963111647
 30
0.0
 41
1.0
 10
-2069.570794630425
 20
-1020.706746034007
 30
0.0
 41
1.0
 10
-2073.704566337357
 20
-1004.840786562126
 30
0.0
 41
1.0
 10
-2077.793714667248
 20
-988.967377199976
 30
0.0
 41
1.0
 10
-2081.872990589334
 20
-973.0918695013343
 30
0.0
 41
1.0
  0
SPLINE
  5
59
330
1F
100
AcDbEntity
  8
2D
100
AcDbSpline
210
0.0
220
0.0
230
1.0
 70
     8
 71
     3
 72
    30
 73
    26
 74
     0
 42
0.0000000001
 43
0.0000000001
 40
-241.9586725984846
 40
-241.9586725984846
 40
-241.9586725984846
 40
-241.9586725984846
 40
-182.1443744000069
 40
-182.1443744000069
 40
-152.2381255829759
 40
-152.2381255829759
 40
-122.3110394092353
 40
-122.3110394092353
 40
-89.76872042977395
 40
-89.76872042977395
 40
-59.85706848660191
 40
-59.85706848660191
 40
-52.37594406650589
 40
-52.37594406650589
 40
-44.89571421454642
 40
-44.89571421454642
 40
-29.71146001378754
 40
-29.71146001378754
 40
-22.23127157024156
 40
-22.23127157024156
 40
-14.74145698970852
 40
-14.74145698970852
 40
-7.434579950617036
 40
-7.434579950617036
 40
0.0
 40
0.0
 40
0.0
 40
0.0
 10
-2081.872990589334
 20
-973.0918695013343
 30
0.0
 10
-2086.88930661574
 20
-953.5696392778221
 30
0.0
 10
-2091.892076709144
 20
-934.043972629183
 30
0.0
 10
-2099.356219371777
 20
-904.7454898420882
 30
0.0
 10
-2101.836394873331
 20
-894.977547996191
 30
0.0
 10
-2106.783966914518
 20
-875.4311562320938
 30
0.0
 10
-2109.244525850128
 20
-865.6510010937659
 30
0.0
 10
-2114.437857620887
 20
-845.2504675309333
 30
0.0
 10
-2116.51728920632
 20
-837.2432219171565
 30
0.0
 10
-2121.933104497843
 20
-816.9059135380697
 30
0.0
 10
-2124.527206981806
 20
-807.1656495503711
 30
0.0
 10
-2127.763244759095
 20
-794.9874439485301
 30
0.0
 10
-2128.407725785637
 20
-792.5501954336748
 30
0.0
 10
-2129.687859796344
 20
-787.6736591533249
 30
0.0
 10
-2130.319109298289
 20
-785.2332619987924
 30
0.0
 10
-2132.303124806567
 20
-777.8576398148195
 30
0.0
 10
-2133.672543422443
 20
-773.1656402454729
 30
0.0
 10
-2136.256406757522
 20
-765.9697136608836
 30
0.0
 10
-2137.174284206449
 20
-763.6255082983928
 30
0.0
 10
-2139.214092067443
 20
-759.0039061087101
 30
0.0
 10
-2140.332758112083
 20
-756.7538559696426
 30
0.0
 10
-2142.846692654748
 20
-752.4353579807373
 30
0.0
 10
-2144.300306892303
 20
-750.240061679066
 30
0.0
 10
-2147.547769450284
 20
-746.4408040767349
 30
0.0
 10
-2149.413776000401
 20
-744.7396250930344
 30
0.0
 10
-2151.609656416178
 20
-743.456565000685
 30
0.0
  0
LINE
  5
5A
330
1F
100
AcDbEntity
  8
2D
100
AcDbLine
 10
-2151.609656416178
 20
-743.456565000685
 30
0.0
 11
-2197.919563219308
 21
-743.455159940625
 31
0.0
  0
SPLINE
  5
5B
330
1F
100
AcDbEntity
  8
2D
100
AcDbSpline
210
0.0
220
0.0
230
1.0
 70
    15
 71
     2
 72
    20
 73
    17
 74
     0
 42
0.0000000001
 43
0.0000000001
 40
-76.31516318028072
 40
-76.31516318028072
 40
-76.31516318028072
 40
-0.0000000007984491
 40
-0.0000000007984491
 40
261.3867767284964
 40
261.3867767284964
 40
337.7019399078688
 40
337.7019399078688
 40
599.0887166358216
 40
599.0887166358216
 40
675.4038798166285
 40
675.4038798166285
 40
936.7906565443775
 40
936.7906565443775
 40
1013.105819724647
 40
1013.105819724647
 40
1274.492596451915
 40
1274.492596451915
 40
1274.492596451915
 10
-790.397842922923
 20
-768.9033760307568
 30
0.0
 41
0.9999999999956828
 10
-747.6127248048417
 20
-757.5138457357588
 30
0.0000000000000021
 41
0.8053864672095608
 10
-745.7674962990277
 20
-713.2771769588494
 30
0.0
 41
1.0
 10
-740.2777758087484
 20
-581.6691152380054
 30
-0.0000000000000003
 41
0.9886318222813665
 10
-774.1626511279646
 20
-454.3795470653699
 30
0.0
 41
1.0
 10
-785.5521814227048
 20
-411.5944289471838
 30
-0.0000000000000014
 41
0.805386467207564
 10
-829.7888501996822
 20
-409.7492004416119
 30
0.0
 41
1.0
 10
-961.3969119198376
 20
-404.2594799513851
 30
0.0000000000000002
 41
0.9886318222814827
 10
-1088.686480091856
 20
-438.1443552702686
 30
0.0
 41
1.0
 10
-1131.471598210697
 20
-449.5338855657489
 30
0.0000000000000015
 41
0.8053864672076977
 10
-1133.316826715767
 20
-493.7705543435667
 30
0.0
 41
1.0
 10
-1138.806547206055
 20
-625.3786160636272
 30
-0.0000000000000001
 41
0.9886318222813681
 10
-1104.921671887074
 20
-752.6681842355217
 30
0.0
 41
1.0
 10
-1093.532141591935
 20
-795.4533023541477
 30
-0.000000000000005
 41
0.8053864672073179
 10
-1049.29547281441
 20
-797.2985308594077
 30
0.0
 41
1.0
 10
-917.6874110946007
 20
-802.7882513495812
 30
-0.0000000000000003
 41
0.9886318222814839
 10
-790.397842922926
 20
-768.9033760307568
 30
0.0
 41
0.9999999999999998
  0
SPLINE
  5
5C
330
1F
100
AcDbEntity
  8
2D
100
AcDbSpline
210
0.0
220
0.0
230
1.0
 70
    12
 71
     3
 72
   100
 73
    96
 74
     0
 42
0.0000000001
 43
0.0000000001
 40
-1356.759381182884
 40
-1356.759381182884
 40
-1356.759381182884
 40
-1356.759381182884
 40
-1356.261749399647
 40
-1356.261749399647
 40
-1354.882788488658
 40
-1354.882788488658
 40
-1352.124866666679
 40
-1352.124866666679
 40
-1341.093179378763
 40
-1341.093179378763
 40
-1319.029804802931
 40
-1319.029804802931
 40
-1296.9664302271
 40
-1296.9664302271
 40
-1285.934742939185
 40
-1285.934742939185
 40
-1274.903055651269
 40
-1274.903055651269
 40
-1252.839681075438
 40
-1252.839681075438
 40
-1230.776306499607
 40
-1208.712931923775
 40
-1186.649557347944
 40
-1156.074412715235
 40
-1156.074412715235
 40
-1142.9147829131
 40
-1142.9147829131
 40
-1139.624875462566
 40
-1139.624875462566
 40
-1138.942004046137
 40
-1138.942004046137
 40
-1138.942004046137
 40
-1135.880051552082
 40
-1132.812840090517
 40
-1129.741714534289
 40
-1126.668031748066
 40
-1123.593156725838
 40
-1120.51845866733
 40
-1117.445307022417
 40
-1114.375067532945
 40
-1111.309098301437
 40
-1111.309098301437
 40
-1111.309098301437
 40
-1017.343146455173
 40
-1017.343146455173
 40
-1017.343146455173
 40
-1013.060991838175
 40
-1008.544073946542
 40
-1003.843130765286
 40
-999.0244250315991
 40
-994.1651480660465
 40
-989.3464409358064
 40
-984.6454952275992
 40
-980.1285741206078
 40
-975.8464160846629
 40
-975.8464160846629
 40
-975.8464160846629
 40
-660.2644258124083
 40
-660.2644258124083
 40
-660.2644258124083
 40
-622.3737982875775
 40
-622.3737982875775
 40
-622.3737982875775
 40
-516.5682078564679
 40
-516.5682078564679
 40
-516.5682078564679
 40
-478.6775803316365
 40
-478.6775803316365
 40
-478.6775803316365
 40
-163.0955900593824
 40
-163.0955900593824
 40
-163.0955900593824
 40
-158.8134320234371
 40
-154.2965109164462
 40
-149.5955652082388
 40
-144.7768580779989
 40
-139.9175811124458
 40
-135.0988753787595
 40
-130.3979321975026
 40
-125.8810143058696
 40
-121.5988596888721
 40
-121.5988596888721
 40
-121.5988596888721
 40
-27.63290784260806
 40
-27.63290784260806
 40
-27.63290784260806
 40
-24.56693861110111
 40
-21.49669912162858
 40
-18.42354747671493
 40
-15.34884941820757
 40
-12.27397439597866
 40
-9.2002916097572
 40
-6.129166053528134
 40
-3.061954591962301
 40
0.0
 40
0.0
 40
0.0
 40
0.0
 10
-1394.747254809234
 20
-858.8538695356247
 30
0.0
 41
1.0
 10
-1394.694572886801
 20
-858.6455672573638
 30
0.0
 41
1.0
 10
-1394.64259391465
 20
-858.4371061654956
 30
0.0
 41
1.0
 10
-1394.445909042304
 20
-857.6512458513162
 30
0.0
 41
1.0
 10
-1394.300738894526
 20
-857.0721876780362
 30
0.0
 41
1.0
 10
-1393.866620189292
 20
-855.339397343475
 30
0.0
 41
1.0
 10
-1393.577437615473
 20
-854.1852402997238
 30
0.0
 41
1.0
 10
-1392.129822134637
 20
-848.4074557815939
 30
0.0
 41
1.0
 10
-1390.972253157714
 20
-843.7873727604556
 30
0.0
 41
1.0
 10
-1387.498667892884
 20
-829.923684483626
 30
0.0
 41
1.0
 10
-1385.182854387589
 20
-820.6809586837544
 30
0.0
 41
1.0
 10
-1380.551788121818
 20
-802.1979144976567
 30
0.0
 41
1.0
 10
-1378.236195254292
 20
-792.9562391977151
 30
0.0
 41
1.0
 10
-1374.762900643735
 20
-779.0944924112546
 30
0.0
 41
1.0
 10
-1373.605148372328
 20
-774.4740251289359
 30
0.0
 41
1.0
 10
-1371.289762729466
 20
-765.2337985604454
 30
0.0
 41
1.0
 10
-1370.131493274668
 20
-760.6114382216938
 30
0.0
 41
1.0
 10
-1366.65862341207
 20
-746.7526432699951
 30
0.0
 41
1.0
 10
-1364.342561884798
 20
-737.5108636517753
 30
0.0
 41
1.0
 10
-1359.709917216293
 20
-719.0269202758054
 30
0.0
 41
1.0
 10
-1355.084499673809
 20
-700.5732025660245
 30
0.0
 41
1.0
 10
-1348.110637521997
 20
-672.756858077656
 30
0.0
 41
1.0
 10
-1340.364070964133
 20
-641.8620918072547
 30
0.0
 41
1.0
 10
-1334.880819154256
 20
-619.993062319586
 30
0.0
 41
1.0
 10
-1330.332381304579
 20
-601.852984420856
 30
0.0
 41
1.0
 10
-1328.963417411906
 20
-596.3923074510558
 30
0.0
 41
1.0
 10
-1327.251812451934
 20
-589.5679198521748
 30
0.0
 41
1.0
 10
-1326.91107407643
 20
-588.2030559841542
 30
0.0
 41
1.0
 10
-1326.494519431493
 20
-586.5545124103946
 30
0.0
 41
1.0
 10
-1326.42351753523
 20
-586.2710840714562
 30
0.0
 41
1.0
 10
-1326.35328296222
 20
-585.987528065004
 30
0.0
 41
1.0
 10
-1326.11951433029
 20
-585.0551958658061
 30
0.0
 41
1.0
 10
-1325.67706450828
 20
-583.1824820167267
 30
0.0
 41
1.0
 10
-1325.089993475056
 20
-580.3545240484736
 30
0.0
 41
1.0
 10
-1324.57978569487
 20
-577.508043048204
 30
0.0
 41
1.0
 10
-1324.147219295737
 20
-574.6464040903547
 30
0.0
 41
1.0
 10
-1323.792880954476
 20
-571.7729794195757
 30
0.0
 41
1.0
 10
-1323.517174350083
 20
-568.8911822651962
 30
0.0
 41
1.0
 10
-1323.320315751422
 20
-566.0044295518155
 30
0.0
 41
1.0
 10
-1323.20233446022
 20
-563.1161763466544
 30
0.0
 41
1.0
 10
-1323.176138325769
 20
-561.190259723734
 30
0.0
 41
1.0
 10
-1323.176138325769
 20
-560.2280225109635
 30
0.0
 41
1.0
 10
-1323.176138325769
 20
-530.7373366064448
 30
0.0
 41
1.0
 10
-1323.176138325769
 20
-501.2466507019262
 30
0.0
 41
1.0
 10
-1323.176138325769
 20
-471.755964797404
 30
0.0
 41
1.0
 10
-1323.176138325769
 20
-470.4120346362861
 30
0.0
 41
1.0
 10
-1323.401465312651
 20
-467.6454170480347
 30
0.0
 41
1.0
 10
-1324.448622602533
 20
-463.5184436447953
 30
0.0
 41
1.0
 10
-1326.269464403507
 20
-459.4780771214055
 30
0.0
 41
1.0
 10
-1328.849777489988
 20
-455.7385098006043
 30
0.0
 41
1.0
 10
-1332.097506988655
 20
-452.503141600434
 30
0.0
 41
1.0
 10
-1335.851361863301
 20
-449.9326496198437
 30
0.0
 41
1.0
 10
-1339.907165080942
 20
-448.1187382911039
 30
0.0
 41
1.0
 10
-1344.049906021355
 20
-447.0755666908435
 30
0.0
 41
1.0
 10
-1346.827093717431
 20
-446.8510973453258
 30
0.0
 41
1.0
 10
-1348.176158550552
 20
-446.8510973453258
 30
0.0
 41
1.0
 10
-1447.598123239572
 20
-446.8510973453258
 30
0.0
 41
1.0
 10
-1547.020087928584
 20
-446.8510973453258
 30
0.0
 41
1.0
 10
-1646.442052617589
 20
-446.8510973453258
 30
0.0
 41
1.0
 10
-1658.379237716676
 20
-446.8510973453258
 30
0.0
 41
1.0
 10
-1670.316422815769
 20
-446.8510973453258
 30
0.0
 41
1.0
 10
-1682.253607914849
 20
-446.8510973453258
 30
0.0
 41
1.0
 10
-1715.586941248184
 20
-446.8510973453258
 30
0.0
 41
1.0
 10
-1748.92027458152
 20
-446.8510973453258
 30
0.0
 41
1.0
 10
-1782.253607914849
 20
-446.8510973453258
 30
0.0
 41
1.0
 10
-1794.190793013942
 20
-446.8510973453258
 30
0.0
 41
1.0
 10
-1806.127978113022
 20
-446.8510973453258
 30
0.0
 41
1.0
 10
-1818.065163212108
 20
-446.8510973453258
 30
0.0
 41
1.0
 10
-1917.48712790112
 20
-446.8510973453258
 30
0.0
 41
1.0
 10
-2016.90909259014
 20
-446.8510973453258
 30
0.0
 41
1.0
 10
-2116.331057279145
 20
-446.8510973453258
 30
0.0
 41
1.0
 10
-2117.680122112266
 20
-446.8510973453258
 30
0.0
 41
1.0
 10
-2120.457309808342
 20
-447.0755666908435
 30
0.0
 41
1.0
 10
-2124.600050748755
 20
-448.1187382911039
 30
0.0
 41
1.0
 10
-2128.655853966397
 20
-449.9326496198437
 30
0.0
 41
1.0
 10
-2132.409708841042
 20
-452.503141600434
 30
0.0
 41
1.0
 10
-2135.657438339709
 20
-455.7385098006043
 30
0.0
 41
1.0
 10
-2138.23775142619
 20
-459.4780771214055
 30
0.0
 41
1.0
 10
-2140.058593227164
 20
-463.5184436447953
 30
0.0
 41
1.0
 10
-2141.105750517047
 20
-467.6454170480347
 30
0.0
 41
1.0
 10
-2141.331077503928
 20
-470.4120346362861
 30
0.0
 41
1.0
 10
-2141.331077503928
 20
-471.755964797404
 30
0.0
 41
1.0
 10
-2141.331077503928
 20
-501.2466507019262
 30
0.0
 41
1.0
 10
-2141.331077503928
 20
-530.7373366064448
 30
0.0
 41
1.0
 10
-2141.331077503928
 20
-560.2280225109635
 30
0.0
 41
1.0
 10
-2141.331077503928
 20
-561.190259723734
 30
0.0
 41
1.0
 10
-2141.304881369477
 20
-563.1161763466544
 30
0.0
 41
1.0
 10
-2141.186900078275
 20
-566.0044295518155
 30
0.0
 41
1.0
 10
-2140.990041479614
 20
-568.8911822651962
 30
0.0
 41
1.0
 10
-2140.714334875222
 20
-571.7729794195757
 30
0.0
 41
1.0
 10
-2140.35999653396
 20
-574.6464040903547
 30
0.0
 41
1.0
 10
-2139.927430134827
 20
-577.508043048204
 30
0.0
 41
1.0
 10
-2139.417222354641
 20
-580.3545240484736
 30
0.0
 41
1.0
 10
-2138.830151187554
 20
-583.1824826615766
 30
0.0
 41
1.0
 10
-2138.387701196523
 20
-585.0551971478044
 30
0.0
 41
1.0
 10
-2138.15393238698
 20
-585.9875299813748
 30
0.0
 41
1.0
  0
SPLINE
  5
5D
330
1F
100
AcDbEntity
  8
2D
100
AcDbSpline
210
0.0
220
0.0
230
1.0
 70
     8
 71
     3
 72
     8
 73
     4
 74
     0
 42
0.0000000001
 43
0.0000000001
 40
0.0
 40
0.0
 40
0.0
 40
0.0
 40
0.8765770791232923
 40
0.8765770791232923
 40
0.8765770791232923
 40
0.8765770791232923
 10
-2138.153932220157
 20
-585.9875306784152
 30
0.0
 10
-2138.083652276964
 20
-586.2711450374597
 30
0.0
 10
-2138.012706405578
 20
-586.5545952977274
 30
0.0
 10
-2137.941095820897
 20
-586.8378766053233
 30
0.0
  0
SPLINE
  5
5E
330
1F
100
AcDbEntity
  8
2D
100
AcDbSpline
210
0.0
220
0.0
230
1.0
 70
    12
 71
     3
 72
    13
 73
     9
 74
     0
 42
0.0000000001
 43
0.0000000001
 40
-88.78533498606826
 40
-88.78533498606826
 40
-88.78533498606826
 40
-88.78533498606826
 40
-84.5574618918185
 40
-84.5574618918185
 40
-67.64596951481913
 40
-67.64596951481913
 40
-28.35373005548263
 40
0.0
 40
0.0
 40
0.0
 40
0.0
 10
-2137.941095820897
 20
-586.8378766053233
 30
0.0
 41
1.0
 10
-2137.596141753274
 20
-588.2030559841542
 30
0.0
 41
1.0
 10
-2137.255403377763
 20
-589.5679198521748
 30
0.0
 41
1.0
 10
-2135.543798417792
 20
-596.3923074510558
 30
0.0
 41
1.0
 10
-2134.174834525118
 20
-601.852984420856
 30
0.0
 41
1.0
 10
-2129.626396675441
 20
-619.993062319586
 30
0.0
 41
1.0
 10
-2124.143144865018
 20
-641.8620918094666
 30
0.0
 41
1.0
 10
-2118.684544393996
 20
-663.6320184544957
 30
0.0
 41
1.0
 10
-2116.378250991082
 20
-672.8304956852539
 30
0.0
 41
1.0
  0
SPLINE
  5
5F
330
1F
100
AcDbEntity
  8
2D
100
AcDbSpline
210
0.0
220
0.0
230
1.0
 70
     8
 71
     3
 72
     8
 73
     4
 74
     0
 42
0.0000000001
 43
0.0000000001
 40
-28.57795339456598
 40
-28.57795339456598
 40
-28.57795339456598
 40
-28.57795339456598
 40
0.0
 40
0.0
 40
0.0
 40
0.0
 10
-2116.378250991082
 20
-672.8304956852539
 30
0.0
 10
-2114.061528508533
 20
-682.0704727936414
 30
0.0
 10
-2111.745002220094
 20
-691.3104990956572
 30
0.0
 10
-2109.42867212891
 20
-700.550574578755
 30
0.0
  0
SPLINE
  5
60
330
1F
100
AcDbEntity
  8
2D
100
AcDbSpline
210
0.0
220
0.0
230
1.0
 70
     8
 71
     3
 72
     8
 73
     4
 74
     0
 42
0.0000000001
 43
0.0000000001
 40
-57.14782754056834
 40
-57.14782754056834
 40
-57.14782754056834
 40
-57.14782754056834
 40
0.0
 40
0.0
 40
0.0
 40
0.0
 10
-2109.42867212891
 20
-700.550574578755
 30
0.0
 10
-2104.796046641415
 20
-719.0307833270547
 30
0.0
 10
-2100.164393053481
 20
-737.511235607173
 30
0.0
 10
-2095.533345839845
 20
-755.9918399150547
 30
0.0
  0
SPLINE
  5
61
330
1F
100
AcDbEntity
  8
2D
100
AcDbSpline
210
0.0
220
0.0
230
1.0
 70
     8
 71
     3
 72
     8
 73
     4
 74
     0
 42
0.0000000001
 43
0.0000000001
 40
-106.0418054483206
 40
-106.0418054483206
 40
-106.0418054483206
 40
-106.0418054483206
 40
0.0
 40
0.0
 40
0.0
 40
0.0
 10
-2095.533345839845
 20
-755.9918399150547
 30
0.0
 10
-2086.941750266222
 20
-790.2790660305129
 30
0.0
 10
-2078.350621991551
 20
-824.566409243638
 30
0.0
 10
-2069.759961020551
 20
-858.8538695356247
 30
0.0
  0
SPLINE
  5
62
330
1F
100
AcDbEntity
  8
2D
100
AcDbSpline
210
0.0
220
0.0
230
1.0
 70
    12
 71
     3
 72
    25
 73
    21
 74
     0
 42
0.0000000001
 43
0.0000000001
 40
-266.3563346980794
 40
-266.3563346980794
 40
-266.3563346980794
 40
-266.3563346980794
 40
-265.4753753890519
 40
-265.4753753890519
 40
-259.9618462745865
 40
-259.9618462745865
 40
-254.44831716012
 40
-254.44831716012
 40
-248.9347880456548
 40
-248.9347880456548
 40
-237.9077298167239
 40
-237.9077298167239
 40
-226.8806715877921
 40
-226.8806715877921
 40
-225.5022893091758
 40
-225.5022893091758
 40
-225.20605761255
 40
-225.20605761255
 40
-225.20605761255
 40
0.0
 40
0.0
 40
0.0
 40
0.0
 10
-2069.759961020551
 20
-858.8538695356247
 30
0.0
 41
1.0
 10
-2069.66665757481
 20
-859.2225093842162
 30
0.0
 41
1.0
 10
-2069.571149244781
 20
-859.5906498342147
 30
0.0
 41
1.0
 10
-2068.826387350244
 20
-862.2500285521446
 30
0.0
 41
1.0
 10
-2067.992793800368
 20
-864.4878866552963
 30
0.0
 41
1.0
 10
-2065.952213437908
 20
-868.7940338063045
 30
0.0
 41
1.0
 10
-2064.748495827276
 20
-870.8579144060341
 30
0.0
 41
1.0
 10
-2061.999445036461
 20
-874.7528987250653
 30
0.0
 41
1.0
 10
-2060.454883515529
 20
-876.5803999267655
 30
0.0
 41
1.0
 10
-2055.37659772631
 20
-881.619670903764
 30
0.0
 41
1.0
 10
-2051.386848546434
 20
-884.3762828322133
 30
0.0
 41
1.0
 10
-2042.674817667248
 20
-888.2955269993645
 30
0.0
 41
1.0
 10
-2037.954956765163
 20
-889.4550121394559
 30
0.0
 41
1.0
 10
-2032.583103985453
 20
-889.7498797092148
 30
0.0
 41
1.0
 10
-2031.986820989237
 20
-889.7701536090235
 30
0.0
 41
1.0
 10
-2031.2603070041
 20
-889.7753679132538
 30
0.0
 41
1.0
 10
-2031.131849255806
 20
-889.7759602602446
 30
0.0
 41
1.0
 10
-2031.00343116976
 20
-889.7763220404659
 30
0.0
 41
1.0
 10
-1960.024006814208
 20
-889.8037693464239
 30
0.0
 41
1.0
 10
-1889.04458245865
 20
-889.8312166523747
 30
0.0
 41
1.0
 10
-1818.065158103091
 20
-889.8586639583255
 30
0.0
 41
1.0
  0
LINE
  5
63
330
1F
100
AcDbEntity
  8
2D
100
AcDbLine
 10
-1818.065158103091
 20
-889.8586639583255
 30
0.0
 11
-1782.253607914849
 21
-889.8586639583255
 31
0.0
  0
LINE
  5
64
330
1F
100
AcDbEntity
  8
2D
100
AcDbLine
 10
-1782.253607914849
 20
-889.8586639583255
 30
0.0
 11
-1682.253607914849
 21
-889.8586639583255
 31
0.0
  0
LINE
  5
65
330
1F
100
AcDbEntity
  8
2D
100
AcDbLine
 10
-1682.253607914849
 20
-889.8586639583255
 30
0.0
 11
-1646.442057726614
 21
-889.8586639583255
 31
0.0
  0
SPLINE
  5
66
330
1F
100
AcDbEntity
  8
2D
100
AcDbSpline
210
0.0
220
0.0
230
1.0
 70
    12
 71
     3
 72
    25
 73
    21
 74
     0
 42
0.0000000001
 43
0.0000000001
 40
-266.3611888743191
 40
-266.3611888743191
 40
-266.3611888743191
 40
-266.3611888743191
 40
-41.15102702338083
 40
-41.15102702338083
 40
-41.15102702338083
 40
-40.85478992811934
 40
-40.85478992811934
 40
-39.47638252935514
 40
-39.47638252935514
 40
-28.449123339241
 40
-28.449123339241
 40
-17.42186414912698
 40
-17.42186414912698
 40
-11.90823455407002
 40
-11.90823455407002
 40
-6.394604959012963
 40
-6.394604959012963
 40
-0.8809753639558776
 40
-0.8809753639558776
 40
0.0
 40
0.0
 40
0.0
 40
0.0
 10
-1646.442057726614
 20
-889.8586639583255
 30
0.0
 41
1.0
 10
-1575.462633371055
 20
-889.8312166523747
 30
0.0
 41
1.0
 10
-1504.483209015496
 20
-889.8037693464239
 30
0.0
 41
1.0
 10
-1433.503784659937
 20
-889.7763220404659
 30
0.0
 41
1.0
 10
-1433.375366573899
 20
-889.7759602602446
 30
0.0
 41
1.0
 10
-1433.246908825604
 20
-889.7753679132538
 30
0.0
 41
1.0
 10
-1432.520394840467
 20
-889.7701536090235
 30
0.0
 41
1.0
 10
-1431.924111844244
 20
-889.7498797092148
 30
0.0
 41
1.0
 10
-1426.552259064541
 20
-889.4550121394559
 30
0.0
 41
1.0
 10
-1421.832398162456
 20
-888.2955269993645
 30
0.0
 41
1.0
 10
-1413.120367283263
 20
-884.3762828322133
 30
0.0
 41
1.0
 10
-1409.130618103387
 20
-881.619670903764
 30
0.0
 41
1.0
 10
-1404.052332314168
 20
-876.5803999267655
 30
0.0
 41
1.0
 10
-1402.507770793236
 20
-874.7528987250653
 30
0.0
 41
1.0
 10
-1399.758720002428
 20
-870.8579144060341
 30
0.0
 41
1.0
 10
-1398.555002391797
 20
-868.7940338063045
 30
0.0
 41
1.0
 10
-1396.51442202933
 20
-864.4878866552963
 30
0.0
 41
1.0
 10
-1395.680828479461
 20
-862.2500285521446
 30
0.0
 41
1.0
 10
-1394.936066584916
 20
-859.5906498342147
 30
0.0
 41
1.0
 10
-1394.840558254888
 20
-859.2225093842162
 30
0.0
 41
1.0
 10
-1394.747254809234
 20
-858.8538695356247
 30
0.0
 41
1.0
  0
SPLINE
  5
67
330
1F
100
AcDbEntity
  8
2D
100
AcDbSpline
210
0.0
220
0.0
230
1.0
 70
     8
 71
     3
 72
     8
 73
     4
 74
     0
 42
0.0000000001
 43
0.0000000001
 40
0.0
 40
0.0
 40
0.0
 40
0.0
 40
46.32020837302747
 40
46.32020837302747
 40
46.32020837302747
 40
46.32020837302747
 10
-2151.441831127348
 20
-444.2344416589935
 30
0.0
 10
-2166.881900330169
 20
-444.2316363116685
 30
0.0
 10
-2182.32196947348
 20
-444.2284816841404
 30
0.0
 10
-2197.762038606343
 20
-444.2250655124894
 30
0.0
  0
SPLINE
  5
68
330
1F
100
AcDbEntity
  8
2D
100
AcDbSpline
210
0.0
220
0.0
230
1.0
 70
    12
 71
     3
 72
     8
 73
     4
 74
     0
 42
0.0000000001
 43
0.0000000001
 40
-0.70394462343999
 40
-0.70394462343999
 40
-0.70394462343999
 40
-0.70394462343999
 40
0.0
 40
0.0
 40
0.0
 40
0.0
 10
-2197.762038606342
 20
-444.2250655124894
 30
0.0
 41
0.9999999999785221
 10
-2197.865683552707
 20
-444.217923474904
 30
0.0
 41
0.9999999999856813
 10
-2197.919603035186
 20
-444.4147997996071
 30
0.0
 41
0.9999999999928406
 10
-2197.919603046823
 20
-444.8151521045356
 30
0.0
 41
1.0
  0
LINE
  5
69
330
1F
100
AcDbEntity
  8
2D
100
AcDbLine
 10
-2197.919603046823
 20
-444.8151521045356
 30
0.0
 11
-2151.609646302713
 21
-444.8151520233141
 31
0.0
  0
SPLINE
  5
6A
330
1F
100
AcDbEntity
  8
2D
100
AcDbSpline
210
0.0
220
0.0
230
1.0
 70
     8
 71
     3
 72
     8
 73
     4
 74
     0
 42
0.0000000001
 43
0.0000000001
 40
-46.32020837303308
 40
-46.32020837303308
 40
-46.32020837303308
 40
-46.32020837303308
 40
0.0
 40
0.0
 40
0.0
 40
0.0
 10
-1313.06538470235
 20
-444.2344416589535
 30
0.0
 10
-1297.625315499528
 20
-444.231636311689
 30
0.0
 10
-1282.185246356225
 20
-444.2284816841876
 30
0.0
 10
-1266.745177223362
 20
-444.2250655125097
 30
0.0
  0
SPLINE
  5
6B
330
1F
100
AcDbEntity
  8
2D
100
AcDbSpline
210
0.0
220
0.0
230
1.0
 70
    12
 71
     3
 72
     8
 73
     4
 74
     0
 42
0.0000000001
 43
0.0000000001
 40
-0.7039446234383417
 40
-0.7039446234383417
 40
-0.7039446234383417
 40
-0.7039446234383417
 40
0.0
 40
0.0
 40
0.0
 40
0.0
 10
-1266.745177223363
 20
-444.2250655125097
 30
0.0
 41
0.9999999999785221
 10
-1266.641532276996
 20
-444.2179234749142
 30
0.0
 41
0.9999999999856813
 10
-1266.587612794532
 20
-444.4147997996176
 30
0.0
 41
0.9999999999928406
 10
-1266.587612782881
 20
-444.8151521045356
 30
0.0
 41
1.0
  0
LINE
  5
6C
330
1F
100
AcDbEntity
  8
2D
100
AcDbLine
 10
-1266.587612782881
 20
-444.8151521045356
 30
0.0
 11
-1312.897569526984
 21
-444.8151520233141
 31
0.0
  0
SPLINE
  5
6D
330
1F
100
AcDbEntity
  8
2D
100
AcDbSpline
210
0.0
220
0.0
230
1.0
 70
     8
 71
     3
 72
     8
 73
     4
 74
     0
 42
0.0000000001
 43
0.0000000001
 40
0.0
 40
0.0
 40
0.0
 40
0.0
 40
46.32020837303082
 40
46.32020837303082
 40
46.32020837303082
 40
46.32020837303082
 10
-1313.06538470235
 20
370.2138677859757
 30
0.0
 10
-1297.625315499528
 20
370.2110624386499
 30
0.0
 10
-1282.185246356221
 20
370.2079078111218
 30
0.0
 10
-1266.745177223354
 20
370.2044916394714
 30
0.0
  0
SPLINE
  5
6E
330
1F
100
AcDbEntity
  8
2D
100
AcDbSpline
210
0.0
220
0.0
230
1.0
 70
    12
 71
     3
 72
     8
 73
     4
 74
     0
 42
0.0000000001
 43
0.0000000001
 40
-0.7039446234403218
 40
-0.7039446234403218
 40
-0.7039446234403218
 40
-0.7039446234403218
 40
0.0
 40
0.0
 40
0.0
 40
0.0
 10
-1266.745177223356
 20
370.2044916394714
 30
0.0
 41
0.9999999999785221
 10
-1266.641532276992
 20
370.1973496018857
 30
0.0
 41
0.9999999999856813
 10
-1266.587612794521
 20
370.3942259265888
 30
0.0
 41
0.9999999999928406
 10
-1266.587612782874
 20
370.7945782315173
 30
0.0
 41
1.0
  0
LINE
  5
6F
330
1F
100
AcDbEntity
  8
2D
100
AcDbLine
 10
-1266.587612782874
 20
370.7945782315173
 30
0.0
 11
-1312.897569526984
 21
370.7945781502958
 31
0.0
  0
SPLINE
  5
70
330
1F
100
AcDbEntity
  8
2D
100
AcDbSpline
210
0.0
220
0.0
230
1.0
 70
    12
 71
     3
 72
    13
 73
     9
 74
     0
 42
0.0000000001
 43
0.0000000001
 40
-55.30893238526763
 40
-55.30893238526763
 40
-55.30893238526763
 40
-55.30893238526763
 40
-6.526106783977866
 40
-4.293879475997211
 40
-4.293879475997211
 40
-4.293879475997211
 40
-2.061648977740142
 40
0.0
 40
0.0
 40
0.0
 40
0.0
 10
-2151.609646638564
 20
-499.2132509258026
 30
0.0
 41
1.0
 10
-2151.609855163049
 20
-481.8656213641434
 30
0.0
 41
1.0
 10
-2151.611848841261
 20
-463.6547283696445
 30
0.0
 41
1.0
 10
-2151.618852557367
 20
-445.2478378910846
 30
0.0
 41
1.0
 10
-2151.609646206722
 20
-444.8151520196761
 30
0.0
 41
1.0
 10
-2151.600444379023
 20
-444.3824494819737
 30
0.0
 41
1.0
 10
-2151.564438867274
 20
-444.2671139612166
 30
0.0
 41
1.0
 10
-2151.418012358983
 20
-444.2032670717153
 30
0.0
 41
1.0
 10
-2151.331042452908
 20
-444.293075974675
 30
0.0
 41
1.0
  0
SPLINE
  5
71
330
1F
100
AcDbEntity
  8
2D
100
AcDbSpline
210
0.0
220
0.0
230
1.0
 70
    12
 71
     2
 72
     6
 73
     3
 74
     0
 42
0.0000000001
 43
0.0000000001
 40
-2.822093211670652
 40
-2.822093211670652
 40
-2.822093211670652
 40
0.0
 40
0.0
 40
0.0
 10
-2151.331042452908
 20
-444.293075974675
 30
0.0
 41
1.0
 10
-2150.349550862238
 20
-445.3085357756852
 30
0.0000000000000001
 41
0.9989980003651711
 10
-2149.462790580757
 20
-446.4076861179958
 30
0.0
 41
1.0
  0
SPLINE
  5
72
330
1F
100
AcDbEntity
  8
2D
100
AcDbSpline
210
0.0
220
0.0
230
1.0
 70
     8
 71
     3
 72
    10
 73
     6
 74
     0
 42
0.0000000001
 43
0.0000000001
 40
-17.68001702862906
 40
-17.68001702862906
 40
-17.68001702862906
 40
-17.68001702862906
 40
-8.872539394240468
 40
-8.872539394240468
 40
0.0
 40
0.0
 40
0.0
 40
0.0
 10
-2149.462790580757
 20
-446.4076861179958
 30
0.0
 10
-2147.609598234481
 20
-448.6984343217174
 30
0.0
 10
-2146.053681995309
 20
-451.2329838321039
 30
0.0
 10
-2143.337851136235
 20
-456.461968564712
 30
0.0
 10
-2142.178184226657
 20
-459.1616903164557
 30
0.0
 10
-2141.102993777822
 20
-461.9117469595103
 30
0.0
  0
SPLINE
  5
73
330
1F
100
AcDbEntity
  8
2D
100
AcDbSpline
210
0.0
220
0.0
230
1.0
 70
     8
 71
     3
 72
    12
 73
     8
 74
     0
 42
0.0000000001
 43
0.0000000001
 40
-36.75526508633757
 40
-36.75526508633757
 40
-36.75526508633757
 40
-36.75526508633757
 40
-32.17759969108972
 40
-27.57399104624641
 40
-18.47367585274378
 40
-9.214049930022137
 40
0.0
 40
0.0
 40
0.0
 40
0.0
 10
-2141.102993777822
 20
-461.9117469595103
 30
0.0
 10
-2140.95383779236
 20
-460.393003628715
 30
0.0
 10
-2140.369927648309
 20
-457.3759448028637
 30
0.0
 10
-2138.128921654497
 20
-451.6805605011459
 30
0.0
 10
-2133.413037358107
 20
-445.4885687670057
 30
0.0
 10
-2125.451304465991
 20
-440.5856016805947
 30
0.0
 10
-2119.294257483773
 20
-439.441534333454
 30
0.0
 10
-2116.222937308703
 20
-439.4428592117752
 30
0.0
  0
LINE
  5
74
330
1F
100
AcDbEntity
  8
2D
100
AcDbLine
 10
-2116.222937308703
 20
-439.4428592117752
 30
0.0
 11
-1818.065163212108
 21
-439.4428592117752
 31
0.0
  0
LINE
  5
75
330
1F
100
AcDbEntity
  8
2D
100
AcDbLine
 10
-1818.065163212108
 20
-439.4428592117752
 30
0.0
 11
-1782.253607914849
 21
-439.4428592117752
 31
0.0
  0
LINE
  5
76
330
1F
100
AcDbEntity
  8
2D
100
AcDbLine
 10
-1782.253607914849
 20
-439.4428592117752
 30
0.0
 11
-1682.253607914849
 21
-439.4428592117752
 31
0.0
  0
LINE
  5
77
330
1F
100
AcDbEntity
  8
2D
100
AcDbLine
 10
-1682.253607914849
 20
-439.4428592117752
 30
0.0
 11
-1646.442052617596
 21
-439.4428592117752
 31
0.0
  0
LINE
  5
78
330
1F
100
AcDbEntity
  8
2D
100
AcDbLine
 10
-1646.442052617596
 20
-439.4428592117752
 30
0.0
 11
-1348.284278520994
 21
-439.4428592117752
 31
0.0
  0
SPLINE
  5
79
330
1F
100
AcDbEntity
  8
2D
100
AcDbSpline
210
0.0
220
0.0
230
1.0
 70
     8
 71
     3
 72
    12
 73
     8
 74
     0
 42
0.0000000001
 43
0.0000000001
 40
0.0
 40
0.0
 40
0.0
 40
0.0
 40
9.21404993002066
 40
18.47367585274087
 40
27.57399104624201
 40
32.17759969108462
 40
36.75526508633084
 40
36.75526508633084
 40
36.75526508633084
 40
36.75526508633084
 10
-1348.284278520994
 20
-439.4428592117752
 30
0.0
 10
-1345.212958345925
 20
-439.441534333454
 30
0.0
 10
-1339.055911363706
 20
-440.5856016805947
 30
0.0
 10
-1331.094178471598
 20
-445.4885687670057
 30
0.0
 10
-1326.378294175207
 20
-451.6805605011459
 30
0.0
 10
-1324.137288181395
 20
-457.3759448028637
 30
0.0
 10
-1323.553378037344
 20
-460.393003628715
 30
0.0
 10
-1323.404222051882
 20
-461.9117469595103
 30
0.0
  0
SPLINE
  5
7A
330
1F
100
AcDbEntity
  8
2D
100
AcDbSpline
210
0.0
220
0.0
230
1.0
 70
     8
 71
     3
 72
    10
 73
     6
 74
     0
 42
0.0000000001
 43
0.0000000001
 40
-17.6854015042131
 40
-17.6854015042131
 40
-17.6854015042131
 40
-17.6854015042131
 40
-8.85942989865142
 40
-8.85942989865142
 40
0.0
 40
0.0
 40
0.0
 40
0.0
 10
-1323.404222051882
 20
-461.9117469595103
 30
0.0
 10
-1322.331419106893
 20
-459.1616185884008
 30
0.0
 10
-1321.169854161981
 20
-456.4639171967088
 30
0.0
 10
-1318.4408161391
 20
-451.2071201425687
 30
0.0
 10
-1316.916004401734
 20
-448.7240562017487
 30
0.0
 10
-1315.044425248951
 20
-446.4076861180044
 30
0.0
  0
SPLINE
  5
7B
330
1F
100
AcDbEntity
  8
2D
100
AcDbSpline
210
0.0
220
0.0
230
1.0
 70
    12
 71
     2
 72
     6
 73
     3
 74
     0
 42
0.0000000001
 43
0.0000000001
 40
-2.789018046940484
 40
-2.789018046940484
 40
-2.789018046940484
 40
0.0
 40
0.0
 40
0.0
 10
-1315.044425248951
 20
-446.4076861180044
 30
0.0
 41
1.0
 10
-1314.168047901728
 20
-445.3214552254157
 30
0.0000000000000001
 41
0.9990228231704329
 10
-1313.198635929415
 20
-444.3173769072299
 30
0.0
 41
0.9999999995016587
  0
SPLINE
  5
7C
330
1F
100
AcDbEntity
  8
2D
100
AcDbSpline
210
0.0
220
0.0
230
1.0
 70
    12
 71
     3
 72
    13
 73
     9
 74
     0
 42
0.0000000001
 43
0.0000000001
 40
-55.1328850866171
 40
-55.1328850866171
 40
-55.1328850866171
 40
-55.1328850866171
 40
-52.91489853206819
 40
-50.69660225934638
 40
-50.69660225934638
 40
-50.69660225934638
 40
-48.47830915698709
 40
0.0
 40
0.0
 40
0.0
 40
0.0
 10
-1313.198635929413
 20
-444.3173769072298
 30
0.0
 41
1.0
 10
-1313.100989919891
 20
-444.1982844550114
 30
0.0
 41
1.0
 10
-1312.94420472801
 20
-444.2625404368051
 30
0.0
 41
1.0
 10
-1312.906771450682
 20
-444.3824494819737
 30
0.0
 41
1.0
 10
-1312.897569622983
 20
-444.8151520196761
 30
0.0
 41
1.0
 10
-1312.88836327233
 20
-445.2478378910846
 30
0.0
 41
1.0
 10
-1312.895366988443
 20
-463.6547283696445
 30
0.0
 41
1.0
 10
-1312.897360666655
 20
-481.8656213641434
 30
0.0
 41
1.0
 10
-1312.89756919114
 20
-499.2132509258035
 30
0.0
 41
1.0
  0
LINE
  5
7D
330
1F
100
AcDbEntity
  8
2D
100
AcDbLine
 10
-1312.89756919114
 20
-499.2132509258035
 30
0.0
 11
-1312.897569553155
 21
-571.5046372399543
 31
0.0
  0
SPLINE
  5
7E
330
1F
100
AcDbEntity
  8
2D
100
AcDbSpline
210
0.0
220
0.0
230
1.0
 70
     8
 71
     3
 72
     8
 73
     4
 74
     0
 42
0.0000000001
 43
0.0000000001
 40
0.0
 40
0.0
 40
0.0
 40
0.0
 40
159.3744175909599
 40
159.3744175909599
 40
159.3744175909599
 40
159.3744175909599
 10
-1312.897569553155
 20
-571.5046372399543
 30
0.0
 10
-1312.897556521992
 20
-624.6294431036144
 30
0.0
 10
-1312.897546459386
 20
-677.7542489674116
 30
0.0
 10
-1312.897539350713
 20
-730.8790548310565
 30
0.0
  0
SPLINE
  5
7F
330
1F
100
AcDbEntity
  8
2D
100
AcDbSpline
210
0.0
220
0.0
230
1.0
 70
     8
 71
     3
 72
   126
 73
   122
 74
     0
 42
0.0000000001
 43
0.0000000001
 40
-1388.624144801238
 40
-1388.624144801238
 40
-1388.624144801238
 40
-1388.624144801238
 40
-1383.005642400928
 40
-1383.005642400928
 40
-1377.316394746952
 40
-1377.316394746952
 40
-1371.53607241313
 40
-1371.53607241313
 40
-1366.079643213222
 40
-1366.079643213222
 40
-1355.164204706347
 40
-1355.164204706347
 40
-1354.627582753745
 40
-1354.627582753745
 40
-1354.007846250194
 40
-1354.007846250194
 40
-1352.740903313607
 40
-1352.740903313607
 40
-1350.155046929017
 40
-1350.155046929017
 40
-1344.950309891976
 40
-1344.950309891976
 40
-1323.10692305486
 40
-1323.10692305486
 40
-1301.403426736582
 40
-1301.403426736582
 40
-1214.588866325249
 40
-1214.588866325249
 40
-1127.771750698201
 40
-1127.771750698201
 40
-1084.363359245087
 40
-1084.363359245087
 40
-1062.659261917121
 40
-1062.659261917121
 40
-1051.817490828507
 40
-1051.817490828507
 40
-1046.381099179979
 40
-1046.381099179979
 40
-1040.974397910383
 40
-1040.974397910383
 40
-1030.122501184718
 40
-1030.122501184718
 40
-1024.706779475506
 40
-1024.706779475506
 40
-1018.56916056132
 40
-1018.56916056132
 40
-1013.143802514134
 40
-1013.143802514134
 40
-1007.70853919441
 40
-1007.70853919441
 40
-996.877281569368
 40
-996.877281569368
 40
-986.0340343067661
 40
-986.0340343067661
 40
-980.6022156579035
 40
-980.6022156579035
 40
-975.1752168619503
 40
-975.1752168619503
 40
-969.7416863120209
 40
-969.7416863120209
 40
-964.3243486851751
 40
-964.3243486851751
 40
-959.0427004484467
 40
-959.0427004484467
 40
-954.3570405540214
 40
-954.3570405540214
 40
-948.9346768305351
 40
-948.9346768305351
 40
-943.5158484966038
 40
-943.5158484966038
 40
-932.6781918374321
 40
-932.6781918374321
 40
-911.0028786515368
 40
-911.0028786515368
 40
-867.6522537595195
 40
-867.6522537595195
 40
-694.2672610156583
 40
-694.2672610156583
 40
-520.728187354367
 40
-520.728187354367
 40
-434.0867263747586
 40
-434.0867263747586
 40
-390.7659934598724
 40
-390.7659934598724
 40
-379.9358099201963
 40
-379.9358099201963
 40
-374.5239545263501
 40
-374.5239545263501
 40
-369.5372259344822
 40
-369.5372259344822
 40
-364.118934528593
 40
-364.118934528593
 40
-358.6858453082183
 40
-358.6858453082183
 40
-353.2677109634798
 40
-353.2677109634798
 40
-347.8434501091609
 40
-347.8434501091609
 40
-337.018507498136
 40
-337.018507498136
 40
-326.1749713091099
 40
-326.1749713091099
 40
-315.3281586625748
 40
-315.3281586625748
 40
-309.8965742020025
 40
-309.8965742020025
 40
-303.8317892907999
 40
-303.8317892907999
 40
-298.4007008382042
 40
-298.4007008382042
 40
-292.9712890201499
 40
-292.9712890201499
 40
-282.1370903412079
 40
-282.1370903412079
 40
-271.2725075397988
 40
-271.2725075397988
 40
-260.4268657210545
 40
-260.4268657210545
 40
-173.6616002500461
 40
-173.6616002500461
 40
0.0
 40
0.0
 40
0.0
 40
0.0
 10
-1312.897539350713
 20
-730.8790548310565
 30
0.0
 10
-1312.897540451733
 20
-732.7406687418259
 30
0.0
 10
-1312.897541913098
 20
-734.6022826525947
 30
0.0
 10
-1312.89754505963
 20
-738.3489509461588
 30
0.0
 10
-1312.897546831347
 20
-740.2340053289537
 30
0.0
 10
-1312.897551403377
 20
-744.0342904438335
 30
0.0
 10
-1312.897553829171
 20
-745.9495211759162
 30
0.0
 10
-1312.897565271007
 20
-749.6726650809227
 30
0.0
 10
-1312.897570228051
 20
-751.4805782538511
 30
0.0
 10
-1312.897584152721
 20
-756.9051726558179
 30
0.0
 10
-1312.897591608635
 20
-760.5218538848586
 30
0.0
 10
-1312.89759897027
 20
-764.3163374570539
 30
0.0
 10
-1312.889220399011
 20
-764.6006335699941
 30
0.0
 10
-1312.929761269796
 20
-764.9845607654082
 30
0.0
 10
-1312.964769478294
 20
-765.1878738400628
 30
0.0
 10
-1313.072165527221
 20
-765.8076335283012
 30
0.0
 10
-1313.15322080869
 20
-766.2219842974908
 30
0.0
 10
-1313.405916805823
 20
-767.4811658038404
 30
0.0
 10
-1313.585571525517
 20
-768.3240773553784
 30
0.0
 10
-1314.135800683223
 20
-770.8619079913378
 30
0.0
 10
-1314.517582861245
 20
-772.5541109581585
 30
0.0
 10
-1316.527517680606
 20
-781.342817902598
 30
0.0
 10
-1318.142131936671
 20
-787.9669410036176
 30
0.0
 10
-1321.569821927671
 20
-802.0703782690092
 30
0.0
 10
-1323.278161406357
 20
-809.0994438636244
 30
0.0
 10
-1331.819903456635
 20
-844.2449582546792
 30
0.0
 10
-1338.653295984823
 20
-872.3614094920539
 30
0.0
 10
-1352.320270744971
 20
-928.5951422956155
 30
0.0
 10
-1359.15385297656
 20
-956.7124238618864
 30
0.0
 10
-1369.404211342706
 20
-998.8882927910063
 30
0.0
 10
-1372.820988420575
 20
-1012.946879924595
 30
0.0
 10
-1377.94614665573
 20
-1034.034728668473
 30
0.0
 10
-1379.654527631246
 20
-1041.063990322941
 30
0.0
 10
-1382.216290317418
 20
-1051.604554179859
 30
0.0
 10
-1383.06967263882
 20
-1055.115856233872
 30
0.0
 10
-1384.350970981071
 20
-1060.387830190905
 30
0.0
 10
-1384.778884073978
 20
-1062.148502805526
 30
0.0
 10
-1385.632373363514
 20
-1065.660232247167
 30
0.0
 10
-1386.057948842099
 20
-1067.411289248699
 30
0.0
 10
-1387.33770879126
 20
-1072.676926425316
 30
0.0
 10
-1388.191648494212
 20
-1076.19156608008
 30
0.0
 10
-1389.472462727637
 20
-1081.460041031014
 30
0.0
 10
-1389.896010826804
 20
-1083.214682698092
 30
0.0
 10
-1390.810912417335
 20
-1086.955104567558
 30
0.0
 10
-1391.146314025602
 20
-1088.249180322811
 30
0.0
 10
-1392.404182164562
 20
-1091.897968005349
 30
0.0
 10
-1393.078955700643
 20
-1093.567293684338
 30
0.0
 10
-1394.622308912632
 20
-1096.847918132504
 30
0.0
 10
-1395.476782823895
 20
-1098.43654238553
 30
0.0
 10
-1398.306500647861
 20
-1103.071301881498
 30
0.0
 10
-1400.521569334782
 20
-1105.947109690685
 30
0.0
 10
-1405.533016912268
 20
-1111.16672183703
 30
0.0
 10
-1408.315211722067
 20
-1113.498667151224
 30
0.0
 10
-1412.833490931949
 20
-1116.51674582668
 30
0.0
 10
-1414.384593998366
 20
-1117.435622730676
 30
0.0
 10
-1417.599678345214
 20
-1119.110863808831
 30
0.0
 10
-1419.239718284258
 20
-1119.855761359241
 30
0.0
 10
-1422.617949145068
 20
-1121.173099986005
 30
0.0
 10
-1424.331098226437
 20
-1121.736720551615
 30
0.0
 10
-1427.829111048737
 20
-1122.679541824424
 30
0.0
 10
-1429.587981693145
 20
-1123.053446007992
 30
0.0
 10
-1433.117477988573
 20
-1123.604390410862
 30
0.0
 10
-1435.01111786313
 20
-1123.800692323245
 30
0.0
 10
-1438.336723420725
 20
-1123.948370469845
 30
0.0
 10
-1440.626953645504
 20
-1123.932727135817
 30
0.0
 10
-1443.999160983487
 20
-1123.932014561813
 30
0.0
 10
-1445.808152993111
 20
-1123.932383729016
 30
0.0
 10
-1449.424957623924
 20
-1123.932383729016
 30
0.0
 10
-1451.232770206519
 20
-1123.932383729017
 30
0.0
 10
-1456.656207951408
 20
-1123.932383729016
 30
0.0
 10
-1460.271833113704
 20
-1123.932383729015
 30
0.0
 10
-1471.118708556394
 20
-1123.932383729012
 30
0.0
 10
-1478.349958836789
 20
-1123.93238372901
 30
0.0
 10
-1500.043709184305
 20
-1123.932383729005
 30
0.0
 10
-1514.506209251424
 20
-1123.932383729001
 30
0.0
 10
-1586.812869015008
 20
-1123.932383728989
 30
0.0
 10
-1644.65702871147
 20
-1123.932383728988
 30
0.0
 10
-1760.39675209879
 20
-1123.932383728994
 30
0.0
 10
-1818.29231578964
 20
-1123.932383729001
 30
0.0
 10
-1905.092933060554
 20
-1123.93238372901
 30
0.0
 10
-1933.99798664061
 20
-1123.932383729013
 30
0.0
 10
-1977.355567819748
 20
-1123.932383729016
 30
0.0
 10
-1991.80809541883
 20
-1123.932383729016
 30
0.0
 10
-2009.873755021417
 20
-1123.932383729016
 30
0.0
 10
-2013.48688702493
 20
-1123.932383729017
 30
0.0
 10
-2018.905505320545
 20
-1123.932383729017
 30
0.0
 10
-2020.710991441323
 20
-1123.931626159681
 30
0.0
 10
-2024.180134875562
 20
-1123.933235765275
 30
0.0
 10
-2026.275510546358
 20
-1123.950628541056
 30
0.0
 10
-2029.746940244873
 20
-1123.779511708558
 30
0.0
 10
-2031.535714724094
 20
-1123.588456603439
 30
0.0
 10
-2035.114233431083
 20
-1123.015325283767
 30
0.0
 10
-2036.877145761027
 20
-1122.633069767162
 30
0.0
 10
-2040.372366484709
 20
-1121.675740148253
 30
0.0
 10
-2042.078778841566
 20
-1121.106429345003
 30
0.0
 10
-2045.447037769685
 20
-1119.777656293356
 30
0.0
 10
-2047.083772331356
 20
-1119.026546252778
 30
0.0
 10
-2051.886320027577
 20
-1116.500350673703
 30
0.0
 10
-2054.895459528652
 20
-1114.473305893671
 30
0.0
 10
-2060.42528469408
 20
-1109.806327277648
 30
0.0
 10
-2062.927698014719
 20
-1107.180219281621
 30
0.0
 10
-2067.327848930268
 20
-1101.426694053464
 30
0.0
 10
-2069.202779282241
 20
-1098.327225932243
 30
0.0
 10
-2071.499122010526
 20
-1093.400511853415
 30
0.0
 10
-2072.168864214564
 20
-1091.726414771074
 30
0.0
 10
-2073.406655280316
 20
-1088.093129989435
 30
0.0
 10
-2073.743963551387
 20
-1086.763531540252
 30
0.0
 10
-2074.653535532172
 20
-1083.040952530345
 30
0.0
 10
-2075.078298298806
 20
-1081.281064355629
 30
0.0
 10
-2075.933440031309
 20
-1077.763224096136
 30
0.0
 10
-2076.360766133002
 20
-1076.004532066964
 30
0.0
 10
-2077.641117237974
 20
-1070.736508041509
 30
0.0
 10
-2078.494020306574
 20
-1067.227146412859
 30
0.0
 10
-2080.20223866661
 20
-1060.198586206906
 30
0.0
 10
-2081.05754595164
 20
-1056.679385683745
 30
0.0
 10
-2082.766658236633
 20
-1049.647117190034
 30
0.0
 10
-2083.620469419089
 20
-1046.134050722076
 30
0.0
 10
-2091.304784725777
 20
-1014.516411162306
 30
0.0
 10
-2098.135296419659
 20
-986.4118399102158
 30
0.0
 10
-2118.637102836881
 20
-902.0556594232843
 30
0.0
 10
-2132.308391775274
 20
-845.8040487824929
 30
0.0
 10
-2145.979742099626
 20
-789.5524530608445
 30
0.0
  0
SPLINE
  5
80
330
1F
100
AcDbEntity
  8
2D
100
AcDbSpline
210
0.0
220
0.0
230
1.0
 70
     8
 71
     3
 72
    32
 73
    28
 74
     0
 42
0.0000000001
 43
0.0000000001
 40
-59.19604378748939
 40
-59.19604378748939
 40
-59.19604378748939
 40
-59.19604378748939
 40
-51.77054938784171
 40
-51.77054938784171
 40
-44.34255247042648
 40
-44.34255247042648
 40
-40.66054806549297
 40
-40.66054806549297
 40
-36.91659540794431
 40
-36.91659540794431
 40
-35.00487814803145
 40
-35.00487814803145
 40
-34.02356445934936
 40
-34.02356445934936
 40
-33.52544695811945
 40
-33.52544695811945
 40
-33.08012031810524
 40
-33.08012031810524
 40
-29.51742950528362
 40
-29.51742950528362
 40
-22.13530080063121
 40
-22.13530080063121
 40
-14.75841244525071
 40
-14.75841244525071
 40
-7.383213632895154
 40
-7.383213632895154
 40
0.0
 40
0.0
 40
0.0
 40
0.0
 10
-2145.979742099626
 20
-789.5524530608445
 30
0.0
 10
-2146.563204363221
 20
-787.1517566120298
 30
0.0
 10
-2147.140766847988
 20
-784.7496688745429
 30
0.0
 10
-2148.282374170463
 20
-779.9413341171095
 30
0.0
 10
-2148.846863547195
 20
-777.5353070326196
 30
0.0
 10
-2149.675282001495
 20
-773.9328371167177
 30
0.0
 10
-2149.947168694045
 20
-772.7383410179032
 30
0.0
 10
-2150.486634235669
 20
-770.327199419402
 30
0.0
 10
-2150.754879187713
 20
-769.1108221488707
 30
0.0
 10
-2151.143051936575
 20
-767.2694981040593
 30
0.0
 10
-2151.271808301441
 20
-766.6466763450469
 30
0.0
 10
-2151.452826764977
 20
-765.701194667004
 30
0.0
 10
-2151.512502042344
 20
-765.38033895494
 30
0.0
 10
-2151.586956398209
 20
-764.8935557516123
 30
0.0
 10
-2151.60961605898
 20
-764.7306922843278
 30
0.0
 10
-2151.609616669164
 20
-764.4147160274171
 30
0.0
 10
-2151.60961695719
 20
-764.2655681990902
 30
0.0
 10
-2151.609619549439
 20
-762.9232117234753
 30
0.0
 10
-2151.609621838525
 20
-761.7300030761875
 30
0.0
 10
-2151.60962892383
 20
-758.0643879618315
 30
0.0
 10
-2151.609633935317
 20
-755.5919814947647
 30
0.0
 10
-2151.609647917794
 20
-750.6489236470026
 30
0.0
 10
-2151.609656855268
 20
-748.1782722663102
 30
0.0
 10
-2151.609666062472
 20
-743.2375353629672
 30
0.0
 10
-2151.60966845154
 20
-740.7674498403288
 30
0.0
 10
-2151.609673026498
 20
-735.8245944888122
 30
0.0
 10
-2151.609675007338
 20
-733.3518246599346
 30
0.0
 10
-2151.609676553864
 20
-730.8790548310565
 30
0.0
  0
SPLINE
  5
81
330
1F
100
AcDbEntity
  8
2D
100
AcDbSpline
210
0.0
220
0.0
230
1.0
 70
     8
 71
     3
 72
     8
 73
     4
 74
     0
 42
0.0000000001
 43
0.0000000001
 40
-159.37441759096
 40
-159.37441759096
 40
-159.37441759096
 40
-159.37441759096
 40
0.0
 40
0.0
 40
0.0
 40
0.0
 10
-2151.609676553864
 20
-730.8790548310565
 30
0.0
 10
-2151.609669520072
 20
-677.7542489674117
 30
0.0
 10
-2151.609659457466
 20
-624.6294431036144
 30
0.0
 10
-2151.609646351422
 20
-571.5046372399543
 30
0.0
  0
LINE
  5
82
330
1F
100
AcDbEntity
  8
2D
100
AcDbLine
 10
-2151.609646351422
 20
-571.5046372399543
 30
0.0
 11
-2151.609646638564
 21
-499.2132509258026
 31
0.0
  0
SPLINE
  5
83
330
1F
100
AcDbEntity
  8
2D
100
AcDbSpline
210
0.0
220
0.0
230
1.0
 70
     8
 71
     3
 72
     8
 73
     4
 74
     0
 42
0.0000000001
 43
0.0000000001
 40
-46.32020837304021
 40
-46.32020837304021
 40
-46.32020837304021
 40
-46.32020837304021
 40
0.0
 40
0.0
 40
0.0
 40
0.0
 10
-2151.441831127348
 20
370.2138677859357
 30
0.0
 10
-2166.881900330172
 20
370.2110624386705
 30
0.0
 10
-2182.321969473469
 20
370.2079078111693
 30
0.0
 10
-2197.762038606335
 20
370.2044916394909
 30
0.0
  0
SPLINE
  5
84
330
1F
100
AcDbEntity
  8
2D
100
AcDbSpline
210
0.0
220
0.0
230
1.0
 70
    12
 71
     3
 72
     8
 73
     4
 74
     0
 42
0.0000000001
 43
0.0000000001
 40
-0.7039446234367508
 40
-0.7039446234367508
 40
-0.7039446234367508
 40
-0.7039446234367508
 40
0.0
 40
0.0
 40
0.0
 40
0.0
 10
-2197.762038606334
 20
370.2044916394909
 30
0.0
 41
0.9999999999785221
 10
-2197.8656835527
 20
370.1973496018868
 30
0.0
 41
0.9999999999856813
 10
-2197.919603035175
 20
370.39422592659
 30
0.0
 41
0.9999999999928406
 10
-2197.919603046816
 20
370.7945782315173
 30
0.0
 41
1.0
  0
LINE
  5
85
330
1F
100
AcDbEntity
  8
2D
100
AcDbLine
 10
-2197.919603046816
 20
370.7945782315173
 30
0.0
 11
-2151.609646302713
 21
370.7945781502958
 31
0.0
  0
SPLINE
  5
86
330
1F
100
AcDbEntity
  8
2D
100
AcDbSpline
210
0.0
220
0.0
230
1.0
 70
    12
 71
     3
 72
    19
 73
    15
 74
     0
 42
0.0000000001
 43
0.0000000001
 40
-81.07489434217865
 40
-81.07489434217865
 40
-81.07489434217865
 40
-81.07489434217865
 40
-73.48000972008813
 40
-73.48000972008813
 40
-69.38681998382772
 40
-69.38681998382772
 40
-65.2904545605689
 40
-65.2904545605689
 40
-57.23558246889919
 40
-57.23558246889919
 40
-49.47249060968525
 40
-49.47249060968525
 40
-49.47249060968525
 40
0.0
 40
0.0
 40
0.0
 40
0.0
 10
-1412.668432143033
 20
972.490175853417
 30
0.0
 41
1.0
 10
-1410.57013588132
 20
970.9459817482375
 30
0.0
 41
1.0
 10
-1408.62993258096
 20
969.2670695751285
 30
0.0
 41
1.0
 10
-1405.831614608662
 20
966.4263544925079
 30
0.0
 41
1.0
 10
-1404.901335877439
 20
965.3961556468666
 30
0.0
 41
1.0
 10
-1403.129143724822
 20
963.2525801702968
 30
0.0
 41
1.0
 10
-1402.295701568011
 20
962.1491017994658
 30
0.0
 41
1.0
 10
-1399.967486646226
 20
958.7638794613476
 30
0.0
 41
1.0
 10
-1398.649153079878
 20
956.4377934322465
 30
0.0
 41
1.0
 10
-1396.451301810273
 20
951.606558909777
 30
0.0
 41
1.0
 10
-1395.59306097533
 20
949.1923892386285
 30
0.0
 41
1.0
 10
-1394.936421199272
 20
946.6861721609885
 30
0.0
 41
1.0
 10
-1390.802649492343
 20
930.8202126891074
 30
0.0
 41
1.0
 10
-1386.713501162449
 20
914.9468033269577
 30
0.0
 41
1.0
 10
-1382.63422524037
 20
899.071295628316
 30
0.0
 41
1.0
  0
SPLINE
  5
87
330
1F
100
AcDbEntity
  8
2D
100
AcDbSpline
210
0.0
220
0.0
230
1.0
 70
     8
 71
     3
 72
    30
 73
    26
 74
     0
 42
0.0000000001
 43
0.0000000001
 40
-241.958672598479
 40
-241.958672598479
 40
-241.958672598479
 40
-241.958672598479
 40
-182.1443743928567
 40
-182.1443743928567
 40
-152.2381255722537
 40
-152.2381255722537
 40
-122.3110393949406
 40
-122.3110393949406
 40
-89.76872041673765
 40
-89.76872041673765
 40
-59.85706846999749
 40
-59.85706846999749
 40
-52.37594404900764
 40
-52.37594404900764
 40
-44.89571419615801
 40
-44.89571419615801
 40
-29.71145999598486
 40
-29.71145999598486
 40
-22.23127155154792
 40
-22.23127155154792
 40
-14.74145697013175
 40
-14.74145697013175
 40
-7.434579930483004
 40
-7.434579930483004
 40
0.0
 40
0.0
 40
0.0
 40
0.0
 10
-1382.63422524037
 20
899.071295628316
 30
0.0
 10
-1377.617909213946
 20
879.5490654048095
 30
0.0
 10
-1372.615139120546
 20
860.0233987561693
 30
0.0
 10
-1365.15099645792
 20
830.7249159690722
 30
0.0
 10
-1362.670820956362
 20
820.9569741231747
 30
0.0
 10
-1357.723248915176
 20
801.4105823590769
 30
0.0
 10
-1355.262689979565
 20
791.6304272207491
 30
0.0
 10
-1350.069358209235
 20
771.2298936595956
 30
0.0
 10
-1347.989926622951
 20
763.2226480424617
 30
0.0
 10
-1342.574111331858
 20
742.8853396650526
 30
0.0
 10
-1339.980008847902
 20
733.1450756773522
 30
0.0
 10
-1336.743971070606
 20
720.9668700755132
 30
0.0
 10
-1336.099490044071
 20
718.5296215606575
 30
0.0
 10
-1334.819356033364
 20
713.6530852803083
 30
0.0
 10
-1334.188106531419
 20
711.2126881257773
 30
0.0
 10
-1332.204091023345
 20
703.8370659425912
 30
0.0
 10
-1330.83467240704
 20
699.1450663716869
 30
0.0
 10
-1328.250809072168
 20
691.9491397878807
 30
0.0
 10
-1327.332931623252
 20
689.6049344253832
 30
0.0
 10
-1325.293123762254
 20
684.9833322357002
 30
0.0
 10
-1324.174457717614
 20
682.7332820966326
 30
0.0
 10
-1321.660523175007
 20
678.4147841078134
 30
0.0
 10
-1320.206908937333
 20
676.2194878059742
 30
0.0
 10
-1316.959446384059
 20
672.4202302091336
 30
0.0
 10
-1315.093439823078
 20
670.7190512163919
 30
0.0
 10
-1312.897559413519
 20
669.435991127667
 30
0.0
  0
LINE
  5
88
330
1F
100
AcDbEntity
  8
2D
100
AcDbLine
 10
-1312.897559413519
 20
669.435991127667
 30
0.0
 11
-1266.587652610389
 21
669.4345860676067
 31
0.0
  0
LINE
  5
89
330
1F
100
AcDbEntity
  8
2D
100
AcDbLine
 10
-1732.253555609073
 20
-1056.525580488373
 30
0.0
 11
-1732.253607914849
 21
-1123.932383729006
 31
0.0
  0
LINE
  5
8A
330
1F
100
AcDbEntity
  8
2D
100
AcDbLine
 10
-1732.253607914849
 20
-1123.932383729006
 30
0.0
 11
-1732.253607914849
 21
-1168.932364137195
 31
0.0
  0
LINE
  5
8B
330
1F
100
AcDbEntity
  8
2D
100
AcDbLine
 10
-1732.253660220624
 20
982.5050066153544
 30
0.0
 11
-1732.253607914849
 21
1049.911809855987
 31
0.0
  0
LINE
  5
8C
330
1F
100
AcDbEntity
  8
2D
100
AcDbLine
 10
-1732.253607914849
 20
1049.911809855987
 30
0.0
 11
-1732.253607914849
 21
1094.911790264176
 31
0.0
  0
SPLINE
  5
8D
330
1F
100
AcDbEntity
  8
2D
100
AcDbSpline
210
0.0
220
0.0
230
1.0
 70
     8
 71
     3
 72
    35
 73
    31
 74
     0
 42
0.0000000001
 43
0.0000000001
 40
-46.30989822080882
 40
-46.30989822080882
 40
-46.30989822080882
 40
-46.30989822080882
 40
-0.0000000000015311
 40
-0.0000000000015311
 40
-0.0000000000015311
 40
7.456354525936369
 40
7.456354525936369
 40
14.83467453657029
 40
14.83467453657029
 40
22.330400010689
 40
22.330400010689
 40
29.81905946160878
 40
29.81905946160878
 40
45.11511059635163
 40
45.11511059635163
 40
52.91740948482038
 40
52.91740948482038
 40
60.07796614356401
 40
60.07796614356401
 40
75.08523046894761
 40
75.08523046894761
 40
90.0898846827989
 40
90.0898846827989
 40
121.8716972134843
 40
121.8716972134843
 40
151.8746429564736
 40
151.8746429564736
 40
181.9133200688154
 40
181.9133200688154
 40
241.9038487759257
 40
241.9038487759257
 40
241.9038487759257
 40
241.9038487759257
 10
-2197.919563219311
 20
669.4345860676067
 30
0.0
 10
-2182.482930485901
 20
669.4350461607562
 30
0.0
 10
-2167.046297752502
 20
669.4355062538953
 30
0.0
 10
-2151.609665019088
 20
669.4359663470451
 30
0.0
 10
-2149.414787669419
 20
670.7183898028793
 30
0.0
 10
-2147.542839720205
 20
672.4236347801186
 30
0.0
 10
-2144.288786017343
 20
676.237286509784
 30
0.0
 10
-2142.848864802632
 20
678.4115493301991
 30
0.0
 10
-2140.330098801405
 20
682.7392564596018
 30
0.0
 10
-2139.214403294507
 20
684.9842702975818
 30
0.0
 10
-2137.178163869965
 20
689.5953619997825
 30
0.0
 10
-2136.264099400905
 20
691.9355875640608
 30
0.0
 10
-2133.671366191546
 20
699.1453042240754
 30
0.0
 10
-2132.303475637258
 20
703.8325220581406
 30
0.0
 10
-2130.288625282963
 20
711.3253418235377
 30
0.0
 10
-2129.630358679937
 20
713.8621132301471
 30
0.0
 10
-2128.358089039564
 20
718.7244869427994
 30
0.0
 10
-2127.741690537143
 20
721.0493917455782
 30
0.0
 10
-2125.828771411445
 20
728.2456959088395
 30
0.0
 10
-2124.530989790845
 20
733.116743987854
 30
0.0
 10
-2121.940580846353
 20
742.8593046373425
 30
0.0
 10
-2120.64504889453
 20
747.7300428202905
 30
0.0
 10
-2116.593597820021
 20
762.9144996662706
 30
0.0
 10
-2114.36536477815
 20
771.5135934171548
 30
0.0
 10
-2109.24592395865
 20
791.6256645317902
 30
0.0
 10
-2106.78605592141
 20
801.398774354083
 30
0.0
 10
-2101.837762903011
 20
820.9501653830546
 30
0.0
 10
-2099.354542187615
 20
830.7297387208296
 30
0.0
 10
-2091.88903634427
 20
860.0343742772612
 30
0.0
 10
-2086.887944453552
 20
879.5545612130826
 30
0.0
 10
-2081.872989356183
 20
899.071230941775
 30
0.0
  0
SPLINE
  5
8E
330
1F
100
AcDbEntity
  8
2D
100
AcDbSpline
210
0.0
220
0.0
230
1.0
 70
    12
 71
     3
 72
    15
 73
    11
 74
     0
 42
0.0000000001
 43
0.0000000001
 40
-81.16521440752348
 40
-81.16521440752348
 40
-81.16521440752348
 40
-81.16521440752348
 40
-31.59386165712621
 40
-31.59386165712621
 40
-31.59386165712621
 40
-15.81621260767682
 40
-15.81621260767682
 40
-0.4191552454123711
 40
-0.4191552454123711
 40
0.0
 40
0.0
 40
0.0
 40
0.0
 10
-2081.872989356183
 20
899.071230941775
 30
0.0
 41
1.0
 10
-2077.793657007587
 20
914.9467434070675
 30
0.0
 41
1.0
 10
-2073.704547030819
 20
930.820154683307
 30
0.0
 41
1.0
 10
-2069.570794630425
 20
946.6861721609885
 30
0.0
 41
1.0
 10
-2068.242570059912
 20
951.769043799587
 30
0.0
 41
1.0
 10
-2066.023723142698
 20
956.6032476815553
 30
0.0
 41
1.0
 10
-2060.067105709866
 20
965.270117595187
 30
0.0
 41
1.0
 10
-2056.410480564562
 20
969.0645017623383
 30
0.0
 41
1.0
 10
-2052.069896281035
 20
972.3190332085678
 30
0.0
 41
1.0
 10
-2051.954481884404
 20
972.4047896264483
 30
0.0
 41
1.0
 10
-2051.838689503518
 20
972.4900501808252
 30
0.0
 41
1.0
  0
SPLINE
  5
8F
330
1F
100
AcDbEntity
  8
2D
100
AcDbSpline
210
0.0
220
0.0
230
1.0
 70
     8
 71
     3
 72
    35
 73
    31
 74
     0
 42
0.0000000001
 43
0.0000000001
 40
-46.30989822078397
 40
-46.30989822078397
 40
-46.30989822078397
 40
-46.30989822078397
 40
0.0
 40
0.0
 40
0.0
 40
7.456354539388286
 40
7.456354539388286
 40
14.83467454965066
 40
14.83467454965066
 40
22.33040002336074
 40
22.33040002336074
 40
29.81905947387409
 40
29.81905947387409
 40
45.11511060826936
 40
45.11511060826936
 40
52.91740949630707
 40
52.91740949630707
 40
60.07796615465136
 40
60.07796615465136
 40
75.08523047920093
 40
75.08523047920093
 40
90.08988469222379
 40
90.08988469222379
 40
121.8716972202487
 40
121.8716972202487
 40
151.874642961573
 40
151.874642961573
 40
181.9133200722466
 40
181.9133200722466
 40
241.9038487759925
 40
241.9038487759925
 40
241.9038487759925
 40
241.9038487759925
 10
-1266.587652610389
 20
-743.455159940625
 30
0.0
 10
-1282.024285343796
 20
-743.4556200337748
 30
0.0
 10
-1297.460918077202
 20
-743.4560801269134
 30
0.0
 10
-1312.897550810605
 20
-743.4565402200631
 30
0.0
 10
-1315.09242816436
 20
-744.7389636782783
 30
0.0
 10
-1316.964376106465
 20
-746.4442086495745
 30
0.0
 10
-1320.218429812368
 20
-750.2578603828224
 30
0.0
 10
-1321.658351027068
 20
-752.4321232032205
 30
0.0
 10
-1324.177117028321
 20
-756.7598303326289
 30
0.0
 10
-1325.292812535205
 20
-759.0048441706159
 30
0.0
 10
-1327.329051959739
 20
-763.6159358728248
 30
0.0
 10
-1328.243116428803
 20
-765.9561614371044
 30
0.0
 10
-1330.835849638224
 20
-773.1658780972797
 30
0.0
 10
-1332.20374019241
 20
-777.8530959310251
 30
0.0
 10
-1334.218590546745
 20
-785.3459156965878
 30
0.0
 10
-1334.876857149764
 20
-787.8826871031994
 30
0.0
 10
-1336.149126790137
 20
-792.7450608158517
 30
0.0
 10
-1336.765525292562
 20
-795.069965618629
 30
0.0
 10
-1338.678444418259
 20
-802.2662697818888
 30
0.0
 10
-1339.976226038856
 20
-807.1373178609041
 30
0.0
 10
-1342.566634983348
 20
-816.8798785103936
 30
0.0
 10
-1343.862166935174
 20
-821.7506166933424
 30
0.0
 10
-1347.913618009607
 20
-836.9350735390329
 30
0.0
 10
-1350.141851051638
 20
-845.5341672904973
 30
0.0
 10
-1355.261291871066
 20
-865.6462384048407
 30
0.0
 10
-1357.721159908313
 20
-875.419348227132
 30
0.0
 10
-1362.669452926712
 20
-894.9707392561036
 30
0.0
 10
-1365.152673642096
 20
-904.750312593881
 30
0.0
 10
-1372.618179485406
 20
-934.0549481503101
 30
0.0
 10
-1377.619271376083
 20
-953.57513508613
 30
0.0
 10
-1382.634226473521
 20
-973.0918048147932
 30
0.0
  0
SPLINE
  5
90
330
1F
100
AcDbEntity
  8
2D
100
AcDbSpline
210
0.0
220
0.0
230
1.0
 70
    12
 71
     3
 72
    15
 73
    11
 74
     0
 42
0.0000000001
 43
0.0000000001
 40
-81.16521440750104
 40
-81.16521440750104
 40
-81.16521440750104
 40
-81.16521440750104
 40
-31.59386165711747
 40
-31.59386165711747
 40
-31.59386165711747
 40
-15.81621260767245
 40
-15.81621260767245
 40
-0.4191552454122552
 40
-0.4191552454122552
 40
0.0
 40
0.0
 40
0.0
 40
0.0
 10
-1382.634226473521
 20
-973.0918048147932
 30
0.0
 41
1.0
 10
-1386.713558822114
 20
-988.9673172800858
 30
0.0
 41
1.0
 10
-1390.802668798882
 20
-1004.840728556325
 30
0.0
 41
1.0
 10
-1394.936421199272
 20
-1020.706746034007
 30
0.0
 41
1.0
 10
-1396.264645769785
 20
-1025.789617672605
 30
0.0
 41
1.0
 10
-1398.483492687003
 20
-1030.623821554574
 30
0.0
 41
1.0
 10
-1404.440110119831
 20
-1039.290691468205
 30
0.0
 41
1.0
 10
-1408.096735265135
 20
-1043.085075635357
 30
0.0
 41
1.0
 10
-1412.437319548662
 20
-1046.339607081586
 30
0.0
 41
1.0
 10
-1412.552733945296
 20
-1046.425363499467
 30
0.0
 41
1.0
 10
-1412.668526326182
 20
-1046.510624053843
 30
0.0
 41
1.0
  0
LINE
  5
91
330
1F
100
AcDbEntity
  8
2D
100
AcDbLine
 10
-2197.919603046823
 20
-444.8151521045852
 30
0.0
 11
-2197.919358019979
 21
-720.8983535433656
 31
0.0
  0
LINE
  5
92
330
1F
100
AcDbEntity
  8
2D
100
AcDbLine
 10
-2197.919358019979
 20
-720.8983535433656
 30
0.0
 11
-2197.91961835845
 21
-728.996761843925
 31
0.0
  0
LINE
  5
93
330
1F
100
AcDbEntity
  8
2D
100
AcDbLine
 10
-2197.91961835845
 20
-728.996761843925
 30
0.0
 11
-2197.919619002554
 21
-730.2645212054255
 31
0.0
  0
LINE
  5
94
330
1F
100
AcDbEntity
  8
2D
100
AcDbLine
 10
-2197.919619002554
 20
-730.2645212054255
 30
0.0
 11
-2197.919621485205
 21
-736.4394512720905
 31
0.0
  0
SPLINE
  5
95
330
1F
100
AcDbEntity
  8
2D
100
AcDbSpline
210
0.0
220
0.0
230
1.0
 70
     8
 71
     3
 72
     8
 73
     4
 74
     0
 42
0.0000000001
 43
0.0000000001
 40
-5.95624451969516
 40
-5.95624451969516
 40
-5.95624451969516
 40
-5.95624451969516
 40
0.0
 40
0.0
 40
0.0
 40
0.0
 10
-2197.919621485205
 20
-736.4394512720905
 30
0.0
 10
-2197.919601213296
 20
-738.4248661118913
 30
0.0
 10
-2197.919578635094
 20
-740.410280951647
 30
0.0
 10
-2197.919550498715
 20
-742.3956957913452
 30
0.0
  0
LINE
  5
96
330
1F
100
AcDbEntity
  8
2D
100
AcDbLine
 10
-2197.919550498715
 20
-742.3956957913452
 30
0.0
 11
-2197.919968590038
 21
-747.703077791065
 31
0.0
  0
SPLINE
  5
97
330
1F
100
AcDbEntity
  8
2D
100
AcDbSpline
210
0.0
220
0.0
230
1.0
 70
     8
 71
     3
 72
     8
 73
     4
 74
     0
 42
0.0000000001
 43
0.0000000001
 40
-0.4884861954243728
 40
-0.4884861954243728
 40
-0.4884861954243728
 40
-0.4884861954243728
 40
0.0
 40
0.0
 40
0.0
 40
0.0
 10
-2197.919968590038
 20
-747.703077791065
 30
0.0
 10
-2197.920019880206
 20
-747.8659065147951
 30
0.0
 10
-2197.920070777847
 20
-748.0287352386515
 30
0.0
 10
-2197.92012128287
 20
-748.1915639765205
 30
0.0
  0
SPLINE
  5
98
330
1F
100
AcDbEntity
  8
2D
100
AcDbSpline
210
0.0
220
0.0
230
1.0
 70
     8
 71
     3
 72
     8
 73
     4
 74
     0
 42
0.0000000001
 43
0.0000000001
 40
-14.45092956368231
 40
-14.45092956368231
 40
-14.45092956368231
 40
-14.45092956368231
 40
0.0
 40
0.0
 40
0.0
 40
0.0
 10
-2197.92012128287
 20
-748.1915639765205
 30
0.0
 10
-2197.919953183315
 20
-753.008540508708
 30
0.0
 10
-2197.919785854756
 20
-757.8255170266336
 30
0.0
 10
-2197.919616108127
 20
-762.6424935454944
 30
0.0
  0
SPLINE
  5
99
330
1F
100
AcDbEntity
  8
2D
100
AcDbSpline
210
0.0
220
0.0
230
1.0
 70
    12
 71
     3
 72
    23
 73
    19
 74
     0
 42
0.0000000001
 43
0.0000000001
 40
-1.982430456905878
 40
-1.982430456905878
 40
-1.982430456905878
 40
-1.982430456905878
 40
0.0
 40
0.0
 40
0.0
 40
6.785486518595395
 40
6.785486518595395
 40
13.54569576792242
 40
13.54569576792242
 40
20.10807516634002
 40
20.10807516634002
 40
26.44433597621076
 40
26.44433597621076
 40
26.44433597621076
 40
342.1913106663147
 40
342.1913106663147
 40
342.1913106663147
 40
361.1806534994051
 40
361.1806534994051
 40
361.1806534994051
 40
361.1806534994051
 10
-2197.919616108127
 20
-762.6424935454944
 30
0.0
 41
1.0
 10
-2197.919573132
 20
-763.3033036970522
 30
0.0
 41
1.0
 10
-2197.919532768028
 20
-763.964157727653
 30
0.0
 41
1.0
 10
-2197.91949600706
 20
-764.6249678789326
 30
0.0
 41
1.0
 10
-2197.919501132605
 20
-764.872583864193
 30
0.0
 41
1.0
 10
-2197.764735194847
 20
-765.7502080659933
 30
0.0
 41
1.0
 10
-2197.168000624719
 20
-768.6465881832959
 30
0.0
 41
1.0
 10
-2196.733904695444
 20
-770.6282578426469
 30
0.0
 41
1.0
 10
-2195.663928572088
 20
-775.3483331314251
 30
0.0
 41
1.0
 10
-2195.043969196598
 20
-778.0205287152953
 30
0.0
 41
1.0
 10
-2193.708103483968
 20
-783.6765183553459
 30
0.0
 41
1.0
 10
-2193.005889656881
 20
-786.6056806282858
 30
0.0
 41
1.0
 10
-2192.289714621482
 20
-789.5524524247554
 30
0.0
 41
1.0
 10
-2167.433680073747
 20
-891.8242851631378
 30
0.0
 41
1.0
 10
-2142.577645526013
 20
-994.0961179015053
 30
0.0
 41
1.0
 10
-2117.721610978282
 20
-1096.367950639888
 30
0.0000000000000001
 41
1.0
 10
-2116.252744516206
 20
-1102.411700904246
 30
0.0000000000000018
 41
0.9778498669261779
 10
-2114.184628793763
 20
-1108.342691448203
 30
-0.0000000000000013
 41
0.9591416440757868
 10
-2111.504255845481
 20
-1114.089334075583
 30
0.0
 41
0.9438753314488268
  0
SPLINE
  5
9A
330
1F
100
AcDbEntity
  8
2D
100
AcDbSpline
210
0.0
220
0.0
230
1.0
 70
     8
 71
     3
 72
     8
 73
     4
 74
     0
 42
0.0000000001
 43
0.0000000001
 40
-3.856059846692146
 40
-3.856059846692146
 40
-3.856059846692146
 40
-3.856059846692146
 40
0.0
 40
0.0
 40
0.0
 40
0.0
 10
-2111.504255845481
 20
-1114.089334075583
 30
0.0
 10
-2110.9609305667
 20
-1115.254207864245
 30
0.0
 10
-2110.393842557824
 20
-1116.40829003723
 30
0.0
 10
-2109.803692294154
 20
-1117.550155059829
 30
0.0
  0
SPLINE
  5
9B
330
1F
100
AcDbEntity
  8
2D
100
AcDbSpline
210
0.0
220
0.0
230
1.0
 70
    12
 71
     3
 72
     8
 73
     4
 74
     0
 42
0.0000000001
 43
0.0000000001
 40
-102.8953763350936
 40
-102.8953763350936
 40
-102.8953763350936
 40
-102.8953763350936
 40
0.0
 40
0.0
 40
0.0
 40
0.0
 10
-2109.803692294152
 20
-1117.550155059829
 30
0.0
 41
0.9378570462892597
 10
-2092.998163102311
 20
-1150.066697288944
 30
0.0000000000000016
 41
0.8654606304479151
 10
-2061.942261853082
 20
-1168.632734325634
 30
-0.0000000000000056
 41
0.8861749483514952
 10
-2026.19646201429
 20
-1168.929099775766
 30
0.0
 41
1.0
  0
SPLINE
  5
9C
330
1F
100
AcDbEntity
  8
2D
100
AcDbSpline
210
0.0
220
0.0
230
1.0
 70
     8
 71
     3
 72
     8
 73
     4
 74
     0
 42
0.0000000001
 43
0.0000000001
 40
-0.7876168655800927
 40
-0.7876168655800927
 40
-0.7876168655800927
 40
-0.7876168655800927
 40
0.0
 40
0.0
 40
0.0
 40
0.0
 10
-2026.19646201429
 20
-1168.929099775766
 30
0.0
 10
-2025.933932080377
 20
-1168.931276193592
 30
0.0
 10
-2025.671390868691
 20
-1168.932364332567
 30
0.0
 10
-2025.408851913497
 20
-1168.932364136595
 30
0.0
  0
LINE
  5
9D
330
1F
100
AcDbEntity
  8
2D
100
AcDbLine
 10
-2025.408851913497
 20
-1168.932364136595
 30
0.0
 11
-1782.253607914849
 21
-1168.932364042694
 31
0.0
  0
LINE
  5
9E
330
1F
100
AcDbEntity
  8
2D
100
AcDbLine
 10
-1782.253607914849
 20
-1168.932364042694
 30
0.0
 11
-1682.253607914849
 21
-1168.932364042695
 31
0.0
  0
LINE
  5
9F
330
1F
100
AcDbEntity
  8
2D
100
AcDbLine
 10
-1682.253607914849
 20
-1168.932364042695
 30
0.0
 11
-1439.098363926165
 21
-1168.932364136595
 31
0.0
  0
SPLINE
  5
A0
330
1F
100
AcDbEntity
  8
2D
100
AcDbSpline
210
0.0
220
0.0
230
1.0
 70
     8
 71
     3
 72
     8
 73
     4
 74
     0
 42
0.0000000001
 43
0.0000000001
 40
0.0
 40
0.0
 40
0.0
 40
0.0
 40
0.7876168655535962
 40
0.7876168655535962
 40
0.7876168655535962
 40
0.7876168655535962
 10
-1439.098363926165
 20
-1168.932364136595
 30
0.0
 10
-1438.835824961017
 20
-1168.932364332566
 30
0.0
 10
-1438.573283749309
 20
-1168.931276193591
 30
0.0
 10
-1438.310753815411
 20
-1168.92909977576
 30
0.0
  0
SPLINE
  5
A1
330
1F
100
AcDbEntity
  8
2D
100
AcDbSpline
210
0.0
220
0.0
230
1.0
 70
    12
 71
     3
 72
     8
 73
     4
 74
     0
 42
0.0000000001
 43
0.0000000001
 40
-103.3063954314659
 40
-103.3063954314659
 40
-103.3063954314659
 40
-103.3063954314659
 40
0.0
 40
0.0
 40
0.0
 40
0.0
 10
-1438.31075381541
 20
-1168.92909977576
 30
0.0
 41
0.999999999999987
 10
-1402.564953976618
 20
-1168.632734325632
 30
-0.0000000000000011
 41
0.8861749483514932
 10
-1371.509052727386
 20
-1150.066697288943
 30
-0.0000000000000127
 41
0.8654606304479175
 10
-1354.703523535539
 20
-1117.550155059831
 30
0.0
 41
0.9378570462892603
  0
SPLINE
  5
A2
330
1F
100
AcDbEntity
  8
2D
100
AcDbSpline
210
0.0
220
0.0
230
1.0
 70
     8
 71
     3
 72
     8
 73
     4
 74
     0
 42
0.0000000001
 43
0.0000000001
 40
0.0
 40
0.0
 40
0.0
 40
0.0
 40
3.856059846690358
 40
3.856059846690358
 40
3.856059846690358
 40
3.856059846690358
 10
-1354.70352353554
 20
-1117.550155059831
 30
0.0
 10
-1354.113373271874
 20
-1116.408290037231
 30
0.0
 10
-1353.546285263001
 20
-1115.254207864247
 30
0.0
 10
-1353.00295998422
 20
-1114.089334075584
 30
0.0
  0
SPLINE
  5
A3
330
1F
100
AcDbEntity
  8
2D
100
AcDbSpline
210
0.0
220
0.0
230
1.0
 70
    12
 71
     3
 72
    21
 73
    17
 74
     0
 42
0.0000000001
 43
0.0000000001
 40
-18.62663024147582
 40
-18.62663024147582
 40
-18.62663024147582
 40
-18.62663024147582
 40
0.0
 40
0.0
 40
0.0
 40
315.7469746900991
 40
315.7469746900991
 40
315.7469746900991
 40
330.6266500484782
 40
330.6266500484782
 40
338.0675022302016
 40
338.0675022302016
 40
340.3336286956163
 40
340.3336286956163
 40
340.3336286956163
 40
342.3161364061142
 40
342.3161364061142
 40
342.3161364061142
 40
342.3161364061142
 10
-1353.002959984221
 20
-1114.089334075584
 30
0.0
 41
0.946568510968095
 10
-1350.322587035939
 20
-1108.342691448204
 30
0.0000000000000066
 41
0.961878383288938
 10
-1348.2544713135
 20
-1102.411700904247
 30
-0.0000000000000007
 41
0.9806399867087154
 10
-1346.78560485142
 20
-1096.367950639888
 30
0.0
 41
1.002853321227427
 10
-1321.929570303682
 20
-994.096117901508
 30
0.0
 41
1.002853321227427
 10
-1297.073535755944
 20
-891.8242851631348
 30
0.0
 41
1.002853321227427
 10
-1272.217501208209
 20
-789.552452424754
 30
0.0
 41
1.002853321227427
 10
-1271.211530311625
 20
-785.4132873887846
 30
0.0
 41
1.002853321227427
 10
-1270.222120629089
 20
-781.2703379157931
 30
0.0
 41
1.002853321227427
 10
-1268.775482851439
 20
-775.0464316546963
 30
0.0
 41
1.002853321227427
 10
-1268.299463435839
 20
-772.9702573371658
 30
0.0
 41
1.002853321227427
 10
-1267.696578397001
 20
-770.2575414804613
 30
0.0
 41
1.002853321227427
 10
-1266.587705886799
 20
-765.2982110657399
 30
0.0
 41
1.002853321227427
 10
-1266.587719822641
 20
-764.6249678789322
 30
0.0
 41
1.002853321227427
 10
-1266.587683060236
 20
-763.9641319764555
 30
0.0
 41
1.002853321227427
 10
-1266.587642699341
 20
-763.3033294482495
 30
0.0
 41
1.002853321227427
 10
-1266.587601703789
 20
-762.6424935455035
 30
0.0
 41
1.002853321227427
  0
SPLINE
  5
A4
330
1F
100
AcDbEntity
  8
2D
100
AcDbSpline
210
0.0
220
0.0
230
1.0
 70
     8
 71
     3
 72
     8
 73
     4
 74
     0
 42
0.0000000001
 43
0.0000000001
 40
0.0
 40
0.0
 40
0.0
 40
0.0
 40
14.45092956343572
 40
14.45092956343572
 40
14.45092956343572
 40
14.45092956343572
 10
-1266.587601703792
 20
-762.6424935455035
 30
0.0
 10
-1266.587433939396
 20
-757.8255170267336
 30
0.0
 10
-1266.58726264627
 20
-753.0085405086259
 30
0.0
 10
-1266.587094546736
 20
-748.1915639765202
 30
0.0
  0
SPLINE
  5
A5
330
1F
100
AcDbEntity
  8
2D
100
AcDbSpline
210
0.0
220
0.0
230
1.0
 70
     8
 71
     3
 72
     8
 73
     4
 74
     0
 42
0.0000000001
 43
0.0000000001
 40
0.0
 40
0.0
 40
0.0
 40
0.0
 40
0.4884861954249882
 40
0.4884861954249882
 40
0.4884861954249882
 40
0.4884861954249882
 10
-1266.587094546736
 20
-748.1915639765202
 30
0.0
 10
-1266.587145051857
 20
-748.0287352386512
 30
0.0
 10
-1266.587195949494
 20
-747.8659065147954
 30
0.0
 10
-1266.587247239662
 20
-747.703077791065
 30
0.0
  0
LINE
  5
A6
330
1F
100
AcDbEntity
  8
2D
100
AcDbLine
 10
-1266.587247239662
 20
-747.703077791065
 30
0.0
 11
-1266.587665330997
 21
-742.395695791345
 31
0.0
  0
SPLINE
  5
A7
330
1F
100
AcDbEntity
  8
2D
100
AcDbSpline
210
0.0
220
0.0
230
1.0
 70
     8
 71
     3
 72
     8
 73
     4
 74
     0
 42
0.0000000001
 43
0.0000000001
 40
0.0
 40
0.0
 40
0.0
 40
0.0
 40
5.95624451969455
 40
5.95624451969455
 40
5.95624451969455
 40
5.95624451969455
 10
-1266.587665330997
 20
-742.395695791345
 30
0.0
 10
-1266.587637194643
 20
-740.4102809516463
 30
0.0
 10
-1266.587614616707
 20
-738.4248661118909
 30
0.0
 10
-1266.587594344634
 20
-736.4394512720905
 30
0.0
  0
LINE
  5
A8
330
1F
100
AcDbEntity
  8
2D
100
AcDbLine
 10
-1266.587594344634
 20
-736.4394512720905
 30
0.0
 11
-1266.587596827147
 21
-730.2645212054261
 31
0.0
  0
LINE
  5
A9
330
1F
100
AcDbEntity
  8
2D
100
AcDbLine
 10
-1266.587596827147
 20
-730.2645212054261
 30
0.0
 11
-1266.587597471247
 21
-728.9967618439246
 31
0.0
  0
LINE
  5
AA
330
1F
100
AcDbEntity
  8
2D
100
AcDbLine
 10
-1266.587597471247
 20
-728.9967618439246
 30
0.0
 11
-1266.587727647115
 21
-724.9475577088947
 31
0.0
  0
LINE
  5
AB
330
1F
100
AcDbEntity
  8
2D
100
AcDbLine
 10
-1266.587727647115
 20
-724.9475577088947
 30
0.0
 11
-1266.587612782874
 21
-444.8151521045861
 31
0.0
  0
LINE
  5
AC
330
1F
100
AcDbEntity
  8
2D
100
AcDbLine
 10
-1323.188210587799
 20
396.7271789152064
 30
0.0
 11
-1323.286900160983
 21
389.9650991908375
 31
0.0
  0
LINE
  5
AD
330
1F
100
AcDbEntity
  8
2D
100
AcDbLine
 10
-2049.464964972536
 20
811.1173814051699
 30
0.0
 11
-2051.838689503518
 21
972.4900501808252
 31
0.0
  0
SPLINE
  5
AE
330
1F
100
AcDbEntity
  8
2D
100
AcDbSpline
210
0.0
220
0.0
230
1.0
 70
    12
 71
     3
 72
    28
 73
    24
 74
     0
 42
0.0000000001
 43
0.0000000001
 40
-643.4185693885493
 40
-643.4185693885493
 40
-643.4185693885493
 40
-643.4185693885493
 40
-627.5196079840383
 40
-627.5196079840383
 40
-619.0030848216403
 40
-619.0030848216403
 40
-610.1755188635287
 40
-610.1755188635287
 40
-610.1755188635287
 40
-371.6717646630258
 40
-371.6717646630258
 40
-371.6717646630258
 40
-271.7407116444616
 40
-271.7407116444616
 40
-271.7407116444616
 40
-33.2372392087752
 40
-33.2372392087752
 40
-33.2372392087752
 40
-17.53706326701555
 40
-17.53706326701555
 40
-0.7200443612104458
 40
-0.7200443612104458
 40
0.0
 40
0.0
 40
0.0
 40
0.0
 10
-2051.838689503518
 20
972.4900501808252
 30
0.0
 41
1.0
 10
-2047.632483549267
 20
975.5871749551652
 30
0.0
 41
1.0
 10
-2042.927513923791
 20
978.0299902156466
 30
0.0
 41
1.0
 10
-2035.223402884159
 20
980.6346221646882
 30
0.0
 41
1.0
 10
-2032.503793205105
 20
981.3162493623049
 30
0.0
 41
1.0
 10
-2026.781052085873
 20
982.2689561687976
 30
0.0
 41
1.0
 10
-2023.879048145023
 20
982.5084098678662
 30
0.0
 41
1.0
 10
-2020.921775117436
 20
982.5059516820465
 30
0.0
 41
1.0
 10
-1941.365719383921
 20
982.505321632837
 30
0.0
 41
1.0
 10
-1861.809663651133
 20
982.5050066140675
 30
0.0
 41
1.0
 10
-1782.253607914849
 20
982.5050066153553
 30
0.0
 41
1.0
 10
-1748.920274581513
 20
982.5050066153553
 30
0.0
 41
1.0
 10
-1715.586941248181
 20
982.5050066153553
 30
0.0
 41
1.0
 10
-1682.253607914849
 20
982.5050066153553
 30
0.0
 41
1.0
 10
-1602.697552178568
 20
982.5050066140566
 30
0.0
 41
1.0
 10
-1523.14149644578
 20
982.5053216328479
 30
0.0
 41
1.0
 10
-1443.585440712261
 20
982.5059516820465
 30
0.0
 41
1.0
 10
-1438.334136166312
 20
982.5096921166178
 30
0.0
 41
1.0
 10
-1433.125669965881
 20
981.7383341458581
 30
0.0
 41
1.0
 10
-1422.769119191838
 20
978.587828138966
 30
0.0
 41
1.0
 10
-1417.73458585453
 20
976.1165257772582
 30
0.0
 41
1.0
 10
-1413.049245147671
 20
972.7683733198674
 30
0.0
 41
1.0
 10
-1412.858192160504
 20
972.6298254852254
 30
0.0
 41
1.0
 10
-1412.668432143033
 20
972.490175853417
 30
0.0
 41
1.0
  0
LINE
  5
AF
330
1F
100
AcDbEntity
  8
2D
100
AcDbLine
 10
-1412.668432143033
 20
972.490175853417
 30
0.0
 11
-1415.055548295102
 21
811.1245014246188
 31
0.0
  0
LINE
  5
B0
330
1F
100
AcDbEntity
  8
2D
100
AcDbLine
 10
-1415.042250857165
 20
-885.1379552781877
 30
0.0
 11
-1412.668526326182
 21
-1046.510624053843
 31
0.0
  0
SPLINE
  5
B1
330
1F
100
AcDbEntity
  8
2D
100
AcDbSpline
210
0.0
220
0.0
230
1.0
 70
    12
 71
     3
 72
    28
 73
    24
 74
     0
 42
0.0000000001
 43
0.0000000001
 40
-643.418569388508
 40
-643.418569388508
 40
-643.418569388508
 40
-643.418569388508
 40
-627.5196079839981
 40
-627.5196079839981
 40
-619.0030848216006
 40
-619.0030848216006
 40
-610.1755188634896
 40
-610.1755188634896
 40
-610.1755188634896
 40
-371.671764663002
 40
-371.671764663002
 40
-371.671764663002
 40
-271.7407116444442
 40
-271.7407116444442
 40
-271.7407116444442
 40
-33.23723920877307
 40
-33.23723920877307
 40
-33.23723920877307
 40
-17.53706326701443
 40
-17.53706326701443
 40
-0.7200443612103996
 40
-0.7200443612103996
 40
0.0
 40
0.0
 40
0.0
 40
0.0
 10
-1412.668526326182
 20
-1046.510624053843
 30
0.0
 41
1.0
 10
-1416.874732280434
 20
-1049.607748828184
 30
0.0
 41
1.0
 10
-1421.57970190591
 20
-1052.050564088665
 30
0.0
 41
1.0
 10
-1429.283812945541
 20
-1054.655196037706
 30
0.0
 41
1.0
 10
-1432.003422624592
 20
-1055.336823235323
 30
0.0
 41
1.0
 10
-1437.726163743828
 20
-1056.289530041816
 30
0.0
 41
1.0
 10
-1440.628167684677
 20
-1056.528983740885
 30
0.0
 41
1.0
 10
-1443.585440712261
 20
-1056.526525555065
 30
0.0
 41
1.0
 10
-1523.14149644578
 20
-1056.525895505855
 30
0.0
 41
1.0
 10
-1602.697552178564
 20
-1056.525580487086
 30
0.0
 41
1.0
 10
-1682.253607914849
 20
-1056.525580488374
 30
0.0
 41
1.0
 10
-1715.586941248184
 20
-1056.525580488374
 30
0.0
 41
1.0
 10
-1748.92027458152
 20
-1056.525580488374
 30
0.0
 41
1.0
 10
-1782.253607914849
 20
-1056.525580488374
 30
0.0
 41
1.0
 10
-1861.809663651133
 20
-1056.525580487075
 30
0.0
 41
1.0
 10
-1941.365719383917
 20
-1056.525895505866
 30
0.0
 41
1.0
 10
-2020.921775117436
 20
-1056.526525555065
 30
0.0
 41
1.0
 10
-2026.173079663386
 20
-1056.530265989636
 30
0.0
 41
1.0
 10
-2031.38154586382
 20
-1055.758908018876
 30
0.0
 41
1.0
 10
-2041.738096637862
 20
-1052.608402011984
 30
0.0
 41
1.0
 10
-2046.772629975167
 20
-1050.137099650276
 30
0.0
 41
1.0
 10
-2051.45797068203
 20
-1046.788947192886
 30
0.0
 41
1.0
 10
-2051.649023669197
 20
-1046.650399358244
 30
0.0
 41
1.0
 10
-2051.838783686668
 20
-1046.510749726435
 30
0.0
 41
1.0
  0
LINE
  5
B2
330
1F
100
AcDbEntity
  8
2D
100
AcDbLine
 10
-2051.838783686668
 20
-1046.510749726435
 30
0.0
 11
-2049.451667534595
 21
-885.145075297637
 31
0.0
  0
SPLINE
  5
B3
330
1F
100
AcDbEntity
  8
2D
100
AcDbSpline
210
0.0
220
0.0
230
1.0
 70
    12
 71
     3
 72
   100
 73
    96
 74
     0
 42
0.0000000001
 43
0.0000000001
 40
-1356.759381182944
 40
-1356.759381182944
 40
-1356.759381182944
 40
-1356.759381182944
 40
-1356.261749399707
 40
-1356.261749399707
 40
-1354.882788488717
 40
-1354.882788488717
 40
-1352.124866666738
 40
-1352.124866666738
 40
-1341.093179378822
 40
-1341.093179378822
 40
-1319.02980480299
 40
-1319.02980480299
 40
-1296.966430227158
 40
-1296.966430227158
 40
-1285.934742939241
 40
-1285.934742939241
 40
-1274.903055651325
 40
-1274.903055651325
 40
-1252.839681075493
 40
-1252.839681075493
 40
-1230.776306499661
 40
-1208.712931923829
 40
-1186.649557347996
 40
-1156.074412715286
 40
-1156.074412715286
 40
-1142.91478291315
 40
-1142.91478291315
 40
-1139.624875462616
 40
-1139.624875462616
 40
-1138.942004046187
 40
-1138.942004046187
 40
-1138.942004046187
 40
-1135.880051552132
 40
-1132.812840090567
 40
-1129.741714534338
 40
-1126.668031748116
 40
-1123.593156725887
 40
-1120.51845866738
 40
-1117.445307022466
 40
-1114.375067532994
 40
-1111.309098301486
 40
-1111.309098301486
 40
-1111.309098301486
 40
-1017.343146455218
 40
-1017.343146455218
 40
-1017.343146455218
 40
-1013.06099183822
 40
-1008.544073946586
 40
-1003.84313076533
 40
-999.0244250316432
 40
-994.1651480660903
 40
-989.34644093585
 40
-984.6454952276426
 40
-980.128574120651
 40
-975.8464160847059
 40
-975.8464160847059
 40
-975.8464160847059
 40
-660.2644258124374
 40
-660.2644258124374
 40
-660.2644258124374
 40
-622.3737982876049
 40
-622.3737982876049
 40
-622.3737982876049
 40
-516.5682078564906
 40
-516.5682078564906
 40
-516.5682078564906
 40
-478.6775803316576
 40
-478.6775803316576
 40
-478.6775803316576
 40
-163.0955900593896
 40
-163.0955900593896
 40
-163.0955900593896
 40
-158.8134320234441
 40
-154.296510916453
 40
-149.5955652082453
 40
-144.7768580780053
 40
-139.9175811124519
 40
-135.0988753787655
 40
-130.3979321975083
 40
-125.8810143058751
 40
-121.5988596888775
 40
-121.5988596888775
 40
-121.5988596888775
 40
-27.63290784260928
 40
-27.63290784260928
 40
-27.63290784260928
 40
-24.56693861110219
 40
-21.49669912162953
 40
-18.42354747671575
 40
-15.34884941820825
 40
-12.2739743959792
 40
-9.200291609757606
 40
-6.129166053528404
 40
-3.061954591962436
 40
0.0
 40
0.0
 40
0.0
 40
0.0
 10
-2069.759961020463
 20
784.8332956626064
 30
0.0
 41
1.0
 10
-2069.812642942896
 20
784.6249933843455
 30
0.0
 41
1.0
 10
-2069.864621915047
 20
784.4165322924773
 30
0.0
 41
1.0
 10
-2070.061306787396
 20
783.6306719782979
 30
0.0
 41
1.0
 10
-2070.206476935175
 20
783.051613805018
 30
0.0
 41
1.0
 10
-2070.640595640405
 20
781.3188234704567
 30
0.0
 41
1.0
 10
-2070.929778214228
 20
780.1646664267055
 30
0.0
 41
1.0
 10
-2072.377393695064
 20
774.3868819085756
 30
0.0
 41
1.0
 10
-2073.534962671984
 20
769.7667988874373
 30
0.0
 41
1.0
 10
-2077.008547936814
 20
755.9031106106077
 30
0.0
 41
1.0
 10
-2079.324361442112
 20
746.6603848107361
 30
0.0
 41
1.0
 10
-2083.955427707882
 20
728.1773406246384
 30
0.0
 41
1.0
 10
-2086.271020575408
 20
718.9356653246969
 30
0.0
 41
1.0
 10
-2089.744315185966
 20
705.0739185382363
 30
0.0
 41
1.0
 10
-2090.902067457369
 20
700.4534512559176
 30
0.0
 41
1.0
 10
-2093.217453100235
 20
691.2132246874271
 30
0.0
 41
1.0
 10
-2094.375722555029
 20
686.5908643486755
 30
0.0
 41
1.0
 10
-2097.848592417631
 20
672.7320693969768
 30
0.0
 41
1.0
 10
-2100.164653944903
 20
663.490289778757
 30
0.0
 41
1.0
 10
-2104.797298613408
 20
645.0063464027871
 30
0.0
 41
1.0
 10
-2109.422716155888
 20
626.5526286930062
 30
0.0
 41
1.0
 10
-2116.396578307704
 20
598.7362842046377
 30
0.0
 41
1.0
 10
-2124.143144865568
 20
567.8415179342364
 30
0.0
 41
1.0
 10
-2129.626396675441
 20
545.9724884465677
 30
0.0
 41
1.0
 10
-2134.174834525118
 20
527.8324105478378
 30
0.0
 41
1.0
 10
-2135.543798417792
 20
522.3717335780375
 30
0.0
 41
1.0
 10
-2137.255403377763
 20
515.5473459791565
 30
0.0
 41
1.0
 10
-2137.596141753271
 20
514.1824821111359
 30
0.0
 41
1.0
 10
-2138.012696398204
 20
512.5339385373763
 30
0.0
 41
1.0
 10
-2138.083698294467
 20
512.250510198438
 30
0.0
 41
1.0
 10
-2138.153932867477
 20
511.9669541919857
 30
0.0
 41
1.0
 10
-2138.387701499407
 20
511.0346219927878
 30
0.0
 41
1.0
 10
-2138.830151321417
 20
509.1619081437084
 30
0.0
 41
1.0
 10
-2139.417222354641
 20
506.3339501754554
 30
0.0
 41
1.0
 10
-2139.927430134827
 20
503.4874691751857
 30
0.0
 41
1.0
 10
-2140.35999653396
 20
500.6258302173364
 30
0.0
 41
1.0
 10
-2140.714334875222
 20
497.7524055465574
 30
0.0
 41
1.0
 10
-2140.990041479614
 20
494.8706083921779
 30
0.0
 41
1.0
 10
-2141.186900078275
 20
491.9838556787972
 30
0.0
 41
1.0
 10
-2141.304881369477
 20
489.0956024736361
 30
0.0
 41
1.0
 10
-2141.331077503928
 20
487.1696858507157
 30
0.0
 41
1.0
 10
-2141.331077503928
 20
486.2074486379452
 30
0.0
 41
1.0
 10
-2141.331077503932
 20
456.7167627334265
 30
0.0
 41
1.0
 10
-2141.331077503932
 20
427.2260768289079
 30
0.0
 41
1.0
 10
-2141.331077503928
 20
397.7353909243857
 30
0.0
 41
1.0
 10
-2141.331077503928
 20
396.3914607632678
 30
0.0
 41
1.0
 10
-2141.105750517047
 20
393.6248431750164
 30
0.0
 41
1.0
 10
-2140.058593227164
 20
389.497869771777
 30
0.0
 41
1.0
 10
-2138.23775142619
 20
385.4575032483872
 30
0.0
 41
1.0
 10
-2135.657438339709
 20
381.717935927586
 30
0.0
 41
1.0
 10
-2132.409708841042
 20
378.4825677274157
 30
0.0
 41
1.0
 10
-2128.655853966397
 20
375.9120757468254
 30
0.0
 41
1.0
 10
-2124.600050748755
 20
374.0981644180856
 30
0.0
 41
1.0
 10
-2120.457309808342
 20
373.0549928178252
 30
0.0
 41
1.0
 10
-2117.680122112266
 20
372.8305234723075
 30
0.0
 41
1.0
 10
-2116.331057279145
 20
372.8305234723075
 30
0.0
 41
1.0
 10
-2016.909092590129
 20
372.8305234723075
 30
0.0
 41
1.0
 10
-1917.487127901117
 20
372.8305234723075
 30
0.0
 41
1.0
 10
-1818.065163212108
 20
372.8305234723075
 30
0.0
 41
1.0
 10
-1806.127978113022
 20
372.8305234723075
 30
0.0
 41
1.0
 10
-1794.190793013931
 20
372.8305234723075
 30
0.0
 41
1.0
 10
-1782.253607914849
 20
372.8305234723075
 30
0.0
 41
1.0
 10
-1748.920274581513
 20
372.8305234723075
 30
0.0
 41
1.0
 10
-1715.586941248181
 20
372.8305234723075
 30
0.0
 41
1.0
 10
-1682.253607914849
 20
372.8305234723075
 30
0.0
 41
1.0
 10
-1670.316422815758
 20
372.8305234723075
 30
0.0
 41
1.0
 10
-1658.379237716676
 20
372.8305234723075
 30
0.0
 41
1.0
 10
-1646.442052617589
 20
372.8305234723075
 30
0.0
 41
1.0
 10
-1547.020087928577
 20
372.8305234723075
 30
0.0
 41
1.0
 10
-1447.598123239561
 20
372.8305234723075
 30
0.0
 41
1.0
 10
-1348.176158550552
 20
372.8305234723075
 30
0.0
 41
1.0
 10
-1346.827093717431
 20
372.8305234723075
 30
0.0
 41
1.0
 10
-1344.049906021355
 20
373.0549928178252
 30
0.0
 41
1.0
 10
-1339.907165080942
 20
374.0981644180856
 30
0.0
 41
1.0
 10
-1335.851361863301
 20
375.9120757468254
 30
0.0
 41
1.0
 10
-1332.097506988655
 20
378.4825677274157
 30
0.0
 41
1.0
 10
-1328.849777489988
 20
381.717935927586
 30
0.0
 41
1.0
 10
-1326.269464403507
 20
385.4575032483872
 30
0.0
 41
1.0
 10
-1324.448622602533
 20
389.497869771777
 30
0.0
 41
1.0
 10
-1323.401465312651
 20
393.6248431750164
 30
0.0
 41
1.0
 10
-1323.176138325769
 20
396.3914607632678
 30
0.0
 41
1.0
 10
-1323.176138325769
 20
397.7353909243857
 30
0.0
 41
1.0
 10
-1323.176138325773
 20
427.2260768289079
 30
0.0
 41
1.0
 10
-1323.176138325773
 20
456.7167627334265
 30
0.0
 41
1.0
 10
-1323.176138325769
 20
486.2074486379452
 30
0.0
 41
1.0
 10
-1323.176138325769
 20
487.1696858507157
 30
0.0
 41
1.0
 10
-1323.20233446022
 20
489.0956024736361
 30
0.0
 41
1.0
 10
-1323.320315751422
 20
491.9838556787972
 30
0.0
 41
1.0
 10
-1323.517174350083
 20
494.8706083921779
 30
0.0
 41
1.0
 10
-1323.792880954476
 20
497.7524055465574
 30
0.0
 41
1.0
 10
-1324.147219295737
 20
500.6258302173364
 30
0.0
 41
1.0
 10
-1324.57978569487
 20
503.4874691751857
 30
0.0
 41
1.0
 10
-1325.089993475056
 20
506.3339501754554
 30
0.0
 41
1.0
 10
-1325.677064642146
 20
509.1619087885583
 30
0.0
 41
1.0
 10
-1326.119514633177
 20
511.0346232747861
 30
0.0
 41
1.0
 10
-1326.353283442717
 20
511.9669561083565
 30
0.0
 41
1.0
  0
SPLINE
  5
B4
330
1F
100
AcDbEntity
  8
2D
100
AcDbSpline
210
0.0
220
0.0
230
1.0
 70
     8
 71
     3
 72
     8
 73
     4
 74
     0
 42
0.0000000001
 43
0.0000000001
 40
0.0
 40
0.0
 40
0.0
 40
0.0
 40
0.8765770791237546
 40
0.8765770791237546
 40
0.8765770791237546
 40
0.8765770791237546
 10
-1326.35328360954
 20
511.9669568053973
 30
0.0
 10
-1326.423563552733
 20
512.2505711644417
 30
0.0
 10
-1326.494509424123
 20
512.5340214247097
 30
0.0
 10
-1326.566120008803
 20
512.8173027323055
 30
0.0
  0
SPLINE
  5
B5
330
1F
100
AcDbEntity
  8
2D
100
AcDbSpline
210
0.0
220
0.0
230
1.0
 70
    12
 71
     3
 72
    13
 73
     9
 74
     0
 42
0.0000000001
 43
0.0000000001
 40
-88.78533498606728
 40
-88.78533498606728
 40
-88.78533498606728
 40
-88.78533498606728
 40
-84.55746189181757
 40
-84.55746189181757
 40
-67.64596951481839
 40
-67.64596951481839
 40
-28.35373005548232
 40
0.0
 40
0.0
 40
0.0
 40
0.0
 10
-1326.566120008803
 20
512.8173027323055
 30
0.0
 41
1.0
 10
-1326.911074076426
 20
514.1824821111359
 30
0.0
 41
1.0
 10
-1327.251812451934
 20
515.5473459791565
 30
0.0
 41
1.0
 10
-1328.963417411906
 20
522.3717335780375
 30
0.0
 41
1.0
 10
-1330.332381304579
 20
527.8324105478378
 30
0.0
 41
1.0
 10
-1334.880819154256
 20
545.9724884465677
 30
0.0
 41
1.0
 10
-1340.364070964682
 20
567.8415179364483
 30
0.0
 41
1.0
 10
-1345.822671435701
 20
589.6114445814774
 30
0.0
 41
1.0
 10
-1348.128964838623
 20
598.8099218122361
 30
0.0
 41
1.0
  0
SPLINE
  5
B6
330
1F
100
AcDbEntity
  8
2D
100
AcDbSpline
210
0.0
220
0.0
230
1.0
 70
     8
 71
     3
 72
     8
 73
     4
 74
     0
 42
0.0000000001
 43
0.0000000001
 40
-28.57795339456808
 40
-28.57795339456808
 40
-28.57795339456808
 40
-28.57795339456808
 40
0.0
 40
0.0
 40
0.0
 40
0.0
 10
-1348.128964838623
 20
598.8099218122361
 30
0.0
 10
-1350.445687321164
 20
608.0498989206249
 30
0.0
 10
-1352.762213609607
 20
617.2899252226393
 30
0.0
 10
-1355.078543700791
 20
626.5300007057367
 30
0.0
  0
SPLINE
  5
B7
330
1F
100
AcDbEntity
  8
2D
100
AcDbSpline
210
0.0
220
0.0
230
1.0
 70
     8
 71
     3
 72
     8
 73
     4
 74
     0
 42
0.0000000001
 43
0.0000000001
 40
-57.14782754056625
 40
-57.14782754056625
 40
-57.14782754056625
 40
-57.14782754056625
 40
0.0
 40
0.0
 40
0.0
 40
0.0
 10
-1355.078543700791
 20
626.5300007057367
 30
0.0
 10
-1359.711169188282
 20
645.0102094540377
 30
0.0
 10
-1364.342822776223
 20
663.4906617341537
 30
0.0
 10
-1368.973869989852
 20
681.9712660420364
 30
0.0
  0
SPLINE
  5
B8
330
1F
100
AcDbEntity
  8
2D
100
AcDbSpline
210
0.0
220
0.0
230
1.0
 70
     8
 71
     3
 72
     8
 73
     4
 74
     0
 42
0.0000000001
 43
0.0000000001
 40
-106.0418054483145
 40
-106.0418054483145
 40
-106.0418054483145
 40
-106.0418054483145
 40
0.0
 40
0.0
 40
0.0
 40
0.0
 10
-1368.973869989852
 20
681.9712660420364
 30
0.0
 10
-1377.565465563483
 20
716.258492157491
 30
0.0
 10
-1386.156593838154
 20
750.5458353706194
 30
0.0
 10
-1394.747254809146
 20
784.8332956626064
 30
0.0
  0
SPLINE
  5
B9
330
1F
100
AcDbEntity
  8
2D
100
AcDbSpline
210
0.0
220
0.0
230
1.0
 70
    12
 71
     3
 72
    25
 73
    21
 74
     0
 42
0.0000000001
 43
0.0000000001
 40
-266.3563346980241
 40
-266.3563346980241
 40
-266.3563346980241
 40
-266.3563346980241
 40
-265.4753753889967
 40
-265.4753753889967
 40
-259.9618462745325
 40
-259.9618462745325
 40
-254.4483171600672
 40
-254.4483171600672
 40
-248.9347880456031
 40
-248.9347880456031
 40
-237.9077298166745
 40
-237.9077298166745
 40
-226.880671587745
 40
-226.880671587745
 40
-225.5022893091289
 40
-225.5022893091289
 40
-225.2060576125032
 40
-225.2060576125032
 40
-225.2060576125032
 40
0.0
 40
0.0
 40
0.0
 40
0.0
 10
-1394.747254809146
 20
784.8332956626064
 30
0.0
 41
1.0
 10
-1394.840558254888
 20
785.2019355111979
 30
0.0
 41
1.0
 10
-1394.936066584916
 20
785.5700759611964
 30
0.0
 41
1.0
 10
-1395.680828479457
 20
788.2294546791263
 30
0.0
 41
1.0
 10
-1396.51442202933
 20
790.467312782278
 30
0.0
 41
1.0
 10
-1398.555002391793
 20
794.7734599332862
 30
0.0
 41
1.0
 10
-1399.758720002425
 20
796.8373405330158
 30
0.0
 41
1.0
 10
-1402.507770793236
 20
800.732324852047
 30
0.0
 41
1.0
 10
-1404.052332314168
 20
802.5598260537472
 30
0.0
 41
1.0
 10
-1409.130618103387
 20
807.5990970307457
 30
0.0
 41
1.0
 10
-1413.120367283263
 20
810.355708959195
 30
0.0
 41
1.0
 10
-1421.832398162453
 20
814.2749531263462
 30
0.0
 41
1.0
 10
-1426.552259064538
 20
815.4344382664376
 30
0.0
 41
1.0
 10
-1431.924111844244
 20
815.7293058361965
 30
0.0
 41
1.0
 10
-1432.520394840463
 20
815.7495797360052
 30
0.0
 41
1.0
 10
-1433.2469088256
 20
815.7547940402355
 30
0.0
 41
1.0
 10
-1433.375366573895
 20
815.7553863872263
 30
0.0
 41
1.0
 10
-1433.503784659937
 20
815.7557481674476
 30
0.0
 41
1.0
 10
-1504.483209015492
 20
815.7831954734056
 30
0.0
 41
1.0
 10
-1575.462633371051
 20
815.8106427793564
 30
0.0
 41
1.0
 10
-1646.442057726614
 20
815.8380900853072
 30
0.0
 41
1.0
  0
LINE
  5
BA
330
1F
100
AcDbEntity
  8
2D
100
AcDbLine
 10
-1646.442057726614
 20
815.8380900853072
 30
0.0
 11
-1682.253607914849
 21
815.8380900853072
 31
0.0
  0
LINE
  5
BB
330
1F
100
AcDbEntity
  8
2D
100
AcDbLine
 10
-1682.253607914849
 20
815.8380900853072
 30
0.0
 11
-1782.253607914849
 21
815.8380900853072
 31
0.0
  0
LINE
  5
BC
330
1F
100
AcDbEntity
  8
2D
100
AcDbLine
 10
-1782.253607914849
 20
815.8380900853072
 30
0.0
 11
-1818.065158103087
 21
815.8380900853072
 31
0.0
  0
SPLINE
  5
BD
330
1F
100
AcDbEntity
  8
2D
100
AcDbSpline
210
0.0
220
0.0
230
1.0
 70
    12
 71
     3
 72
    25
 73
    21
 74
     0
 42
0.0000000001
 43
0.0000000001
 40
-266.3611888743019
 40
-266.3611888743019
 40
-266.3611888743019
 40
-266.3611888743019
 40
-41.15102702337818
 40
-41.15102702337818
 40
-41.15102702337818
 40
-40.85478992811672
 40
-40.85478992811672
 40
-39.47638252935261
 40
-39.47638252935261
 40
-28.44912333923918
 40
-28.44912333923918
 40
-17.42186414912586
 40
-17.42186414912586
 40
-11.90823455406925
 40
-11.90823455406925
 40
-6.394604959012552
 40
-6.394604959012552
 40
-0.880975363955821
 40
-0.880975363955821
 40
0.0
 40
0.0
 40
0.0
 40
0.0
 10
-1818.065158103087
 20
815.8380900853072
 30
0.0
 41
1.0
 10
-1889.044582458646
 20
815.8106427793564
 30
0.0
 41
1.0
 10
-1960.024006814205
 20
815.7831954734056
 30
0.0
 41
1.0
 10
-2031.00343116976
 20
815.7557481674476
 30
0.0
 41
1.0
 10
-2031.131849255802
 20
815.7553863872263
 30
0.0
 41
1.0
 10
-2031.260307004097
 20
815.7547940402355
 30
0.0
 41
1.0
 10
-2031.986820989234
 20
815.7495797360052
 30
0.0
 41
1.0
 10
-2032.583103985453
 20
815.7293058361965
 30
0.0
 41
1.0
 10
-2037.954956765159
 20
815.4344382664376
 30
0.0
 41
1.0
 10
-2042.674817667244
 20
814.2749531263462
 30
0.0
 41
1.0
 10
-2051.386848546434
 20
810.355708959195
 30
0.0
 41
1.0
 10
-2055.37659772631
 20
807.5990970307457
 30
0.0
 41
1.0
 10
-2060.454883515529
 20
802.5598260537472
 30
0.0
 41
1.0
 10
-2061.999445036461
 20
800.732324852047
 30
0.0
 41
1.0
 10
-2064.748495827273
 20
796.8373405330158
 30
0.0
 41
1.0
 10
-2065.952213437904
 20
794.7734599332862
 30
0.0
 41
1.0
 10
-2067.992793800368
 20
790.467312782278
 30
0.0
 41
1.0
 10
-2068.82638735024
 20
788.2294546791263
 30
0.0
 41
1.0
 10
-2069.571149244781
 20
785.5700759611964
 30
0.0
 41
1.0
 10
-2069.66665757481
 20
785.2019355111979
 30
0.0
 41
1.0
 10
-2069.759961020463
 20
784.8332956626064
 30
0.0
 41
1.0
  0
SPLINE
  5
BE
330
1F
100
AcDbEntity
  8
2D
100
AcDbSpline
210
0.0
220
0.0
230
1.0
 70
    12
 71
     3
 72
    13
 73
     9
 74
     0
 42
0.0000000001
 43
0.0000000001
 40
-55.30893238526637
 40
-55.30893238526637
 40
-55.30893238526637
 40
-55.30893238526637
 40
-6.526106783977718
 40
-4.293879475997112
 40
-4.293879475997112
 40
-4.293879475997112
 40
-2.061648977740095
 40
0.0
 40
0.0
 40
0.0
 40
0.0
 10
-1312.897569191136
 20
425.1926770527848
 30
0.0
 41
1.0
 10
-1312.897360666651
 20
407.8450474911251
 30
0.0
 41
1.0
 10
-1312.895366988439
 20
389.6341544966263
 30
0.0
 41
1.0
 10
-1312.88836327233
 20
371.2272640180663
 30
0.0
 41
1.0
 10
-1312.897569622979
 20
370.7945781466578
 30
0.0
 41
1.0
 10
-1312.906771450678
 20
370.3618756089554
 30
0.0
 41
1.0
 10
-1312.942776962424
 20
370.2465400881983
 30
0.0
 41
1.0
 10
-1313.089203470718
 20
370.1826931986971
 30
0.0
 41
1.0
 10
-1313.176173376793
 20
370.2725021016565
 30
0.0
 41
1.0
  0
SPLINE
  5
BF
330
1F
100
AcDbEntity
  8
2D
100
AcDbSpline
210
0.0
220
0.0
230
1.0
 70
    12
 71
     2
 72
     6
 73
     3
 74
     0
 42
0.0000000001
 43
0.0000000001
 40
-2.822093211670549
 40
-2.822093211670549
 40
-2.822093211670549
 40
0.0
 40
0.0
 40
0.0
 10
-1313.176173376793
 20
370.2725021016565
 30
0.0
 41
1.0
 10
-1314.157664967457
 20
371.287961902667
 30
0.0000000000000001
 41
0.9989980003651711
 10
-1315.04442524894
 20
372.3871122449773
 30
0.0
 41
1.0
  0
SPLINE
  5
C0
330
1F
100
AcDbEntity
  8
2D
100
AcDbSpline
210
0.0
220
0.0
230
1.0
 70
     8
 71
     3
 72
    10
 73
     6
 74
     0
 42
0.0000000001
 43
0.0000000001
 40
-17.68001702862529
 40
-17.68001702862529
 40
-17.68001702862529
 40
-17.68001702862529
 40
-8.872539394561427
 40
-8.872539394561427
 40
0.0
 40
0.0
 40
0.0
 40
0.0
 10
-1315.04442524894
 20
372.3871122449773
 30
0.0
 10
-1316.897617595099
 20
374.6778604485247
 30
0.0
 10
-1318.453533834479
 20
377.2124099592773
 30
0.0
 10
-1321.169364693469
 20
382.4413946916908
 30
0.0
 10
-1322.329031603036
 20
385.141116443439
 30
0.0
 10
-1323.404222051875
 20
387.8911730864922
 30
0.0
  0
SPLINE
  5
C1
330
1F
100
AcDbEntity
  8
2D
100
AcDbSpline
210
0.0
220
0.0
230
1.0
 70
     8
 71
     3
 72
    12
 73
     8
 74
     0
 42
0.0000000001
 43
0.0000000001
 40
-36.75526508633534
 40
-36.75526508633534
 40
-36.75526508633534
 40
-36.75526508633534
 40
-32.17759969108796
 40
-27.5739910462449
 40
-18.47367585274277
 40
-9.214049930021632
 40
0.0
 40
0.0
 40
0.0
 40
0.0
 10
-1323.404222051875
 20
387.8911730864922
 30
0.0
 10
-1323.553378037341
 20
386.3724297556965
 30
0.0
 10
-1324.137288181388
 20
383.3553709298454
 30
0.0
 10
-1326.378294175203
 20
377.6599866281276
 30
0.0
 10
-1331.094178471594
 20
371.4679948939875
 30
0.0
 10
-1339.05591136371
 20
366.5650278075764
 30
0.0
 10
-1345.212958345925
 20
365.4209604604357
 30
0.0
 10
-1348.284278520994
 20
365.4222853387573
 30
0.0
  0
LINE
  5
C2
330
1F
100
AcDbEntity
  8
2D
100
AcDbLine
 10
-1348.284278520994
 20
365.4222853387573
 30
0.0
 11
-1646.442052617593
 21
365.4222853387573
 31
0.0
  0
LINE
  5
C3
330
1F
100
AcDbEntity
  8
2D
100
AcDbLine
 10
-1646.442052617593
 20
365.4222853387573
 30
0.0
 11
-1682.253607914849
 21
365.4222853387573
 31
0.0
  0
LINE
  5
C4
330
1F
100
AcDbEntity
  8
2D
100
AcDbLine
 10
-1682.253607914849
 20
365.4222853387573
 30
0.0
 11
-1782.253607914849
 21
365.4222853387573
 31
0.0
  0
LINE
  5
C5
330
1F
100
AcDbEntity
  8
2D
100
AcDbLine
 10
-1782.253607914849
 20
365.4222853387573
 30
0.0
 11
-1818.065163212101
 21
365.4222853387573
 31
0.0
  0
LINE
  5
C6
330
1F
100
AcDbEntity
  8
2D
100
AcDbLine
 10
-1818.065163212101
 20
365.4222853387573
 30
0.0
 11
-2116.222937308703
 21
365.4222853387573
 31
0.0
  0
SPLINE
  5
C7
330
1F
100
AcDbEntity
  8
2D
100
AcDbSpline
210
0.0
220
0.0
230
1.0
 70
     8
 71
     3
 72
    12
 73
     8
 74
     0
 42
0.0000000001
 43
0.0000000001
 40
0.0
 40
0.0
 40
0.0
 40
0.0
 40
9.214049930021021
 40
18.47367585274158
 40
27.57399104624308
 40
32.17759969108587
 40
36.7552650863317
 40
36.7552650863317
 40
36.7552650863317
 40
36.7552650863317
 10
-2116.222937308703
 20
365.4222853387573
 30
0.0
 10
-2119.294257483773
 20
365.4209604604357
 30
0.0
 10
-2125.451304465991
 20
366.5650278075764
 30
0.0
 10
-2133.413037358103
 20
371.4679948939875
 30
0.0
 10
-2138.128921654494
 20
377.6599866281276
 30
0.0
 10
-2140.369927648306
 20
383.3553709298453
 30
0.0
 10
-2140.953837792356
 20
386.3724297556963
 30
0.0
 10
-2141.102993777815
 20
387.8911730864922
 30
0.0
  0
SPLINE
  5
C8
330
1F
100
AcDbEntity
  8
2D
100
AcDbSpline
210
0.0
220
0.0
230
1.0
 70
     8
 71
     3
 72
    10
 73
     6
 74
     0
 42
0.0000000001
 43
0.0000000001
 40
-17.6854015042101
 40
-17.6854015042101
 40
-17.6854015042101
 40
-17.6854015042101
 40
-8.859429898653095
 40
-8.859429898653095
 40
0.0
 40
0.0
 40
0.0
 40
0.0
 10
-2141.102993777815
 20
387.8911730864922
 30
0.0
 10
-2142.175796722804
 20
385.1410447153818
 30
0.0
 10
-2143.337361667724
 20
382.4433433236911
 30
0.0
 10
-2146.066399690593
 20
377.1865462695444
 30
0.0
 10
-2147.591211427964
 20
374.7034823287284
 30
0.0
 10
-2149.46279058075
 20
372.3871122449864
 30
0.0
  0
SPLINE
  5
C9
330
1F
100
AcDbEntity
  8
2D
100
AcDbSpline
210
0.0
220
0.0
230
1.0
 70
    12
 71
     2
 72
     6
 73
     3
 74
     0
 42
0.0000000001
 43
0.0000000001
 40
-2.789018046942119
 40
-2.789018046942119
 40
-2.789018046942119
 40
0.0
 40
0.0
 40
0.0
 10
-2149.46279058075
 20
372.3871122449864
 30
0.0
 41
1.0
 10
-2150.339167927969
 20
371.3008813523964
 30
0.0000000000000001
 41
0.999022823170432
 10
-2151.308579900287
 20
370.296803034212
 30
0.0
 41
0.9999999995016605
  0
SPLINE
  5
CA
330
1F
100
AcDbEntity
  8
2D
100
AcDbSpline
210
0.0
220
0.0
230
1.0
 70
    12
 71
     3
 72
    13
 73
     9
 74
     0
 42
0.0000000001
 43
0.0000000001
 40
-55.1328850866165
 40
-55.1328850866165
 40
-55.1328850866165
 40
-55.1328850866165
 40
-52.9148985320674
 40
-50.69660225934562
 40
-50.69660225934562
 40
-50.69660225934562
 40
-48.47830915698636
 40
0.0
 40
0.0
 40
0.0
 40
0.0
 10
-2151.308579900287
 20
370.296803034212
 30
0.0
 41
1.0
 10
-2151.406225909806
 20
370.1777105819932
 30
0.0
 41
1.0
 10
-2151.563011101691
 20
370.2419665637868
 30
0.0
 41
1.0
 10
-2151.600444379019
 20
370.3618756089554
 30
0.0
 41
1.0
 10
-2151.609646206718
 20
370.7945781466578
 30
0.0
 41
1.0
 10
-2151.618852557367
 20
371.2272640180663
 30
0.0
 41
1.0
 10
-2151.611848841258
 20
389.6341544966263
 30
0.0
 41
1.0
 10
-2151.609855163046
 20
407.8450474911251
 30
0.0
 41
1.0
 10
-2151.609646638561
 20
425.1926770527848
 30
0.0
 41
1.0
  0
LINE
  5
CB
330
1F
100
AcDbEntity
  8
2D
100
AcDbLine
 10
-2151.609646638561
 20
425.1926770527848
 30
0.0
 11
-2151.609646276545
 21
497.4840633669364
 31
0.0
  0
SPLINE
  5
CC
330
1F
100
AcDbEntity
  8
2D
100
AcDbSpline
210
0.0
220
0.0
230
1.0
 70
     8
 71
     3
 72
     8
 73
     4
 74
     0
 42
0.0000000001
 43
0.0000000001
 40
0.0
 40
0.0
 40
0.0
 40
0.0
 40
159.3744175909605
 40
159.3744175909605
 40
159.3744175909605
 40
159.3744175909605
 10
-2151.609646276545
 20
497.4840633669364
 30
0.0
 10
-2151.609659307713
 20
550.6088692305964
 30
0.0
 10
-2151.609669370322
 20
603.733675094393
 30
0.0
 10
-2151.609676478987
 20
656.8584809580384
 30
0.0
  0
SPLINE
  5
CD
330
1F
100
AcDbEntity
  8
2D
100
AcDbSpline
210
0.0
220
0.0
230
1.0
 70
     8
 71
     3
 72
   126
 73
   122
 74
     0
 42
0.0000000001
 43
0.0000000001
 40
-1388.624144800619
 40
-1388.624144800619
 40
-1388.624144800619
 40
-1388.624144800619
 40
-1383.00564240015
 40
-1383.00564240015
 40
-1377.316394746013
 40
-1377.316394746013
 40
-1371.536072412046
 40
-1371.536072412046
 40
-1366.079643211993
 40
-1366.079643211993
 40
-1355.164204704809
 40
-1355.164204704809
 40
-1354.62758275287
 40
-1354.62758275287
 40
-1354.007846249363
 40
-1354.007846249363
 40
-1352.740903312786
 40
-1352.740903312786
 40
-1350.155046928194
 40
-1350.155046928194
 40
-1344.950309891145
 40
-1344.950309891145
 40
-1323.106923057798
 40
-1323.106923057798
 40
-1301.403426739449
 40
-1301.403426739449
 40
-1214.588866327841
 40
-1214.588866327841
 40
-1127.77175070037
 40
-1127.77175070037
 40
-1084.363359247045
 40
-1084.363359247045
 40
-1062.659261918968
 40
-1062.659261918968
 40
-1051.817490830373
 40
-1051.817490830373
 40
-1046.381099181824
 40
-1046.381099181824
 40
-1040.974397912197
 40
-1040.974397912197
 40
-1030.122501186485
 40
-1030.122501186485
 40
-1024.706779477249
 40
-1024.706779477249
 40
-1018.569160561937
 40
-1018.569160561937
 40
-1013.143802514726
 40
-1013.143802514726
 40
-1007.708539194981
 40
-1007.708539194981
 40
-996.87728157037
 40
-996.87728157037
 40
-986.0340343075742
 40
-986.0340343075742
 40
-980.6022156587013
 40
-980.6022156587013
 40
-975.1752168627635
 40
-975.1752168627635
 40
-969.7416863128266
 40
-969.7416863128266
 40
-964.3243486859626
 40
-964.3243486859626
 40
-959.0427004490724
 40
-959.0427004490724
 40
-954.3570405548995
 40
-954.3570405548995
 40
-948.9346768313387
 40
-948.9346768313387
 40
-943.5158484973983
 40
-943.5158484973983
 40
-932.6781918382085
 40
-932.6781918382085
 40
-911.0028786522878
 40
-911.0028786522878
 40
-867.6522537601761
 40
-867.6522537601761
 40
-694.2672610158835
 40
-694.2672610158835
 40
-520.728187354084
 40
-520.728187354084
 40
-434.0867263742871
 40
-434.0867263742871
 40
-390.7659934593176
 40
-390.7659934593176
 40
-379.9358099196234
 40
-379.9358099196234
 40
-374.523954525768
 40
-374.523954525768
 40
-369.5372259343062
 40
-369.5372259343062
 40
-364.1189345284079
 40
-364.1189345284079
 40
-358.6858453080242
 40
-358.6858453080242
 40
-353.267710963288
 40
-353.267710963288
 40
-347.843450108971
 40
-347.843450108971
 40
-337.0185074976272
 40
-337.0185074976272
 40
-326.174971308472
 40
-326.174971308472
 40
-315.328158662314
 40
-315.328158662314
 40
-309.8965742017378
 40
-309.8965742017378
 40
-303.8317892908539
 40
-303.8317892908539
 40
-298.4007008382586
 40
-298.4007008382586
 40
-292.9712890202038
 40
-292.9712890202038
 40
-282.1370903412627
 40
-282.1370903412627
 40
-271.2725075398556
 40
-271.2725075398556
 40
-260.4268657211079
 40
-260.4268657211079
 40
-173.6616002500861
 40
-173.6616002500861
 40
0.0
 40
0.0
 40
0.0
 40
0.0
 10
-2151.609676478987
 20
656.8584809580384
 30
0.0
 10
-2151.609675377949
 20
658.7200948688047
 30
0.0
 10
-2151.609673916602
 20
660.5817087795713
 30
0.0
 10
-2151.609670770085
 20
664.3283770731307
 30
0.0
 10
-2151.609668998357
 20
666.2134314559233
 30
0.0
 10
-2151.609664426327
 20
670.0137165707918
 30
0.0
 10
-2151.609662000526
 20
671.9289473028654
 30
0.0
 10
-2151.60965055869
 20
675.6520912078573
 30
0.0
 10
-2151.609645601646
 20
677.46000438078
 30
0.0
 10
-2151.60963167698
 20
682.8845987827362
 30
0.0
 10
-2151.609624221066
 20
686.501280011772
 30
0.0
 10
-2151.60961685943
 20
690.2957635837374
 30
0.0
 10
-2151.617995430686
 20
690.5800596971576
 30
0.0
 10
-2151.577454559898
 20
690.9639868923288
 30
0.0
 10
-2151.542446351421
 20
691.1672999669715
 30
0.0
 10
-2151.435050302476
 20
691.787059655185
 30
0.0
 10
-2151.353995021029
 20
692.2014104243744
 30
0.0
 10
-2151.101299023903
 20
693.4605919307174
 30
0.0
 10
-2150.92164430421
 20
694.3035034822526
 30
0.0
 10
-2150.371415146499
 20
696.8413341182022
 30
0.0
 10
-2149.989632968474
 20
698.5335370850172
 30
0.0
 10
-2147.979698149429
 20
707.3222440281995
 30
0.0
 10
-2146.365083892782
 20
713.9463671316823
 30
0.0
 10
-2142.937393902092
 20
728.049804395811
 30
0.0
 10
-2141.229054423398
 20
735.0788699904147
 30
0.0
 10
-2132.687312373127
 20
770.22438438142
 30
0.0
 10
-2125.853919844947
 20
798.3408356187554
 30
0.0
 10
-2112.186945084806
 20
854.5745684222845
 30
0.0
 10
-2105.353362853213
 20
882.6918499885627
 30
0.0
 10
-2095.10300448706
 20
924.8677189176937
 30
0.0
 10
-2091.686227409195
 20
938.9263060512864
 30
0.0
 10
-2086.561069174037
 20
960.0141547951711
 30
0.0
 10
-2084.852688198516
 20
967.0434164496398
 30
0.0
 10
-2082.290925512352
 20
977.5839803065378
 30
0.0
 10
-2081.437543190972
 20
981.0952823605327
 30
0.0
 10
-2080.156244848702
 20
986.3672563175359
 30
0.0
 10
-2079.728331755796
 20
988.1279289321562
 30
0.0
 10
-2078.874842466263
 20
991.6396583737977
 30
0.0
 10
-2078.449266987685
 20
993.3907153753328
 30
0.0
 10
-2077.169507038525
 20
998.6563525519477
 30
0.0
 10
-2076.315567335576
 20
1002.170992206711
 30
0.0
 10
-2075.03475310214
 20
1007.439467157638
 30
0.0
 10
-2074.611205002973
 20
1009.194108824716
 30
0.0
 10
-2073.696303412347
 20
1012.934530694533
 30
0.0
 10
-2073.360901804324
 20
1014.228606449088
 30
0.0
 10
-2072.103033665288
 20
1017.877394131989
 30
0.0
 10
-2071.428260129222
 20
1019.546719810981
 30
0.0
 10
-2069.884906917225
 20
1022.827344259142
 30
0.0
 10
-2069.030433005988
 20
1024.415968512181
 30
0.0
 10
-2066.200715182149
 20
1029.050728008044
 30
0.0
 10
-2063.985646495064
 20
1031.926535817498
 30
0.0
 10
-2058.974198917662
 20
1037.146147963787
 30
0.0
 10
-2056.19200410799
 20
1039.478093277946
 30
0.0
 10
-2051.673724898072
 20
1042.496171953459
 30
0.0
 10
-2050.122621831662
 20
1043.41504885747
 30
0.0
 10
-2046.907537484829
 20
1045.09028993564
 30
0.0
 10
-2045.267497545803
 20
1045.835187486075
 30
0.0
 10
-2041.889266685008
 20
1047.152526112852
 30
0.0
 10
-2040.176117603642
 20
1047.716146678482
 30
0.0
 10
-2036.678104781346
 20
1048.658967951316
 30
0.0
 10
-2034.919234136942
 20
1049.0328721349
 30
0.0
 10
-2031.389737841459
 20
1049.583816537805
 30
0.0
 10
-2029.496097967025
 20
1049.780118450189
 30
0.0
 10
-2026.170492409459
 20
1049.927796596821
 30
0.0
 10
-2023.880262184572
 20
1049.912153262803
 30
0.0
 10
-2020.508054846647
 20
1049.911440688795
 30
0.0
 10
-2018.699062837
 20
1049.911809855998
 30
0.0
 10
-2015.082258206166
 20
1049.911809855998
 30
0.0
 10
-2013.274445623571
 20
1049.911809855998
 30
0.0
 10
-2007.851007878682
 20
1049.911809855998
 30
0.0
 10
-2004.235382716393
 20
1049.911809855996
 30
0.0
 10
-1993.388507273707
 20
1049.911809855992
 30
0.0
 10
-1986.157256993316
 20
1049.911809855991
 30
0.0
 10
-1964.463506645796
 20
1049.911809855986
 30
0.0
 10
-1950.001006578674
 20
1049.911809855982
 30
0.0
 10
-1877.694346815035
 20
1049.91180985597
 30
0.0
 10
-1819.850187118522
 20
1049.911809855972
 30
0.0
 10
-1704.110463731082
 20
1049.911809855978
 30
0.0
 10
-1646.214900040159
 20
1049.911809855984
 30
0.0
 10
-1559.414282769158
 20
1049.911809855992
 30
0.0
 10
-1530.50922918908
 20
1049.911809855995
 30
0.0
 10
-1487.151648009924
 20
1049.911809855998
 30
0.0
 10
-1472.699120410845
 20
1049.911809855998
 30
0.0
 10
-1454.633460808254
 20
1049.911809855998
 30
0.0
 10
-1451.020328804745
 20
1049.911809855998
 30
0.0
 10
-1445.60171050913
 20
1049.911809855998
 30
0.0
 10
-1443.796224388352
 20
1049.91105228666
 30
0.0
 10
-1440.327080954252
 20
1049.912661892262
 30
0.0
 10
-1438.231705283179
 20
1049.930054668037
 30
0.0
 10
-1434.760275584802
 20
1049.758937835531
 30
0.0
 10
-1432.971501105581
 20
1049.567882730416
 30
0.0
 10
-1429.392982398593
 20
1048.994751410744
 30
0.0
 10
-1427.630070068648
 20
1048.612495894142
 30
0.0
 10
-1424.13484934497
 20
1047.655166275229
 30
0.0
 10
-1422.428436988117
 20
1047.085855471979
 30
0.0
 10
-1419.060178060005
 20
1045.757082420333
 30
0.0
 10
-1417.423443498337
 20
1045.005972379754
 30
0.0
 10
-1412.620895802022
 20
1042.479776800631
 30
0.0
 10
-1409.611756301121
 20
1040.452732020712
 30
0.0
 10
-1404.081931135574
 20
1035.785753404604
 30
0.0
 10
-1401.579517815011
 20
1033.15964540861
 30
0.0
 10
-1397.179366899487
 20
1027.406120180552
 30
0.0
 10
-1395.304436547383
 20
1024.306652059092
 30
0.0
 10
-1393.008093819171
 20
1019.379937980381
 30
0.0
 10
-1392.338351615126
 20
1017.705840898044
 30
0.0
 10
-1391.100560549417
 20
1014.072556116507
 30
0.0
 10
-1390.76325227827
 20
1012.742957667122
 30
0.0
 10
-1389.853680297529
 20
1009.020378657314
 30
0.0
 10
-1389.428917530891
 20
1007.2604904826
 30
0.0
 10
-1388.573775798381
 20
1003.742650223106
 30
0.0
 10
-1388.146449696695
 20
1001.983958193932
 30
0.0
 10
-1386.866098591719
 20
996.7159341684779
 30
0.0
 10
-1386.013195523123
 20
993.2065725398282
 30
0.0
 10
-1384.304977163094
 20
986.1780123338751
 30
0.0
 10
-1383.449669878068
 20
982.6588118107145
 30
0.0
 10
-1381.740557593061
 20
975.626543317007
 30
0.0
 10
-1380.886746410597
 20
972.11347684905
 30
0.0
 10
-1373.202431103931
 20
940.4958372892769
 30
0.0
 10
-1366.371919410038
 20
912.3912660371924
 30
0.0
 10
-1345.870112992816
 20
828.0350855502636
 30
0.0
 10
-1332.198824054427
 20
771.7834749094731
 30
0.0
 10
-1318.527473730072
 20
715.5318791878262
 30
0.0
  0
SPLINE
  5
CE
330
1F
100
AcDbEntity
  8
2D
100
AcDbSpline
210
0.0
220
0.0
230
1.0
 70
     8
 71
     3
 72
    32
 73
    28
 74
     0
 42
0.0000000001
 43
0.0000000001
 40
-59.19604378748777
 40
-59.19604378748777
 40
-59.19604378748777
 40
-59.19604378748777
 40
-51.77054938781154
 40
-51.77054938781154
 40
-44.34255247036477
 40
-44.34255247036477
 40
-40.66054806541513
 40
-40.66054806541513
 40
-36.91659540784609
 40
-36.91659540784609
 40
-35.00487814792821
 40
-35.00487814792821
 40
-34.0235644592422
 40
-34.0235644592422
 40
-33.52544695801691
 40
-33.52544695801691
 40
-33.08012031799767
 40
-33.08012031799767
 40
-29.51742950518904
 40
-29.51742950518904
 40
-22.13530080056037
 40
-22.13530080056037
 40
-14.75841244520292
 40
-14.75841244520292
 40
-7.383213632871073
 40
-7.383213632871073
 40
0.0
 40
0.0
 40
0.0
 40
0.0
 10
-1318.527473730072
 20
715.5318791878262
 30
0.0
 10
-1317.944011466472
 20
713.1311827390133
 30
0.0
 10
-1317.366448981691
 20
710.7290950015315
 30
0.0
 10
-1316.224841659245
 20
705.920760244093
 30
0.0
 10
-1315.660352282513
 20
703.5147331596033
 30
0.0
 10
-1314.831933828213
 20
699.9122632437018
 30
0.0
 10
-1314.560047135656
 20
698.7177671448891
 30
0.0
 10
-1314.020581594032
 20
696.306625546386
 30
0.0
 10
-1313.752336641977
 20
695.0902482758554
 30
0.0
 10
-1313.364163893137
 20
693.2489242310393
 30
0.0
 10
-1313.235407528246
 20
692.6261024720338
 30
0.0
 10
-1313.054389064742
 20
691.680620793984
 30
0.0
 10
-1312.994713787346
 20
691.359765081925
 30
0.0
 10
-1312.920259431492
 20
690.8729818785956
 30
0.0
 10
-1312.897599770717
 20
690.7101184113124
 30
0.0
 10
-1312.897599160533
 20
690.3941421544005
 30
0.0
 10
-1312.897598872507
 20
690.2449943260715
 30
0.0
 10
-1312.897596280261
 20
688.902637850455
 30
0.0
 10
-1312.897593991187
 20
687.7094292031677
 30
0.0
 10
-1312.897586905878
 20
684.0438140888124
 30
0.0
 10
-1312.897581894387
 20
681.5714076217457
 30
0.0
 10
-1312.897567911914
 20
676.6283497739836
 30
0.0
 10
-1312.89755897443
 20
674.1576983932908
 30
0.0
 10
-1312.897549767225
 20
669.2169614899478
 30
0.0
 10
-1312.897547378165
 20
666.7468759673097
 30
0.0
 10
-1312.897542803192
 20
661.8040206157934
 30
0.0
 10
-1312.897540822381
 20
659.3312507869159
 30
0.0
 10
-1312.897539275833
 20
656.8584809580384
 30
0.0
  0
SPLINE
  5
CF
330
1F
100
AcDbEntity
  8
2D
100
AcDbSpline
210
0.0
220
0.0
230
1.0
 70
     8
 71
     3
 72
     8
 73
     4
 74
     0
 42
0.0000000001
 43
0.0000000001
 40
-159.3744175909607
 40
-159.3744175909607
 40
-159.3744175909607
 40
-159.3744175909607
 40
0.0
 40
0.0
 40
0.0
 40
0.0
 10
-1312.897539275833
 20
656.8584809580384
 30
0.0
 10
-1312.897546309629
 20
603.733675094393
 30
0.0
 10
-1312.897556372242
 20
550.6088692305964
 30
0.0
 10
-1312.897569478278
 20
497.4840633669364
 30
0.0
  0
LINE
  5
D0
330
1F
100
AcDbEntity
  8
2D
100
AcDbLine
 10
-1312.897569478278
 20
497.4840633669364
 30
0.0
 11
-1312.897569191136
 21
425.1926770527848
 31
0.0
  0
LINE
  5
D1
330
1F
100
AcDbEntity
  8
2D
100
AcDbLine
 10
-1323.286900160987
 20
-463.9856730638448
 30
0.0
 11
-1323.188210587781
 21
-470.7477527882252
 31
0.0
  0
SPLINE
  5
D2
330
1F
100
AcDbEntity
  8
2D
100
AcDbSpline
210
0.0
220
0.0
230
1.0
 70
    15
 71
     2
 72
    20
 73
    17
 74
     0
 42
0.0000000001
 43
0.0000000001
 40
-76.31516318027853
 40
-76.31516318027853
 40
-76.31516318027853
 40
-0.0000000008059114
 40
-0.0000000008059114
 40
261.3867767284899
 40
261.3867767284899
 40
337.7019399078642
 40
337.7019399078642
 40
599.0887166358231
 40
599.0887166358231
 40
675.4038798166274
 40
675.4038798166274
 40
936.7906565443757
 40
936.7906565443757
 40
1013.105819724646
 40
1013.105819724646
 40
1274.492596451918
 40
1274.492596451918
 40
1274.492596451918
 10
-2674.109372906779
 20
694.8828021577385
 30
0.0
 41
0.9999999999956435
 10
-2716.894491024857
 20
683.493271862735
 30
0.0000000000000021
 41
0.8053864672095804
 10
-2718.739719530673
 20
639.2566030858311
 30
0.0
 41
1.0
 10
-2724.22944002095
 20
507.6485413649871
 30
-0.0000000000000003
 41
0.9886318222813665
 10
-2690.344564701732
 20
380.3589731923516
 30
0.0
 41
1.0
 10
-2678.955034406998
 20
337.5738550741655
 30
-0.0000000000000014
 41
0.805386467207564
 10
-2634.718365630019
 20
335.7286265685937
 30
0.0
 41
1.0
 10
-2503.110303909866
 20
330.2389060783668
 30
0.0000000000000002
 41
0.9886318222814827
 10
-2375.820735737841
 20
364.1237813972503
 30
0.0
 41
1.0
 10
-2333.035617619005
 20
375.5133116927306
 30
0.0000000000000015
 41
0.8053864672076977
 10
-2331.190389113934
 20
419.7499804705485
 30
0.0
 41
1.0
 10
-2325.700668623646
 20
551.3580421906089
 30
-0.0000000000000001
 41
0.9886318222813681
 10
-2359.585543942623
 20
678.6476103625034
 30
0.0
 41
1.0
 10
-2370.975074237776
 20
721.4327284811293
 30
-0.000000000000005
 41
0.8053864672073179
 10
-2415.21174301529
 20
723.2779569863894
 30
0.0
 41
1.0
 10
-2546.819804735103
 20
728.767677476563
 30
-0.0000000000000003
 41
0.9886318222814838
 10
-2674.10937290678
 20
694.8828021577385
 30
0.0
 41
1.0
  0
LINE
  5
D3
330
1F
100
AcDbEntity
  8
2D
100
AcDbLine
 10
-2141.319005241901
 20
-470.7477527882252
 30
0.0
 11
-2141.220315668717
 21
-463.9856730638558
 31
0.0
  0
ENDSEC
  0
SECTION
  2
OBJECTS
  0
DICTIONARY
  5
C
330
0
100
AcDbDictionary
281
     1
  3
ACAD_GROUP
350
D
  3
ACAD_LAYOUT
350
1A
  3
ACAD_MLEADERSTYLE
350
D5
  3
ACAD_MLINESTYLE
350
17
  3
ACAD_PLOTSETTINGS
350
19
  3
ACAD_PLOTSTYLENAME
350
E
  3
ACAD_TABLESTYLE
350
D4
  3
ACAD_VISUALSTYLE
350
2A
  0
DICTIONARY
  5
D
102
{ACAD_REACTORS
330
C
102
}
330
C
100
AcDbDictionary
281
     1
  0
DICTIONARY
  5
1A
102
{ACAD_REACTORS
330
C
102
}
330
C
100
AcDbDictionary
281
     1
  3
Layout1
350
1E
  3
Layout2
350
26
  3
Model
350
22
  0
DICTIONARY
  5
D5
102
{ACAD_REACTORS
330
C
102
}
330
C
100
AcDbDictionary
281
     1
  0
DICTIONARY
  5
17
102
{ACAD_REACTORS
330
C
102
}
330
C
100
AcDbDictionary
281
     1
  3
Standard
350
18
  0
DICTIONARY
  5
19
102
{ACAD_REACTORS
330
C
102
}
330
C
100
AcDbDictionary
281
     1
  0
ACDBDICTIONARYWDFLT
  5
E
102
{ACAD_REACTORS
330
C
102
}
330
C
100
AcDbDictionary
281
     1
  3
Normal
350
F
100
AcDbDictionaryWithDefault
340
F
  0
DICTIONARY
  5
D4
102
{ACAD_REACTORS
330
C
102
}
330
C
100
AcDbDictionary
281
     1
  0
DICTIONARY
  5
2A
102
{ACAD_REACTORS
330
C
102
}
330
C
100
AcDbDictionary
281
     1
  3
2dWireframe
350
2F
  3
3D Hidden
350
31
  3
3dWireframe
350
30
  3
Basic
350
32
  3
Brighten
350
36
  3
ColorChange
350
3A
  3
Conceptual
350
34
  3
Dim
350
35
  3
Facepattern
350
39
  3
Flat
350
2B
  3
FlatWithEdges
350
2C
  3
Gouraud
350
2D
  3
GouraudWithEdges
350
2E
  3
Linepattern
350
38
  3
Realistic
350
33
  3
Thicken
350
37
  0
LAYOUT
  5
1E
102
{ACAD_REACTORS
330
1A
102
}
330
1A
100
AcDbPlotSettings
  1

  2
none_device
  4

  6

 40
0.0
 41
0.0
 42
0.0
 43
0.0
 44
0.0
 45
0.0
 46
0.0
 47
0.0
 48
0.0
 49
0.0
140
0.0
141
0.0
142
1.0
143
1.0
 70
   688
 72
     0
 73
     0
 74
     5
  7

 75
    16
 76
     0
 77
     2
 78
   300
147
1.0
148
0.0
149
0.0
100
AcDbLayout
  1
Layout1
 70
     1
 71
     1
 10
0.0
 20
0.0
 11
12.0
 21
9.0
 12
0.0
 22
0.0
 32
0.0
 14
1.000000000000000E+20
 24
1.000000000000000E+20
 34
1.000000000000000E+20
 15
-1.000000000000000E+20
 25
-1.000000000000000E+20
 35
-1.000000000000000E+20
146
0.0
 13
0.0
 23
0.0
 33
0.0
 16
1.0
 26
0.0
 36
0.0
 17
0.0
 27
1.0
 37
0.0
 76
     0
330
1B
  0
LAYOUT
  5
26
102
{ACAD_REACTORS
330
1A
102
}
330
1A
100
AcDbPlotSettings
  1

  2
none_device
  4

  6

 40
0.0
 41
0.0
 42
0.0
 43
0.0
 44
0.0
 45
0.0
 46
0.0
 47
0.0
 48
0.0
 49
0.0
140
0.0
141
0.0
142
1.0
143
1.0
 70
   688
 72
     0
 73
     0
 74
     5
  7

 75
    16
 76
     0
 77
     2
 78
   300
147
1.0
148
0.0
149
0.0
100
AcDbLayout
  1
Layout2
 70
     1
 71
     2
 10
0.0
 20
0.0
 11
0.0
 21
0.0
 12
0.0
 22
0.0
 32
0.0
 14
0.0
 24
0.0
 34
0.0
 15
0.0
 25
0.0
 35
0.0
146
0.0
 13
0.0
 23
0.0
 33
0.0
 16
1.0
 26
0.0
 36
0.0
 17
0.0
 27
1.0
 37
0.0
 76
     0
330
23
  0
LAYOUT
  5
22
102
{ACAD_REACTORS
330
1A
102
}
330
1A
100
AcDbPlotSettings
  1

  2
none_device
  4

  6

 40
0.0
 41
0.0
 42
0.0
 43
0.0
 44
0.0
 45
0.0
 46
0.0
 47
0.0
 48
0.0
 49
0.0
140
0.0
141
0.0
142
1.0
143
1.0
 70
  1712
 72
     0
 73
     0
 74
     0
  7

 75
     0
 76
     0
 77
     2
 78
   300
147
1.0
148
0.0
149
0.0
100
AcDbLayout
  1
Model
 70
     1
 71
     0
 10
0.0
 20
0.0
 11
12.0
 21
9.0
 12
0.0
 22
0.0
 32
0.0
 14
-2719.485123480121
 24
-1168.932364137195
 34
-0.0000000000000057
 15
-745.0220923495789
 25
1094.911790264176
 35
0.0000000000000022
146
0.0
 13
0.0
 23
0.0
 33
0.0
 16
1.0
 26
0.0
 36
0.0
 17
0.0
 27
1.0
 37
0.0
 76
     0
330
1F
331
29
  0
MLINESTYLE
  5
18
102
{ACAD_REACTORS
330
17
102
}
330
17
100
AcDbMlineStyle
  2
Standard
 70
     0
  3

 62
   256
 51
90.0
 52
90.0
 71
     2
 49
0.5
 62
   256
  6
BYLAYER
 49
-0.5
 62
   256
  6
BYLAYER
  0
ACDBPLACEHOLDER
  5
F
102
{ACAD_REACTORS
330
E
102
}
330
E
  0
VISUALSTYLE
  5
2F
102
{ACAD_REACTORS
330
2A
102
}
330
2A
100
AcDbVisualStyle
  2
2dWireframe
 70
     4
 71
     0
 72
     2
 73
     0
 90
        0
 40
-0.6
 41
-30.0
 62
     5
 63
     7
421
 16777215
 74
     1
 91
        4
 64
     7
 65
   257
 75
     1
175
     1
 42
1.0
 92
        0
 66
   257
 43
1.0
 76
     1
 77
     6
 78
     2
 67
     7
 79
     5
170
     0
171
     0
290
     0
174
     0
 93
        1
 44
0.0
173
     0
291
     0
 45
0.0
1001
ACAD
1000
AcDbSavedByObjectVersion
1070
     0
  0
VISUALSTYLE
  5
31
102
{ACAD_REACTORS
330
2A
102
}
330
2A
100
AcDbVisualStyle
  2
3D Hidden
 70
     6
 71
     1
 72
     2
 73
     2
 90
        0
 40
-0.6
 41
-30.0
 62
     5
 63
     7
421
 16777215
 74
     2
 91
        2
 64
     7
 65
   257
 75
     2
175
     1
 42
40.0
 92
        0
 66
   257
 43
1.0
 76
     1
 77
     6
 78
     2
 67
     7
 79
     3
170
     0
171
     0
290
     0
174
     0
 93
        1
 44
0.0
173
     0
291
     0
 45
0.0
1001
ACAD
1000
AcDbSavedByObjectVersion
1070
     0
  0
VISUALSTYLE
  5
30
102
{ACAD_REACTORS
330
2A
102
}
330
2A
100
AcDbVisualStyle
  2
3dWireframe
 70
     5
 71
     0
 72
     2
 73
     0
 90
        0
 40
-0.6
 41
-30.0
 62
     5
 63
     7
421
 16777215
 74
     1
 91
        4
 64
     7
 65
   257
 75
     1
175
     1
 42
1.0
 92
        0
 66
   257
 43
1.0
 76
     1
 77
     6
 78
     2
 67
     7
 79
     5
170
     0
171
     0
290
     0
174
     0
 93
        1
 44
0.0
173
     0
291
     0
 45
0.0
1001
ACAD
1000
AcDbSavedByObjectVersion
1070
     0
  0
VISUALSTYLE
  5
32
102
{ACAD_REACTORS
330
2A
102
}
330
2A
100
AcDbVisualStyle
  2
Basic
 70
     7
 71
     1
 72
     0
 73
     1
 90
        0
 40
-0.6
 41
-30.0
 62
     5
 63
     7
421
 16777215
 74
     0
 91
        4
 64
     7
 65
   257
 75
     1
175
     1
 42
1.0
 92
        8
 66
     7
 43
1.0
 76
     1
 77
     6
 78
     2
 67
     7
 79
     5
170
     0
171
     0
290
     0
174
     0
 93
        1
 44
0.0
173
     0
291
     1
 45
0.0
1001
ACAD
1000
AcDbSavedByObjectVersion
1070
     0
  0
VISUALSTYLE
  5
36
102
{ACAD_REACTORS
330
2A
102
}
330
2A
100
AcDbVisualStyle
  2
Brighten
 70
    12
 71
     2
 72
     2
 73
     0
 90
        0
 40
-0.6
 41
-30.0
 62
     5
 63
     7
421
 16777215
 74
     1
 91
        4
 64
     7
 65
   257
 75
     1
175
     1
 42
1.0
 92
        8
 66
     7
 43
1.0
 76
     1
 77
     6
 78
     2
 67
     7
 79
     5
170
     0
171
     0
290
     0
174
     0
 93
        1
 44
50.0
173
     0
291
     1
 45
0.0
1001
ACAD
1000
AcDbSavedByObjectVersion
1070
     0
  0
VISUALSTYLE
  5
3A
102
{ACAD_REACTORS
330
2A
102
}
330
2A
100
AcDbVisualStyle
  2
ColorChange
 70
    16
 71
     2
 72
     2
 73
     3
 90
        0
 40
-0.6
 41
-30.0
 62
     5
 63
     8
421
  8421504
 74
     1
 91
        4
 64
     7
 65
   257
 75
     1
175
     1
 42
1.0
 92
        8
 66
     8
424
  8421504
 43
1.0
 76
     1
 77
     6
 78
     2
 67
     7
 79
     5
170
     0
171
     0
290
     0
174
     0
 93
        1
 44
0.0
173
     0
291
     1
 45
0.0
1001
ACAD
1000
AcDbSavedByObjectVersion
1070
     0
  0
VISUALSTYLE
  5
34
102
{ACAD_REACTORS
330
2A
102
}
330
2A
100
AcDbVisualStyle
  2
Conceptual
 70
     9
 71
     3
 72
     2
 73
     0
 90
        0
 40
-0.6
 41
-30.0
 62
     5
 63
     7
421
 16777215
 74
     2
 91
        2
 64
     7
 65
   257
 75
     1
175
     1
 42
40.0
 92
        8
 66
     7
 43
1.0
 76
     1
 77
     6
 78
     2
 67
     7
 79
     3
170
     0
171
     0
290
     0
174
     0
 93
        1
 44
0.0
173
     0
291
     0
 45
0.0
1001
ACAD
1000
AcDbSavedByObjectVersion
1070
     0
  0
VISUALSTYLE
  5
35
102
{ACAD_REACTORS
330
2A
102
}
330
2A
100
AcDbVisualStyle
  2
Dim
 70
    11
 71
     2
 72
     2
 73
     0
 90
        0
 40
-0.6
 41
-30.0
 62
     5
 63
     7
421
 16777215
 74
     1
 91
        4
 64
     7
 65
   257
 75
     1
175
     1
 42
1.0
 92
        8
 66
     7
 43
1.0
 76
     1
 77
     6
 78
     2
 67
     7
 79
     5
170
     0
171
     0
290
     0
174
     0
 93
        1
 44
-50.0
173
     0
291
     1
 45
0.0
1001
ACAD
1000
AcDbSavedByObjectVersion
1070
     0
  0
VISUALSTYLE
  5
39
102
{ACAD_REACTORS
330
2A
102
}
330
2A
100
AcDbVisualStyle
  2
Facepattern
 70
    15
 71
     2
 72
     2
 73
     0
 90
        0
 40
-0.6
 41
-30.0
 62
     5
 63
     7
421
 16777215
 74
     1
 91
        4
 64
     7
 65
   257
 75
     1
175
     1
 42
1.0
 92
        8
 66
     7
 43
1.0
 76
     1
 77
     6
 78
     2
 67
     7
 79
     5
170
     0
171
     0
290
     0
174
     0
 93
        1
 44
0.0
173
     0
291
     1
 45
0.0
1001
ACAD
1000
AcDbSavedByObjectVersion
1070
     0
  0
VISUALSTYLE
  5
2B
102
{ACAD_REACTORS
330
2A
102
}
330
2A
100
AcDbVisualStyle
  2
Flat
 70
     0
 71
     2
 72
     1
 73
     1
 90
        2
 40
-0.6
 41
30.0
 62
     5
 63
     7
421
 16777215
 74
     0
 91
        4
 64
     7
 65
   257
 75
     1
175
     1
 42
1.0
 92
        8
 66
     7
 43
1.0
 76
     1
 77
     6
 78
     2
 67
     7
 79
     5
170
     0
171
     0
290
     0
174
     0
 93
       13
 44
0.0
173
     0
291
     1
 45
0.0
1001
ACAD
1000
AcDbSavedByObjectVersion
1070
     0
  0
VISUALSTYLE
  5
2C
102
{ACAD_REACTORS
330
2A
102
}
330
2A
100
AcDbVisualStyle
  2
FlatWithEdges
 70
     1
 71
     2
 72
     1
 73
     1
 90
        2
 40
-0.6
 41
30.0
 62
     5
 63
     7
421
 16777215
 74
     1
 91
        4
 64
     7
 65
   257
 75
     1
175
     1
 42
1.0
 92
        0
 66
   257
 43
1.0
 76
     1
 77
     6
 78
     2
 67
     7
 79
     5
170
     0
171
     0
290
     0
174
     0
 93
       13
 44
0.0
173
     0
291
     1
 45
0.0
1001
ACAD
1000
AcDbSavedByObjectVersion
1070
     0
  0
VISUALSTYLE
  5
2D
102
{ACAD_REACTORS
330
2A
102
}
330
2A
100
AcDbVisualStyle
  2
Gouraud
 70
     2
 71
     2
 72
     2
 73
     1
 90
        2
 40
-0.6
 41
30.0
 62
     5
 63
     7
421
 16777215
 74
     0
 91
        4
 64
     7
 65
   257
 75
     1
175
     1
 42
1.0
 92
        0
 66
     7
 43
1.0
 76
     1
 77
     6
 78
     2
 67
     7
 79
     5
170
     0
171
     0
290
     0
174
     0
 93
       13
 44
0.0
173
     0
291
     1
 45
0.0
1001
ACAD
1000
AcDbSavedByObjectVersion
1070
     0
  0
VISUALSTYLE
  5
2E
102
{ACAD_REACTORS
330
2A
102
}
330
2A
100
AcDbVisualStyle
  2
GouraudWithEdges
 70
     3
 71
     2
 72
     2
 73
     1
 90
        2
 40
-0.6
 41
30.0
 62
     5
 63
     7
421
 16777215
 74
     1
 91
        4
 64
     7
 65
   257
 75
     1
175
     1
 42
1.0
 92
        0
 66
   257
 43
1.0
 76
     1
 77
     6
 78
     2
 67
     7
 79
     5
170
     0
171
     0
290
     0
174
     0
 93
       13
 44
0.0
173
     0
291
     1
 45
0.0
1001
ACAD
1000
AcDbSavedByObjectVersion
1070
     0
  0
VISUALSTYLE
  5
38
102
{ACAD_REACTORS
330
2A
102
}
330
2A
100
AcDbVisualStyle
  2
Linepattern
 70
    14
 71
     2
 72
     2
 73
     0
 90
        0
 40
-0.6
 41
-30.0
 62
     5
 63
     7
421
 16777215
 74
     1
 91
        4
 64
     7
 65
   257
 75
     7
175
     7
 42
1.0
 92
        8
 66
     7
 43
1.0
 76
     1
 77
     6
 78
     2
 67
     7
 79
     5
170
     0
171
     0
290
     0
174
     0
 93
        1
 44
0.0
173
     0
291
     1
 45
0.0
1001
ACAD
1000
AcDbSavedByObjectVersion
1070
     0
  0
VISUALSTYLE
  5
33
102
{ACAD_REACTORS
330
2A
102
}
330
2A
100
AcDbVisualStyle
  2
Realistic
 70
     8
 71
     2
 72
     2
 73
     0
 90
        0
 40
-0.6
 41
-30.0
 62
     5
 63
     7
421
 16777215
 74
     1
 91
        0
 64
     7
 65
   257
 75
     1
175
     1
 42
1.0
 92
        8
 66
     8
424
  7895160
 43
1.0
 76
     1
 77
     6
 78
     2
 67
     7
 79
     5
170
     0
171
     0
290
     0
174
     0
 93
       13
 44
0.0
173
     0
291
     0
 45
0.0
1001
ACAD
1000
AcDbSavedByObjectVersion
1070
     0
  0
VISUALSTYLE
  5
37
102
{ACAD_REACTORS
330
2A
102
}
330
2A
100
AcDbVisualStyle
  2
Thicken
 70
    13
 71
     2
 72
     2
 73
     0
 90
        0
 40
-0.6
 41
-30.0
 62
     5
 63
     7
421
 16777215
 74
     1
 91
        4
 64
     7
 65
   257
 75
     1
175
     1
 42
1.0
 92
       12
 66
     7
 43
1.0
 76
     1
 77
     6
 78
     2
 67
     7
 79
     5
170
     0
171
     0
290
     0
174
     0
 93
        1
 44
0.0
173
     0
291
     1
 45
0.0
1001
ACAD
1000
AcDbSavedByObjectVersion
1070
     0
  0
ENDSEC
  0
EOF
