  0
SECTION
  2
HEADER
  9
$ACADVER
  1
AC1018
  9
$ACADMAINTVER
 70
     0
  9
$DWGCODEPAGE
  3
ANSI_1252
  9
$INSBASE
 10
0.0
 20
0.0
 30
0.0
  9
$EXTMIN
 10
-5579.346594867203
 20
2156.786028948067
 30
-0.0000000000000057
  9
$EXTMAX
 10
-2932.17955052466
 20
4794.217806385873
 30
0.0000000000000022
  9
$LIMMIN
 10
0.0
 20
0.0
  9
$LIMMAX
 10
12.0
 20
9.0
  9
$ORTHOMODE
 70
     0
  9
$REGENMODE
 70
     1
  9
$FILLMODE
 70
     1
  9
$QTEXTMODE
 70
     0
  9
$MIRRTEXT
 70
     1
  9
$LTSCALE
 40
1.0
  9
$ATTMODE
 70
     1
  9
$TEXTSIZE
 40
0.2
  9
$TRACEWID
 40
0.05
  9
$TEXTSTYLE
  7
Standard
  9
$CLAYER
  8
0
  9
$CELTYPE
  6
ByLayer
  9
$CECOLOR
 62
   256
  9
$CELTSCALE
 40
1.0
  9
$DISPSILH
 70
     0
  9
$DIMSCALE
 40
1.0
  9
$DIMASZ
 40
0.18
  9
$DIMEXO
 40
0.0625
  9
$DIMDLI
 40
0.38
  9
$DIMRND
 40
0.0
  9
$DIMDLE
 40
0.0
  9
$DIMEXE
 40
0.18
  9
$DIMTP
 40
0.0
  9
$DIMTM
 40
0.0
  9
$DIMTXT
 40
0.18
  9
$DIMCEN
 40
0.09
  9
$DIMTSZ
 40
0.0
  9
$DIMTOL
 70
     0
  9
$DIMLIM
 70
     0
  9
$DIMTIH
 70
     1
  9
$DIMTOH
 70
     1
  9
$DIMSE1
 70
     0
  9
$DIMSE2
 70
     0
  9
$DIMTAD
 70
     0
  9
$DIMZIN
 70
     0
  9
$DIMBLK
  1

  9
$DIMASO
 70
     1
  9
$DIMSHO
 70
     1
  9
$DIMPOST
  1

  9
$DIMAPOST
  1

  9
$DIMALT
 70
     0
  9
$DIMALTD
 70
     2
  9
$DIMALTF
 40
25.4
  9
$DIMLFAC
 40
1.0
  9
$DIMTOFL
 70
     0
  9
$DIMTVP
 40
0.0
  9
$DIMTIX
 70
     0
  9
$DIMSOXD
 70
     0
  9
$DIMSAH
 70
     0
  9
$DIMBLK1
  1

  9
$DIMBLK2
  1

  9
$DIMSTYLE
  2
Standard
  9
$DIMCLRD
 70
     0
  9
$DIMCLRE
 70
     0
  9
$DIMCLRT
 70
     0
  9
$DIMTFAC
 40
1.0
  9
$DIMGAP
 40
0.09
  9
$DIMJUST
 70
     0
  9
$DIMSD1
 70
     0
  9
$DIMSD2
 70
     0
  9
$DIMTOLJ
 70
     1
  9
$DIMTZIN
 70
     0
  9
$DIMALTZ
 70
     0
  9
$DIMALTTZ
 70
     0
  9
$DIMUPT
 70
     0
  9
$DIMDEC
 70
     4
  9
$DIMTDEC
 70
     4
  9
$DIMALTU
 70
     2
  9
$DIMALTTD
 70
     2
  9
$DIMTXSTY
  7
Standard
  9
$DIMAUNIT
 70
     0
  9
$DIMADEC
 70
     0
  9
$DIMALTRND
 40
0.0
  9
$DIMAZIN
 70
     0
  9
$DIMDSEP
 70
    46
  9
$DIMATFIT
 70
     3
  9
$DIMFRAC
 70
     0
  9
$DIMLDRBLK
  1

  9
$DIMLUNIT
 70
     2
  9
$DIMLWD
 70
    -2
  9
$DIMLWE
 70
    -2
  9
$DIMTMOVE
 70
     2
  9
$LUNITS
 70
     2
  9
$LUPREC
 70
     3
  9
$SKETCHINC
 40
0.1
  9
$FILLETRAD
 40
0.5
  9
$AUNITS
 70
     0
  9
$AUPREC
 70
     0
  9
$MENU
  1
.
  9
$ELEVATION
 40
0.0
  9
$PELEVATION
 40
0.0
  9
$THICKNESS
 40
0.0
  9
$LIMCHECK
 70
     0
  9
$CHAMFERA
 40
0.5
  9
$CHAMFERB
 40
0.5
  9
$CHAMFERC
 40
1.0
  9
$CHAMFERD
 40
0.0
  9
$SKPOLY
 70
     0
  9
$TDCREATE
 40
2456377.850188403
  9
$TDUCREATE
 40
2456377.808521736
  9
$TDUPDATE
 40
2456377.850188415
  9
$TDUUPDATE
 40
2456377.808521748
  9
$TDINDWG
 40
0.0000000116
  9
$TDUSRTIMER
 40
0.0000000116
  9
$USRTIMER
 70
     1
  9
$ANGBASE
 50
0.0
  9
$ANGDIR
 70
     0
  9
$PDMODE
 70
     0
  9
$PDSIZE
 40
0.0
  9
$PLINEWID
 40
0.0
  9
$SPLFRAME
 70
     0
  9
$SPLINETYPE
 70
     6
  9
$SPLINESEGS
 70
     8
  9
$HANDSEED
  5
122
  9
$SURFTAB1
 70
     6
  9
$SURFTAB2
 70
     6
  9
$SURFTYPE
 70
     6
  9
$SURFU
 70
     6
  9
$SURFV
 70
     6
  9
$UCSBASE
  2

  9
$UCSNAME
  2

  9
$UCSORG
 10
0.0
 20
0.0
 30
0.0
  9
$UCSXDIR
 10
1.0
 20
0.0
 30
0.0
  9
$UCSYDIR
 10
0.0
 20
1.0
 30
0.0
  9
$UCSORTHOREF
  2

  9
$UCSORTHOVIEW
 70
     0
  9
$UCSORGTOP
 10
0.0
 20
0.0
 30
0.0
  9
$UCSORGBOTTOM
 10
0.0
 20
0.0
 30
0.0
  9
$UCSORGLEFT
 10
0.0
 20
0.0
 30
0.0
  9
$UCSORGRIGHT
 10
0.0
 20
0.0
 30
0.0
  9
$UCSORGFRONT
 10
0.0
 20
0.0
 30
0.0
  9
$UCSORGBACK
 10
0.0
 20
0.0
 30
0.0
  9
$PUCSBASE
  2

  9
$PUCSNAME
  2

  9
$PUCSORG
 10
0.0
 20
0.0
 30
0.0
  9
$PUCSXDIR
 10
1.0
 20
0.0
 30
0.0
  9
$PUCSYDIR
 10
0.0
 20
1.0
 30
0.0
  9
$PUCSORTHOREF
  2

  9
$PUCSORTHOVIEW
 70
     0
  9
$PUCSORGTOP
 10
0.0
 20
0.0
 30
0.0
  9
$PUCSORGBOTTOM
 10
0.0
 20
0.0
 30
0.0
  9
$PUCSORGLEFT
 10
0.0
 20
0.0
 30
0.0
  9
$PUCSORGRIGHT
 10
0.0
 20
0.0
 30
0.0
  9
$PUCSORGFRONT
 10
0.0
 20
0.0
 30
0.0
  9
$PUCSORGBACK
 10
0.0
 20
0.0
 30
0.0
  9
$USERI1
 70
     0
  9
$USERI2
 70
     0
  9
$USERI3
 70
     0
  9
$USERI4
 70
     0
  9
$USERI5
 70
     0
  9
$USERR1
 40
0.0
  9
$USERR2
 40
0.0
  9
$USERR3
 40
0.0
  9
$USERR4
 40
0.0
  9
$USERR5
 40
0.0
  9
$WORLDVIEW
 70
     1
  9
$SHADEDGE
 70
     3
  9
$SHADEDIF
 70
    70
  9
$TILEMODE
 70
     1
  9
$MAXACTVP
 70
    64
  9
$PINSBASE
 10
0.0
 20
0.0
 30
0.0
  9
$PLIMCHECK
 70
     0
  9
$PEXTMIN
 10
1.000000000000000E+20
 20
1.000000000000000E+20
 30
1.000000000000000E+20
  9
$PEXTMAX
 10
-1.000000000000000E+20
 20
-1.000000000000000E+20
 30
-1.000000000000000E+20
  9
$PLIMMIN
 10
0.0
 20
0.0
  9
$PLIMMAX
 10
12.0
 20
9.0
  9
$UNITMODE
 70
     0
  9
$VISRETAIN
 70
     1
  9
$PLINEGEN
 70
     0
  9
$PSLTSCALE
 70
     1
  9
$TREEDEPTH
 70
  3020
  9
$CMLSTYLE
  2
Standard
  9
$CMLJUST
 70
     0
  9
$CMLSCALE
 40
1.0
  9
$PROXYGRAPHICS
 70
     1
  9
$MEASUREMENT
 70
     0
  9
$CELWEIGHT
370
    -1
  9
$ENDCAPS
280
     0
  9
$JOINSTYLE
280
     0
  9
$LWDISPLAY
290
     0
  9
$INSUNITS
 70
     4
  9
$HYPERLINKBASE
  1

  9
$STYLESHEET
  1

  9
$XEDIT
290
     1
  9
$CEPSNTYPE
380
     0
  9
$PSTYLEMODE
290
     1
  9
$FINGERPRINTGUID
  2
{5E242017-F131-4C8A-9C30-51D4BAD8F9D1}
  9
$VERSIONGUID
  2
{FAEB1C32-E019-11D5-929B-00C0DF256EC4}
  9
$EXTNAMES
290
     1
  9
$PSVPSCALE
 40
0.0
  9
$OLESTARTUP
290
     0
  9
$SORTENTS
280
   127
  9
$INDEXCTL
280
     0
  9
$HIDETEXT
280
     1
  9
$XCLIPFRAME
290
     0
  9
$HALOGAP
280
     0
  9
$OBSCOLOR
 70
   257
  9
$OBSLTYPE
280
     0
  9
$INTERSECTIONDISPLAY
280
     0
  9
$INTERSECTIONCOLOR
 70
   257
  9
$DIMASSOC
280
     2
  9
$PROJECTNAME
  1

  0
ENDSEC
  0
SECTION
  2
CLASSES
  0
CLASS
  1
ACDBDICTIONARYWDFLT
  2
AcDbDictionaryWithDefault
  3
ObjectDBX Classes
 90
        0
 91
        4
280
     0
281
     0
  0
CLASS
  1
VISUALSTYLE
  2
AcDbVisualStyle
  3
ObjectDBX Classes
 90
     4095
 91
        4
280
     0
281
     0
  0
ENDSEC
  0
SECTION
  2
TABLES
  0
TABLE
  2
VPORT
  5
8
330
0
100
AcDbSymbolTable
 70
     1
  0
VPORT
  5
29
330
8
100
AcDbSymbolTableRecord
100
AcDbViewportTableRecord
  2
*Active
 70
     0
 10
0.0
 20
0.0
 11
1.0
 21
1.0
 12
-4255.763072695931
 22
3475.50191766697
 13
0.0
 23
0.0
 14
0.5
 24
0.5
 15
0.5
 25
0.5
 16
0.0
 26
0.0
 36
1.0
 17
0.0
 27
0.0
 37
0.0
 40
2690.180412986562
 41
1.003691191934524
 42
50.0
 43
0.0
 44
0.0
 50
0.0
 51
0.0
 71
     0
 72
   100
 73
     1
 74
     3
 75
     0
 76
     0
 77
     0
 78
     0
281
     0
 65
     1
110
0.0
120
0.0
130
0.0
111
1.0
121
0.0
131
0.0
112
0.0
122
1.0
132
0.0
 79
     0
146
0.0
  0
ENDTAB
  0
TABLE
  2
LTYPE
  5
5
330
0
100
AcDbSymbolTable
 70
     1
  0
LTYPE
  5
14
330
5
100
AcDbSymbolTableRecord
100
AcDbLinetypeTableRecord
  2
ByBlock
 70
     0
  3

 72
    65
 73
     0
 40
0.0
  0
LTYPE
  5
15
330
5
100
AcDbSymbolTableRecord
100
AcDbLinetypeTableRecord
  2
ByLayer
 70
     0
  3

 72
    65
 73
     0
 40
0.0
  0
LTYPE
  5
16
330
5
100
AcDbSymbolTableRecord
100
AcDbLinetypeTableRecord
  2
Continuous
 70
     0
  3
Solid line
 72
    65
 73
     0
 40
0.0
  0
ENDTAB
  0
TABLE
  2
LAYER
  5
2
330
0
100
AcDbSymbolTable
 70
     2
  0
LAYER
  5
10
330
2
100
AcDbSymbolTableRecord
100
AcDbLayerTableRecord
  2
0
 70
     0
 62
     7
  6
Continuous
370
    -3
390
F
  0
LAYER
  5
3B
330
2
100
AcDbSymbolTableRecord
100
AcDbLayerTableRecord
  2
2D
 70
     0
 62
     7
  6
Continuous
370
    -3
390
F
  0
ENDTAB
  0
TABLE
  2
STYLE
  5
3
330
0
100
AcDbSymbolTable
 70
     1
  0
STYLE
  5
11
330
3
100
AcDbSymbolTableRecord
100
AcDbTextStyleTableRecord
  2
Standard
 70
     0
 40
0.0
 41
1.0
 50
0.0
 71
     0
 42
0.2
  3
txt
  4

  0
ENDTAB
  0
TABLE
  2
VIEW
  5
6
330
0
100
AcDbSymbolTable
 70
     0
  0
ENDTAB
  0
TABLE
  2
UCS
  5
7
330
0
100
AcDbSymbolTable
 70
     0
  0
ENDTAB
  0
TABLE
  2
APPID
  5
9
330
0
100
AcDbSymbolTable
 70
     1
  0
APPID
  5
12
330
9
100
AcDbSymbolTableRecord
100
AcDbRegAppTableRecord
  2
ACAD
 70
     0
  0
ENDTAB
  0
TABLE
  2
DIMSTYLE
  5
A
330
0
100
AcDbSymbolTable
 70
     1
100
AcDbDimStyleTable
  0
DIMSTYLE
105
27
330
A
100
AcDbSymbolTableRecord
100
AcDbDimStyleTableRecord
  2
Standard
 70
     0
340
11
  0
ENDTAB
  0
TABLE
  2
BLOCK_RECORD
  5
1
330
0
100
AcDbSymbolTable
 70
     1
  0
BLOCK_RECORD
  5
1F
330
1
100
AcDbSymbolTableRecord
100
AcDbBlockTableRecord
  2
*Model_Space
340
22
  0
BLOCK_RECORD
  5
1B
330
1
100
AcDbSymbolTableRecord
100
AcDbBlockTableRecord
  2
*Paper_Space
340
1E
  0
BLOCK_RECORD
  5
23
330
1
100
AcDbSymbolTableRecord
100
AcDbBlockTableRecord
  2
*Paper_Space0
340
26
  0
ENDTAB
  0
ENDSEC
  0
SECTION
  2
BLOCKS
  0
BLOCK
  5
20
330
1F
100
AcDbEntity
  8
0
100
AcDbBlockBegin
  2
*Model_Space
 70
     0
 10
0.0
 20
0.0
 30
0.0
  3
*Model_Space
  1

  0
ENDBLK
  5
21
330
1F
100
AcDbEntity
  8
0
100
AcDbBlockEnd
  0
BLOCK
  5
1C
330
1B
100
AcDbEntity
 67
     1
  8
0
100
AcDbBlockBegin
  2
*Paper_Space
 70
     0
 10
0.0
 20
0.0
 30
0.0
  3
*Paper_Space
  1

  0
ENDBLK
  5
1D
330
1B
100
AcDbEntity
 67
     1
  8
0
100
AcDbBlockEnd
  0
BLOCK
  5
24
330
23
100
AcDbEntity
  8
0
100
AcDbBlockBegin
  2
*Paper_Space0
 70
     0
 10
0.0
 20
0.0
 30
0.0
  3
*Paper_Space0
  1

  0
ENDBLK
  5
25
330
23
100
AcDbEntity
  8
0
100
AcDbBlockEnd
  0
ENDSEC
  0
SECTION
  2
ENTITIES
  0
SPLINE
  5
3C
330
1F
100
AcDbEntity
  8
2D
100
AcDbSpline
210
0.0
220
0.0
230
1.0
 70
     8
 71
     3
 72
    10
 73
     6
 74
     0
 42
0.0000000001
 43
0.0000000001
 40
-276.0804386410694
 40
-276.0804386410694
 40
-276.0804386410694
 40
-276.0804386410694
 40
-138.0633750982115
 40
-138.0633750982115
 40
0.0
 40
0.0
 40
0.0
 40
0.0
 10
-3951.405385582566
 20
2736.380453673066
 30
0.0
 10
-3911.56287221624
 20
2713.377414651459
 30
0.0
 10
-3871.720358848972
 20
2690.374375631482
 30
0.0
 10
-3792.021962959159
 20
2644.360578968518
 30
0.0
 10
-3752.166080953186
 20
2621.349820430803
 30
0.0
 10
-3712.31019706502
 20
2598.339065153148
 30
0.0
  0
LINE
  5
3D
330
1F
100
AcDbEntity
  8
2D
100
AcDbLine
 10
-3712.31019706502
 20
2598.339065153148
 30
0.0
 11
-3705.296899915757
 21
2594.289635543136
 31
0.0
  0
LINE
  5
3E
330
1F
100
AcDbEntity
  8
2D
100
AcDbLine
 10
-3705.296899915757
 20
2594.289635543136
 30
0.0
 11
-3704.198988424865
 21
2593.655755304574
 31
0.0
  0
SPLINE
  5
3F
330
1F
100
AcDbEntity
  8
2D
100
AcDbSpline
210
0.0
220
0.0
230
1.0
 70
     8
 71
     3
 72
     8
 73
     4
 74
     0
 42
0.0000000001
 43
0.0000000001
 40
-5.98306392782907
 40
-5.98306392782907
 40
-5.98306392782907
 40
-5.98306392782907
 40
0.0
 40
0.0
 40
0.0
 40
0.0
 10
-3704.198988424865
 20
2593.655755304574
 30
0.0
 10
-3702.41644015794
 20
2592.626599425397
 30
0.0
 10
-3700.633891701025
 20
2591.597443875289
 30
0.0
 10
-3698.851343361868
 20
2590.568288121204
 30
0.0
  0
SPLINE
  5
40
330
1F
100
AcDbEntity
  8
2D
100
AcDbSpline
210
0.0
220
0.0
230
1.0
 70
     8
 71
     3
 72
     8
 73
     4
 74
     0
 42
0.0000000001
 43
0.0000000001
 40
-5.95624451971756
 40
-5.95624451971756
 40
-5.95624451971756
 40
-5.95624451971756
 40
0.0
 40
0.0
 40
0.0
 40
0.0
 10
-3698.851343361868
 20
2590.568288121204
 30
0.0
 10
-3697.131913537571
 20
2589.575598257314
 30
0.0
 10
-3695.412482560219
 20
2588.582910390708
 30
0.0
 10
-3693.693048803794
 20
2587.590227337681
 30
0.0
  0
SPLINE
  5
41
330
1F
100
AcDbEntity
  8
2D
100
AcDbSpline
210
0.0
220
0.0
230
1.0
 70
     8
 71
     3
 72
     8
 73
     4
 74
     0
 42
0.0000000001
 43
0.0000000001
 40
-5.010347957557437
 40
-5.010347957557437
 40
-5.010347957557437
 40
-5.010347957557437
 40
0.0
 40
0.0
 40
0.0
 40
0.0
 10
-3693.693048803794
 20
2587.590227337681
 30
0.0
 10
-3692.160949730194
 20
2586.705646082136
 30
0.0
 10
-3690.628767565839
 20
2585.821208826269
 30
0.0
 10
-3689.096930210111
 20
2584.936174260115
 30
0.0
  0
SPLINE
  5
42
330
1F
100
AcDbEntity
  8
2D
100
AcDbSpline
210
0.0
220
0.0
230
1.0
 70
     8
 71
     3
 72
     8
 73
     4
 74
     0
 42
0.0000000001
 43
0.0000000001
 40
-0.4884861954223172
 40
-0.4884861954223172
 40
-0.4884861954223172
 40
-0.4884861954223172
 40
0.0
 40
0.0
 40
0.0
 40
0.0
 10
-3689.096930210111
 20
2584.936174260115
 30
0.0
 10
-3688.95594204398
 20
2584.854715479662
 30
0.0
 10
-3688.814953681467
 20
2584.773257039083
 30
0.0
 10
-3688.67396511052
 20
2584.691798931515
 30
0.0
  0
SPLINE
  5
43
330
1F
100
AcDbEntity
  8
2D
100
AcDbSpline
210
0.0
220
0.0
230
1.0
 70
     8
 71
     3
 72
     8
 73
     4
 74
     0
 42
0.0000000001
 43
0.0000000001
 40
-14.45092956368633
 40
-14.45092956368633
 40
-14.45092956368633
 40
-14.45092956368633
 40
0.0
 40
0.0
 40
0.0
 40
0.0
 10
-3688.67396511052
 20
2584.691798931515
 30
0.0
 10
-3684.502257014428
 20
2582.283456243913
 30
0.0
 10
-3680.330549316201
 20
2579.87511289573
 30
0.0
 10
-3676.158840408119
 20
2577.466771641188
 30
0.0
  0
SPLINE
  5
44
330
1F
100
AcDbEntity
  8
2D
100
AcDbSpline
210
0.0
220
0.0
230
1.0
 70
    12
 71
     3
 72
    23
 73
    19
 74
     0
 42
0.0000000001
 43
0.0000000001
 40
-1.982430456905084
 40
-1.982430456905084
 40
-1.982430456905084
 40
-1.982430456905084
 40
0.0
 40
0.0
 40
0.0
 40
6.785486518593274
 40
6.785486518593274
 40
13.5456957679182
 40
13.5456957679182
 40
20.10807516633374
 40
20.10807516633374
 40
26.4443359762025
 40
26.4443359762025
 40
26.4443359762025
 40
342.1913106662998
 40
342.1913106662998
 40
342.1913106662998
 40
361.1806534993967
 40
361.1806534993967
 40
361.1806534993967
 40
361.1806534993967
 10
-3676.158840408119
 20
2577.466771641188
 30
0.0
 41
1.0
 10
-3675.586540541728
 20
2577.13640378383
 30
0.0
 41
1.0
 10
-3675.014203981049
 20
2576.806011724752
 30
0.0
 41
1.0
 10
-3674.441907222481
 20
2576.475638485043
 30
0.0
 41
1.0
 10
-3674.227468051631
 20
2576.351826053561
 30
0.0
 41
1.0
 10
-3673.390040229016
 20
2576.047045186401
 30
0.0
 41
1.0
 10
-3670.583334183353
 20
2575.115642424796
 30
0.0
 41
1.0
 10
-3668.65010995181
 20
2574.500745697554
 30
0.0
 41
1.0
 10
-3664.027416782275
 20
2573.067334557431
 30
0.0
 41
1.0
 10
-3661.40324783502
 20
2572.268137333984
 30
0.0
 41
1.0
 10
-3655.837084266877
 20
2570.597036157141
 30
0.0
 41
1.0
 10
-3652.949248413159
 20
2569.740590033819
 30
0.0
 41
1.0
 10
-3650.039181660566
 20
2568.887429909792
 30
0.0
 41
1.0
 10
-3549.041159143668
 20
2539.277470896283
 30
0.0
 41
1.0
 10
-3448.04313662678
 20
2509.667511882782
 30
0.0
 41
1.0
 10
-3347.045114109882
 20
2480.057552869272
 30
0.0000000000000001
 41
1.0
 10
-3341.07663961578
 20
2478.307753408019
 30
0.0000000000000021
 41
0.9778498669261779
 10
-3334.906193273885
 20
2477.13329888964
 30
-0.0000000000000008
 41
0.9591416440757868
 10
-3328.58926829796
 20
2476.581248640779
 30
0.0
 41
0.9438753314488268
  0
SPLINE
  5
45
330
1F
100
AcDbEntity
  8
2D
100
AcDbSpline
210
0.0
220
0.0
230
1.0
 70
     8
 71
     3
 72
     8
 73
     4
 74
     0
 42
0.0000000001
 43
0.0000000001
 40
-3.856059846691052
 40
-3.856059846691052
 40
-3.856059846691052
 40
-3.856059846691052
 40
0.0
 40
0.0
 40
0.0
 40
0.0
 10
-3328.589268297961
 20
2476.581248640779
 30
0.0
 10
-3327.308795365385
 20
2476.469345240392
 30
0.0
 10
-3326.025786881091
 20
2476.383416775768
 30
0.0
 10
-3324.741827631991
 20
2476.323569384853
 30
0.0
  0
SPLINE
  5
46
330
1F
100
AcDbEntity
  8
2D
100
AcDbSpline
210
0.0
220
0.0
230
1.0
 70
    12
 71
     3
 72
     8
 73
     4
 74
     0
 42
0.0000000001
 43
0.0000000001
 40
-102.8953763350933
 40
-102.8953763350933
 40
-102.8953763350933
 40
-102.8953763350933
 40
0.0
 40
0.0
 40
0.0
 40
0.0
 10
-3324.74182763199
 20
2476.323569384853
 30
0.0
 41
0.9378570462892597
 10
-3288.178911422428
 20
2474.619313474476
 30
0.0000000000000016
 41
0.8654606304479151
 10
-3256.572301076434
 20
2492.231494375385
 30
-0.0000000000000056
 41
0.8861749483514952
 10
-3238.442741148421
 20
2523.040082389304
 30
0.0
 41
1.0
  0
SPLINE
  5
47
330
1F
100
AcDbEntity
  8
2D
100
AcDbSpline
210
0.0
220
0.0
230
1.0
 70
     8
 71
     3
 72
     8
 73
     4
 74
     0
 42
0.0000000001
 43
0.0000000001
 40
-0.787616865565511
 40
-0.787616865565511
 40
-0.787616865565511
 40
-0.787616865565511
 40
0.0
 40
0.0
 40
0.0
 40
0.0
 10
-3238.442741148421
 20
2523.040082389304
 30
0.0
 10
-3238.309591348341
 20
2523.266351772409
 30
0.0
 10
-3238.177378386499
 20
2523.493175061791
 30
0.0
 10
-3238.046109078623
 20
2523.720540564454
 30
0.0
  0
LINE
  5
48
330
1F
100
AcDbEntity
  8
2D
100
AcDbLine
 10
-3238.046109078623
 20
2523.720540564454
 30
0.0
 11
-3116.468487160615
 21
2734.299158977637
 31
0.0
  0
LINE
  5
49
330
1F
100
AcDbEntity
  8
2D
100
AcDbLine
 10
-3116.468487160615
 20
2734.299158977637
 30
0.0
 11
-3066.468487160619
 21
2820.901699356081
 31
0.0
  0
LINE
  5
4A
330
1F
100
AcDbEntity
  8
2D
100
AcDbLine
 10
-3066.468487160619
 20
2820.901699356081
 30
0.0
 11
-2944.890865084952
 21
3031.480317666736
 31
0.0
  0
SPLINE
  5
4B
330
1F
100
AcDbEntity
  8
2D
100
AcDbSpline
210
0.0
220
0.0
230
1.0
 70
     8
 71
     3
 72
     8
 73
     4
 74
     0
 42
0.0000000001
 43
0.0000000001
 40
0.0
 40
0.0
 40
0.0
 40
0.0
 40
0.7876168655652939
 40
0.7876168655652939
 40
0.7876168655652939
 40
0.7876168655652939
 10
-2944.890865084952
 20
3031.480317666736
 30
0.0
 10
-2944.759595432664
 20
3031.707682982055
 30
0.0
 10
-2944.629267182809
 20
3031.935594410414
 30
0.0
 10
-2944.499887048984
 20
3032.164040211343
 30
0.0
  0
SPLINE
  5
4C
330
1F
100
AcDbEntity
  8
2D
100
AcDbSpline
210
0.0
220
0.0
230
1.0
 70
    12
 71
     3
 72
     8
 73
     4
 74
     0
 42
0.0000000001
 43
0.0000000001
 40
-103.3063954314581
 40
-103.3063954314581
 40
-103.3063954314581
 40
-103.3063954314581
 40
0.0
 40
0.0
 40
0.0
 40
0.0
 10
-2944.499887048984
 20
3032.164040211343
 30
0.0
 41
0.9999999999999913
 10
-2926.883647138214
 20
3063.268993675395
 30
0.000000000000002
 41
0.8861749483514937
 10
-2927.434356234963
 20
3099.447211612995
 30
-0.0000000000000091
 41
0.8654606304479165
 10
-2947.191743252685
 20
3130.259497931729
 30
0.0
 41
0.9378570462892603
  0
SPLINE
  5
4D
330
1F
100
AcDbEntity
  8
2D
100
AcDbSpline
210
0.0
220
0.0
230
1.0
 70
     8
 71
     3
 72
     8
 73
     4
 74
     0
 42
0.0000000001
 43
0.0000000001
 40
0.0
 40
0.0
 40
0.0
 40
0.0
 40
3.85605984668308
 40
3.85605984668308
 40
3.85605984668308
 40
3.85605984668308
 10
-2947.191743252686
 20
3130.259497931729
 30
0.0
 10
-2947.885552238113
 20
3131.341515563414
 30
0.0
 10
-2948.601472713537
 20
3132.409669271778
 30
0.0
 10
-2949.338620367329
 20
3133.462639660049
 30
0.0
  0
SPLINE
  5
4E
330
1F
100
AcDbEntity
  8
2D
100
AcDbSpline
210
0.0
220
0.0
230
1.0
 70
    12
 71
     3
 72
    21
 73
    17
 74
     0
 42
0.0000000001
 43
0.0000000001
 40
-18.62663024147148
 40
-18.62663024147148
 40
-18.62663024147148
 40
-18.62663024147148
 40
0.0
 40
0.0
 40
0.0
 40
315.746974690097
 40
315.746974690097
 40
315.746974690097
 40
330.6266503989227
 40
330.6266503989227
 40
338.067502755901
 40
338.067502755901
 40
340.3336286956197
 40
340.3336286956197
 40
340.3336286956197
 40
342.3161364061273
 40
342.3161364061273
 40
342.3161364061273
 40
342.3161364061273
 10
-2949.338620367326
 20
3133.462639660048
 30
0.0
 41
0.946568510968095
 10
-2952.97517239497
 20
3138.657232038567
 30
0.0000000000000057
 41
0.961878383288938
 10
-2957.077503014423
 20
3143.413768064145
 30
-0.0000000000000011
 41
0.9806399867087154
 10
-2961.577111046449
 20
3147.707718867246
 30
0.0
 41
1.002853321227427
 10
-3037.719099015607
 20
3220.369592592119
 30
0.0
 41
1.002853321227427
 10
-3113.861086984764
 20
3293.031466316989
 30
0.0
 41
1.002853321227427
 10
-3190.003074953926
 20
3365.693340041864
 30
0.0
 41
1.002853321227427
 10
-3193.084711577238
 20
3368.634118911758
 30
0.0
 41
1.002853321227427
 10
-3196.177906226169
 20
3371.562447568088
 30
0.0
 41
1.002853321227427
 10
-3200.84464827025
 20
3375.927225764137
 30
0.0
 41
1.002853321227427
 10
-3202.404658264086
 20
3377.377557829538
 30
0.0
 41
1.002853321227427
 10
-3204.452496467685
 20
3379.256029404998
 30
0.0
 41
1.002853321227427
 10
-3208.192966608615
 20
3382.696006573854
 30
0.0
 41
1.002853321227427
 10
-3208.77601913027
 20
3383.032616012434
 30
0.0
 41
1.002853321227427
 10
-3209.34830142835
 20
3383.363065800851
 30
0.0
 41
1.002853321227427
 10
-3209.9205530242
 20
3383.693502018513
 30
0.0
 41
1.002853321227427
 10
-3210.492833205947
 20
3384.023955473072
 30
0.0
 41
1.002853321227427
  0
SPLINE
  5
4F
330
1F
100
AcDbEntity
  8
2D
100
AcDbSpline
210
0.0
220
0.0
230
1.0
 70
     8
 71
     3
 72
     8
 73
     4
 74
     0
 42
0.0000000001
 43
0.0000000001
 40
0.0
 40
0.0
 40
0.0
 40
0.0
 40
14.45092956344672
 40
14.45092956344672
 40
14.45092956344672
 40
14.45092956344672
 10
-3210.492833205946
 20
3384.023955473072
 30
0.0
 10
-3214.664373358439
 20
3386.432589020687
 30
0.0
 10
-3218.835911745977
 20
3388.841225623946
 30
0.0
 10
-3223.007451742455
 20
3391.249859468459
 30
0.0
  0
SPLINE
  5
50
330
1F
100
AcDbEntity
  8
2D
100
AcDbSpline
210
0.0
220
0.0
230
1.0
 70
     8
 71
     3
 72
     8
 73
     4
 74
     0
 42
0.0000000001
 43
0.0000000001
 40
0.0
 40
0.0
 40
0.0
 40
0.0
 40
0.4884861954203214
 40
0.4884861954203214
 40
0.4884861954203214
 40
0.4884861954203214
 10
-3223.007451742455
 20
3391.249859468459
 30
0.0
 10
-3223.148490818476
 20
3391.331230098678
 30
0.0
 10
-3223.289530078622
 20
3391.412600381957
 30
0.0
 10
-3223.430569534921
 20
3391.493970325233
 30
0.0
  0
SPLINE
  5
51
330
1F
100
AcDbEntity
  8
2D
100
AcDbSpline
210
0.0
220
0.0
230
1.0
 70
     8
 71
     3
 72
     8
 73
     4
 74
     0
 42
0.0000000001
 43
0.0000000001
 40
-5.627574001054391
 40
-5.627574001054391
 40
-5.627574001054391
 40
-5.627574001054391
 40
0.0
 40
0.0
 40
0.0
 40
0.0
 10
-3223.430569534921
 20
3391.493970325233
 30
0.0
 10
-3224.962950630346
 20
3392.378063106596
 30
0.0
 10
-3226.494986844114
 20
3393.262753156305
 30
0.0
 10
-3228.027106219935
 20
3394.147299247375
 30
0.0
  0
SPLINE
  5
52
330
1F
100
AcDbEntity
  8
2D
100
AcDbSpline
210
0.0
220
0.0
230
1.0
 70
     8
 71
     3
 72
     8
 73
     4
 74
     0
 42
0.0000000001
 43
0.0000000001
 40
0.0
 40
0.0
 40
0.0
 40
0.0
 40
5.956244519703787
 40
5.956244519703787
 40
5.956244519703787
 40
5.956244519703787
 10
-3228.027106219935
 20
3394.147299247375
 30
0.0
 10
-3229.746511839989
 20
3395.14003103402
 30
0.0
 10
-3231.465920239298
 20
3396.132758006958
 30
0.0
 10
-3233.185329791577
 20
3397.125482982998
 30
0.0
  0
SPLINE
  5
53
330
1F
100
AcDbEntity
  8
2D
100
AcDbSpline
210
0.0
220
0.0
230
1.0
 70
     8
 71
     3
 72
     8
 73
     4
 74
     0
 42
0.0000000001
 43
0.0000000001
 40
-6.343275324717734
 40
-6.343275324717734
 40
-6.343275324717734
 40
-6.343275324717734
 40
0.0
 40
0.0
 40
0.0
 40
0.0
 10
-3233.185329791577
 20
3397.125482982998
 30
0.0
 10
-3234.967878988573
 20
3398.154637251264
 30
0.0
 10
-3236.750428067873
 20
3399.183791723369
 30
0.0
 10
-3238.53297733716
 20
3400.212945866411
 30
0.0
  0
LINE
  5
54
330
1F
100
AcDbEntity
  8
2D
100
AcDbLine
 10
-3238.53297733716
 20
3400.212945866411
 30
0.0
 11
-3239.630889472155
 21
3400.846824989353
 31
0.0
  0
LINE
  5
55
330
1F
100
AcDbEntity
  8
2D
100
AcDbLine
 10
-3239.630889472155
 20
3400.846824989353
 30
0.0
 11
-3243.137668206135
 21
3402.871314321259
 31
0.0
  0
SPLINE
  5
56
330
1F
100
AcDbEntity
  8
2D
100
AcDbSpline
210
0.0
220
0.0
230
1.0
 70
     8
 71
     3
 72
     8
 73
     4
 74
     0
 42
0.0000000001
 43
0.0000000001
 40
-280.1284256450001
 40
-280.1284256450001
 40
-280.1284256450001
 40
-280.1284256450001
 40
0.0
 40
0.0
 40
0.0
 40
0.0
 10
-3243.137668206135
 20
3402.871314321259
 30
0.0
 10
-3324.006429074914
 20
3449.557448922408
 30
0.0
 10
-3404.872171685893
 20
3496.248811096482
 30
0.0
 10
-3485.739390450599
 20
3542.937616598762
 30
0.0
  0
LINE
  5
57
330
1F
100
AcDbEntity
  8
2D
100
AcDbLine
 10
-3188.815591123468
 20
2833.803866242153
 30
0.0
 11
-3130.439613282069
 21
2800.100419323703
 31
0.0
  0
LINE
  5
58
330
1F
100
AcDbEntity
  8
2D
100
AcDbLine
 10
-3130.439613282069
 20
2800.100419323703
 30
0.0
 11
-3091.468487078779
 21
2777.600429119609
 31
0.0
  0
SPLINE
  5
59
330
1F
100
AcDbEntity
  8
2D
100
AcDbSpline
210
0.0
220
0.0
230
1.0
 70
     8
 71
     3
 72
    10
 73
     6
 74
     0
 42
0.0000000001
 43
0.0000000001
 40
-276.0804386408666
 40
-276.0804386408666
 40
-276.0804386408666
 40
-276.0804386408666
 40
-138.0633750982044
 40
-138.0633750982044
 40
0.0
 40
0.0
 40
0.0
 40
0.0
 10
-5025.786754941266
 20
3542.937616598762
 30
0.0
 10
-5065.629227781355
 20
3519.934507383721
 30
0.0
 10
-5105.471700620506
 20
3496.931398167052
 30
0.0
 10
-5185.170015400108
 20
3450.917461017084
 30
0.0
 10
-5225.025857857083
 20
3427.906633978427
 30
0.0
 10
-5264.881698431967
 20
3404.895803679899
 30
0.0
  0
LINE
  5
5A
330
1F
100
AcDbEntity
  8
2D
100
AcDbLine
 10
-5264.881698431967
 20
3404.895803679899
 30
0.0
 11
-5271.89525591971
 21
3400.846824989353
 31
0.0
  0
LINE
  5
5B
330
1F
100
AcDbEntity
  8
2D
100
AcDbLine
 10
-5271.89525591971
 20
3400.846824989353
 30
0.0
 11
-5272.993168054705
 21
3400.212945866414
 31
0.0
  0
SPLINE
  5
5C
330
1F
100
AcDbEntity
  8
2D
100
AcDbSpline
210
0.0
220
0.0
230
1.0
 70
     8
 71
     3
 72
     8
 73
     4
 74
     0
 42
0.0000000001
 43
0.0000000001
 40
-5.983063927821133
 40
-5.983063927821133
 40
-5.983063927821133
 40
-5.983063927821133
 40
0.0
 40
0.0
 40
0.0
 40
0.0
 10
-5272.993168054705
 20
3400.212945866414
 30
0.0
 10
-5274.775717323988
 20
3399.183791723367
 30
0.0
 10
-5276.558266403285
 20
3398.154637251259
 30
0.0
 10
-5278.340815600353
 20
3397.12548298312
 30
0.0
  0
SPLINE
  5
5D
330
1F
100
AcDbEntity
  8
2D
100
AcDbSpline
210
0.0
220
0.0
230
1.0
 70
     8
 71
     3
 72
     8
 73
     4
 74
     0
 42
0.0000000001
 43
0.0000000001
 40
-5.956244519691167
 40
-5.956244519691167
 40
-5.956244519691167
 40
-5.956244519691167
 40
0.0
 40
0.0
 40
0.0
 40
0.0
 10
-5278.340815600353
 20
3397.12548298312
 30
0.0
 10
-5280.060225152698
 20
3396.132758007205
 30
0.0
 10
-5281.779633551894
 20
3395.140031034058
 30
0.0
 10
-5283.499039171933
 20
3394.147299247388
 30
0.0
  0
SPLINE
  5
5E
330
1F
100
AcDbEntity
  8
2D
100
AcDbSpline
210
0.0
220
0.0
230
1.0
 70
     8
 71
     3
 72
     8
 73
     4
 74
     0
 42
0.0000000001
 43
0.0000000001
 40
-5.010347957546998
 40
-5.010347957546998
 40
-5.010347957546998
 40
-5.010347957546998
 40
0.0
 40
0.0
 40
0.0
 40
0.0
 10
-5283.499039171933
 20
3394.147299247388
 30
0.0
 10
-5285.031158547743
 20
3393.2627531563
 30
0.0
 10
-5286.563194761555
 20
3392.37806310667
 30
0.0
 10
-5288.095575856943
 20
3391.493970325233
 30
0.0
  0
SPLINE
  5
5F
330
1F
100
AcDbEntity
  8
2D
100
AcDbSpline
210
0.0
220
0.0
230
1.0
 70
     8
 71
     3
 72
     8
 73
     4
 74
     0
 42
0.0000000001
 43
0.0000000001
 40
-0.4884861954283261
 40
-0.4884861954283261
 40
-0.4884861954283261
 40
-0.4884861954283261
 40
0.0
 40
0.0
 40
0.0
 40
0.0
 10
-5288.095575856943
 20
3391.493970325233
 30
0.0
 10
-5288.236615313243
 20
3391.412600381956
 30
0.0
 10
-5288.377654573389
 20
3391.331230098679
 30
0.0
 10
-5288.518693649359
 20
3391.249859468378
 30
0.0
  0
SPLINE
  5
60
330
1F
100
AcDbEntity
  8
2D
100
AcDbSpline
210
0.0
220
0.0
230
1.0
 70
     8
 71
     3
 72
     8
 73
     4
 74
     0
 42
0.0000000001
 43
0.0000000001
 40
-14.45092956367894
 40
-14.45092956367894
 40
-14.45092956367894
 40
-14.45092956367894
 40
0.0
 40
0.0
 40
0.0
 40
0.0
 10
-5288.518693649359
 20
3391.249859468378
 30
0.0
 10
-5292.690233645881
 20
3388.841225623792
 30
0.0
 10
-5296.861774015568
 20
3386.43259245405
 30
0.0
 10
-5301.03331317702
 20
3384.023957189731
 30
0.0
  0
SPLINE
  5
61
330
1F
100
AcDbEntity
  8
2D
100
AcDbSpline
210
0.0
220
0.0
230
1.0
 70
    12
 71
     3
 72
    23
 73
    19
 74
     0
 42
0.0000000001
 43
0.0000000001
 40
-1.9824304569095
 40
-1.9824304569095
 40
-1.9824304569095
 40
-1.9824304569095
 40
0.0
 40
0.0
 40
0.0
 40
6.785486518595988
 40
6.785486518595988
 40
13.54569576792361
 40
13.54569576792361
 40
20.10807516634178
 40
20.10807516634178
 40
26.44433597621307
 40
26.44433597621307
 40
26.44433597621307
 40
342.1913106663247
 40
342.1913106663247
 40
342.1913106663247
 40
361.1806534994109
 40
361.1806534994109
 40
361.1806534994109
 40
361.1806534994109
 10
-5301.03331317702
 20
3384.023957189731
 30
0.0
 41
1.0
 10
-5301.60557006728
 20
3383.693514895529
 30
0.0
 41
1.0
 10
-5302.177866263988
 20
3383.363052924008
 30
0.0
 41
1.0
 10
-5302.750126261595
 20
3383.032616012438
 30
0.0
 41
1.0
 10
-5302.964570557982
 20
3382.90881245866
 30
0.0
 41
1.0
 10
-5303.64723244284
 20
3382.335969124019
 30
0.0
 41
1.0
 10
-5305.857203918375
 20
3380.370991768322
 30
0.0
 41
1.0
 10
-5307.356332220646
 20
3379.004218836213
 30
0.0
 41
1.0
 10
-5310.909049266822
 20
3375.717554687558
 30
0.0
 41
1.0
 10
-5312.913258838595
 20
3373.844556327134
 30
0.0
 41
1.0
 10
-5317.1435566941
 20
3369.859667863926
 30
0.0
 41
1.0
 10
-5319.329178720731
 20
3367.786951714309
 30
0.0
 41
1.0
 10
-5321.523070437928
 20
3365.693340041865
 30
0.0
 41
1.0
 10
-5397.665058407096
 20
3293.031466316991
 30
0.0
 41
1.0
 10
-5473.807046376249
 20
3220.369592592128
 30
0.0
 41
1.0
 10
-5549.949034345416
 20
3147.707718867254
 30
0.0000000000000001
 41
1.0
 10
-5554.448642377442
 20
3143.413768064149
 30
0.0000000000000018
 41
0.9778498669261779
 10
-5558.550972996893
 20
3138.657232038569
 30
-0.0000000000000013
 41
0.9591416440757868
 10
-5562.187525024532
 20
3133.462639660051
 30
0.0
 41
0.9438753314488268
  0
SPLINE
  5
62
330
1F
100
AcDbEntity
  8
2D
100
AcDbSpline
210
0.0
220
0.0
230
1.0
 70
     8
 71
     3
 72
     8
 73
     4
 74
     0
 42
0.0000000001
 43
0.0000000001
 40
-3.85605984669176
 40
-3.85605984669176
 40
-3.85605984669176
 40
-3.85605984669176
 40
0.0
 40
0.0
 40
0.0
 40
0.0
 10
-5562.187525024532
 20
3133.462639660051
 30
0.0
 10
-5562.924672678324
 20
3132.409669271775
 30
0.0
 10
-5563.640593153745
 20
3131.341515563415
 30
0.0
 10
-5564.334402139179
 20
3130.259497931731
 30
0.0
  0
SPLINE
  5
63
330
1F
100
AcDbEntity
  8
2D
100
AcDbSpline
210
0.0
220
0.0
230
1.0
 70
    12
 71
     3
 72
     8
 73
     4
 74
     0
 42
0.0000000001
 43
0.0000000001
 40
-102.8953763350971
 40
-102.8953763350971
 40
-102.8953763350971
 40
-102.8953763350971
 40
0.0
 40
0.0
 40
0.0
 40
0.0
 10
-5564.334402139178
 20
3130.25949793173
 30
0.0
 41
0.9378570462892597
 10
-5584.0917891569
 20
3099.447211612993
 30
0.0000000000000016
 41
0.8654606304479151
 10
-5584.642498253654
 20
3063.268993675394
 30
-0.0000000000000056
 41
0.8861749483514952
 10
-5567.026258342881
 20
3032.164040211342
 30
0.0
 41
1.0
  0
SPLINE
  5
64
330
1F
100
AcDbEntity
  8
2D
100
AcDbSpline
210
0.0
220
0.0
230
1.0
 70
     8
 71
     3
 72
     8
 73
     4
 74
     0
 42
0.0000000001
 43
0.0000000001
 40
-0.7876168655713258
 40
-0.7876168655713258
 40
-0.7876168655713258
 40
-0.7876168655713258
 40
0.0
 40
0.0
 40
0.0
 40
0.0
 10
-5567.026258342881
 20
3032.164040211342
 30
0.0
 10
-5566.896878209052
 20
3031.935594410411
 30
0.0
 10
-5566.7665499592
 20
3031.707682982056
 30
0.0
 10
-5566.63528031189
 20
3031.480317675364
 30
0.0
  0
LINE
  5
65
330
1F
100
AcDbEntity
  8
2D
100
AcDbLine
 10
-5566.63528031189
 20
3031.480317675364
 30
0.0
 11
-5445.057658231246
 21
2820.901699356081
 31
0.0
  0
LINE
  5
66
330
1F
100
AcDbEntity
  8
2D
100
AcDbLine
 10
-5445.057658231246
 20
2820.901699356081
 30
0.0
 11
-5395.057658231246
 21
2734.299158977638
 31
0.0
  0
LINE
  5
67
330
1F
100
AcDbEntity
  8
2D
100
AcDbLine
 10
-5395.057658231246
 20
2734.299158977638
 30
0.0
 11
-5273.480036318222
 21
2523.720540573083
 31
0.0
  0
SPLINE
  5
68
330
1F
100
AcDbEntity
  8
2D
100
AcDbSpline
210
0.0
220
0.0
230
1.0
 70
     8
 71
     3
 72
     8
 73
     4
 74
     0
 42
0.0000000001
 43
0.0000000001
 40
0.0
 40
0.0
 40
0.0
 40
0.0
 40
0.7876168655607466
 40
0.7876168655607466
 40
0.7876168655607466
 40
0.7876168655607466
 10
-5273.480036318222
 20
2523.720540573083
 30
0.0
 10
-5273.348767005366
 20
2523.493175061794
 30
0.0
 10
-5273.21655404352
 20
2523.266351772408
 30
0.0
 10
-5273.083404243436
 20
2523.040082389309
 30
0.0
  0
SPLINE
  5
69
330
1F
100
AcDbEntity
  8
2D
100
AcDbSpline
210
0.0
220
0.0
230
1.0
 70
    12
 71
     3
 72
     8
 73
     4
 74
     0
 42
0.0000000001
 43
0.0000000001
 40
-103.3063954314584
 40
-103.3063954314584
 40
-103.3063954314584
 40
-103.3063954314584
 40
0.0
 40
0.0
 40
0.0
 40
0.0
 10
-5273.083404243439
 20
2523.040082389309
 30
0.0
 41
0.9999999999999927
 10
-5254.953844315428
 20
2492.231494375386
 30
-0.0000000000000011
 41
0.8861749483514939
 10
-5223.347233969438
 20
2474.619313474475
 30
-0.0000000000000127
 41
0.8654606304479163
 10
-5186.784317759872
 20
2476.323569384854
 30
0.0
 41
0.9378570462892603
  0
SPLINE
  5
6A
330
1F
100
AcDbEntity
  8
2D
100
AcDbSpline
210
0.0
220
0.0
230
1.0
 70
     8
 71
     3
 72
     8
 73
     4
 74
     0
 42
0.0000000001
 43
0.0000000001
 40
0.0
 40
0.0
 40
0.0
 40
0.0
 40
3.856059846692115
 40
3.856059846692115
 40
3.856059846692115
 40
3.856059846692115
 10
-5186.784317759873
 20
2476.323569384854
 30
0.0
 10
-5185.500358510773
 20
2476.383416775768
 30
0.0
 10
-5184.217350026476
 20
2476.469345240393
 30
0.0
 10
-5182.9368770939
 20
2476.581248640779
 30
0.0
  0
SPLINE
  5
6B
330
1F
100
AcDbEntity
  8
2D
100
AcDbSpline
210
0.0
220
0.0
230
1.0
 70
    12
 71
     3
 72
    21
 73
    17
 74
     0
 42
0.0000000001
 43
0.0000000001
 40
-18.62663024147223
 40
-18.62663024147223
 40
-18.62663024147223
 40
-18.62663024147223
 40
0.0000000000001365
 40
0.0000000000001365
 40
0.0000000000001365
 40
315.7469746901039
 40
315.7469746901039
 40
315.7469746901039
 40
330.6266503988467
 40
330.6266503988467
 40
338.067502755772
 40
338.067502755772
 40
340.3336286956248
 40
340.3336286956248
 40
340.3336286956248
 40
342.3161364061274
 40
342.3161364061274
 40
342.3161364061274
 40
342.3161364061274
 10
-5182.936877093896
 20
2476.581248640779
 30
0.0
 41
0.946568510968095
 10
-5176.619952117981
 20
2477.133298889642
 30
0.0000000000000057
 41
0.961878383288938
 10
-5170.449505776086
 20
2478.307753408021
 30
-0.0000000000000011
 41
0.9806399867087154
 10
-5164.481031281986
 20
2480.057552869279
 30
0.0
 41
1.002853321227427
 10
-5063.483008765083
 20
2509.667511882786
 30
0.0
 41
1.002853321227427
 10
-4962.484986248194
 20
2539.277470896289
 30
0.0
 41
1.002853321227427
 10
-4861.486963731291
 20
2568.887429909792
 30
0.0
 41
1.002853321227427
 10
-4857.399356211391
 20
2570.085816075868
 30
0.0
 41
1.002853321227427
 10
-4853.316751879914
 20
2571.300436892529
 30
0.0
 41
1.002853321227427
 10
-4847.203372058212
 20
2573.159564957581
 30
0.0
 41
1.002853321227427
 10
-4845.167342648736
 20
2573.785407209718
 30
0.0
 41
1.002853321227427
 10
-4842.516619442252
 20
2574.61965132914
 30
0.0
 41
1.002853321227427
 10
-4837.667276755206
 20
2576.13900490884
 30
0.0
 41
1.002853321227427
 10
-4837.084238169379
 20
2576.475638485047
 30
0.0
 41
1.002853321227427
 10
-4836.511919108898
 20
2576.806024599113
 30
0.0
 41
1.002853321227427
 10
-4835.939627152146
 20
2577.136390909651
 30
0.0
 41
1.002853321227427
 10
-4835.367305974857
 20
2577.466773357837
 30
0.0
 41
1.002853321227427
  0
SPLINE
  5
6C
330
1F
100
AcDbEntity
  8
2D
100
AcDbSpline
210
0.0
220
0.0
230
1.0
 70
     8
 71
     3
 72
     8
 73
     4
 74
     0
 42
0.0000000001
 43
0.0000000001
 40
0.0
 40
0.0
 40
0.0
 40
0.0
 40
14.4509295634542
 40
14.4509295634542
 40
14.4509295634542
 40
14.4509295634542
 10
-4835.367305974858
 20
2577.466773357837
 30
0.0
 10
-4831.19559805797
 20
2579.875116328997
 30
0.0
 10
-4827.023888377291
 20
2582.283456243832
 30
0.0
 10
-4822.85218028129
 20
2584.691798931433
 30
0.0
  0
SPLINE
  5
6D
330
1F
100
AcDbEntity
  8
2D
100
AcDbSpline
210
0.0
220
0.0
230
1.0
 70
     8
 71
     3
 72
     8
 73
     4
 74
     0
 42
0.0000000001
 43
0.0000000001
 40
0.0
 40
0.0
 40
0.0
 40
0.0
 40
0.4884861954248985
 40
0.4884861954248985
 40
0.4884861954248985
 40
0.4884861954248985
 10
-4822.85218028129
 20
2584.691798931433
 30
0.0
 10
-4822.71119171039
 20
2584.773257039084
 30
0.0
 10
-4822.570203347888
 20
2584.854715479662
 30
0.0
 10
-4822.429215181754
 20
2584.936174260116
 30
0.0
  0
SPLINE
  5
6E
330
1F
100
AcDbEntity
  8
2D
100
AcDbSpline
210
0.0
220
0.0
230
1.0
 70
     8
 71
     3
 72
     8
 73
     4
 74
     0
 42
0.0000000001
 43
0.0000000001
 40
-5.627574001059203
 40
-5.627574001059203
 40
-5.627574001059203
 40
-5.627574001059203
 40
0.0
 40
0.0
 40
0.0
 40
0.0
 10
-4822.429215181754
 20
2584.936174260116
 30
0.0
 10
-4820.897377826066
 20
2585.821208826338
 30
0.0
 10
-4819.36519566167
 20
2586.705646082138
 30
0.0
 10
-4817.833096588074
 20
2587.590227337691
 30
0.0
  0
SPLINE
  5
6F
330
1F
100
AcDbEntity
  8
2D
100
AcDbSpline
210
0.0
220
0.0
230
1.0
 70
     8
 71
     3
 72
     8
 73
     4
 74
     0
 42
0.0000000001
 43
0.0000000001
 40
0.0
 40
0.0
 40
0.0
 40
0.0
 40
5.956244519694056
 40
5.956244519694056
 40
5.956244519694056
 40
5.956244519694056
 10
-4817.833096588074
 20
2587.590227337691
 30
0.0
 10
-4816.113662831671
 20
2588.582910390745
 30
0.0
 10
-4814.394231854425
 20
2589.575598257563
 30
0.0
 10
-4812.674802030066
 20
2590.568288121325
 30
0.0
  0
SPLINE
  5
70
330
1F
100
AcDbEntity
  8
2D
100
AcDbSpline
210
0.0
220
0.0
230
1.0
 70
     8
 71
     3
 72
     8
 73
     4
 74
     0
 42
0.0000000001
 43
0.0000000001
 40
-6.343275324726791
 40
-6.343275324726791
 40
-6.343275324726791
 40
-6.343275324726791
 40
0.0
 40
0.0
 40
0.0
 40
0.0
 10
-4812.674802030066
 20
2590.568288121325
 30
0.0
 10
-4810.892253690839
 20
2591.597443875287
 30
0.0
 10
-4809.109705233928
 20
2592.6265994254
 30
0.0
 10
-4807.327156967
 20
2593.655755304577
 30
0.0
  0
LINE
  5
71
330
1F
100
AcDbEntity
  8
2D
100
AcDbLine
 10
-4807.327156967
 20
2593.655755304577
 30
0.0
 11
-4806.229245476105
 21
2594.289635543136
 31
0.0
  0
LINE
  5
72
330
1F
100
AcDbEntity
  8
2D
100
AcDbLine
 10
-4806.229245476105
 20
2594.289635543136
 30
0.0
 11
-4802.722596917993
 21
2596.314350346259
 31
0.0
  0
SPLINE
  5
73
330
1F
100
AcDbEntity
  8
2D
100
AcDbSpline
210
0.0
220
0.0
230
1.0
 70
     8
 71
     3
 72
     8
 73
     4
 74
     0
 42
0.0000000001
 43
0.0000000001
 40
-280.1284256450207
 40
-280.1284256450207
 40
-280.1284256450207
 40
-280.1284256450207
 40
0.0
 40
0.0
 40
0.0
 40
0.0
 10
-4802.722596917993
 20
2596.314350346259
 30
0.0
 10
-4721.856837914747
 20
2643.005684331033
 30
0.0
 10
-4640.988060828964
 20
2689.69179064058
 30
0.0
 10
-4560.120759809291
 20
2736.380453673067
 30
0.0
  0
LINE
  5
74
330
1F
100
AcDbEntity
  8
2D
100
AcDbLine
 10
-5322.710501962614
 20
2833.803775645887
 30
0.0
 11
-5381.086532109792
 21
2800.100419323705
 31
0.0
  0
LINE
  5
75
330
1F
100
AcDbEntity
  8
2D
100
AcDbLine
 10
-5381.086532109792
 20
2800.100419323705
 30
0.0
 11
-5420.057658313086
 21
2777.600429119609
 31
0.0
  0
LINE
  5
76
330
1F
100
AcDbEntity
  8
2D
100
AcDbLine
 10
-3495.834518294821
 20
2644.792495877556
 30
0.0
 11
-3357.281303016705
 21
2562.042355433681
 31
0.0
  0
SPLINE
  5
77
330
1F
100
AcDbEntity
  8
2D
100
AcDbSpline
210
0.0
220
0.0
230
1.0
 70
    12
 71
     3
 72
    19
 73
    15
 74
     0
 42
0.0000000001
 43
0.0000000001
 40
-81.07489434218103
 40
-81.07489434218103
 40
-81.07489434218103
 40
-81.07489434218103
 40
-73.48000972009028
 40
-73.48000972009028
 40
-69.38681998382975
 40
-69.38681998382975
 40
-65.29045456057082
 40
-65.29045456057082
 40
-57.23558246890087
 40
-57.23558246890087
 40
-49.47249060968669
 40
-49.47249060968669
 40
-49.47249060968669
 40
0.0
 40
0.0
 40
0.0
 40
0.0
 10
-3357.281303016705
 20
2562.042355433681
 30
0.0
 41
1.0
 10
-3359.667762471021
 20
2560.997274618962
 30
0.0
 41
1.0
 10
-3362.091844713836
 20
2560.156465358898
 30
0.0
 41
1.0
 10
-3365.951135126448
 20
2559.153408448331
 30
0.0
 41
1.0
 10
-3367.308452863337
 20
2558.862862857313
 30
0.0
 41
1.0
 10
-3370.050939757282
 20
2558.399887171044
 30
0.0
 41
1.0
 10
-3371.423301137354
 20
2558.229844276077
 30
0.0
 41
1.0
 10
-3375.519097140514
 20
2557.9061621774
 30
0.0
 41
1.0
 10
-3378.19271351628
 20
2557.927494832831
 30
0.0
 41
1.0
 10
-3383.475610979182
 20
2558.439717060848
 30
0.0
 41
1.0
 10
-3385.995463660915
 20
2558.903543530797
 30
0.0
 41
1.0
 10
-3388.494231205575
 20
2559.587985342415
 30
0.0
 41
1.0
 10
-3404.301441017105
 20
2563.94101376671
 30
0.0
 41
1.0
 10
-3420.092790934341
 20
2568.336412114253
 30
0.0
 41
1.0
 10
-3435.881021860383
 20
2572.741409386005
 30
0.0
 41
1.0
  0
SPLINE
  5
78
330
1F
100
AcDbEntity
  8
2D
100
AcDbSpline
210
0.0
220
0.0
230
1.0
 70
     8
 71
     3
 72
    30
 73
    26
 74
     0
 42
0.0000000001
 43
0.0000000001
 40
-241.9586725985233
 40
-241.9586725985233
 40
-241.9586725985233
 40
-241.9586725985233
 40
-182.1443743940071
 40
-182.1443743940071
 40
-152.2381255739722
 40
-152.2381255739722
 40
-122.3110393972168
 40
-122.3110393972168
 40
-89.76872041833143
 40
-89.76872041833143
 40
-59.8570684721328
 40
-59.8570684721328
 40
-52.37594405130154
 40
-52.37594405130154
 40
-44.8957141985716
 40
-44.8957141985716
 40
-29.71145999732686
 40
-29.71145999732686
 40
-22.23127155301912
 40
-22.23127155301912
 40
-14.7414569717343
 40
-14.7414569717343
 40
-7.434579888115223
 40
-7.434579888115223
 40
0.0
 40
0.0
 40
0.0
 40
0.0
 10
-3435.881021860383
 20
2572.741409386005
 30
0.0
 10
-3455.295927185685
 20
2578.158267385464
 30
0.0
 10
-3474.707035575935
 20
2583.588574719615
 30
0.0
 10
-3503.812337293213
 20
2591.77367894986
 30
0.0
 10
-3513.511710825223
 20
2594.509754882613
 30
0.0
 10
-3532.913168665837
 20
2599.998227689943
 30
0.0
 10
-3542.613310936384
 20
2602.757398713361
 30
0.0
 10
-3562.877357136684
 20
2608.460108250662
 30
0.0
 10
-3570.851551047763
 20
2610.66289047984
 30
0.0
 10
-3591.172084393169
 20
2616.141311044354
 30
0.0
 10
-3600.904451688064
 20
2618.764884387084
 30
0.0
 10
-3613.06910600041
 20
2622.051496265266
 30
0.0
 10
-3615.502065642875
 20
2622.711983581452
 30
0.0
 10
-3620.365336949486
 20
2624.041623148105
 30
0.0
 10
-3622.794407631609
 20
2624.715143620558
 30
0.0
 10
-3630.17389156545
 20
2626.684746880778
 30
0.0
 10
-3634.921991695664
 20
2627.844795355869
 30
0.0
 10
-3642.445778588884
 20
2629.205067359993
 30
0.0
 10
-3644.934858708959
 20
2629.582264852898
 30
0.0
 10
-3649.95718754191
 20
2630.126540521286
 30
0.0
 10
-3652.465121144447
 20
2630.282772377815
 30
0.0
 10
-3657.462017395155
 20
2630.264890194819
 30
0.0
 10
-3660.090006850634
 20
2630.103671491391
 30
0.0
 10
-3665.003991722275
 20
2629.190915220728
 30
0.0
 10
-3667.410259253502
 20
2628.425495621877
 30
0.0
 10
-3669.619362077141
 20
2627.165337455055
 30
0.0
  0
LINE
  5
79
330
1F
100
AcDbEntity
  8
2D
100
AcDbLine
 10
-3669.619362077141
 20
2627.165337455055
 30
0.0
 11
-3692.775532296415
 21
2587.060484246684
 31
0.0
  0
LINE
  5
7A
330
1F
100
AcDbEntity
  8
2D
100
AcDbLine
 10
-4255.763125001711
 20
4681.811022737052
 30
0.0
 11
-4255.763072695932
 21
4749.217825977684
 31
0.0
  0
LINE
  5
7B
330
1F
100
AcDbEntity
  8
2D
100
AcDbLine
 10
-4255.763072695932
 20
4749.217825977684
 30
0.0
 11
-4255.763072695929
 21
4794.217806385873
 31
0.0
  0
SPLINE
  5
7C
330
1F
100
AcDbEntity
  8
2D
100
AcDbSpline
210
0.0
220
0.0
230
1.0
 70
    15
 71
     2
 72
    20
 73
    17
 74
     0
 42
0.0000000001
 43
0.0000000001
 40
-76.31516318028345
 40
-76.31516318028345
 40
-76.31516318028345
 40
-0.0000000008046461
 40
-0.0000000008046461
 40
261.3867767284908
 40
261.3867767284908
 40
337.7019399078635
 40
337.7019399078635
 40
599.0887166358244
 40
599.0887166358244
 40
675.4038798166285
 40
675.4038798166285
 40
936.7906565443769
 40
936.7906565443769
 40
1013.105819724644
 40
1013.105819724644
 40
1274.492596451924
 40
1274.492596451924
 40
1274.492596451924
 10
-5207.430295127804
 20
4357.128345432211
 30
0.0
 41
0.9999999999956504
 10
-5249.497150957519
 20
4343.320109725916
 30
0.0
 41
0.805386467209577
 10
-5248.819498390716
 20
4299.050159198328
 30
0.0
 41
1.0
 10
-5246.803421154821
 20
4167.343081280861
 30
0.0
 41
0.9886318222813665
 10
-5205.722680056042
 20
4042.190407910493
 30
0.0
 41
1.0
 10
-5191.914444350007
 20
4000.123552080655
 30
0.0
 41
0.805386467207564
 10
-5147.644493822361
 20
4000.801204647703
 30
0.0
 41
1.0
 10
-5015.93741590559
 20
4002.817281883611
 30
0.0
 41
0.9886318222814827
 10
-4890.784742535809
 20
4043.898022982019
 30
0.0
 41
1.0
 10
-4848.717886705372
 20
4057.706258688836
 30
0.0
 41
0.8053864672076977
 10
-4849.395539272959
 20
4101.97620921729
 30
0.0
 41
1.0
 10
-4851.411616508799
 20
4233.683287133978
 30
0.0
 41
0.9886318222813681
 10
-4892.492357607298
 20
4358.835960503618
 30
0.0
 41
1.0
 10
-4906.300593313772
 20
4400.902816333873
 30
0.0
 41
0.8053864672073179
 10
-4950.570543841935
 20
4400.225163766481
 30
0.0
 41
1.0
 10
-5082.277621758367
 20
4398.209086530543
 30
0.0
 41
0.9886318222814838
 10
-5207.430295127804
 20
4357.128345432211
 30
0.0
 41
1.0
  0
SPLINE
  5
7D
330
1F
100
AcDbEntity
  8
2D
100
AcDbSpline
210
0.0
220
0.0
230
1.0
 70
     8
 71
     3
 72
     8
 73
     4
 74
     0
 42
0.0000000001
 43
0.0000000001
 40
0.0
 40
0.0
 40
0.0
 40
0.0
 40
46.32020837302597
 40
46.32020837302597
 40
46.32020837302597
 40
46.32020837302597
 10
-3836.57484948343
 20
4069.519883907672
 30
0.0
 10
-3821.134780280609
 20
4069.517078560346
 30
0.0
 10
-3805.694711137301
 20
4069.513923932819
 30
0.0
 10
-3790.254642004435
 20
4069.510507761167
 30
0.0
  0
SPLINE
  5
7E
330
1F
100
AcDbEntity
  8
2D
100
AcDbSpline
210
0.0
220
0.0
230
1.0
 70
    12
 71
     3
 72
     8
 73
     4
 74
     0
 42
0.0000000001
 43
0.0000000001
 40
-0.7039446234373484
 40
-0.7039446234373484
 40
-0.7039446234373484
 40
-0.7039446234373484
 40
0.0
 40
0.0
 40
0.0
 40
0.0
 10
-3790.254642004437
 20
4069.510507761167
 30
0.0
 41
0.9999999999785221
 10
-3790.150997058071
 20
4069.503365723597
 30
0.0
 41
0.9999999999856813
 10
-3790.097077575606
 20
4069.7002420483
 30
0.0
 41
0.9999999999928406
 10
-3790.097077563962
 20
4070.100594353214
 30
0.0
 41
1.0
  0
LINE
  5
7F
330
1F
100
AcDbEntity
  8
2D
100
AcDbLine
 10
-3790.097077563962
 20
4070.100594353214
 30
0.0
 11
-3836.407034308064
 21
4070.100594271992
 31
0.0
  0
SPLINE
  5
80
330
1F
100
AcDbEntity
  8
2D
100
AcDbSpline
210
0.0
220
0.0
230
1.0
 70
     8
 71
     3
 72
     8
 73
     4
 74
     0
 42
0.0000000001
 43
0.0000000001
 40
0.0
 40
0.0
 40
0.0
 40
0.0
 40
46.32020837302949
 40
46.32020837302949
 40
46.32020837302949
 40
46.32020837302949
 10
-5002.044958983406
 20
3502.977040627996
 30
0.0
 10
-5009.762564082765
 20
3516.349935467491
 30
0.0
 10
-5017.479866666843
 20
3529.723004895548
 30
0.0
 10
-5025.196942741841
 20
3543.096205086624
 30
0.0
  0
SPLINE
  5
81
330
1F
100
AcDbEntity
  8
2D
100
AcDbSpline
210
0.0
220
0.0
230
1.0
 70
    12
 71
     3
 72
     8
 73
     4
 74
     0
 42
0.0000000001
 43
0.0000000001
 40
-0.7039446234405184
 40
-0.7039446234405184
 40
-0.7039446234405184
 40
-0.7039446234405184
 40
0.0
 40
0.0
 40
0.0
 40
0.0
 10
-5025.196942741843
 20
3543.096205086624
 30
0.0
 41
0.9999999999785221
 10
-5025.242580029041
 20
3543.18953526194
 30
0.0
 41
0.9999999999856813
 10
-5025.440039668879
 20
3543.13779274117
 30
0.0
 41
0.9999999999928406
 10
-5025.786754941222
 20
3542.937616598788
 30
0.0
 41
1.0
  0
LINE
  5
82
330
1F
100
AcDbEntity
  8
2D
100
AcDbLine
 10
-5025.786754941222
 20
3542.937616598788
 30
0.0
 11
-5002.631776498831
 21
3502.832017650843
 31
0.0
  0
SPLINE
  5
83
330
1F
100
AcDbEntity
  8
2D
100
AcDbSpline
210
0.0
220
0.0
230
1.0
 70
     8
 71
     3
 72
     8
 73
     4
 74
     0
 42
0.0000000001
 43
0.0000000001
 40
-46.32020837302709
 40
-46.32020837302709
 40
-46.32020837302709
 40
-46.32020837302709
 40
0.0
 40
0.0
 40
0.0
 40
0.0
 10
-3509.481186408488
 20
3502.977040628017
 30
0.0
 10
-3501.763581309075
 20
3516.34993546748
 30
0.0
 10
-3494.046278724978
 20
3529.723004895521
 30
0.0
 10
-3486.329202650002
 20
3543.09620508661
 30
0.0
  0
SPLINE
  5
84
330
1F
100
AcDbEntity
  8
2D
100
AcDbSpline
210
0.0
220
0.0
230
1.0
 70
    12
 71
     3
 72
     8
 73
     4
 74
     0
 42
0.0000000001
 43
0.0000000001
 40
-0.7039446234417723
 40
-0.7039446234417723
 40
-0.7039446234417723
 40
-0.7039446234417723
 40
0.0
 40
0.0
 40
0.0
 40
0.0
 10
-3486.329202650003
 20
3543.09620508661
 30
0.0
 41
0.9999999999785221
 10
-3486.283565362821
 20
3543.189535261936
 30
0.0
 41
0.9999999999856813
 10
-3486.086105722998
 20
3543.137792741162
 30
0.0
 41
0.9999999999928406
 10
-3485.739390450635
 20
3542.937616598785
 30
0.0
 41
1.0
  0
LINE
  5
85
330
1F
100
AcDbEntity
  8
2D
100
AcDbLine
 10
-3485.739390450635
 20
3542.937616598785
 30
0.0
 11
-3508.89436889303
 21
3502.832017650843
 31
0.0
  0
SPLINE
  5
86
330
1F
100
AcDbEntity
  8
2D
100
AcDbSpline
210
0.0
220
0.0
230
1.0
 70
     8
 71
     3
 72
     8
 73
     4
 74
     0
 42
0.0000000001
 43
0.0000000001
 40
-46.32020837302269
 40
-46.32020837302269
 40
-46.32020837302269
 40
-46.32020837302269
 40
0.0
 40
0.0
 40
0.0
 40
0.0
 10
-4674.951295908428
 20
4069.519883907632
 30
0.0
 10
-4690.391365111245
 20
4069.517078560367
 30
0.0
 10
-4705.831434254556
 20
4069.513923932866
 30
0.0
 10
-4721.271503387416
 20
4069.510507761187
 30
0.0
  0
SPLINE
  5
87
330
1F
100
AcDbEntity
  8
2D
100
AcDbSpline
210
0.0
220
0.0
230
1.0
 70
    12
 71
     3
 72
     8
 73
     4
 74
     0
 42
0.0000000001
 43
0.0000000001
 40
-0.7039446234393351
 40
-0.7039446234393351
 40
-0.7039446234393351
 40
-0.7039446234393351
 40
0.0
 40
0.0
 40
0.0
 40
0.0
 10
-4721.271503387416
 20
4069.510507761187
 30
0.0
 41
0.9999999999785221
 10
-4721.375148333781
 20
4069.503365723579
 30
0.0
 41
0.9999999999856813
 10
-4721.42906781626
 20
4069.700242048282
 30
0.0
 41
0.9999999999928406
 10
-4721.429067827899
 20
4070.100594353214
 30
0.0
 41
1.0
  0
LINE
  5
88
330
1F
100
AcDbEntity
  8
2D
100
AcDbLine
 10
-4721.429067827899
 20
4070.100594353214
 30
0.0
 11
-4675.119111083794
 21
4070.100594271992
 31
0.0
  0
SPLINE
  5
89
330
1F
100
AcDbEntity
  8
2D
100
AcDbSpline
210
0.0
220
0.0
230
1.0
 70
     8
 71
     3
 72
     8
 73
     4
 74
     0
 42
0.0000000001
 43
0.0000000001
 40
-46.32020837302649
 40
-46.32020837302649
 40
-46.32020837302649
 40
-46.32020837302649
 40
0.0
 40
0.0
 40
0.0
 40
0.0
 10
-4582.856735770871
 20
2776.921740089444
 30
0.0
 10
-4575.134271667463
 20
2763.551650597245
 30
0.0
 10
-4567.411505108255
 20
2750.181735796705
 30
0.0
 10
-4559.688512050368
 20
2736.811951777295
 30
0.0
  0
SPLINE
  5
8A
330
1F
100
AcDbEntity
  8
2D
100
AcDbSpline
210
0.0
220
0.0
230
1.0
 70
    12
 71
     3
 72
     8
 73
     4
 74
     0
 42
0.0000000001
 43
0.0000000001
 40
-0.7039446234333318
 40
-0.7039446234333318
 40
-0.7039446234333318
 40
-0.7039446234333318
 40
0.0
 40
0.0
 40
0.0
 40
0.0
 10
-4559.688512050369
 20
2736.811951777295
 30
0.0
 41
0.9999999999785221
 10
-4559.630504391187
 20
2736.72576363957
 30
0.0
 41
0.9999999999856813
 10
-4559.77404454856
 20
2736.580629835642
 30
0.0
 41
0.9999999999928406
 10
-4560.120759809255
 20
2736.380453673093
 30
0.0
 41
1.0
  0
LINE
  5
8B
330
1F
100
AcDbEntity
  8
2D
100
AcDbLine
 10
-4560.120759809255
 20
2736.380453673093
 30
0.0
 11
-4583.275738110966
 21
2776.486052702257
 31
0.0
  0
SPLINE
  5
8C
330
1F
100
AcDbEntity
  8
2D
100
AcDbSpline
210
0.0
220
0.0
230
1.0
 70
     8
 71
     3
 72
     8
 73
     4
 74
     0
 42
0.0000000001
 43
0.0000000001
 40
0.0
 40
0.0
 40
0.0
 40
0.0
 40
46.32020837303018
 40
46.32020837303018
 40
46.32020837303018
 40
46.32020837303018
 10
-3928.669409620954
 20
2776.921740089424
 30
0.0
 10
-3936.391873724413
 20
2763.551650597255
 30
0.0
 10
-3944.114640283649
 20
2750.181735796724
 30
0.0
 10
-3951.837633341514
 20
2736.8119517773
 30
0.0
  0
SPLINE
  5
8D
330
1F
100
AcDbEntity
  8
2D
100
AcDbSpline
210
0.0
220
0.0
230
1.0
 70
    12
 71
     3
 72
     8
 73
     4
 74
     0
 42
0.0000000001
 43
0.0000000001
 40
-0.7039446234460699
 40
-0.7039446234460699
 40
-0.7039446234460699
 40
-0.7039446234460699
 40
0.0
 40
0.0
 40
0.0
 40
0.0
 10
-3951.837633341516
 20
2736.8119517773
 30
0.0
 41
0.9999999999785221
 10
-3951.895641000675
 20
2736.725763639566
 30
0.0
 41
0.9999999999856813
 10
-3951.752100843325
 20
2736.580629835634
 30
0.0
 41
0.9999999999928406
 10
-3951.40538558261
 20
2736.38045367309
 30
0.0
 41
1.0
  0
LINE
  5
8E
330
1F
100
AcDbEntity
  8
2D
100
AcDbLine
 10
-3951.40538558261
 20
2736.38045367309
 30
0.0
 11
-3928.250407280892
 21
2776.486052702257
 31
0.0
  0
SPLINE
  5
8F
330
1F
100
AcDbEntity
  8
2D
100
AcDbSpline
210
0.0
220
0.0
230
1.0
 70
     8
 71
     3
 72
    35
 73
    31
 74
     0
 42
0.0000000001
 43
0.0000000001
 40
-46.30989822079869
 40
-46.30989822079869
 40
-46.30989822079869
 40
-46.30989822079869
 40
0.0000000000003805
 40
0.0000000000003805
 40
0.0000000000003805
 40
7.456354519810348
 40
7.456354519810348
 40
14.83467472720203
 40
14.83467472720203
 40
22.33040019517739
 40
22.33040019517739
 40
29.8190596399516
 40
29.8190596399516
 40
45.11511076173083
 40
45.11511076173083
 40
52.9174096437897
 40
52.9174096437897
 40
60.07796629663078
 40
60.07796629663078
 40
75.08523060967076
 40
75.08523060967076
 40
90.0898848111773
 40
90.0898848111773
 40
121.8716973123289
 40
121.8716973123289
 40
151.8746430306544
 40
151.8746430306544
 40
181.9133201183152
 40
181.9133201183152
 40
241.9038487760673
 40
241.9038487760673
 40
241.9038487760673
 40
241.9038487760673
 10
-3227.109576991952
 20
3393.617578189107
 30
0.0
 10
-3234.827494906302
 20
3380.24883204651
 30
0.0
 10
-3242.545412820658
 20
3366.880085903922
 30
0.0
 10
-3250.263330735008
 20
3353.511339761323
 30
0.0
 10
-3250.250158118673
 20
3350.969308490392
 30
0.0
 10
-3249.709346623309
 20
3348.495531523186
 30
0.0
 10
-3248.033654172759
 20
3343.77061242178
 30
0.0
 10
-3246.870647999964
 20
3341.436472784033
 30
0.0
 10
-3244.38212665245
 20
3337.091303816807
 30
0.0
 10
-3242.995735390337
 20
3335.002576245961
 30
0.0
 10
-3240.020532549308
 20
3330.933595325011
 30
0.0
 10
-3238.450869994591
 20
3328.971879491957
 30
0.0
 10
-3233.503438817683
 20
3323.121648337503
 30
0.0
 10
-3230.128134377279
 20
3319.593411450688
 30
0.0
 10
-3224.646587291703
 20
3314.102089976432
 30
0.0
 10
-3222.778812111483
 20
3312.263628672458
 30
0.0
 10
-3219.204007773827
 20
3308.730623987097
 30
0.0
 10
-3217.498780404454
 20
3307.034354823759
 30
0.0
 10
-3212.223057748564
 20
3301.779566183895
 30
0.0
 10
-3208.653497179388
 20
3298.220130292382
 30
0.0
 10
-3201.511396631267
 20
3291.105490015522
 30
0.0
 10
-3197.940979605566
 20
3287.548157342352
 30
0.0
 10
-3186.816579772341
 20
3276.447269367456
 30
0.0
 10
-3180.483662653874
 20
3270.218016070591
 30
0.0
 10
-3165.625818556451
 20
3255.728414711211
 30
0.0
 10
-3158.391991194982
 20
3248.711551589868
 30
0.0
 10
-3143.934136393767
 20
3234.650508616079
 30
0.0
 10
-3136.706387802773
 20
3227.610189724457
 30
0.0
 10
-3115.06058188395
 20
3206.492554233814
 30
0.0
 10
-3100.6561500563
 20
3192.401388141876
 30
0.0
 10
-3086.261695822668
 20
3178.299974764403
 30
0.0
  0
SPLINE
  5
90
330
1F
100
AcDbEntity
  8
2D
100
AcDbSpline
210
0.0
220
0.0
230
1.0
 70
    12
 71
     3
 72
    15
 73
    11
 74
     0
 42
0.0000000001
 43
0.0000000001
 40
-81.16521440751438
 40
-81.16521440751438
 40
-81.16521440751438
 40
-81.16521440751438
 40
-31.59386165712267
 40
-31.59386165712267
 40
-31.59386165712267
 40
-15.81621260767505
 40
-15.81621260767505
 40
-0.4191552454123242
 40
-0.4191552454123242
 40
0.0
 40
0.0
 40
0.0
 40
0.0
 10
-3086.261695822668
 20
3178.299974764403
 30
0.0
 41
1.0
 10
-3074.552764903921
 20
3166.829413087397
 30
0.0
 41
1.0
 10
-3062.850542482363
 20
3155.351434330527
 30
0.0
 41
1.0
 10
-3051.177044489999
 20
3143.83849099999
 30
0.0
 41
1.0
 10
-3047.439260812054
 20
3140.146778960697
 30
0.0
 41
1.0
 10
-3044.362140901805
 20
3135.808099222296
 30
0.0
 41
1.0
 10
-3039.83472010172
 20
3126.316082248023
 30
0.0
 41
1.0
 10
-3038.3769995939
 20
3121.252159896497
 30
0.0
 41
1.0
 10
-3037.728784825817
 20
3115.86583791658
 30
0.0
 41
1.0
 10
-3037.712224787709
 20
3115.723007908195
 30
0.0
 41
1.0
 10
-3037.696283172121
 20
3115.580098487595
 30
0.0
 41
1.0
  0
LINE
  5
91
330
1F
100
AcDbEntity
  8
2D
100
AcDbLine
 10
-3358.153400961801
 20
2873.836009019821
 30
0.0
 11
-3308.153400961801
 21
2960.438549398265
 31
0.0
  0
LINE
  5
92
330
1F
100
AcDbEntity
  8
2D
100
AcDbLine
 10
-3308.153400961801
 20
2960.438549398265
 30
0.0
 11
-3290.24762586768
 21
2991.452261610181
 31
0.0
  0
SPLINE
  5
93
330
1F
100
AcDbEntity
  8
2D
100
AcDbSpline
210
0.0
220
0.0
230
1.0
 70
    12
 71
     3
 72
    25
 73
    21
 74
     0
 42
0.0000000001
 43
0.0000000001
 40
-266.3611888743086
 40
-266.3611888743086
 40
-266.3611888743086
 40
-266.3611888743086
 40
-41.15102702337921
 40
-41.15102702337921
 40
-41.15102702337921
 40
-40.85478992811773
 40
-40.85478992811773
 40
-39.47638252935359
 40
-39.47638252935359
 40
-28.44912333923989
 40
-28.44912333923989
 40
-17.4218641491263
 40
-17.4218641491263
 40
-11.90823455406955
 40
-11.90823455406955
 40
-6.394604959012711
 40
-6.394604959012711
 40
-0.880975363955843
 40
-0.880975363955843
 40
0.0
 40
0.0
 40
0.0
 40
0.0
 10
-3290.24762586768
 20
2991.452261610181
 30
0.0
 41
1.0
 10
-3254.781683754121
 20
3052.935969901067
 30
0.0
 41
1.0
 10
-3219.315741640559
 20
3114.419678191952
 30
0.0
 41
1.0
 10
-3183.849799527005
 20
3175.903386482838
 30
0.0
 41
1.0
 10
-3183.785903794847
 20
3176.014780697766
 30
0.0
 41
1.0
 10
-3183.722187908243
 20
3176.126324544598
 30
0.0
 41
1.0
 10
-3183.363446635598
 20
3176.758111264046
 30
0.0
 41
1.0
 10
-3183.082862849758
 20
3177.284644436521
 30
0.0
 41
1.0
 10
-3180.652299266068
 20
3182.084239194016
 30
0.0
 41
1.0
 10
-3179.296512401655
 20
3186.751501207596
 30
0.0
 41
1.0
 10
-3178.334661974448
 20
3196.255963351105
 30
0.0
 41
1.0
 10
-3178.727083342921
 20
3201.08949345983
 30
0.0
 41
1.0
 10
-3180.552077130949
 20
3208.007053449471
 30
0.0
 41
1.0
 10
-3181.3624588366
 20
3210.258433565156
 30
0.0
 41
1.0
 10
-3183.361088808819
 20
3214.586673545808
 30
0.0
 41
1.0
 10
-3184.546603033246
 20
3216.661063875462
 30
0.0
 41
1.0
 10
-3187.255545677221
 20
3220.581331883323
 30
0.0
 41
1.0
 10
-3188.776790869681
 20
3222.42217412552
 30
0.0
 41
1.0
 10
-3190.707499450418
 20
3224.396846204927
 30
0.0
 41
1.0
 10
-3190.978564267265
 20
3224.663629070004
 30
0.0
 41
1.0
 10
-3191.251164018166
 20
3224.928752148498
 30
0.0
 41
1.0
  0
SPLINE
  5
94
330
1F
100
AcDbEntity
  8
2D
100
AcDbSpline
210
0.0
220
0.0
230
1.0
 70
    12
 71
     3
 72
   100
 73
    96
 74
     0
 42
0.0000000001
 43
0.0000000001
 40
-1356.759381182819
 40
-1356.759381182819
 40
-1356.759381182819
 40
-1356.759381182819
 40
-1356.261749399581
 40
-1356.261749399581
 40
-1354.882788488592
 40
-1354.882788488592
 40
-1352.124866666613
 40
-1352.124866666613
 40
-1341.093179378698
 40
-1341.093179378698
 40
-1319.029804802868
 40
-1319.029804802868
 40
-1296.966430227038
 40
-1296.966430227038
 40
-1285.934742939123
 40
-1285.934742939123
 40
-1274.903055651208
 40
-1274.903055651208
 40
-1252.839681075377
 40
-1252.839681075377
 40
-1230.776306499547
 40
-1208.712931923717
 40
-1186.649557347887
 40
-1156.074412715179
 40
-1156.074412715179
 40
-1142.914782913045
 40
-1142.914782913045
 40
-1139.624875462511
 40
-1139.624875462511
 40
-1138.942004046081
 40
-1138.942004046081
 40
-1138.942004046081
 40
-1135.880051552027
 40
-1132.812840090462
 40
-1129.741714534234
 40
-1126.668031748011
 40
-1123.593156725784
 40
-1120.518458667276
 40
-1117.445307022363
 40
-1114.375067532891
 40
-1111.309098301383
 40
-1111.309098301383
 40
-1111.309098301383
 40
-1017.343146455124
 40
-1017.343146455124
 40
-1017.343146455124
 40
-1013.060991838126
 40
-1008.544073946493
 40
-1003.843130765237
 40
-999.0244250315508
 40
-994.1651480659983
 40
-989.3464409357586
 40
-984.6454952275516
 40
-980.1285741205603
 40
-975.8464160846156
 40
-975.8464160846156
 40
-975.8464160846156
 40
-660.2644258123762
 40
-660.2644258123762
 40
-660.2644258123762
 40
-622.3737982875474
 40
-622.3737982875474
 40
-622.3737982875474
 40
-516.5682078564429
 40
-516.5682078564429
 40
-516.5682078564429
 40
-478.6775803316132
 40
-478.6775803316132
 40
-478.6775803316132
 40
-163.0955900593745
 40
-163.0955900593745
 40
-163.0955900593745
 40
-158.8134320234294
 40
-154.2965109164387
 40
-149.5955652082315
 40
-144.7768580779919
 40
-139.917581112439
 40
-135.098875378753
 40
-130.3979321974962
 40
-125.8810143058635
 40
-121.5988596888662
 40
-121.5988596888662
 40
-121.5988596888662
 40
-27.63290784260672
 40
-27.63290784260672
 40
-27.63290784260672
 40
-24.56693861109992
 40
-21.49669912162754
 40
-18.42354747671404
 40
-15.34884941820683
 40
-12.27397439597806
 40
-9.200291609756754
 40
-6.129166053527836
 40
-3.061954591962153
 40
0.0
 40
0.0
 40
0.0
 40
0.0
 10
-3191.251164018166
 20
3224.928752148498
 30
0.0
 41
1.0
 10
-3191.405218121588
 20
3225.078527170774
 30
0.0
 41
1.0
 10
-3191.559761236771
 20
3225.227772827054
 30
0.0
 41
1.0
 10
-3192.1419937965
 20
3225.791037080138
 30
0.0
 41
1.0
 10
-3192.570887810944
 20
3226.206287202625
 30
0.0
 41
1.0
 10
-3193.854468907488
 20
3227.448640196894
 30
0.0
 41
1.0
 10
-3194.709406940423
 20
3228.276158174031
 30
0.0
 41
1.0
 10
-3198.989307370299
 20
3232.418722214412
 30
0.0
 41
1.0
 10
-3202.411632145737
 20
3235.731247865626
 30
0.0
 41
1.0
 10
-3212.681145751205
 20
3245.671305085596
 30
0.0
 41
1.0
 10
-3219.527674341458
 20
3252.298221311547
 30
0.0
 41
1.0
 10
-3233.218927013004
 20
3265.550364437362
 30
0.0
 41
1.0
 10
-3240.064656162518
 20
3272.176564335432
 30
0.0
 41
1.0
 10
-3250.332633715141
 20
3282.115399096233
 30
0.0
 41
1.0
 10
-3253.755199623283
 20
3285.428275615717
 30
0.0
 41
1.0
 10
-3260.599777746887
 20
3292.053571686241
 30
0.0
 41
1.0
 10
-3264.023724498296
 20
3295.367842627896
 30
0.0
 41
1.0
 10
-3274.289358061003
 20
3305.304833628797
 30
0.0
 41
1.0
 10
-3281.134943222922
 20
3311.931491557252
 30
0.0
 41
1.0
 10
-3294.826185414375
 20
3325.185451214869
 30
0.0
 41
1.0
 10
-3308.494864974073
 20
3338.418039164657
 30
0.0
 41
1.0
 10
-3329.097594865507
 20
3358.365753194804
 30
0.0
 41
1.0
 10
-3351.979964020727
 20
3380.521859761222
 30
0.0
 41
1.0
 10
-3368.177473208223
 20
3396.205009867754
 30
0.0
 41
1.0
 10
-3381.613022570313
 20
3409.214111542474
 30
0.0
 41
1.0
 10
-3385.657625601682
 20
3413.130007535293
 30
0.0
 41
1.0
 10
-3390.7119161476
 20
3418.024494711312
 30
0.0
 41
1.0
 10
-3391.72355374226
 20
3419.002014734556
 30
0.0
 41
1.0
 10
-3392.942957033916
 20
3420.187033426012
 30
0.0
 41
1.0
 10
-3393.152912227455
 20
3420.390237041363
 30
0.0
 41
1.0
 10
-3393.363361645934
 20
3420.592839969039
 30
0.0
 41
1.0
 10
-3394.05390069924
 20
3421.261455642497
 30
0.0
 41
1.0
 10
-3395.454493555557
 20
3422.580985352798
 30
0.0
 41
1.0
 10
-3397.61004148029
 20
3424.503382765522
 30
0.0
 41
1.0
 10
-3399.820062447816
 20
3426.368476164506
 30
0.0
 41
1.0
 10
-3402.082031282207
 20
3428.173909133904
 30
0.0
 41
1.0
 10
-3404.393320872336
 20
3429.917487474361
 30
0.0
 41
1.0
 10
-3406.751177114384
 20
3431.597154974946
 30
0.0
 41
1.0
 10
-3409.152748999284
 20
3433.21101587903
 30
0.0
 41
1.0
 10
-3411.595059001917
 20
3434.757317276963
 30
0.0
 41
1.0
 10
-3413.249853655707
 20
3435.742962106338
 30
0.0
 41
1.0
 10
-3414.083175526433
 20
3436.224080712724
 30
0.0
 41
1.0
 10
-3439.622858694773
 20
3450.969423664986
 30
0.0
 41
1.0
 10
-3465.162541863112
 20
3465.714766617245
 30
0.0
 41
1.0
 10
-3490.702225031459
 20
3480.460109569503
 30
0.0
 41
1.0
 10
-3491.8661026919
 20
3481.132074650062
 30
0.0
 41
1.0
 10
-3494.374727299324
 20
3482.32024454939
 30
0.0
 41
1.0
 10
-3498.472369752213
 20
3483.476866436214
 30
0.0
 41
1.0
 10
-3502.881850702553
 20
3483.920154441993
 30
0.0
 41
1.0
 10
-3507.410567544772
 20
3483.555321419783
 30
0.0
 41
1.0
 10
-3511.836343346051
 20
3482.360389269402
 30
0.0
 41
1.0
 10
-3515.939382138789
 20
3480.394701576135
 30
0.0
 41
1.0
 10
-3519.53817703851
 20
3477.789228621276
 30
0.0
 41
1.0
 10
-3522.512960615048
 20
3474.723095525711
 30
0.0
 41
1.0
 10
-3524.095950618674
 20
3472.43021510259
 30
0.0
 41
1.0
 10
-3524.770483035234
 20
3471.261890685756
 30
0.0
 41
1.0
 10
-3574.481465379744
 20
3385.159943570909
 30
0.0
 41
1.0
 10
-3624.19244772425
 20
3299.057996456064
 30
0.0
 41
1.0
 10
-3673.903430068753
 20
3212.956049341223
 30
0.0
 41
1.0
 10
-3679.872022618296
 20
3202.618143795738
 30
0.0
 41
1.0
 10
-3685.840615167843
 20
3192.280238250248
 30
0.0
 41
1.0
 10
-3691.809207717382
 20
3181.942332704765
 30
0.0
 41
1.0
 10
-3708.475874384054
 20
3153.074819245282
 30
0.0
 41
1.0
 10
-3725.142541050718
 20
3124.207305785802
 30
0.0
 41
1.0
 10
-3741.809207717382
 20
3095.339792326321
 30
0.0
 41
1.0
 10
-3747.777800266929
 20
3085.001886780833
 30
0.0
 41
1.0
 10
-3753.746392816469
 20
3074.66398123535
 30
0.0
 41
1.0
 10
-3759.714985366012
 20
3064.326075689864
 30
0.0
 41
1.0
 10
-3809.425967710518
 20
2978.22412857502
 30
0.0
 41
1.0
 10
-3859.136950055028
 20
2892.122181460172
 30
0.0
 41
1.0
 10
-3908.847932399531
 20
2806.020234345332
 30
0.0
 41
1.0
 10
-3909.522464816091
 20
2804.851909928497
 30
0.0
 41
1.0
 10
-3910.716662508541
 20
2802.334560159858
 30
0.0
 41
1.0
 10
-3911.884619872417
 20
2798.225255464032
 30
0.0
 41
1.0
 10
-3912.341628190337
 20
2793.805871180435
 30
0.0
 41
1.0
 10
-3911.992444272244
 20
2789.269691506577
 30
0.0
 41
1.0
 10
-3910.814397969632
 20
2784.839391156025
 30
0.0
 41
1.0
 10
-3908.865994213895
 20
2780.734990813015
 30
0.0
 41
1.0
 10
-3906.277355064529
 20
2777.137912295404
 30
0.0
 41
1.0
 10
-3903.226869901522
 20
2774.167560778988
 30
0.0
 41
1.0
 10
-3900.943572280979
 20
2772.589113090065
 30
0.0
 41
1.0
 10
-3899.779694620538
 20
2771.917148009506
 30
0.0
 41
1.0
 10
-3874.240011452192
 20
2757.171805057248
 30
0.0
 41
1.0
 10
-3848.700328283852
 20
2742.426462104988
 30
0.0
 41
1.0
 10
-3823.160645115513
 20
2727.681119152726
 30
0.0
 41
1.0
 10
-3822.327323244786
 20
2727.200000546341
 30
0.0
 41
1.0
 10
-3820.646332456545
 20
2726.259728752796
 30
0.0
 41
1.0
 10
-3818.086041162711
 20
2724.917776945567
 30
0.0
 41
1.0
 10
-3815.487610679149
 20
2723.644885136271
 30
0.0
 41
1.0
 10
-3812.854047832709
 20
2722.442755482477
 30
0.0
 41
1.0
 10
-3810.188419901318
 20
2721.312909152154
 30
0.0
 41
1.0
 10
-3807.493884667794
 20
2720.256703163702
 30
0.0
 41
1.0
 10
-3804.773655920082
 20
2719.275315562417
 30
0.0
 41
1.0
 10
-3802.031036336735
 20
2718.369754800395
 30
0.0
 41
1.0
 10
-3800.187993022115
 20
2717.816570489418
 30
0.0
 41
1.0
 10
-3799.26368469869
 20
2717.55285380031
 30
0.0
 41
1.0
  0
SPLINE
  5
95
330
1F
100
AcDbEntity
  8
2D
100
AcDbSpline
210
0.0
220
0.0
230
1.0
 70
     8
 71
     3
 72
     8
 73
     4
 74
     0
 42
0.0000000001
 43
0.0000000001
 40
0.0
 40
0.0
 40
0.0
 40
0.0
 40
0.8765770791211087
 40
0.8765770791211087
 40
0.8765770791211087
 40
0.8765770791211087
 10
-3799.263684011621
 20
2717.55285359626
 30
0.0
 10
-3798.982926800214
 20
2717.47191063292
 30
0.0
 10
-3798.70197873842
 20
2717.391626429701
 30
0.0
 10
-3798.420844637283
 20
2717.312002361417
 30
0.0
  0
SPLINE
  5
96
330
1F
100
AcDbEntity
  8
2D
100
AcDbSpline
210
0.0
220
0.0
230
1.0
 70
    12
 71
     3
 72
    13
 73
     9
 74
     0
 42
0.0000000001
 43
0.0000000001
 40
-88.78533498606632
 40
-88.78533498606632
 40
-88.78533498606632
 40
-88.78533498606632
 40
-84.55746189181664
 40
-84.55746189181664
 40
-67.64596951481765
 40
-67.64596951481765
 40
-28.353730055482
 40
0.0
 40
0.0
 40
0.0
 40
0.0
 10
-3798.420844637283
 20
2717.312002361417
 30
0.0
 41
1.0
 10
-3797.066087580683
 20
2716.928151657703
 30
0.0
 41
1.0
 10
-3795.713711610515
 20
2716.540807812926
 30
0.0
 41
1.0
 10
-3788.947816104625
 20
2714.610907390064
 30
0.0
 41
1.0
 10
-3783.534249180582
 20
2713.066126413083
 30
0.0
 41
1.0
 10
-3765.550261968816
 20
2707.935150189073
 30
0.0
 41
1.0
 10
-3743.869500969256
 20
2701.749270807309
 30
0.0
 41
1.0
 10
-3722.286891220629
 20
2695.591594161806
 30
0.0
 41
1.0
 10
-3713.167629561198
 20
2692.989664221935
 30
0.0
 41
1.0
  0
SPLINE
  5
97
330
1F
100
AcDbEntity
  8
2D
100
AcDbSpline
210
0.0
220
0.0
230
1.0
 70
     8
 71
     3
 72
     8
 73
     4
 74
     0
 42
0.0000000001
 43
0.0000000001
 40
-28.57795339456236
 40
-28.57795339456236
 40
-28.57795339456236
 40
-28.57795339456236
 40
0.0
 40
0.0
 40
0.0
 40
0.0
 10
-3713.167629561198
 20
2692.989664221935
 30
0.0
 10
-3704.007213413675
 20
2690.376016191145
 30
0.0
 10
-3694.846852760271
 20
2687.762173654458
 30
0.0
 10
-3685.68654761343
 20
2685.148136615428
 30
0.0
  0
SPLINE
  5
98
330
1F
100
AcDbEntity
  8
2D
100
AcDbSpline
210
0.0
220
0.0
230
1.0
 70
     8
 71
     3
 72
     8
 73
     4
 74
     0
 42
0.0000000001
 43
0.0000000001
 40
-57.14782754055221
 40
-57.14782754055221
 40
-57.14782754055221
 40
-57.14782754055221
 40
0.0
 40
0.0
 40
0.0
 40
0.0
 10
-3685.68654761343
 20
2685.148136615428
 30
0.0
 10
-3667.365904626418
 20
2679.920003599661
 30
0.0
 10
-3649.04553668444
 20
2674.690907128293
 30
0.0
 10
-3630.725340269713
 20
2669.461209507478
 30
0.0
  0
SPLINE
  5
99
330
1F
100
AcDbEntity
  8
2D
100
AcDbSpline
210
0.0
220
0.0
230
1.0
 70
     8
 71
     3
 72
     8
 73
     4
 74
     0
 42
0.0000000001
 43
0.0000000001
 40
-106.0418054483314
 40
-106.0418054483314
 40
-106.0418054483314
 40
-106.0418054483314
 40
0.0
 40
0.0
 40
0.0
 40
0.0
 10
-3630.725340269713
 20
2669.461209507478
 30
0.0
 10
-3596.735933641608
 20
2659.758136475552
 30
0.0
 10
-3562.74665925344
 20
2650.054600202024
 30
0.0
 10
-3528.757517123824
 20
2640.350600692215
 30
0.0
  0
SPLINE
  5
9A
330
1F
100
AcDbEntity
  8
2D
100
AcDbSpline
210
0.0
220
0.0
230
1.0
 70
    12
 71
     3
 72
    25
 73
    21
 74
     0
 42
0.0000000001
 43
0.0000000001
 40
-266.3563346980181
 40
-266.3563346980181
 40
-266.3563346980181
 40
-266.3563346980181
 40
-265.4753753889908
 40
-265.4753753889908
 40
-259.9618462745267
 40
-259.9618462745267
 40
-254.4483171600615
 40
-254.4483171600615
 40
-248.9347880455975
 40
-248.9347880455975
 40
-237.9077298166692
 40
-237.9077298166692
 40
-226.8806715877399
 40
-226.8806715877399
 40
-225.5022893091239
 40
-225.5022893091239
 40
-225.2060576124982
 40
-225.2060576124982
 40
-225.2060576124982
 40
0.0
 40
0.0
 40
0.0
 40
0.0
 10
-3528.757517123824
 20
2640.350600692215
 30
0.0
 41
1.0
 10
-3528.391613927226
 20
2640.247083922192
 30
0.0
 41
1.0
 10
-3528.025040780351
 20
2640.14572633727
 30
0.0
 41
1.0
 10
-3525.349570305068
 20
2639.461019698748
 30
0.0
 41
1.0
 10
-3522.99473156274
 20
2639.064003837793
 30
0.0
 41
1.0
 10
-3518.245208556302
 20
2638.678124694646
 30
0.0
 41
1.0
 10
-3515.855976721239
 20
2638.68863442457
 30
0.0
 41
1.0
 10
-3511.108295958213
 20
2639.121890086191
 30
0.0
 41
1.0
 10
-3508.75335273163
 20
2639.545769000176
 30
0.0
 41
1.0
 10
-3501.850073154386
 20
2641.424058012818
 30
0.0
 41
1.0
 10
-3497.467902606033
 20
2643.500976193095
 30
0.0
 41
1.0
 10
-3489.717722154051
 20
2649.086194169452
 30
0.0
 41
1.0
 10
-3486.353648116379
 20
2652.593971042941
 30
0.0
 41
1.0
 10
-3483.412358920363
 20
2657.098698230677
 30
0.0
 41
1.0
 10
-3483.096659709987
 20
2657.604957503343
 30
0.0
 41
1.0
 10
-3482.728886997491
 20
2658.231529918561
 30
0.0
 41
1.0
 10
-3482.664145135801
 20
2658.342481418402
 30
0.0
 41
1.0
 10
-3482.599622781916
 20
2658.453513853109
 30
0.0
 41
1.0
 10
-3447.086140539916
 20
2719.909774838037
 30
0.0
 41
1.0
 10
-3411.572658297915
 20
2781.366035822971
 30
0.0
 41
1.0
 10
-3376.059176055918
 20
2842.822296807905
 30
0.0
 41
1.0
  0
LINE
  5
9B
330
1F
100
AcDbEntity
  8
2D
100
AcDbLine
 10
-3376.059176055918
 20
2842.822296807905
 30
0.0
 11
-3358.153400961801
 21
2873.836009019821
 31
0.0
  0
SPLINE
  5
9C
330
1F
100
AcDbEntity
  8
2D
100
AcDbSpline
210
0.0
220
0.0
230
1.0
 70
    15
 71
     2
 72
    20
 73
    17
 74
     0
 42
0.0000000001
 43
0.0000000001
 40
-76.31516318028146
 40
-76.31516318028146
 40
-76.31516318028146
 40
-0.0000000008036596
 40
-0.0000000008036596
 40
261.3867767284942
 40
261.3867767284942
 40
337.7019399078678
 40
337.7019399078678
 40
599.0887166358252
 40
599.0887166358252
 40
675.4038798166309
 40
675.4038798166309
 40
936.7906565443853
 40
936.7906565443853
 40
1013.105819724655
 40
1013.105819724655
 40
1274.492596451926
 40
1274.492596451926
 40
1274.492596451926
 10
-2994.165452775156
 20
3820.313150171417
 30
0.0
 41
0.9999999999956557
 10
-2985.090307763394
 20
3863.648233830434
 30
0.0
 41
0.8053864672095743
 10
-3023.768035827969
 20
3885.196344756439
 30
0.0
 41
1.0
 10
-3138.837749780655
 20
3949.303909612896
 30
0.0
 41
0.9886318222813665
 10
-3267.763514820323
 20
3976.303280900248
 30
0.0
 41
1.0
 10
-3311.098598479321
 20
3985.378425912296
 30
0.0
 41
0.805386467207564
 10
-3332.646709405137
 20
3946.70069784755
 30
0.0
 41
1.0
 10
-3396.75427426124
 20
3831.630983895453
 30
0.0
 41
0.9886318222814827
 10
-3423.753645548612
 20
3702.705218856486
 30
0.0
 41
1.0
 10
-3432.828790560294
 20
3659.370135196576
 30
0.0
 41
0.8053864672076977
 10
-3394.151062494569
 20
3637.822024270824
 30
0.0
 41
1.0
 10
-3279.081348542587
 20
3573.71445941471
 30
0.0
 41
0.9886318222813681
 10
-3150.155583503685
 20
3546.71508812748
 30
0.0
 41
1.0
 10
-3106.820499844114
 20
3537.639943115601
 30
0.0
 41
0.8053864672073179
 10
-3085.272388918329
 20
3576.31767118097
 30
0.0
 41
1.0
 10
-3021.164824062432
 20
3691.387385132784
 30
0.0
 41
0.9886318222814838
 10
-2994.165452775156
 20
3820.313150171417
 30
0.0
 41
1.0
  0
LINE
  5
9D
330
1F
100
AcDbEntity
  8
2D
100
AcDbLine
 10
-3790.097077563958
 20
4070.100594353263
 30
0.0
 11
-3790.097322590806
 21
4346.183795792043
 31
0.0
  0
LINE
  5
9E
330
1F
100
AcDbEntity
  8
2D
100
AcDbLine
 10
-3790.097322590806
 20
4346.183795792043
 30
0.0
 11
-3790.097062252327
 21
4354.282204092603
 31
0.0
  0
LINE
  5
9F
330
1F
100
AcDbEntity
  8
2D
100
AcDbLine
 10
-3790.097062252327
 20
4354.282204092603
 30
0.0
 11
-3790.097061608223
 21
4355.549963454104
 31
0.0
  0
LINE
  5
A0
330
1F
100
AcDbEntity
  8
2D
100
AcDbLine
 10
-3790.097061608223
 20
4355.549963454104
 30
0.0
 11
-3790.097059125572
 21
4361.724893520768
 31
0.0
  0
SPLINE
  5
A1
330
1F
100
AcDbEntity
  8
2D
100
AcDbSpline
210
0.0
220
0.0
230
1.0
 70
     8
 71
     3
 72
     8
 73
     4
 74
     0
 42
0.0000000001
 43
0.0000000001
 40
-5.95624451969364
 40
-5.95624451969364
 40
-5.95624451969364
 40
-5.95624451969364
 40
0.0
 40
0.0
 40
0.0
 40
0.0
 10
-3790.097059125572
 20
4361.724893520768
 30
0.0
 10
-3790.097079397499
 20
4363.710308360569
 30
0.0
 10
-3790.097101975683
 20
4365.695723200325
 30
0.0
 10
-3790.097130112063
 20
4367.681138040023
 30
0.0
  0
LINE
  5
A2
330
1F
100
AcDbEntity
  8
2D
100
AcDbLine
 10
-3790.097130112063
 20
4367.681138040023
 30
0.0
 11
-3790.096712020742
 21
4372.988520039744
 31
0.0
  0
SPLINE
  5
A3
330
1F
100
AcDbEntity
  8
2D
100
AcDbSpline
210
0.0
220
0.0
230
1.0
 70
     8
 71
     3
 72
     8
 73
     4
 74
     0
 42
0.0000000001
 43
0.0000000001
 40
-0.4884861954229033
 40
-0.4884861954229033
 40
-0.4884861954229033
 40
-0.4884861954229033
 40
0.0
 40
0.0
 40
0.0
 40
0.0
 10
-3790.096712020742
 20
4372.988520039744
 30
0.0
 10
-3790.096660730575
 20
4373.151348763473
 30
0.0
 10
-3790.096609832937
 20
4373.31417748733
 30
0.0
 10
-3790.096559327911
 20
4373.477006225198
 30
0.0
  0
SPLINE
  5
A4
330
1F
100
AcDbEntity
  8
2D
100
AcDbSpline
210
0.0
220
0.0
230
1.0
 70
     8
 71
     3
 72
     8
 73
     4
 74
     0
 42
0.0000000001
 43
0.0000000001
 40
-14.45092956368237
 40
-14.45092956368237
 40
-14.45092956368237
 40
-14.45092956368237
 40
0.0
 40
0.0
 40
0.0
 40
0.0
 10
-3790.096559327911
 20
4373.477006225198
 30
0.0
 10
-3790.096727427492
 20
4378.293982757386
 30
0.0
 10
-3790.096894756032
 20
4383.110959275312
 30
0.0
 10
-3790.09706450265
 20
4387.927935794172
 30
0.0
  0
SPLINE
  5
A5
330
1F
100
AcDbEntity
  8
2D
100
AcDbSpline
210
0.0
220
0.0
230
1.0
 70
    12
 71
     3
 72
    23
 73
    19
 74
     0
 42
0.0000000001
 43
0.0000000001
 40
-1.982430456905427
 40
-1.982430456905427
 40
-1.982430456905427
 40
-1.982430456905427
 40
0.0
 40
0.0
 40
0.0
 40
6.78548651859613
 40
6.78548651859613
 40
13.54569576792389
 40
13.54569576792389
 40
20.1080751663422
 40
20.1080751663422
 40
26.44433597621363
 40
26.44433597621363
 40
26.44433597621363
 40
342.1913106663179
 40
342.1913106663179
 40
342.1913106663179
 40
361.1806534994103
 40
361.1806534994103
 40
361.1806534994103
 40
361.1806534994103
 10
-3790.09706450265
 20
4387.927935794172
 30
0.0
 41
1.0
 10
-3790.097107478778
 20
4388.588745945729
 30
0.0
 41
1.0
 10
-3790.097147842749
 20
4389.249599976331
 30
0.0
 41
1.0
 10
-3790.097184603717
 20
4389.91041012761
 30
0.0
 41
1.0
 10
-3790.097179478173
 20
4390.15802611287
 30
0.0
 41
1.0
 10
-3790.25194541593
 20
4391.03565031467
 30
0.0
 41
1.0
 10
-3790.848679986058
 20
4393.932030431974
 30
0.0
 41
1.0
 10
-3791.282775915333
 20
4395.913700091324
 30
0.0
 41
1.0
 10
-3792.352752038689
 20
4400.633775380103
 30
0.0
 41
1.0
 10
-3792.972711414179
 20
4403.305970963973
 30
0.0
 41
1.0
 10
-3794.308577126805
 20
4408.961960604023
 30
0.0
 41
1.0
 10
-3795.010790953897
 20
4411.891122876963
 30
0.0
 41
1.0
 10
-3795.726965989292
 20
4414.837894673433
 30
0.0
 41
1.0
 10
-3820.583000537026
 20
4517.109727411816
 30
0.0
 41
1.0
 10
-3845.439035084764
 20
4619.381560150183
 30
0.0
 41
1.0
 10
-3870.295069632495
 20
4721.653392888566
 30
0.0
 41
1.0
 10
-3871.76393609457
 20
4727.697143152924
 30
0.0000000000000028
 41
0.9778498669261779
 10
-3873.832051817014
 20
4733.62813369688
 30
0.0000000000000007
 41
0.9591416440757868
 10
-3876.512424765299
 20
4739.37477632426
 30
0.0
 41
0.9438753314488268
  0
SPLINE
  5
A6
330
1F
100
AcDbEntity
  8
2D
100
AcDbSpline
210
0.0
220
0.0
230
1.0
 70
     8
 71
     3
 72
     8
 73
     4
 74
     0
 42
0.0000000001
 43
0.0000000001
 40
-3.856059846688598
 40
-3.856059846688598
 40
-3.856059846688598
 40
-3.856059846688598
 40
0.0
 40
0.0
 40
0.0
 40
0.0
 10
-3876.5124247653
 20
4739.374776324261
 30
0.0
 10
-3877.055750044081
 20
4740.539650112923
 30
0.0
 10
-3877.622838052957
 20
4741.693732285908
 30
0.0
 10
-3878.212988316624
 20
4742.835597308509
 30
0.0
  0
SPLINE
  5
A7
330
1F
100
AcDbEntity
  8
2D
100
AcDbSpline
210
0.0
220
0.0
230
1.0
 70
    12
 71
     3
 72
     8
 73
     4
 74
     0
 42
0.0000000001
 43
0.0000000001
 40
-102.8953763350939
 40
-102.8953763350939
 40
-102.8953763350939
 40
-102.8953763350939
 40
0.0
 40
0.0
 40
0.0
 40
0.0
 10
-3878.212988316622
 20
4742.835597308508
 30
0.0
 41
0.9378570462892507
 10
-3895.018517508472
 20
4775.352139537622
 30
0.0000000000000016
 41
0.8654606304479169
 10
-3926.0744187577
 20
4793.918176574312
 30
-0.0000000000000056
 41
0.8861749483515
 10
-3961.820218596487
 20
4794.214542024444
 30
0.0
 41
1.0
  0
SPLINE
  5
A8
330
1F
100
AcDbEntity
  8
2D
100
AcDbSpline
210
0.0
220
0.0
230
1.0
 70
     8
 71
     3
 72
     8
 73
     4
 74
     0
 42
0.0000000001
 43
0.0000000001
 40
-0.7876168655628386
 40
-0.7876168655628386
 40
-0.7876168655628386
 40
-0.7876168655628386
 40
0.0
 40
0.0
 40
0.0
 40
0.0
 10
-3961.820218596487
 20
4794.214542024444
 30
0.0
 10
-3962.082748530393
 20
4794.216718442271
 30
0.0
 10
-3962.345289742094
 20
4794.217806581245
 30
0.0
 10
-3962.607828697281
 20
4794.217806385273
 30
0.0
  0
LINE
  5
A9
330
1F
100
AcDbEntity
  8
2D
100
AcDbLine
 10
-3962.607828697281
 20
4794.217806385273
 30
0.0
 11
-4205.763072695929
 21
4794.217806291372
 31
0.0
  0
LINE
  5
AA
330
1F
100
AcDbEntity
  8
2D
100
AcDbLine
 10
-4205.763072695929
 20
4794.217806291372
 30
0.0
 11
-4305.763072695929
 21
4794.217806291372
 31
0.0
  0
LINE
  5
AB
330
1F
100
AcDbEntity
  8
2D
100
AcDbLine
 10
-4305.763072695929
 20
4794.217806291372
 30
0.0
 11
-4548.918316684616
 21
4794.217806385273
 31
0.0
  0
SPLINE
  5
AC
330
1F
100
AcDbEntity
  8
2D
100
AcDbSpline
210
0.0
220
0.0
230
1.0
 70
     8
 71
     3
 72
     8
 73
     4
 74
     0
 42
0.0000000001
 43
0.0000000001
 40
0.0
 40
0.0
 40
0.0
 40
0.0
 40
0.7876168655737182
 40
0.7876168655737182
 40
0.7876168655737182
 40
0.7876168655737182
 10
-4548.918316684616
 20
4794.217806385273
 30
0.0
 10
-4549.180855649767
 20
4794.217806581244
 30
0.0
 10
-4549.443396861461
 20
4794.21671844227
 30
0.0
 10
-4549.70592679537
 20
4794.214542024439
 30
0.0
  0
SPLINE
  5
AD
330
1F
100
AcDbEntity
  8
2D
100
AcDbSpline
210
0.0
220
0.0
230
1.0
 70
    12
 71
     3
 72
     8
 73
     4
 74
     0
 42
0.0000000001
 43
0.0000000001
 40
-103.3063954314522
 40
-103.3063954314522
 40
-103.3063954314522
 40
-103.3063954314522
 40
0.0
 40
0.0
 40
0.0
 40
0.0
 10
-4549.70592679537
 20
4794.214542024439
 30
0.0
 41
1.0
 10
-4585.451726634162
 20
4793.918176574311
 30
-0.0000000000000011
 41
0.8861749483514948
 10
-4616.507627883394
 20
4775.352139537623
 30
-0.0000000000000127
 41
0.8654606304479148
 10
-4633.313157075238
 20
4742.835597308509
 30
0.0
 41
0.9378570462892603
  0
SPLINE
  5
AE
330
1F
100
AcDbEntity
  8
2D
100
AcDbSpline
210
0.0
220
0.0
230
1.0
 70
     8
 71
     3
 72
     8
 73
     4
 74
     0
 42
0.0000000001
 43
0.0000000001
 40
0.0
 40
0.0
 40
0.0
 40
0.0
 40
3.856059846689412
 40
3.856059846689412
 40
3.856059846689412
 40
3.856059846689412
 10
-4633.313157075238
 20
4742.835597308509
 30
0.0
 10
-4633.9033073389
 20
4741.693732285908
 30
0.0
 10
-4634.47039534778
 20
4740.539650112921
 30
0.0
 10
-4635.013720626568
 20
4739.374776324263
 30
0.0
  0
SPLINE
  5
AF
330
1F
100
AcDbEntity
  8
2D
100
AcDbSpline
210
0.0
220
0.0
230
1.0
 70
    12
 71
     3
 72
    21
 73
    17
 74
     0
 42
0.0000000001
 43
0.0000000001
 40
-18.62663024147095
 40
-18.62663024147095
 40
-18.62663024147095
 40
-18.62663024147095
 40
-0.000000000001407
 40
-0.000000000001407
 40
-0.000000000001407
 40
315.7469746900989
 40
315.7469746900989
 40
315.7469746900989
 40
330.6266503986058
 40
330.6266503986058
 40
338.0675027554143
 40
338.0675027554143
 40
340.3336286956184
 40
340.3336286956184
 40
340.3336286956184
 40
342.3161364061145
 40
342.3161364061145
 40
342.3161364061145
 40
342.3161364061145
 10
-4635.013720626571
 20
4739.374776324263
 30
0.0
 41
0.9465685109680987
 10
-4637.694093574841
 20
4733.62813369688
 30
0.0000000000000066
 41
0.9618783832889409
 10
-4639.762209297287
 20
4727.697143152925
 30
-0.0000000000000007
 41
0.9806399867087172
 10
-4641.23107575935
 20
4721.653392888566
 30
0.0
 41
1.002853321227427
 10
-4666.087110307092
 20
4619.381560150186
 30
0.0
 41
1.002853321227427
 10
-4690.943144854827
 20
4517.109727411812
 30
0.0
 41
1.002853321227427
 10
-4715.799179402561
 20
4414.837894673432
 30
0.0
 41
1.002853321227427
 10
-4716.805150299149
 20
4410.698729637464
 30
0.0
 41
1.002853321227427
 10
-4717.794559981689
 20
4406.555780164474
 30
0.0
 41
1.002853321227427
 10
-4719.241197759324
 20
4400.331873903374
 30
0.0
 41
1.002853321227427
 10
-4719.717217174945
 20
4398.255699585849
 30
0.0
 41
1.002853321227427
 10
-4720.320102177827
 20
4395.542983890817
 30
0.0
 41
1.002853321227427
 10
-4721.428974723975
 20
4390.583653142539
 30
0.0
 41
1.002853321227427
 10
-4721.428960788136
 20
4389.91041012761
 30
0.0
 41
1.002853321227427
 10
-4721.428997550537
 20
4389.249574225134
 30
0.0
 41
1.002853321227427
 10
-4721.429037911436
 20
4388.588771696926
 30
0.0
 41
1.002853321227427
 10
-4721.429078906985
 20
4387.92793579418
 30
0.0
 41
1.002853321227427
  0
SPLINE
  5
B0
330
1F
100
AcDbEntity
  8
2D
100
AcDbSpline
210
0.0
220
0.0
230
1.0
 70
     8
 71
     3
 72
     8
 73
     4
 74
     0
 42
0.0000000001
 43
0.0000000001
 40
0.0
 40
0.0
 40
0.0
 40
0.0
 40
14.45092956344192
 40
14.45092956344192
 40
14.45092956344192
 40
14.45092956344192
 10
-4721.429078906986
 20
4387.927935794181
 30
0.0
 10
-4721.429246671381
 20
4383.11095927541
 30
0.0
 10
-4721.42941796454
 20
4378.293982757305
 30
0.0
 10
-4721.429586064045
 20
4373.477006225198
 30
0.0
  0
SPLINE
  5
B1
330
1F
100
AcDbEntity
  8
2D
100
AcDbSpline
210
0.0
220
0.0
230
1.0
 70
     8
 71
     3
 72
     8
 73
     4
 74
     0
 42
0.0000000001
 43
0.0000000001
 40
0.0
 40
0.0
 40
0.0
 40
0.0
 40
0.488486195423766
 40
0.488486195423766
 40
0.488486195423766
 40
0.488486195423766
 10
-4721.429586064045
 20
4373.477006225198
 30
0.0
 10
-4721.429535558927
 20
4373.314177487329
 30
0.0
 10
-4721.429484661287
 20
4373.151348763473
 30
0.0
 10
-4721.429433371115
 20
4372.988520039742
 30
0.0
  0
LINE
  5
B2
330
1F
100
AcDbEntity
  8
2D
100
AcDbLine
 10
-4721.429433371115
 20
4372.988520039742
 30
0.0
 11
-4721.429015279784
 21
4367.681138040023
 31
0.0
  0
SPLINE
  5
B3
330
1F
100
AcDbEntity
  8
2D
100
AcDbSpline
210
0.0
220
0.0
230
1.0
 70
     8
 71
     3
 72
     8
 73
     4
 74
     0
 42
0.0000000001
 43
0.0000000001
 40
0.0
 40
0.0
 40
0.0
 40
0.0
 40
5.95624451969617
 40
5.95624451969617
 40
5.95624451969617
 40
5.95624451969617
 10
-4721.429015279784
 20
4367.681138040023
 30
0.0
 10
-4721.429043416134
 20
4365.695723200325
 30
0.0
 10
-4721.429065994045
 20
4363.71030836057
 30
0.0
 10
-4721.429086266147
 20
4361.724893520768
 30
0.0
  0
LINE
  5
B4
330
1F
100
AcDbEntity
  8
2D
100
AcDbLine
 10
-4721.429086266147
 20
4361.724893520768
 30
0.0
 11
-4721.429083783634
 21
4355.549963454104
 31
0.0
  0
LINE
  5
B5
330
1F
100
AcDbEntity
  8
2D
100
AcDbLine
 10
-4721.429083783634
 20
4355.549963454104
 30
0.0
 11
-4721.42908313953
 21
4354.282204092603
 31
0.0
  0
LINE
  5
B6
330
1F
100
AcDbEntity
  8
2D
100
AcDbLine
 10
-4721.42908313953
 20
4354.282204092603
 30
0.0
 11
-4721.428952963663
 21
4350.232999957572
 31
0.0
  0
LINE
  5
B7
330
1F
100
AcDbEntity
  8
2D
100
AcDbLine
 10
-4721.428952963663
 20
4350.232999957572
 30
0.0
 11
-4721.429067827899
 21
4070.100594353263
 31
0.0
  0
SPLINE
  5
B8
330
1F
100
AcDbEntity
  8
2D
100
AcDbSpline
210
0.0
220
0.0
230
1.0
 70
     8
 71
     3
 72
     8
 73
     4
 74
     0
 42
0.0000000001
 43
0.0000000001
 40
0.0
 40
0.0
 40
0.0
 40
0.0
 40
159.3744175909802
 40
159.3744175909802
 40
159.3744175909802
 40
159.3744175909802
 10
-3399.17805631613
 20
3439.487275019858
 30
0.0
 10
-3353.170618351498
 20
3412.924883373345
 30
0.0
 10
-3307.163181871041
 20
3386.362489155926
 30
0.0
 10
-3261.155746867666
 20
3359.800092380389
 30
0.0
  0
SPLINE
  5
B9
330
1F
100
AcDbEntity
  8
2D
100
AcDbSpline
210
0.0
220
0.0
230
1.0
 70
     8
 71
     3
 72
   126
 73
   122
 74
     0
 42
0.0000000001
 43
0.0000000001
 40
-1388.624144800653
 40
-1388.624144800653
 40
-1388.624144800653
 40
-1388.624144800653
 40
-1383.005642400053
 40
-1383.005642400053
 40
-1377.316394745787
 40
-1377.316394745787
 40
-1371.536072411681
 40
-1371.536072411681
 40
-1366.079643211496
 40
-1366.079643211496
 40
-1355.164204704031
 40
-1355.164204704031
 40
-1354.627582751746
 40
-1354.627582751746
 40
-1354.007846248215
 40
-1354.007846248215
 40
-1352.740903311588
 40
-1352.740903311588
 40
-1350.155046926894
 40
-1350.155046926894
 40
-1344.95030988965
 40
-1344.95030988965
 40
-1323.106923053358
 40
-1323.106923053358
 40
-1301.403426734162
 40
-1301.403426734162
 40
-1214.588866319177
 40
-1214.588866319177
 40
-1127.771750688318
 40
-1127.771750688318
 40
-1084.363359233299
 40
-1084.363359233299
 40
-1062.659261904379
 40
-1062.659261904379
 40
-1051.817490815369
 40
-1051.817490815369
 40
-1046.381099166609
 40
-1046.381099166609
 40
-1040.974397896773
 40
-1040.974397896773
 40
-1030.122501170642
 40
-1030.122501170642
 40
-1024.706779461197
 40
-1024.706779461197
 40
-1018.569160546708
 40
-1018.569160546708
 40
-1013.143802499296
 40
-1013.143802499296
 40
-1007.708539179361
 40
-1007.708539179361
 40
-996.8772815428157
 40
-996.8772815428157
 40
-986.0340342798489
 40
-986.0340342798489
 40
-980.6022156307577
 40
-980.6022156307577
 40
-975.1752168345822
 40
-975.1752168345822
 40
-969.7416862844185
 40
-969.7416862844185
 40
-964.3243486573442
 40
-964.3243486573442
 40
-959.0427004902907
 40
-959.0427004902907
 40
-954.3570405957674
 40
-954.3570405957674
 40
-948.9346768719798
 40
-948.9346768719798
 40
-943.5158485378104
 40
-943.5158485378104
 40
-932.6781918781653
 40
-932.6781918781653
 40
-911.0028786913352
 40
-911.0028786913352
 40
-867.6522537974059
 40
-867.6522537974059
 40
-694.2672610458351
 40
-694.2672610458351
 40
-520.7281873767613
 40
-520.7281873767613
 40
-434.0867263933073
 40
-434.0867263933073
 40
-390.7659934765156
 40
-390.7659934765156
 40
-379.9358099363657
 40
-379.9358099363657
 40
-374.5239545422828
 40
-374.5239545422828
 40
-369.5372259505556
 40
-369.5372259505556
 40
-364.1189345444334
 40
-364.1189345444334
 40
-358.6858453238149
 40
-358.6858453238149
 40
-353.2677109788311
 40
-353.2677109788311
 40
-347.8434501242726
 40
-347.8434501242726
 40
-337.0185075122363
 40
-337.0185075122363
 40
-326.1749713228196
 40
-326.1749713228196
 40
-315.3281586764024
 40
-315.3281586764024
 40
-309.8965742155863
 40
-309.8965742155863
 40
-303.8317893045212
 40
-303.8317893045212
 40
-298.400700851673
 40
-298.400700851673
 40
-292.9712890333822
 40
-292.9712890333822
 40
-282.1370903539606
 40
-282.1370903539606
 40
-271.272507552074
 40
-271.272507552074
 40
-260.4268657328311
 40
-260.4268657328311
 40
-173.6616002579042
 40
-173.6616002579042
 40
0.0
 40
0.0
 40
0.0
 40
0.0
 10
-3261.155746867666
 20
3359.800092380389
 30
0.0
 10
-3259.543542479434
 20
3358.86928447146
 30
0.0
 10
-3257.931338271334
 20
3357.938476250536
 30
0.0
 10
-3254.68662992282
 20
3356.065139378788
 30
0.0
 10
-3253.054125825667
 20
3355.122610653042
 30
0.0
 10
-3249.762984660592
 20
3353.222464136107
 30
0.0
 10
-3248.104347405399
 20
3352.264846669278
 30
0.0
 10
-3244.880015922663
 20
3350.403264807838
 30
0.0
 10
-3243.314319665587
 20
3349.499303928465
 30
0.0
 10
-3238.616490070599
 20
3346.78699466837
 30
0.0
 10
-3235.48435597682
 20
3344.97864759684
 30
0.0
 10
-3232.198240489979
 20
3343.081399435432
 30
0.0
 10
-3231.947843548118
 20
3342.94650743439
 30
0.0
 10
-3231.635623279195
 20
3342.719434412756
 30
0.0
 10
-3231.477053095867
 20
3342.587459877555
 30
0.0
 10
-3230.99402348611
 20
3342.184572326787
 30
0.0
 10
-3230.675712834636
 20
3341.90720100935
 30
0.0
 10
-3229.711577660724
 20
3341.058769103239
 30
0.0
 10
-3229.071422203804
 20
3340.481727776304
 30
0.0
 10
-3227.148710981422
 20
3338.736300029851
 30
0.0
 10
-3225.874111312816
 20
3337.559565481559
 30
0.0
 10
-3219.267835242616
 20
3331.424557396249
 30
0.0
 10
-3214.338483486539
 20
3326.714198881891
 30
0.0
 10
-3203.838393529964
 20
3316.694013641107
 30
0.0
 10
-3198.605213899518
 20
3311.700015456966
 30
0.0
 10
-3172.439176632975
 20
3286.72989265336
 30
0.0
 10
-3151.506311861267
 20
3266.753775511261
 30
0.0
 10
-3109.639958083862
 20
3226.800961774335
 30
0.0
 10
-3088.706469077897
 20
3206.824265179791
 30
0.0
 10
-3057.306274341663
 20
3176.859259972245
 30
0.0
 10
-3046.83956928159
 20
3166.870950656948
 30
0.0
 10
-3031.1395356758
 20
3151.888509054945
 30
0.0
 10
-3025.906207000942
 20
3146.894376903569
 30
0.0
 10
-3018.058692273738
 20
3139.405543410436
 30
0.0
 10
-3015.444506655323
 20
3136.91084161397
 30
0.0
 10
-3011.519492451585
 20
3133.16521772126
 30
0.0
 10
-3010.208661786037
 20
3131.91429780487
 30
0.0
 10
-3007.594159523131
 20
3129.419289677444
 30
0.0
 10
-3006.290487415601
 20
3128.175202001013
 30
0.0
 10
-3002.370191828129
 20
3124.434078785976
 30
0.0
 10
-2999.753394453423
 20
3121.937225482547
 30
0.0
 10
-2995.831168423429
 20
3118.193770343405
 30
0.0
 10
-2994.523378214788
 20
3116.949646096257
 30
0.0
 10
-2991.741528650211
 20
3114.287107142155
 30
0.0
 10
-2990.788526975884
 20
3113.349602951339
 30
0.0
 10
-2988.25751821923
 20
3110.435863347133
 30
0.0
 10
-2987.149226542053
 20
3109.016829483612
 30
0.0
 10
-2985.079799035684
 20
3106.039934170918
 30
0.0
 10
-2984.131247031099
 20
3104.505625930399
 30
0.0
 10
-2981.532286477312
 20
3099.737638658105
 30
0.0
 10
-2980.1492982044
 20
3096.381429006305
 30
0.0
 10
-2978.134705275439
 20
3089.431582017784
 30
0.0
 10
-2977.506278797973
 20
3085.856157977089
 30
0.0
 10
-2977.15168559931
 20
3080.434174062238
 30
0.0
 10
-2977.1314663907
 20
3078.631440950833
 30
0.0
 10
-2977.288207232945
 20
3075.009475692075
 30
0.0
 10
-2977.463127000588
 20
3073.216710666437
 30
0.0
 10
-2978.011393714802
 20
3069.632407607745
 30
0.0
 10
-2978.379858527569
 20
3067.866966700002
 30
0.0
 10
-2979.312357765193
 20
3064.366188096714
 30
0.0
 10
-2979.867982565829
 20
3062.656009344902
 30
0.0
 10
-2981.155598856152
 20
3059.323903710823
 30
0.0
 10
-2981.932416369655
 20
3057.585812475158
 30
0.0
 10
-2983.467326111106
 20
3054.631914526747
 30
0.0
 10
-2984.625988748168
 20
3052.656338638564
 30
0.0
 10
-2986.312709524354
 20
3049.73627770406
 30
0.0
 10
-2987.216885821003
 20
3048.16946008486
 30
0.0
 10
-2989.025288136421
 20
3045.037215394033
 30
0.0
 10
-2989.92919442771
 20
3043.47160377222
 30
0.0
 10
-2992.640913300158
 20
3038.774768909303
 30
0.0
 10
-2994.44872588131
 20
3035.643545668199
 30
0.0
 10
-2999.872163602649
 20
3026.249875983147
 30
0.0
 10
-3003.487788742848
 20
3019.987429539205
 30
0.0
 10
-3014.334663916612
 20
3001.2000906349
 30
0.0
 10
-3021.565913950177
 20
2988.675198174537
 30
0.0
 10
-3057.719243832009
 20
2926.055793956442
 30
0.0
 10
-3086.641323680269
 20
2875.961282198706
 30
0.0
 10
-3144.51118537398
 20
2775.727741518211
 30
0.0
 10
-3173.458967219438
 20
2725.588712595453
 30
0.0
 10
-3216.859275854924
 20
2650.417172974593
 30
0.0
 10
-3231.311802644959
 20
2625.384662276491
 30
0.0
 10
-3252.990593234528
 20
2587.835895528688
 30
0.0
 10
-3260.216857034069
 20
2575.319639478987
 30
0.0
 10
-3269.249686835359
 20
2559.674319327019
 30
0.0
 10
-3271.056252837116
 20
2556.545255224751
 30
0.0
 10
-3273.765561984921
 20
2551.852594127337
 30
0.0
 10
-3274.668961119613
 20
2550.289376065241
 30
0.0
 10
-3276.402138877311
 20
2547.284204919114
 30
0.0
 10
-3277.434764127174
 20
2545.460859969642
 30
0.0
 10
-3279.318670500325
 20
2542.54007207963
 30
0.0
 10
-3280.378516314493
 20
2541.086475491546
 30
0.0
 10
-3282.664121950522
 20
2538.273953043208
 30
0.0
 10
-3283.87662110362
 20
2536.938353939146
 30
0.0
 10
-3286.453303235219
 20
2534.390068810045
 30
0.0
 10
-3287.799547031911
 20
2533.196927761305
 30
0.0
 10
-3290.634427714562
 20
2530.944316488862
 30
0.0
 10
-3292.103275371577
 20
2529.902417799497
 30
0.0
 10
-3296.692298766236
 20
2527.006387281128
 30
0.0
 10
-3299.952340790594
 20
2525.413918419828
 30
0.0
 10
-3306.758975413817
 20
2522.958438656034
 30
0.0
 10
-3310.284458311868
 20
2522.104339147613
 30
0.0
 10
-3317.467232778276
 20
2521.170459288339
 30
0.0
 10
-3321.088916085893
 20
2521.096456033796
 30
0.0
 10
-3326.50374699926
 20
2521.571121934746
 30
0.0
 10
-3328.288428702985
 20
2521.828156713233
 30
0.0
 10
-3332.053841155805
 20
2522.572840596486
 30
0.0
 10
-3333.373961325444
 20
2522.945522289483
 30
0.0
 10
-3337.052595305879
 20
2524.019099352483
 30
0.0
 10
-3338.789084556323
 20
2524.53118809335
 30
0.0
 10
-3342.263194453753
 20
2525.54953375891
 30
0.0
 10
-3343.999929479291
 20
2526.058804513734
 30
0.0
 10
-3349.202347665567
 20
2527.583999943781
 30
0.0
 10
-3352.667995521337
 20
2528.600045033748
 30
0.0
 10
-3359.609016391736
 20
2530.634964641721
 30
0.0
 10
-3363.084387088315
 20
2531.653847066433
 30
0.0
 10
-3370.029066392603
 20
2533.68984665655
 30
0.0
 10
-3373.49837679027
 20
2534.706957716482
 30
0.0
 10
-3404.722213510071
 20
2543.860965230106
 30
0.0
 10
-3432.476742023795
 20
2551.997854208382
 30
0.0
 10
-3515.782240500313
 20
2576.420859271064
 30
0.0
 10
-3571.333208788226
 20
2592.706981068343
 30
0.0
 10
-3626.884194848764
 20
2608.993042244237
 30
0.0
  0
SPLINE
  5
BA
330
1F
100
AcDbEntity
  8
2D
100
AcDbSpline
210
0.0
220
0.0
230
1.0
 70
     8
 71
     3
 72
    32
 73
    28
 74
     0
 42
0.0000000001
 43
0.0000000001
 40
-59.19604378750972
 40
-59.19604378750972
 40
-59.19604378750972
 40
-59.19604378750972
 40
-51.7705493878533
 40
-51.7705493878533
 40
-44.34255247042779
 40
-44.34255247042779
 40
-40.66054806550154
 40
-40.66054806550154
 40
-36.91659540794964
 40
-36.91659540794964
 40
-35.00487814803284
 40
-35.00487814803284
 40
-34.02356445934266
 40
-34.02356445934266
 40
-33.52544695812225
 40
-33.52544695812225
 40
-33.08012031810862
 40
-33.08012031810862
 40
-29.51742950528546
 40
-29.51742950528546
 40
-22.13530080063089
 40
-22.13530080063089
 40
-14.75841244525123
 40
-14.75841244525123
 40
-7.383213632896101
 40
-7.383213632896101
 40
0.0
 40
0.0
 40
0.0
 40
0.0
 10
-3626.884194848764
 20
2608.993042244237
 30
0.0
 10
-3629.254990092009
 20
2609.688097326221
 30
0.0
 10
-3631.624040337178
 20
2610.38895741087
 30
0.0
 10
-3636.358984048249
 20
2611.804463847196
 30
0.0
 10
-3638.724909313984
 20
2612.518615249021
 30
0.0
 10
-3642.25894900467
 20
2613.60241878059
 30
0.0
 10
-3643.42935631724
 20
2613.964206047299
 30
0.0
 10
-3645.787198964474
 20
2614.70258598303
 30
0.0
 10
-3646.974735057367
 20
2615.078467675385
 30
0.0
 10
-3648.763454831202
 20
2615.662962236227
 30
0.0
 10
-3649.367212478966
 20
2615.862866832856
 30
0.0
 10
-3650.276532862732
 20
2616.178841083914
 30
0.0
 10
-3650.584239699019
 20
2616.287588633758
 30
0.0
 10
-3651.043033497164
 20
2616.466500871825
 30
0.0
 10
-3651.195407227569
 20
2616.528308763594
 30
0.0
 10
-3651.469050998137
 20
2616.686296363611
 30
0.0
 10
-3651.598216950399
 20
2616.760870028341
 30
0.0
 10
-3652.76073305534
 20
2617.432046021197
 30
0.0
 10
-3653.794083200446
 20
2618.028648362439
 30
0.0
 10
-3656.968602552628
 20
2619.861449783562
 30
0.0
 10
-3659.109771867337
 20
2621.097648677017
 30
0.0
 10
-3663.390592527114
 20
2623.569165491719
 30
0.0
 10
-3665.530243855432
 20
2624.804483441972
 30
0.0
 10
-3669.809052130728
 20
2627.274843919995
 30
0.0
 10
-3671.948210137387
 20
2628.509884612322
 30
0.0
 10
-3676.228850726518
 20
2630.981308326031
 30
0.0
 10
-3678.370333206443
 20
2632.217691525038
 30
0.0
 10
-3680.511815469243
 20
2633.454075100122
 30
0.0
  0
SPLINE
  5
BB
330
1F
100
AcDbEntity
  8
2D
100
AcDbSpline
210
0.0
220
0.0
230
1.0
 70
     8
 71
     3
 72
     8
 73
     4
 74
     0
 42
0.0000000001
 43
0.0000000001
 40
-159.3744175910497
 40
-159.3744175910497
 40
-159.3744175910497
 40
-159.3744175910497
 40
0.0
 40
0.0
 40
0.0
 40
0.0
 10
-3680.511815469243
 20
2633.454075100122
 30
0.0
 10
-3726.519243401406
 20
2660.016484123403
 30
0.0
 10
-3772.526669819217
 20
2686.578895769745
 30
0.0
 10
-3818.534094715262
 20
2713.141310051754
 30
0.0
  0
LINE
  5
BC
330
1F
100
AcDbEntity
  8
2D
100
AcDbLine
 10
-3818.534094715262
 20
2713.141310051754
 30
0.0
 11
-3881.140271881686
 21
2749.287002960159
 31
0.0
  0
SPLINE
  5
BD
330
1F
100
AcDbEntity
  8
2D
100
AcDbSpline
210
0.0
220
0.0
230
1.0
 70
    12
 71
     3
 72
    13
 73
     9
 74
     0
 42
0.0000000001
 43
0.0000000001
 40
-55.30893238527409
 40
-55.30893238527409
 40
-55.30893238527409
 40
-55.30893238527409
 40
-6.526106783978628
 40
-4.293879475997712
 40
-4.293879475997712
 40
-4.293879475997712
 40
-2.061648977740382
 40
0.0
 40
0.0
 40
0.0
 40
0.0
 10
-3881.140271881686
 20
2749.287002960159
 30
0.0
 41
1.0
 10
-3896.163864039769
 20
2757.960637153488
 30
0.0
 41
1.0
 10
-3911.935956837708
 20
2767.064357074759
 30
0.0
 41
1.0
 10
-3927.880293454873
 20
2776.261736917967
 30
0.0
 41
1.0
 10
-3928.25040723605
 20
2776.48605278721
 30
0.0
 41
1.0
 10
-3928.62053771213
 20
2776.71037307261
 30
0.0
 41
1.0
 10
-3928.702418447192
 20
2776.799222520836
 30
0.0
 41
1.0
 10
-3928.684498221304
 20
2776.957955041556
 30
0.0
 41
1.0
 10
-3928.563236476821
 20
2776.988368738101
 30
0.0
 41
1.0
  0
SPLINE
  5
BE
330
1F
100
AcDbEntity
  8
2D
100
AcDbSpline
210
0.0
220
0.0
230
1.0
 70
    12
 71
     2
 72
     6
 73
     3
 74
     0
 42
0.0000000001
 43
0.0000000001
 40
-2.822093211667354
 40
-2.822093211667354
 40
-2.822093211667354
 40
0.0
 40
0.0
 40
0.0
 10
-3928.563236476821
 20
2776.988368738101
 30
0.0
 41
1.0
 10
-3927.193076697289
 20
2777.330635488714
 30
0.0000000000000001
 41
0.9989980003651711
 10
-3925.79780443753
 20
2777.549017248389
 30
0.0
 41
1.0
  0
SPLINE
  5
BF
330
1F
100
AcDbEntity
  8
2D
100
AcDbSpline
210
0.0
220
0.0
230
1.0
 70
     8
 71
     3
 72
    10
 73
     6
 74
     0
 42
0.0000000001
 43
0.0000000001
 40
-17.68001702861863
 40
-17.68001702861863
 40
-17.68001702861863
 40
-17.68001702861863
 40
-8.872539394433215
 40
-8.872539394433215
 40
0.0
 40
0.0
 40
0.0
 40
0.0
 10
-3925.79780443753
 20
2777.549017248389
 30
0.0
 10
-3922.887362126425
 20
2778.008554796493
 30
0.0
 10
-3919.914419743429
 20
2778.088743030582
 30
0.0
 10
-3914.028070699584
 20
2777.826229180644
 30
0.0
 10
-3911.110209624636
 20
2777.480669308381
 30
0.0
 10
-3908.190995485489
 20
2777.036783229452
 30
0.0
  0
SPLINE
  5
C0
330
1F
100
AcDbEntity
  8
2D
100
AcDbSpline
210
0.0
220
0.0
230
1.0
 70
     8
 71
     3
 72
    12
 73
     8
 74
     0
 42
0.0000000001
 43
0.0000000001
 40
-36.75526508633617
 40
-36.75526508633617
 40
-36.75526508633617
 40
-36.75526508633617
 40
-32.17759969108961
 40
-27.57399104624631
 40
-18.47367585274371
 40
-9.214049930022105
 40
0.0
 40
0.0
 40
0.0
 40
0.0
 10
-3908.190995485489
 20
2777.036783229452
 30
0.0
 10
-3909.431687799053
 20
2777.925327767388
 30
0.0
 10
-3911.75258231493
 20
2779.939538198586
 30
0.0
 10
-3915.564426807625
 20
2784.727998470122
 30
0.0
 10
-3918.568906801218
 20
2791.908069939174
 30
0.0
 10
-3918.834134405912
 20
2801.254616425098
 30
0.0
 10
-3916.746402301069
 20
2807.158809197561
 30
0.0
 10
-3915.209594835251
 20
2809.817988053165
 30
0.0
  0
LINE
  5
C1
330
1F
100
AcDbEntity
  8
2D
100
AcDbLine
 10
-3915.209594835251
 20
2809.817988053165
 30
0.0
 11
-3766.130707786953
 21
3068.030194756641
 31
0.0
  0
LINE
  5
C2
330
1F
100
AcDbEntity
  8
2D
100
AcDbLine
 10
-3766.130707786953
 20
3068.030194756641
 30
0.0
 11
-3748.224930138324
 21
3099.043911393096
 31
0.0
  0
LINE
  5
C3
330
1F
100
AcDbEntity
  8
2D
100
AcDbLine
 10
-3748.224930138324
 20
3099.043911393096
 30
0.0
 11
-3698.224930138324
 21
3185.64645177154
 31
0.0
  0
LINE
  5
C4
330
1F
100
AcDbEntity
  8
2D
100
AcDbLine
 10
-3698.224930138324
 20
3185.64645177154
 30
0.0
 11
-3680.319152489694
 21
3216.660168407995
 31
0.0
  0
LINE
  5
C5
330
1F
100
AcDbEntity
  8
2D
100
AcDbLine
 10
-3680.319152489694
 20
3216.660168407995
 30
0.0
 11
-3531.240265441393
 21
3474.872375111472
 31
0.0
  0
SPLINE
  5
C6
330
1F
100
AcDbEntity
  8
2D
100
AcDbSpline
210
0.0
220
0.0
230
1.0
 70
     8
 71
     3
 72
    12
 73
     8
 74
     0
 42
0.0000000001
 43
0.0000000001
 40
0.0
 40
0.0
 40
0.0
 40
0.0
 40
9.214049930020071
 40
18.47367585274231
 40
27.57399104624544
 40
32.17759969108905
 40
36.75526508633622
 40
36.75526508633622
 40
36.75526508633622
 40
36.75526508633622
 10
-3531.240265441393
 20
3474.872375111472
 30
0.0
 10
-3529.705752732145
 20
3477.532878845399
 30
0.0
 10
-3525.63643785477
 20
3482.293004270723
 30
0.0
 10
-3517.409477357964
 20
3486.736583670233
 30
0.0
 10
-3509.68911306798
 20
3487.724663405145
 30
0.0
 10
-3503.636262581469
 20
3486.817739374961
 30
0.0
 10
-3500.731457921545
 20
3485.81489098031
 30
0.0
 10
-3499.341609622519
 20
3485.184692187448
 30
0.0
  0
SPLINE
  5
C7
330
1F
100
AcDbEntity
  8
2D
100
AcDbSpline
210
0.0
220
0.0
230
1.0
 70
     8
 71
     3
 72
    10
 73
     6
 74
     0
 42
0.0000000001
 43
0.0000000001
 40
-17.68529686001327
 40
-17.68529686001327
 40
-17.68529686001327
 40
-17.68529686001327
 40
-8.859377477557752
 40
-8.859377477557752
 40
0.0
 40
0.0
 40
0.0
 40
0.0
 10
-3499.341609622519
 20
3485.184692187448
 30
0.0
 10
-3501.186889183082
 20
3487.488830976617
 30
0.0
 10
-3502.94238464766
 20
3489.843626422902
 30
0.0
 10
-3506.13038542763
 20
3494.835441205688
 30
0.0
 10
-3507.518376010921
 20
3497.397498876643
 30
0.0
 10
-3508.588621771618
 20
3500.176519010015
 30
0.0
  0
SPLINE
  5
C8
330
1F
100
AcDbEntity
  8
2D
100
AcDbSpline
210
0.0
220
0.0
230
1.0
 70
    12
 71
     2
 72
     6
 73
     3
 74
     0
 42
0.0000000001
 43
0.0000000001
 40
-2.789018046943026
 40
-2.789018046943026
 40
-2.789018046943026
 40
0.0
 40
0.0
 40
0.0
 10
-3508.588621771618
 20
3500.176519010015
 30
0.0
 41
1.0
 10
-3509.091136645363
 20
3501.478599502301
 30
0.0000000000000001
 41
0.9990228231704327
 10
-3509.475987990144
 20
3502.820174056156
 30
0.0
 41
0.9999999995016593
  0
SPLINE
  5
C9
330
1F
100
AcDbEntity
  8
2D
100
AcDbSpline
210
0.0
220
0.0
230
1.0
 70
    12
 71
     3
 72
    13
 73
     9
 74
     0
 42
0.0000000001
 43
0.0000000001
 40
-55.13288508661716
 40
-55.13288508661716
 40
-55.13288508661716
 40
-55.13288508661716
 40
-52.91489853207548
 40
-50.69660225935334
 40
-50.69660225935334
 40
-50.69660225935334
 40
-48.47830915699376
 40
0.0
 40
0.0
 40
0.0
 40
0.0
 10
-3509.475987990147
 20
3502.820174056156
 30
0.0
 41
1.0
 10
-3509.530302074403
 20
3502.964284207088
 30
0.0
 41
1.0
 10
-3509.396262165879
 20
3503.067936175302
 30
0.0
 41
1.0
 10
-3509.273701247959
 20
3503.040399821829
 30
0.0
 41
1.0
 10
-3508.894368944177
 20
3502.832017569527
 30
0.0
 41
1.0
 10
-3508.515048812355
 20
3502.623647567361
 30
0.0
 41
1.0
 10
-3492.577715911299
 20
3493.41413693201
 30
0.0
 41
1.0
 10
-3476.807616791568
 20
3484.306963858781
 30
0.0
 41
1.0
 10
-3461.78423315797
 20
3475.632968490449
 30
0.0
 41
1.0
  0
LINE
  5
CA
330
1F
100
AcDbEntity
  8
2D
100
AcDbLine
 10
-3461.78423315797
 20
3475.632968490449
 30
0.0
 11
-3399.17805631613
 21
3439.487275019858
 31
0.0
  0
SPLINE
  5
CB
330
1F
100
AcDbEntity
  8
2D
100
AcDbSpline
210
0.0
220
0.0
230
1.0
 70
     8
 71
     3
 72
    35
 73
    31
 74
     0
 42
0.0000000001
 43
0.0000000001
 40
-46.30989822080691
 40
-46.30989822080691
 40
-46.30989822080691
 40
-46.30989822080691
 40
0.0
 40
0.0
 40
0.0
 40
7.456354539405964
 40
7.456354539405964
 40
14.83467454968684
 40
14.83467454968684
 40
22.3304000233307
 40
22.3304000233307
 40
29.8190594737807
 40
29.8190594737807
 40
45.11511060786091
 40
45.11511060786091
 40
52.91740949583865
 40
52.91740949583865
 40
60.07796615413275
 40
60.07796615413275
 40
75.08523047857119
 40
75.08523047857119
 40
90.08988469148201
 40
90.08988469148201
 40
121.8716972210309
 40
121.8716972210309
 40
151.8746429621307
 40
151.8746429621307
 40
181.9133200725772
 40
181.9133200725772
 40
241.9038487759158
 40
241.9038487759158
 40
241.9038487759158
 40
241.9038487759158
 10
-4721.429028000395
 20
4368.740602189303
 30
0.0
 10
-4705.992395266981
 20
4368.741062282453
 30
0.0
 10
-4690.555762533582
 20
4368.741522375591
 30
0.0
 10
-4675.119129800169
 20
4368.74198246874
 30
0.0
 10
-4672.924252446403
 20
4370.024405926974
 30
0.0
 10
-4671.052304504337
 20
4371.729650898229
 30
0.0
 10
-4667.798250798398
 20
4375.543302631513
 30
0.0
 10
-4666.358329583734
 20
4377.717565451867
 30
0.0
 10
-4663.839563582482
 20
4382.045272581297
 30
0.0
 10
-4662.723868075595
 20
4384.29028641928
 30
0.0
 10
-4660.687628651052
 20
4388.901378121478
 30
0.0
 10
-4659.773564181982
 20
4391.241603685752
 30
0.0
 10
-4657.180830972589
 20
4398.451320345863
 30
0.0
 10
-4655.812940418367
 20
4403.138538179738
 30
0.0
 10
-4653.79809006404
 20
4410.631357945233
 30
0.0
 10
-4653.139823461013
 20
4413.168129351841
 30
0.0
 10
-4651.867553820655
 20
4418.030503064499
 30
0.0
 10
-4651.251155318227
 20
4420.355407867276
 30
0.0
 10
-4649.338236192536
 20
4427.551712030538
 30
0.0
 10
-4648.040454571936
 20
4432.422760109552
 30
0.0
 10
-4645.450045627444
 20
4442.165320759039
 30
0.0
 10
-4644.154513675618
 20
4447.036058941988
 30
0.0
 10
-4640.103062601025
 20
4462.220515788245
 30
0.0
 10
-4637.874829559281
 20
4470.819609538566
 30
0.0
 10
-4632.75538873973
 20
4490.931680653487
 30
0.0
 10
-4630.295520702493
 20
4500.704790475781
 30
0.0
 10
-4625.347227684095
 20
4520.256181504751
 30
0.0
 10
-4622.864006968695
 20
4530.035754842525
 30
0.0
 10
-4615.398501125346
 20
4559.340390398955
 30
0.0
 10
-4610.397409234618
 20
4578.860577334774
 30
0.0
 10
-4605.382454137263
 20
4598.377247063471
 30
0.0
  0
SPLINE
  5
CC
330
1F
100
AcDbEntity
  8
2D
100
AcDbSpline
210
0.0
220
0.0
230
1.0
 70
    12
 71
     3
 72
    15
 73
    11
 74
     0
 42
0.0000000001
 43
0.0000000001
 40
-81.16521440751919
 40
-81.16521440751919
 40
-81.16521440751919
 40
-81.16521440751919
 40
-31.59386165712454
 40
-31.59386165712454
 40
-31.59386165712454
 40
-15.81621260767599
 40
-15.81621260767599
 40
-0.4191552454123489
 40
-0.4191552454123489
 40
0.0
 40
0.0
 40
0.0
 40
0.0
 10
-4605.382454137263
 20
4598.377247063471
 30
0.0
 41
1.0
 10
-4601.303121788671
 20
4614.252759528764
 30
0.0
 41
1.0
 10
-4597.214011811902
 20
4630.126170805003
 30
0.0
 41
1.0
 10
-4593.080259411505
 20
4645.992188282685
 30
0.0
 41
1.0
 10
-4591.752034840993
 20
4651.075059921283
 30
0.0
 41
1.0
 10
-4589.533187923782
 20
4655.909263803252
 30
0.0
 41
1.0
 10
-4583.576570490946
 20
4664.576133716883
 30
0.0
 41
1.0
 10
-4579.919945345642
 20
4668.370517884035
 30
0.0
 41
1.0
 10
-4575.579361062115
 20
4671.625049330264
 30
0.0
 41
1.0
 10
-4575.463946665488
 20
4671.710805748145
 30
0.0
 41
1.0
 10
-4575.348154284602
 20
4671.796066302521
 30
0.0
 41
1.0
  0
SPLINE
  5
CD
330
1F
100
AcDbEntity
  8
2D
100
AcDbSpline
210
0.0
220
0.0
230
1.0
 70
    12
 71
     3
 72
    28
 73
    24
 74
     0
 42
0.0000000001
 43
0.0000000001
 40
-643.4185693885572
 40
-643.4185693885572
 40
-643.4185693885572
 40
-643.4185693885572
 40
-627.519607984046
 40
-627.519607984046
 40
-619.0030848216479
 40
-619.0030848216479
 40
-610.1755188635362
 40
-610.1755188635362
 40
-610.1755188635362
 40
-371.6717646630304
 40
-371.6717646630304
 40
-371.6717646630304
 40
-271.740711644465
 40
-271.740711644465
 40
-271.740711644465
 40
-33.23723920877561
 40
-33.23723920877561
 40
-33.23723920877561
 40
-17.53706326701577
 40
-17.53706326701577
 40
-0.7200443612104548
 40
-0.7200443612104548
 40
0.0
 40
0.0
 40
0.0
 40
0.0
 10
-4575.348154284602
 20
4671.796066302521
 30
0.0
 41
1.0
 10
-4571.141948330351
 20
4674.893191076862
 30
0.0
 41
1.0
 10
-4566.436978704874
 20
4677.336006337343
 30
0.0
 41
1.0
 10
-4558.732867665243
 20
4679.940638286384
 30
0.0
 41
1.0
 10
-4556.013257986186
 20
4680.622265484001
 30
0.0
 41
1.0
 10
-4550.290516866957
 20
4681.574972290494
 30
0.0
 41
1.0
 10
-4547.388512926107
 20
4681.814425989563
 30
0.0
 41
1.0
 10
-4544.431239898517
 20
4681.811967803743
 30
0.0
 41
1.0
 10
-4464.875184165005
 20
4681.811337754533
 30
0.0
 41
1.0
 10
-4385.319128432213
 20
4681.811022735764
 30
0.0
 41
1.0
 10
-4305.763072695929
 20
4681.811022737052
 30
0.0
 41
1.0
 10
-4272.429739362593
 20
4681.811022737052
 30
0.0
 41
1.0
 10
-4239.096406029264
 20
4681.811022737052
 30
0.0
 41
1.0
 10
-4205.763072695929
 20
4681.811022737052
 30
0.0
 41
1.0
 10
-4126.207016959652
 20
4681.811022735753
 30
0.0
 41
1.0
 10
-4046.65096122686
 20
4681.811337754544
 30
0.0
 41
1.0
 10
-3967.094905493341
 20
4681.811967803743
 30
0.0
 41
1.0
 10
-3961.843600947392
 20
4681.815708238314
 30
0.0
 41
1.0
 10
-3956.635134746964
 20
4681.044350267554
 30
0.0
 41
1.0
 10
-3946.278583972922
 20
4677.893844260662
 30
0.0
 41
1.0
 10
-3941.244050635611
 20
4675.422541898954
 30
0.0
 41
1.0
 10
-3936.558709928755
 20
4672.074389441564
 30
0.0
 41
1.0
 10
-3936.367656941587
 20
4671.935841606922
 30
0.0
 41
1.0
 10
-3936.177896924117
 20
4671.796191975114
 30
0.0
 41
1.0
  0
SPLINE
  5
CE
330
1F
100
AcDbEntity
  8
2D
100
AcDbSpline
210
0.0
220
0.0
230
1.0
 70
    12
 71
     3
 72
    19
 73
    15
 74
     0
 42
0.0000000001
 43
0.0000000001
 40
-81.07489434217901
 40
-81.07489434217901
 40
-81.07489434217901
 40
-81.07489434217901
 40
-73.48000972008846
 40
-73.48000972008846
 40
-69.38681998382803
 40
-69.38681998382803
 40
-65.2904545605692
 40
-65.2904545605692
 40
-57.23558246889944
 40
-57.23558246889944
 40
-49.47249060968547
 40
-49.47249060968547
 40
-49.47249060968547
 40
0.0
 40
0.0
 40
0.0
 40
0.0
 10
-3936.177896924117
 20
4671.796191975114
 30
0.0
 41
1.0
 10
-3934.079600662404
 20
4670.251997869934
 30
0.0
 41
1.0
 10
-3932.13939736204
 20
4668.573085696825
 30
0.0
 41
1.0
 10
-3929.341079389746
 20
4665.732370614204
 30
0.0
 41
1.0
 10
-3928.410800658519
 20
4664.702171768563
 30
0.0
 41
1.0
 10
-3926.638608505902
 20
4662.558596291993
 30
0.0
 41
1.0
 10
-3925.805166349095
 20
4661.455117921162
 30
0.0
 41
1.0
 10
-3923.47695142731
 20
4658.069895583044
 30
0.0
 41
1.0
 10
-3922.158617860961
 20
4655.743809553943
 30
0.0
 41
1.0
 10
-3919.960766591354
 20
4650.912575031473
 30
0.0
 41
1.0
 10
-3919.102525756414
 20
4648.498405360325
 30
0.0
 41
1.0
 10
-3918.445885980353
 20
4645.992188282685
 30
0.0
 41
1.0
 10
-3914.312114273427
 20
4630.126228810804
 30
0.0
 41
1.0
 10
-3910.222965943529
 20
4614.252819448654
 30
0.0
 41
1.0
 10
-3906.14369002145
 20
4598.377311750013
 30
0.0
 41
1.0
  0
SPLINE
  5
CF
330
1F
100
AcDbEntity
  8
2D
100
AcDbSpline
210
0.0
220
0.0
230
1.0
 70
     8
 71
     3
 72
    30
 73
    26
 74
     0
 42
0.0000000001
 43
0.0000000001
 40
-241.9586725984717
 40
-241.9586725984717
 40
-241.9586725984717
 40
-241.9586725984717
 40
-182.1443743932597
 40
-182.1443743932597
 40
-152.2381255728675
 40
-152.2381255728675
 40
-122.3110393957571
 40
-122.3110393957571
 40
-89.76872041850824
 40
-89.76872041850824
 40
-59.85706847197888
 40
-59.85706847197888
 40
-52.37594405104701
 40
-52.37594405104701
 40
-44.89571419824524
 40
-44.89571419824524
 40
-29.71145999754408
 40
-29.71145999754408
 40
-22.23127155315807
 40
-22.23127155315807
 40
-14.74145697178609
 40
-14.74145697178609
 40
-7.434579888284802
 40
-7.434579888284802
 40
0.0
 40
0.0
 40
0.0
 40
0.0
 10
-3906.14369002145
 20
4598.377311750013
 30
0.0
 10
-3901.127373995027
 20
4578.855081526507
 30
0.0
 10
-3896.12460390163
 20
4559.329414877867
 30
0.0
 10
-3888.660461239011
 20
4530.030932090771
 30
0.0
 10
-3886.180285737453
 20
4520.262990244875
 30
0.0
 10
-3881.23271369627
 20
4500.716598480779
 30
0.0
 10
-3878.77215476066
 20
4490.936443342452
 30
0.0
 10
-3873.578822990392
 20
4470.535909781538
 30
0.0
 10
-3871.499391403981
 20
4462.528664163919
 30
0.0
 10
-3866.083576112924
 20
4442.191355786758
 30
0.0
 10
-3863.48947362899
 20
4432.451091799054
 30
0.0
 10
-3860.25343585169
 20
4420.272886197219
 30
0.0
 10
-3859.608954825155
 20
4417.835637682366
 30
0.0
 10
-3858.328820814448
 20
4412.959101402019
 30
0.0
 10
-3857.697571312499
 20
4410.518704247488
 30
0.0
 10
-3855.713555804374
 20
4403.143082064092
 30
0.0
 10
-3854.344137188174
 20
4398.451082493601
 30
0.0
 10
-3851.760273853262
 20
4391.255155909582
 30
0.0
 10
-3850.84239640434
 20
4388.910950547088
 30
0.0
 10
-3848.802588543345
 20
4384.289348357403
 30
0.0
 10
-3847.683922498705
 20
4382.039298218335
 30
0.0
 10
-3845.169987948633
 20
4377.720800216707
 30
0.0
 10
-3843.716373728101
 20
4375.525503938985
 30
0.0
 10
-3840.468911174426
 20
4371.726246341702
 30
0.0
 10
-3838.602904591709
 20
4370.025067330819
 30
0.0
 10
-3836.407024194603
 20
4368.742007249363
 30
0.0
  0
LINE
  5
D0
330
1F
100
AcDbEntity
  8
2D
100
AcDbLine
 10
-3836.407024194603
 20
4368.742007249363
 30
0.0
 11
-3790.09711739147
 21
4368.740602189303
 31
0.0
  0
SPLINE
  5
D1
330
1F
100
AcDbEntity
  8
2D
100
AcDbSpline
210
0.0
220
0.0
230
1.0
 70
    12
 71
     3
 72
    25
 73
    21
 74
     0
 42
0.0000000001
 43
0.0000000001
 40
-266.3611888743101
 40
-266.3611888743101
 40
-266.3611888743101
 40
-266.3611888743101
 40
-41.15102702337945
 40
-41.15102702337945
 40
-41.15102702337945
 40
-40.85478992811797
 40
-40.85478992811797
 40
-39.47638252935381
 40
-39.47638252935381
 40
-28.44912333924005
 40
-28.44912333924005
 40
-17.4218641491264
 40
-17.4218641491264
 40
-11.90823455406962
 40
-11.90823455406962
 40
-6.394604959012748
 40
-6.394604959012748
 40
-0.880975363955848
 40
-0.880975363955848
 40
0.0
 40
0.0
 40
0.0
 40
0.0
 10
-4341.574622884171
 20
4515.144106207003
 30
0.0
 41
1.0
 10
-4412.55404723973
 20
4515.116658901053
 30
0.0
 41
1.0
 10
-4483.533471595289
 20
4515.089211595102
 30
0.0
 41
1.0
 10
-4554.51289595084
 20
4515.061764289144
 30
0.0
 41
1.0
 10
-4554.641314036886
 20
4515.061402508923
 30
0.0
 41
1.0
 10
-4554.769771785181
 20
4515.060810161932
 30
0.0
 41
1.0
 10
-4555.496285770318
 20
4515.055595857702
 30
0.0
 41
1.0
 10
-4556.092568766533
 20
4515.035321957893
 30
0.0
 41
1.0
 10
-4561.464421546243
 20
4514.740454388134
 30
0.0
 41
1.0
 10
-4566.184282448328
 20
4513.580969248042
 30
0.0
 41
1.0
 10
-4574.896313327514
 20
4509.661725080891
 30
0.0
 41
1.0
 10
-4578.88606250739
 20
4506.905113152442
 30
0.0
 41
1.0
 10
-4583.964348296609
 20
4501.865842175444
 30
0.0
 41
1.0
 10
-4585.508909817541
 20
4500.038340973743
 30
0.0
 41
1.0
 10
-4588.257960608356
 20
4496.143356654712
 30
0.0
 41
1.0
 10
-4589.461678218988
 20
4494.079476054982
 30
0.0
 41
1.0
 10
-4591.502258581448
 20
4489.773328903974
 30
0.0
 41
1.0
 10
-4592.335852131324
 20
4487.535470800823
 30
0.0
 41
1.0
 10
-4593.080614025861
 20
4484.876092082893
 30
0.0
 41
1.0
 10
-4593.17612235589
 20
4484.507951632894
 30
0.0
 41
1.0
 10
-4593.269425801544
 20
4484.139311784304
 30
0.0
 41
1.0
  0
SPLINE
  5
D2
330
1F
100
AcDbEntity
  8
2D
100
AcDbSpline
210
0.0
220
0.0
230
1.0
 70
    12
 71
     3
 72
   100
 73
    96
 74
     0
 42
0.0000000001
 43
0.0000000001
 40
-1356.759381182626
 40
-1356.759381182626
 40
-1356.759381182626
 40
-1356.759381182626
 40
-1356.261749399389
 40
-1356.261749399389
 40
-1354.8827884884
 40
-1354.8827884884
 40
-1352.124866666421
 40
-1352.124866666421
 40
-1341.093179378508
 40
-1341.093179378508
 40
-1319.029804802681
 40
-1319.029804802681
 40
-1296.966430226854
 40
-1296.966430226854
 40
-1285.93474293894
 40
-1285.93474293894
 40
-1274.903055651027
 40
-1274.903055651027
 40
-1252.8396810752
 40
-1252.8396810752
 40
-1230.776306499373
 40
-1208.712931923546
 40
-1186.649557347718
 40
-1156.074412715015
 40
-1156.074412715015
 40
-1142.914782912883
 40
-1142.914782912883
 40
-1139.62487546235
 40
-1139.62487546235
 40
-1138.94200404592
 40
-1138.94200404592
 40
-1138.94200404592
 40
-1135.880051551866
 40
-1132.812840090302
 40
-1129.741714534074
 40
-1126.668031747852
 40
-1123.593156725624
 40
-1120.518458667117
 40
-1117.445307022204
 40
-1114.375067532733
 40
-1111.309098301226
 40
-1111.309098301226
 40
-1111.309098301226
 40
-1017.34314645498
 40
-1017.34314645498
 40
-1017.34314645498
 40
-1013.060991837983
 40
-1008.54407394635
 40
-1003.843130765095
 40
-999.0244250314092
 40
-994.1651480658575
 40
-989.3464409356184
 40
-984.6454952274121
 40
-980.1285741204215
 40
-975.8464160844774
 40
-975.8464160844774
 40
-975.8464160844774
 40
-660.2644258122829
 40
-660.2644258122829
 40
-660.2644258122829
 40
-622.3737982874593
 40
-622.3737982874593
 40
-622.3737982874593
 40
-516.5682078563698
 40
-516.5682078563698
 40
-516.5682078563698
 40
-478.6775803315455
 40
-478.6775803315455
 40
-478.6775803315455
 40
-163.0955900593514
 40
-163.0955900593514
 40
-163.0955900593514
 40
-158.813432023407
 40
-154.2965109164168
 40
-149.5955652082103
 40
-144.7768580779714
 40
-139.9175811124192
 40
-135.0988753787339
 40
-130.3979321974778
 40
-125.8810143058457
 40
-121.598859688849
 40
-121.598859688849
 40
-121.598859688849
 40
-27.63290784260282
 40
-27.63290784260282
 40
-27.63290784260282
 40
-24.56693861109644
 40
-21.49669912162449
 40
-18.42354747671143
 40
-15.34884941820466
 40
-12.27397439597632
 40
-9.200291609755453
 40
-6.129166053526969
 40
-3.061954591961719
 40
0.0
 40
0.0
 40
0.0
 40
0.0
 10
-4593.269425801544
 20
4484.139311784304
 30
0.0
 41
1.0
 10
-4593.322107723976
 20
4483.931009506042
 30
0.0
 41
1.0
 10
-4593.374086696127
 20
4483.722548414174
 30
0.0
 41
1.0
 10
-4593.57077156848
 20
4482.936688099994
 30
0.0
 41
1.0
 10
-4593.715941716258
 20
4482.357629926714
 30
0.0
 41
1.0
 10
-4594.150060421485
 20
4480.624839592153
 30
0.0
 41
1.0
 10
-4594.439242995311
 20
4479.470682548402
 30
0.0
 41
1.0
 10
-4595.886858476148
 20
4473.692898030272
 30
0.0
 41
1.0
 10
-4597.044427453064
 20
4469.072815009134
 30
0.0
 41
1.0
 10
-4600.518012717894
 20
4455.209126732304
 30
0.0
 41
1.0
 10
-4602.833826223196
 20
4445.966400932432
 30
0.0
 41
1.0
 10
-4607.464892488966
 20
4427.483356746335
 30
0.0
 41
1.0
 10
-4609.780485356492
 20
4418.241681446393
 30
0.0
 41
1.0
 10
-4613.25377996705
 20
4404.379934659933
 30
0.0
 41
1.0
 10
-4614.41153223845
 20
4399.759467377614
 30
0.0
 41
1.0
 10
-4616.726917881319
 20
4390.519240809123
 30
0.0
 41
1.0
 10
-4617.885187336109
 20
4385.896880470372
 30
0.0
 41
1.0
 10
-4621.358057198715
 20
4372.038085518673
 30
0.0
 41
1.0
 10
-4623.674118725987
 20
4362.796305900453
 30
0.0
 41
1.0
 10
-4628.306763394492
 20
4344.312362524483
 30
0.0
 41
1.0
 10
-4632.932180936969
 20
4325.858644814703
 30
0.0
 41
1.0
 10
-4639.906043088788
 20
4298.042300326334
 30
0.0
 41
1.0
 10
-4647.652609646651
 20
4267.147534055933
 30
0.0
 41
1.0
 10
-4653.135861456522
 20
4245.278504568264
 30
0.0
 41
1.0
 10
-4657.684299306198
 20
4227.138426669534
 30
0.0
 41
1.0
 10
-4659.053263198872
 20
4221.677749699734
 30
0.0
 41
1.0
 10
-4660.764868158843
 20
4214.853362100853
 30
0.0
 41
1.0
 10
-4661.105606534355
 20
4213.488498232832
 30
0.0
 41
1.0
 10
-4661.522161179284
 20
4211.839954659073
 30
0.0
 41
1.0
 10
-4661.593163075548
 20
4211.556526320134
 30
0.0
 41
1.0
 10
-4661.663397648557
 20
4211.272970313682
 30
0.0
 41
1.0
 10
-4661.897166280487
 20
4210.340638114484
 30
0.0
 41
1.0
 10
-4662.339616102498
 20
4208.467924265405
 30
0.0
 41
1.0
 10
-4662.926687135721
 20
4205.639966297152
 30
0.0
 41
1.0
 10
-4663.436894915907
 20
4202.793485296882
 30
0.0
 41
1.0
 10
-4663.86946131504
 20
4199.931846339033
 30
0.0
 41
1.0
 10
-4664.223799656302
 20
4197.058421668254
 30
0.0
 41
1.0
 10
-4664.499506260694
 20
4194.176624513874
 30
0.0
 41
1.0
 10
-4664.696364859356
 20
4191.289871800494
 30
0.0
 41
1.0
 10
-4664.814346150557
 20
4188.401618595332
 30
0.0
 41
1.0
 10
-4664.840542285008
 20
4186.475701972412
 30
0.0
 41
1.0
 10
-4664.840542285008
 20
4185.513464759641
 30
0.0
 41
1.0
 10
-4664.840542285016
 20
4156.022778855123
 30
0.0
 41
1.0
 10
-4664.840542285016
 20
4126.532092950604
 30
0.0
 41
1.0
 10
-4664.840542285008
 20
4097.041407046082
 30
0.0
 41
1.0
 10
-4664.840542285008
 20
4095.697476884964
 30
0.0
 41
1.0
 10
-4664.615215298127
 20
4092.930859296713
 30
0.0
 41
1.0
 10
-4663.568058008244
 20
4088.803885893473
 30
0.0
 41
1.0
 10
-4661.74721620727
 20
4084.763519370083
 30
0.0
 41
1.0
 10
-4659.166903120789
 20
4081.023952049282
 30
0.0
 41
1.0
 10
-4655.919173622122
 20
4077.788583849112
 30
0.0
 41
1.0
 10
-4652.165318747477
 20
4075.218091868522
 30
0.0
 41
1.0
 10
-4648.109515529835
 20
4073.404180539782
 30
0.0
 41
1.0
 10
-4643.966774589422
 20
4072.361008939522
 30
0.0
 41
1.0
 10
-4641.189586893346
 20
4072.136539594004
 30
0.0
 41
1.0
 10
-4639.840522060225
 20
4072.136539594004
 30
0.0
 41
1.0
 10
-4540.418557371213
 20
4072.136539594004
 30
0.0
 41
1.0
 10
-4440.996592682201
 20
4072.136539594004
 30
0.0
 41
1.0
 10
-4341.574627993188
 20
4072.136539594004
 30
0.0
 41
1.0
 10
-4329.637442894102
 20
4072.136539594004
 30
0.0
 41
1.0
 10
-4317.700257795015
 20
4072.136539594004
 30
0.0
 41
1.0
 10
-4305.763072695929
 20
4072.136539594004
 30
0.0
 41
1.0
 10
-4272.429739362593
 20
4072.136539594004
 30
0.0
 41
1.0
 10
-4239.096406029264
 20
4072.136539594004
 30
0.0
 41
1.0
 10
-4205.763072695929
 20
4072.136539594004
 30
0.0
 41
1.0
 10
-4193.825887596842
 20
4072.136539594004
 30
0.0
 41
1.0
 10
-4181.888702497756
 20
4072.136539594004
 30
0.0
 41
1.0
 10
-4169.951517398669
 20
4072.136539594004
 30
0.0
 41
1.0
 10
-4070.529552709657
 20
4072.136539594004
 30
0.0
 41
1.0
 10
-3971.107588020644
 20
4072.136539594004
 30
0.0
 41
1.0
 10
-3871.685623331632
 20
4072.136539594004
 30
0.0
 41
1.0
 10
-3870.336558498511
 20
4072.136539594004
 30
0.0
 41
1.0
 10
-3867.559370802435
 20
4072.361008939522
 30
0.0
 41
1.0
 10
-3863.416629862022
 20
4073.404180539782
 30
0.0
 41
1.0
 10
-3859.360826644381
 20
4075.218091868522
 30
0.0
 41
1.0
 10
-3855.606971769736
 20
4077.788583849112
 30
0.0
 41
1.0
 10
-3852.359242271068
 20
4081.023952049282
 30
0.0
 41
1.0
 10
-3849.778929184587
 20
4084.763519370083
 30
0.0
 41
1.0
 10
-3847.958087383613
 20
4088.803885893473
 30
0.0
 41
1.0
 10
-3846.910930093731
 20
4092.930859296713
 30
0.0
 41
1.0
 10
-3846.685603106849
 20
4095.697476884964
 30
0.0
 41
1.0
 10
-3846.685603106849
 20
4097.041407046082
 30
0.0
 41
1.0
 10
-3846.685603106856
 20
4126.532092950604
 30
0.0
 41
1.0
 10
-3846.685603106856
 20
4156.022778855123
 30
0.0
 41
1.0
 10
-3846.685603106849
 20
4185.513464759641
 30
0.0
 41
1.0
 10
-3846.685603106849
 20
4186.475701972412
 30
0.0
 41
1.0
 10
-3846.7117992413
 20
4188.401618595332
 30
0.0
 41
1.0
 10
-3846.829780532502
 20
4191.289871800494
 30
0.0
 41
1.0
 10
-3847.026639131163
 20
4194.176624513874
 30
0.0
 41
1.0
 10
-3847.302345735556
 20
4197.058421668254
 30
0.0
 41
1.0
 10
-3847.656684076817
 20
4199.931846339033
 30
0.0
 41
1.0
 10
-3848.08925047595
 20
4202.793485296882
 30
0.0
 41
1.0
 10
-3848.599458256136
 20
4205.639966297152
 30
0.0
 41
1.0
 10
-3849.18652942323
 20
4208.467924910255
 30
0.0
 41
1.0
 10
-3849.628979414261
 20
4210.340639396482
 30
0.0
 41
1.0
 10
-3849.862748223804
 20
4211.272972230053
 30
0.0
 41
1.0
  0
SPLINE
  5
D3
330
1F
100
AcDbEntity
  8
2D
100
AcDbSpline
210
0.0
220
0.0
230
1.0
 70
     8
 71
     3
 72
     8
 73
     4
 74
     0
 42
0.0000000001
 43
0.0000000001
 40
0.0
 40
0.0
 40
0.0
 40
0.0
 40
0.8765770791266564
 40
0.8765770791266564
 40
0.8765770791266564
 40
0.8765770791266564
 10
-3849.86274839062
 20
4211.272972927093
 30
0.0
 10
-3849.933028333817
 20
4211.556587286138
 30
0.0
 10
-3850.003974205207
 20
4211.840037546405
 30
0.0
 10
-3850.075584789887
 20
4212.123318854002
 30
0.0
  0
SPLINE
  5
D4
330
1F
100
AcDbEntity
  8
2D
100
AcDbSpline
210
0.0
220
0.0
230
1.0
 70
    12
 71
     3
 72
    13
 73
     9
 74
     0
 42
0.0000000001
 43
0.0000000001
 40
-88.78533498607356
 40
-88.78533498607356
 40
-88.78533498607356
 40
-88.78533498607356
 40
-84.55746189182355
 40
-84.55746189182355
 40
-67.64596951482318
 40
-67.64596951482318
 40
-28.35373005548432
 40
0.0
 40
0.0
 40
0.0
 40
0.0
 10
-3850.075584789887
 20
4212.123318854002
 30
0.0
 41
1.0
 10
-3850.42053885751
 20
4213.488498232832
 30
0.0
 41
1.0
 10
-3850.761277233014
 20
4214.853362100853
 30
0.0
 41
1.0
 10
-3852.472882192986
 20
4221.677749699734
 30
0.0
 41
1.0
 10
-3853.841846085659
 20
4227.138426669534
 30
0.0
 41
1.0
 10
-3858.390283935336
 20
4245.278504568264
 30
0.0
 41
1.0
 10
-3863.873535745766
 20
4267.147534058145
 30
0.0
 41
1.0
 10
-3869.332136216781
 20
4288.917460703174
 30
0.0
 41
1.0
 10
-3871.638429619703
 20
4298.115937933932
 30
0.0
 41
1.0
  0
SPLINE
  5
D5
330
1F
100
AcDbEntity
  8
2D
100
AcDbSpline
210
0.0
220
0.0
230
1.0
 70
     8
 71
     3
 72
     8
 73
     4
 74
     0
 42
0.0000000001
 43
0.0000000001
 40
-28.5779533945743
 40
-28.5779533945743
 40
-28.5779533945743
 40
-28.5779533945743
 40
0.0
 40
0.0
 40
0.0
 40
0.0
 10
-3871.638429619703
 20
4298.115937933932
 30
0.0
 10
-3873.955152102248
 20
4307.355915042323
 30
0.0
 10
-3876.271678390684
 20
4316.595941344334
 30
0.0
 10
-3878.588008481875
 20
4325.836016827434
 30
0.0
  0
SPLINE
  5
D6
330
1F
100
AcDbEntity
  8
2D
100
AcDbSpline
210
0.0
220
0.0
230
1.0
 70
     8
 71
     3
 72
     8
 73
     4
 74
     0
 42
0.0000000001
 43
0.0000000001
 40
-57.14782754056266
 40
-57.14782754056266
 40
-57.14782754056266
 40
-57.14782754056266
 40
0.0
 40
0.0
 40
0.0
 40
0.0
 10
-3878.588008481875
 20
4325.836016827434
 30
0.0
 10
-3883.220633969358
 20
4344.316225575735
 30
0.0
 10
-3887.852287557307
 20
4362.796677855848
 30
0.0
 10
-3892.483334770932
 20
4381.277282163733
 30
0.0
  0
SPLINE
  5
D7
330
1F
100
AcDbEntity
  8
2D
100
AcDbSpline
210
0.0
220
0.0
230
1.0
 70
     8
 71
     3
 72
     8
 73
     4
 74
     0
 42
0.0000000001
 43
0.0000000001
 40
-106.041805448317
 40
-106.041805448317
 40
-106.041805448317
 40
-106.041805448317
 40
0.0
 40
0.0
 40
0.0
 40
0.0
 10
-3892.483334770932
 20
4381.277282163733
 30
0.0
 10
-3901.074930344563
 20
4415.564508279189
 30
0.0
 10
-3909.666058619227
 20
4449.851851492316
 30
0.0
 10
-3918.256719590227
 20
4484.139311784304
 30
0.0
  0
SPLINE
  5
D8
330
1F
100
AcDbEntity
  8
2D
100
AcDbSpline
210
0.0
220
0.0
230
1.0
 70
    12
 71
     3
 72
    25
 73
    21
 74
     0
 42
0.0000000001
 43
0.0000000001
 40
-266.3563346979635
 40
-266.3563346979635
 40
-266.3563346979635
 40
-266.3563346979635
 40
-265.4753753889364
 40
-265.4753753889364
 40
-259.9618462744735
 40
-259.9618462744735
 40
-254.4483171600094
 40
-254.4483171600094
 40
-248.9347880455465
 40
-248.9347880455465
 40
-237.9077298166204
 40
-237.9077298166204
 40
-226.8806715876934
 40
-226.8806715876934
 40
-225.5022893090777
 40
-225.5022893090777
 40
-225.206057612452
 40
-225.206057612452
 40
-225.206057612452
 40
0.0
 40
0.0
 40
0.0
 40
0.0
 10
-3918.256719590227
 20
4484.139311784304
 30
0.0
 41
1.0
 10
-3918.350023035968
 20
4484.507951632894
 30
0.0
 41
1.0
 10
-3918.445531365996
 20
4484.876092082893
 30
0.0
 41
1.0
 10
-3919.190293260541
 20
4487.535470800823
 30
0.0
 41
1.0
 10
-3920.02388681041
 20
4489.773328903974
 30
0.0
 41
1.0
 10
-3922.064467172877
 20
4494.079476054982
 30
0.0
 41
1.0
 10
-3923.268184783508
 20
4496.143356654712
 30
0.0
 41
1.0
 10
-3926.017235574316
 20
4500.038340973743
 30
0.0
 41
1.0
 10
-3927.561797095248
 20
4501.865842175444
 30
0.0
 41
1.0
 10
-3932.640082884467
 20
4506.905113152442
 30
0.0
 41
1.0
 10
-3936.629832064344
 20
4509.661725080891
 30
0.0
 41
1.0
 10
-3945.341862943536
 20
4513.580969248042
 30
0.0
 41
1.0
 10
-3950.061723845622
 20
4514.740454388134
 30
0.0
 41
1.0
 10
-3955.433576625324
 20
4515.035321957893
 30
0.0
 41
1.0
 10
-3956.029859621547
 20
4515.055595857702
 30
0.0
 41
1.0
 10
-3956.756373606684
 20
4515.060810161932
 30
0.0
 41
1.0
 10
-3956.884831354979
 20
4515.061402508923
 30
0.0
 41
1.0
 10
-3957.013249441017
 20
4515.061764289144
 30
0.0
 41
1.0
 10
-4027.992673796576
 20
4515.089211595102
 30
0.0
 41
1.0
 10
-4098.972098152135
 20
4515.116658901053
 30
0.0
 41
1.0
 10
-4169.951522507694
 20
4515.144106207003
 30
0.0
 41
1.0
  0
LINE
  5
D9
330
1F
100
AcDbEntity
  8
2D
100
AcDbLine
 10
-4169.951522507694
 20
4515.144106207003
 30
0.0
 11
-4205.763072695929
 21
4515.144106207003
 31
0.0
  0
LINE
  5
DA
330
1F
100
AcDbEntity
  8
2D
100
AcDbLine
 10
-4205.763072695929
 20
4515.144106207003
 30
0.0
 11
-4305.763072695929
 21
4515.144106207003
 31
0.0
  0
LINE
  5
DB
330
1F
100
AcDbEntity
  8
2D
100
AcDbLine
 10
-4305.763072695929
 20
4515.144106207003
 30
0.0
 11
-4341.574622884171
 21
4515.144106207003
 31
0.0
  0
SPLINE
  5
DC
330
1F
100
AcDbEntity
  8
2D
100
AcDbSpline
210
0.0
220
0.0
230
1.0
 70
     8
 71
     3
 72
     8
 73
     4
 74
     0
 42
0.0000000001
 43
0.0000000001
 40
-28.57795339457077
 40
-28.57795339457077
 40
-28.57795339457077
 40
-28.57795339457077
 40
0.0
 40
0.0
 40
0.0
 40
0.0
 10
-5182.483158906889
 20
3358.313062469224
 30
0.0
 10
-5189.32685257187
 20
3351.686733391627
 30
0.0
 10
-5196.170686936832
 20
3345.060549626297
 30
0.0
 10
-5203.014661992489
 20
3338.43451118223
 30
0.0
  0
SPLINE
  5
DD
330
1F
100
AcDbEntity
  8
2D
100
AcDbSpline
210
0.0
220
0.0
230
1.0
 70
     8
 71
     3
 72
     8
 73
     4
 74
     0
 42
0.0000000001
 43
0.0000000001
 40
-57.1478275405712
 40
-57.1478275405712
 40
-57.1478275405712
 40
-57.1478275405712
 40
0.0
 40
0.0
 40
0.0
 40
0.0
 10
-5203.014661992489
 20
3338.43451118223
 30
0.0
 10
-5216.702679492017
 20
3325.182435449697
 30
0.0
 10
-5230.391393846046
 20
3311.931079640949
 30
0.0
 10
-5244.080543047148
 20
3298.680172953879
 30
0.0
  0
SPLINE
  5
DE
330
1F
100
AcDbEntity
  8
2D
100
AcDbSpline
210
0.0
220
0.0
230
1.0
 70
     8
 71
     3
 72
     8
 73
     4
 74
     0
 42
0.0000000001
 43
0.0000000001
 40
-106.0418054483251
 40
-106.0418054483251
 40
-106.0418054483251
 40
-106.0418054483251
 40
0.0
 40
0.0
 40
0.0
 40
0.0
 10
-5244.080543047148
 20
3298.680172953879
 30
0.0
 10
-5269.478354101626
 20
3274.096019870348
 30
0.0
 10
-5294.87650021513
 20
3249.512212930753
 30
0.0
 10
-5320.274981373743
 20
3224.928752148574
 30
0.0
  0
SPLINE
  5
DF
330
1F
100
AcDbEntity
  8
2D
100
AcDbSpline
210
0.0
220
0.0
230
1.0
 70
    12
 71
     3
 72
    25
 73
    21
 74
     0
 42
0.0000000001
 43
0.0000000001
 40
-266.3563346980301
 40
-266.3563346980301
 40
-266.3563346980301
 40
-266.3563346980301
 40
-265.4753753890027
 40
-265.4753753890027
 40
-259.9618462745385
 40
-259.9618462745385
 40
-254.4483171600729
 40
-254.4483171600729
 40
-248.9347880456086
 40
-248.9347880456086
 40
-237.9077298166798
 40
-237.9077298166798
 40
-226.88067158775
 40
-226.88067158775
 40
-225.5022893091339
 40
-225.5022893091339
 40
-225.2060576125082
 40
-225.2060576125082
 40
-225.2060576125082
 40
0.0
 40
0.0
 40
0.0
 40
0.0
 10
-5320.274981373743
 20
3224.928752148574
 30
0.0
 41
1.0
 10
-5320.547581124596
 20
3224.663629070005
 30
0.0
 41
1.0
 10
-5320.818645941443
 20
3224.396846204928
 30
0.0
 41
1.0
 10
-5322.749354522184
 20
3222.42217412552
 30
0.0
 41
1.0
 10
-5324.27059971464
 20
3220.581331883324
 30
0.0
 41
1.0
 10
-5326.979542358615
 20
3216.661063875463
 30
0.0
 41
1.0
 10
-5328.165056583046
 20
3214.586673545808
 30
0.0
 41
1.0
 10
-5330.163686555261
 20
3210.258433565156
 30
0.0
 41
1.0
 10
-5330.974068260915
 20
3208.007053449471
 30
0.0
 41
1.0
 10
-5332.79906204894
 20
3201.089493459831
 30
0.0
 41
1.0
 10
-5333.191483417413
 20
3196.255963351105
 30
0.0
 41
1.0
 10
-5332.229632990206
 20
3186.751501207597
 30
0.0
 41
1.0
 10
-5330.873846125793
 20
3182.084239194017
 30
0.0
 41
1.0
 10
-5328.443282542103
 20
3177.284644436521
 30
0.0
 41
1.0
 10
-5328.162698756259
 20
3176.758111264047
 30
0.0
 41
1.0
 10
-5327.803957483618
 20
3176.126324544598
 30
0.0
 41
1.0
 10
-5327.740241597014
 20
3176.014780697767
 30
0.0
 41
1.0
 10
-5327.676345864853
 20
3175.903386482838
 30
0.0
 41
1.0
 10
-5292.210403751302
 20
3114.419678191953
 30
0.0
 41
1.0
 10
-5256.744461637743
 20
3052.935969901068
 30
0.0
 41
1.0
 10
-5221.278519524185
 20
2991.452261610181
 30
0.0
 41
1.0
  0
LINE
  5
E0
330
1F
100
AcDbEntity
  8
2D
100
AcDbLine
 10
-5221.278519524185
 20
2991.452261610181
 30
0.0
 11
-5203.372744430064
 21
2960.438549398265
 31
0.0
  0
LINE
  5
E1
330
1F
100
AcDbEntity
  8
2D
100
AcDbLine
 10
-5203.372744430064
 20
2960.438549398265
 30
0.0
 11
-5153.372744430064
 21
2873.836009019822
 31
0.0
  0
LINE
  5
E2
330
1F
100
AcDbEntity
  8
2D
100
AcDbLine
 10
-5153.372744430064
 20
2873.836009019822
 30
0.0
 11
-5135.466969335943
 21
2842.822296807906
 31
0.0
  0
SPLINE
  5
E3
330
1F
100
AcDbEntity
  8
2D
100
AcDbSpline
210
0.0
220
0.0
230
1.0
 70
    12
 71
     3
 72
    25
 73
    21
 74
     0
 42
0.0000000001
 43
0.0000000001
 40
-266.3611888743003
 40
-266.3611888743003
 40
-266.3611888743003
 40
-266.3611888743003
 40
-41.15102702337794
 40
-41.15102702337794
 40
-41.15102702337794
 40
-40.85478992811647
 40
-40.85478992811647
 40
-39.47638252935236
 40
-39.47638252935236
 40
-28.449123339239
 40
-28.449123339239
 40
-17.42186414912576
 40
-17.42186414912576
 40
-11.90823455406918
 40
-11.90823455406918
 40
-6.394604959012513
 40
-6.394604959012513
 40
-0.8809753639558155
 40
-0.8809753639558155
 40
0.0
 40
0.0
 40
0.0
 40
0.0
 10
-5135.466969335943
 20
2842.822296807906
 30
0.0
 41
1.0
 10
-5099.953487093942
 20
2781.366035822972
 30
0.0
 41
1.0
 10
-5064.440004851946
 20
2719.909774838037
 30
0.0
 41
1.0
 10
-5028.926522609941
 20
2658.45351385311
 30
0.0
 41
1.0
 10
-5028.86200025606
 20
2658.342481418402
 30
0.0
 41
1.0
 10
-5028.797258394374
 20
2658.231529918562
 30
0.0
 41
1.0
 10
-5028.429485681878
 20
2657.604957503343
 30
0.0
 41
1.0
 10
-5028.113786471498
 20
2657.098698230677
 30
0.0
 41
1.0
 10
-5025.172497275482
 20
2652.593971042941
 30
0.0
 41
1.0
 10
-5021.80842323781
 20
2649.086194169452
 30
0.0
 41
1.0
 10
-5014.058242785828
 20
2643.500976193095
 30
0.0
 41
1.0
 10
-5009.676072237478
 20
2641.424058012818
 30
0.0
 41
1.0
 10
-5002.772792660235
 20
2639.545769000177
 30
0.0
 41
1.0
 10
-5000.417849433648
 20
2639.121890086192
 30
0.0
 41
1.0
 10
-4995.670168670618
 20
2638.688634424571
 30
0.0
 41
1.0
 10
-4993.280936835563
 20
2638.678124694646
 30
0.0
 41
1.0
 10
-4988.531413829121
 20
2639.064003837793
 30
0.0
 41
1.0
 10
-4986.176575086789
 20
2639.461019698749
 30
0.0
 41
1.0
 10
-4983.501104611511
 20
2640.145726337271
 30
0.0
 41
1.0
 10
-4983.134531464635
 20
2640.247083922192
 30
0.0
 41
1.0
 10
-4982.768628268084
 20
2640.350600692292
 30
0.0
 41
1.0
  0
SPLINE
  5
E4
330
1F
100
AcDbEntity
  8
2D
100
AcDbSpline
210
0.0
220
0.0
230
1.0
 70
    12
 71
     3
 72
   100
 73
    96
 74
     0
 42
0.0000000001
 43
0.0000000001
 40
-1356.759381182654
 40
-1356.759381182654
 40
-1356.759381182654
 40
-1356.759381182654
 40
-1356.261749399417
 40
-1356.261749399417
 40
-1354.882788488428
 40
-1354.882788488428
 40
-1352.124866666449
 40
-1352.124866666449
 40
-1341.093179378535
 40
-1341.093179378535
 40
-1319.029804802708
 40
-1319.029804802708
 40
-1296.96643022688
 40
-1296.96643022688
 40
-1285.934742938967
 40
-1285.934742938967
 40
-1274.903055651053
 40
-1274.903055651053
 40
-1252.839681075225
 40
-1252.839681075225
 40
-1230.776306499398
 40
-1208.71293192357
 40
-1186.649557347743
 40
-1156.074412715039
 40
-1156.074412715039
 40
-1142.914782912906
 40
-1142.914782912906
 40
-1139.624875462373
 40
-1139.624875462373
 40
-1138.942004045943
 40
-1138.942004045943
 40
-1138.942004045943
 40
-1135.88005155189
 40
-1132.812840090325
 40
-1129.741714534097
 40
-1126.668031747875
 40
-1123.593156725647
 40
-1120.51845866714
 40
-1117.445307022227
 40
-1114.375067532756
 40
-1111.309098301249
 40
-1111.309098301249
 40
-1111.309098301249
 40
-1017.343146455
 40
-1017.343146455
 40
-1017.343146455
 40
-1013.060991838003
 40
-1008.544073946371
 40
-1003.843130765115
 40
-999.0244250314297
 40
-994.1651480658778
 40
-989.3464409356386
 40
-984.6454952274322
 40
-980.1285741204415
 40
-975.8464160844974
 40
-975.8464160844974
 40
-975.8464160844974
 40
-660.2644258122963
 40
-660.2644258122963
 40
-660.2644258122963
 40
-622.373798287472
 40
-622.373798287472
 40
-622.373798287472
 40
-516.5682078563804
 40
-516.5682078563804
 40
-516.5682078563804
 40
-478.6775803315553
 40
-478.6775803315553
 40
-478.6775803315553
 40
-163.0955900593547
 40
-163.0955900593547
 40
-163.0955900593547
 40
-158.8134320234102
 40
-154.29651091642
 40
-149.5955652082134
 40
-144.7768580779744
 40
-139.917581112422
 40
-135.0988753787366
 40
-130.3979321974805
 40
-125.8810143058482
 40
-121.5988596888515
 40
-121.5988596888515
 40
-121.5988596888515
 40
-27.63290784260338
 40
-27.63290784260338
 40
-27.63290784260338
 40
-24.56693861109694
 40
-21.49669912162493
 40
-18.42354747671181
 40
-15.34884941820497
 40
-12.27397439597657
 40
-9.20029160975564
 40
-6.129166053527094
 40
-3.061954591961782
 40
0.0
 40
0.0
 40
0.0
 40
0.0
 10
-4982.768628268084
 20
2640.350600692292
 30
0.0
 41
1.0
 10
-4982.561892242225
 20
2640.409127948275
 30
0.0
 41
1.0
 10
-4982.355370154892
 20
2640.468343383864
 30
0.0
 41
1.0
 10
-4981.576452722813
 20
2640.690939444959
 30
0.0
 41
1.0
 10
-4981.002388560595
 20
2640.854747495751
 30
0.0
 41
1.0
 10
-4979.284688758813
 20
2641.345184836044
 30
0.0
 41
1.0
 10
-4978.140568152059
 20
2641.671823902658
 30
0.0
 41
1.0
 10
-4972.413052241347
 20
2643.307044380407
 30
0.0
 41
1.0
 10
-4967.833158488989
 20
2644.614601750331
 30
0.0
 41
1.0
 10
-4954.090059618691
 20
2648.538232807191
 30
0.0
 41
1.0
 10
-4944.92771752314
 20
2651.154042381112
 30
0.0
 41
1.0
 10
-4926.605398585823
 20
2656.384943441395
 30
0.0
 41
1.0
 10
-4917.444076568783
 20
2659.000418843266
 30
0.0
 41
1.0
 10
-4903.702804405602
 20
2662.923330868925
 30
0.0
 41
1.0
 10
-4899.122486226061
 20
2664.23092163176
 30
0.0
 41
1.0
 10
-4889.962522459591
 20
2666.845852129727
 30
0.0
 41
1.0
 10
-4885.380306253388
 20
2668.153941526823
 30
0.0
 41
1.0
 10
-4871.641802828075
 20
2672.075745477621
 30
0.0
 41
1.0
 10
-4862.480156138885
 20
2674.690867167386
 30
0.0
 41
1.0
 10
-4844.156269278927
 20
2679.920850885739
 30
0.0
 41
1.0
 10
-4825.862172176752
 20
2685.141980645731
 30
0.0
 41
1.0
 10
-4798.285580133499
 20
2693.010611103953
 30
0.0
 41
1.0
 10
-4767.656644420415
 20
2701.749270807936
 30
0.0
 41
1.0
 10
-4745.975883423045
 20
2707.935150189073
 30
0.0
 41
1.0
 10
-4727.991896211279
 20
2713.066126413083
 30
0.0
 41
1.0
 10
-4722.578329287233
 20
2714.610907390064
 30
0.0
 41
1.0
 10
-4715.812433781346
 20
2716.540807812926
 30
0.0
 41
1.0
 10
-4714.460057811179
 20
2716.928151657703
 30
0.0
 41
1.0
 10
-4712.824099874593
 20
2717.391676540006
 30
0.0
 41
1.0
 10
-4712.543142784787
 20
2717.471901263594
 30
0.0
 41
1.0
 10
-4712.262458793299
 20
2717.55285434237
 30
0.0
 41
1.0
 10
-4711.338151108062
 20
2717.816570868109
 30
0.0
 41
1.0
 10
-4709.495108429735
 20
2718.369755006888
 30
0.0
 41
1.0
 10
-4706.752489471783
 20
2719.275315562417
 30
0.0
 41
1.0
 10
-4704.032260724063
 20
2720.256703163703
 30
0.0
 41
1.0
 10
-4701.337725490543
 20
2721.312909152154
 30
0.0
 41
1.0
 10
-4698.672097559156
 20
2722.442755482477
 30
0.0
 41
1.0
 10
-4696.038534712712
 20
2723.644885136271
 30
0.0
 41
1.0
 10
-4693.44010422915
 20
2724.917776945567
 30
0.0
 41
1.0
 10
-4690.87981293532
 20
2726.259728752796
 30
0.0
 41
1.0
 10
-4689.198822147071
 20
2727.200000546341
 30
0.0
 41
1.0
 10
-4688.365500276348
 20
2727.681119152726
 30
0.0
 41
1.0
 10
-4662.825817108005
 20
2742.426462104982
 30
0.0
 41
1.0
 10
-4637.286133939666
 20
2757.171805057241
 30
0.0
 41
1.0
 10
-4611.746450771319
 20
2771.917148009506
 30
0.0
 41
1.0
 10
-4610.582573110882
 20
2772.589113090065
 30
0.0
 41
1.0
 10
-4608.299275490339
 20
2774.167560778988
 30
0.0
 41
1.0
 10
-4605.248790327332
 20
2777.137912295404
 30
0.0
 41
1.0
 10
-4602.660151177963
 20
2780.734990813015
 30
0.0
 41
1.0
 10
-4600.711747422229
 20
2784.839391156025
 30
0.0
 41
1.0
 10
-4599.533701119621
 20
2789.269691506577
 30
0.0
 41
1.0
 10
-4599.184517201527
 20
2793.805871180435
 30
0.0
 41
1.0
 10
-4599.641525519448
 20
2798.225255464033
 30
0.0
 41
1.0
 10
-4600.80948288332
 20
2802.334560159858
 30
0.0
 41
1.0
 10
-4602.003680575766
 20
2804.851909928497
 30
0.0
 41
1.0
 10
-4602.678212992327
 20
2806.020234345332
 30
0.0
 41
1.0
 10
-4652.389195336837
 20
2892.122181460179
 30
0.0
 41
1.0
 10
-4702.100177681343
 20
2978.224128575023
 30
0.0
 41
1.0
 10
-4751.811160025845
 20
3064.326075689864
 30
0.0
 41
1.0
 10
-4757.779752575389
 20
3074.66398123535
 30
0.0
 41
1.0
 10
-4763.748345124935
 20
3085.001886780839
 30
0.0
 41
1.0
 10
-4769.716937674475
 20
3095.339792326322
 30
0.0
 41
1.0
 10
-4786.383604341147
 20
3124.207305785805
 30
0.0
 41
1.0
 10
-4803.050271007811
 20
3153.074819245286
 30
0.0
 41
1.0
 10
-4819.716937674475
 20
3181.942332704766
 30
0.0
 41
1.0
 10
-4825.685530224022
 20
3192.280238250255
 30
0.0
 41
1.0
 10
-4831.654122773562
 20
3202.618143795738
 30
0.0
 41
1.0
 10
-4837.622715323105
 20
3212.956049341224
 30
0.0
 41
1.0
 10
-4887.333697667611
 20
3299.057996456068
 30
0.0
 41
1.0
 10
-4937.044680012121
 20
3385.159943570915
 30
0.0
 41
1.0
 10
-4986.755662356623
 20
3471.261890685756
 30
0.0
 41
1.0
 10
-4987.430194773184
 20
3472.430215102591
 30
0.0
 41
1.0
 10
-4989.013184776813
 20
3474.723095525711
 30
0.0
 41
1.0
 10
-4991.987968353355
 20
3477.789228621277
 30
0.0
 41
1.0
 10
-4995.586763253075
 20
3480.394701576135
 30
0.0
 41
1.0
 10
-4999.689802045814
 20
3482.360389269403
 30
0.0
 41
1.0
 10
-5004.115577847089
 20
3483.555321419784
 30
0.0
 41
1.0
 10
-5008.644294689304
 20
3483.920154441993
 30
0.0
 41
1.0
 10
-5013.053775639648
 20
3483.476866436215
 30
0.0
 41
1.0
 10
-5017.151418092537
 20
3482.320244549391
 30
0.0
 41
1.0
 10
-5019.660042699961
 20
3481.132074650063
 30
0.0
 41
1.0
 10
-5020.823920360399
 20
3480.460109569504
 30
0.0
 41
1.0
 10
-5046.363603528745
 20
3465.71476661724
 30
0.0
 41
1.0
 10
-5071.903286697085
 20
3450.96942366498
 30
0.0
 41
1.0
 10
-5097.442969865424
 20
3436.224080712724
 30
0.0
 41
1.0
 10
-5098.276291736151
 20
3435.742962106339
 30
0.0
 41
1.0
 10
-5099.931086389948
 20
3434.757317276963
 30
0.0
 41
1.0
 10
-5102.373396392577
 20
3433.211015879031
 30
0.0
 41
1.0
 10
-5104.774968277477
 20
3431.597154974946
 30
0.0
 41
1.0
 10
-5107.132824519529
 20
3429.917487474361
 30
0.0
 41
1.0
 10
-5109.44411410965
 20
3428.173909133905
 30
0.0
 41
1.0
 10
-5111.706082944042
 20
3426.368476164507
 30
0.0
 41
1.0
 10
-5113.916103911575
 20
3424.503382765523
 30
0.0
 41
1.0
 10
-5116.071652327828
 20
3422.580984914442
 30
0.0
 41
1.0
 10
-5117.472245651417
 20
3421.26145473919
 30
0.0
 41
1.0
 10
-5118.162785165303
 20
3420.592838594729
 30
0.0
 41
1.0
  0
SPLINE
  5
E5
330
1F
100
AcDbEntity
  8
2D
100
AcDbSpline
210
0.0
220
0.0
230
1.0
 70
     8
 71
     3
 72
     8
 73
     4
 74
     0
 42
0.0000000001
 43
0.0000000001
 40
0.0
 40
0.0
 40
0.0
 40
0.0
 40
0.8765770791283015
 40
0.8765770791283015
 40
0.8765770791283015
 40
0.8765770791283015
 10
-5118.162785685545
 20
3420.592838101739
 30
0.0
 10
-5118.373262953759
 20
3420.390166706033
 30
0.0
 10
-5118.583265144167
 20
3420.187000648984
 30
0.0
 10
-5118.792788660623
 20
3419.983343409672
 30
0.0
  0
SPLINE
  5
E6
330
1F
100
AcDbEntity
  8
2D
100
AcDbSpline
210
0.0
220
0.0
230
1.0
 70
    12
 71
     3
 72
    13
 73
     9
 74
     0
 42
0.0000000001
 43
0.0000000001
 40
-88.78533498606416
 40
-88.78533498606416
 40
-88.78533498606416
 40
-88.78533498606416
 40
-84.55746189181443
 40
-84.55746189181443
 40
-67.64596951481522
 40
-67.64596951481522
 40
-28.35373005547905
 40
0.0
 40
0.0
 40
0.0
 40
0.0
 10
-5118.792788660623
 20
3419.983343409672
 30
0.0
 41
1.0
 10
-5119.802591649601
 20
3419.002014734557
 30
0.0
 41
1.0
 10
-5120.814229244261
 20
3418.024494711313
 30
0.0
 41
1.0
 10
-5125.868519790176
 20
3413.130007535293
 30
0.0
 41
1.0
 10
-5129.913122821548
 20
3409.214111542474
 30
0.0
 41
1.0
 10
-5143.348672183638
 20
3396.205009867755
 30
0.0
 41
1.0
 10
-5159.546181372771
 20
3380.521859759639
 30
0.0
 41
1.0
 10
-5175.670190650384
 20
3364.909609760114
 30
0.0
 41
1.0
 10
-5182.483158906889
 20
3358.313062469224
 30
0.0
 41
1.0
  0
SPLINE
  5
E7
330
1F
100
AcDbEntity
  8
2D
100
AcDbSpline
210
0.0
220
0.0
230
1.0
 70
     8
 71
     3
 72
    12
 73
     8
 74
     0
 42
0.0000000001
 43
0.0000000001
 40
0.0
 40
0.0
 40
0.0
 40
0.0
 40
9.214049930020899
 40
18.47367585274134
 40
27.57399104624272
 40
32.17759969108545
 40
36.75526508633283
 40
36.75526508633283
 40
36.75526508633283
 40
36.75526508633283
 10
-4596.31655055661
 20
2809.817988053167
 30
0.0
 10
-4594.779743090792
 20
2807.158809197561
 30
0.0
 10
-4592.692010985946
 20
2801.254616425095
 30
0.0
 10
-4592.957238590643
 20
2791.908069939174
 30
0.0
 10
-4595.961718584236
 20
2784.727998470122
 30
0.0
 10
-4599.773563076935
 20
2779.939538198588
 30
0.0
 10
-4602.094457592808
 20
2777.925327767387
 30
0.0
 10
-4603.335149906376
 20
2777.036783229455
 30
0.0
  0
SPLINE
  5
E8
330
1F
100
AcDbEntity
  8
2D
100
AcDbSpline
210
0.0
220
0.0
230
1.0
 70
     8
 71
     3
 72
    10
 73
     6
 74
     0
 42
0.0000000001
 43
0.0000000001
 40
-17.68540150421425
 40
-17.68540150421425
 40
-17.68540150421425
 40
-17.68540150421425
 40
-8.859429898633387
 40
-8.859429898633387
 40
0.0
 40
0.0
 40
0.0
 40
0.0
 10
-4603.335149906376
 20
2777.036783229455
 30
0.0
 10
-4600.417067400827
 20
2777.482772811394
 30
0.0
 10
-4597.500006991337
 20
2777.825678756808
 30
0.0
 10
-4591.582968188472
 20
2778.090661028148
 30
0.0
 10
-4588.670165867818
 20
2778.011667298029
 30
0.0
 10
-4585.728340954345
 20
2777.549017248393
 30
0.0
  0
SPLINE
  5
E9
330
1F
100
AcDbEntity
  8
2D
100
AcDbSpline
210
0.0
220
0.0
230
1.0
 70
    12
 71
     2
 72
     6
 73
     3
 74
     0
 42
0.0000000001
 43
0.0000000001
 40
-2.789018046940653
 40
-2.789018046940653
 40
-2.789018046940653
 40
0.0
 40
0.0
 40
0.0
 10
-4585.728340954345
 20
2777.549017248393
 30
0.0
 41
1.0
 10
-4584.349448733371
 20
2777.333167648696
 30
0.0000000000000001
 41
0.9990228231704312
 10
-4582.99518541628
 20
2776.995671413027
 30
0.0
 41
0.9999999995016621
  0
SPLINE
  5
EA
330
1F
100
AcDbEntity
  8
2D
100
AcDbSpline
210
0.0
220
0.0
230
1.0
 70
    12
 71
     3
 72
    13
 73
     9
 74
     0
 42
0.0000000001
 43
0.0000000001
 40
-55.1328850866155
 40
-55.1328850866155
 40
-55.1328850866155
 40
-55.1328850866155
 40
-52.91489853206531
 40
-50.69660225934361
 40
-50.69660225934361
 40
-50.69660225934361
 40
-48.47830915698444
 40
0.0
 40
0.0
 40
0.0
 40
0.0
 10
-4582.995185416279
 20
2776.995671413027
 30
0.0
 41
1.0
 10
-4582.843225322504
 20
2776.970653714313
 30
0.0
 41
1.0
 10
-4582.82048003914
 20
2776.802745764306
 30
0.0
 41
1.0
 10
-4582.905607679731
 20
2776.71037307261
 30
0.0
 41
1.0
 10
-4583.275738155815
 20
2776.48605278721
 30
0.0
 41
1.0
 10
-4583.645851936988
 20
2776.261736917967
 30
0.0
 41
1.0
 10
-4599.590188554153
 20
2767.064357074759
 30
0.0
 41
1.0
 10
-4615.362281352096
 20
2757.960637153488
 30
0.0
 41
1.0
 10
-4630.385873510178
 20
2749.287002960159
 30
0.0
 41
1.0
  0
LINE
  5
EB
330
1F
100
AcDbEntity
  8
2D
100
AcDbLine
 10
-4630.385873510178
 20
2749.287002960159
 30
0.0
 11
-4692.992050714034
 21
2713.1413101166
 31
0.0
  0
SPLINE
  5
EC
330
1F
100
AcDbEntity
  8
2D
100
AcDbSpline
210
0.0
220
0.0
230
1.0
 70
     8
 71
     3
 72
     8
 73
     4
 74
     0
 42
0.0000000001
 43
0.0000000001
 40
0.0
 40
0.0
 40
0.0
 40
0.0
 40
159.3744175911043
 40
159.3744175911043
 40
159.3744175911043
 40
159.3744175911043
 10
-4692.992050714034
 20
2713.1413101166
 30
0.0
 10
-4738.999475647543
 20
2686.578895899427
 30
0.0
 10
-4785.006902065321
 20
2660.016484253103
 30
0.0
 10
-4831.014329960057
 20
2633.454075164968
 30
0.0
  0
SPLINE
  5
ED
330
1F
100
AcDbEntity
  8
2D
100
AcDbSpline
210
0.0
220
0.0
230
1.0
 70
     8
 71
     3
 72
   126
 73
   122
 74
     0
 42
0.0000000001
 43
0.0000000001
 40
-1388.624144800804
 40
-1388.624144800804
 40
-1388.624144800804
 40
-1388.624144800804
 40
-1383.00564240053
 40
-1383.00564240053
 40
-1377.316394746576
 40
-1377.316394746576
 40
-1371.536072412793
 40
-1371.536072412793
 40
-1366.079643212931
 40
-1366.079643212931
 40
-1355.164204706127
 40
-1355.164204706127
 40
-1354.627582753885
 40
-1354.627582753885
 40
-1354.007846250393
 40
-1354.007846250393
 40
-1352.740903313844
 40
-1352.740903313844
 40
-1350.155046929336
 40
-1350.155046929336
 40
-1344.950309892434
 40
-1344.950309892434
 40
-1323.106923059701
 40
-1323.106923059701
 40
-1301.403426742024
 40
-1301.403426742024
 40
-1214.588866333102
 40
-1214.588866333102
 40
-1127.771750708378
 40
-1127.771750708378
 40
-1084.363359256417
 40
-1084.363359256417
 40
-1062.659261929034
 40
-1062.659261929034
 40
-1051.817490840761
 40
-1051.817490840761
 40
-1046.381099192377
 40
-1046.381099192377
 40
-1040.974397922922
 40
-1040.974397922922
 40
-1030.12250119755
 40
-1030.12250119755
 40
-1024.706779488487
 40
-1024.706779488487
 40
-1018.569160687338
 40
-1018.569160687338
 40
-1013.143802640304
 40
-1013.143802640304
 40
-1007.708539320738
 40
-1007.708539320738
 40
-996.8772816960816
 40
-996.8772816960816
 40
-986.0340344337139
 40
-986.0340344337139
 40
-980.6022157850026
 40
-980.6022157850026
 40
-975.1752169892
 40
-975.1752169892
 40
-969.7416864394309
 40
-969.7416864394309
 40
-964.3243488127389
 40
-964.3243488127389
 40
-959.0427006455086
 40
-959.0427006455086
 40
-954.3570407524041
 40
-954.3570407524041
 40
-948.9346770290223
 40
-948.9346770290223
 40
-943.5158486952377
 40
-943.5158486952377
 40
-932.6781920363579
 40
-932.6781920363579
 40
-911.0028788510524
 40
-911.0028788510524
 40
-867.6522539601772
 40
-867.6522539601772
 40
-694.2672612208128
 40
-694.2672612208128
 40
-520.7281875639684
 40
-520.7281875639684
 40
-434.0867265866196
 40
-434.0867265866196
 40
-390.7659936728781
 40
-390.7659936728781
 40
-379.9358101334863
 40
-379.9358101334863
 40
-374.5239547397779
 40
-374.5239547397779
 40
-369.5372259123866
 40
-369.5372259123866
 40
-364.1189345066462
 40
-364.1189345066462
 40
-358.6858452864278
 40
-358.6858452864278
 40
-353.2677109418408
 40
-353.2677109418408
 40
-347.8434500876677
 40
-347.8434500876677
 40
-337.018507476426
 40
-337.018507476426
 40
-326.1749712989941
 40
-326.1749712989941
 40
-315.3281586536613
 40
-315.3281586536613
 40
-309.8965741932232
 40
-309.8965741932232
 40
-303.8317892829713
 40
-303.8317892829713
 40
-298.4007008305242
 40
-298.4007008305242
 40
-292.9712890126116
 40
-292.9712890126116
 40
-282.137090333941
 40
-282.137090333941
 40
-271.2725075328341
 40
-271.2725075328341
 40
-260.4268657143678
 40
-260.4268657143678
 40
-173.6616002455893
 40
-173.6616002455893
 40
0.0
 40
0.0
 40
0.0
 40
0.0
 10
-4831.014329960057
 20
2633.454075164968
 30
0.0
 10
-4832.626535449341
 20
2632.52326916311
 30
0.0
 10
-4834.238741118777
 20
2631.59246347329
 30
0.0
 10
-4837.483452613811
 20
2629.719132051473
 30
0.0
 10
-4839.115958482686
 20
2628.776606394427
 30
0.0
 10
-4842.407104219816
 20
2626.876467796498
 30
0.0
 10
-4844.065743900792
 20
2625.918854531243
 30
0.0
 10
-4847.2900868254
 20
2624.057292487699
 30
0.0
 10
-4848.855788039498
 20
2623.153340194144
 30
0.0
 10
-4853.553631559149
 20
2620.441055052285
 30
0.0
 10
-4856.685773108842
 20
2618.632720894779
 30
0.0
 10
-4859.971895957318
 20
2616.735485484115
 30
0.0
 10
-4860.213914327924
 20
2616.586081371951
 30
0.0
 10
-4860.566675467631
 20
2616.429227198306
 30
0.0
 10
-4860.760253859433
 20
2616.357888658861
 30
0.0
 10
-4861.350679518146
 20
2616.141016521417
 30
0.0
 10
-4861.750045451063
 20
2616.004037069659
 30
0.0
 10
-4862.9668766221
 20
2615.593287469441
 30
0.0
 10
-4863.786686798714
 20
2615.327417244835
 30
0.0
 10
-4866.259627178802
 20
2614.535014355326
 30
0.0
 10
-4867.916009025445
 20
2614.019545936813
 30
0.0
 10
-4876.532219914207
 20
2611.36584707844
 30
0.0
 10
-4883.076185927908
 20
2609.452082490298
 30
0.0
 10
-4897.003965874697
 20
2605.36883046646
 30
0.0
 10
-4903.945484983848
 20
2603.333763055999
 30
0.0
 10
-4938.653264300683
 20
2593.158371468592
 30
0.0
 10
-4966.419521600583
 20
2585.018037373351
 30
0.0
 10
-5021.95285013815
 20
2568.737118306745
 30
0.0
 10
-5049.719921375701
 20
2560.596533335014
 30
0.0
 10
-5091.370474478084
 20
2548.385669613432
 30
0.0
 10
-5105.253956616023
 20
2544.315391795137
 30
0.0
 10
-5126.079148456967
 20
2538.209984653257
 30
0.0
 10
-5133.020858107342
 20
2536.174855150162
 30
0.0
 10
-5143.430135520714
 20
2533.123124786398
 30
0.0
 10
-5146.897703460538
 20
2532.106524528872
 30
0.0
 10
-5152.104016006528
 20
2530.580174464575
 30
0.0
 10
-5153.842759764993
 20
2530.070421766344
 30
0.0
 10
-5157.310751317444
 20
2529.053700452127
 30
0.0
 10
-5159.039998903529
 20
2528.546731127026
 30
0.0
 10
-5164.240054440172
 20
2527.022217165443
 30
0.0
 10
-5167.71079151782
 20
2526.00443081411
 30
0.0
 10
-5172.913831781243
 20
2524.479411002321
 30
0.0
 10
-5174.645170089054
 20
2523.968893582393
 30
0.0
 10
-5178.34192120803
 20
2522.891010677549
 30
0.0
 10
-5179.630324563728
 20
2522.53443909543
 30
0.0
 10
-5183.419201422315
 20
2521.799391024263
 30
0.0
 10
-5185.202266635544
 20
2521.549099208802
 30
0.0
 10
-5188.815047353924
 20
2521.245370073324
 30
0.0
 10
-5190.618073269743
 20
2521.191054060813
 30
0.0
 10
-5196.046751645648
 20
2521.324281833882
 30
0.0
 10
-5199.644808608318
 20
2521.804683683294
 30
0.0
 10
-5206.670849113711
 20
2523.53491852191
 30
0.0
 10
-5210.081470400881
 20
2524.778397248347
 30
0.0
 10
-5214.954342809422
 20
2527.182302487743
 30
0.0
 10
-5216.525665084439
 20
2528.066158695147
 30
0.0
 10
-5219.584008589012
 20
2530.012882875738
 30
0.0
 10
-5221.049128760424
 20
2531.060750350946
 30
0.0
 10
-5223.879092906998
 20
2533.327714782865
 30
0.0
 10
-5225.223777175604
 20
2534.529535124988
 30
0.0
 10
-5227.789290760251
 20
2537.087492455437
 30
0.0
 10
-5228.992536604008
 20
2538.423767023675
 30
0.0
 10
-5231.234416586169
 20
2541.204928258605
 30
0.0
 10
-5232.351238993375
 20
2542.746717576938
 30
0.0
 10
-5234.141934786057
 20
2545.552937379615
 30
0.0
 10
-5235.273502374192
 20
2547.544156602447
 30
0.0
 10
-5236.958988935792
 20
2550.464930110651
 30
0.0
 10
-5237.86380464879
 20
2552.031378562641
 30
0.0
 10
-5239.672206964206
 20
2555.163623253462
 30
0.0
 10
-5240.576113255505
 20
2556.729234875269
 30
0.0
 10
-5243.287832127946
 20
2561.426069738186
 30
0.0
 10
-5245.09564470909
 20
2564.557292979294
 30
0.0
 10
-5250.51908243043
 20
2573.950962664345
 30
0.0
 10
-5254.134707570629
 20
2580.213409108288
 30
0.0
 10
-5264.981582744382
 20
2599.000748012596
 30
0.0
 10
-5272.212832777939
 20
2611.52564047296
 30
0.0
 10
-5308.366162659739
 20
2674.145044691063
 30
0.0
 10
-5337.288242507992
 20
2724.239556448796
 30
0.0
 10
-5395.158104201695
 20
2824.473097129273
 30
0.0
 10
-5424.105886047149
 20
2874.612126052018
 30
0.0
 10
-5467.506194682646
 20
2949.78366567285
 30
0.0
 10
-5481.958721472685
 20
2974.816176370942
 30
0.0
 10
-5503.637512062265
 20
3012.364943118731
 30
0.0
 10
-5510.863775861806
 20
3024.881199168429
 30
0.0
 10
-5519.896605663103
 20
3040.526519320393
 30
0.0
 10
-5521.703171664856
 20
3043.655583422658
 30
0.0
 10
-5524.412480812665
 20
3048.348244520073
 30
0.0
 10
-5525.314567798763
 20
3049.912220151518
 30
0.0
 10
-5527.050533514572
 20
3052.915781760204
 30
0.0
 10
-5528.113283860337
 20
3054.721733795598
 30
0.0
 10
-5529.700807221572
 20
3057.813638588248
 30
0.0
 10
-5530.429735886635
 20
3059.458290281449
 30
0.0
 10
-5531.722648957588
 20
3062.843944049454
 30
0.0
 10
-5532.273062134434
 20
3064.561798670133
 30
0.0
 10
-5533.191600726517
 20
3068.067413418126
 30
0.0
 10
-5533.551769286667
 20
3069.829865270121
 30
0.0
 10
-5534.085147532132
 20
3073.411249594217
 30
0.0
 10
-5534.253034436788
 20
3075.204258324164
 30
0.0
 10
-5534.466558738492
 20
3080.626484421683
 30
0.0
 10
-5534.215656214947
 20
3084.245998062833
 30
0.0
 10
-5532.938846757908
 20
3091.368456439042
 30
0.0
 10
-5531.915777178434
 20
3094.848663950696
 30
0.0
 10
-5529.133153628936
 20
3101.536069034369
 30
0.0
 10
-5527.386400673411
 20
3104.709540410652
 30
0.0
 10
-5524.26791248826
 20
3109.161588588283
 30
0.0
 10
-5523.152972988562
 20
3110.578650892133
 30
0.0
 10
-5520.625351601535
 20
3113.467251790275
 30
0.0
 10
-5519.642539702898
 20
3114.424168546919
 30
0.0
 10
-5516.873477703288
 20
3117.073170493599
 30
0.0
 10
-5515.561751219488
 20
3118.320969927449
 30
0.0
 10
-5512.942783054561
 20
3120.82046452138
 30
0.0
 10
-5511.633374130717
 20
3122.06988579574
 30
0.0
 10
-5507.711307049412
 20
3125.812714391137
 30
0.0
 10
-5505.098562262221
 20
3128.306030929824
 30
0.0
 10
-5499.865759751858
 20
3133.299671527796
 30
0.0
 10
-5497.245696340313
 20
3135.799989626256
 30
0.0
 10
-5492.010129321025
 20
3140.796258529831
 30
0.0
 10
-5489.394630105824
 20
3143.292213937857
 30
0.0
 10
-5465.8551086927
 20
3165.755845984016
 30
0.0
 10
-5444.931091872866
 20
3185.723528257816
 30
0.0
 10
-5382.127399813573
 20
3245.656703682067
 30
0.0
 10
-5340.247720464049
 20
3285.622192525579
 30
0.0
 10
-5298.36808472787
 20
3325.587727071331
 30
0.0
  0
SPLINE
  5
EE
330
1F
100
AcDbEntity
  8
2D
100
AcDbSpline
210
0.0
220
0.0
230
1.0
 70
     8
 71
     3
 72
    32
 73
    28
 74
     0
 42
0.0000000001
 43
0.0000000001
 40
-59.19604378749706
 40
-59.19604378749706
 40
-59.19604378749706
 40
-59.19604378749706
 40
-51.77054938788737
 40
-51.77054938788737
 40
-44.34255247049809
 40
-44.34255247049809
 40
-40.6605480655796
 40
-40.6605480655796
 40
-36.91659540804263
 40
-36.91659540804263
 40
-35.00487814815139
 40
-35.00487814815139
 40
-34.02356445946898
 40
-34.02356445946898
 40
-33.52544695823537
 40
-33.52544695823537
 40
-33.08012031822202
 40
-33.08012031822202
 40
-29.51742950539781
 40
-29.51742950539781
 40
-22.13530080071362
 40
-22.13530080071362
 40
-14.75841244531174
 40
-14.75841244531174
 40
-7.38321363291999
 40
-7.38321363291999
 40
0.0
 40
0.0
 40
0.0
 40
0.0
 10
-5298.36808472787
 20
3325.587727071331
 30
0.0
 10
-5296.580751748221
 20
3327.293368438162
 30
0.0
 10
-5294.78926398783
 20
3328.994596090995
 30
0.0
 10
-5291.195927599223
 20
3332.387424412116
 30
0.0
 10
-5289.394491710224
 20
3334.079300094774
 30
0.0
 10
-5286.68887047383
 20
3336.597966479112
 30
0.0
 10
-5285.790349853814
 20
3337.430675311221
 30
0.0
 10
-5283.971972748197
 20
3339.103436973984
 30
0.0
 10
-5283.052681607354
 20
3339.943932552159
 30
0.0
 10
-5281.652134582382
 20
3341.200762036137
 30
0.0
 10
-5281.17713329949
 20
3341.623679198524
 30
0.0
 10
-5280.448831379243
 20
3342.253186625502
 30
0.0
 10
-5280.200799820333
 20
3342.465294787718
 30
0.0
 10
-5279.816460378053
 20
3342.773165752993
 30
0.0
 10
-5279.68674630842
 20
3342.874221328499
 30
0.0
 10
-5279.413103148036
 20
3343.03220998539
 30
0.0
 10
-5279.283937483797
 20
3343.106784148991
 30
0.0
 10
-5278.121423971104
 20
3343.777964631746
 30
0.0
 10
-5277.08807611508
 20
3344.374570937793
 30
0.0
 10
-5273.913563848208
 20
3346.207384631025
 30
0.0
 10
-5271.772399544989
 20
3347.443592204635
 30
0.0
 10
-5267.491592867689
 20
3349.915133237694
 30
0.0
 10
-5265.351950476859
 20
3351.150466668126
 30
0.0
 10
-5261.073151408746
 20
3353.620843093464
 30
0.0
 10
-5258.933995791154
 20
3354.855887923779
 30
0.0
 10
-5254.653359776985
 20
3357.327319561568
 30
0.0
 10
-5252.511879277889
 20
3358.563706191466
 30
0.0
 10
-5250.370398561634
 20
3359.800092445235
 30
0.0
  0
SPLINE
  5
EF
330
1F
100
AcDbEntity
  8
2D
100
AcDbSpline
210
0.0
220
0.0
230
1.0
 70
     8
 71
     3
 72
     8
 73
     4
 74
     0
 42
0.0000000001
 43
0.0000000001
 40
-159.3744175909771
 40
-159.3744175909771
 40
-159.3744175909771
 40
-159.3744175909771
 40
0.0
 40
0.0
 40
0.0
 40
0.0
 10
-5250.370398561634
 20
3359.800092445235
 30
0.0
 10
-5204.362963595697
 20
3386.362489285617
 30
0.0
 10
-5158.355527115236
 20
3412.924883503035
 30
0.0
 10
-5112.348089113166
 20
3439.487275084703
 30
0.0
  0
LINE
  5
F0
330
1F
100
AcDbEntity
  8
2D
100
AcDbLine
 10
-5112.348089113166
 20
3439.487275084703
 30
0.0
 11
-5049.741912233887
 21
3475.63296849045
 31
0.0
  0
SPLINE
  5
F1
330
1F
100
AcDbEntity
  8
2D
100
AcDbSpline
210
0.0
220
0.0
230
1.0
 70
    12
 71
     3
 72
    13
 73
     9
 74
     0
 42
0.0000000001
 43
0.0000000001
 40
-55.30893238527666
 40
-55.30893238527666
 40
-55.30893238527666
 40
-55.30893238527666
 40
-6.526106783978931
 40
-4.293879475997911
 40
-4.293879475997911
 40
-4.293879475997911
 40
-2.061648977740478
 40
0.0
 40
0.0
 40
0.0
 40
0.0
 10
-5049.741912233887
 20
3475.63296849045
 30
0.0
 41
1.0
 10
-5034.718528600293
 20
3484.306963858782
 30
0.0
 41
1.0
 10
-5018.948429480562
 20
3493.41413693201
 30
0.0
 41
1.0
 10
-5003.011096579507
 20
3502.623647567361
 30
0.0
 41
1.0
 10
-5002.631776447681
 20
3502.832017569528
 30
0.0
 41
1.0
 10
-5002.252444143902
 20
3503.04039982183
 30
0.0
 41
1.0
 10
-5002.134557897094
 20
3503.066885894361
 30
0.0
 41
1.0
 10
-5002.006051614688
 20
3502.972000263141
 30
0.0
 41
1.0
 10
-5002.0403434531
 20
3502.851777663638
 30
0.0
 41
1.0
  0
SPLINE
  5
F2
330
1F
100
AcDbEntity
  8
2D
100
AcDbSpline
210
0.0
220
0.0
230
1.0
 70
    12
 71
     2
 72
     6
 73
     3
 74
     0
 42
0.0000000001
 43
0.0000000001
 40
-2.822093211671973
 40
-2.822093211671973
 40
-2.822093211671973
 40
0.0
 40
0.0
 40
0.0
 10
-5002.0403434531
 20
3502.851777663638
 30
0.0
 41
1.0
 10
-5002.429011641959
 20
3501.494051112014
 30
0.0000000000000001
 41
0.9989980003651711
 10
-5002.937523620243
 20
3500.176519010029
 30
0.0
 41
1.0
  0
SPLINE
  5
F3
330
1F
100
AcDbEntity
  8
2D
100
AcDbSpline
210
0.0
220
0.0
230
1.0
 70
     8
 71
     3
 72
    10
 73
     6
 74
     0
 42
0.0000000001
 43
0.0000000001
 40
-17.68001702862152
 40
-17.68001702862152
 40
-17.68001702862152
 40
-17.68001702862152
 40
-8.872539409184075
 40
-8.872539409184075
 40
0.0
 40
0.0
 40
0.0
 40
0.0
 10
-5002.937523620243
 20
3500.176519010029
 30
0.0
 10
-5003.99477358162
 20
3497.426233267493
 30
0.0
 10
-5005.411799734091
 20
3494.811495505352
 30
0.0
 10
-5008.582317913661
 20
3489.845024631074
 30
0.0
 10
-5010.34051207903
 20
3487.490862751578
 30
0.0
 10
-5012.184535769342
 20
3485.184692187451
 30
0.0
  0
SPLINE
  5
F4
330
1F
100
AcDbEntity
  8
2D
100
AcDbSpline
210
0.0
220
0.0
230
1.0
 70
     8
 71
     3
 72
    12
 73
     8
 74
     0
 42
0.0000000001
 43
0.0000000001
 40
-36.75526508633798
 40
-36.75526508633798
 40
-36.75526508633798
 40
-36.75526508633798
 40
-32.17759969108972
 40
-27.57399104624641
 40
-18.47367585274378
 40
-9.214049930022137
 40
0.0
 40
0.0
 40
0.0
 40
0.0
 10
-5012.184535769342
 20
3485.184692187451
 30
0.0
 10
-5010.794687470316
 20
3485.81489098031
 30
0.0
 10
-5007.889882810392
 20
3486.817739374964
 30
0.0
 10
-5001.837032323881
 20
3487.724663405146
 30
0.0
 10
-4994.116668033897
 20
3486.736583670233
 30
0.0
 10
-4985.889707537088
 20
3482.29300427072
 30
0.0
 10
-4981.820392659716
 20
3477.532878845398
 30
0.0
 10
-4980.285879950465
 20
3474.872375111472
 30
0.0
  0
LINE
  5
F5
330
1F
100
AcDbEntity
  8
2D
100
AcDbLine
 10
-4980.285879950465
 20
3474.872375111472
 30
0.0
 11
-4831.206992902164
 21
3216.660168407996
 31
0.0
  0
LINE
  5
F6
330
1F
100
AcDbEntity
  8
2D
100
AcDbLine
 10
-4831.206992902164
 20
3216.660168407996
 30
0.0
 11
-4813.301215253538
 21
3185.64645177154
 31
0.0
  0
LINE
  5
F7
330
1F
100
AcDbEntity
  8
2D
100
AcDbLine
 10
-4813.301215253538
 20
3185.64645177154
 30
0.0
 11
-4763.301215253538
 21
3099.043911393097
 31
0.0
  0
LINE
  5
F8
330
1F
100
AcDbEntity
  8
2D
100
AcDbLine
 10
-4763.301215253538
 20
3099.043911393097
 30
0.0
 11
-4745.395437604911
 21
3068.030194756642
 31
0.0
  0
LINE
  5
F9
330
1F
100
AcDbEntity
  8
2D
100
AcDbLine
 10
-4745.395437604911
 20
3068.030194756642
 30
0.0
 11
-4596.31655055661
 21
2809.817988053167
 31
0.0
  0
SPLINE
  5
FA
330
1F
100
AcDbEntity
  8
2D
100
AcDbSpline
210
0.0
220
0.0
230
1.0
 70
     8
 71
     3
 72
    35
 73
    31
 74
     0
 42
0.0000000001
 43
0.0000000001
 40
-46.30989822080648
 40
-46.30989822080648
 40
-46.30989822080648
 40
-46.30989822080648
 40
0.0
 40
0.0
 40
0.0
 40
7.456354525756439
 40
7.456354525756439
 40
14.83467453621381
 40
14.83467453621381
 40
22.33040001024156
 40
22.33040001024156
 40
29.81905946106934
 40
29.81905946106934
 40
45.11511059579846
 40
45.11511059579846
 40
52.91740948418459
 40
52.91740948418459
 40
60.07796614286758
 40
60.07796614286758
 40
75.08523046808719
 40
75.08523046808719
 40
90.08988468179544
 40
90.08988468179544
 40
121.8716972144994
 40
121.8716972144994
 40
151.8746429571704
 40
151.8746429571704
 40
181.9133200692019
 40
181.9133200692019
 40
241.9038487757669
 40
241.9038487757669
 40
241.9038487757669
 40
241.9038487757669
 10
-4818.750613095446
 20
2587.060484246681
 30
0.0
 10
-4826.469327914507
 20
2600.428770296132
 30
0.0
 10
-4834.188042733553
 20
2613.797056345577
 30
0.0
 10
-4841.906757552617
 20
2627.165342395026
 30
0.0
 10
-4844.114807518585
 20
2628.424950210103
 30
0.0
 10
-4846.527566963188
 20
2629.193482200076
 30
0.0
 10
-4851.457313093633
 20
2630.104749507193
 30
0.0
 10
-4854.060240538016
 20
2630.264626448381
 30
0.0
 10
-4859.067527852796
 20
2630.282088226937
 30
0.0
 10
-4861.569614621778
 20
2630.125801959811
 30
0.0
 10
-4866.581056887324
 20
2629.583691178551
 30
0.0
 10
-4869.064783911097
 20
2629.205181447319
 30
0.0
 10
-4876.604948297474
 20
2627.845695941855
 30
0.0
 10
-4881.348143291907
 20
2626.686714994448
 30
0.0
 10
-4888.844540731909
 20
2624.685216703383
 30
0.0
 10
-4891.370582515137
 20
2623.986906600756
 30
0.0
 10
-4896.217656493176
 20
2622.657537573457
 30
0.0
 10
-4898.539282364978
 20
2622.028901934022
 30
0.0
 10
-4905.727924146573
 20
2620.087386410626
 30
0.0
 10
-4910.595266336353
 20
2618.775774223121
 30
0.0
 10
-4920.327775828966
 20
2616.147853850496
 30
0.0
 10
-4925.193724806501
 20
2614.83444834072
 30
0.0
 10
-4940.369575715802
 20
2610.750879470237
 30
0.0
 10
-4948.930725873008
 20
2608.381039015044
 30
0.0
 10
-4968.908010791507
 20
2602.758569260362
 30
0.0
 10
-4978.601706190202
 20
2600.00232255942
 30
0.0
 10
-4998.007854009815
 20
2594.511974504241
 30
0.0
 10
-5007.718823316201
 20
2591.77272005809
 30
0.0
 10
-5036.83013507841
 20
2583.585719992302
 30
0.0
 10
-5056.235658796839
 20
2578.156699148413
 30
0.0
 10
-5075.645068127866
 20
2572.741442797215
 30
0.0
  0
SPLINE
  5
FB
330
1F
100
AcDbEntity
  8
2D
100
AcDbSpline
210
0.0
220
0.0
230
1.0
 70
    12
 71
     3
 72
    15
 73
    11
 74
     0
 42
0.0000000001
 43
0.0000000001
 40
-81.16521440756607
 40
-81.16521440756607
 40
-81.16521440756607
 40
-81.16521440756607
 40
-31.59386165714279
 40
-31.59386165714279
 40
-31.59386165714279
 40
-15.81621260768512
 40
-15.81621260768512
 40
-0.4191552454125911
 40
-0.4191552454125911
 40
0.0
 40
0.0
 40
0.0
 40
0.0
 10
-5075.645068127866
 20
2572.741442797215
 30
0.0
 41
1.0
 10
-5091.433331395205
 20
2568.33649200893
 30
0.0
 41
1.0
 10
-5107.224663793528
 20
2563.94105948956
 30
0.0
 41
1.0
 10
-5123.031914186286
 20
2559.587985342416
 30
0.0
 41
1.0
 10
-5128.097922434743
 20
2558.196825743111
 30
0.0
 41
1.0
 10
-5133.393889262206
 20
2557.701301599543
 30
0.0
 41
1.0
 10
-5143.877927495127
 20
2558.526448660185
 30
0.0
 41
1.0
 10
-5148.992273148247
 20
2559.79598684456
 30
0.0
 41
1.0
 10
-5153.981072199862
 20
2561.927777378247
 30
0.0
 41
1.0
 10
-5154.113046634597
 20
2561.984850968751
 30
0.0
 41
1.0
 10
-5154.24478063107
 20
2562.042499834974
 30
0.0
 41
1.0
  0
LINE
  5
FC
330
1F
100
AcDbEntity
  8
2D
100
AcDbLine
 10
-5154.24478063107
 20
2562.042499834974
 30
0.0
 11
-5015.678812260354
 21
2644.78453996822
 31
0.0
  0
LINE
  5
FD
330
1F
100
AcDbEntity
  8
2D
100
AcDbLine
 10
-5332.88968671679
 20
3194.195651201219
 30
0.0
 11
-5473.830018146971
 21
3115.580117216297
 31
0.0
  0
SPLINE
  5
FE
330
1F
100
AcDbEntity
  8
2D
100
AcDbSpline
210
0.0
220
0.0
230
1.0
 70
    12
 71
     3
 72
    19
 73
    15
 74
     0
 42
0.0000000001
 43
0.0000000001
 40
-81.0748943421753
 40
-81.0748943421753
 40
-81.0748943421753
 40
-81.0748943421753
 40
-73.48000972008509
 40
-73.48000972008509
 40
-69.38681998382485
 40
-69.38681998382485
 40
-65.2904545605662
 40
-65.2904545605662
 40
-57.23558246889683
 40
-57.23558246889683
 40
-49.4724906096832
 40
-49.4724906096832
 40
-49.4724906096832
 40
0.0
 40
0.0
 40
0.0
 40
0.0
 10
-5473.830018146971
 20
3115.580117216297
 30
0.0
 41
1.0
 10
-5473.541854954368
 20
3118.169392136195
 30
0.0
 41
1.0
 10
-5473.057976011911
 20
3120.689113569369
 30
0.0
 41
1.0
 10
-5471.9970035716
 20
3124.532885562555
 30
0.0
 41
1.0
 10
-5471.569964565937
 20
3125.853629999215
 30
0.0
 41
1.0
 10
-5470.599669824605
 20
3128.460181162054
 30
0.0
 41
1.0
 10
-5470.060750601344
 20
3129.733702427853
 30
0.0
 41
1.0
 10
-5468.29316951997
 20
3133.442606864647
 30
0.0
 41
1.0
 10
-5466.937886710552
 20
3135.747360238317
 30
0.0
 41
1.0
 10
-5463.852840517258
 20
3140.066372532769
 30
0.0
 41
1.0
 10
-5462.191228670465
 20
3142.01671573397
 30
0.0
 41
1.0
 10
-5460.349100901862
 20
3143.838490999991
 30
0.0
 41
1.0
 10
-5448.675662797261
 20
3155.351422047578
 30
0.0
 41
1.0
 10
-5436.973461209916
 20
3166.829433062184
 30
0.0
 41
1.0
 10
-5425.26450620596
 20
3178.299943489074
 30
0.0
 41
1.0
  0
SPLINE
  5
FF
330
1F
100
AcDbEntity
  8
2D
100
AcDbSpline
210
0.0
220
0.0
230
1.0
 70
     8
 71
     3
 72
    30
 73
    26
 74
     0
 42
0.0000000001
 43
0.0000000001
 40
-241.9586725984918
 40
-241.9586725984918
 40
-241.9586725984918
 40
-241.9586725984918
 40
-182.1443743833187
 40
-182.1443743833187
 40
-152.2381255579665
 40
-152.2381255579665
 40
-122.3110393758925
 40
-122.3110393758925
 40
-89.7687203899727
 40
-89.7687203899727
 40
-59.85706843846791
 40
-59.85706843846791
 40
-52.37594401629038
 40
-52.37594401629038
 40
-44.89571416225697
 40
-44.89571416225697
 40
-29.71145995845419
 40
-29.71145995845419
 40
-22.23127151283036
 40
-22.23127151283036
 40
-14.74145693022152
 40
-14.74145693022152
 40
-7.434579889187269
 40
-7.434579889187269
 40
0.0
 40
0.0
 40
0.0
 40
0.0
 10
-5425.26450620596
 20
3178.299943489074
 30
0.0
 10
-5410.865916907114
 20
3192.405315713156
 30
0.0
 10
-5396.457578610225
 20
3206.500675027626
 30
0.0
 10
-5374.816419555558
 20
3227.614053584472
 30
0.0
 10
-5367.597221525117
 20
3234.645919497621
 30
0.0
 10
-5353.143335725679
 20
3248.703838454385
 30
0.0
 10
-5345.903752390735
 20
3255.724822569292
 30
0.0
 10
-5330.83303796058
 20
3270.42264659386
 30
0.0
 10
-5324.938275636167
 20
3276.227109980377
 30
0.0
 10
-5310.033557581679
 20
3291.085997793979
 30
0.0
 10
-5302.89529277074
 20
3298.202688438952
 30
0.0
 10
-5293.966676235683
 20
3307.09428216261
 30
0.0
 10
-5292.178197619753
 20
3308.871043361279
 30
0.0
 10
-5288.595060323849
 20
3312.417940074974
 30
0.0
 10
-5286.797239143678
 20
3314.184816757056
 30
0.0
 10
-5281.401770718057
 20
3319.59083568043
 30
0.0
 10
-5278.023089203849
 20
3323.122786775433
 30
0.0
 10
-5273.083165645636
 20
3328.958441355529
 30
0.0
 10
-5271.511962974495
 20
3330.925449225109
 30
0.0
 10
-5268.529442002542
 20
3335.002775746412
 30
0.0
 10
-5267.140174444645
 20
3337.096594028955
 30
0.0
 10
-5264.657212751397
 20
3341.432974200775
 30
0.0
 10
-5263.482837504067
 20
3343.789489208697
 30
0.0
 10
-5261.816315191085
 20
3348.501503062571
 30
0.0
 10
-5261.276054242608
 20
3350.968101672501
 30
0.0
 10
-5261.262831816046
 20
3353.511319920673
 30
0.0
  0
LINE
  5
100
330
1F
100
AcDbEntity
  8
2D
100
AcDbLine
 10
-5261.262831816046
 20
3353.511319920673
 30
0.0
 11
-5284.416568399905
 21
3393.617578189104
 31
0.0
  0
SPLINE
  5
101
330
1F
100
AcDbEntity
  8
2D
100
AcDbSpline
210
0.0
220
0.0
230
1.0
 70
    12
 71
     3
 72
    28
 73
    24
 74
     0
 42
0.0000000001
 43
0.0000000001
 40
-643.4185693885485
 40
-643.4185693885485
 40
-643.4185693885485
 40
-643.4185693885485
 40
-627.5196079840375
 40
-627.5196079840375
 40
-619.0030848216395
 40
-619.0030848216395
 40
-610.1755188635279
 40
-610.1755188635279
 40
-610.1755188635279
 40
-371.6717646630254
 40
-371.6717646630254
 40
-371.6717646630254
 40
-271.7407116444613
 40
-271.7407116444613
 40
-271.7407116444613
 40
-33.23723920877516
 40
-33.23723920877516
 40
-33.23723920877516
 40
-17.53706326701553
 40
-17.53706326701553
 40
-0.7200443612104449
 40
-0.7200443612104449
 40
0.0
 40
0.0
 40
0.0
 40
0.0
 10
-5154.24478063107
 20
2562.042499834974
 30
0.0
 41
1.0
 10
-5159.030072341466
 20
2564.136618657736
 30
0.0
 41
1.0
 10
-5163.498097226533
 20
2566.989834247192
 30
0.0
 41
1.0
 10
-5169.605830181728
 20
2572.359474146568
 30
0.0
 41
1.0
 10
-5171.5559414903
 20
2574.373911618198
 30
0.0
 41
1.0
 10
-5175.242380346699
 20
2578.853597403489
 30
0.0
 41
1.0
 10
-5176.900755303544
 20
2581.247079688613
 30
0.0
 41
1.0
 10
-5178.377262965976
 20
2583.809382349339
 30
0.0
 41
1.0
 10
-5218.154745194111
 20
2652.707262664059
 30
0.0
 41
1.0
 10
-5257.932500246246
 20
2721.604985462929
 30
0.0
 41
1.0
 10
-5297.710528115505
 20
2790.502550754798
 30
0.0
 41
1.0
 10
-5314.37719478217
 20
2819.370064214282
 30
0.0
 41
1.0
 10
-5331.043861448838
 20
2848.237577673762
 30
0.0
 41
1.0
 10
-5347.710528115505
 20
2877.105091133242
 30
0.0
 41
1.0
 10
-5387.48855598252
 20
2946.002656426401
 30
0.0
 41
1.0
 10
-5427.266856663187
 20
3014.90006420649
 30
0.0
 41
1.0
 10
-5467.04543016856
 20
3083.797314472009
 30
0.0
 41
1.0
 10
-5469.674321752897
 20
3088.343207394525
 30
0.0
 41
1.0
 10
-5471.61053925502
 20
3093.23955042423
 30
0.0
 41
1.0
 10
-5474.060396405297
 20
3103.78383949358
 30
0.0
 41
1.0
 10
-5474.437452448281
 20
3109.379524440742
 30
0.0
 41
1.0
 10
-5473.880537717869
 20
3115.111224746963
 30
0.0
 41
1.0
 10
-5473.856078267014
 20
3115.34595540464
 30
0.0
 41
1.0
 10
-5473.830018146971
 20
3115.580117216297
 30
0.0
 41
1.0
  0
LINE
  5
102
330
1F
100
AcDbEntity
  8
2D
100
AcDbLine
 10
-3497.486875985149
 20
3484.249332873215
 30
0.0
 11
-3491.581398374812
 21
3480.953760688512
 31
0.0
  0
LINE
  5
103
330
1F
100
AcDbEntity
  8
2D
100
AcDbLine
 10
-4664.72978044979
 20
4089.271115312523
 30
0.0
 11
-4664.828470023003
 21
4096.033195036903
 31
0.0
  0
LINE
  5
104
330
1F
100
AcDbEntity
  8
2D
100
AcDbLine
 10
-5019.944747017038
 20
3480.953760688493
 30
0.0
 11
-5014.039269406723
 21
3484.249332873213
 31
0.0
  0
LINE
  5
105
330
1F
100
AcDbEntity
  8
2D
100
AcDbLine
 10
-3900.646795701872
 20
2772.431708899695
 30
0.0
 11
-3906.453583739003
 21
2775.898216439346
 31
0.0
  0
LINE
  5
106
330
1F
100
AcDbEntity
  8
2D
100
AcDbLine
 10
-4605.072561652854
 20
2775.898216439354
 30
0.0
 11
-4610.879349689978
 21
2772.431708899676
 31
0.0
  0
LINE
  5
107
330
1F
100
AcDbEntity
  8
2D
100
AcDbLine
 10
-3846.697675368883
 20
4096.033195036903
 30
0.0
 11
-3846.796364942067
 21
4089.271115312535
 31
0.0
  0
LINE
  5
108
330
1F
100
AcDbEntity
  8
2D
100
AcDbLine
 10
-3938.565013076182
 20
4510.430517546315
 30
0.0
 11
-3936.177896924117
 21
4671.796191975114
 31
0.0
  0
LINE
  5
109
330
1F
100
AcDbEntity
  8
2D
100
AcDbLine
 10
-4572.97442975362
 20
4510.423397526866
 30
0.0
 11
-4575.348154284602
 21
4671.796066302521
 31
0.0
  0
SPLINE
  5
10A
330
1F
100
AcDbEntity
  8
2D
100
AcDbSpline
210
0.0
220
0.0
230
1.0
 70
    15
 71
     2
 72
    20
 73
    17
 74
     0
 42
0.0000000001
 43
0.0000000001
 40
-76.3151631802765
 40
-76.3151631802765
 40
-76.3151631802765
 40
-0.0000000007997899
 40
-0.0000000007997899
 40
261.3867767284929
 40
261.3867767284929
 40
337.7019399078656
 40
337.7019399078656
 40
599.0887166358214
 40
599.0887166358214
 40
675.4038798166283
 40
675.4038798166283
 40
936.790656544377
 40
936.790656544377
 40
1013.105819724647
 40
1013.105819724647
 40
1274.49259645192
 40
1274.49259645192
 40
1274.49259645192
 10
-4565.693470184834
 20
2171.977169021463
 30
0.0
 41
0.9999999999956766
 10
-4532.701759366882
 20
2142.45032106874
 30
0.0
 41
0.8053864672095639
 10
-4494.701683869109
 20
2165.172160670324
 30
0.0
 41
1.0
 10
-4381.648047152311
 20
2232.771673731332
 30
0.0
 41
0.9886318222813665
 10
-4293.803023211429
 20
2330.92497581435
 30
0.0
 41
1.0
 10
-4264.276175258471
 20
2363.916686632141
 30
0.0
 41
0.805386467207564
 10
-4286.998014860295
 20
2401.916762129838
 30
0.0
 41
1.0
 10
-4354.59752792097
 20
2514.970398846029
 30
0.0
 41
0.9886318222814827
 10
-4452.75083000337
 20
2602.815422786586
 30
0.0
 41
1.0
 10
-4485.742540822142
 20
2632.34227073968
 30
0.0
 41
0.8053864672076977
 10
-4523.742616320265
 20
2609.620431136976
 30
0.0
 41
1.0
 10
-4636.796253036413
 20
2542.020918076405
 30
0.0
 41
0.9886318222813681
 10
-4724.64127697681
 20
2443.867615993993
 30
0.0
 41
1.0
 10
-4754.168124929914
 20
2410.875905175618
 30
0.0
 41
0.8053864672073179
 10
-4731.446285327525
 20
2372.87582967764
 30
0.0
 41
1.0
 10
-4663.846772266996
 20
2259.822192961765
 30
0.0
 41
0.9886318222814838
 10
-4565.693470184833
 20
2171.977169021463
 30
0.0
 41
1.0
  0
LINE
  5
10B
330
1F
100
AcDbEntity
  8
2D
100
AcDbLine
 10
-3178.63597607382
 20
3194.210727130006
 30
0.0
 11
-3037.696283172121
 21
3115.580098487595
 31
0.0
  0
SPLINE
  5
10C
330
1F
100
AcDbEntity
  8
2D
100
AcDbSpline
210
0.0
220
0.0
230
1.0
 70
    12
 71
     3
 72
    28
 73
    24
 74
     0
 42
0.0000000001
 43
0.0000000001
 40
-643.418569388524
 40
-643.418569388524
 40
-643.418569388524
 40
-643.418569388524
 40
-627.5196079840138
 40
-627.5196079840138
 40
-619.0030848216161
 40
-619.0030848216161
 40
-610.1755188635047
 40
-610.1755188635047
 40
-610.1755188635047
 40
-371.6717646630112
 40
-371.6717646630112
 40
-371.6717646630112
 40
-271.7407116444509
 40
-271.7407116444509
 40
-271.7407116444509
 40
-33.23723920877389
 40
-33.23723920877389
 40
-33.23723920877389
 40
-17.53706326701487
 40
-17.53706326701487
 40
-0.7200443612104176
 40
-0.7200443612104176
 40
0.0
 40
0.0
 40
0.0
 40
0.0
 10
-3037.696283172121
 20
3115.580098487595
 30
0.0
 41
1.0
 10
-3037.117197415977
 20
3110.388854890494
 30
0.0
 41
1.0
 10
-3037.354142156386
 20
3105.092824040556
 30
0.0
 41
1.0
 10
-3038.950520240822
 20
3097.118552192139
 30
0.0
 41
1.0
 10
-3039.720018611304
 20
3094.422487522892
 30
0.0
 41
1.0
 10
-3041.756320874138
 20
3088.990094931108
 30
0.0
 41
1.0
 10
-3042.999949858138
 20
3086.357158946916
 30
0.0
 41
1.0
 10
-3044.480715223301
 20
3083.797314472009
 30
0.0
 41
1.0
 10
-3084.259288728677
 20
3014.900064206498
 30
0.0
 41
1.0
 10
-3124.03758940933
 20
2946.002656426398
 30
0.0
 41
1.0
 10
-3163.815617276359
 20
2877.105091133241
 30
0.0
 41
1.0
 10
-3180.482283943024
 20
2848.237577673758
 30
0.0
 41
1.0
 10
-3197.148950609691
 20
2819.370064214278
 30
0.0
 41
1.0
 10
-3213.815617276359
 20
2790.502550754798
 30
0.0
 41
1.0
 10
-3253.593645145622
 20
2721.604985462937
 30
0.0
 41
1.0
 10
-3293.371400197739
 20
2652.707262664057
 30
0.0
 41
1.0
 10
-3333.148882425889
 20
2583.809382349339
 30
0.0
 41
1.0
 10
-3335.771295387505
 20
2579.259748992253
 30
0.0
 41
1.0
 10
-3339.043544085809
 20
2575.134763933307
 30
0.0
 41
1.0
 10
-3346.950237709574
 20
2567.740980870849
 30
0.0
 41
1.0
 10
-3351.607715003898
 20
2564.616598285395
 30
0.0
 41
1.0
 10
-3356.84997044117
 20
2562.233050436564
 30
0.0
 41
1.0
 10
-3357.065482879196
 20
2562.136867613529
 30
0.0
 41
1.0
 10
-3357.281303016705
 20
2562.042355433681
 30
0.0
 41
1.0
  0
SPLINE
  5
10D
330
1F
100
AcDbEntity
  8
2D
100
AcDbSpline
210
0.0
220
0.0
230
1.0
 70
    12
 71
     3
 72
    13
 73
     9
 74
     0
 42
0.0000000001
 43
0.0000000001
 40
-55.13288508661725
 40
-55.13288508661725
 40
-55.13288508661725
 40
-55.13288508661725
 40
-52.91489853205444
 40
-50.6966022593332
 40
-50.6966022593332
 40
-50.6966022593332
 40
-48.47830915697449
 40
0.0
 40
0.0
 40
0.0
 40
0.0
 10
-4674.818044681368
 20
4069.602819155908
 30
0.0
 41
1.0
 10
-4674.915690690887
 20
4069.483726703689
 30
0.0
 41
1.0
 10
-4675.072475882775
 20
4069.547982685483
 30
0.0
 41
1.0
 10
-4675.109909160103
 20
4069.667891730652
 30
0.0
 41
1.0
 10
-4675.119110987802
 20
4070.100594268354
 30
0.0
 41
1.0
 10
-4675.128317338447
 20
4070.533280139763
 30
0.0
 41
1.0
 10
-4675.121313622341
 20
4088.940170618323
 30
0.0
 41
1.0
 10
-4675.11931994413
 20
4107.151063612821
 30
0.0
 41
1.0
 10
-4675.119111419644
 20
4124.498693174482
 30
0.0
 41
1.0
  0
LINE
  5
10E
330
1F
100
AcDbEntity
  8
2D
100
AcDbLine
 10
-4675.119111419644
 20
4124.498693174482
 30
0.0
 11
-4675.119111057626
 21
4196.790079488633
 31
0.0
  0
SPLINE
  5
10F
330
1F
100
AcDbEntity
  8
2D
100
AcDbSpline
210
0.0
220
0.0
230
1.0
 70
     8
 71
     3
 72
     8
 73
     4
 74
     0
 42
0.0000000001
 43
0.0000000001
 40
0.0
 40
0.0
 40
0.0
 40
0.0
 40
159.3744175909677
 40
159.3744175909677
 40
159.3744175909677
 40
159.3744175909677
 10
-4675.119111057626
 20
4196.790079488633
 30
0.0
 10
-4675.119124088793
 20
4249.914885352295
 30
0.0
 10
-4675.119134151399
 20
4303.039691216087
 30
0.0
 10
-4675.119141260067
 20
4356.164497079734
 30
0.0
  0
SPLINE
  5
110
330
1F
100
AcDbEntity
  8
2D
100
AcDbSpline
210
0.0
220
0.0
230
1.0
 70
     8
 71
     3
 72
   126
 73
   122
 74
     0
 42
0.0000000001
 43
0.0000000001
 40
-1388.624144800322
 40
-1388.624144800322
 40
-1388.624144800322
 40
-1388.624144800322
 40
-1383.005642401261
 40
-1383.005642401261
 40
-1377.316394748546
 40
-1377.316394748546
 40
-1371.536072416039
 40
-1371.536072416039
 40
-1366.079643217351
 40
-1366.079643217351
 40
-1355.164204712896
 40
-1355.164204712896
 40
-1354.627582760521
 40
-1354.627582760521
 40
-1354.007846257191
 40
-1354.007846257191
 40
-1352.740903320922
 40
-1352.740903320922
 40
-1350.155046936953
 40
-1350.155046936953
 40
-1344.950309901148
 40
-1344.950309901148
 40
-1323.106923069005
 40
-1323.106923069005
 40
-1301.403426755842
 40
-1301.403426755842
 40
-1214.588866364996
 40
-1214.588866364996
 40
-1127.77175075821
 40
-1127.77175075821
 40
-1084.363359315225
 40
-1084.363359315225
 40
-1062.659261992321
 40
-1062.659261992321
 40
-1051.817490906352
 40
-1051.817490906352
 40
-1046.381099259095
 40
-1046.381099259095
 40
-1040.974397990755
 40
-1040.974397990755
 40
-1030.122501267629
 40
-1030.122501267629
 40
-1024.706779559689
 40
-1024.706779559689
 40
-1018.569160759786
 40
-1018.569160759786
 40
-1013.143802713867
 40
-1013.143802713867
 40
-1007.708539395423
 40
-1007.708539395423
 40
-996.8772817615277
 40
-996.8772817615277
 40
-986.0340344751922
 40
-986.0340344751922
 40
-980.6022158275812
 40
-980.6022158275812
 40
-975.1752170328784
 40
-975.1752170328784
 40
-969.7416864842023
 40
-969.7416864842023
 40
-964.3243488585845
 40
-964.3243488585845
 40
-959.0427006229432
 40
-959.0427006229432
 40
-954.3570402619703
 40
-954.3570402619703
 40
-948.9346765395976
 40
-948.9346765395976
 40
-943.5158482068881
 40
-943.5158482068881
 40
-932.678191550171
 40
-932.678191550171
 40
-911.0028783691849
 40
-911.0028783691849
 40
-867.6522534869206
 40
-867.6522534869206
 40
-694.2672607819367
 40
-694.2672607819367
 40
-520.7281871594593
 40
-520.7281871594593
 40
-434.0867261993108
 40
-434.0867261993108
 40
-390.7659932941926
 40
-390.7659932941926
 40
-379.9358097569586
 40
-379.9358097569586
 40
-374.5239543643326
 40
-374.5239543643326
 40
-369.5372257735999
 40
-369.5372257735999
 40
-364.1189343689551
 40
-364.1189343689551
 40
-358.6858451498175
 40
-358.6858451498175
 40
-353.2677108063239
 40
-353.2677108063239
 40
-347.8434499532283
 40
-347.8434499532283
 40
-337.0185073440815
 40
-337.0185073440815
 40
-326.1749711573157
 40
-326.1749711573157
 40
-315.3281585140664
 40
-315.3281585140664
 40
-309.8965740547125
 40
-309.8965740547125
 40
-303.8317892220967
 40
-303.8317892220967
 40
-298.4007007707297
 40
-298.4007007707297
 40
-292.9712889539012
 40
-292.9712889539012
 40
-282.1370902774071
 40
-282.1370902774071
 40
-271.2725074784527
 40
-271.2725074784527
 40
-260.4268656621589
 40
-260.4268656621589
 40
-173.661600210776
 40
-173.661600210776
 40
0.0
 40
0.0
 40
0.0
 40
0.0
 10
-4675.119141260067
 20
4356.164497079734
 30
0.0
 10
-4675.119140159019
 20
4358.0261109905
 30
0.0
 10
-4675.119138697672
 20
4359.887724901264
 30
0.0
 10
-4675.119135551166
 20
4363.63439319482
 30
0.0
 10
-4675.119133779466
 20
4365.519447577612
 30
0.0
 10
-4675.119129207404
 20
4369.319732692473
 30
0.0
 10
-4675.119126781581
 20
4371.23496342454
 30
0.0
 10
-4675.119115339803
 20
4374.958107329523
 30
0.0
 10
-4675.11911038273
 20
4376.766020502444
 30
0.0
 10
-4675.119096458064
 20
4382.190614904395
 30
0.0
 10
-4675.119089002157
 20
4385.807296133428
 30
0.0
 10
-4675.119081640511
 20
4389.601779705579
 30
0.0
 10
-4675.12746021177
 20
4389.886075818642
 30
0.0
 10
-4675.086919340982
 20
4390.270003013993
 30
0.0
 10
-4675.051911132512
 20
4390.473316088625
 30
0.0
 10
-4674.944515083564
 20
4391.093075776826
 30
0.0
 10
-4674.863459802116
 20
4391.507426546012
 30
0.0
 10
-4674.610763805005
 20
4392.766608052353
 30
0.0
 10
-4674.431109085301
 20
4393.609519603882
 30
0.0
 10
-4673.880879927601
 20
4396.14735023983
 30
0.0
 10
-4673.499097749576
 20
4397.839553206644
 30
0.0
 10
-4671.489162930196
 20
4406.628260151116
 30
0.0
 10
-4669.874548674197
 20
4413.252383251981
 30
0.0
 10
-4666.446858683197
 20
4427.355820517403
 30
0.0
 10
-4664.7385192045
 20
4434.384886112002
 30
0.0
 10
-4656.19677715424
 20
4469.530400502982
 30
0.0
 10
-4649.363384626067
 20
4497.646851740295
 30
0.0
 10
-4635.69640986593
 20
4553.880584543806
 30
0.0
 10
-4628.862827634333
 20
4581.997866110087
 30
0.0
 10
-4618.612469268181
 20
4624.173735039223
 30
0.0
 10
-4615.195692190311
 20
4638.232322172817
 30
0.0
 10
-4610.070533955153
 20
4659.320170916703
 30
0.0
 10
-4608.362152979633
 20
4666.349432571172
 30
0.0
 10
-4605.800390293472
 20
4676.889996428056
 30
0.0
 10
-4604.947007972074
 20
4680.401298482032
 30
0.0
 10
-4603.665709629851
 20
4685.673272439034
 30
0.0
 10
-4603.237796536927
 20
4687.433945053651
 30
0.0
 10
-4602.384307247376
 20
4690.94567449529
 30
0.0
 10
-4601.958731768809
 20
4692.69673149683
 30
0.0
 10
-4600.678971819649
 20
4697.962368673445
 30
0.0
 10
-4599.825032116711
 20
4701.47700832821
 30
0.0
 10
-4598.544217883275
 20
4706.745483279136
 30
0.0
 10
-4598.120669784112
 20
4708.500124946214
 30
0.0
 10
-4597.205768202526
 20
4712.240546779143
 30
0.0
 10
-4596.870366573072
 20
4713.534622606548
 30
0.0
 10
-4595.612498446433
 20
4717.183410253491
 30
0.0
 10
-4594.937724910375
 20
4718.852735932487
 30
0.0
 10
-4593.394371698399
 20
4722.133360380656
 30
0.0
 10
-4592.53989778717
 20
4723.721984633697
 30
0.0
 10
-4589.710179961294
 20
4728.35674413295
 30
0.0
 10
-4587.495111279008
 20
4731.232551936168
 30
0.0
 10
-4582.483663692885
 20
4736.452164091636
 30
0.0
 10
-4579.70146889647
 20
4738.784109394664
 30
0.0
 10
-4575.183189679341
 20
4741.802188075052
 30
0.0
 10
-4573.632086612932
 20
4742.721064979057
 30
0.0
 10
-4570.417002266106
 20
4744.39630605725
 30
0.0
 10
-4568.776962327072
 20
4745.141203607687
 30
0.0
 10
-4565.398731466277
 20
4746.458542234479
 30
0.0
 10
-4563.685582384918
 20
4747.022162800114
 30
0.0
 10
-4560.187569562633
 20
4747.964984072965
 30
0.0
 10
-4558.428698918229
 20
4748.338888256556
 30
0.0
 10
-4554.899202622764
 20
4748.889832659473
 30
0.0
 10
-4553.005562748294
 20
4749.086134571869
 30
0.0
 10
-4549.679957034645
 20
4749.233812725444
 30
0.0
 10
-4547.389727121968
 20
4749.218169384527
 30
0.0
 10
-4544.017519627942
 20
4749.217456810493
 30
0.0
 10
-4542.208527618277
 20
4749.217825977695
 30
0.0
 10
-4538.591722987429
 20
4749.217825977695
 30
0.0
 10
-4536.783910404836
 20
4749.217825977695
 30
0.0
 10
-4531.360472659951
 20
4749.217825977695
 30
0.0
 10
-4527.744847497659
 20
4749.217825977692
 30
0.0
 10
-4516.89797205498
 20
4749.217825977689
 30
0.0
 10
-4509.666721774585
 20
4749.217825977687
 30
0.0
 10
-4487.972971427069
 20
4749.217825977682
 30
0.0
 10
-4473.510471359943
 20
4749.217825977678
 30
0.0
 10
-4401.203811596279
 20
4749.217825977665
 30
0.0
 10
-4343.359651899744
 20
4749.217825977662
 30
0.0
 10
-4227.619928512246
 20
4749.217825977666
 30
0.0
 10
-4169.724364821286
 20
4749.217825977673
 30
0.0
 10
-4082.923747550241
 20
4749.217825977684
 30
0.0
 10
-4054.018693970156
 20
4749.217825977686
 30
0.0
 10
-4010.661112790993
 20
4749.217825977691
 30
0.0
 10
-3996.208585191915
 20
4749.217825977693
 30
0.0
 10
-3978.142925589327
 20
4749.217825977695
 30
0.0
 10
-3974.529793585822
 20
4749.217825977695
 30
0.0
 10
-3969.111175290207
 20
4749.217825977695
 30
0.0
 10
-3967.305689169432
 20
4749.217068408349
 30
0.0
 10
-3963.836545735197
 20
4749.218678013951
 30
0.0
 10
-3961.741170064393
 20
4749.236070789741
 30
0.0
 10
-3958.269740365882
 20
4749.06495395723
 30
0.0
 10
-3956.480965886665
 20
4748.873898852114
 30
0.0
 10
-3952.90244717968
 20
4748.300767532443
 30
0.0
 10
-3951.139534849743
 20
4747.918512015831
 30
0.0
 10
-3947.644314126064
 20
4746.961182396933
 30
0.0
 10
-3945.937901769212
 20
4746.391871593678
 30
0.0
 10
-3942.569642841099
 20
4745.063098542034
 30
0.0
 10
-3940.932908279425
 20
4744.311988501455
 30
0.0
 10
-3936.130360583036
 20
4741.785792922292
 30
0.0
 10
-3933.121221082267
 20
4739.758748142467
 30
0.0
 10
-3927.59139591665
 20
4735.091769526286
 30
0.0
 10
-3925.088982596106
 20
4732.465661530323
 30
0.0
 10
-3920.688831680658
 20
4726.71213630238
 30
0.0
 10
-3918.813901328387
 20
4723.61266818066
 30
0.0
 10
-3916.517558600255
 20
4718.68595410208
 30
0.0
 10
-3915.847816396221
 20
4717.011857019739
 30
0.0
 10
-3914.610025338781
 20
4713.37857226251
 30
0.0
 10
-3914.27271705326
 20
4712.048973763916
 30
0.0
 10
-3913.363145078605
 20
4708.326394779012
 30
0.0
 10
-3912.938382311961
 20
4706.566506604299
 30
0.0
 10
-3912.083240579457
 20
4703.048666344806
 30
0.0
 10
-3911.655914477771
 20
4701.289974315632
 30
0.0
 10
-3910.3755633728
 20
4696.021950290175
 30
0.0
 10
-3909.52266030421
 20
4692.512588661522
 30
0.0
 10
-3907.814441944174
 20
4685.484028455569
 30
0.0
 10
-3906.959134659141
 20
4681.964827932408
 30
0.0
 10
-3905.250022374141
 20
4674.932559438696
 30
0.0
 10
-3904.396211191684
 20
4671.419492970737
 30
0.0
 10
-3896.711895884997
 20
4639.801853410971
 30
0.0
 10
-3889.881384191111
 20
4611.697282158883
 30
0.0
 10
-3869.379577773896
 20
4527.341101671956
 30
0.0
 10
-3855.708288835514
 20
4471.089491031164
 30
0.0
 10
-3842.036938511152
 20
4414.837895309523
 30
0.0
  0
SPLINE
  5
111
330
1F
100
AcDbEntity
  8
2D
100
AcDbSpline
210
0.0
220
0.0
230
1.0
 70
     8
 71
     3
 72
    32
 73
    28
 74
     0
 42
0.0000000001
 43
0.0000000001
 40
-59.19604378748529
 40
-59.19604378748529
 40
-59.19604378748529
 40
-59.19604378748529
 40
-51.77054938781092
 40
-51.77054938781092
 40
-44.34255247036232
 40
-44.34255247036232
 40
-40.66054806541256
 40
-40.66054806541256
 40
-36.91659540784176
 40
-36.91659540784176
 40
-35.00487814792498
 40
-35.00487814792498
 40
-34.02356445924106
 40
-34.02356445924106
 40
-33.52544695801411
 40
-33.52544695801411
 40
-33.08012031800135
 40
-33.08012031800135
 40
-29.51742950518856
 40
-29.51742950518856
 40
-22.13530080055976
 40
-22.13530080055976
 40
-14.75841244520455
 40
-14.75841244520455
 40
-7.38321363286985
 40
-7.38321363286985
 40
0.0
 40
0.0
 40
0.0
 40
0.0
 10
-3842.036938511152
 20
4414.837895309523
 30
0.0
 10
-3841.453476247552
 20
4412.43719886071
 30
0.0
 10
-3840.875913762768
 20
4410.03511112323
 30
0.0
 10
-3839.734306440321
 20
4405.226776365793
 30
0.0
 10
-3839.169817063579
 20
4402.820749281305
 30
0.0
 10
-3838.341398609304
 20
4399.218279365398
 30
0.0
 10
-3838.069511916747
 20
4398.023783266586
 30
0.0
 10
-3837.530046375119
 20
4395.612641668084
 30
0.0
 10
-3837.261801423039
 20
4394.396264397558
 30
0.0
 10
-3836.873628674217
 20
4392.554940352738
 30
0.0
 10
-3836.744872309326
 20
4391.932118593732
 30
0.0
 10
-3836.563853845822
 20
4390.986636915683
 30
0.0
 10
-3836.504178568444
 20
4390.66578120362
 30
0.0
 10
-3836.429724212565
 20
4390.178998000294
 30
0.0
 10
-3836.407064551793
 20
4390.016134533011
 30
0.0
 10
-3836.40706394161
 20
4389.7001582761
 30
0.0
 10
-3836.407063653594
 20
4389.551010447773
 30
0.0
 10
-3836.407061061349
 20
4388.208653972157
 30
0.0
 10
-3836.407058772267
 20
4387.015445324867
 30
0.0
 10
-3836.407051686958
 20
4383.34983021051
 30
0.0
 10
-3836.40704667546
 20
4380.877423743443
 30
0.0
 10
-3836.40703269298
 20
4375.93436589568
 30
0.0
 10
-3836.407023755546
 20
4373.463714514989
 30
0.0
 10
-3836.40701454828
 20
4368.522977611646
 30
0.0
 10
-3836.407012159252
 20
4366.052892089007
 30
0.0
 10
-3836.407007584279
 20
4361.11003673749
 30
0.0
 10
-3836.407005603454
 20
4358.637266908612
 30
0.0
 10
-3836.407004056917
 20
4356.164497079734
 30
0.0
  0
SPLINE
  5
112
330
1F
100
AcDbEntity
  8
2D
100
AcDbSpline
210
0.0
220
0.0
230
1.0
 70
     8
 71
     3
 72
     8
 73
     4
 74
     0
 42
0.0000000001
 43
0.0000000001
 40
-159.3744175909659
 40
-159.3744175909659
 40
-159.3744175909659
 40
-159.3744175909659
 40
0.0
 40
0.0
 40
0.0
 40
0.0
 10
-3836.407004056917
 20
4356.164497079734
 30
0.0
 10
-3836.407011090712
 20
4303.039691216087
 30
0.0
 10
-3836.407021153318
 20
4249.914885352293
 30
0.0
 10
-3836.407034259359
 20
4196.790079488633
 30
0.0
  0
LINE
  5
113
330
1F
100
AcDbEntity
  8
2D
100
AcDbLine
 10
-3836.407034259359
 20
4196.790079488633
 30
0.0
 11
-3836.40703397222
 21
4124.498693174482
 31
0.0
  0
SPLINE
  5
114
330
1F
100
AcDbEntity
  8
2D
100
AcDbSpline
210
0.0
220
0.0
230
1.0
 70
    12
 71
     3
 72
    13
 73
     9
 74
     0
 42
0.0000000001
 43
0.0000000001
 40
-55.30893238526563
 40
-55.30893238526563
 40
-55.30893238526563
 40
-55.30893238526563
 40
-6.52610678397763
 40
-4.293879475997056
 40
-4.293879475997056
 40
-4.293879475997056
 40
-2.061648977740067
 40
0.0
 40
0.0
 40
0.0
 40
0.0
 10
-3836.40703397222
 20
4124.498693174482
 30
0.0
 41
1.0
 10
-3836.406825447735
 20
4107.151063612821
 30
0.0
 41
1.0
 10
-3836.404831769523
 20
4088.940170618323
 30
0.0
 41
1.0
 10
-3836.39782805341
 20
4070.533280139763
 30
0.0
 41
1.0
 10
-3836.407034404063
 20
4070.100594268354
 30
0.0
 41
1.0
 10
-3836.416236231762
 20
4069.667891730652
 30
0.0
 41
1.0
 10
-3836.452241743504
 20
4069.552556209895
 30
0.0
 41
1.0
 10
-3836.598668251801
 20
4069.488709320393
 30
0.0
 41
1.0
 10
-3836.685638157873
 20
4069.578518223353
 30
0.0
 41
1.0
  0
SPLINE
  5
115
330
1F
100
AcDbEntity
  8
2D
100
AcDbSpline
210
0.0
220
0.0
230
1.0
 70
    12
 71
     2
 72
     6
 73
     3
 74
     0
 42
0.0000000001
 43
0.0000000001
 40
-2.822093211670821
 40
-2.822093211670821
 40
-2.822093211670821
 40
0.0
 40
0.0
 40
0.0
 10
-3836.685638157873
 20
4069.578518223353
 30
0.0
 41
1.0
 10
-3837.66712974854
 20
4070.593978024363
 30
0.0000000000000001
 41
0.9989980003651711
 10
-3838.55389003002
 20
4071.693128366674
 30
0.0
 41
1.0
  0
SPLINE
  5
116
330
1F
100
AcDbEntity
  8
2D
100
AcDbSpline
210
0.0
220
0.0
230
1.0
 70
     8
 71
     3
 72
    10
 73
     6
 74
     0
 42
0.0000000001
 43
0.0000000001
 40
-17.68001702862333
 40
-17.68001702862333
 40
-17.68001702862333
 40
-17.68001702862333
 40
-8.872539394243036
 40
-8.872539394243036
 40
0.0
 40
0.0
 40
0.0
 40
0.0
 10
-3838.55389003002
 20
4071.693128366674
 30
0.0
 10
-3840.407082376303
 20
4073.98387657039
 30
0.0
 10
-3841.962998615472
 20
4076.518426080786
 30
0.0
 10
-3844.678829474557
 20
4081.747410813387
 30
0.0
 10
-3845.83849638412
 20
4084.447132565135
 30
0.0
 10
-3846.913686832959
 20
4087.197189208188
 30
0.0
  0
SPLINE
  5
117
330
1F
100
AcDbEntity
  8
2D
100
AcDbSpline
210
0.0
220
0.0
230
1.0
 70
     8
 71
     3
 72
    12
 73
     8
 74
     0
 42
0.0000000001
 43
0.0000000001
 40
-36.75526508633324
 40
-36.75526508633324
 40
-36.75526508633324
 40
-36.75526508633324
 40
-32.17759969108663
 40
-27.57399104624376
 40
-18.47367585274201
 40
-9.21404993002125
 40
0.0
 40
0.0
 40
0.0
 40
0.0
 10
-3846.913686832959
 20
4087.197189208188
 30
0.0
 10
-3847.062842818425
 20
4085.678445877393
 30
0.0
 10
-3847.646752962468
 20
4082.661387051542
 30
0.0
 10
-3849.887758956287
 20
4076.966002749824
 30
0.0
 10
-3854.603643252678
 20
4070.774011015684
 30
0.0
 10
-3862.565376144794
 20
4065.871043929273
 30
0.0
 10
-3868.722423127005
 20
4064.726976582132
 30
0.0
 10
-3871.793743302074
 20
4064.728301460454
 30
0.0
  0
LINE
  5
118
330
1F
100
AcDbEntity
  8
2D
100
AcDbLine
 10
-3871.793743302074
 20
4064.728301460454
 30
0.0
 11
-4169.951517398677
 21
4064.728301460454
 31
0.0
  0
LINE
  5
119
330
1F
100
AcDbEntity
  8
2D
100
AcDbLine
 10
-4169.951517398677
 20
4064.728301460454
 30
0.0
 11
-4205.763072695929
 21
4064.728301460454
 31
0.0
  0
LINE
  5
11A
330
1F
100
AcDbEntity
  8
2D
100
AcDbLine
 10
-4205.763072695929
 20
4064.728301460454
 30
0.0
 11
-4305.763072695929
 21
4064.728301460454
 31
0.0
  0
LINE
  5
11B
330
1F
100
AcDbEntity
  8
2D
100
AcDbLine
 10
-4305.763072695929
 20
4064.728301460454
 30
0.0
 11
-4341.574627993188
 21
4064.728301460454
 31
0.0
  0
LINE
  5
11C
330
1F
100
AcDbEntity
  8
2D
100
AcDbLine
 10
-4341.574627993188
 20
4064.728301460454
 30
0.0
 11
-4639.732402089783
 21
4064.728301460454
 31
0.0
  0
SPLINE
  5
11D
330
1F
100
AcDbEntity
  8
2D
100
AcDbSpline
210
0.0
220
0.0
230
1.0
 70
     8
 71
     3
 72
    12
 73
     8
 74
     0
 42
0.0000000001
 43
0.0000000001
 40
0.0
 40
0.0
 40
0.0
 40
0.0
 40
9.214049930022277
 40
18.47367585274411
 40
27.57399104624685
 40
32.17759969109026
 40
36.75526508633649
 40
36.75526508633649
 40
36.75526508633649
 40
36.75526508633649
 10
-4639.732402089783
 20
4064.728301460454
 30
0.0
 10
-4642.803722264853
 20
4064.726976582132
 30
0.0
 10
-4648.960769247071
 20
4065.871043929273
 30
0.0
 10
-4656.922502139187
 20
4070.774011015684
 30
0.0
 10
-4661.638386435578
 20
4076.966002749824
 30
0.0
 10
-4663.87939242939
 20
4082.661387051542
 30
0.0
 10
-4664.46330257344
 20
4085.678445877393
 30
0.0
 10
-4664.612458558899
 20
4087.197189208188
 30
0.0
  0
SPLINE
  5
11E
330
1F
100
AcDbEntity
  8
2D
100
AcDbSpline
210
0.0
220
0.0
230
1.0
 70
     8
 71
     3
 72
    10
 73
     6
 74
     0
 42
0.0000000001
 43
0.0000000001
 40
-17.68540150421683
 40
-17.68540150421683
 40
-17.68540150421683
 40
-17.68540150421683
 40
-8.859429898648392
 40
-8.859429898648392
 40
0.0
 40
0.0
 40
0.0
 40
0.0
 10
-4664.612458558899
 20
4087.197189208188
 30
0.0
 10
-4665.685261503888
 20
4084.447060837078
 30
0.0
 10
-4666.846826448804
 20
4081.749359445384
 30
0.0
 10
-4669.575864471684
 20
4076.492562391244
 30
0.0
 10
-4671.100676209044
 20
4074.009498450423
 30
0.0
 10
-4672.97225536183
 20
4071.693128366683
 30
0.0
  0
SPLINE
  5
11F
330
1F
100
AcDbEntity
  8
2D
100
AcDbSpline
210
0.0
220
0.0
230
1.0
 70
    12
 71
     2
 72
     6
 73
     3
 74
     0
 42
0.0000000001
 43
0.0000000001
 40
-2.789018046943812
 40
-2.789018046943812
 40
-2.789018046943812
 40
0.0
 40
0.0
 40
0.0
 10
-4672.97225536183
 20
4071.693128366683
 30
0.0
 41
1.0
 10
-4673.848632709045
 20
4070.606897474092
 30
0.0000000000000001
 41
0.9990228231704319
 10
-4674.818044681368
 20
4069.602819155908
 30
0.0
 41
0.9999999995016607
  0
ENDSEC
  0
SECTION
  2
OBJECTS
  0
DICTIONARY
  5
C
330
0
100
AcDbDictionary
281
     1
  3
ACAD_GROUP
350
D
  3
ACAD_LAYOUT
350
1A
  3
ACAD_MLEADERSTYLE
350
121
  3
ACAD_MLINESTYLE
350
17
  3
ACAD_PLOTSETTINGS
350
19
  3
ACAD_PLOTSTYLENAME
350
E
  3
ACAD_TABLESTYLE
350
120
  3
ACAD_VISUALSTYLE
350
2A
  0
DICTIONARY
  5
D
102
{ACAD_REACTORS
330
C
102
}
330
C
100
AcDbDictionary
281
     1
  0
DICTIONARY
  5
1A
102
{ACAD_REACTORS
330
C
102
}
330
C
100
AcDbDictionary
281
     1
  3
Layout1
350
1E
  3
Layout2
350
26
  3
Model
350
22
  0
DICTIONARY
  5
121
102
{ACAD_REACTORS
330
C
102
}
330
C
100
AcDbDictionary
281
     1
  0
DICTIONARY
  5
17
102
{ACAD_REACTORS
330
C
102
}
330
C
100
AcDbDictionary
281
     1
  3
Standard
350
18
  0
DICTIONARY
  5
19
102
{ACAD_REACTORS
330
C
102
}
330
C
100
AcDbDictionary
281
     1
  0
ACDBDICTIONARYWDFLT
  5
E
102
{ACAD_REACTORS
330
C
102
}
330
C
100
AcDbDictionary
281
     1
  3
Normal
350
F
100
AcDbDictionaryWithDefault
340
F
  0
DICTIONARY
  5
120
102
{ACAD_REACTORS
330
C
102
}
330
C
100
AcDbDictionary
281
     1
  0
DICTIONARY
  5
2A
102
{ACAD_REACTORS
330
C
102
}
330
C
100
AcDbDictionary
281
     1
  3
2dWireframe
350
2F
  3
3D Hidden
350
31
  3
3dWireframe
350
30
  3
Basic
350
32
  3
Brighten
350
36
  3
ColorChange
350
3A
  3
Conceptual
350
34
  3
Dim
350
35
  3
Facepattern
350
39
  3
Flat
350
2B
  3
FlatWithEdges
350
2C
  3
Gouraud
350
2D
  3
GouraudWithEdges
350
2E
  3
Linepattern
350
38
  3
Realistic
350
33
  3
Thicken
350
37
  0
LAYOUT
  5
1E
102
{ACAD_REACTORS
330
1A
102
}
330
1A
100
AcDbPlotSettings
  1

  2
none_device
  4

  6

 40
0.0
 41
0.0
 42
0.0
 43
0.0
 44
0.0
 45
0.0
 46
0.0
 47
0.0
 48
0.0
 49
0.0
140
0.0
141
0.0
142
1.0
143
1.0
 70
   688
 72
     0
 73
     0
 74
     5
  7

 75
    16
 76
     0
 77
     2
 78
   300
147
1.0
148
0.0
149
0.0
100
AcDbLayout
  1
Layout1
 70
     1
 71
     1
 10
0.0
 20
0.0
 11
12.0
 21
9.0
 12
0.0
 22
0.0
 32
0.0
 14
1.000000000000000E+20
 24
1.000000000000000E+20
 34
1.000000000000000E+20
 15
-1.000000000000000E+20
 25
-1.000000000000000E+20
 35
-1.000000000000000E+20
146
0.0
 13
0.0
 23
0.0
 33
0.0
 16
1.0
 26
0.0
 36
0.0
 17
0.0
 27
1.0
 37
0.0
 76
     0
330
1B
  0
LAYOUT
  5
26
102
{ACAD_REACTORS
330
1A
102
}
330
1A
100
AcDbPlotSettings
  1

  2
none_device
  4

  6

 40
0.0
 41
0.0
 42
0.0
 43
0.0
 44
0.0
 45
0.0
 46
0.0
 47
0.0
 48
0.0
 49
0.0
140
0.0
141
0.0
142
1.0
143
1.0
 70
   688
 72
     0
 73
     0
 74
     5
  7

 75
    16
 76
     0
 77
     2
 78
   300
147
1.0
148
0.0
149
0.0
100
AcDbLayout
  1
Layout2
 70
     1
 71
     2
 10
0.0
 20
0.0
 11
0.0
 21
0.0
 12
0.0
 22
0.0
 32
0.0
 14
0.0
 24
0.0
 34
0.0
 15
0.0
 25
0.0
 35
0.0
146
0.0
 13
0.0
 23
0.0
 33
0.0
 16
1.0
 26
0.0
 36
0.0
 17
0.0
 27
1.0
 37
0.0
 76
     0
330
23
  0
LAYOUT
  5
22
102
{ACAD_REACTORS
330
1A
102
}
330
1A
100
AcDbPlotSettings
  1

  2
none_device
  4

  6

 40
0.0
 41
0.0
 42
0.0
 43
0.0
 44
0.0
 45
0.0
 46
0.0
 47
0.0
 48
0.0
 49
0.0
140
0.0
141
0.0
142
1.0
143
1.0
 70
  1712
 72
     0
 73
     0
 74
     0
  7

 75
     0
 76
     0
 77
     2
 78
   300
147
1.0
148
0.0
149
0.0
100
AcDbLayout
  1
Model
 70
     1
 71
     0
 10
0.0
 20
0.0
 11
12.0
 21
9.0
 12
0.0
 22
0.0
 32
0.0
 14
-5579.346594867203
 24
2156.786028948067
 34
-0.0000000000000057
 15
-2932.17955052466
 25
4794.217806385873
 35
0.0000000000000022
146
0.0
 13
0.0
 23
0.0
 33
0.0
 16
1.0
 26
0.0
 36
0.0
 17
0.0
 27
1.0
 37
0.0
 76
     0
330
1F
331
29
  0
MLINESTYLE
  5
18
102
{ACAD_REACTORS
330
17
102
}
330
17
100
AcDbMlineStyle
  2
Standard
 70
     0
  3

 62
   256
 51
90.0
 52
90.0
 71
     2
 49
0.5
 62
   256
  6
BYLAYER
 49
-0.5
 62
   256
  6
BYLAYER
  0
ACDBPLACEHOLDER
  5
F
102
{ACAD_REACTORS
330
E
102
}
330
E
  0
VISUALSTYLE
  5
2F
102
{ACAD_REACTORS
330
2A
102
}
330
2A
100
AcDbVisualStyle
  2
2dWireframe
 70
     4
 71
     0
 72
     2
 73
     0
 90
        0
 40
-0.6
 41
-30.0
 62
     5
 63
     7
421
 16777215
 74
     1
 91
        4
 64
     7
 65
   257
 75
     1
175
     1
 42
1.0
 92
        0
 66
   257
 43
1.0
 76
     1
 77
     6
 78
     2
 67
     7
 79
     5
170
     0
171
     0
290
     0
174
     0
 93
        1
 44
0.0
173
     0
291
     0
 45
0.0
1001
ACAD
1000
AcDbSavedByObjectVersion
1070
     0
  0
VISUALSTYLE
  5
31
102
{ACAD_REACTORS
330
2A
102
}
330
2A
100
AcDbVisualStyle
  2
3D Hidden
 70
     6
 71
     1
 72
     2
 73
     2
 90
        0
 40
-0.6
 41
-30.0
 62
     5
 63
     7
421
 16777215
 74
     2
 91
        2
 64
     7
 65
   257
 75
     2
175
     1
 42
40.0
 92
        0
 66
   257
 43
1.0
 76
     1
 77
     6
 78
     2
 67
     7
 79
     3
170
     0
171
     0
290
     0
174
     0
 93
        1
 44
0.0
173
     0
291
     0
 45
0.0
1001
ACAD
1000
AcDbSavedByObjectVersion
1070
     0
  0
VISUALSTYLE
  5
30
102
{ACAD_REACTORS
330
2A
102
}
330
2A
100
AcDbVisualStyle
  2
3dWireframe
 70
     5
 71
     0
 72
     2
 73
     0
 90
        0
 40
-0.6
 41
-30.0
 62
     5
 63
     7
421
 16777215
 74
     1
 91
        4
 64
     7
 65
   257
 75
     1
175
     1
 42
1.0
 92
        0
 66
   257
 43
1.0
 76
     1
 77
     6
 78
     2
 67
     7
 79
     5
170
     0
171
     0
290
     0
174
     0
 93
        1
 44
0.0
173
     0
291
     0
 45
0.0
1001
ACAD
1000
AcDbSavedByObjectVersion
1070
     0
  0
VISUALSTYLE
  5
32
102
{ACAD_REACTORS
330
2A
102
}
330
2A
100
AcDbVisualStyle
  2
Basic
 70
     7
 71
     1
 72
     0
 73
     1
 90
        0
 40
-0.6
 41
-30.0
 62
     5
 63
     7
421
 16777215
 74
     0
 91
        4
 64
     7
 65
   257
 75
     1
175
     1
 42
1.0
 92
        8
 66
     7
 43
1.0
 76
     1
 77
     6
 78
     2
 67
     7
 79
     5
170
     0
171
     0
290
     0
174
     0
 93
        1
 44
0.0
173
     0
291
     1
 45
0.0
1001
ACAD
1000
AcDbSavedByObjectVersion
1070
     0
  0
VISUALSTYLE
  5
36
102
{ACAD_REACTORS
330
2A
102
}
330
2A
100
AcDbVisualStyle
  2
Brighten
 70
    12
 71
     2
 72
     2
 73
     0
 90
        0
 40
-0.6
 41
-30.0
 62
     5
 63
     7
421
 16777215
 74
     1
 91
        4
 64
     7
 65
   257
 75
     1
175
     1
 42
1.0
 92
        8
 66
     7
 43
1.0
 76
     1
 77
     6
 78
     2
 67
     7
 79
     5
170
     0
171
     0
290
     0
174
     0
 93
        1
 44
50.0
173
     0
291
     1
 45
0.0
1001
ACAD
1000
AcDbSavedByObjectVersion
1070
     0
  0
VISUALSTYLE
  5
3A
102
{ACAD_REACTORS
330
2A
102
}
330
2A
100
AcDbVisualStyle
  2
ColorChange
 70
    16
 71
     2
 72
     2
 73
     3
 90
        0
 40
-0.6
 41
-30.0
 62
     5
 63
     8
421
  8421504
 74
     1
 91
        4
 64
     7
 65
   257
 75
     1
175
     1
 42
1.0
 92
        8
 66
     8
424
  8421504
 43
1.0
 76
     1
 77
     6
 78
     2
 67
     7
 79
     5
170
     0
171
     0
290
     0
174
     0
 93
        1
 44
0.0
173
     0
291
     1
 45
0.0
1001
ACAD
1000
AcDbSavedByObjectVersion
1070
     0
  0
VISUALSTYLE
  5
34
102
{ACAD_REACTORS
330
2A
102
}
330
2A
100
AcDbVisualStyle
  2
Conceptual
 70
     9
 71
     3
 72
     2
 73
     0
 90
        0
 40
-0.6
 41
-30.0
 62
     5
 63
     7
421
 16777215
 74
     2
 91
        2
 64
     7
 65
   257
 75
     1
175
     1
 42
40.0
 92
        8
 66
     7
 43
1.0
 76
     1
 77
     6
 78
     2
 67
     7
 79
     3
170
     0
171
     0
290
     0
174
     0
 93
        1
 44
0.0
173
     0
291
     0
 45
0.0
1001
ACAD
1000
AcDbSavedByObjectVersion
1070
     0
  0
VISUALSTYLE
  5
35
102
{ACAD_REACTORS
330
2A
102
}
330
2A
100
AcDbVisualStyle
  2
Dim
 70
    11
 71
     2
 72
     2
 73
     0
 90
        0
 40
-0.6
 41
-30.0
 62
     5
 63
     7
421
 16777215
 74
     1
 91
        4
 64
     7
 65
   257
 75
     1
175
     1
 42
1.0
 92
        8
 66
     7
 43
1.0
 76
     1
 77
     6
 78
     2
 67
     7
 79
     5
170
     0
171
     0
290
     0
174
     0
 93
        1
 44
-50.0
173
     0
291
     1
 45
0.0
1001
ACAD
1000
AcDbSavedByObjectVersion
1070
     0
  0
VISUALSTYLE
  5
39
102
{ACAD_REACTORS
330
2A
102
}
330
2A
100
AcDbVisualStyle
  2
Facepattern
 70
    15
 71
     2
 72
     2
 73
     0
 90
        0
 40
-0.6
 41
-30.0
 62
     5
 63
     7
421
 16777215
 74
     1
 91
        4
 64
     7
 65
   257
 75
     1
175
     1
 42
1.0
 92
        8
 66
     7
 43
1.0
 76
     1
 77
     6
 78
     2
 67
     7
 79
     5
170
     0
171
     0
290
     0
174
     0
 93
        1
 44
0.0
173
     0
291
     1
 45
0.0
1001
ACAD
1000
AcDbSavedByObjectVersion
1070
     0
  0
VISUALSTYLE
  5
2B
102
{ACAD_REACTORS
330
2A
102
}
330
2A
100
AcDbVisualStyle
  2
Flat
 70
     0
 71
     2
 72
     1
 73
     1
 90
        2
 40
-0.6
 41
30.0
 62
     5
 63
     7
421
 16777215
 74
     0
 91
        4
 64
     7
 65
   257
 75
     1
175
     1
 42
1.0
 92
        8
 66
     7
 43
1.0
 76
     1
 77
     6
 78
     2
 67
     7
 79
     5
170
     0
171
     0
290
     0
174
     0
 93
       13
 44
0.0
173
     0
291
     1
 45
0.0
1001
ACAD
1000
AcDbSavedByObjectVersion
1070
     0
  0
VISUALSTYLE
  5
2C
102
{ACAD_REACTORS
330
2A
102
}
330
2A
100
AcDbVisualStyle
  2
FlatWithEdges
 70
     1
 71
     2
 72
     1
 73
     1
 90
        2
 40
-0.6
 41
30.0
 62
     5
 63
     7
421
 16777215
 74
     1
 91
        4
 64
     7
 65
   257
 75
     1
175
     1
 42
1.0
 92
        0
 66
   257
 43
1.0
 76
     1
 77
     6
 78
     2
 67
     7
 79
     5
170
     0
171
     0
290
     0
174
     0
 93
       13
 44
0.0
173
     0
291
     1
 45
0.0
1001
ACAD
1000
AcDbSavedByObjectVersion
1070
     0
  0
VISUALSTYLE
  5
2D
102
{ACAD_REACTORS
330
2A
102
}
330
2A
100
AcDbVisualStyle
  2
Gouraud
 70
     2
 71
     2
 72
     2
 73
     1
 90
        2
 40
-0.6
 41
30.0
 62
     5
 63
     7
421
 16777215
 74
     0
 91
        4
 64
     7
 65
   257
 75
     1
175
     1
 42
1.0
 92
        0
 66
     7
 43
1.0
 76
     1
 77
     6
 78
     2
 67
     7
 79
     5
170
     0
171
     0
290
     0
174
     0
 93
       13
 44
0.0
173
     0
291
     1
 45
0.0
1001
ACAD
1000
AcDbSavedByObjectVersion
1070
     0
  0
VISUALSTYLE
  5
2E
102
{ACAD_REACTORS
330
2A
102
}
330
2A
100
AcDbVisualStyle
  2
GouraudWithEdges
 70
     3
 71
     2
 72
     2
 73
     1
 90
        2
 40
-0.6
 41
30.0
 62
     5
 63
     7
421
 16777215
 74
     1
 91
        4
 64
     7
 65
   257
 75
     1
175
     1
 42
1.0
 92
        0
 66
   257
 43
1.0
 76
     1
 77
     6
 78
     2
 67
     7
 79
     5
170
     0
171
     0
290
     0
174
     0
 93
       13
 44
0.0
173
     0
291
     1
 45
0.0
1001
ACAD
1000
AcDbSavedByObjectVersion
1070
     0
  0
VISUALSTYLE
  5
38
102
{ACAD_REACTORS
330
2A
102
}
330
2A
100
AcDbVisualStyle
  2
Linepattern
 70
    14
 71
     2
 72
     2
 73
     0
 90
        0
 40
-0.6
 41
-30.0
 62
     5
 63
     7
421
 16777215
 74
     1
 91
        4
 64
     7
 65
   257
 75
     7
175
     7
 42
1.0
 92
        8
 66
     7
 43
1.0
 76
     1
 77
     6
 78
     2
 67
     7
 79
     5
170
     0
171
     0
290
     0
174
     0
 93
        1
 44
0.0
173
     0
291
     1
 45
0.0
1001
ACAD
1000
AcDbSavedByObjectVersion
1070
     0
  0
VISUALSTYLE
  5
33
102
{ACAD_REACTORS
330
2A
102
}
330
2A
100
AcDbVisualStyle
  2
Realistic
 70
     8
 71
     2
 72
     2
 73
     0
 90
        0
 40
-0.6
 41
-30.0
 62
     5
 63
     7
421
 16777215
 74
     1
 91
        0
 64
     7
 65
   257
 75
     1
175
     1
 42
1.0
 92
        8
 66
     8
424
  7895160
 43
1.0
 76
     1
 77
     6
 78
     2
 67
     7
 79
     5
170
     0
171
     0
290
     0
174
     0
 93
       13
 44
0.0
173
     0
291
     0
 45
0.0
1001
ACAD
1000
AcDbSavedByObjectVersion
1070
     0
  0
VISUALSTYLE
  5
37
102
{ACAD_REACTORS
330
2A
102
}
330
2A
100
AcDbVisualStyle
  2
Thicken
 70
    13
 71
     2
 72
     2
 73
     0
 90
        0
 40
-0.6
 41
-30.0
 62
     5
 63
     7
421
 16777215
 74
     1
 91
        4
 64
     7
 65
   257
 75
     1
175
     1
 42
1.0
 92
       12
 66
     7
 43
1.0
 76
     1
 77
     6
 78
     2
 67
     7
 79
     5
170
     0
171
     0
290
     0
174
     0
 93
        1
 44
0.0
173
     0
291
     1
 45
0.0
1001
ACAD
1000
AcDbSavedByObjectVersion
1070
     0
  0
ENDSEC
  0
EOF
