  0
SECTION
  2
HEADER
  9
$ACADVER
  1
AC1018
  9
$ACADMAINTVER
 70
     0
  9
$DWGCODEPAGE
  3
ANSI_1252
  9
$INSBASE
 10
0.0
 20
0.0
 30
0.0
  9
$EXTMIN
 10
-146.8326773285154
 20
-5997.922601474311
 30
-0.0000000000000027
  9
$EXTMAX
 10
1553.062574281012
 20
-3335.414183489312
 30
0.0000000000000042
  9
$LIMMIN
 10
0.0
 20
0.0
  9
$LIMMAX
 10
12.0
 20
9.0
  9
$ORTHOMODE
 70
     0
  9
$REGENMODE
 70
     1
  9
$FILLMODE
 70
     1
  9
$QTEXTMODE
 70
     0
  9
$MIRRTEXT
 70
     1
  9
$LTSCALE
 40
1.0
  9
$ATTMODE
 70
     1
  9
$TEXTSIZE
 40
0.2
  9
$TRACEWID
 40
0.05
  9
$TEXTSTYLE
  7
Standard
  9
$CLAYER
  8
0
  9
$CELTYPE
  6
ByLayer
  9
$CECOLOR
 62
   256
  9
$CELTSCALE
 40
1.0
  9
$DISPSILH
 70
     0
  9
$DIMSCALE
 40
1.0
  9
$DIMASZ
 40
0.18
  9
$DIMEXO
 40
0.0625
  9
$DIMDLI
 40
0.38
  9
$DIMRND
 40
0.0
  9
$DIMDLE
 40
0.0
  9
$DIMEXE
 40
0.18
  9
$DIMTP
 40
0.0
  9
$DIMTM
 40
0.0
  9
$DIMTXT
 40
0.18
  9
$DIMCEN
 40
0.09
  9
$DIMTSZ
 40
0.0
  9
$DIMTOL
 70
     0
  9
$DIMLIM
 70
     0
  9
$DIMTIH
 70
     1
  9
$DIMTOH
 70
     1
  9
$DIMSE1
 70
     0
  9
$DIMSE2
 70
     0
  9
$DIMTAD
 70
     0
  9
$DIMZIN
 70
     0
  9
$DIMBLK
  1

  9
$DIMASO
 70
     1
  9
$DIMSHO
 70
     1
  9
$DIMPOST
  1

  9
$DIMAPOST
  1

  9
$DIMALT
 70
     0
  9
$DIMALTD
 70
     2
  9
$DIMALTF
 40
25.4
  9
$DIMLFAC
 40
1.0
  9
$DIMTOFL
 70
     0
  9
$DIMTVP
 40
0.0
  9
$DIMTIX
 70
     0
  9
$DIMSOXD
 70
     0
  9
$DIMSAH
 70
     0
  9
$DIMBLK1
  1

  9
$DIMBLK2
  1

  9
$DIMSTYLE
  2
Standard
  9
$DIMCLRD
 70
     0
  9
$DIMCLRE
 70
     0
  9
$DIMCLRT
 70
     0
  9
$DIMTFAC
 40
1.0
  9
$DIMGAP
 40
0.09
  9
$DIMJUST
 70
     0
  9
$DIMSD1
 70
     0
  9
$DIMSD2
 70
     0
  9
$DIMTOLJ
 70
     1
  9
$DIMTZIN
 70
     0
  9
$DIMALTZ
 70
     0
  9
$DIMALTTZ
 70
     0
  9
$DIMUPT
 70
     0
  9
$DIMDEC
 70
     4
  9
$DIMTDEC
 70
     4
  9
$DIMALTU
 70
     2
  9
$DIMALTTD
 70
     2
  9
$DIMTXSTY
  7
Standard
  9
$DIMAUNIT
 70
     0
  9
$DIMADEC
 70
     0
  9
$DIMALTRND
 40
0.0
  9
$DIMAZIN
 70
     0
  9
$DIMDSEP
 70
    46
  9
$DIMATFIT
 70
     3
  9
$DIMFRAC
 70
     0
  9
$DIMLDRBLK
  1

  9
$DIMLUNIT
 70
     2
  9
$DIMLWD
 70
    -2
  9
$DIMLWE
 70
    -2
  9
$DIMTMOVE
 70
     2
  9
$LUNITS
 70
     2
  9
$LUPREC
 70
     3
  9
$SKETCHINC
 40
0.1
  9
$FILLETRAD
 40
0.5
  9
$AUNITS
 70
     0
  9
$AUPREC
 70
     0
  9
$MENU
  1
.
  9
$ELEVATION
 40
0.0
  9
$PELEVATION
 40
0.0
  9
$THICKNESS
 40
0.0
  9
$LIMCHECK
 70
     0
  9
$CHAMFERA
 40
0.5
  9
$CHAMFERB
 40
0.5
  9
$CHAMFERC
 40
1.0
  9
$CHAMFERD
 40
0.0
  9
$SKPOLY
 70
     0
  9
$TDCREATE
 40
2456377.856361238
  9
$TDUCREATE
 40
2456377.814694572
  9
$TDUPDATE
 40
2456377.85636125
  9
$TDUUPDATE
 40
2456377.814694583
  9
$TDINDWG
 40
0.0000000116
  9
$TDUSRTIMER
 40
0.0000000116
  9
$USRTIMER
 70
     1
  9
$ANGBASE
 50
0.0
  9
$ANGDIR
 70
     0
  9
$PDMODE
 70
     0
  9
$PDSIZE
 40
0.0
  9
$PLINEWID
 40
0.0
  9
$SPLFRAME
 70
     0
  9
$SPLINETYPE
 70
     6
  9
$SPLINESEGS
 70
     8
  9
$HANDSEED
  5
1CB
  9
$SURFTAB1
 70
     6
  9
$SURFTAB2
 70
     6
  9
$SURFTYPE
 70
     6
  9
$SURFU
 70
     6
  9
$SURFV
 70
     6
  9
$UCSBASE
  2

  9
$UCSNAME
  2

  9
$UCSORG
 10
0.0
 20
0.0
 30
0.0
  9
$UCSXDIR
 10
1.0
 20
0.0
 30
0.0
  9
$UCSYDIR
 10
0.0
 20
1.0
 30
0.0
  9
$UCSORTHOREF
  2

  9
$UCSORTHOVIEW
 70
     0
  9
$UCSORGTOP
 10
0.0
 20
0.0
 30
0.0
  9
$UCSORGBOTTOM
 10
0.0
 20
0.0
 30
0.0
  9
$UCSORGLEFT
 10
0.0
 20
0.0
 30
0.0
  9
$UCSORGRIGHT
 10
0.0
 20
0.0
 30
0.0
  9
$UCSORGFRONT
 10
0.0
 20
0.0
 30
0.0
  9
$UCSORGBACK
 10
0.0
 20
0.0
 30
0.0
  9
$PUCSBASE
  2

  9
$PUCSNAME
  2

  9
$PUCSORG
 10
0.0
 20
0.0
 30
0.0
  9
$PUCSXDIR
 10
1.0
 20
0.0
 30
0.0
  9
$PUCSYDIR
 10
0.0
 20
1.0
 30
0.0
  9
$PUCSORTHOREF
  2

  9
$PUCSORTHOVIEW
 70
     0
  9
$PUCSORGTOP
 10
0.0
 20
0.0
 30
0.0
  9
$PUCSORGBOTTOM
 10
0.0
 20
0.0
 30
0.0
  9
$PUCSORGLEFT
 10
0.0
 20
0.0
 30
0.0
  9
$PUCSORGRIGHT
 10
0.0
 20
0.0
 30
0.0
  9
$PUCSORGFRONT
 10
0.0
 20
0.0
 30
0.0
  9
$PUCSORGBACK
 10
0.0
 20
0.0
 30
0.0
  9
$USERI1
 70
     0
  9
$USERI2
 70
     0
  9
$USERI3
 70
     0
  9
$USERI4
 70
     0
  9
$USERI5
 70
     0
  9
$USERR1
 40
0.0
  9
$USERR2
 40
0.0
  9
$USERR3
 40
0.0
  9
$USERR4
 40
0.0
  9
$USERR5
 40
0.0
  9
$WORLDVIEW
 70
     1
  9
$SHADEDGE
 70
     3
  9
$SHADEDIF
 70
    70
  9
$TILEMODE
 70
     1
  9
$MAXACTVP
 70
    64
  9
$PINSBASE
 10
0.0
 20
0.0
 30
0.0
  9
$PLIMCHECK
 70
     0
  9
$PEXTMIN
 10
1.000000000000000E+20
 20
1.000000000000000E+20
 30
1.000000000000000E+20
  9
$PEXTMAX
 10
-1.000000000000000E+20
 20
-1.000000000000000E+20
 30
-1.000000000000000E+20
  9
$PLIMMIN
 10
0.0
 20
0.0
  9
$PLIMMAX
 10
12.0
 20
9.0
  9
$UNITMODE
 70
     0
  9
$VISRETAIN
 70
     1
  9
$PLINEGEN
 70
     0
  9
$PSLTSCALE
 70
     1
  9
$TREEDEPTH
 70
  3020
  9
$CMLSTYLE
  2
Standard
  9
$CMLJUST
 70
     0
  9
$CMLSCALE
 40
1.0
  9
$PROXYGRAPHICS
 70
     1
  9
$MEASUREMENT
 70
     0
  9
$CELWEIGHT
370
    -1
  9
$ENDCAPS
280
     0
  9
$JOINSTYLE
280
     0
  9
$LWDISPLAY
290
     0
  9
$INSUNITS
 70
     4
  9
$HYPERLINKBASE
  1

  9
$STYLESHEET
  1

  9
$XEDIT
290
     1
  9
$CEPSNTYPE
380
     0
  9
$PSTYLEMODE
290
     1
  9
$FINGERPRINTGUID
  2
{49466623-5331-4874-B361-394B8B689DEC}
  9
$VERSIONGUID
  2
{FAEB1C32-E019-11D5-929B-00C0DF256EC4}
  9
$EXTNAMES
290
     1
  9
$PSVPSCALE
 40
0.0
  9
$OLESTARTUP
290
     0
  9
$SORTENTS
280
   127
  9
$INDEXCTL
280
     0
  9
$HIDETEXT
280
     1
  9
$XCLIPFRAME
290
     0
  9
$HALOGAP
280
     0
  9
$OBSCOLOR
 70
   257
  9
$OBSLTYPE
280
     0
  9
$INTERSECTIONDISPLAY
280
     0
  9
$INTERSECTIONCOLOR
 70
   257
  9
$DIMASSOC
280
     2
  9
$PROJECTNAME
  1

  0
ENDSEC
  0
SECTION
  2
CLASSES
  0
CLASS
  1
ACDBDICTIONARYWDFLT
  2
AcDbDictionaryWithDefault
  3
ObjectDBX Classes
 90
        0
 91
        4
280
     0
281
     0
  0
CLASS
  1
VISUALSTYLE
  2
AcDbVisualStyle
  3
ObjectDBX Classes
 90
     4095
 91
        4
280
     0
281
     0
  0
ENDSEC
  0
SECTION
  2
TABLES
  0
TABLE
  2
VPORT
  5
8
330
0
100
AcDbSymbolTable
 70
     1
  0
VPORT
  5
29
330
8
100
AcDbSymbolTableRecord
100
AcDbViewportTableRecord
  2
*Active
 70
     0
 10
0.0
 20
0.0
 11
1.0
 21
1.0
 12
703.1149484762481
 22
-4666.668392481812
 13
0.0
 23
0.0
 14
0.5
 24
0.5
 15
0.5
 25
0.5
 16
0.0
 26
0.0
 36
1.0
 17
0.0
 27
0.0
 37
0.0
 40
2715.758586344698
 41
0.6384562918663061
 42
50.0
 43
0.0
 44
0.0
 50
0.0
 51
0.0
 71
     0
 72
   100
 73
     1
 74
     3
 75
     0
 76
     0
 77
     0
 78
     0
281
     0
 65
     1
110
0.0
120
0.0
130
0.0
111
1.0
121
0.0
131
0.0
112
0.0
122
1.0
132
0.0
 79
     0
146
0.0
  0
ENDTAB
  0
TABLE
  2
LTYPE
  5
5
330
0
100
AcDbSymbolTable
 70
     1
  0
LTYPE
  5
14
330
5
100
AcDbSymbolTableRecord
100
AcDbLinetypeTableRecord
  2
ByBlock
 70
     0
  3

 72
    65
 73
     0
 40
0.0
  0
LTYPE
  5
15
330
5
100
AcDbSymbolTableRecord
100
AcDbLinetypeTableRecord
  2
ByLayer
 70
     0
  3

 72
    65
 73
     0
 40
0.0
  0
LTYPE
  5
16
330
5
100
AcDbSymbolTableRecord
100
AcDbLinetypeTableRecord
  2
Continuous
 70
     0
  3
Solid line
 72
    65
 73
     0
 40
0.0
  0
ENDTAB
  0
TABLE
  2
LAYER
  5
2
330
0
100
AcDbSymbolTable
 70
     2
  0
LAYER
  5
10
330
2
100
AcDbSymbolTableRecord
100
AcDbLayerTableRecord
  2
0
 70
     0
 62
     7
  6
Continuous
370
    -3
390
F
  0
LAYER
  5
3B
330
2
100
AcDbSymbolTableRecord
100
AcDbLayerTableRecord
  2
2D
 70
     0
 62
     7
  6
Continuous
370
    -3
390
F
  0
ENDTAB
  0
TABLE
  2
STYLE
  5
3
330
0
100
AcDbSymbolTable
 70
     1
  0
STYLE
  5
11
330
3
100
AcDbSymbolTableRecord
100
AcDbTextStyleTableRecord
  2
Standard
 70
     0
 40
0.0
 41
1.0
 50
0.0
 71
     0
 42
0.2
  3
txt
  4

  0
ENDTAB
  0
TABLE
  2
VIEW
  5
6
330
0
100
AcDbSymbolTable
 70
     0
  0
ENDTAB
  0
TABLE
  2
UCS
  5
7
330
0
100
AcDbSymbolTable
 70
     0
  0
ENDTAB
  0
TABLE
  2
APPID
  5
9
330
0
100
AcDbSymbolTable
 70
     1
  0
APPID
  5
12
330
9
100
AcDbSymbolTableRecord
100
AcDbRegAppTableRecord
  2
ACAD
 70
     0
  0
ENDTAB
  0
TABLE
  2
DIMSTYLE
  5
A
330
0
100
AcDbSymbolTable
 70
     1
100
AcDbDimStyleTable
  0
DIMSTYLE
105
27
330
A
100
AcDbSymbolTableRecord
100
AcDbDimStyleTableRecord
  2
Standard
 70
     0
340
11
  0
ENDTAB
  0
TABLE
  2
BLOCK_RECORD
  5
1
330
0
100
AcDbSymbolTable
 70
     1
  0
BLOCK_RECORD
  5
1F
330
1
100
AcDbSymbolTableRecord
100
AcDbBlockTableRecord
  2
*Model_Space
340
22
  0
BLOCK_RECORD
  5
1B
330
1
100
AcDbSymbolTableRecord
100
AcDbBlockTableRecord
  2
*Paper_Space
340
1E
  0
BLOCK_RECORD
  5
23
330
1
100
AcDbSymbolTableRecord
100
AcDbBlockTableRecord
  2
*Paper_Space0
340
26
  0
ENDTAB
  0
ENDSEC
  0
SECTION
  2
BLOCKS
  0
BLOCK
  5
20
330
1F
100
AcDbEntity
  8
0
100
AcDbBlockBegin
  2
*Model_Space
 70
     0
 10
0.0
 20
0.0
 30
0.0
  3
*Model_Space
  1

  0
ENDBLK
  5
21
330
1F
100
AcDbEntity
  8
0
100
AcDbBlockEnd
  0
BLOCK
  5
1C
330
1B
100
AcDbEntity
 67
     1
  8
0
100
AcDbBlockBegin
  2
*Paper_Space
 70
     0
 10
0.0
 20
0.0
 30
0.0
  3
*Paper_Space
  1

  0
ENDBLK
  5
1D
330
1B
100
AcDbEntity
 67
     1
  8
0
100
AcDbBlockEnd
  0
BLOCK
  5
24
330
23
100
AcDbEntity
  8
0
100
AcDbBlockBegin
  2
*Paper_Space0
 70
     0
 10
0.0
 20
0.0
 30
0.0
  3
*Paper_Space0
  1

  0
ENDBLK
  5
25
330
23
100
AcDbEntity
  8
0
100
AcDbBlockEnd
  0
ENDSEC
  0
SECTION
  2
ENTITIES
  0
SPLINE
  5
3C
330
1F
100
AcDbEntity
  8
2D
100
AcDbSpline
210
0.0
220
0.0
230
1.0
 70
    12
 71
     3
 72
    18
 73
    14
 74
     0
 42
0.0000000001
 43
0.0000000001
 40
-177.6987901673132
 40
-177.6987901673132
 40
-177.6987901673132
 40
-177.6987901673132
 40
-45.08649629973015
 40
-45.08649629973015
 40
-45.08649629973015
 40
-23.44733560210158
 40
-23.44733560210158
 40
-23.44733560210158
 40
-17.56290672595703
 40
-17.56290672595703
 40
-11.69352626882082
 40
-11.69352626882082
 40
0.0
 40
0.0
 40
0.0
 40
0.0
 10
108.4002060038038
 20
-3713.573334307869
 30
0.0
 41
1.0
 10
65.65187695138593
 20
-3701.966925385622
 30
0.0
 41
1.0
 10
22.90354789897538
 20
-3690.360516463375
 30
0.0
 41
1.0
 10
-19.84478115343154
 20
-3678.754107541129
 30
0.0
 41
1.0
 10
-26.82028798572719
 20
-3676.860218668037
 30
0.0
 41
1.0
 10
-33.8029218082811
 20
-3674.885577936914
 30
0.0
 41
1.0
 10
-40.77433838060097
 20
-3672.81656772565
 30
0.0
 41
1.0
 10
-42.67299654674571
 20
-3672.253087801592
 30
0.0
 41
1.0
 10
-44.56950591134228
 20
-3671.751595458268
 30
0.0
 41
1.0
 10
-48.36489628674826
 20
-3670.885841382956
 30
0.0
 41
1.0
 10
-50.26176164960634
 20
-3670.519250743923
 30
0.0
 41
1.0
 10
-55.94564213409103
 20
-3669.611491957646
 30
0.0
 41
1.0
 10
-59.73018419570508
 20
-3669.259410580486
 30
0.0
 41
1.0
 10
-63.52223064727877
 20
-3669.134630662448
 30
0.0
 41
1.0
  0
LINE
  5
3D
330
1F
100
AcDbEntity
  8
2D
100
AcDbLine
 10
1529.693627927714
 20
-3686.798303580316
 30
0.0
 11
1551.335277758368
 21
-3627.904054241018
 31
0.0
  0
SPLINE
  5
3E
330
1F
100
AcDbEntity
  8
2D
100
AcDbSpline
210
0.0
220
0.0
230
1.0
 70
    12
 71
     3
 72
     9
 73
     5
 74
     0
 42
0.0000000001
 43
0.0000000001
 40
-6.403949649870489
 40
-6.403949649870489
 40
-6.403949649870489
 40
-6.403949649870489
 40
-2.463066573055114
 40
0.0
 40
0.0
 40
0.0
 40
0.0
 10
1551.335277758368
 20
-3627.904054241018
 30
0.0
 41
1.0
 10
1551.856342693627
 20
-3626.499621803213
 30
0.0
 41
1.0
 10
1552.071377695895
 20
-3624.176015251189
 30
0.0
 41
1.0
 10
1552.35154536058
 20
-3622.151410726409
 30
0.0
 41
1.0
 10
1552.453887662003
 20
-3621.415749417466
 30
0.0
 41
1.0
  0
LINE
  5
3F
330
1F
100
AcDbEntity
  8
2D
100
AcDbLine
 10
703.1149477162107
 20
-5913.337945216102
 30
0.0
 11
703.1152157066608
 21
-5912.864614786977
 31
0.0
  0
SPLINE
  5
40
330
1F
100
AcDbEntity
  8
2D
100
AcDbSpline
210
0.0
220
0.0
230
1.0
 70
     8
 71
     3
 72
     8
 73
     4
 74
     0
 42
0.0000000001
 43
0.0000000001
 40
0.0
 40
0.0
 40
0.0
 40
0.0
 40
0.0934173436899602
 40
0.0934173436899602
 40
0.0934173436899602
 40
0.0934173436899602
 10
703.1152157066608
 20
-5912.864614786977
 30
0.0
 10
703.1155172708859
 20
-5912.833475749087
 30
0.0
 10
703.1155511636862
 20
-5912.801883786118
 30
0.0
 10
703.1152660619264
 20
-5912.770744406307
 30
0.0
  0
LINE
  5
41
330
1F
100
AcDbEntity
  8
2D
100
AcDbLine
 10
703.1152660619264
 20
-5912.770744406307
 30
0.0
 11
703.1154773649832
 21
-5912.36675766603
 31
0.0
  0
SPLINE
  5
42
330
1F
100
AcDbEntity
  8
2D
100
AcDbSpline
210
0.0
220
0.0
230
1.0
 70
     8
 71
     3
 72
     8
 73
     4
 74
     0
 42
0.0000000001
 43
0.0000000001
 40
0.0
 40
0.0
 40
0.0
 40
0.0
 40
0.0914761870941861
 40
0.0914761870941861
 40
0.0914761870941861
 40
0.0914761870941861
 10
703.1154773649832
 20
-5912.36675766603
 30
0.0
 10
703.1160382818234
 20
-5912.336265715657
 30
0.0
 10
703.1160698126623
 20
-5912.305385873817
 30
0.0
 10
703.1155242647365
 20
-5912.274893334567
 30
0.0
  0
LINE
  5
43
330
1F
100
AcDbEntity
  8
2D
100
AcDbLine
 10
703.1155242647365
 20
-5912.274893334567
 30
0.0
 11
703.1157387111853
 21
-5911.844765589203
 31
0.0
  0
SPLINE
  5
44
330
1F
100
AcDbEntity
  8
2D
100
AcDbSpline
210
0.0
220
0.0
230
1.0
 70
     8
 71
     3
 72
     8
 73
     4
 74
     0
 42
0.0000000001
 43
0.0000000001
 40
0.0
 40
0.0
 40
0.0
 40
0.0
 40
0.0890960788463186
 40
0.0890960788463186
 40
0.0890960788463186
 40
0.0890960788463186
 10
703.1157387111853
 20
-5911.844765589203
 30
0.0
 10
703.1165587594369
 20
-5911.815067044681
 30
0.0
 10
703.1165880310982
 20
-5911.785037967919
 30
0.0
 10
703.1157822927162
 20
-5911.755338609812
 30
0.0
  0
LINE
  5
45
330
1F
100
AcDbEntity
  8
2D
100
AcDbLine
 10
703.1157822927162
 20
-5911.755338609812
 30
0.0
 11
703.11599977277
 21
-5911.299011259502
 31
0.0
  0
SPLINE
  5
46
330
1F
100
AcDbEntity
  8
2D
100
AcDbSpline
210
0.0
220
0.0
230
1.0
 70
     8
 71
     3
 72
     8
 73
     4
 74
     0
 42
0.0000000001
 43
0.0000000001
 40
0.0
 40
0.0
 40
0.0
 40
0.0
 40
0.0865614211803819
 40
0.0865614211803819
 40
0.0865614211803819
 40
0.0865614211803819
 10
703.11599977277
 20
-5911.299011259502
 30
0.0
 10
703.1170788315249
 20
-5911.270157634134
 30
0.0
 10
703.1171060312081
 20
-5911.241000317261
 30
0.0
 10
703.1160402807909
 20
-5911.212145672833
 30
0.0
  0
LINE
  5
47
330
1F
100
AcDbEntity
  8
2D
100
AcDbLine
 10
703.1160402807909
 20
-5911.212145672833
 30
0.0
 11
703.1162332891945
 21
-5910.78953386371
 31
0.0
  0
SPLINE
  5
48
330
1F
100
AcDbEntity
  8
2D
100
AcDbSpline
210
0.0
220
0.0
230
1.0
 70
     8
 71
     3
 72
     8
 73
     4
 74
     0
 42
0.0000000001
 43
0.0000000001
 40
0.0
 40
0.0
 40
0.0
 40
0.0
 40
0.1433571340830241
 40
0.1433571340830241
 40
0.1433571340830241
 40
0.1433571340830241
 10
703.1162332891945
 20
-5910.78953386371
 30
0.0
 10
703.117561763178
 20
-5910.74174837119
 30
0.0
 10
703.1176051390285
 20
-5910.693166669503
 30
0.0
 10
703.1162976373344
 20
-5910.645379971582
 30
0.0
  0
LINE
  5
49
330
1F
100
AcDbEntity
  8
2D
100
AcDbLine
 10
703.1162976373344
 20
-5910.645379971582
 30
0.0
 11
703.1164664975877
 21
-5910.259185536748
 31
0.0
  0
SPLINE
  5
4A
330
1F
100
AcDbEntity
  8
2D
100
AcDbSpline
210
0.0
220
0.0
230
1.0
 70
     8
 71
     3
 72
     8
 73
     4
 74
     0
 42
0.0000000001
 43
0.0000000001
 40
0.0
 40
0.0
 40
0.0
 40
0.0
 40
0.2028014424133013
 40
0.2028014424133013
 40
0.2028014424133013
 40
0.2028014424133013
 10
703.1164664975877
 20
-5910.259185536748
 30
0.0
 10
703.1180435148199
 20
-5910.191585308546
 30
0.0
 10
703.1181024680373
 20
-5910.122708567982
 30
0.0
 10
703.1165538380919
 20
-5910.055106964601
 30
0.0
  0
LINE
  5
4B
330
1F
100
AcDbEntity
  8
2D
100
AcDbLine
 10
703.1165538380919
 20
-5910.055106964601
 30
0.0
 11
703.11671575941
 21
-5909.669872143309
 31
0.0
  0
SPLINE
  5
4C
330
1F
100
AcDbEntity
  8
2D
100
AcDbSpline
210
0.0
220
0.0
230
1.0
 70
     8
 71
     3
 72
     8
 73
     4
 74
     0
 42
0.0000000001
 43
0.0000000001
 40
0.0
 40
0.0
 40
0.0
 40
0.0
 40
0.227067602557861
 40
0.227067602557861
 40
0.227067602557861
 40
0.227067602557861
 10
703.11671575941
 20
-5909.669872143309
 30
0.0
 10
703.1185467050709
 20
-5909.594183223176
 30
0.0
 10
703.1186103738182
 20
-5909.517082571934
 30
0.0
 10
703.1168100999712
 20
-5909.441392113398
 30
0.0
  0
LINE
  5
4D
330
1F
100
AcDbEntity
  8
2D
100
AcDbLine
 10
703.1168100999712
 20
-5909.441392113398
 30
0.0
 11
703.1169647050774
 21
-5909.060741190842
 31
0.0
  0
SPLINE
  5
4E
330
1F
100
AcDbEntity
  8
2D
100
AcDbSpline
210
0.0
220
0.0
230
1.0
 70
     8
 71
     3
 72
     8
 73
     4
 74
     0
 42
0.0000000001
 43
0.0000000001
 40
0.0
 40
0.0
 40
0.0
 40
0.0
 40
0.2542828157513897
 40
0.2542828157513897
 40
0.2542828157513897
 40
0.2542828157513897
 10
703.1169647050774
 20
-5909.060741190842
 30
0.0
 10
703.1190498611504
 20
-5908.975980558625
 30
0.0
 10
703.1191191409489
 20
-5908.889063174263
 30
0.0
 10
703.117066927407
 20
-5908.804300851833
 30
0.0
  0
LINE
  5
4F
330
1F
100
AcDbEntity
  8
2D
100
AcDbLine
 10
703.117066927407
 20
-5908.804300851833
 30
0.0
 11
703.1172305107502
 21
-5908.38500177817
 31
0.0
  0
SPLINE
  5
50
330
1F
100
AcDbEntity
  8
2D
100
AcDbSpline
210
0.0
220
0.0
230
1.0
 70
     8
 71
     3
 72
     8
 73
     4
 74
     0
 42
0.0000000001
 43
0.0000000001
 40
0.0
 40
0.0
 40
0.0
 40
0.0
 40
0.2365469284737943
 40
0.2365469284737943
 40
0.2365469284737943
 40
0.2365469284737943
 10
703.1172305107502
 20
-5908.38500177817
 30
0.0
 10
703.1195740636795
 20
-5908.306153126345
 30
0.0
 10
703.1196355609136
 20
-5908.225833895886
 30
0.0
 10
703.1173216365969
 20
-5908.146983425948
 30
0.0
  0
LINE
  5
51
330
1F
100
AcDbEntity
  8
2D
100
AcDbLine
 10
703.1173216365969
 20
-5908.146983425948
 30
0.0
 11
703.1174958781048
 21
-5907.683804963373
 31
0.0
  0
SPLINE
  5
52
330
1F
100
AcDbEntity
  8
2D
100
AcDbSpline
210
0.0
220
0.0
230
1.0
 70
     8
 71
     3
 72
     8
 73
     4
 74
     0
 42
0.0000000001
 43
0.0000000001
 40
0.0
 40
0.0
 40
0.0
 40
0.0
 40
0.215120558307998
 40
0.215120558307998
 40
0.215120558307998
 40
0.215120558307998
 10
703.1174958781048
 20
-5907.683804963373
 30
0.0
 10
703.1200974049534
 20
-5907.612098453003
 30
0.0
 10
703.1201513090564
 20
-5907.539311670793
 30
0.0
 10
703.1175759222751
 20
-5907.467603214374
 30
0.0
  0
LINE
  5
53
330
1F
100
AcDbEntity
  8
2D
100
AcDbLine
 10
703.1175759222751
 20
-5907.467603214374
 30
0.0
 11
703.1177652509832
 21
-5906.947205410343
 31
0.0
  0
SPLINE
  5
54
330
1F
100
AcDbEntity
  8
2D
100
AcDbSpline
210
0.0
220
0.0
230
1.0
 70
     8
 71
     3
 72
     8
 73
     4
 74
     0
 42
0.0000000001
 43
0.0000000001
 40
0.0
 40
0.0
 40
0.0
 40
0.0
 40
0.1800025324614727
 40
0.1800025324614727
 40
0.1800025324614727
 40
0.1800025324614727
 10
703.1177652509832
 20
-5906.947205410343
 30
0.0
 10
703.1206259039354
 20
-5906.887204924134
 30
0.0
 10
703.120669378266
 20
-5906.826504464666
 30
0.0
 10
703.1178299398889
 20
-5906.76650191499
 30
0.0
  0
LINE
  5
55
330
1F
100
AcDbEntity
  8
2D
100
AcDbLine
 10
703.1178299398889
 20
-5906.76650191499
 30
0.0
 11
703.1180341767722
 21
-5906.186358913281
 31
0.0
  0
SPLINE
  5
56
330
1F
100
AcDbEntity
  8
2D
100
AcDbSpline
210
0.0
220
0.0
230
1.0
 70
     8
 71
     3
 72
     8
 73
     4
 74
     0
 42
0.0000000001
 43
0.0000000001
 40
0.0
 40
0.0
 40
0.0
 40
0.0
 40
0.141940432048981
 40
0.141940432048981
 40
0.141940432048981
 40
0.141940432048981
 10
703.1180341767722
 20
-5906.186358913281
 30
0.0
 10
703.121153513137
 20
-5906.139045815814
 30
0.0
 10
703.1211866127742
 20
-5906.091336519821
 30
0.0
 10
703.1180835175219
 20
-5906.044021241294
 30
0.0
  0
LINE
  5
57
330
1F
100
AcDbEntity
  8
2D
100
AcDbLine
 10
703.1180835175219
 20
-5906.044021241294
 30
0.0
 11
703.1182997434262
 21
-5905.410358816926
 31
0.0
  0
SPLINE
  5
58
330
1F
100
AcDbEntity
  8
2D
100
AcDbSpline
210
0.0
220
0.0
230
1.0
 70
     8
 71
     3
 72
     8
 73
     4
 74
     0
 42
0.0000000001
 43
0.0000000001
 40
0.0
 40
0.0
 40
0.0
 40
0.0
 40
0.1096346445432426
 40
0.1096346445432426
 40
0.1096346445432426
 40
0.1096346445432426
 10
703.1182997434262
 20
-5905.410358816926
 30
0.0
 10
703.121676363804
 20
-5905.373814316875
 30
0.0
 10
703.1217011218687
 20
-5905.337049675671
 30
0.0
 10
703.1183366810947
 20
-5905.300502902615
 30
0.0
  0
LINE
  5
59
330
1F
100
AcDbEntity
  8
2D
100
AcDbLine
 10
703.1183366810947
 20
-5905.300502902615
 30
0.0
 11
703.11856483476
 21
-5904.611633482038
 31
0.0
  0
SPLINE
  5
5A
330
1F
100
AcDbEntity
  8
2D
100
AcDbSpline
210
0.0
220
0.0
230
1.0
 70
     8
 71
     3
 72
     8
 73
     4
 74
     0
 42
0.0000000001
 43
0.0000000001
 40
0.0
 40
0.0
 40
0.0
 40
0.0
 40
0.0752468960592996
 40
0.0752468960592996
 40
0.0752468960592996
 40
0.0752468960592996
 10
703.11856483476
 20
-5904.611633482038
 30
0.0
 10
703.1221982995085
 20
-5904.586551582903
 30
0.0
 10
703.1222148006818
 20
-5904.561372882943
 30
0.0
 10
703.1185894381633
 20
-5904.536288607196
 30
0.0
  0
LINE
  5
5B
330
1F
100
AcDbEntity
  8
2D
100
AcDbLine
 10
703.1185894381633
 20
-5904.536288607196
 30
0.0
 11
703.1188294805834
 21
-5903.790464897116
 31
0.0
  0
SPLINE
  5
5C
330
1F
100
AcDbEntity
  8
2D
100
AcDbSpline
210
0.0
220
0.0
230
1.0
 70
    12
 71
     3
 72
    11
 73
     7
 74
     0
 42
0.0000000001
 43
0.0000000001
 40
0.0
 40
0.0
 40
0.0
 40
0.0
 40
0.9182713490371672
 40
0.9182713490371672
 40
0.9182713490371672
 40
93.9458131120217
 40
93.9458131120217
 40
93.9458131120217
 40
93.9458131120217
 10
703.1188294805834
 20
-5903.790464897116
 30
0.0
 41
1.0
 10
703.1228875336237
 20
-5903.513032823473
 30
0.0
 41
1.0
 10
703.1230636837245
 20
-5903.231907202654
 30
0.0
 41
1.0
 10
703.1232397051936
 20
-5902.947135029221
 30
0.0
 41
1.0
 10
703.1410102282462
 20
-5871.907556096438
 30
0.0
 41
1.0
 10
703.1587806730167
 20
-5840.86996235775
 30
0.0
 41
1.0
 10
703.1765511735757
 20
-5809.832303435506
 30
0.0
 41
1.0
  0
LINE
  5
5D
330
1F
100
AcDbEntity
  8
2D
100
AcDbLine
 10
-146.4952841350678
 20
-3615.013021318345
 30
0.0
 11
-124.64190868273
 21
-3676.384673237495
 31
0.0
  0
LINE
  5
5E
330
1F
100
AcDbEntity
  8
2D
100
AcDbLine
 10
-123.1266487553585
 20
-5646.192352397392
 30
0.0
 11
-123.1163629730654
 21
-5646.164628602229
 31
0.0
  0
SPLINE
  5
5F
330
1F
100
AcDbEntity
  8
2D
100
AcDbSpline
210
0.0
220
0.0
230
1.0
 70
    12
 71
     3
 72
    11
 73
     7
 74
     0
 42
0.0000000001
 43
0.0000000001
 40
-93.94581311202288
 40
-93.94581311202288
 40
-93.94581311202288
 40
-93.94581311202288
 40
-0.9182713490371788
 40
-0.9182713490371788
 40
-0.9182713490371788
 40
0.0
 40
0.0
 40
0.0
 40
0.0
 10
703.1765511735757
 20
-3523.504481528117
 30
0.0
 41
1.0
 10
703.1587806730167
 20
-3492.466822605874
 30
0.0
 41
1.0
 10
703.1410102282462
 20
-3461.429228867185
 30
0.0
 41
1.0
 10
703.1232397051936
 20
-3430.389649934402
 30
0.0
 41
1.0
 10
703.1230636837245
 20
-3430.104877760969
 30
0.0
 41
1.0
 10
703.1228875336237
 20
-3429.823752140151
 30
0.0
 41
1.0
 10
703.1188294805797
 20
-3429.546320066507
 30
0.0
 41
1.0
  0
LINE
  5
60
330
1F
100
AcDbEntity
  8
2D
100
AcDbLine
 10
703.1188294805797
 20
-3429.546320066507
 30
0.0
 11
703.1185894381597
 21
-3428.800496356428
 31
0.0
  0
SPLINE
  5
61
330
1F
100
AcDbEntity
  8
2D
100
AcDbSpline
210
0.0
220
0.0
230
1.0
 70
     8
 71
     3
 72
     8
 73
     4
 74
     0
 42
0.0000000001
 43
0.0000000001
 40
-0.0752468960573431
 40
-0.0752468960573431
 40
-0.0752468960573431
 40
-0.0752468960573431
 40
0.0
 40
0.0
 40
0.0
 40
0.0
 10
703.1185894381597
 20
-3428.800496356428
 30
0.0
 10
703.1222148006855
 20
-3428.775412080682
 30
0.0
 10
703.122198356592
 20
-3428.75023338072
 30
0.0
 10
703.11856483476
 20
-3428.725151481585
 30
0.0
  0
LINE
  5
62
330
1F
100
AcDbEntity
  8
2D
100
AcDbLine
 10
703.11856483476
 20
-3428.725151481585
 30
0.0
 11
703.1183366810947
 21
-3428.036282061008
 31
0.0
  0
SPLINE
  5
63
330
1F
100
AcDbEntity
  8
2D
100
AcDbSpline
210
0.0
220
0.0
230
1.0
 70
     8
 71
     3
 72
     8
 73
     4
 74
     0
 42
0.0000000001
 43
0.0000000001
 40
-0.1096346445415278
 40
-0.1096346445415278
 40
-0.1096346445415278
 40
-0.1096346445415278
 40
0.0
 40
0.0
 40
0.0
 40
0.0
 10
703.1183366810947
 20
-3428.036282061008
 30
0.0
 10
703.1217011218723
 20
-3427.999735287953
 30
0.0
 10
703.1216763985649
 20
-3427.962970646747
 30
0.0
 10
703.1182997434262
 20
-3427.926426146698
 30
0.0
  0
LINE
  5
64
330
1F
100
AcDbEntity
  8
2D
100
AcDbLine
 10
703.1182997434262
 20
-3427.926426146698
 30
0.0
 11
703.1180835175219
 21
-3427.29276372233
 31
0.0
  0
SPLINE
  5
65
330
1F
100
AcDbEntity
  8
2D
100
AcDbSpline
210
0.0
220
0.0
230
1.0
 70
     8
 71
     3
 72
     8
 73
     4
 74
     0
 42
0.0000000001
 43
0.0000000001
 40
-0.1419404320468341
 40
-0.1419404320468341
 40
-0.1419404320468341
 40
-0.1419404320468341
 40
0.0
 40
0.0
 40
0.0
 40
0.0
 10
703.1180835175219
 20
-3427.29276372233
 30
0.0
 10
703.1211866127742
 20
-3427.245448443804
 30
0.0
 10
703.1211535367001
 20
-3427.197739147809
 30
0.0
 10
703.1180341767758
 20
-3427.150426050343
 30
0.0
  0
LINE
  5
66
330
1F
100
AcDbEntity
  8
2D
100
AcDbLine
 10
703.1180341767758
 20
-3427.150426050343
 30
0.0
 11
703.1178299398889
 21
-3426.570283048634
 31
0.0
  0
SPLINE
  5
67
330
1F
100
AcDbEntity
  8
2D
100
AcDbSpline
210
0.0
220
0.0
230
1.0
 70
     8
 71
     3
 72
     8
 73
     4
 74
     0
 42
0.0000000001
 43
0.0000000001
 40
-0.1800025324620673
 40
-0.1800025324620673
 40
-0.1800025324620673
 40
-0.1800025324620673
 40
0.0
 40
0.0
 40
0.0
 40
0.0
 10
703.1178299398889
 20
-3426.570283048634
 30
0.0
 10
703.120669378266
 20
-3426.510280498957
 30
0.0
 10
703.1206259200153
 20
-3426.449580039489
 30
0.0
 10
703.1177652509832
 20
-3426.389579553281
 30
0.0
  0
LINE
  5
68
330
1F
100
AcDbEntity
  8
2D
100
AcDbLine
 10
703.1177652509832
 20
-3426.389579553281
 30
0.0
 11
703.1175759222751
 21
-3425.869181749249
 31
0.0
  0
SPLINE
  5
69
330
1F
100
AcDbEntity
  8
2D
100
AcDbSpline
210
0.0
220
0.0
230
1.0
 70
     8
 71
     3
 72
     8
 73
     4
 74
     0
 42
0.0000000001
 43
0.0000000001
 40
-0.2151205583091534
 40
-0.2151205583091534
 40
-0.2151205583091534
 40
-0.2151205583091534
 40
0.0
 40
0.0
 40
0.0
 40
0.0
 10
703.1175759222751
 20
-3425.869181749249
 30
0.0
 10
703.12015130906
 20
-3425.797473292829
 30
0.0
 10
703.1200974164167
 20
-3425.72468651062
 30
0.0
 10
703.1174958781048
 20
-3425.65298000025
 30
0.0
  0
LINE
  5
6A
330
1F
100
AcDbEntity
  8
2D
100
AcDbLine
 10
703.1174958781048
 20
-3425.65298000025
 30
0.0
 11
703.1173216366005
 21
-3425.189801537675
 31
0.0
  0
SPLINE
  5
6B
330
1F
100
AcDbEntity
  8
2D
100
AcDbSpline
210
0.0
220
0.0
230
1.0
 70
     8
 71
     3
 72
     8
 73
     4
 74
     0
 42
0.0000000001
 43
0.0000000001
 40
-0.2365469284734344
 40
-0.2365469284734344
 40
-0.2365469284734344
 40
-0.2365469284734344
 40
0.0
 40
0.0
 40
0.0
 40
0.0
 10
703.1173216366005
 20
-3425.189801537675
 30
0.0
 10
703.11963556091
 20
-3425.110951067736
 30
0.0
 10
703.1195740723888
 20
-3425.030631837278
 30
0.0
 10
703.1172305107502
 20
-3424.951783185455
 30
0.0
  0
LINE
  5
6C
330
1F
100
AcDbEntity
  8
2D
100
AcDbLine
 10
703.1172305107502
 20
-3424.951783185455
 30
0.0
 11
703.117066927407
 21
-3424.53248411179
 31
0.0
  0
SPLINE
  5
6D
330
1F
100
AcDbEntity
  8
2D
100
AcDbSpline
210
0.0
220
0.0
230
1.0
 70
     8
 71
     3
 72
     8
 73
     4
 74
     0
 42
0.0000000001
 43
0.0000000001
 40
-0.2542828157500708
 40
-0.2542828157500708
 40
-0.2542828157500708
 40
-0.2542828157500708
 40
0.0
 40
0.0
 40
0.0
 40
0.0
 10
703.117066927407
 20
-3424.53248411179
 30
0.0
 10
703.1191191409489
 20
-3424.44772178936
 30
0.0
 10
703.1190498677897
 20
-3424.360804404998
 30
0.0
 10
703.1169647050774
 20
-3424.276043772781
 30
0.0
  0
LINE
  5
6E
330
1F
100
AcDbEntity
  8
2D
100
AcDbLine
 10
703.1169647050774
 20
-3424.276043772781
 30
0.0
 11
703.1168100999748
 21
-3423.895392850225
 31
0.0
  0
SPLINE
  5
6F
330
1F
100
AcDbEntity
  8
2D
100
AcDbSpline
210
0.0
220
0.0
230
1.0
 70
     8
 71
     3
 72
     8
 73
     4
 74
     0
 42
0.0000000001
 43
0.0000000001
 40
-0.2270676025583247
 40
-0.2270676025583247
 40
-0.2270676025583247
 40
-0.2270676025583247
 40
0.0
 40
0.0
 40
0.0
 40
0.0
 10
703.1168100999748
 20
-3423.895392850225
 30
0.0
 10
703.1186103738182
 20
-3423.819702391689
 30
0.0
 10
703.118546711019
 20
-3423.742601740448
 30
0.0
 10
703.11671575941
 20
-3423.666912820314
 30
0.0
  0
LINE
  5
70
330
1F
100
AcDbEntity
  8
2D
100
AcDbLine
 10
703.11671575941
 20
-3423.666912820314
 30
0.0
 11
703.1165538380919
 21
-3423.281677999023
 31
0.0
  0
SPLINE
  5
71
330
1F
100
AcDbEntity
  8
2D
100
AcDbSpline
210
0.0
220
0.0
230
1.0
 70
     8
 71
     3
 72
     8
 73
     4
 74
     0
 42
0.0000000001
 43
0.0000000001
 40
-0.2028014424146108
 40
-0.2028014424146108
 40
-0.2028014424146108
 40
-0.2028014424146108
 40
0.0
 40
0.0
 40
0.0
 40
0.0
 10
703.1165538380919
 20
-3423.281677999023
 30
0.0
 10
703.1181024680373
 20
-3423.214076395641
 30
0.0
 10
703.1180435199276
 20
-3423.145199655078
 30
0.0
 10
703.1164664975877
 20
-3423.077599426875
 30
0.0
  0
LINE
  5
72
330
1F
100
AcDbEntity
  8
2D
100
AcDbLine
 10
703.1164664975877
 20
-3423.077599426875
 30
0.0
 11
703.1162976373344
 21
-3422.691404992042
 31
0.0
  0
SPLINE
  5
73
330
1F
100
AcDbEntity
  8
2D
100
AcDbSpline
210
0.0
220
0.0
230
1.0
 70
     8
 71
     3
 72
     8
 73
     4
 74
     0
 42
0.0000000001
 43
0.0000000001
 40
-0.1433571340820173
 40
-0.1433571340820173
 40
-0.1433571340820173
 40
-0.1433571340820173
 40
0.0
 40
0.0
 40
0.0
 40
0.0
 10
703.1162976373344
 20
-3422.691404992042
 30
0.0
 10
703.1176051390285
 20
-3422.64361829412
 30
0.0
 10
703.117561768544
 20
-3422.595036592433
 30
0.0
 10
703.1162332891945
 20
-3422.547251099914
 30
0.0
  0
LINE
  5
74
330
1F
100
AcDbEntity
  8
2D
100
AcDbLine
 10
703.1162332891945
 20
-3422.547251099914
 30
0.0
 11
703.1160402807909
 21
-3422.12463929079
 31
0.0
  0
SPLINE
  5
75
330
1F
100
AcDbEntity
  8
2D
100
AcDbSpline
210
0.0
220
0.0
230
1.0
 70
     8
 71
     3
 72
     8
 73
     4
 74
     0
 42
0.0000000001
 43
0.0000000001
 40
-0.0865614211821142
 40
-0.0865614211821142
 40
-0.0865614211821142
 40
-0.0865614211821142
 40
0.0
 40
0.0
 40
0.0
 40
0.0
 10
703.1160402807909
 20
-3422.12463929079
 30
0.0
 10
703.1171060312081
 20
-3422.095784646362
 30
0.0
 10
703.1170788376912
 20
-3422.06662732949
 30
0.0
 10
703.11599977277
 20
-3422.037773704122
 30
0.0
  0
LINE
  5
76
330
1F
100
AcDbEntity
  8
2D
100
AcDbLine
 10
703.11599977277
 20
-3422.037773704122
 30
0.0
 11
703.1157822927162
 21
-3421.581446353812
 31
0.0
  0
SPLINE
  5
77
330
1F
100
AcDbEntity
  8
2D
100
AcDbSpline
210
0.0
220
0.0
230
1.0
 70
     8
 71
     3
 72
     8
 73
     4
 74
     0
 42
0.0000000001
 43
0.0000000001
 40
-0.0890960788456217
 40
-0.0890960788456217
 40
-0.0890960788456217
 40
-0.0890960788456217
 40
0.0
 40
0.0
 40
0.0
 40
0.0
 10
703.1157822927162
 20
-3421.581446353812
 30
0.0
 10
703.1165880310982
 20
-3421.551746995704
 30
0.0
 10
703.116558763013
 20
-3421.521717918942
 30
0.0
 10
703.1157387111889
 20
-3421.49201937442
 30
0.0
  0
LINE
  5
78
330
1F
100
AcDbEntity
  8
2D
100
AcDbLine
 10
703.1157387111889
 20
-3421.49201937442
 30
0.0
 11
703.1155242647365
 21
-3421.061891629057
 31
0.0
  0
SPLINE
  5
79
330
1F
100
AcDbEntity
  8
2D
100
AcDbSpline
210
0.0
220
0.0
230
1.0
 70
     8
 71
     3
 72
     8
 73
     4
 74
     0
 42
0.0000000001
 43
0.0000000001
 40
-0.0914761870938028
 40
-0.0914761870938028
 40
-0.0914761870938028
 40
-0.0914761870938028
 40
0.0
 40
0.0
 40
0.0
 40
0.0
 10
703.1155242647365
 20
-3421.061891629057
 30
0.0
 10
703.1160698126623
 20
-3421.031399089808
 30
0.0
 10
703.1160382834896
 20
-3421.000519247967
 30
0.0
 10
703.1154773649832
 20
-3420.970027297593
 30
0.0
  0
LINE
  5
7A
330
1F
100
AcDbEntity
  8
2D
100
AcDbLine
 10
703.1154773649832
 20
-3420.970027297593
 30
0.0
 11
703.1152660619264
 21
-3420.566040557316
 31
0.0
  0
SPLINE
  5
7B
330
1F
100
AcDbEntity
  8
2D
100
AcDbSpline
210
0.0
220
0.0
230
1.0
 70
     8
 71
     3
 72
     8
 73
     4
 74
     0
 42
0.0000000001
 43
0.0000000001
 40
-0.0934173436911359
 40
-0.0934173436911359
 40
-0.0934173436911359
 40
-0.0934173436911359
 40
0.0
 40
0.0
 40
0.0
 40
0.0
 10
703.1152660619264
 20
-3420.566040557316
 30
0.0
 10
703.1155511636862
 20
-3420.534901177504
 30
0.0
 10
703.1155172713989
 20
-3420.503309214536
 30
0.0
 10
703.1152157066608
 20
-3420.472170176646
 30
0.0
  0
LINE
  5
7C
330
1F
100
AcDbEntity
  8
2D
100
AcDbLine
 10
703.1152157066608
 20
-3420.472170176646
 30
0.0
 11
703.1149477162107
 21
-3419.998839747522
 31
0.0
  0
LINE
  5
7D
330
1F
100
AcDbEntity
  8
2D
100
AcDbLine
 10
1073.830088239622
 20
-3509.832476040988
 30
0.0
 11
1072.975022439256
 21
-3528.964949950013
 31
0.0
  0
LINE
  5
7E
330
1F
100
AcDbEntity
  8
2D
100
AcDbLine
 10
1552.794591409242
 20
-3615.013021318344
 30
0.0
 11
1530.941215956904
 21
-3676.384673237495
 31
0.0
  0
SPLINE
  5
7F
330
1F
100
AcDbEntity
  8
2D
100
AcDbSpline
210
0.0
220
0.0
230
1.0
 70
     8
 71
     3
 72
     8
 73
     4
 74
     0
 42
0.0000000001
 43
0.0000000001
 40
0.0
 40
0.0
 40
0.0
 40
0.0
 40
0.2917738587502139
 40
0.2917738587502139
 40
0.2917738587502139
 40
0.2917738587502139
 10
1552.57306003831
 20
-3620.553543764544
 30
0.0
 10
1552.586267449555
 20
-3620.457186752895
 30
0.0
 10
1552.599310604583
 20
-3620.360807084402
 30
0.0
 10
1552.612189389663
 20
-3620.264405599453
 30
0.0
  0
SPLINE
  5
80
330
1F
100
AcDbEntity
  8
2D
100
AcDbSpline
210
0.0
220
0.0
230
1.0
 70
     8
 71
     3
 72
     8
 73
     4
 74
     0
 42
0.0000000001
 43
0.0000000001
 40
-0.5283562162826928
 40
-0.5283562162826928
 40
-0.5283562162826928
 40
-0.5283562162826928
 40
0.0
 40
0.0
 40
0.0
 40
0.0
 10
1552.612189389663
 20
-3620.264405599453
 30
0.0
 10
1552.635508363852
 20
-3620.089837459217
 30
0.0
 10
1552.659345169763
 20
-3619.906912970045
 30
0.0
 10
1552.681486681075
 20
-3619.732191581487
 30
0.0
  0
SPLINE
  5
81
330
1F
100
AcDbEntity
  8
2D
100
AcDbSpline
210
0.0
220
0.0
230
1.0
 70
     8
 71
     3
 72
     8
 73
     4
 74
     0
 42
0.0000000001
 43
0.0000000001
 40
0.0
 40
0.0
 40
0.0
 40
0.0
 40
0.1760783981381069
 40
0.1760783981381069
 40
0.1760783981381069
 40
0.1760783981381069
 10
1552.681486681075
 20
-3619.732191581487
 30
0.0
 10
1552.68886586537
 20
-3619.673964505842
 30
0.0
 10
1552.696176406254
 20
-3619.615728689821
 30
0.0
 10
1552.703418273246
 20
-3619.557484376267
 30
0.0
  0
SPLINE
  5
82
330
1F
100
AcDbEntity
  8
2D
100
AcDbSpline
210
0.0
220
0.0
230
1.0
 70
     8
 71
     3
 72
     8
 73
     4
 74
     0
 42
0.0000000001
 43
0.0000000001
 40
-0.2209371548767934
 40
-0.2209371548767934
 40
-0.2209371548767934
 40
-0.2209371548767934
 40
0.0
 40
0.0
 40
0.0
 40
0.0
 10
1552.703418273246
 20
-3619.557484376267
 30
0.0
 10
1552.712504650874
 20
-3619.48440134428
 30
0.0
 10
1552.721667307967
 20
-3619.409782137911
 30
0.0
 10
1552.730527621141
 20
-3619.336671354349
 30
0.0
  0
SPLINE
  5
83
330
1F
100
AcDbEntity
  8
2D
100
AcDbSpline
210
0.0
220
0.0
230
1.0
 70
     8
 71
     3
 72
     8
 73
     4
 74
     0
 42
0.0000000001
 43
0.0000000001
 40
0.0
 40
0.0
 40
0.0
 40
0.0
 40
0.4605390331665963
 40
0.4605390331665963
 40
0.4605390331665963
 40
0.4605390331665963
 10
1552.730527621141
 20
-3619.336671354349
 30
0.0
 10
1552.74900459217
 20
-3619.184274352723
 30
0.0
 10
1552.766960397465
 20
-3619.031812848481
 30
0.0
 10
1552.784394311366
 20
-3618.879293003184
 30
0.0
  0
SPLINE
  5
84
330
1F
100
AcDbEntity
  8
2D
100
AcDbSpline
210
0.0
220
0.0
230
1.0
 70
     8
 71
     3
 72
     8
 73
     4
 74
     0
 42
0.0000000001
 43
0.0000000001
 40
-0.6402022353936065
 40
-0.6402022353936065
 40
-0.6402022353936065
 40
-0.6402022353936065
 40
0.0
 40
0.0
 40
0.0
 40
0.0
 10
1552.784394311366
 20
-3618.879293003184
 30
0.0
 10
1552.808618318049
 20
-3618.667271599729
 30
0.0
 10
1552.833178490764
 20
-3618.442174393801
 30
0.0
 10
1552.855092412294
 20
-3618.229901790609
 30
0.0
  0
SPLINE
  5
85
330
1F
100
AcDbEntity
  8
2D
100
AcDbSpline
210
0.0
220
0.0
230
1.0
 70
     8
 71
     3
 72
     8
 73
     4
 74
     0
 42
0.0000000001
 43
0.0000000001
 40
0.0
 40
0.0
 40
0.0
 40
0.0
 40
0.6234519434330268
 40
0.6234519434330268
 40
0.6234519434330268
 40
0.6234519434330268
 10
1552.855092412294
 20
-3618.229901790609
 30
0.0
 10
1552.876462506534
 20
-3618.023186151944
 30
0.0
 10
1552.896594983024
 20
-3617.816337830892
 30
0.0
 10
1552.915487484293
 20
-3617.609381048949
 30
0.0
  0
SPLINE
  5
86
330
1F
100
AcDbEntity
  8
2D
100
AcDbSpline
210
0.0
220
0.0
230
1.0
 70
     8
 71
     3
 72
     8
 73
     4
 74
     0
 42
0.0000000001
 43
0.0000000001
 40
-0.4327989281770718
 40
-0.4327989281770718
 40
-0.4327989281770718
 40
-0.4327989281770718
 40
0.0
 40
0.0
 40
0.0
 40
0.0
 10
1552.915487484293
 20
-3617.609381048949
 30
0.0
 10
1552.928581338449
 20
-3617.465710178523
 30
0.0
 10
1552.94162191392
 20
-3617.315047561238
 30
0.0
 10
1552.953333843088
 20
-3617.171257440782
 30
0.0
  0
SPLINE
  5
87
330
1F
100
AcDbEntity
  8
2D
100
AcDbSpline
210
0.0
220
0.0
230
1.0
 70
     8
 71
     3
 72
     8
 73
     4
 74
     0
 42
0.0000000001
 43
0.0000000001
 40
0.0
 40
0.0
 40
0.0
 40
0.0
 40
0.1539421803952468
 40
0.1539421803952468
 40
0.1539421803952468
 40
0.1539421803952468
 10
1552.953333843088
 20
-3617.171257440782
 30
0.0
 10
1552.957500290078
 20
-3617.120112807763
 30
0.0
 10
1552.961573834367
 20
-3617.068960521567
 30
0.0
 10
1552.965554435632
 20
-3617.017801088607
 30
0.0
  0
SPLINE
  5
88
330
1F
100
AcDbEntity
  8
2D
100
AcDbSpline
210
0.0
220
0.0
230
1.0
 70
     8
 71
     3
 72
     8
 73
     4
 74
     0
 42
0.0000000001
 43
0.0000000001
 40
-0.1726321633613805
 40
-0.1726321633613805
 40
-0.1726321633613805
 40
-0.1726321633613805
 40
0.0
 40
0.0
 40
0.0
 40
0.0
 10
1552.965554435632
 20
-3617.017801088607
 30
0.0
 10
1552.970017601085
 20
-3616.960430378683
 30
0.0
 10
1552.974463439692
 20
-3616.901690399738
 30
0.0
 10
1552.978680264918
 20
-3616.844301057627
 30
0.0
  0
SPLINE
  5
89
330
1F
100
AcDbEntity
  8
2D
100
AcDbSpline
210
0.0
220
0.0
230
1.0
 70
     8
 71
     3
 72
     8
 73
     4
 74
     0
 42
0.0000000001
 43
0.0000000001
 40
0.0
 40
0.0
 40
0.0
 40
0.0
 40
0.3271196397074985
 40
0.3271196397074985
 40
0.3271196397074985
 40
0.3271196397074985
 10
1552.978680264918
 20
-3616.844301057627
 30
0.0
 10
1552.986677993133
 20
-3616.735554877223
 30
0.0
 10
1552.994204819726
 20
-3616.626773039042
 30
0.0
 10
1553.001260321169
 20
-3616.517961664068
 30
0.0
  0
SPLINE
  5
8A
330
1F
100
AcDbEntity
  8
2D
100
AcDbSpline
210
0.0
220
0.0
230
1.0
 70
     8
 71
     3
 72
     8
 73
     4
 74
     0
 42
0.0000000001
 43
0.0000000001
 40
-0.0626641099091497
 40
-0.0626641099091497
 40
-0.0626641099091497
 40
-0.0626641099091497
 40
0.0
 40
0.0
 40
0.0
 40
0.0
 10
1553.001260321169
 20
-3616.517961664068
 30
0.0
 10
1553.002610465686
 20
-3616.497117309695
 30
0.0
 10
1553.003954746298
 20
-3616.476078925682
 30
0.0
 10
1553.00522235467
 20
-3616.455229338763
 30
0.0
  0
SPLINE
  5
8B
330
1F
100
AcDbEntity
  8
2D
100
AcDbSpline
210
0.0
220
0.0
230
1.0
 70
     8
 71
     3
 72
     8
 73
     4
 74
     0
 42
0.0000000001
 43
0.0000000001
 40
-1.104589187541931
 40
-1.104589187541931
 40
-1.104589187541931
 40
-1.104589187541931
 40
0.0
 40
0.0
 40
0.0
 40
0.0
 10
1553.00522235467
 20
-3616.455229338763
 30
0.0
 10
1553.028678667175
 20
-3616.087780869836
 30
0.0
 10
1553.04534413357
 20
-3615.71983417605
 30
0.0
 10
1553.055223504278
 20
-3615.351770257975
 30
0.0
  0
SPLINE
  5
8C
330
1F
100
AcDbEntity
  8
2D
100
AcDbSpline
210
0.0
220
0.0
230
1.0
 70
     8
 71
     3
 72
     8
 73
     4
 74
     0
 42
0.0000000001
 43
0.0000000001
 40
0.0
 40
0.0
 40
0.0
 40
0.0
 40
0.4095926317346011
 40
0.4095926317346011
 40
0.4095926317346011
 40
0.4095926317346011
 10
1553.055223504278
 20
-3615.351770257975
 30
0.0
 10
1553.058787853814
 20
-3615.215285871814
 30
0.0
 10
1553.061044617207
 20
-3615.078761073679
 30
0.0
 10
1553.062037347645
 20
-3614.942233801417
 30
0.0
  0
SPLINE
  5
8D
330
1F
100
AcDbEntity
  8
2D
100
AcDbSpline
210
0.0
220
0.0
230
1.0
 70
     8
 71
     3
 72
     8
 73
     4
 74
     0
 42
0.0000000001
 43
0.0000000001
 40
-0.1217993333685048
 40
-0.1217993333685048
 40
-0.1217993333685048
 40
-0.1217993333685048
 40
0.0
 40
0.0
 40
0.0
 40
0.0
 10
1553.062037347645
 20
-3614.942233801417
 30
0.0
 10
1553.06232062868
 20
-3614.901635005207
 30
0.0
 10
1553.062507515875
 20
-3614.861035302366
 30
0.0
 10
1553.062574281012
 20
-3614.820435465095
 30
0.0
  0
SPLINE
  5
8E
330
1F
100
AcDbEntity
  8
2D
100
AcDbSpline
210
0.0
220
0.0
230
1.0
 70
     8
 71
     3
 72
     8
 73
     4
 74
     0
 42
0.0000000001
 43
0.0000000001
 40
0.0
 40
0.0
 40
0.0
 40
0.0
 40
0.324178502344162
 40
0.324178502344162
 40
0.324178502344162
 40
0.324178502344162
 10
1553.062574281012
 20
-3614.820435465095
 30
0.0
 10
1553.062724584754
 20
-3614.712375965914
 30
0.0
 10
1553.061920902244
 20
-3614.604311044185
 30
0.0
 10
1553.060251679097
 20
-3614.496264412242
 30
0.0
  0
SPLINE
  5
8F
330
1F
100
AcDbEntity
  8
2D
100
AcDbSpline
210
0.0
220
0.0
230
1.0
 70
     8
 71
     3
 72
     8
 73
     4
 74
     0
 42
0.0000000001
 43
0.0000000001
 40
-0.1701298720285923
 40
-0.1701298720285923
 40
-0.1701298720285923
 40
-0.1701298720285923
 40
0.0
 40
0.0
 40
0.0
 40
0.0
 10
1553.060251679097
 20
-3614.496264412242
 30
0.0
 10
1553.059444331007
 20
-3614.439560126753
 30
0.0
 10
1553.058254193675
 20
-3614.382861128913
 30
0.0
 10
1553.056628782739
 20
-3614.326174138525
 30
0.0
  0
SPLINE
  5
90
330
1F
100
AcDbEntity
  8
2D
100
AcDbSpline
210
0.0
220
0.0
230
1.0
 70
     8
 71
     3
 72
     8
 73
     4
 74
     0
 42
0.0000000001
 43
0.0000000001
 40
0.0
 40
0.0
 40
0.0
 40
0.0
 40
0.6349152784625002
 40
0.6349152784625002
 40
0.6349152784625002
 40
0.6349152784625002
 10
1553.056628782739
 20
-3614.326174138525
 30
0.0
 10
1553.051084625251
 20
-3614.114608231212
 30
0.0
 10
1553.040606476687
 20
-3613.903089237998
 30
0.0
 10
1553.025073359204
 20
-3613.69202160503
 30
0.0
  0
SPLINE
  5
91
330
1F
100
AcDbEntity
  8
2D
100
AcDbSpline
210
0.0
220
0.0
230
1.0
 70
     8
 71
     3
 72
     8
 73
     4
 74
     0
 42
0.0000000001
 43
0.0000000001
 40
-0.2388664628746158
 40
-0.2388664628746158
 40
-0.2388664628746158
 40
-0.2388664628746158
 40
0.0
 40
0.0
 40
0.0
 40
0.0
 10
1553.025073359204
 20
-3613.69202160503
 30
0.0
 10
1553.019114202416
 20
-3613.612622764332
 30
0.0
 10
1553.011727538189
 20
-3613.526922112127
 30
0.0
 10
1553.003871196193
 20
-3613.447688499661
 30
0.0
  0
SPLINE
  5
92
330
1F
100
AcDbEntity
  8
2D
100
AcDbSpline
210
0.0
220
0.0
230
1.0
 70
     8
 71
     3
 72
     8
 73
     4
 74
     0
 42
0.0000000001
 43
0.0000000001
 40
0.0
 40
0.0
 40
0.0
 40
0.0
 40
0.050966372771375
 40
0.050966372771375
 40
0.050966372771375
 40
0.050966372771375
 10
1553.003871196193
 20
-3613.447688499661
 30
0.0
 10
1553.002195172667
 20
-3613.430782584654
 30
0.0
 10
1553.000472892214
 20
-3613.413881191595
 30
0.0
 10
1552.998704393067
 20
-3613.396984695712
 30
0.0
  0
SPLINE
  5
93
330
1F
100
AcDbEntity
  8
2D
100
AcDbSpline
210
0.0
220
0.0
230
1.0
 70
     8
 71
     3
 72
     8
 73
     4
 74
     0
 42
0.0000000001
 43
0.0000000001
 40
-0.0630953555503962
 40
-0.0630953555503962
 40
-0.0630953555503962
 40
-0.0630953555503962
 40
0.0
 40
0.0
 40
0.0
 40
0.0
 10
1552.998704393067
 20
-3613.396984695712
 30
0.0
 10
1552.996514695122
 20
-3613.376067205646
 30
0.0
 10
1552.994202256265
 20
-3613.354694056773
 30
0.0
 10
1552.992040512854
 20
-3613.333772749081
 30
0.0
  0
SPLINE
  5
94
330
1F
100
AcDbEntity
  8
2D
100
AcDbSpline
210
0.0
220
0.0
230
1.0
 70
     8
 71
     3
 72
     8
 73
     4
 74
     0
 42
0.0000000001
 43
0.0000000001
 40
-0.0835994418335908
 40
-0.0835994418335908
 40
-0.0835994418335908
 40
-0.0835994418335908
 40
0.0
 40
0.0
 40
0.0
 40
0.0
 10
1552.992040512854
 20
-3613.333772749081
 30
0.0
 10
1552.989095257202
 20
-3613.306061874431
 30
0.0
 10
1552.985834173374
 20
-3613.278386256693
 30
0.0
 10
1552.982300171665
 20
-3613.250744547405
 30
0.0
  0
SPLINE
  5
95
330
1F
100
AcDbEntity
  8
2D
100
AcDbSpline
210
0.0
220
0.0
230
1.0
 70
     8
 71
     3
 72
     8
 73
     4
 74
     0
 42
0.0000000001
 43
0.0000000001
 40
0.0
 40
0.0
 40
0.0
 40
0.0
 40
0.2049044145034568
 40
0.2049044145034568
 40
0.2049044145034568
 40
0.2049044145034568
 10
1552.982300171665
 20
-3613.250744547405
 30
0.0
 10
1552.973929554209
 20
-3613.18295797556
 30
0.0
 10
1552.964781941035
 20
-3613.115259602097
 30
0.0
 10
1552.954728548175
 20
-3613.047702234718
 30
0.0
  0
SPLINE
  5
96
330
1F
100
AcDbEntity
  8
2D
100
AcDbSpline
210
0.0
220
0.0
230
1.0
 70
     8
 71
     3
 72
     8
 73
     4
 74
     0
 42
0.0000000001
 43
0.0000000001
 40
-0.4829058610871004
 40
-0.4829058610871004
 40
-0.4829058610871004
 40
-0.4829058610871004
 40
0.0
 40
0.0
 40
0.0
 40
0.0
 10
1552.954728548175
 20
-3613.047702234718
 30
0.0
 10
1552.930019974548
 20
-3612.882068911321
 30
0.0
 10
1552.899735226893
 20
-3612.717986272927
 30
0.0
 10
1552.86120564794
 20
-3612.55490797485
 30
0.0
  0
SPLINE
  5
97
330
1F
100
AcDbEntity
  8
2D
100
AcDbSpline
210
0.0
220
0.0
230
1.0
 70
    12
 71
     3
 72
     9
 73
     5
 74
     0
 42
0.0000000001
 43
0.0000000001
 40
-1.490251186989929
 40
-1.490251186989929
 40
-1.490251186989929
 40
-1.490251186989929
 40
-0.9170675250515493
 40
0.0
 40
0.0
 40
0.0
 40
0.0
 10
1552.86120564794
 20
-3612.55490797485
 30
0.0
 41
1.0
 10
1552.803863463538
 20
-3612.296891384187
 30
0.0
 41
1.0
 10
1552.636853290172
 20
-3611.736982314513
 30
0.0
 41
1.0
 10
1552.531409988038
 20
-3611.521666983303
 30
0.0
 41
1.0
 10
1552.084851872467
 20
-3611.362506480454
 30
0.0
 41
1.0
  0
SPLINE
  5
98
330
1F
100
AcDbEntity
  8
2D
100
AcDbSpline
210
0.0
220
0.0
230
1.0
 70
     8
 71
     3
 72
    68
 73
    64
 74
     0
 42
0.0000000001
 43
0.0000000001
 40
-1790.427532904612
 40
-1790.427532904612
 40
-1790.427532904612
 40
-1790.427532904612
 40
-1762.78900955619
 40
-1762.78900955619
 40
-1756.02210747298
 40
-1756.02210747298
 40
-1749.217511658247
 40
-1749.217511658247
 40
-1742.345711380937
 40
-1742.345711380937
 40
-1735.344158858784
 40
-1735.344158858784
 40
-1679.277706968291
 40
-1679.277706968291
 40
-1567.144803187317
 40
-1567.144803187317
 40
-1344.167237385913
 40
-1344.167237385913
 40
-1120.938285279839
 40
-1120.938285279839
 40
-1065.143103572422
 40
-1065.143103572422
 40
-1051.197539634378
 40
-1051.197539634378
 40
-1034.861505930523
 40
-1034.861505930523
 40
-1006.942340362297
 40
-1006.942340362297
 40
-951.1356993946902
 40
-951.1356993946902
 40
-895.3252226804663
 40
-895.3252226804663
 40
-839.5219153420328
 40
-839.5219153420328
 40
-783.7155353301683
 40
-783.7155353301683
 40
-755.7944264793231
 40
-755.7944264793231
 40
-739.4980365214408
 40
-739.4980365214408
 40
-725.5485870731535
 40
-725.5485870731535
 40
-669.7507892800038
 40
-669.7507892800038
 40
-446.5792177859404
 40
-446.5792177859404
 40
-223.3224591576995
 40
-223.3224591576995
 40
-112.1924672585492
 40
-112.1924672585492
 40
-56.63311954240694
 40
-56.63311954240694
 40
-42.57918842792905
 40
-42.57918842792905
 40
-35.41169255491324
 40
-35.41169255491324
 40
-28.19476379294777
 40
-28.19476379294777
 40
-20.83694954339376
 40
-20.83694954339376
 40
-13.89129969629745
 40
-13.89129969629745
 40
0.0
 40
0.0
 40
0.0
 40
0.0
 10
1552.084851872467
 20
-3611.362506480454
 30
0.0
 10
1543.384289332938
 20
-3608.257529502624
 30
0.0
 10
1534.683726796105
 20
-3605.15255251726
 30
0.0
 10
1523.852954401307
 20
-3601.287365785121
 30
0.0
 10
1521.722744547202
 20
-3600.52715602753
 30
0.0
 10
1517.450458913925
 20
-3599.002501907351
 30
0.0
 10
1515.308383134558
 20
-3598.238057545329
 30
0.0
 10
1511.00307571952
 20
-3596.70161891312
 30
0.0
 10
1508.839844083857
 20
-3595.929624642917
 30
0.0
 10
1504.472535015066
 20
-3594.371059429549
 30
0.0
 10
1502.268457582075
 20
-3593.584488485999
 30
0.0
 10
1482.414751589262
 20
-3586.499279943117
 30
0.0
 10
1464.765123029414
 20
-3580.200642343861
 30
0.0
 10
1411.816237349874
 20
-3561.304729546092
 30
0.0
 10
1376.516980230179
 20
-3548.70745434758
 30
0.0
 10
1271.024745298007
 20
-3511.060352873442
 30
0.0
 10
1200.831767485532
 20
-3486.010526597819
 30
0.0
 10
1060.366675857618
 20
-3435.882632715486
 30
0.0
 10
990.094562042188
 20
-3410.804565108778
 30
0.0
 10
902.2582150826893
 20
-3379.45833503575
 30
0.0
 10
884.6939615753363
 20
-3373.190229631311
 30
0.0
 10
862.7397570210014
 20
-3365.355194529312
 30
0.0
 10
858.3497233935086
 20
-3363.78849623796
 30
0.0
 10
848.8170706954515
 20
-3360.386743151425
 30
0.0
 10
845.9332073957958
 20
-3359.344898237026
 30
0.0
 10
831.8907981744778
 20
-3354.688666131939
 30
0.0
 10
822.9606446307625
 20
-3352.042045069027
 30
0.0
 10
795.8845283164919
 20
-3344.951998434299
 30
0.0
 10
777.5513370220033
 20
-3341.386648091728
 30
0.0
 10
740.5445171102292
 20
-3336.618322345731
 30
0.0
 10
721.908116739778
 20
-3335.419974795562
 30
0.0
 10
684.5965227769047
 20
-3335.40839292701
 30
0.0
 10
665.9597102289808
 20
-3336.594994488324
 30
0.0
 10
628.9523329677104
 20
-3341.339540384374
 30
0.0
 10
610.6170307619686
 20
-3344.893204105005
 30
0.0
 10
583.5358694750139
 20
-3351.966212157687
 30
0.0
 10
574.6035072096747
 20
-3354.60755210511
 30
0.0
 10
560.5703608909498
 20
-3359.251688631327
 30
0.0
 10
557.6579756208412
 20
-3360.299271758277
 30
0.0
 10
548.1365733493512
 20
-3363.697182405666
 30
0.0
 10
543.7452811164185
 20
-3365.264306470869
 30
0.0
 10
521.7888199517365
 20
-3373.099926796876
 30
0.0
 10
504.2236510199909
 20
-3379.368423057678
 30
0.0
 10
416.4039826438675
 20
-3410.708700226655
 30
0.0
 10
346.1494831994896
 20
-3435.780481134826
 30
0.0
 10
205.6136673670226
 20
-3485.933613135896
 30
0.0
 10
135.3323509789334
 20
-3511.014964228796
 30
0.0
 10
30.06726895320753
 20
-3548.581000492708
 30
0.0
 10
-4.916496407360682
 20
-3561.065686440105
 30
0.0
 10
-57.39036729615691
 20
-3579.792078259924
 30
0.0
 10
-74.88047250193631
 20
-3586.033785035886
 30
0.0
 10
-96.7947597182756
 20
-3593.854356730018
 30
0.0
 10
-101.2189426227451
 20
-3595.433219143327
 30
0.0
 10
-107.899455930863
 20
-3597.817300505424
 30
0.0
 10
-110.1557863534654
 20
-3598.622519401103
 30
0.0
 10
-114.6840086597877
 20
-3600.238510724898
 30
0.0
 10
-116.9559005615374
 20
-3601.049283102492
 30
0.0
 10
-121.5440350096105
 20
-3602.68665582334
 30
0.0
 10
-123.8602795087754
 20
-3603.513250694462
 30
0.0
 10
-128.3630148771663
 20
-3605.120148142599
 30
0.0
 10
-130.549507924592
 20
-3605.900444615992
 30
0.0
 10
-137.1089873986057
 20
-3608.241333108716
 30
0.0
 10
-141.4819741562569
 20
-3609.801924200358
 30
0.0
 10
-145.8549613553259
 20
-3611.362514055084
 30
0.0
  0
SPLINE
  5
99
330
1F
100
AcDbEntity
  8
2D
100
AcDbSpline
210
0.0
220
0.0
230
1.0
 70
    12
 71
     3
 72
     9
 73
     5
 74
     0
 42
0.0000000001
 43
0.0000000001
 40
-1.423007303928661
 40
-1.423007303928661
 40
-1.423007303928661
 40
-1.423007303928661
 40
-0.4897354048900554
 40
0.0
 40
0.0
 40
0.0
 40
0.0
 10
-145.8549613553259
 20
-3611.362514055084
 30
0.0
 41
1.0
 10
-146.3015187655437
 20
-3611.521674232502
 30
0.0
 41
1.0
 10
-146.4004549345445
 20
-3611.723703678703
 30
0.0
 41
1.0
 10
-146.5535947278913
 20
-3612.229114497572
 30
0.0
 41
1.0
 10
-146.6037472448879
 20
-3612.433954784402
 30
0.0
 41
1.0
  0
SPLINE
  5
9A
330
1F
100
AcDbEntity
  8
2D
100
AcDbSpline
210
0.0
220
0.0
230
1.0
 70
    12
 71
     3
 72
    18
 73
    14
 74
     0
 42
0.0000000001
 43
0.0000000001
 40
-177.6987901674374
 40
-177.6987901674374
 40
-177.6987901674374
 40
-177.6987901674374
 40
-45.08649629975715
 40
-45.08649629975715
 40
-45.08649629975715
 40
-23.44733560211383
 40
-23.44733560211383
 40
-23.44733560211383
 40
-17.56290672596527
 40
-17.56290672596527
 40
-11.69352626882505
 40
-11.69352626882505
 40
0.0
 40
0.0
 40
0.0
 40
0.0
 10
1297.829688074351
 20
-5619.763450655753
 30
0.0
 41
1.0
 10
1340.578017126762
 20
-5631.369859578001
 30
0.0
 41
1.0
 10
1383.326346179176
 20
-5642.976268500248
 30
0.0
 41
1.0
 10
1426.07467523159
 20
-5654.582677422494
 30
0.0
 41
1.0
 10
1433.050182063889
 20
-5656.476566295586
 30
0.0
 41
1.0
 10
1440.032815886439
 20
-5658.451207026709
 30
0.0
 41
1.0
 10
1447.004232458756
 20
-5660.520217237973
 30
0.0
 41
1.0
 10
1448.902890624904
 20
-5661.083697162031
 30
0.0
 41
1.0
 10
1450.799399989501
 20
-5661.585189505356
 30
0.0
 41
1.0
 10
1454.594790364903
 20
-5662.450943580668
 30
0.0
 41
1.0
 10
1456.491655727761
 20
-5662.8175342197
 30
0.0
 41
1.0
 10
1462.175536212249
 20
-5663.725293005978
 30
0.0
 41
1.0
 10
1465.96007827386
 20
-5664.077374383137
 30
0.0
 41
1.0
 10
1469.752124725434
 20
-5664.202154301175
 30
0.0
 41
1.0
  0
LINE
  5
9B
330
1F
100
AcDbEntity
  8
2D
100
AcDbLine
 10
1529.346266986489
 20
-5646.164631070284
 30
0.0
 11
1529.356552772333
 21
-5646.192354872259
 31
0.0
  0
LINE
  5
9C
330
1F
100
AcDbEntity
  8
2D
100
AcDbLine
 10
1073.760700367908
 20
-5823.504308922636
 30
0.0
 11
1095.65680454117
 21
-5884.86013538381
 31
0.0
  0
LINE
  5
9D
330
1F
100
AcDbEntity
  8
2D
100
AcDbLine
 10
1073.760700367908
 20
-3509.832476040988
 30
0.0
 11
1095.65680454117
 21
-3448.476649579813
 31
0.0
  0
LINE
  5
9E
330
1F
100
AcDbEntity
  8
2D
100
AcDbLine
 10
703.1149477162107
 20
-3430.389649934402
 30
0.0
 11
703.1149477162107
 21
-3447.974323859237
 31
0.0
  0
LINE
  5
9F
330
1F
100
AcDbEntity
  8
2D
100
AcDbLine
 10
1552.794591409242
 20
-5718.32376364528
 30
0.0
 11
1530.941215956904
 21
-5656.952111726128
 31
0.0
  0
LINE
  5
A0
330
1F
100
AcDbEntity
  8
2D
100
AcDbLine
 10
1073.830088239629
 20
-5823.504308922636
 30
0.0
 11
1072.975022439256
 21
-5804.37183501361
 31
0.0
  0
LINE
  5
A1
330
1F
100
AcDbEntity
  8
2D
100
AcDbLine
 10
1529.346266986489
 20
-3687.17215389334
 30
0.0
 11
1529.356552772333
 21
-3687.144430091364
 31
0.0
  0
LINE
  5
A2
330
1F
100
AcDbEntity
  8
2D
100
AcDbLine
 10
-146.4952841350678
 20
-5718.32376364528
 30
0.0
 11
-124.64190868273
 21
-5656.952111726128
 31
0.0
  0
SPLINE
  5
A3
330
1F
100
AcDbEntity
  8
2D
100
AcDbSpline
210
0.0
220
0.0
230
1.0
 70
     8
 71
     3
 72
     8
 73
     4
 74
     0
 42
0.0000000001
 43
0.0000000001
 40
-0.5963446416090349
 40
-0.5963446416090349
 40
-0.5963446416090349
 40
-0.5963446416090349
 40
0.0
 40
0.0
 40
0.0
 40
0.0
 10
-123.8177328638885
 20
-5648.0170926274
 30
0.0
 10
-123.8514211552647
 20
-5648.212998733819
 30
0.0
 10
-123.881779913223
 20
-5648.409511283406
 30
0.0
 10
-123.9087813530896
 20
-5648.606450425665
 30
0.0
  0
SPLINE
  5
A4
330
1F
100
AcDbEntity
  8
2D
100
AcDbSpline
210
0.0
220
0.0
230
1.0
 70
     8
 71
     3
 72
     8
 73
     4
 74
     0
 42
0.0000000001
 43
0.0000000001
 40
-3.234894047879401
 40
-3.234894047879401
 40
-3.234894047879401
 40
-3.234894047879401
 40
0.0
 40
0.0
 40
0.0
 40
0.0
 10
767.5543275697164
 20
-5253.831165345127
 30
0.0
 10
766.4888068340006
 20
-5253.996671154629
 30
0.0
 10
765.4226360973589
 20
-5254.158061306147
 30
0.0
 10
764.3558681477516
 20
-5254.315327808976
 30
0.0
  0
LINE
  5
A5
330
1F
100
AcDbEntity
  8
2D
100
AcDbLine
 10
703.1149477162107
 20
-5902.947135029221
 30
0.0
 11
703.1149477162107
 21
-5885.362461104385
 31
0.0
  0
SPLINE
  5
A6
330
1F
100
AcDbEntity
  8
2D
100
AcDbSpline
210
0.0
220
0.0
230
1.0
 70
     8
 71
     3
 72
    14
 73
    10
 74
     0
 42
0.0000000001
 43
0.0000000001
 40
0.0
 40
0.0
 40
0.0
 40
0.0
 40
13.61653833899538
 40
13.61653833899538
 40
13.61653833899538
 40
30.2282880701444
 40
37.7514455527738
 40
41.26008439473142
 40
44.64112933588046
 40
44.64112933588046
 40
44.64112933588046
 40
44.64112933588046
 10
1405.198304656071
 20
-5469.280553597184
 30
0.0
 10
1409.524421558777
 20
-5467.907843034603
 30
0.0
 10
1413.85053846148
 20
-5466.535132472021
 30
0.0
 10
1418.176655364186
 20
-5465.16242190944
 30
0.0
 10
1423.454382309636
 20
-5463.487758074095
 30
0.0
 10
1431.203928600688
 20
-5461.298911327869
 30
0.0
 10
1440.226288509271
 20
-5459.408535521591
 30
0.0
 10
1444.965014880301
 20
-5458.613055237507
 30
0.0
 10
1447.240277041416
 20
-5458.297700342073
 30
0.0
 10
1448.359103253752
 20
-5458.161486591451
 30
0.0
  0
SPLINE
  5
A7
330
1F
100
AcDbEntity
  8
2D
100
AcDbSpline
210
0.0
220
0.0
230
1.0
 70
    12
 71
     3
 72
    11
 73
     7
 74
     0
 42
0.0000000001
 43
0.0000000001
 40
-1.081964314689437
 40
-1.081964314689437
 40
-1.081964314689437
 40
-1.081964314689437
 40
0.0000000000072595
 40
0.0000000000072595
 40
0.0000000000072595
 40
4.341367366405121
 40
4.341367366405121
 40
4.341367366405121
 40
4.341367366405121
 10
1448.359103253752
 20
-5458.161486591451
 30
0.0
 41
1.0
 10
1448.717437996627
 20
-5458.120626947415
 30
0.0
 41
1.0
 10
1449.075740685115
 20
-5458.079504597344
 30
0.0
 41
1.0
 10
1449.4340433736
 20
-5458.038382247271
 30
0.0
 41
1.0
 10
1450.874390860995
 20
-5457.888400032249
 30
0.0
 41
0.9990886268925581
 10
1452.320609017789
 20
-5457.813911159335
 30
0.0
 41
0.9990886268925507
 10
1453.768743710948
 20
-5457.815119289999
 30
0.0
 41
0.999999999999977
  0
SPLINE
  5
A8
330
1F
100
AcDbEntity
  8
2D
100
AcDbSpline
210
0.0
220
0.0
230
1.0
 70
    12
 71
     3
 72
    18
 73
    14
 74
     0
 42
0.0000000001
 43
0.0000000001
 40
-7.743961080511674
 40
-7.743961080511674
 40
-7.743961080511674
 40
-7.743961080511674
 40
-6.084540848991761
 40
-6.084540848991761
 40
-3.87198054026744
 40
-3.87198054026744
 40
-1.659420231543216
 40
-1.659420231543216
 40
-0.5531400771811039
 40
-0.5531400771811039
 40
-0.276570038590552
 40
-0.276570038590552
 40
0.0
 40
0.0
 40
0.0
 40
0.0
 10
1453.768743710949
 20
-5457.815119289998
 30
0.0
 41
1.0
 10
1454.633962412536
 20
-5457.825842337701
 30
0.0
 41
1.0
 10
1455.430446146565
 20
-5457.876638469451
 30
0.0
 41
1.0
 10
1457.106950054778
 20
-5458.086639239519
 30
0.0
 41
1.0
 10
1457.929062969681
 20
-5458.275814801304
 30
0.0
 41
1.0
 10
1459.282046782017
 20
-5458.787477355526
 30
0.0
 41
1.0
 10
1459.810169674023
 20
-5459.107192386063
 30
0.0
 41
1.0
 10
1460.371688673582
 20
-5459.68144752995
 30
0.0
 41
1.0
 10
1460.528749912995
 20
-5459.886133140221
 30
0.0
 41
1.0
 10
1460.647408750981
 20
-5460.162566056843
 30
0.0
 41
1.0
 10
1460.731469506489
 20
-5460.217110627143
 30
0.0
 41
1.0
 10
1460.56459272758
 20
-5460.334053175839
 30
0.0
 41
1.0
 10
1460.645566556039
 20
-5460.390434913043
 30
0.0
 41
1.0
 10
1460.660523528291
 20
-5460.448000026943
 30
0.0
 41
1.0
  0
SPLINE
  5
A9
330
1F
100
AcDbEntity
  8
2D
100
AcDbSpline
210
0.0
220
0.0
230
1.0
 70
     8
 71
     3
 72
    14
 73
    10
 74
     0
 42
0.0000000001
 43
0.0000000001
 40
0.0
 40
0.0
 40
0.0
 40
0.0
 40
13.61653833899766
 40
13.61653833899766
 40
13.61653833899766
 40
30.22828807014945
 40
37.75144555278011
 40
41.26008439473831
 40
44.64112933589153
 40
44.64112933589153
 40
44.64112933589153
 40
44.64112933589153
 10
1405.198304656071
 20
-3864.05623136644
 30
0.0
 10
1409.524421558777
 20
-3865.428941929021
 30
0.0
 10
1413.85053846148
 20
-3866.801652491602
 30
0.0
 10
1418.176655364186
 20
-3868.174363054183
 30
0.0
 10
1423.454382309636
 20
-3869.849026889528
 30
0.0
 10
1431.203928600688
 20
-3872.037873635755
 30
0.0
 10
1440.226288509271
 20
-3873.928249442032
 30
0.0
 10
1444.965014880301
 20
-3874.723729726116
 30
0.0
 10
1447.240277041416
 20
-3875.039084621551
 30
0.0
 10
1448.359103253755
 20
-3875.175298372172
 30
0.0
  0
SPLINE
  5
AA
330
1F
100
AcDbEntity
  8
2D
100
AcDbSpline
210
0.0
220
0.0
230
1.0
 70
    12
 71
     3
 72
    11
 73
     7
 74
     0
 42
0.0000000001
 43
0.0000000001
 40
-1.081964314689597
 40
-1.081964314689597
 40
-1.081964314689597
 40
-1.081964314689597
 40
0.0000000000072595
 40
0.0000000000072595
 40
0.0000000000072595
 40
4.341367366404288
 40
4.341367366404288
 40
4.341367366404288
 40
4.341367366404288
 10
1448.359103253755
 20
-3875.175298372172
 30
0.0
 41
1.0
 10
1448.717437996627
 20
-3875.216158016207
 30
0.0
 41
1.0
 10
1449.075740685115
 20
-3875.257280366281
 30
0.0
 41
1.0
 10
1449.4340433736
 20
-3875.298402716352
 30
0.0
 41
1.0
 10
1450.874390861003
 20
-3875.448384931372
 30
0.0
 41
0.9990886268925583
 10
1452.320609017776
 20
-3875.522873804287
 30
0.0
 41
0.9990886268925503
 10
1453.768743710948
 20
-3875.521665673626
 30
0.0
 41
0.999999999999977
  0
SPLINE
  5
AB
330
1F
100
AcDbEntity
  8
2D
100
AcDbSpline
210
0.0
220
0.0
230
1.0
 70
    12
 71
     3
 72
    18
 73
    14
 74
     0
 42
0.0000000001
 43
0.0000000001
 40
-7.743961080505178
 40
-7.743961080505178
 40
-7.743961080505178
 40
-7.743961080505178
 40
-6.084540848986656
 40
-6.084540848986656
 40
-3.871980540264192
 40
-3.871980540264192
 40
-1.659420231541824
 40
-1.659420231541824
 40
-0.5531400771806398
 40
-0.5531400771806398
 40
-0.2765700385903199
 40
-0.2765700385903199
 40
0.0
 40
0.0
 40
0.0
 40
0.0
 10
1453.768743710949
 20
-3875.521665673626
 30
0.0
 41
1.0
 10
1454.633962412536
 20
-3875.510942625922
 30
0.0
 41
1.0
 10
1455.430446146565
 20
-3875.460146494172
 30
0.0
 41
1.0
 10
1457.106950054778
 20
-3875.250145724104
 30
0.0
 41
1.0
 10
1457.929062969681
 20
-3875.060970162319
 30
0.0
 41
1.0
 10
1459.282046782017
 20
-3874.549307608097
 30
0.0
 41
1.0
 10
1459.810169674023
 20
-3874.229592577561
 30
0.0
 41
1.0
 10
1460.371688673582
 20
-3873.655337433674
 30
0.0
 41
1.0
 10
1460.528749912995
 20
-3873.450651823402
 30
0.0
 41
1.0
 10
1460.647408750981
 20
-3873.17421890678
 30
0.0
 41
1.0
 10
1460.731469506489
 20
-3873.119674336481
 30
0.0
 41
1.0
 10
1460.56459272758
 20
-3873.002731787784
 30
0.0
 41
1.0
 10
1460.645566556039
 20
-3872.94635005058
 30
0.0
 41
1.0
 10
1460.660523528291
 20
-3872.888784936681
 30
0.0
 41
1.0
  0
SPLINE
  5
AC
330
1F
100
AcDbEntity
  8
2D
100
AcDbSpline
210
0.0
220
0.0
230
1.0
 70
     8
 71
     3
 72
     8
 73
     4
 74
     0
 42
0.0000000001
 43
0.0000000001
 40
-19.4085403784757
 40
-19.4085403784757
 40
-19.4085403784757
 40
-19.4085403784757
 40
0.0
 40
0.0
 40
0.0
 40
0.0
 10
648.2823385991105
 20
-4078.133656217362
 30
0.0
 10
641.8683894870956
 20
-4078.979742117918
 30
0.0
 10
635.4753277403615
 20
-4079.972102101292
 30
0.0
 10
629.1068392921588
 20
-4081.110943503812
 30
0.0
  0
SPLINE
  5
AD
330
1F
100
AcDbEntity
  8
2D
100
AcDbSpline
210
0.0
220
0.0
230
1.0
 70
     8
 71
     3
 72
     8
 73
     4
 74
     0
 42
0.0000000001
 43
0.0000000001
 40
-19.91956369159498
 40
-19.91956369159498
 40
-19.91956369159498
 40
-19.91956369159498
 40
0.0
 40
0.0
 40
0.0
 40
0.0
 10
629.1068392921588
 20
-4081.110943503812
 30
0.0
 10
622.5708511233097
 20
-4082.280784242036
 30
0.0
 10
616.0608287305658
 20
-4083.606269936879
 30
0.0
 10
609.5875792224178
 20
-4085.084347168039
 30
0.0
  0
SPLINE
  5
AE
330
1F
100
AcDbEntity
  8
2D
100
AcDbSpline
210
0.0
220
0.0
230
1.0
 70
     8
 71
     3
 72
     8
 73
     4
 74
     0
 42
0.0000000001
 43
0.0000000001
 40
0.0
 40
0.0
 40
0.0
 40
0.0
 40
2.721593150865391
 40
2.721593150865391
 40
2.721593150865391
 40
2.721593150865391
 10
609.5875792224178
 20
-4085.084347168039
 30
0.0
 10
608.7030285225555
 20
-4085.285788130207
 30
0.0
 10
607.8192739675433
 20
-4085.490734495234
 30
0.0
 10
606.9363320412012
 20
-4085.699113122518
 30
0.0
  0
SPLINE
  5
AF
330
1F
100
AcDbEntity
  8
2D
100
AcDbSpline
210
0.0
220
0.0
230
1.0
 70
     8
 71
     3
 72
     8
 73
     4
 74
     0
 42
0.0000000001
 43
0.0000000001
 40
-14.64755726630053
 40
-14.64755726630053
 40
-14.64755726630053
 40
-14.64755726630053
 40
0.0
 40
0.0
 40
0.0
 40
0.0
 10
606.9363320412012
 20
-4085.699113122518
 30
0.0
 10
602.1837095961455
 20
-4086.817850310927
 30
0.0
 10
597.449713844253
 20
-4088.019154066733
 30
0.0
 10
592.7388655523428
 20
-4089.302470482419
 30
0.0
  0
SPLINE
  5
B0
330
1F
100
AcDbEntity
  8
2D
100
AcDbSpline
210
0.0
220
0.0
230
1.0
 70
     8
 71
     3
 72
    32
 73
    28
 74
     0
 42
0.0000000001
 43
0.0000000001
 40
-534.3873126592414
 40
-534.3873126592414
 40
-534.3873126592414
 40
-534.3873126592414
 40
-267.305115483117
 40
-267.305115483117
 40
-133.8893117243776
 40
-133.8893117243776
 40
-67.10535404857012
 40
-67.10535404857012
 40
-62.9376979107472
 40
-62.9376979107472
 40
-58.75537627050743
 40
-58.75537627050743
 40
-54.57126330992975
 40
-54.57126330992975
 40
-50.38833867070683
 40
-50.38833867070683
 40
-41.96461551906788
 40
-41.96461551906788
 40
-33.53742608993335
 40
-33.53742608993335
 40
-29.36004692165675
 40
-29.36004692165675
 40
-25.17686998808678
 40
-25.17686998808678
 40
-16.75308011916245
 40
-16.75308011916245
 40
0.0
 40
0.0
 40
0.0
 40
0.0
 10
592.7388655523428
 20
-4089.302470482419
 30
0.0
 10
506.7900675371166
 20
-4112.716365953973
 30
0.0
 10
420.8412695218904
 20
-4136.130261425527
 30
0.0
 10
291.9583931946763
 20
-4171.240120598473
 30
0.0
 10
249.0243148826812
 20
-4182.936084299867
 30
0.0
 10
184.5987221619253
 20
-4200.486697321697
 30
0.0
 10
163.1072077531608
 20
-4206.341346642133
 30
0.0
 10
140.2745143389293
 20
-4212.56135563912
 30
0.0
 10
138.9344136655527
 20
-4212.930650193859
 30
0.0
 10
136.2450766468501
 20
-4213.654407745275
 30
0.0
 10
134.8883986515284
 20
-4213.944758030986
 30
0.0
 10
132.1328207064398
 20
-4214.385120246795
 30
0.0
 10
130.7526658564893
 20
-4214.532610662915
 30
0.0
 10
127.9659607313006
 20
-4214.683402502937
 30
0.0
 10
126.5783454623306
 20
-4214.686046394576
 30
0.0
 10
122.3787850513436
 20
-4214.473954560054
 30
0.0
 10
119.6619849343224
 20
-4214.050054401563
 30
0.0
 10
114.2294066409049
 20
-4212.608018692937
 30
0.0
 10
111.6589250456382
 20
-4211.628734844331
 30
0.0
 10
107.9080100617466
 20
-4209.729424589596
 30
0.0
 10
106.7059607110932
 20
-4209.039752735874
 30
0.0
 10
104.362890995093
 20
-4207.527415713035
 30
0.0
 10
103.2377516850756
 20
-4206.715035668976
 30
0.0
 10
99.96174944183804
 20
-4204.078452643327
 30
0.0
 10
98.01148623905465
 20
-4202.140049307036
 30
0.0
 10
92.7045365753329
 20
-4195.631525355871
 30
0.0
 10
90.12049092680536
 20
-4190.606131807662
 30
0.0
 10
88.64982042562042
 20
-4185.215407628357
 30
0.0
  0
LINE
  5
B1
330
1F
100
AcDbEntity
  8
2D
100
AcDbLine
 10
88.64982042562042
 20
-4185.215407628357
 30
0.0
 11
40.78651379788062
 21
-4009.773061570418
 31
0.0
  0
LINE
  5
B2
330
1F
100
AcDbEntity
  8
2D
100
AcDbLine
 10
40.78651379788062
 20
-4009.773061570418
 30
0.0
 11
0.4625210353769944
 21
-3861.965975282284
 31
0.0
  0
SPLINE
  5
B3
330
1F
100
AcDbEntity
  8
2D
100
AcDbSpline
210
0.0
220
0.0
230
1.0
 70
     8
 71
     3
 72
    50
 73
    46
 74
     0
 42
0.0000000001
 43
0.0000000001
 40
-795.1690699939344
 40
-795.1690699939344
 40
-795.1690699939344
 40
-795.1690699939344
 40
-782.6940905142276
 40
-782.6940905142276
 40
-776.456600774377
 40
-776.456600774377
 40
-773.3378559044503
 40
-773.3378559044503
 40
-770.2385717221058
 40
-770.2385717221058
 40
-757.7426748144344
 40
-757.7426748144344
 40
-745.2439318319397
 40
-745.2439318319397
 40
-738.968546404793
 40
-738.968546404793
 40
-732.688386291005
 40
-732.688386291005
 40
-726.4104097484753
 40
-726.4104097484753
 40
-725.3808452757581
 40
-725.3808452757581
 40
-722.2697619690812
 40
-722.2697619690812
 40
-697.3810955157422
 40
-697.3810955157422
 40
-597.7329698349382
 40
-597.7329698349382
 40
-398.4198551605072
 40
-398.4198551605072
 40
-199.2993899551007
 40
-199.2993899551007
 40
-149.4680409687608
 40
-149.4680409687608
 40
-137.0102037221735
 40
-137.0102037221735
 40
-130.7812850988799
 40
-130.7812850988799
 40
-124.5569828329318
 40
-124.5569828329318
 40
-99.60146909230478
 40
-99.60146909230478
 40
-49.78234275543463
 40
-49.78234275543463
 40
0.0
 40
0.0
 40
0.0
 40
0.0
 10
0.4625210353769944
 20
-3861.965975282284
 30
0.0
 10
-0.6268328327169002
 20
-3857.972962434376
 30
0.0
 10
-1.716186700810795
 20
-3853.979949586473
 30
0.0
 10
-3.350217502949818
 20
-3847.990430314618
 30
0.0
 10
-3.894894436998584
 20
-3845.993923890667
 30
0.0
 10
-4.711909838068095
 20
-3842.99916425474
 30
0.0
 10
-4.984248305085202
 20
-3842.000911042763
 30
0.0
 10
-5.52722587158496
 20
-3840.010633629101
 30
0.0
 10
-5.811852042465034
 20
-3839.022991034555
 30
0.0
 10
-6.95515657398937
 20
-3833.971140785489
 30
0.0
 10
-7.069570626608765
 20
-3829.777473664342
 30
0.0
 10
-5.640038421555801
 20
-3821.595030277495
 30
0.0
 10
-4.108725059028075
 20
-3817.689399206482
 30
0.0
 10
-0.6794278747547651
 20
-3812.470763431595
 30
0.0
 10
0.6135461070407473
 20
-3810.889570812021
 30
0.0
 10
3.58290551261598
 20
-3807.952526033085
 30
0.0
 10
5.1786848801421
 20
-3806.676524171128
 30
0.0
 10
8.700570995461021
 20
-3804.4293996515
 30
0.0
 10
10.52895550132234
 20
-3803.519795545231
 30
0.0
 10
12.80859122798574
 20
-3802.67515535565
 30
0.0
 10
15.09472290921985
 20
-3801.87480252948
 30
0.0
 10
16.39423817266288
 20
-3801.418903432416
 30
0.0
 10
17.37063135031349
 20
-3801.076362809312
 30
0.0
 10
26.15816994917623
 20
-3797.993497201381
 30
0.0
 10
33.96931537038836
 20
-3795.253172216551
 30
0.0
 10
73.0543742454538
 20
-3781.541257050049
 30
0.0
 10
104.3282876993144
 20
-3770.569666868381
 30
0.0
 10
198.1553205014825
 20
-3737.653039616518
 30
0.0
 10
260.7084398497936
 20
-3715.708002546327
 30
0.0
 10
385.7542167687352
 20
-3671.839139753459
 30
0.0
 10
448.2468743393692
 20
-3649.915314030779
 30
0.0
 10
526.3787753462457
 20
-3622.504890988355
 30
0.0
 10
542.0180187824953
 20
-3617.018293668611
 30
0.0
 10
561.5670730778038
 20
-3610.160047018929
 30
0.0
 10
565.4768839368626
 20
-3608.788397688993
 30
0.0
 10
571.3416002254562
 20
-3606.730923694089
 30
0.0
 10
573.2965056549838
 20
-3606.045099029119
 30
0.0
 10
577.2048677004423
 20
-3604.673957975486
 30
0.0
 10
579.1568305215915
 20
-3603.984498464764
 30
0.0
 10
588.9702103967502
 20
-3600.630716962791
 30
0.0
 10
596.8916209657764
 20
-3598.212218479382
 30
0.0
 10
620.9046234945563
 20
-3591.737479926362
 30
0.0
 10
637.1856339734259
 20
-3588.480106691568
 30
0.0
 10
670.0273387155139
 20
-3584.133217884691
 30
0.0
 10
686.5575932158463
 20
-3583.044257949816
 30
0.0
 10
703.1155203083908
 20
-3583.04428280401
 30
0.0
  0
SPLINE
  5
B4
330
1F
100
AcDbEntity
  8
2D
100
AcDbSpline
210
0.0
220
0.0
230
1.0
 70
     8
 71
     3
 72
    88
 73
    84
 74
     0
 42
0.0000000001
 43
0.0000000001
 40
-1664.558897910158
 40
-1664.558897910158
 40
-1664.558897910158
 40
-1664.558897910158
 40
-1612.468016489565
 40
-1612.468016489565
 40
-1586.439700414933
 40
-1586.439700414933
 40
-1560.424265615558
 40
-1560.424265615558
 40
-1547.442614596961
 40
-1547.442614596961
 40
-1540.94711890645
 40
-1540.94711890645
 40
-1534.440749931018
 40
-1534.440749931018
 40
-1508.429981294757
 40
-1508.429981294757
 40
-1456.40844191248
 40
-1456.40844191248
 40
-1248.437287848445
 40
-1248.437287848445
 40
-1040.093135494797
 40
-1040.093135494797
 40
-988.132393397244
 40
-988.132393397244
 40
-962.1520297645274
 40
-962.1520297645274
 40
-949.1618500590341
 40
-949.1618500590341
 40
-942.6667607661137
 40
-942.6667607661137
 40
-939.419216263617
 40
-939.419216263617
 40
-935.7719008708549
 40
-935.7719008708549
 40
-929.2217171217387
 40
-929.2217171217387
 40
-922.6716108555374
 40
-922.6716108555374
 40
-916.1224435938277
 40
-916.1224435938277
 40
-909.5750396421379
 40
-909.5750396421379
 40
-896.5555067166368
 40
-896.5555067166368
 40
-893.3024820976342
 40
-893.3024820976342
 40
-891.6649897992934
 40
-891.6649897992934
 40
-890.041404196539
 40
-890.041404196539
 40
-883.5470617855232
 40
-883.5470617855232
 40
-831.5923224973873
 40
-831.5923224973873
 40
-623.4862203632692
 40
-623.4862203632692
 40
-571.4340340812745
 40
-571.4340340812745
 40
-545.4079409402785
 40
-545.4079409402785
 40
-538.901417655031
 40
-538.901417655031
 40
-535.6481560124045
 40
-535.6481560124045
 40
-533.2303541420126
 40
-533.2303541420126
 40
-520.2015465631364
 40
-520.2015465631364
 40
-507.1657062950568
 40
-507.1657062950568
 40
-494.1306540144441
 40
-494.1306540144441
 40
-481.0962393701472
 40
-481.0962393701472
 40
-474.557007410225
 40
-474.557007410225
 40
-471.2989830545
 40
-471.2989830545
 40
-468.0449123345816
 40
-468.0449123345816
 40
-415.9979790208233
 40
-415.9979790208233
 40
0.0
 40
0.0
 40
0.0
 40
0.0
 10
703.1155203083908
 20
-3583.04428280401
 30
0.0
 10
720.4785222797327
 20
-3583.044308903458
 30
0.0
 10
737.8118543585297
 20
-3584.242529438322
 30
0.0
 10
763.6031251981694
 20
-3587.823780545443
 30
0.0
 10
772.1299616456417
 20
-3589.308884108534
 30
0.0
 10
789.107179468836
 20
-3592.872742554266
 30
0.0
 10
797.5073829904795
 20
-3594.940529531785
 30
0.0
 10
810.0147428968994
 20
-3598.479940768941
 30
0.0
 10
814.1548885351258
 20
-3599.729056640313
 30
0.0
 10
820.3370555261135
 20
-3601.711104579354
 30
0.0
 10
822.3926890419716
 20
-3602.389746072637
 30
0.0
 10
826.4961948858145
 20
-3603.783631142628
 30
0.0
 10
828.5415327745795
 20
-3604.504191024742
 30
0.0
 10
838.7686031788289
 20
-3608.092063848671
 30
0.0
 10
846.9493342457899
 20
-3610.962037925989
 30
0.0
 10
871.4915277350738
 20
-3619.571961460053
 30
0.0
 10
887.8529897822518
 20
-3625.311911986127
 30
0.0
 10
969.6241276251785
 20
-3653.998981874776
 30
0.0
 10
1035.033796578657
 20
-3676.946120740883
 30
0.0
 10
1165.970438316992
 20
-3722.881580177324
 30
0.0
 10
1231.497411085602
 20
-3745.869900793912
 30
0.0
 10
1313.366717636196
 20
-3774.591482829534
 30
0.0
 10
1329.709053050836
 20
-3780.324739594759
 30
0.0
 10
1354.22255374294
 20
-3788.924624201962
 30
0.0
 10
1362.393719069114
 20
-3791.791251905121
 30
0.0
 10
1374.650466378251
 20
-3796.091193273189
 30
0.0
 10
1378.73604836933
 20
-3797.524506914979
 30
0.0
 10
1384.864421176837
 20
-3799.674477324558
 30
0.0
 10
1386.907211994781
 20
-3800.391134088016
 30
0.0
 10
1389.971398175792
 20
-3801.466119219121
 30
0.0
 10
1390.992793539168
 20
-3801.824447585866
 30
0.0
 10
1393.161317456885
 20
-3802.585214339077
 30
0.0
 10
1393.929613007582
 20
-3802.836604568575
 30
0.0
 10
1397.061468096712
 20
-3804.172595383649
 30
0.0
 10
1398.91893376963
 20
-3805.223491241234
 30
0.0
 10
1402.463984652808
 20
-3807.785463246447
 30
0.0
 10
1404.044174479714
 20
-3809.220471049178
 30
0.0
 10
1406.939926539959
 20
-3812.497381767504
 30
0.0
 10
1408.170233176668
 20
-3814.242877022647
 30
0.0
 10
1410.288254719922
 20
-3818.067204455075
 30
0.0
 10
1411.115844004788
 20
-3820.036871392576
 30
0.0
 10
1412.994607445835
 20
-3826.29137035959
 30
0.0
 10
1413.345704577125
 20
-3830.673738078461
 30
0.0
 10
1412.66835498502
 20
-3836.057744833727
 30
0.0
 10
1412.478836109491
 20
-3837.120090090593
 30
0.0
 10
1412.110746596401
 20
-3838.708844725715
 30
0.0
 10
1411.9696815793
 20
-3839.235834751764
 30
0.0
 10
1411.683570875419
 20
-3840.284569924309
 30
0.0
 10
1411.541125575517
 20
-3840.806701372525
 30
0.0
 10
1410.82889907603
 20
-3843.41735861361
 30
0.0
 10
1410.259117876441
 20
-3845.505884406479
 30
0.0
 10
1405.131087080135
 20
-3864.302616542293
 30
0.0
 10
1400.572837483422
 20
-3881.010822885238
 30
0.0
 10
1377.756396831879
 20
-3964.64419800633
 30
0.0
 10
1359.498205777047
 20
-4031.569366784474
 30
0.0
 10
1336.673215612471
 20
-4115.234080037622
 30
0.0
 10
1332.10641650272
 20
-4131.973624512626
 30
0.0
 10
1325.256217838105
 20
-4157.082941225132
 30
0.0
 10
1322.972818283233
 20
-4165.452713462635
 30
0.0
 10
1320.118568839644
 20
-4175.914928759512
 30
0.0
 10
1319.547718950929
 20
-4178.007371818887
 30
0.0
 10
1318.691444117852
 20
-4181.14603640795
 30
0.0
 10
1318.40601917349
 20
-4182.192257937638
 30
0.0
 10
1317.908468356654
 20
-4184.016024174514
 30
0.0
 10
1317.482789391499
 20
-4185.599154423509
 30
0.0
 10
1315.979071195568
 20
-4190.526743866296
 30
0.0
 10
1314.037783887892
 20
-4194.453574507553
 30
0.0
 10
1308.974498399137
 20
-4201.519879164482
 30
0.0
 10
1305.883048786545
 20
-4204.616696375383
 30
0.0
 10
1298.823062006741
 20
-4209.692561869809
 30
0.0
 10
1294.904499987271
 20
-4211.636187879593
 30
0.0
 10
1286.591766388807
 20
-4214.185319010931
 30
0.0
 10
1282.256143042476
 20
-4214.772780430562
 30
0.0
 10
1275.730503605726
 20
-4214.589463442339
 30
0.0
 10
1273.590933823849
 20
-4214.35420520602
 30
0.0
 10
1270.382660441624
 20
-4213.73459726907
 30
0.0
 10
1269.329487837997
 20
-4213.480665882889
 30
0.0
 10
1267.234596314189
 20
-4212.910900872889
 30
0.0
 10
1266.18825301795
 20
-4212.624482631457
 30
0.0
 10
1248.400322185935
 20
-4207.778757870084
 30
0.0
 10
1231.659084554154
 20
-4203.218169542283
 30
0.0
 10
1081.109367196113
 20
-4162.20595175774
 30
0.0
 10
947.3008874698498
 20
-4125.754322300995
 30
0.0
 10
813.4924077435862
 20
-4089.302692844255
 30
0.0
  0
SPLINE
  5
B5
330
1F
100
AcDbEntity
  8
2D
100
AcDbSpline
210
0.0
220
0.0
230
1.0
 70
     8
 71
     3
 72
     8
 73
     4
 74
     0
 42
0.0000000001
 43
0.0000000001
 40
-6.989760934361716
 40
-6.989760934361716
 40
-6.989760934361716
 40
-6.989760934361716
 40
0.0
 40
0.0
 40
0.0
 40
0.0
 10
813.4924077435862
 20
-4089.302692844255
 30
0.0
 10
811.2444118436943
 20
-4088.690285225262
 30
0.0
 10
808.9912498053054
 20
-4088.096467696164
 30
0.0
 10
806.7334002451062
 20
-4087.521451064294
 30
0.0
  0
SPLINE
  5
B6
330
1F
100
AcDbEntity
  8
2D
100
AcDbSpline
210
0.0
220
0.0
230
1.0
 70
     8
 71
     3
 72
     8
 73
     4
 74
     0
 42
0.0000000001
 43
0.0000000001
 40
-10.89313803096836
 40
-10.89313803096836
 40
-10.89313803096836
 40
-10.89313803096836
 40
0.0
 40
0.0
 40
0.0
 40
0.0
 10
806.7334002451062
 20
-4087.521451064294
 30
0.0
 10
803.2146523719239
 20
-4086.625399327083
 30
0.0
 10
799.683234056658
 20
-4085.774724570111
 30
0.0
 10
796.1424204484429
 20
-4084.970278101442
 30
0.0
  0
SPLINE
  5
B7
330
1F
100
AcDbEntity
  8
2D
100
AcDbSpline
210
0.0
220
0.0
230
1.0
 70
     8
 71
     3
 72
     8
 73
     4
 74
     0
 42
0.0000000001
 43
0.0000000001
 40
0.0
 40
0.0
 40
0.0
 40
0.0
 40
3.070746969595923
 40
3.070746969595923
 40
3.070746969595923
 40
3.070746969595923
 10
796.1424204484429
 20
-4084.970278101442
 30
0.0
 10
795.1442745327149
 20
-4084.74350618237
 30
0.0
 10
794.1452892685047
 20
-4084.520391375608
 30
0.0
 10
793.1455076392522
 20
-4084.30094328114
 30
0.0
  0
SPLINE
  5
B8
330
1F
100
AcDbEntity
  8
2D
100
AcDbSpline
210
0.0
220
0.0
230
1.0
 70
     8
 71
     3
 72
     8
 73
     4
 74
     0
 42
0.0000000001
 43
0.0000000001
 40
-52.32418449652239
 40
-52.32418449652239
 40
-52.32418449652239
 40
-52.32418449652239
 40
0.0
 40
0.0
 40
0.0
 40
0.0
 10
793.1455076392522
 20
-4084.30094328114
 30
0.0
 10
776.1451606268856
 20
-4080.56944495256
 30
0.0
 10
758.8075184470617
 20
-4077.883881311786
 30
0.0
 10
741.475940784916
 20
-4076.28966512338
 30
0.0
  0
SPLINE
  5
B9
330
1F
100
AcDbEntity
  8
2D
100
AcDbSpline
210
0.0
220
0.0
230
1.0
 70
     8
 71
     3
 72
     8
 73
     4
 74
     0
 42
0.0000000001
 43
0.0000000001
 40
-34.984646538145
 40
-34.984646538145
 40
-34.984646538145
 40
-34.984646538145
 40
0.0
 40
0.0
 40
0.0
 40
0.0
 10
741.475940784916
 20
-4076.28966512338
 30
0.0
 10
729.8629501916803
 20
-4075.226569115884
 30
0.0
 10
718.1955971823991
 20
-4074.646792469387
 30
0.0
 10
706.5344243404616
 20
-4074.553145700402
 30
0.0
  0
SPLINE
  5
BA
330
1F
100
AcDbEntity
  8
2D
100
AcDbSpline
210
0.0
220
0.0
230
1.0
 70
     8
 71
     3
 72
     8
 73
     4
 74
     0
 42
0.0000000001
 43
0.0000000001
 40
-0.1844351172863811
 40
-0.1844351172863811
 40
-0.1844351172863811
 40
-0.1844351172863811
 40
0.0
 40
0.0
 40
0.0
 40
0.0
 10
706.5344243404616
 20
-4074.553145700402
 30
0.0
 10
706.4729481393842
 20
-4074.55262759277
 30
0.0
 10
706.411471448966
 20
-4074.552147990941
 30
0.0
 10
706.3499947093951
 20
-4074.551700213825
 30
0.0
  0
SPLINE
  5
BB
330
1F
100
AcDbEntity
  8
2D
100
AcDbSpline
210
0.0
220
0.0
230
1.0
 70
     8
 71
     3
 72
     8
 73
     4
 74
     0
 42
0.0000000001
 43
0.0000000001
 40
-3.234494371100837
 40
-3.234494371100837
 40
-3.234494371100837
 40
-3.234494371100837
 40
0.0
 40
0.0
 40
0.0
 40
0.0
 10
706.3499947093951
 20
-4074.551700213825
 30
0.0
 10
705.2718613693942
 20
-4074.543465827159
 30
0.0
 10
704.1936862138464
 20
-4074.539337666949
 30
0.0
 10
703.1155214284809
 20
-4074.539375253774
 30
0.0
  0
SPLINE
  5
BC
330
1F
100
AcDbEntity
  8
2D
100
AcDbSpline
210
0.0
220
0.0
230
1.0
 70
     8
 71
     3
 72
     8
 73
     4
 74
     0
 42
0.0000000001
 43
0.0000000001
 40
-0.0917588377572952
 40
-0.0917588377572952
 40
-0.0917588377572952
 40
-0.0917588377572952
 40
0.0
 40
0.0
 40
0.0
 40
0.0
 10
703.1155214284809
 20
-4074.539375253774
 30
0.0
 10
703.0849351488578
 20
-4074.539415936657
 30
0.0
 10
703.0543488279909
 20
-4074.53941909512
 30
0.0
 10
703.0237625405643
 20
-4074.53938479699
 30
0.0
  0
SPLINE
  5
BD
330
1F
100
AcDbEntity
  8
2D
100
AcDbSpline
210
0.0
220
0.0
230
1.0
 70
     8
 71
     3
 72
     8
 73
     4
 74
     0
 42
0.0000000001
 43
0.0000000001
 40
-3.142648315269025
 40
-3.142648315269025
 40
-3.142648315269025
 40
-3.142648315269025
 40
0.0
 40
0.0
 40
0.0
 40
0.0
 10
703.0237625405643
 20
-4074.53938479699
 30
0.0
 10
701.9762131244643
 20
-4074.539567356032
 30
0.0
 10
700.9286553559832
 20
-4074.5437087075
 30
0.0
 10
699.8811364984576
 20
-4074.551712251603
 30
0.0
  0
SPLINE
  5
BE
330
1F
100
AcDbEntity
  8
2D
100
AcDbSpline
210
0.0
220
0.0
230
1.0
 70
     8
 71
     3
 72
     8
 73
     4
 74
     0
 42
0.0000000001
 43
0.0000000001
 40
-0.3682054936171889
 40
-0.3682054936171889
 40
-0.3682054936171889
 40
-0.3682054936171889
 40
0.0
 40
0.0
 40
0.0
 40
0.0
 10
699.8811364984576
 20
-4074.551712251603
 30
0.0
 10
699.7584044413925
 20
-4074.552586664802
 30
0.0
 10
699.6356733400607
 20
-4074.553569820897
 30
0.0
 10
699.5129431790338
 20
-4074.554684057275
 30
0.0
  0
SPLINE
  5
BF
330
1F
100
AcDbEntity
  8
2D
100
AcDbSpline
210
0.0
220
0.0
230
1.0
 70
    12
 71
     2
 72
     6
 73
     3
 74
     0
 42
0.0000000001
 43
0.0000000001
 40
-51.37194652386441
 40
-51.37194652386441
 40
-51.37194652386441
 40
0.0
 40
0.0
 40
0.0
 10
699.5129431790327
 20
-4074.554684057275
 30
0.0
 41
0.9999999999999998
 10
673.7880259366345
 20
-4074.775105362182
 30
0.0000000000000002
 41
0.9981292151569104
 10
648.2823385991112
 20
-4078.133656217362
 30
0.0
 41
0.9999999999990825
  0
SPLINE
  5
C0
330
1F
100
AcDbEntity
  8
2D
100
AcDbSpline
210
0.0
220
0.0
230
1.0
 70
    12
 71
     3
 72
    60
 73
    56
 74
     0
 42
0.0000000001
 43
0.0000000001
 40
-1740.952484832379
 40
-1740.952484832379
 40
-1740.952484832379
 40
-1740.952484832379
 40
-1728.376132436389
 40
-1728.376132436389
 40
-1715.730547220888
 40
-1715.730547220888
 40
-1703.071986251263
 40
-1703.071986251263
 40
-1690.426324788555
 40
-1690.426324788555
 40
-1677.768566138722
 40
-1677.768566138722
 40
-1665.096861187898
 40
-1665.096861187898
 40
-1652.455218492972
 40
-1652.455218492972
 40
-1639.784997442782
 40
-1639.784997442782
 40
-1639.784997442782
 40
-997.4216017533403
 40
-997.4216017533403
 40
-997.4216017533403
 40
-965.6131074308232
 40
-965.6131074308232
 40
-934.1693629690852
 40
-934.1693629690852
 40
-870.8100295118842
 40
-870.8100295118842
 40
-838.8259100303285
 40
-838.8259100303285
 40
-807.0386326427905
 40
-807.0386326427905
 40
-775.4616284010231
 40
-775.4616284010231
 40
-743.5308836907467
 40
-743.5308836907467
 40
-743.5308836907467
 40
-101.1674875849929
 40
-101.1674875849929
 40
-101.1674875849929
 40
-88.50798402973196
 40
-88.50798402973196
 40
-75.852442842627
 40
-75.852442842627
 40
-63.19285050005662
 40
-63.19285050005662
 40
-50.53182984611681
 40
-50.53182984611681
 40
-37.87770599762705
 40
-37.87770599762705
 40
-25.23371402772713
 40
-25.23371402772713
 40
-12.57703696370771
 40
-12.57703696370771
 40
0.0
 40
0.0
 40
0.0
 40
0.0
 10
-124.8362356496145
 20
-3676.416130242153
 30
0.0
 41
1.0
 10
-120.6731674366347
 20
-3677.152905725344
 30
0.0
 41
1.0
 10
-116.4115280656442
 20
-3677.386935603074
 30
0.0
 41
1.0
 10
-107.9674680658063
 20
-3677.31526292171
 30
0.0
 41
1.0
 10
-103.7707916873514
 20
-3677.002778731142
 30
0.0
 41
1.0
 10
-95.36179782294494
 20
-3676.037119048998
 30
0.0
 41
1.0
 10
-91.18944677526815
 20
-3675.381836412423
 30
0.0
 41
1.0
 10
-82.87008859938942
 20
-3673.83663336522
 30
0.0
 41
1.0
 10
-78.74136801156783
 20
-3672.947818952339
 30
0.0
 41
1.0
 10
-70.50917171415858
 20
-3670.996462001994
 30
0.0
 41
1.0
 10
-66.41529157601326
 20
-3669.935337031692
 30
0.0
 41
1.0
 10
-58.25289140297537
 20
-3667.679005646277
 30
0.0
 41
1.0
 10
-54.19001234490861
 20
-3666.48480874271
 30
0.0
 41
1.0
 10
-46.10171677024846
 20
-3663.994966484789
 30
0.0
 41
1.0
 10
-42.07965462307402
 20
-3662.700561590814
 30
0.0
 41
1.0
 10
-34.05215329721977
 20
-3660.023201791225
 30
0.0
 41
1.0
 10
-30.04880779842642
 20
-3658.641826859873
 30
0.0
 41
1.0
 10
-26.05923981089654
 20
-3657.218423151059
 30
0.0
 41
1.0
 10
175.5041335766546
 20
-3585.28634798832
 30
0.0
 41
1.0
 10
377.0675069642057
 20
-3513.354272825582
 30
0.0
 41
1.0
 10
578.6308803517604
 20
-3441.422197662842
 30
0.0
 41
1.0
 10
588.6248635714692
 20
-3437.856636111327
 30
0.0
 41
1.0
 10
598.7321667991673
 20
-3434.764746730235
 30
0.0
 41
1.0
 10
619.1484687352349
 20
-3429.445280277802
 30
0.0
 41
1.0
 10
629.3628648510567
 20
-3427.231342695503
 30
0.0
 41
1.0
 10
660.5236676838031
 20
-3421.847042747034
 30
0.0
 41
1.0
 10
681.7314389383646
 20
-3420.013342419556
 30
0.0
 41
1.0
 10
713.5355108684671
 20
-3419.99161988504
 30
0.0
 41
1.0
 10
724.1554098491688
 20
-3420.445288280339
 30
0.0
 41
1.0
 10
745.3499632070743
 20
-3422.25948077557
 30
0.0
 41
1.0
 10
755.8293555875753
 20
-3423.603238873065
 30
0.0
 41
1.0
 10
776.6601939768152
 20
-3427.185607300217
 30
0.0
 41
1.0
 10
786.918729955305
 20
-3429.404484111649
 30
0.0
 41
1.0
 10
807.41947471608
 20
-3434.740682366509
 30
0.0
 41
1.0
 10
817.5662826052212
 20
-3437.84280233447
 30
0.0
 41
1.0
 10
827.5990294324001
 20
-3441.422197662842
 30
0.0
 41
1.0
 10
1029.162395497555
 20
-3513.354272825581
 30
0.0
 41
1.0
 10
1230.725761562713
 20
-3585.286347988319
 30
0.0
 41
1.0
 10
1432.289127627871
 20
-3657.218423151057
 30
0.0
 41
1.0
 10
1436.275320380981
 20
-3658.640622634713
 30
0.0
 41
1.0
 10
1440.27526885191
 20
-3660.020863050074
 30
0.0
 41
1.0
 10
1448.303729999712
 20
-3662.698702480419
 30
0.0
 41
1.0
 10
1452.330200740063
 20
-3663.994562548392
 30
0.0
 41
1.0
 10
1460.419082347402
 20
-3666.484527997461
 30
0.0
 41
1.0
 10
1464.478074989205
 20
-3667.677603645891
 30
0.0
 41
1.0
 10
1472.637569692797
 20
-3669.933333767081
 30
0.0
 41
1.0
 10
1476.732480830793
 20
-3670.99481936802
 30
0.0
 41
1.0
 10
1484.968453146972
 20
-3672.94723618527
 30
0.0
 41
1.0
 10
1489.099922943704
 20
-3673.836676895903
 30
0.0
 41
1.0
 10
1497.417293517956
 20
-3675.381402021817
 30
0.0
 41
1.0
 10
1501.584855751258
 20
-3676.036002244785
 30
0.0
 41
1.0
 10
1509.992609932753
 20
-3677.002181778321
 30
0.0
 41
1.0
 10
1514.192916694465
 20
-3677.315192036308
 30
0.0
 41
1.0
 10
1522.640925153137
 20
-3677.386961986021
 30
0.0
 41
1.0
 10
1526.902824221514
 20
-3677.152945200128
 30
0.0
 41
1.0
 10
1531.066123967386
 20
-3676.416128835735
 30
0.0
 41
1.0
  0
SPLINE
  5
C1
330
1F
100
AcDbEntity
  8
2D
100
AcDbSpline
210
0.0
220
0.0
230
1.0
 70
    12
 71
     3
 72
    18
 73
    14
 74
     0
 42
0.0000000001
 43
0.0000000001
 40
-177.6987901673362
 40
-177.6987901673362
 40
-177.6987901673362
 40
-177.6987901673362
 40
-45.08649629973427
 40
-45.08649629973427
 40
-45.08649629973427
 40
-23.44733560210372
 40
-23.44733560210372
 40
-23.44733560210372
 40
-17.56290672595864
 40
-17.56290672595864
 40
-11.69352626882189
 40
-11.69352626882189
 40
0.0
 40
0.0
 40
0.0
 40
0.0
 10
1297.829688074351
 20
-3713.573334307869
 30
0.0
 41
1.0
 10
1340.578017126762
 20
-3701.966925385623
 30
0.0
 41
1.0
 10
1383.326346179176
 20
-3690.360516463376
 30
0.0
 41
1.0
 10
1426.07467523159
 20
-3678.754107541129
 30
0.0
 41
1.0
 10
1433.050182063889
 20
-3676.860218668037
 30
0.0
 41
1.0
 10
1440.032815886439
 20
-3674.885577936914
 30
0.0
 41
1.0
 10
1447.004232458756
 20
-3672.81656772565
 30
0.0
 41
1.0
 10
1448.902890624904
 20
-3672.253087801592
 30
0.0
 41
1.0
 10
1450.799399989501
 20
-3671.751595458268
 30
0.0
 41
1.0
 10
1454.594790364903
 20
-3670.885841382956
 30
0.0
 41
1.0
 10
1456.491655727761
 20
-3670.519250743923
 30
0.0
 41
1.0
 10
1462.175536212249
 20
-3669.611491957646
 30
0.0
 41
1.0
 10
1465.96007827386
 20
-3669.259410580486
 30
0.0
 41
1.0
 10
1469.752124725437
 20
-3669.134630662448
 30
0.0
 41
1.0
  0
SPLINE
  5
C2
330
1F
100
AcDbEntity
  8
2D
100
AcDbSpline
210
0.0
220
0.0
230
1.0
 70
    15
 71
     2
 72
    28
 73
    25
 74
     0
 42
0.0000000001
 43
0.0000000001
 40
-130.0407598076688
 40
-130.0407598076688
 40
-130.0407598076688
 40
-0.0000000018498683
 40
-0.0000000018498683
 40
497.6049600333589
 40
497.6049600333589
 40
656.0150483767251
 40
656.0150483767251
 40
1153.62000837919
 40
1153.62000837919
 40
1283.660768201941
 40
1283.660768201941
 40
1703.888898599088
 40
1703.888898599088
 40
1833.929658408072
 40
1833.929658408072
 40
2331.534618428211
 40
2331.534618428211
 40
2489.944706791203
 40
2489.944706791203
 40
2987.549666823127
 40
2987.549666823127
 40
3117.590426615655
 40
3117.590426615655
 40
3537.818557016436
 40
3537.818557016436
 40
3537.818557016436
 10
1323.426463852942
 20
-4457.211544666332
 30
0.0
 41
0.9999999999963842
 10
1313.501198524332
 20
-4386.829334838076
 30
0.0000000000000045
 41
0.8774142021119736
 10
1248.893147455659
 20
-4357.198842279573
 30
0.0
 41
1.0
 10
1022.189519692013
 20
-4253.228206355691
 30
-0.0000000000000002
 41
0.9965620097353659
 10
781.4293994759792
 20
-4188.120660793124
 30
0.0
 41
1.0
 10
703.1149448602943
 20
-4166.942477642432
 30
-0.0000000000000014
 41
0.9653257722832419
 10
624.8004902457906
 20
-4188.120660797544
 30
0.0
 41
1.0
 10
384.0403700456393
 20
-4253.228206355982
 30
0.0
 41
0.9965620097352861
 10
157.3367422971642
 20
-4357.198842273603
 30
0.0
 41
1.0
 10
92.72869121815845
 20
-4386.829334832073
 30
0.0000000000000018
 41
0.8774142021104993
 10
82.80342588486383
 20
-4457.211544669133
 30
0.0
 41
1.0
 10
53.26592209888278
 20
-4666.668392481611
 30
0.0000000000000001
 41
0.9902026344594665
 10
82.8034258844018
 20
-4876.125240294154
 30
0.0
 41
1.0
 10
92.72869121192971
 20
-4946.507450124453
 30
-0.0000000000000003
 41
0.8774142021102486
 10
157.3367422821539
 20
-4976.137942684072
 30
0.0
 41
1.0
 10
384.0403700386058
 20
-5080.108578605514
 30
0.0000000000000001
 41
0.9965620097354209
 10
624.800490247042
 20
-5145.216124167173
 30
0.0
 41
1.0
 10
703.1149448719499
 20
-5166.394307323141
 30
0.0000000000000009
 41
0.9653257722795144
 10
781.429399496461
 20
-5145.216124165723
 30
0.0
 41
1.0
 10
1022.189519710565
 20
-5080.108578602229
 30
0.0
 41
0.9965620097352336
 10
1248.893147471834
 20
-4976.137942677044
 30
0.0
 41
1.0
 10
1313.501198532066
 20
-4946.507450117115
 30
-0.0000000000000059
 41
0.8774142021096561
 10
1323.426463853779
 20
-4876.125240295032
 30
0.0
 41
1.0
 10
1352.963967638667
 20
-4666.668392480621
 30
-0.0000000000000001
 41
0.9902026344599274
 10
1323.426463852942
 20
-4457.211544666332
 30
0.0
 41
1.0
  0
LINE
  5
C3
330
1F
100
AcDbEntity
  8
2D
100
AcDbLine
 10
-123.1266487553585
 20
-3687.144432566231
 30
0.0
 11
-123.1163629730654
 21
-3687.172156361395
 31
0.0
  0
SPLINE
  5
C4
330
1F
100
AcDbEntity
  8
2D
100
AcDbSpline
210
0.0
220
0.0
230
1.0
 70
     8
 71
     3
 72
     8
 73
     4
 74
     0
 42
0.0000000001
 43
0.0000000001
 40
-1.165652624462176
 40
-1.165652624462176
 40
-1.165652624462176
 40
-1.165652624462176
 40
0.0
 40
0.0
 40
0.0
 40
0.0
 10
1530.138669258355
 20
-5648.606450673787
 30
0.0
 10
1530.08715214624
 20
-5648.221330212783
 30
0.0
 10
1530.02024072783
 20
-5647.837958859242
 30
0.0
 10
1529.938252657128
 20
-5647.45815662309
 30
0.0
  0
SPLINE
  5
C5
330
1F
100
AcDbEntity
  8
2D
100
AcDbSpline
210
0.0
220
0.0
230
1.0
 70
     8
 71
     3
 72
     8
 73
     4
 74
     0
 42
0.0000000001
 43
0.0000000001
 40
-1.165652624459666
 40
-1.165652624459666
 40
-1.165652624459666
 40
-1.165652624459666
 40
0.0
 40
0.0
 40
0.0
 40
0.0
 10
1530.138669258355
 20
-3684.730334289837
 30
0.0
 10
1530.08715214624
 20
-3685.115454750839
 30
0.0
 10
1530.02024072783
 20
-3685.498826104381
 30
0.0
 10
1529.938252657128
 20
-3685.878628340532
 30
0.0
  0
LINE
  5
C6
330
1F
100
AcDbEntity
  8
2D
100
AcDbLine
 10
1529.693627927714
 20
-5646.538481383306
 30
0.0
 11
1551.335277758368
 21
-5705.432730722606
 31
0.0
  0
SPLINE
  5
C7
330
1F
100
AcDbEntity
  8
2D
100
AcDbSpline
210
0.0
220
0.0
230
1.0
 70
    12
 71
     3
 72
     9
 73
     5
 74
     0
 42
0.0000000001
 43
0.0000000001
 40
-6.403949649872516
 40
-6.403949649872516
 40
-6.403949649872516
 40
-6.403949649872516
 40
-2.463066573055893
 40
0.0
 40
0.0
 40
0.0
 40
0.0
 10
1551.335277758368
 20
-5705.432730722606
 30
0.0
 41
1.0
 10
1551.856342693627
 20
-5706.83716316041
 30
0.0
 41
1.0
 10
1552.071377695895
 20
-5709.160769712435
 30
0.0
 41
1.0
 10
1552.35154536058
 20
-5711.185374237215
 30
0.0
 41
1.0
 10
1552.453887662003
 20
-5711.921035546157
 30
0.0
 41
1.0
  0
SPLINE
  5
C8
330
1F
100
AcDbEntity
  8
2D
100
AcDbSpline
210
0.0
220
0.0
230
1.0
 70
     8
 71
     3
 72
     8
 73
     4
 74
     0
 42
0.0000000001
 43
0.0000000001
 40
0.0
 40
0.0
 40
0.0
 40
0.0
 40
0.291773858748346
 40
0.291773858748346
 40
0.291773858748346
 40
0.291773858748346
 10
1552.57306003831
 20
-5712.78324119908
 30
0.0
 10
1552.586267449555
 20
-5712.879598210728
 30
0.0
 10
1552.599310604583
 20
-5712.975977879221
 30
0.0
 10
1552.612189389663
 20
-5713.07237936417
 30
0.0
  0
SPLINE
  5
C9
330
1F
100
AcDbEntity
  8
2D
100
AcDbSpline
210
0.0
220
0.0
230
1.0
 70
     8
 71
     3
 72
     8
 73
     4
 74
     0
 42
0.0000000001
 43
0.0000000001
 40
-0.5283562162822488
 40
-0.5283562162822488
 40
-0.5283562162822488
 40
-0.5283562162822488
 40
0.0
 40
0.0
 40
0.0
 40
0.0
 10
1552.612189389663
 20
-5713.07237936417
 30
0.0
 10
1552.635508363852
 20
-5713.246947504406
 30
0.0
 10
1552.659345169763
 20
-5713.429871993579
 30
0.0
 10
1552.681486681075
 20
-5713.604593382137
 30
0.0
  0
SPLINE
  5
CA
330
1F
100
AcDbEntity
  8
2D
100
AcDbSpline
210
0.0
220
0.0
230
1.0
 70
     8
 71
     3
 72
     8
 73
     4
 74
     0
 42
0.0000000001
 43
0.0000000001
 40
0.0
 40
0.0
 40
0.0
 40
0.0
 40
0.1760783981387046
 40
0.1760783981387046
 40
0.1760783981387046
 40
0.1760783981387046
 10
1552.681486681075
 20
-5713.604593382137
 30
0.0
 10
1552.68886586537
 20
-5713.662820457782
 30
0.0
 10
1552.696176406254
 20
-5713.721056273802
 30
0.0
 10
1552.703418273246
 20
-5713.779300587357
 30
0.0
  0
SPLINE
  5
CB
330
1F
100
AcDbEntity
  8
2D
100
AcDbSpline
210
0.0
220
0.0
230
1.0
 70
     8
 71
     3
 72
     8
 73
     4
 74
     0
 42
0.0000000001
 43
0.0000000001
 40
-0.2209371548723244
 40
-0.2209371548723244
 40
-0.2209371548723244
 40
-0.2209371548723244
 40
0.0
 40
0.0
 40
0.0
 40
0.0
 10
1552.703418273246
 20
-5713.779300587357
 30
0.0
 10
1552.712504650874
 20
-5713.852383619343
 30
0.0
 10
1552.721667307967
 20
-5713.927002825712
 30
0.0
 10
1552.730527621141
 20
-5714.000113609274
 30
0.0
  0
SPLINE
  5
CC
330
1F
100
AcDbEntity
  8
2D
100
AcDbSpline
210
0.0
220
0.0
230
1.0
 70
     8
 71
     3
 72
     8
 73
     4
 74
     0
 42
0.0000000001
 43
0.0000000001
 40
0.0
 40
0.0
 40
0.0
 40
0.0
 40
0.4605390331700511
 40
0.4605390331700511
 40
0.4605390331700511
 40
0.4605390331700511
 10
1552.730527621141
 20
-5714.000113609274
 30
0.0
 10
1552.74900459217
 20
-5714.152510610902
 30
0.0
 10
1552.766960397468
 20
-5714.304972115142
 30
0.0
 10
1552.784394311366
 20
-5714.45749196044
 30
0.0
  0
SPLINE
  5
CD
330
1F
100
AcDbEntity
  8
2D
100
AcDbSpline
210
0.0
220
0.0
230
1.0
 70
     8
 71
     3
 72
     8
 73
     4
 74
     0
 42
0.0000000001
 43
0.0000000001
 40
-0.6402022353923161
 40
-0.6402022353923161
 40
-0.6402022353923161
 40
-0.6402022353923161
 40
0.0
 40
0.0
 40
0.0
 40
0.0
 10
1552.784394311366
 20
-5714.45749196044
 30
0.0
 10
1552.808618318049
 20
-5714.669513363894
 30
0.0
 10
1552.833178490764
 20
-5714.894610569821
 30
0.0
 10
1552.855092412294
 20
-5715.106883173014
 30
0.0
  0
SPLINE
  5
CE
330
1F
100
AcDbEntity
  8
2D
100
AcDbSpline
210
0.0
220
0.0
230
1.0
 70
     8
 71
     3
 72
     8
 73
     4
 74
     0
 42
0.0000000001
 43
0.0000000001
 40
0.0
 40
0.0
 40
0.0
 40
0.0
 40
0.623451943431884
 40
0.623451943431884
 40
0.623451943431884
 40
0.623451943431884
 10
1552.855092412294
 20
-5715.106883173014
 30
0.0
 10
1552.876462506534
 20
-5715.313598811677
 30
0.0
 10
1552.896594983024
 20
-5715.520447132731
 30
0.0
 10
1552.915487484293
 20
-5715.727403914674
 30
0.0
  0
SPLINE
  5
CF
330
1F
100
AcDbEntity
  8
2D
100
AcDbSpline
210
0.0
220
0.0
230
1.0
 70
     8
 71
     3
 72
     8
 73
     4
 74
     0
 42
0.0000000001
 43
0.0000000001
 40
-0.4327989281763906
 40
-0.4327989281763906
 40
-0.4327989281763906
 40
-0.4327989281763906
 40
0.0
 40
0.0
 40
0.0
 40
0.0
 10
1552.915487484293
 20
-5715.727403914674
 30
0.0
 10
1552.928581338449
 20
-5715.8710747851
 30
0.0
 10
1552.941621913917
 20
-5716.021737402384
 30
0.0
 10
1552.953333843088
 20
-5716.16552752284
 30
0.0
  0
SPLINE
  5
D0
330
1F
100
AcDbEntity
  8
2D
100
AcDbSpline
210
0.0
220
0.0
230
1.0
 70
     8
 71
     3
 72
     8
 73
     4
 74
     0
 42
0.0000000001
 43
0.0000000001
 40
0.0
 40
0.0
 40
0.0
 40
0.0
 40
0.1539421803965356
 40
0.1539421803965356
 40
0.1539421803965356
 40
0.1539421803965356
 10
1552.953333843088
 20
-5716.16552752284
 30
0.0
 10
1552.957500290078
 20
-5716.216672155861
 30
0.0
 10
1552.961573834367
 20
-5716.267824442057
 30
0.0
 10
1552.965554435628
 20
-5716.318983875016
 30
0.0
  0
SPLINE
  5
D1
330
1F
100
AcDbEntity
  8
2D
100
AcDbSpline
210
0.0
220
0.0
230
1.0
 70
     8
 71
     3
 72
     8
 73
     4
 74
     0
 42
0.0000000001
 43
0.0000000001
 40
-0.1726321633625359
 40
-0.1726321633625359
 40
-0.1726321633625359
 40
-0.1726321633625359
 40
0.0
 40
0.0
 40
0.0
 40
0.0
 10
1552.965554435628
 20
-5716.318983875016
 30
0.0
 10
1552.970017601085
 20
-5716.376354584939
 30
0.0
 10
1552.974463439692
 20
-5716.435094563884
 30
0.0
 10
1552.978680264918
 20
-5716.492483905997
 30
0.0
  0
SPLINE
  5
D2
330
1F
100
AcDbEntity
  8
2D
100
AcDbSpline
210
0.0
220
0.0
230
1.0
 70
     8
 71
     3
 72
     8
 73
     4
 74
     0
 42
0.0000000001
 43
0.0000000001
 40
0.0
 40
0.0
 40
0.0
 40
0.0
 40
0.3271196397068594
 40
0.3271196397068594
 40
0.3271196397068594
 40
0.3271196397068594
 10
1552.978680264918
 20
-5716.492483905997
 30
0.0
 10
1552.986677993133
 20
-5716.601230086401
 30
0.0
 10
1552.994204819726
 20
-5716.710011924582
 30
0.0
 10
1553.001260321169
 20
-5716.818823299556
 30
0.0
  0
SPLINE
  5
D3
330
1F
100
AcDbEntity
  8
2D
100
AcDbSpline
210
0.0
220
0.0
230
1.0
 70
     8
 71
     3
 72
     8
 73
     4
 74
     0
 42
0.0000000001
 43
0.0000000001
 40
-0.0626641099077643
 40
-0.0626641099077643
 40
-0.0626641099077643
 40
-0.0626641099077643
 40
0.0
 40
0.0
 40
0.0
 40
0.0
 10
1553.001260321169
 20
-5716.818823299556
 30
0.0
 10
1553.002610465686
 20
-5716.839667653929
 30
0.0
 10
1553.003954746298
 20
-5716.860706037945
 30
0.0
 10
1553.005222354674
 20
-5716.881555624861
 30
0.0
  0
SPLINE
  5
D4
330
1F
100
AcDbEntity
  8
2D
100
AcDbSpline
210
0.0
220
0.0
230
1.0
 70
     8
 71
     3
 72
     8
 73
     4
 74
     0
 42
0.0000000001
 43
0.0000000001
 40
-1.104589187544041
 40
-1.104589187544041
 40
-1.104589187544041
 40
-1.104589187544041
 40
0.0
 40
0.0
 40
0.0
 40
0.0
 10
1553.005222354674
 20
-5716.881555624861
 30
0.0
 10
1553.028678667171
 20
-5717.249004093788
 30
0.0
 10
1553.045344133574
 20
-5717.616950787572
 30
0.0
 10
1553.055223504278
 20
-5717.985014705649
 30
0.0
  0
SPLINE
  5
D5
330
1F
100
AcDbEntity
  8
2D
100
AcDbSpline
210
0.0
220
0.0
230
1.0
 70
     8
 71
     3
 72
     8
 73
     4
 74
     0
 42
0.0000000001
 43
0.0000000001
 40
0.0
 40
0.0
 40
0.0
 40
0.0
 40
0.4095926317337878
 40
0.4095926317337878
 40
0.4095926317337878
 40
0.4095926317337878
 10
1553.055223504278
 20
-5717.985014705649
 30
0.0
 10
1553.058787853814
 20
-5718.121499091809
 30
0.0
 10
1553.061044617207
 20
-5718.258023889945
 30
0.0
 10
1553.062037347645
 20
-5718.394551162206
 30
0.0
  0
SPLINE
  5
D6
330
1F
100
AcDbEntity
  8
2D
100
AcDbSpline
210
0.0
220
0.0
230
1.0
 70
     8
 71
     3
 72
     8
 73
     4
 74
     0
 42
0.0000000001
 43
0.0000000001
 40
-0.1217993333674786
 40
-0.1217993333674786
 40
-0.1217993333674786
 40
-0.1217993333674786
 40
0.0
 40
0.0
 40
0.0
 40
0.0
 10
1553.062037347645
 20
-5718.394551162206
 30
0.0
 10
1553.06232062868
 20
-5718.435149958416
 30
0.0
 10
1553.062507515875
 20
-5718.47574966126
 30
0.0
 10
1553.062574281012
 20
-5718.516349498528
 30
0.0
  0
SPLINE
  5
D7
330
1F
100
AcDbEntity
  8
2D
100
AcDbSpline
210
0.0
220
0.0
230
1.0
 70
     8
 71
     3
 72
     8
 73
     4
 74
     0
 42
0.0000000001
 43
0.0000000001
 40
0.0
 40
0.0
 40
0.0
 40
0.0
 40
0.3241785023426773
 40
0.3241785023426773
 40
0.3241785023426773
 40
0.3241785023426773
 10
1553.062574281012
 20
-5718.516349498528
 30
0.0
 10
1553.062724584754
 20
-5718.624408997708
 30
0.0
 10
1553.061920902248
 20
-5718.732473919437
 30
0.0
 10
1553.060251679097
 20
-5718.840520551382
 30
0.0
  0
SPLINE
  5
D8
330
1F
100
AcDbEntity
  8
2D
100
AcDbSpline
210
0.0
220
0.0
230
1.0
 70
     8
 71
     3
 72
     8
 73
     4
 74
     0
 42
0.0000000001
 43
0.0000000001
 40
-0.1701298720311292
 40
-0.1701298720311292
 40
-0.1701298720311292
 40
-0.1701298720311292
 40
0.0
 40
0.0
 40
0.0
 40
0.0
 10
1553.060251679097
 20
-5718.840520551382
 30
0.0
 10
1553.059444331007
 20
-5718.897224836871
 30
0.0
 10
1553.058254193675
 20
-5718.95392383471
 30
0.0
 10
1553.056628782739
 20
-5719.010610825098
 30
0.0
  0
SPLINE
  5
D9
330
1F
100
AcDbEntity
  8
2D
100
AcDbSpline
210
0.0
220
0.0
230
1.0
 70
     8
 71
     3
 72
     8
 73
     4
 74
     0
 42
0.0000000001
 43
0.0000000001
 40
0.0
 40
0.0
 40
0.0
 40
0.0
 40
0.6349152784636584
 40
0.6349152784636584
 40
0.6349152784636584
 40
0.6349152784636584
 10
1553.056628782739
 20
-5719.010610825098
 30
0.0
 10
1553.051084625251
 20
-5719.222176732412
 30
0.0
 10
1553.040606476687
 20
-5719.433695725625
 30
0.0
 10
1553.025073359204
 20
-5719.644763358592
 30
0.0
  0
SPLINE
  5
DA
330
1F
100
AcDbEntity
  8
2D
100
AcDbSpline
210
0.0
220
0.0
230
1.0
 70
     8
 71
     3
 72
     8
 73
     4
 74
     0
 42
0.0000000001
 43
0.0000000001
 40
-0.2388664628766071
 40
-0.2388664628766071
 40
-0.2388664628766071
 40
-0.2388664628766071
 40
0.0
 40
0.0
 40
0.0
 40
0.0
 10
1553.025073359204
 20
-5719.644763358592
 30
0.0
 10
1553.019114202416
 20
-5719.724162199292
 30
0.0
 10
1553.011727538189
 20
-5719.809862851496
 30
0.0
 10
1553.003871196193
 20
-5719.889096463963
 30
0.0
  0
SPLINE
  5
DB
330
1F
100
AcDbEntity
  8
2D
100
AcDbSpline
210
0.0
220
0.0
230
1.0
 70
     8
 71
     3
 72
     8
 73
     4
 74
     0
 42
0.0000000001
 43
0.0000000001
 40
0.0
 40
0.0
 40
0.0
 40
0.0
 40
0.0509663727701994
 40
0.0509663727701994
 40
0.0509663727701994
 40
0.0509663727701994
 10
1553.003871196193
 20
-5719.889096463963
 30
0.0
 10
1553.002195172667
 20
-5719.906002378969
 30
0.0
 10
1553.000472892214
 20
-5719.92290377203
 30
0.0
 10
1552.998704393067
 20
-5719.939800267911
 30
0.0
  0
SPLINE
  5
DC
330
1F
100
AcDbEntity
  8
2D
100
AcDbSpline
210
0.0
220
0.0
230
1.0
 70
     8
 71
     3
 72
     8
 73
     4
 74
     0
 42
0.0000000001
 43
0.0000000001
 40
-0.0630953555484737
 40
-0.0630953555484737
 40
-0.0630953555484737
 40
-0.0630953555484737
 40
0.0
 40
0.0
 40
0.0
 40
0.0
 10
1552.998704393067
 20
-5719.939800267911
 30
0.0
 10
1552.996514695122
 20
-5719.960717757978
 30
0.0
 10
1552.994202256265
 20
-5719.982090906849
 30
0.0
 10
1552.992040512854
 20
-5720.003012214542
 30
0.0
  0
SPLINE
  5
DD
330
1F
100
AcDbEntity
  8
2D
100
AcDbSpline
210
0.0
220
0.0
230
1.0
 70
     8
 71
     3
 72
     8
 73
     4
 74
     0
 42
0.0000000001
 43
0.0000000001
 40
-0.0835994418323942
 40
-0.0835994418323942
 40
-0.0835994418323942
 40
-0.0835994418323942
 40
0.0
 40
0.0
 40
0.0
 40
0.0
 10
1552.992040512854
 20
-5720.003012214542
 30
0.0
 10
1552.989095257202
 20
-5720.030723089192
 30
0.0
 10
1552.985834173378
 20
-5720.058398706929
 30
0.0
 10
1552.982300171665
 20
-5720.086040416219
 30
0.0
  0
SPLINE
  5
DE
330
1F
100
AcDbEntity
  8
2D
100
AcDbSpline
210
0.0
220
0.0
230
1.0
 70
     8
 71
     3
 72
     8
 73
     4
 74
     0
 42
0.0000000001
 43
0.0000000001
 40
0.0
 40
0.0
 40
0.0
 40
0.0
 40
0.2049044145030715
 40
0.2049044145030715
 40
0.2049044145030715
 40
0.2049044145030715
 10
1552.982300171665
 20
-5720.086040416219
 30
0.0
 10
1552.973929554209
 20
-5720.153826988062
 30
0.0
 10
1552.964781941031
 20
-5720.221525361527
 30
0.0
 10
1552.954728548171
 20
-5720.289082728906
 30
0.0
  0
SPLINE
  5
DF
330
1F
100
AcDbEntity
  8
2D
100
AcDbSpline
210
0.0
220
0.0
230
1.0
 70
     8
 71
     3
 72
     8
 73
     4
 74
     0
 42
0.0000000001
 43
0.0000000001
 40
-0.4829058610907499
 40
-0.4829058610907499
 40
-0.4829058610907499
 40
-0.4829058610907499
 40
0.0
 40
0.0
 40
0.0
 40
0.0
 10
1552.954728548171
 20
-5720.289082728906
 30
0.0
 10
1552.930019974548
 20
-5720.454716052301
 30
0.0
 10
1552.899735226896
 20
-5720.618798690695
 30
0.0
 10
1552.86120564794
 20
-5720.781876988773
 30
0.0
  0
SPLINE
  5
E0
330
1F
100
AcDbEntity
  8
2D
100
AcDbSpline
210
0.0
220
0.0
230
1.0
 70
    12
 71
     3
 72
     9
 73
     5
 74
     0
 42
0.0000000001
 43
0.0000000001
 40
-1.490251186989551
 40
-1.490251186989551
 40
-1.490251186989551
 40
-1.490251186989551
 40
-0.9170675250511103
 40
0.0
 40
0.0
 40
0.0
 40
0.0
 10
1552.86120564794
 20
-5720.781876988773
 30
0.0
 41
1.0
 10
1552.803863463538
 20
-5721.039893579436
 30
0.0
 41
1.0
 10
1552.636853290172
 20
-5721.599802649111
 30
0.0
 41
1.0
 10
1552.531409988038
 20
-5721.81511798032
 30
0.0
 41
1.0
 10
1552.084851872467
 20
-5721.97427848317
 30
0.0
 41
1.0
  0
SPLINE
  5
E1
330
1F
100
AcDbEntity
  8
2D
100
AcDbSpline
210
0.0
220
0.0
230
1.0
 70
     8
 71
     3
 72
    68
 73
    64
 74
     0
 42
0.0000000001
 43
0.0000000001
 40
-1790.427532904561
 40
-1790.427532904561
 40
-1790.427532904561
 40
-1790.427532904561
 40
-1762.789009556208
 40
-1762.789009556208
 40
-1756.022107473014
 40
-1756.022107473014
 40
-1749.217511658297
 40
-1749.217511658297
 40
-1742.345711380992
 40
-1742.345711380992
 40
-1735.344158858857
 40
-1735.344158858857
 40
-1679.277706968435
 40
-1679.277706968435
 40
-1567.144803187582
 40
-1567.144803187582
 40
-1344.167237386371
 40
-1344.167237386371
 40
-1120.93828528048
 40
-1120.93828528048
 40
-1065.143103573101
 40
-1065.143103573101
 40
-1051.197539635046
 40
-1051.197539635046
 40
-1034.861505931218
 40
-1034.861505931218
 40
-1006.942340363009
 40
-1006.942340363009
 40
-951.1356993953584
 40
-951.1356993953584
 40
-895.3252226810133
 40
-895.3252226810133
 40
-839.5219153426001
 40
-839.5219153426001
 40
-783.7155353304704
 40
-783.7155353304704
 40
-755.7944264796334
 40
-755.7944264796334
 40
-739.4980365217423
 40
-739.4980365217423
 40
-725.548587073448
 40
-725.548587073448
 40
-669.750789280271
 40
-669.750789280271
 40
-446.5792177861006
 40
-446.5792177861006
 40
-223.3224591577407
 40
-223.3224591577407
 40
-112.1924672585478
 40
-112.1924672585478
 40
-56.63311954239014
 40
-56.63311954239014
 40
-42.57918842789402
 40
-42.57918842789402
 40
-35.41169255488538
 40
-35.41169255488538
 40
-28.19476379291643
 40
-28.19476379291643
 40
-20.83694954335951
 40
-20.83694954335951
 40
-13.89129969627105
 40
-13.89129969627105
 40
0.0
 40
0.0
 40
0.0
 40
0.0
 10
1552.084851872467
 20
-5721.97427848317
 30
0.0
 10
1543.384289332942
 20
-5725.079255460996
 30
0.0
 10
1534.683726796109
 20
-5728.184232446361
 30
0.0
 10
1523.852954401311
 20
-5732.049419178505
 30
0.0
 10
1521.722744547205
 20
-5732.809628936086
 30
0.0
 10
1517.450458913936
 20
-5734.334283056276
 30
0.0
 10
1515.308383134561
 20
-5735.098727418293
 30
0.0
 10
1511.00307571952
 20
-5736.635166050497
 30
0.0
 10
1508.839844083861
 20
-5737.407160320703
 30
0.0
 10
1504.472535015073
 20
-5738.96572553407
 30
0.0
 10
1502.268457582086
 20
-5739.752296477616
 30
0.0
 10
1482.414751589284
 20
-5746.837505020496
 30
0.0
 10
1464.76512302944
 20
-5753.136142619754
 30
0.0
 10
1411.816237349914
 20
-5772.032055417519
 30
0.0
 10
1376.51698023023
 20
-5784.629330616029
 30
0.0
 10
1271.024745298066
 20
-5822.276432090163
 30
0.0
 10
1200.831767485583
 20
-5847.326258365787
 30
0.0
 10
1060.366675857666
 20
-5897.454152248122
 30
0.0
 10
990.0945620422317
 20
-5922.53221985483
 30
0.0
 10
902.2582150827257
 20
-5953.878449927861
 30
0.0
 10
884.6939615753727
 20
-5960.146555332303
 30
0.0
 10
862.7397570210269
 20
-5967.981590434303
 30
0.0
 10
858.3497233935232
 20
-5969.548288725655
 30
0.0
 10
848.8170706954625
 20
-5972.950041812195
 30
0.0
 10
845.9332073957776
 20
-5973.991886726601
 30
0.0
 10
831.8907981744705
 20
-5978.648118831688
 30
0.0
 10
822.9606446307589
 20
-5981.294739894601
 30
0.0
 10
795.8845283164628
 20
-5988.384786529334
 30
0.0
 10
777.5513370220324
 20
-5991.95013687189
 30
0.0
 10
740.5445171101819
 20
-5996.718462617902
 30
0.0
 10
721.9081167398363
 20
-5997.916810168057
 30
0.0
 10
684.5965227769011
 20
-5997.928392036617
 30
0.0
 10
665.9597102290063
 20
-5996.741790475301
 30
0.0
 10
628.952332967634
 20
-5991.997244579243
 30
0.0
 10
610.617030762085
 20
-5988.443580858641
 30
0.0
 10
583.5358694750284
 20
-5981.370572805941
 30
0.0
 10
574.603507209682
 20
-5978.729232858516
 30
0.0
 10
560.5703608909462
 20
-5974.085096332302
 30
0.0
 10
557.6579756208521
 20
-5973.037513205352
 30
0.0
 10
548.1365733493622
 20
-5969.639602557961
 30
0.0
 10
543.7452811164258
 20
-5968.072478492757
 30
0.0
 10
521.7888199517438
 20
-5960.236858166752
 30
0.0
 10
504.2236510199982
 20
-5953.968361905947
 30
0.0
 10
416.4039826438748
 20
-5922.628084736971
 30
0.0
 10
346.1494831995005
 20
-5897.556303828799
 30
0.0
 10
205.6136673670298
 20
-5847.403171827728
 30
0.0
 10
135.332350978937
 20
-5822.32182073483
 30
0.0
 10
30.06726895321117
 20
-5784.755784470919
 30
0.0
 10
-4.916496407360682
 20
-5772.271098523525
 30
0.0
 10
-57.39036729614963
 20
-5753.544706703698
 30
0.0
 10
-74.88047250192176
 20
-5747.302999927727
 30
0.0
 10
-96.79475971826105
 20
-5739.482428233602
 30
0.0
 10
-101.2189426227342
 20
-5737.903565820307
 30
0.0
 10
-107.8994559308521
 20
-5735.5194844582
 30
0.0
 10
-110.1557863534545
 20
-5734.714265562522
 30
0.0
 10
-114.6840086597804
 20
-5733.098274238726
 30
0.0
 10
-116.9559005615265
 20
-5732.287501861124
 30
0.0
 10
-121.5440350096142
 20
-5730.650129140297
 30
0.0
 10
-123.8602795087754
 20
-5729.823534269161
 30
0.0
 10
-128.3630148771699
 20
-5728.216636821026
 30
0.0
 10
-130.5495079245957
 20
-5727.436340347632
 30
0.0
 10
-137.1089873986057
 20
-5725.095451854909
 30
0.0
 10
-141.4819741562533
 20
-5723.534860763265
 30
0.0
 10
-145.8549613553259
 20
-5721.974270908539
 30
0.0
  0
SPLINE
  5
E2
330
1F
100
AcDbEntity
  8
2D
100
AcDbSpline
210
0.0
220
0.0
230
1.0
 70
    12
 71
     3
 72
     9
 73
     5
 74
     0
 42
0.0000000001
 43
0.0000000001
 40
-1.423007303927645
 40
-1.423007303927645
 40
-1.423007303927645
 40
-1.423007303927645
 40
-0.4897354048897055
 40
0.0
 40
0.0
 40
0.0
 40
0.0
 10
-145.8549613553259
 20
-5721.974270908539
 30
0.0
 41
1.0
 10
-146.3015187655437
 20
-5721.815110731121
 30
0.0
 41
1.0
 10
-146.4004549345445
 20
-5721.613081284921
 30
0.0
 41
1.0
 10
-146.5535947278913
 20
-5721.107670466052
 30
0.0
 41
1.0
 10
-146.6037472448879
 20
-5720.902830179222
 30
0.0
 41
1.0
  0
LINE
  5
E3
330
1F
100
AcDbEntity
  8
2D
100
AcDbLine
 10
1460.607537262862
 20
-5460.32451549792
 30
0.0
 11
1529.568686200168
 21
-5646.199009337026
 31
0.0
  0
SPLINE
  5
E4
330
1F
100
AcDbEntity
  8
2D
100
AcDbSpline
210
0.0
220
0.0
230
1.0
 70
     8
 71
     3
 72
     8
 73
     4
 74
     0
 42
0.0000000001
 43
0.0000000001
 40
0.0
 40
0.0
 40
0.0
 40
0.0
 40
0.0296524734799623
 40
0.0296524734799623
 40
0.0296524734799623
 40
0.0296524734799623
 10
1529.568686200168
 20
-5646.199009337026
 30
0.0
 10
1529.572124330858
 20
-5646.208276258486
 30
0.0
 10
1529.57556247689
 20
-5646.217543174251
 30
0.0
 10
1529.579000638267
 20
-5646.226810084322
 30
0.0
  0
SPLINE
  5
E5
330
1F
100
AcDbEntity
  8
2D
100
AcDbSpline
210
0.0
220
0.0
230
1.0
 70
     8
 71
     3
 72
     8
 73
     4
 74
     0
 42
0.0000000001
 43
0.0000000001
 40
0.0
 40
0.0
 40
0.0
 40
0.0
 40
0.0296524734769979
 40
0.0296524734769979
 40
0.0296524734769979
 40
0.0296524734769979
 10
1529.579000638267
 20
-5646.226810084322
 30
0.0
 10
1529.582456207761
 20
-5646.236070517109
 30
0.0
 10
1529.585894365955
 20
-5646.245337465657
 30
0.0
 10
1529.589315076366
 20
-5646.254610831617
 30
0.0
  0
SPLINE
  5
E6
330
1F
100
AcDbEntity
  8
2D
100
AcDbSpline
210
0.0
220
0.0
230
1.0
 70
    12
 71
     2
 72
     6
 73
     3
 74
     0
 42
0.0000000001
 43
0.0000000001
 40
0.0
 40
0.0
 40
0.0
 40
0.4238773466101198
 40
0.4238773466101198
 40
0.4238773466101198
 10
1529.589315076366
 20
-5646.254610831617
 30
0.0
 41
0.999999999999998
 10
1529.662982245487
 20
-5646.453395725726
 30
0.0
 41
0.9996628986269819
 10
1529.725506744173
 20
-5646.655963191562
 30
0.0
 41
1.0
  0
SPLINE
  5
E7
330
1F
100
AcDbEntity
  8
2D
100
AcDbSpline
210
0.0
220
0.0
230
1.0
 70
     8
 71
     3
 72
     8
 73
     4
 74
     0
 42
0.0000000001
 43
0.0000000001
 40
-0.1769857591785351
 40
-0.1769857591785351
 40
-0.1769857591785351
 40
-0.1769857591785351
 40
0.0
 40
0.0
 40
0.0
 40
0.0
 10
1529.725506744173
 20
-5646.655963191562
 30
0.0
 10
1529.742220401702
 20
-5646.712547751737
 30
0.0
 10
1529.759287584886
 20
-5646.769775268417
 30
0.0
 10
1529.776590292669
 20
-5646.826184619867
 30
0.0
  0
SPLINE
  5
E8
330
1F
100
AcDbEntity
  8
2D
100
AcDbSpline
210
0.0
220
0.0
230
1.0
 70
     8
 71
     3
 72
     8
 73
     4
 74
     0
 42
0.0000000001
 43
0.0000000001
 40
0.0
 40
0.0
 40
0.0
 40
0.0
 40
0.2400289197990232
 40
0.2400289197990232
 40
0.2400289197990232
 40
0.2400289197990232
 10
1529.776590292669
 20
-5646.826184619867
 30
0.0
 10
1529.799921846738
 20
-5646.902723841571
 30
0.0
 10
1529.821261444446
 20
-5646.97984910679
 30
0.0
 10
1529.840252117217
 20
-5647.057586220312
 30
0.0
  0
SPLINE
  5
E9
330
1F
100
AcDbEntity
  8
2D
100
AcDbSpline
210
0.0
220
0.0
230
1.0
 70
     8
 71
     3
 72
     8
 73
     4
 74
     0
 42
0.0000000001
 43
0.0000000001
 40
-2.13409885535266
 40
-2.13409885535266
 40
-2.13409885535266
 40
-2.13409885535266
 40
0.0
 40
0.0
 40
0.0
 40
0.0
 10
1529.840252117217
 20
-5647.057586220312
 30
0.0
 10
1530.020974276118
 20
-5647.758417608255
 30
0.0
 10
1530.120616348831
 20
-5648.467160416058
 30
0.0
 10
1530.209154783908
 20
-5649.182456673057
 30
0.0
  0
SPLINE
  5
EA
330
1F
100
AcDbEntity
  8
2D
100
AcDbSpline
210
0.0
220
0.0
230
1.0
 70
     8
 71
     3
 72
     8
 73
     4
 74
     0
 42
0.0000000001
 43
0.0000000001
 40
0.0
 40
0.0
 40
0.0
 40
0.0
 40
0.2415839897095388
 40
0.2415839897095388
 40
0.2415839897095388
 40
0.2415839897095388
 10
1530.209154783908
 20
-5649.182456673057
 30
0.0
 10
1530.22172011471
 20
-5649.262056121708
 30
0.0
 10
1530.231147598402
 20
-5649.342030308681
 30
0.0
 10
1530.237449153923
 20
-5649.42236940813
 30
0.0
  0
SPLINE
  5
EB
330
1F
100
AcDbEntity
  8
2D
100
AcDbSpline
210
0.0
220
0.0
230
1.0
 70
     8
 71
     3
 72
     8
 73
     4
 74
     0
 42
0.0000000001
 43
0.0000000001
 40
-0.327342526865874
 40
-0.327342526865874
 40
-0.327342526865874
 40
-0.327342526865874
 40
0.0
 40
0.0
 40
0.0
 40
0.0
 10
1530.237449153923
 20
-5649.42236940813
 30
0.0
 10
1530.247118185474
 20
-5649.531096307396
 30
0.0
 10
1530.260022973453
 20
-5649.642150769975
 30
0.0
 10
1530.275790722677
 20
-5649.750162438459
 30
0.0
  0
SPLINE
  5
EC
330
1F
100
AcDbEntity
  8
2D
100
AcDbSpline
210
0.0
220
0.0
230
1.0
 70
     8
 71
     3
 72
     8
 73
     4
 74
     0
 42
0.0000000001
 43
0.0000000001
 40
0.0
 40
0.0
 40
0.0
 40
0.0
 40
0.344110040021546
 40
0.344110040021546
 40
0.344110040021546
 40
0.344110040021546
 10
1530.275790722677
 20
-5649.750162438459
 30
0.0
 10
1530.292110014758
 20
-5649.863737754148
 30
0.0
 10
1530.305728464973
 20
-5649.977630072893
 30
0.0
 10
1530.316794649822
 20
-5650.091834612809
 30
0.0
  0
SPLINE
  5
ED
330
1F
100
AcDbEntity
  8
2D
100
AcDbSpline
210
0.0
220
0.0
230
1.0
 70
     8
 71
     3
 72
     8
 73
     4
 74
     0
 42
0.0000000001
 43
0.0000000001
 40
-0.0777825871730156
 40
-0.0777825871730156
 40
-0.0777825871730156
 40
-0.0777825871730156
 40
0.0
 40
0.0
 40
0.0
 40
0.0
 10
1530.316794649822
 20
-5650.091834612809
 30
0.0
 10
1530.317143794255
 20
-5650.117913704366
 30
0.0
 10
1530.320319349205
 20
-5650.143645633511
 30
0.0
 10
1530.323509594116
 20
-5650.169375737007
 30
0.0
  0
SPLINE
  5
EE
330
1F
100
AcDbEntity
  8
2D
100
AcDbSpline
210
0.0
220
0.0
230
1.0
 70
     8
 71
     3
 72
    12
 73
     8
 74
     0
 42
0.0000000001
 43
0.0000000001
 40
-9.58382416718107
 40
-9.58382416718107
 40
-9.58382416718107
 40
-9.58382416718107
 40
-4.452143066512077
 40
-4.452143066512077
 40
-2.236101253038668
 40
-2.236101253038668
 40
0.0
 40
0.0
 40
0.0
 40
0.0
 10
1530.323509594116
 20
-5650.169375737007
 30
0.0
 10
1530.561863762476
 20
-5652.091707794451
 30
0.0
 10
1530.771848133791
 20
-5653.216025634186
 30
0.0
 10
1531.024340709493
 20
-5655.981220319405
 30
0.0
 10
1531.081024304658
 20
-5656.813609402671
 30
0.0
 10
1531.074266425119
 20
-5658.498644430737
 30
0.0
 10
1531.02567749974
 20
-5659.310312272425
 30
0.0
 10
1530.748535784474
 20
-5660.1286678302
 30
0.0
  0
SPLINE
  5
EF
330
1F
100
AcDbEntity
  8
2D
100
AcDbSpline
210
0.0
220
0.0
230
1.0
 70
     8
 71
     3
 72
     8
 73
     4
 74
     0
 42
0.0000000001
 43
0.0000000001
 40
0.0
 40
0.0
 40
0.0
 40
0.0
 40
0.0761411317653941
 40
0.0761411317653941
 40
0.0761411317653941
 40
0.0761411317653941
 10
1530.748535784474
 20
-5660.1286678302
 30
0.0
 10
1530.741593771792
 20
-5660.15311738377
 30
0.0
 10
1530.732965055693
 20
-5660.176994624462
 30
0.0
 10
1530.722769814613
 20
-5660.200267553095
 30
0.0
  0
SPLINE
  5
F0
330
1F
100
AcDbEntity
  8
2D
100
AcDbSpline
210
0.0
220
0.0
230
1.0
 70
     8
 71
     3
 72
     8
 73
     4
 74
     0
 42
0.0000000001
 43
0.0000000001
 40
-0.2301593913205476
 40
-0.2301593913205476
 40
-0.2301593913205476
 40
-0.2301593913205476
 40
0.0
 40
0.0
 40
0.0
 40
0.0
 10
1530.722769814613
 20
-5660.200267553095
 30
0.0
 10
1530.693529942586
 20
-5660.273063072077
 30
0.0
 10
1530.660179934919
 20
-5660.338450103433
 30
0.0
 10
1530.604946857071
 20
-5660.396631807267
 30
0.0
  0
SPLINE
  5
F1
330
1F
100
AcDbEntity
  8
2D
100
AcDbSpline
210
0.0
220
0.0
230
1.0
 70
    12
 71
     2
 72
     6
 73
     3
 74
     0
 42
0.0000000001
 43
0.0000000001
 40
0.0
 40
0.0
 40
0.0
 40
0.2012700455111795
 40
0.2012700455111795
 40
0.2012700455111795
 10
1530.604946857069
 20
-5660.396631807266
 30
0.0
 41
0.9999976707005379
 10
1530.533067042958
 20
-5660.468298683039
 30
0.0000000000000004
 41
0.9875533824355195
 10
1530.441855456629
 20
-5660.51284552506
 30
0.0
 41
1.0
  0
SPLINE
  5
F2
330
1F
100
AcDbEntity
  8
2D
100
AcDbSpline
210
0.0
220
0.0
230
1.0
 70
     8
 71
     3
 72
     8
 73
     4
 74
     0
 42
0.0000000001
 43
0.0000000001
 40
-0.0526134834899664
 40
-0.0526134834899664
 40
-0.0526134834899664
 40
-0.0526134834899664
 40
0.0
 40
0.0
 40
0.0
 40
0.0
 10
1530.441855456629
 20
-5660.51284552506
 30
0.0
 10
1530.426137714763
 20
-5660.520635489893
 30
0.0
 10
1530.412346827856
 20
-5660.52749950998
 30
0.0
 10
1530.396646443922
 20
-5660.535322528314
 30
0.0
  0
SPLINE
  5
F3
330
1F
100
AcDbEntity
  8
2D
100
AcDbSpline
210
0.0
220
0.0
230
1.0
 70
     8
 71
     3
 72
     8
 73
     4
 74
     0
 42
0.0000000001
 43
0.0000000001
 40
0.0
 40
0.0
 40
0.0
 40
0.0
 40
0.0542498415527082
 40
0.0542498415527082
 40
0.0542498415527082
 40
0.0542498415527082
 10
1530.396646443922
 20
-5660.535322528314
 30
0.0
 10
1530.380411729202
 20
-5660.543294581414
 30
0.0
 10
1530.363888456566
 20
-5660.550656864053
 30
0.0
 10
1530.347149118519
 20
-5660.557501812471
 30
0.0
  0
SPLINE
  5
F4
330
1F
100
AcDbEntity
  8
2D
100
AcDbSpline
210
0.0
220
0.0
230
1.0
 70
     8
 71
     3
 72
    20
 73
    16
 74
     0
 42
0.0000000001
 43
0.0000000001
 40
-25.22281222358841
 40
-25.22281222358841
 40
-25.22281222358841
 40
-25.22281222358841
 40
-24.84961176185672
 40
-24.84961176185672
 40
-24.45285144756367
 40
-24.45285144756367
 40
-23.6593108844873
 40
-23.6593108844873
 40
-22.07216553488261
 40
-22.07216553488261
 40
-18.91475305003484
 40
-18.91475305003484
 40
-12.61359843275956
 40
-12.61359843275956
 40
0.0
 40
0.0
 40
0.0
 40
0.0
 10
1530.347149118519
 20
-5660.557501812471
 30
0.0
 10
1530.233748876606
 20
-5660.605934413609
 30
0.0
 10
1530.116745560612
 20
-5660.643575321058
 30
0.0
 10
1529.877774569002
 20
-5660.728877780944
 30
0.0
 10
1529.754632963017
 20
-5660.772834083275
 30
0.0
 10
1529.385201953344
 20
-5660.904705185589
 30
0.0
 10
1529.138912544946
 20
-5660.992619972386
 30
0.0
 10
1528.400024354196
 20
-5661.256371356462
 30
0.0
 10
1527.907425539182
 20
-5661.432207862239
 30
0.0
 10
1526.434867307955
 20
-5661.957846803851
 30
0.0
 10
1525.454909519955
 20
-5662.307653800821
 30
0.0
 10
1522.519256589589
 20
-5663.355497519902
 30
0.0
 10
1520.563542601052
 20
-5664.053481416907
 30
0.0
 10
1514.692806777526
 20
-5666.148431531732
 30
0.0
 10
1510.777583243889
 20
-5667.544832210235
 30
0.0
 10
1506.862583367976
 20
-5668.941859900879
 30
0.0
  0
LINE
  5
F5
330
1F
100
AcDbEntity
  8
2D
100
AcDbLine
 10
1506.862583367976
 20
-5668.941859900879
 30
0.0
 11
1506.632329826381
 21
-5669.024014458519
 31
0.0
  0
SPLINE
  5
F6
330
1F
100
AcDbEntity
  8
2D
100
AcDbSpline
210
0.0
220
0.0
230
1.0
 70
     8
 71
     3
 72
     8
 73
     4
 74
     0
 42
0.0000000001
 43
0.0000000001
 40
-0.8957785265564038
 40
-0.8957785265564038
 40
-0.8957785265564038
 40
-0.8957785265564038
 40
0.0
 40
0.0
 40
0.0
 40
0.0
 10
1506.632329826381
 20
-5669.024014458519
 30
0.0
 10
1506.350952087927
 20
-5669.12393669321
 30
0.0
 10
1506.110013741287
 20
-5669.209888738376
 30
0.0
 10
1505.828780777789
 20
-5669.310216728656
 30
0.0
  0
SPLINE
  5
F7
330
1F
100
AcDbEntity
  8
2D
100
AcDbSpline
210
0.0
220
0.0
230
1.0
 70
     8
 71
     3
 72
     8
 73
     4
 74
     0
 42
0.0000000001
 43
0.0000000001
 40
-0.1730632206647784
 40
-0.1730632206647784
 40
-0.1730632206647784
 40
-0.1730632206647784
 40
0.0
 40
0.0
 40
0.0
 40
0.0
 10
1505.828780777789
 20
-5669.310216728656
 30
0.0
 10
1505.774446943225
 20
-5669.329599963479
 30
0.0
 10
1505.720113124891
 20
-5669.34898324377
 30
0.0
 10
1505.665779322775
 20
-5669.368366569537
 30
0.0
  0
SPLINE
  5
F8
330
1F
100
AcDbEntity
  8
2D
100
AcDbSpline
210
0.0
220
0.0
230
1.0
 70
     8
 71
     3
 72
     8
 73
     4
 74
     0
 42
0.0000000001
 43
0.0000000001
 40
-0.1587292161032924
 40
-0.1587292161032924
 40
-0.1587292161032924
 40
-0.1587292161032924
 40
0.0
 40
0.0
 40
0.0
 40
0.0
 10
1505.665779322775
 20
-5669.368366569537
 30
0.0
 10
1505.615945748399
 20
-5669.386144459967
 30
0.0
 10
1505.567311034039
 20
-5669.40349470328
 30
0.0
 10
1505.51764430706
 20
-5669.421740282394
 30
0.0
  0
LINE
  5
F9
330
1F
100
AcDbEntity
  8
2D
100
AcDbLine
 10
1505.51764430706
 20
-5669.421740282394
 30
0.0
 11
1505.317568672323
 21
-5669.493129142547
 31
0.0
  0
SPLINE
  5
FA
330
1F
100
AcDbEntity
  8
2D
100
AcDbSpline
210
0.0
220
0.0
230
1.0
 70
     8
 71
     3
 72
     8
 73
     4
 74
     0
 42
0.0000000001
 43
0.0000000001
 40
-0.322814344785173
 40
-0.322814344785173
 40
-0.322814344785173
 40
-0.322814344785173
 40
0.0
 40
0.0
 40
0.0
 40
0.0
 10
1505.317568672323
 20
-5669.493129142547
 30
0.0
 10
1505.216049376297
 20
-5669.528806613957
 30
0.0
 10
1505.11911488188
 20
-5669.563388034293
 30
0.0
 10
1505.017942844825
 20
-5669.600038811983
 30
0.0
  0
LINE
  5
FB
330
1F
100
AcDbEntity
  8
2D
100
AcDbLine
 10
1505.017942844825
 20
-5669.600038811983
 30
0.0
 11
1504.582259496696
 21
-5669.755495959123
 31
0.0
  0
LINE
  5
FC
330
1F
100
AcDbEntity
  8
2D
100
AcDbLine
 10
1504.582259496696
 20
-5669.755495959123
 30
0.0
 11
1504.493267543312
 21
-5669.787249471985
 31
0.0
  0
LINE
  5
FD
330
1F
100
AcDbEntity
  8
2D
100
AcDbLine
 10
1504.493267543312
 20
-5669.787249471985
 30
0.0
 11
1504.195594343939
 21
-5669.89346328214
 31
0.0
  0
SPLINE
  5
FE
330
1F
100
AcDbEntity
  8
2D
100
AcDbSpline
210
0.0
220
0.0
230
1.0
 70
     8
 71
     3
 72
     8
 73
     4
 74
     0
 42
0.0000000001
 43
0.0000000001
 40
-0.2694917877483551
 40
-0.2694917877483551
 40
-0.2694917877483551
 40
-0.2694917877483551
 40
0.0
 40
0.0
 40
0.0
 40
0.0
 10
1504.195594343939
 20
-5669.89346328214
 30
0.0
 10
1504.110795212069
 20
-5669.923110706663
 30
0.0
 10
1504.028627534375
 20
-5669.952424558204
 30
0.0
 10
1503.944216056032
 20
-5669.983158498195
 30
0.0
  0
LINE
  5
FF
330
1F
100
AcDbEntity
  8
2D
100
AcDbLine
 10
1503.944216056032
 20
-5669.983158498195
 30
0.0
 11
1481.541880072557
 21
-5677.978518323425
 31
0.0
  0
LINE
  5
100
330
1F
100
AcDbEntity
  8
2D
100
AcDbLine
 10
1481.541880072557
 20
-5677.978518323425
 30
0.0
 11
1481.175760908929
 21
-5678.109233994578
 31
0.0
  0
SPLINE
  5
101
330
1F
100
AcDbEntity
  8
2D
100
AcDbSpline
210
0.0
220
0.0
230
1.0
 70
    12
 71
     3
 72
    51
 73
    47
 74
     0
 42
0.0000000001
 43
0.0000000001
 40
-1644.653539299728
 40
-1644.653539299728
 40
-1644.653539299728
 40
-1644.653539299728
 40
-1644.172510054055
 40
-1644.172510054055
 40
-1642.248393071365
 40
-1642.248393071365
 40
-1580.676649625289
 40
-1580.676649625289
 40
-1457.533162733135
 40
-1457.533162733135
 40
-964.9592151645209
 40
-964.9592151645209
 40
-964.9592151645209
 40
-946.1476867194842
 40
-927.3361582744474
 40
-908.5246298294105
 40
-889.7131013843738
 40
-870.9015729393369
 40
-852.0900444943002
 40
-833.2785160492633
 40
-814.4669876042266
 40
-795.65545915919
 40
-776.843930714153
 40
-758.0324022691163
 40
-739.2208738240796
 40
-720.4093453790427
 40
-701.5978169340059
 40
-682.7862884889691
 40
-682.7862884889691
 40
-682.7862884889691
 40
-190.2123409203548
 40
-190.2123409203548
 40
-67.0688540282014
 40
-67.0688540282014
 40
-5.497110582124457
 40
-5.497110582124457
 40
-3.572993599434678
 40
-3.572993599434678
 40
-2.610935108089663
 40
-2.610935108089663
 40
-1.648876616744648
 40
-1.648876616744648
 40
-0.7331191162116371
 40
-0.7331191162116371
 40
-0.7331191162116371
 40
0.0
 40
0.0
 40
0.0
 40
0.0
 10
1481.175760908929
 20
-5678.109233994578
 30
0.0
 41
1.0
 10
1481.022722790691
 20
-5678.163876901139
 30
0.0
 41
1.0
 10
1480.87118093581
 20
-5678.217577927264
 30
0.0
 41
1.0
 10
1480.102779119727
 20
-5678.492249395572
 30
0.0
 41
1.0
 10
1479.490648380888
 20
-5678.710505522401
 30
0.0
 41
1.0
 10
1459.262301234296
 20
-5685.929478906267
 30
0.0
 41
1.0
 10
1439.643781143375
 20
-5692.930719695893
 30
0.0
 41
1.0
 10
1380.796045393832
 20
-5713.93177173638
 30
0.0
 41
1.0
 10
1341.56270294515
 20
-5727.933002835777
 30
0.0
 41
1.0
 10
1145.394984062172
 20
-5797.9395409168
 30
0.0
 41
1.0
 10
988.4616570543549
 20
-5853.944466804592
 30
0.0
 41
1.0
 10
831.5297428431622
 20
-5909.948889464166
 30
0.0
 41
1.0
 10
826.0539919576295
 20
-5911.903025477922
 30
0.0
 41
1.0
 10
815.0283902132978
 20
-5915.559473753322
 30
0.0
 41
1.0
 10
798.1627146209976
 20
-5920.312221498268
 30
0.0
 41
1.0
 10
781.1617955485126
 20
-5924.274746866125
 30
0.0
 41
1.0
 10
763.9686547124802
 20
-5927.462692471395
 30
0.0
 41
1.0
 10
746.6712163075681
 20
-5929.856361880896
 30
0.0
 41
1.0
 10
729.293372176704
 20
-5931.454899882122
 30
0.0
 41
1.0
 10
711.8489244233169
 20
-5932.256458023497
 30
0.0
 41
1.0
 10
694.3602165182965
 20
-5932.255845778626
 30
0.0
 41
1.0
 10
676.9217092487888
 20
-5931.454011175573
 30
0.0
 41
1.0
 10
659.5308791740754
 20
-5929.853255862882
 30
0.0
 41
1.0
 10
642.2476454875323
 20
-5927.459960626785
 30
0.0
 41
1.0
 10
625.068762738254
 20
-5924.275601449385
 30
0.0
 41
1.0
 10
608.0250075673503
 20
-5920.300488994132
 30
0.0
 41
1.0
 10
591.2712227517841
 20
-5915.580256336923
 30
0.0
 41
1.0
 10
580.1879371955583
 20
-5911.907319647645
 30
0.0
 41
1.0
 10
574.7001563668018
 20
-5909.948889464161
 30
0.0
 41
1.0
 10
417.7677005539845
 20
-5853.945019502587
 30
0.0
 41
1.0
 10
260.8338319396717
 20
-5797.94064631777
 30
0.0
 41
1.0
 10
64.66543604490653
 20
-5727.934799119202
 30
0.0
 41
1.0
 10
25.43195819456741
 20
-5713.933706195582
 30
0.0
 41
1.0
 10
-33.41598064962091
 20
-5692.932861410759
 30
0.0
 41
1.0
 10
-53.03456844771426
 20
-5685.931689715492
 30
0.0
 41
1.0
 10
-73.26298540621792
 20
-5678.712787573851
 30
0.0
 41
1.0
 10
-73.87511825741603
 20
-5678.494533602668
 30
0.0
 41
1.0
 10
-74.79720361960426
 20
-5678.164931088774
 30
0.0
 41
1.0
 10
-75.0960113420224
 20
-5678.059996622092
 30
0.0
 41
1.0
 10
-75.73496622832317
 20
-5677.826022504812
 30
0.0
 41
1.0
 10
-76.03862048465817
 20
-5677.719376985883
 30
0.0
 41
1.0
 10
-76.63526084889963
 20
-5677.506308609453
 30
0.0
 41
1.0
 10
-76.92640624066189
 20
-5677.402375324423
 30
0.0
 41
1.0
 10
-77.21745191056834
 20
-5677.298503156883
 30
0.0
 41
1.0
 10
-77.45038207248581
 20
-5677.215357096406
 30
0.0
 41
1.0
 10
-77.68324757994924
 20
-5677.132250321993
 30
0.0
 41
1.0
 10
-77.91590743000779
 20
-5677.049235633554
 30
0.0
 41
1.0
  0
LINE
  5
102
330
1F
100
AcDbEntity
  8
2D
100
AcDbLine
 10
-77.91590743000779
 20
-5677.049235633554
 30
0.0
 11
-78.0528476090476
 21
-5677.000367864301
 31
0.0
  0
SPLINE
  5
103
330
1F
100
AcDbEntity
  8
2D
100
AcDbSpline
210
0.0
220
0.0
230
1.0
 70
     8
 71
     3
 72
     8
 73
     4
 74
     0
 42
0.0000000001
 43
0.0000000001
 40
-2.055829098515498
 40
-2.055829098515498
 40
-2.055829098515498
 40
-2.055829098515498
 40
0.0
 40
0.0
 40
0.0
 40
0.0
 10
-78.0528476090476
 20
-5677.000367864301
 30
0.0
 10
-78.69826243502757
 20
-5676.770056335076
 30
0.0
 10
-79.35488890777197
 20
-5676.535815489206
 30
0.0
 10
-80.00028292384013
 20
-5676.305445646267
 30
0.0
  0
LINE
  5
104
330
1F
100
AcDbEntity
  8
2D
100
AcDbLine
 10
-80.00028292384013
 20
-5676.305445646267
 30
0.0
 11
-81.80145162891858
 21
-5675.662671960459
 31
0.0
  0
LINE
  5
105
330
1F
100
AcDbEntity
  8
2D
100
AcDbLine
 10
-81.80145162891858
 20
-5675.662671960459
 30
0.0
 11
-81.82657625614956
 21
-5675.653705891216
 31
0.0
  0
LINE
  5
106
330
1F
100
AcDbEntity
  8
2D
100
AcDbLine
 10
-81.82657625614956
 20
-5675.653705891216
 30
0.0
 11
-86.1706331853602
 21
-5674.103462086548
 31
0.0
  0
LINE
  5
107
330
1F
100
AcDbEntity
  8
2D
100
AcDbLine
 10
-86.1706331853602
 20
-5674.103462086548
 30
0.0
 11
-86.19210280192056
 21
-5674.095800208896
 31
0.0
  0
SPLINE
  5
108
330
1F
100
AcDbEntity
  8
2D
100
AcDbSpline
210
0.0
220
0.0
230
1.0
 70
     8
 71
     3
 72
     8
 73
     4
 74
     0
 42
0.0000000001
 43
0.0000000001
 40
-17.64020400417244
 40
-17.64020400417244
 40
-17.64020400417244
 40
-17.64020400417244
 40
0.0
 40
0.0
 40
0.0
 40
0.0
 10
-86.19210280192056
 20
-5674.095800208896
 30
0.0
 10
-91.73005892504807
 20
-5672.119378744687
 30
0.0
 10
-97.26804280707802
 20
-5670.143035103694
 30
0.0
 10
-102.8060292213049
 20
-5668.16669854682
 30
0.0
  0
LINE
  5
109
330
1F
100
AcDbEntity
  8
2D
100
AcDbLine
 10
-102.8060292213049
 20
-5668.16669854682
 30
0.0
 11
-102.8740479025182
 21
-5668.142423735928
 31
0.0
  0
LINE
  5
10A
330
1F
100
AcDbEntity
  8
2D
100
AcDbLine
 10
-102.8740479025182
 20
-5668.142423735928
 30
0.0
 11
-102.9240635300521
 21
-5668.124573946161
 31
0.0
  0
SPLINE
  5
10B
330
1F
100
AcDbEntity
  8
2D
100
AcDbSpline
210
0.0
220
0.0
230
1.0
 70
     8
 71
     3
 72
     8
 73
     4
 74
     0
 42
0.0000000001
 43
0.0000000001
 40
-0.1591293245063146
 40
-0.1591293245063146
 40
-0.1591293245063146
 40
-0.1591293245063146
 40
0.0
 40
0.0
 40
0.0
 40
0.0
 10
-102.9240635300521
 20
-5668.124573946161
 30
0.0
 10
-102.9740220978892
 20
-5668.106749445503
 30
0.0
 10
-103.0354642162565
 20
-5668.084820915365
 30
0.0
 10
-103.0854199527676
 20
-5668.066988471511
 30
0.0
  0
LINE
  5
10C
330
1F
100
AcDbEntity
  8
2D
100
AcDbLine
 10
-103.0854199527676
 20
-5668.066988471511
 30
0.0
 11
-103.1717394077205
 21
-5668.036182557862
 31
0.0
  0
SPLINE
  5
10D
330
1F
100
AcDbEntity
  8
2D
100
AcDbSpline
210
0.0
220
0.0
230
1.0
 70
     8
 71
     3
 72
     8
 73
     4
 74
     0
 42
0.0000000001
 43
0.0000000001
 40
-0.0694056345889177
 40
-0.0694056345889177
 40
-0.0694056345889177
 40
-0.0694056345889177
 40
0.0
 40
0.0
 40
0.0
 40
0.0
 10
-103.1717394077205
 20
-5668.036182557862
 30
0.0
 10
-103.1935292707967
 20
-5668.028408248397
 30
0.0
 10
-103.2185517366233
 20
-5668.019477902845
 30
0.0
 10
-103.2403403679491
 20
-5668.011700142258
 30
0.0
  0
LINE
  5
10E
330
1F
100
AcDbEntity
  8
2D
100
AcDbLine
 10
-103.2403403679491
 20
-5668.011700142258
 30
0.0
 11
-103.3104902723753
 21
-5667.986665041391
 31
0.0
  0
LINE
  5
10F
330
1F
100
AcDbEntity
  8
2D
100
AcDbLine
 10
-103.3104902723753
 20
-5667.986665041391
 30
0.0
 11
-103.3323389391298
 21
-5667.978867718207
 31
0.0
  0
LINE
  5
110
330
1F
100
AcDbEntity
  8
2D
100
AcDbLine
 10
-103.3323389391298
 20
-5667.978867718207
 30
0.0
 11
-103.4195550125369
 21
-5667.947742385879
 31
0.0
  0
SPLINE
  5
111
330
1F
100
AcDbEntity
  8
2D
100
AcDbSpline
210
0.0
220
0.0
230
1.0
 70
     8
 71
     3
 72
     8
 73
     4
 74
     0
 42
0.0000000001
 43
0.0000000001
 40
-0.0499196571811031
 40
-0.0499196571811031
 40
-0.0499196571811031
 40
-0.0499196571811031
 40
0.0
 40
0.0
 40
0.0
 40
0.0
 10
-103.4195550125369
 20
-5667.947742385879
 30
0.0
 10
-103.4352268535768
 20
-5667.942149605133
 30
0.0
 10
-103.4552367425968
 20
-5667.935011282522
 30
0.0
 10
-103.4709077031439
 20
-5667.929416035213
 30
0.0
  0
SPLINE
  5
112
330
1F
100
AcDbEntity
  8
2D
100
AcDbSpline
210
0.0
220
0.0
230
1.0
 70
     8
 71
     3
 72
     8
 73
     4
 74
     0
 42
0.0000000001
 43
0.0000000001
 40
-21.79714637399069
 40
-21.79714637399069
 40
-21.79714637399069
 40
-21.79714637399069
 40
0.0
 40
0.0
 40
0.0
 40
0.0
 10
-103.4709077031439
 20
-5667.929416035213
 30
0.0
 10
-110.3143309487677
 20
-5665.48847781439
 30
0.0
 10
-117.1573493839278
 20
-5663.046404360928
 30
0.0
 10
-124.00036830522
 20
-5660.603051655851
 30
0.0
  0
SPLINE
  5
113
330
1F
100
AcDbEntity
  8
2D
100
AcDbSpline
210
0.0
220
0.0
230
1.0
 70
     8
 71
     3
 72
     8
 73
     4
 74
     0
 42
0.0000000001
 43
0.0000000001
 40
-0.1141806822852686
 40
-0.1141806822852686
 40
-0.1141806822852686
 40
-0.1141806822852686
 40
0.0
 40
0.0
 40
0.0
 40
0.0
 10
-124.00036830522
 20
-5660.603051655851
 30
0.0
 10
-124.0365688525962
 20
-5660.589973085525
 30
0.0
 10
-124.0821963203052
 20
-5660.57230241176
 30
0.0
 10
-124.1172603433079
 20
-5660.557499124253
 30
0.0
  0
SPLINE
  5
114
330
1F
100
AcDbEntity
  8
2D
100
AcDbSpline
210
0.0
220
0.0
230
1.0
 70
     8
 71
     3
 72
     8
 73
     4
 74
     0
 42
0.0000000001
 43
0.0000000001
 40
0.0
 40
0.0
 40
0.0
 40
0.0
 40
0.0542498392549308
 40
0.0542498392549308
 40
0.0542498392549308
 40
0.0542498392549308
 10
-124.1172603433079
 20
-5660.557499124253
 30
0.0
 10
-124.1339996930765
 20
-5660.550654205591
 30
0.0
 10
-124.1505229684008
 20
-5660.543291930944
 30
0.0
 10
-124.1667576857944
 20
-5660.535319885023
 30
0.0
  0
SPLINE
  5
115
330
1F
100
AcDbEntity
  8
2D
100
AcDbSpline
210
0.0
220
0.0
230
1.0
 70
     8
 71
     3
 72
     8
 73
     4
 74
     0
 42
0.0000000001
 43
0.0000000001
 40
-0.0484109398611948
 40
-0.0484109398611948
 40
-0.0484109398611948
 40
-0.0484109398611948
 40
0.0
 40
0.0
 40
0.0
 40
0.0
 10
-124.1667576857944
 20
-5660.535319885023
 30
0.0
 10
-124.1811922848428
 20
-5660.528097002326
 30
0.0
 10
-124.1974867910249
 20
-5660.519978372034
 30
0.0
 10
-124.211966706338
 20
-5660.512842902583
 30
0.0
  0
SPLINE
  5
116
330
1F
100
AcDbEntity
  8
2D
100
AcDbSpline
210
0.0
220
0.0
230
1.0
 70
    12
 71
     2
 72
     6
 73
     3
 74
     0
 42
0.0000000001
 43
0.0000000001
 40
0.0
 40
0.0
 40
0.0
 40
0.2012700135888692
 40
0.2012700135888692
 40
0.2012700135888692
 10
-124.2119667063392
 20
-5660.512842902583
 30
0.0
 41
0.999999999999595
 10
-124.3031782780099
 20
-5660.468296071842
 30
0.0000000000000012
 41
0.9875533933710204
 10
-124.3750581434431
 20
-5660.396629289801
 30
0.0
 41
0.9999976706513857
  0
SPLINE
  5
117
330
1F
100
AcDbEntity
  8
2D
100
AcDbSpline
210
0.0
220
0.0
230
1.0
 70
    12
 71
     3
 72
     8
 73
     4
 74
     0
 42
0.0000000001
 43
0.0000000001
 40
-0.0638837669195478
 40
-0.0638837669195478
 40
-0.0638837669195478
 40
-0.0638837669195478
 40
0.0
 40
0.0
 40
0.0
 40
0.0
 10
-124.3750581434433
 20
-5660.396629289802
 30
0.0
 41
1.0
 10
-124.3898734523646
 20
-5660.380042256916
 30
0.0
 41
1.0
 10
-124.4036415646224
 20
-5660.363562789789
 30
0.0
 41
1.0
 10
-124.4168785195834
 20
-5660.347153810854
 30
0.0
 41
1.0
  0
SPLINE
  5
118
330
1F
100
AcDbEntity
  8
2D
100
AcDbSpline
210
0.0
220
0.0
230
1.0
 70
    12
 71
     2
 72
     6
 73
     3
 74
     0
 42
0.0000000001
 43
0.0000000001
 40
0.0
 40
0.0
 40
0.0
 40
0.2422513242207622
 40
0.2422513242207622
 40
0.2422513242207622
 10
-124.4168785195844
 20
-5660.347153810854
 30
0.0
 41
0.9999955815240267
 10
-124.4855009444383
 20
-5660.246205700166
 30
0.0000000000000009
 41
0.9885577430835298
 10
-124.5186471385714
 20
-5660.128665501546
 30
0.0
 41
1.0
  0
SPLINE
  5
119
330
1F
100
AcDbEntity
  8
2D
100
AcDbSpline
210
0.0
220
0.0
230
1.0
 70
     8
 71
     3
 72
     8
 73
     4
 74
     0
 42
0.0000000001
 43
0.0000000001
 40
-0.7128501824625453
 40
-0.7128501824625453
 40
-0.7128501824625453
 40
-0.7128501824625453
 40
0.0
 40
0.0
 40
0.0
 40
0.0
 10
-124.5186471385714
 20
-5660.128665501546
 30
0.0
 10
-124.5888631024573
 20
-5659.918304163753
 30
0.0
 10
-124.6456003670246
 20
-5659.705659438956
 30
0.0
 10
-124.692951953828
 20
-5659.489120977001
 30
0.0
  0
SPLINE
  5
11A
330
1F
100
AcDbEntity
  8
2D
100
AcDbSpline
210
0.0
220
0.0
230
1.0
 70
     8
 71
     3
 72
     8
 73
     4
 74
     0
 42
0.0000000001
 43
0.0000000001
 40
0.0
 40
0.0
 40
0.0
 40
0.0
 40
0.1100631219582964
 40
0.1100631219582964
 40
0.1100631219582964
 40
0.1100631219582964
 10
-124.692951953828
 20
-5659.489120977001
 30
0.0
 10
-124.7023865837546
 20
-5659.453614814091
 30
0.0
 10
-124.7096167346936
 20
-5659.417643380689
 30
0.0
 10
-124.714590763946
 20
-5659.381241720981
 30
0.0
  0
SPLINE
  5
11B
330
1F
100
AcDbEntity
  8
2D
100
AcDbSpline
210
0.0
220
0.0
230
1.0
 70
     8
 71
     3
 72
    10
 73
     6
 74
     0
 42
0.0000000001
 43
0.0000000001
 40
-9.746686871528613
 40
-9.746686871528613
 40
-9.746686871528613
 40
-9.746686871528613
 40
-5.619242187735382
 40
-5.619242187735382
 40
0.0
 40
0.0
 40
0.0
 40
0.0
 10
-124.714590763946
 20
-5659.381241720981
 30
0.0
 10
-124.9639731925708
 20
-5658.06362693925
 30
0.0
 10
-124.8115151298007
 20
-5656.060125665713
 30
0.0
 10
-124.5049660539698
 20
-5652.99722858313
 30
0.0
 10
-124.3118320942958
 20
-5651.929248278822
 30
0.0
 10
-124.0964172743043
 20
-5650.169028908365
 30
0.0
  0
SPLINE
  5
11C
330
1F
100
AcDbEntity
  8
2D
100
AcDbSpline
210
0.0
220
0.0
230
1.0
 70
     8
 71
     3
 72
     8
 73
     4
 74
     0
 42
0.0000000001
 43
0.0000000001
 40
0.0
 40
0.0
 40
0.0
 40
0.0
 40
0.4218836001278556
 40
0.4218836001278556
 40
0.4218836001278556
 40
0.4218836001278556
 10
-124.0964172743043
 20
-5650.169028908365
 30
0.0
 10
-124.0820017393416
 20
-5650.029112311092
 30
0.0
 10
-124.0652184293322
 20
-5649.889488494635
 30
0.0
 10
-124.0459027727156
 20
-5649.750162064791
 30
0.0
  0
SPLINE
  5
11D
330
1F
100
AcDbEntity
  8
2D
100
AcDbSpline
210
0.0
220
0.0
230
1.0
 70
     8
 71
     3
 72
     8
 73
     4
 74
     0
 42
0.0000000001
 43
0.0000000001
 40
-0.3321654488317767
 40
-0.3321654488317767
 40
-0.3321654488317767
 40
-0.3321654488317767
 40
0.0
 40
0.0
 40
0.0
 40
0.0
 10
-124.0459027727156
 20
-5649.750162064791
 30
0.0
 10
-124.0299463349402
 20
-5649.640553867151
 30
0.0
 10
-124.0174169979146
 20
-5649.532692712049
 30
0.0
 10
-124.0075612170112
 20
-5649.422369071304
 30
0.0
  0
SPLINE
  5
11E
330
1F
100
AcDbEntity
  8
2D
100
AcDbSpline
210
0.0
220
0.0
230
1.0
 70
     8
 71
     3
 72
     8
 73
     4
 74
     0
 42
0.0000000001
 43
0.0000000001
 40
0.0
 40
0.0
 40
0.0
 40
0.0
 40
0.2415839625900156
 40
0.2415839625900156
 40
0.2415839625900156
 40
0.2415839625900156
 10
-124.0075612170112
 20
-5649.422369071304
 30
0.0
 10
-124.0012596556116
 20
-5649.342029981722
 30
0.0
 10
-123.9918321841178
 20
-5649.262055802418
 30
0.0
 10
-123.9792668563714
 20
-5649.182456362428
 30
0.0
  0
SPLINE
  5
11F
330
1F
100
AcDbEntity
  8
2D
100
AcDbSpline
210
0.0
220
0.0
230
1.0
 70
     8
 71
     3
 72
     8
 73
     4
 74
     0
 42
0.0000000001
 43
0.0000000001
 40
-2.182553013927308
 40
-2.182553013927308
 40
-2.182553013927308
 40
-2.182553013927308
 40
0.0
 40
0.0
 40
0.0
 40
0.0
 10
-123.9792668563714
 20
-5649.182456362428
 30
0.0
 10
-123.8907284489142
 20
-5648.467160181332
 30
0.0
 10
-123.7910864025398
 20
-5647.758417450038
 30
0.0
 10
-123.6103642702947
 20
-5647.057586136207
 30
0.0
  0
SPLINE
  5
120
330
1F
100
AcDbEntity
  8
2D
100
AcDbSpline
210
0.0
220
0.0
230
1.0
 70
     8
 71
     3
 72
     8
 73
     4
 74
     0
 42
0.0000000001
 43
0.0000000001
 40
0.0
 40
0.0
 40
0.0
 40
0.0
 40
0.2400288943887201
 40
0.2400288943887201
 40
0.2400288943887201
 40
0.2400288943887201
 10
-123.6103642702947
 20
-5647.057586136207
 30
0.0
 10
-123.5913735994982
 20
-5646.979849030937
 30
0.0
 10
-123.5700340055373
 20
-5646.902723773484
 30
0.0
 10
-123.5467024543068
 20
-5646.826184559768
 30
0.0
  0
SPLINE
  5
121
330
1F
100
AcDbEntity
  8
2D
100
AcDbSpline
210
0.0
220
0.0
230
1.0
 70
     8
 71
     3
 72
     8
 73
     4
 74
     0
 42
0.0000000001
 43
0.0000000001
 40
-0.1783993736392508
 40
-0.1783993736392508
 40
-0.1783993736392508
 40
-0.1783993736392508
 40
0.0
 40
0.0
 40
0.0
 40
0.0
 10
-123.5467024543068
 20
-5646.826184559768
 30
0.0
 10
-123.5292695364587
 20
-5646.769322403739
 30
0.0
 10
-123.5124718415027
 20
-5646.712997862325
 30
0.0
 10
-123.495618912224
 20
-5646.655963149517
 30
0.0
  0
SPLINE
  5
122
330
1F
100
AcDbEntity
  8
2D
100
AcDbSpline
210
0.0
220
0.0
230
1.0
 70
    12
 71
     2
 72
     6
 73
     3
 74
     0
 42
0.0000000001
 43
0.0000000001
 40
0.0
 40
0.0
 40
0.0
 40
0.4238773019833418
 40
0.4238773019833418
 40
0.4238773019833418
 10
-123.495618912224
 20
-5646.655963149517
 30
0.0
 41
1.0
 10
-123.4330944210332
 20
-5646.453395704707
 30
0.0
 41
0.9996628985556597
 10
-123.3594272593909
 20
-5646.254610831617
 30
0.0
 41
1.0
  0
SPLINE
  5
123
330
1F
100
AcDbEntity
  8
2D
100
AcDbSpline
210
0.0
220
0.0
230
1.0
 70
     8
 71
     3
 72
     8
 73
     4
 74
     0
 42
0.0000000001
 43
0.0000000001
 40
0.0
 40
0.0
 40
0.0
 40
0.0
 40
0.0296524734812832
 40
0.0296524734812832
 40
0.0296524734812832
 40
0.0296524734812832
 10
-123.3594272593909
 20
-5646.254610831617
 30
0.0
 10
-123.3560065489837
 20
-5646.245337465655
 30
0.0
 10
-123.3525683907901
 20
-5646.236070517109
 30
0.0
 10
-123.3491128212918
 20
-5646.226810084321
 30
0.0
  0
SPLINE
  5
124
330
1F
100
AcDbEntity
  8
2D
100
AcDbSpline
210
0.0
220
0.0
230
1.0
 70
     8
 71
     3
 72
     8
 73
     4
 74
     0
 42
0.0000000001
 43
0.0000000001
 40
0.0
 40
0.0
 40
0.0
 40
0.0
 40
0.0296524734768895
 40
0.0296524734768895
 40
0.0296524734768895
 40
0.0296524734768895
 10
-123.3491128212918
 20
-5646.226810084321
 30
0.0
 10
-123.3456746599186
 20
-5646.217543174251
 30
0.0
 10
-123.3422365138831
 20
-5646.208276258485
 30
0.0
 10
-123.3387983831999
 20
-5646.199009337026
 30
0.0
  0
LINE
  5
125
330
1F
100
AcDbEntity
  8
2D
100
AcDbLine
 10
-123.3387983831999
 20
-5646.199009337026
 30
0.0
 11
-54.37764944588707
 21
-5460.32451549792
 31
0.0
  0
SPLINE
  5
126
330
1F
100
AcDbEntity
  8
2D
100
AcDbSpline
210
0.0
220
0.0
230
1.0
 70
    12
 71
     3
 72
    60
 73
    56
 74
     0
 42
0.0000000001
 43
0.0000000001
 40
-1740.952484832362
 40
-1740.952484832362
 40
-1740.952484832362
 40
-1740.952484832362
 40
-1728.376132436372
 40
-1728.376132436372
 40
-1715.730547220871
 40
-1715.730547220871
 40
-1703.071986251246
 40
-1703.071986251246
 40
-1690.426324788538
 40
-1690.426324788538
 40
-1677.768566138705
 40
-1677.768566138705
 40
-1665.096861187881
 40
-1665.096861187881
 40
-1652.455218492955
 40
-1652.455218492955
 40
-1639.784997442765
 40
-1639.784997442765
 40
-1639.784997442765
 40
-997.4216017533303
 40
-997.4216017533303
 40
-997.4216017533303
 40
-965.6131074308136
 40
-965.6131074308136
 40
-934.1693629690758
 40
-934.1693629690758
 40
-870.8100295118754
 40
-870.8100295118754
 40
-838.8259100303203
 40
-838.8259100303203
 40
-807.0386326427825
 40
-807.0386326427825
 40
-775.4616284010156
 40
-775.4616284010156
 40
-743.5308836907394
 40
-743.5308836907394
 40
-743.5308836907394
 40
-101.167487584992
 40
-101.167487584992
 40
-101.167487584992
 40
-88.50798402973109
 40
-88.50798402973109
 40
-75.85244284262626
 40
-75.85244284262626
 40
-63.192850500056
 40
-63.192850500056
 40
-50.53182984611632
 40
-50.53182984611632
 40
-37.87770599762668
 40
-37.87770599762668
 40
-25.23371402772688
 40
-25.23371402772688
 40
-12.57703696370759
 40
-12.57703696370759
 40
0.0
 40
0.0
 40
0.0
 40
0.0
 10
-124.8362356496145
 20
-5656.92065472147
 30
0.0
 41
1.0
 10
-120.6731674366347
 20
-5656.183879238279
 30
0.0
 41
1.0
 10
-116.4115280656442
 20
-5655.94984936055
 30
0.0
 41
1.0
 10
-107.9674680658063
 20
-5656.021522041913
 30
0.0
 41
1.0
 10
-103.7707916873514
 20
-5656.334006232481
 30
0.0
 41
1.0
 10
-95.36179782294494
 20
-5657.299665914626
 30
0.0
 41
1.0
 10
-91.18944677526815
 20
-5657.954948551201
 30
0.0
 41
1.0
 10
-82.87008859938942
 20
-5659.500151598403
 30
0.0
 41
1.0
 10
-78.74136801156783
 20
-5660.388966011285
 30
0.0
 41
1.0
 10
-70.50917171415858
 20
-5662.34032296163
 30
0.0
 41
1.0
 10
-66.41529157601326
 20
-5663.401447931931
 30
0.0
 41
1.0
 10
-58.25289140297537
 20
-5665.657779317346
 30
0.0
 41
1.0
 10
-54.19001234490861
 20
-5666.851976220913
 30
0.0
 41
1.0
 10
-46.10171677024846
 20
-5669.341818478834
 30
0.0
 41
1.0
 10
-42.07965462307402
 20
-5670.63622337281
 30
0.0
 41
1.0
 10
-34.05215329721977
 20
-5673.313583172398
 30
0.0
 41
1.0
 10
-30.04880779842642
 20
-5674.694958103751
 30
0.0
 41
1.0
 10
-26.05923981089654
 20
-5676.118361812564
 30
0.0
 41
1.0
 10
175.5041335766546
 20
-5748.050436975303
 30
0.0
 41
1.0
 10
377.0675069642057
 20
-5819.982512138042
 30
0.0
 41
1.0
 10
578.6308803517604
 20
-5891.914587300781
 30
0.0
 41
1.0
 10
588.6248635714692
 20
-5895.480148852296
 30
0.0
 41
1.0
 10
598.7321667991673
 20
-5898.572038233388
 30
0.0
 41
1.0
 10
619.1484687352349
 20
-5903.891504685821
 30
0.0
 41
1.0
 10
629.3628648510567
 20
-5906.10544226812
 30
0.0
 41
1.0
 10
660.5236676838031
 20
-5911.48974221659
 30
0.0
 41
1.0
 10
681.7314389383646
 20
-5913.323442544067
 30
0.0
 41
1.0
 10
713.5355108684671
 20
-5913.345165078584
 30
0.0
 41
1.0
 10
724.1554098491688
 20
-5912.891496683284
 30
0.0
 41
1.0
 10
745.3499632070743
 20
-5911.077304188054
 30
0.0
 41
1.0
 10
755.8293555875753
 20
-5909.733546090559
 30
0.0
 41
1.0
 10
776.6601939768152
 20
-5906.151177663406
 30
0.0
 41
1.0
 10
786.918729955305
 20
-5903.932300851974
 30
0.0
 41
1.0
 10
807.41947471608
 20
-5898.596102597115
 30
0.0
 41
1.0
 10
817.5662826052212
 20
-5895.493982629153
 30
0.0
 41
1.0
 10
827.5990294324001
 20
-5891.914587300781
 30
0.0
 41
1.0
 10
1029.162395497555
 20
-5819.982512138043
 30
0.0
 41
1.0
 10
1230.725761562713
 20
-5748.050436975304
 30
0.0
 41
1.0
 10
1432.289127627871
 20
-5676.118361812566
 30
0.0
 41
1.0
 10
1436.275320380981
 20
-5674.696162328911
 30
0.0
 41
1.0
 10
1440.27526885191
 20
-5673.31592191355
 30
0.0
 41
1.0
 10
1448.303729999712
 20
-5670.638082483204
 30
0.0
 41
1.0
 10
1452.330200740063
 20
-5669.342222415232
 30
0.0
 41
1.0
 10
1460.419082347402
 20
-5666.852256966163
 30
0.0
 41
1.0
 10
1464.478074989205
 20
-5665.659181317732
 30
0.0
 41
1.0
 10
1472.637569692797
 20
-5663.403451196543
 30
0.0
 41
1.0
 10
1476.732480830793
 20
-5662.341965595603
 30
0.0
 41
1.0
 10
1484.968453146972
 20
-5660.389548778353
 30
0.0
 41
1.0
 10
1489.099922943704
 20
-5659.50010806772
 30
0.0
 41
1.0
 10
1497.417293517956
 20
-5657.955382941806
 30
0.0
 41
1.0
 10
1501.584855751258
 20
-5657.300782718838
 30
0.0
 41
1.0
 10
1509.992609932753
 20
-5656.334603185303
 30
0.0
 41
1.0
 10
1514.192916694465
 20
-5656.021592927315
 30
0.0
 41
1.0
 10
1522.640925153137
 20
-5655.949822977603
 30
0.0
 41
1.0
 10
1526.902824221514
 20
-5656.183839763496
 30
0.0
 41
1.0
 10
1531.066123967386
 20
-5656.920656127888
 30
0.0
 41
1.0
  0
SPLINE
  5
127
330
1F
100
AcDbEntity
  8
2D
100
AcDbSpline
210
0.0
220
0.0
230
1.0
 70
     8
 71
     3
 72
     8
 73
     4
 74
     0
 42
0.0000000001
 43
0.0000000001
 40
-0.0207896608801678
 40
-0.0207896608801678
 40
-0.0207896608801678
 40
-0.0207896608801678
 40
0.0
 40
0.0
 40
0.0
 40
0.0
 10
1552.511666116712
 20
-3621.000115774925
 30
0.0
 10
1552.512617855173
 20
-3620.993251554125
 30
0.0
 10
1552.513569377195
 20
-3620.986387303312
 30
0.0
 10
1552.514520682773
 20
-3620.979523022506
 30
0.0
  0
SPLINE
  5
128
330
1F
100
AcDbEntity
  8
2D
100
AcDbSpline
210
0.0
220
0.0
230
1.0
 70
     8
 71
     3
 72
     8
 73
     4
 74
     0
 42
0.0000000001
 43
0.0000000001
 40
-0.0207896608814856
 40
-0.0207896608814856
 40
-0.0207896608814856
 40
-0.0207896608814856
 40
0.0
 40
0.0
 40
0.0
 40
0.0
 10
1552.511666116712
 20
-5712.336669188699
 30
0.0
 10
1552.512617855173
 20
-5712.343533409498
 30
0.0
 10
1552.513569377195
 20
-5712.350397660312
 30
0.0
 10
1552.514520682773
 20
-5712.357261941117
 30
0.0
  0
SPLINE
  5
129
330
1F
100
AcDbEntity
  8
2D
100
AcDbSpline
210
0.0
220
0.0
230
1.0
 70
    12
 71
     3
 72
    18
 73
    14
 74
     0
 42
0.0000000001
 43
0.0000000001
 40
-177.6987901673392
 40
-177.6987901673392
 40
-177.6987901673392
 40
-177.6987901673392
 40
-45.08649629973501
 40
-45.08649629973501
 40
-45.08649629973501
 40
-23.44733560210411
 40
-23.44733560210411
 40
-23.44733560210411
 40
-17.56290672595892
 40
-17.56290672595892
 40
-11.69352626882208
 40
-11.69352626882208
 40
0.0
 40
0.0
 40
0.0
 40
0.0
 10
108.400206003811
 20
-5619.763450655753
 30
0.0
 41
1.0
 10
65.6518769513932
 20
-5631.369859578001
 30
0.0
 41
1.0
 10
22.90354789897901
 20
-5642.976268500248
 30
0.0
 41
1.0
 10
-19.84478115343154
 20
-5654.582677422494
 30
0.0
 41
1.0
 10
-26.82028798572719
 20
-5656.476566295586
 30
0.0
 41
1.0
 10
-33.8029218082811
 20
-5658.451207026709
 30
0.0
 41
1.0
 10
-40.77433838060097
 20
-5660.520217237973
 30
0.0
 41
1.0
 10
-42.67299654674571
 20
-5661.083697162031
 30
0.0
 41
1.0
 10
-44.56950591134228
 20
-5661.585189505356
 30
0.0
 41
1.0
 10
-48.36489628674826
 20
-5662.450943580668
 30
0.0
 41
1.0
 10
-50.26176164960634
 20
-5662.8175342197
 30
0.0
 41
1.0
 10
-55.94564213409103
 20
-5663.725293005978
 30
0.0
 41
1.0
 10
-59.73018419570508
 20
-5664.077374383137
 30
0.0
 41
1.0
 10
-63.52223064727877
 20
-5664.202154301175
 30
0.0
 41
1.0
  0
SPLINE
  5
12A
330
1F
100
AcDbEntity
  8
2D
100
AcDbSpline
210
0.0
220
0.0
230
1.0
 70
     8
 71
     3
 72
     8
 73
     4
 74
     0
 42
0.0000000001
 43
0.0000000001
 40
-3.23489404787784
 40
-3.23489404787784
 40
-3.23489404787784
 40
-3.23489404787784
 40
0.0
 40
0.0
 40
0.0
 40
0.0
 10
767.5543275697164
 20
-4079.505619618496
 30
0.0
 10
766.4888068340006
 20
-4079.340113808994
 30
0.0
 10
765.4226360973589
 20
-4079.178723657476
 30
0.0
 10
764.3558681477552
 20
-4079.021457154647
 30
0.0
  0
SPLINE
  5
12B
330
1F
100
AcDbEntity
  8
2D
100
AcDbSpline
210
0.0
220
0.0
230
1.0
 70
     8
 71
     3
 72
     8
 73
     4
 74
     0
 42
0.0000000001
 43
0.0000000001
 40
-0.5963446416063526
 40
-0.5963446416063526
 40
-0.5963446416063526
 40
-0.5963446416063526
 40
0.0
 40
0.0
 40
0.0
 40
0.0
 10
-123.8177328638885
 20
-3685.319692336224
 30
0.0
 10
-123.8514211552647
 20
-3685.123786229805
 30
0.0
 10
-123.8817799132266
 20
-3684.927273680217
 30
0.0
 10
-123.9087813530896
 20
-3684.730334537959
 30
0.0
  0
LINE
  5
12C
330
1F
100
AcDbEntity
  8
2D
100
AcDbLine
 10
1287.636623078404
 20
-5567.771994182243
 30
0.0
 11
1290.15163580361
 21
-5576.98357747509
 31
0.0
  0
LINE
  5
12D
330
1F
100
AcDbEntity
  8
2D
100
AcDbLine
 10
1290.15163580361
 20
-5576.98357747509
 30
0.0
 11
1304.243531874887
 21
-5611.548127106586
 31
0.0
  0
SPLINE
  5
12E
330
1F
100
AcDbEntity
  8
2D
100
AcDbSpline
210
0.0
220
0.0
230
1.0
 70
    12
 71
     2
 72
     8
 73
     5
 74
     0
 42
0.0000000001
 43
0.0000000001
 40
-10.75214484344053
 40
-10.75214484344053
 40
-10.75214484344053
 40
0.0000000000047988
 40
0.0000000000047988
 40
21.32738948873757
 40
21.32738948873757
 40
21.32738948873757
 10
1304.243531874887
 20
-5611.548127106586
 30
0.0
 41
1.0
 10
1305.479506068407
 20
-5614.579720032207
 30
0.0000000000000088
 41
0.9215112730281788
 10
1297.829688074336
 20
-5619.763448421325
 30
0.0
 41
1.0
 10
1290.179870080278
 20
-5624.947176810438
 30
0.0000000000000088
 41
0.9215112730282314
 10
1278.259149494977
 20
-5629.155863750921
 30
0.0
 41
0.9999999999998948
  0
SPLINE
  5
12F
330
1F
100
AcDbEntity
  8
2D
100
AcDbSpline
210
0.0
220
0.0
230
1.0
 70
     8
 71
     3
 72
    44
 73
    40
 74
     0
 42
0.0000000001
 43
0.0000000001
 40
0.0
 40
0.0
 40
0.0
 40
0.0
 40
302.5158650725311
 40
302.5158650725311
 40
453.7047958665959
 40
453.7047958665959
 40
472.6090121767037
 40
472.6090121767037
 40
494.5289490935056
 40
494.5289490935056
 40
532.3996096896514
 40
532.3996096896514
 40
570.2766762839751
 40
570.2766762839751
 40
589.1847753732949
 40
589.1847753732949
 40
608.0932651358853
 40
608.0932651358853
 40
626.9775988117412
 40
626.9775988117412
 40
645.8597386544012
 40
645.8597386544012
 40
664.7489754439757
 40
664.7489754439757
 40
683.6303116441028
 40
683.6303116441028
 40
702.517481976449
 40
702.517481976449
 40
721.4070718760514
 40
721.4070718760514
 40
730.8439825216948
 40
730.8439825216948
 40
737.3211187955416
 40
737.3211187955416
 40
756.197747130798
 40
756.197747130798
 40
907.3990188031437
 40
907.3990188031437
 40
1209.767786398974
 40
1209.767786398974
 40
1209.767786398974
 40
1209.767786398974
 10
1278.259149494974
 20
-5629.155863750921
 30
0.0
 10
1183.170016885902
 20
-5662.727692545151
 30
0.0
 10
1088.080884323019
 20
-5696.299521470211
 30
0.0
 10
945.4688748506123
 20
-5746.649607952265
 30
0.0
 10
897.9456285745728
 20
-5763.426819281839
 30
0.0
 10
844.480823955284
 20
-5782.303524696307
 30
0.0
 10
838.5387450538874
 20
-5784.401544290227
 30
0.0
 10
825.7067280374067
 20
-5788.932439818064
 30
0.0
 10
821.6707365337497
 20
-5790.396386688501
 30
0.0
 10
802.659051073184
 20
-5796.404263603313
 30
0.0
 10
790.5025248114143
 20
-5799.576715021324
 30
0.0
 10
765.7679571019071
 20
-5804.700851355789
 30
0.0
 10
753.3499312326821
 20
-5806.61967120113
 30
0.0
 10
734.5121073608607
 20
-5808.549636478463
 30
0.0
 10
728.2333954738679
 20
-5809.031181869872
 30
0.0
 10
715.6388902770996
 20
-5809.673787166043
 30
0.0
 10
709.3436601507419
 20
-5809.833618812995
 30
0.0
 10
696.7406975116501
 20
-5809.830973204549
 30
0.0
 10
690.4535439670835
 20
-5809.668976302824
 30
0.0
 10
677.8759462856797
 20
-5809.02296242184
 30
0.0
 10
671.6060067396975
 20
-5808.539994907241
 30
0.0
 10
659.0761929872097
 20
-5807.252322505004
 30
0.0
 10
652.8367184614253
 20
-5806.44969597598
 30
0.0
 10
640.3892157238879
 20
-5804.524259761026
 30
0.0
 10
634.201293798953
 20
-5803.40521088857
 30
0.0
 10
621.8686594624742
 20
-5800.848505126192
 30
0.0
 10
615.7440615262967
 20
-5799.414506010455
 30
0.0
 10
603.5549588051217
 20
-5796.232601868886
 30
0.0
 10
597.5102235041268
 20
-5794.489401631243
 30
0.0
 10
588.5032766081313
 20
-5791.642550519483
 30
0.0
 10
585.5158715080652
 20
-5790.656439799724
 30
0.0
 10
580.4978800089993
 20
-5788.929268817544
 30
0.0
 10
575.6723298785
 20
-5787.219727621029
 30
0.0
 10
567.7001926622688
 20
-5784.404991326554
 30
0.0
 10
561.7646981677462
 20
-5782.309343415888
 30
0.0
 10
508.2860369886075
 20
-5763.42766940079
 30
0.0
 10
460.7427322363328
 20
-5746.642034364447
 30
0.0
 10
318.1232339605995
 20
-5696.289457704757
 30
0.0
 10
223.0468361297098
 20
-5662.723094786143
 30
0.0
 10
127.9707436423669
 20
-5629.155866705952
 30
0.0
  0
SPLINE
  5
130
330
1F
100
AcDbEntity
  8
2D
100
AcDbSpline
210
0.0
220
0.0
230
1.0
 70
    12
 71
     2
 72
     8
 73
     5
 74
     0
 42
0.0000000001
 43
0.0000000001
 40
-21.32738948871319
 40
-21.32738948871319
 40
-21.32738948871319
 40
0.0
 40
0.0
 40
10.75214484340327
 40
10.75214484340327
 40
10.75214484340327
 10
127.9707436423669
 20
-5629.155866705952
 30
0.0
 41
1.0
 10
116.0500239977844
 20
-5624.947176810441
 30
0.0000000000000088
 41
0.9215112730281788
 10
108.4002060037456
 20
-5619.763448421324
 30
0.0
 41
1.0
 10
100.7503880097113
 20
-5614.579720032207
 30
0.0000000000000088
 41
0.9215112730281788
 10
101.9863622032753
 20
-5611.548127106586
 30
0.0
 41
1.0
  0
LINE
  5
131
330
1F
100
AcDbEntity
  8
2D
100
AcDbLine
 10
101.9863622032753
 20
-5611.548127106586
 30
0.0
 11
116.0782393196423
 21
-5576.983623967599
 31
0.0
  0
LINE
  5
132
330
1F
100
AcDbEntity
  8
2D
100
AcDbLine
 10
116.0782393196423
 20
-5576.983623967599
 30
0.0
 11
118.5933649608669
 21
-5567.771627104149
 31
0.0
  0
SPLINE
  5
133
330
1F
100
AcDbEntity
  8
2D
100
AcDbSpline
210
0.0
220
0.0
230
1.0
 70
    12
 71
     3
 72
     9
 73
     5
 74
     0
 42
0.0000000001
 43
0.0000000001
 40
-6.703885951974282
 40
-6.703885951974282
 40
-6.703885951974282
 40
-6.703885951974282
 40
-4.12546827813802
 40
0.0
 40
0.0
 40
0.0
 40
0.0
 10
-146.2239837959278
 20
-5711.921020161025
 30
0.0
 41
1.0
 10
-146.1216415891067
 20
-5711.185362923257
 30
0.0
 41
1.0
 10
-145.8414735449624
 20
-5709.160762885604
 30
0.0
 41
1.0
 10
-145.62643788063
 20
-5706.837162181627
 30
0.0
 41
1.0
 10
-145.1053722356082
 20
-5705.432730071293
 30
0.0
 41
1.0
  0
LINE
  5
134
330
1F
100
AcDbEntity
  8
2D
100
AcDbLine
 10
-145.1053722356082
 20
-5705.432730071293
 30
0.0
 11
-123.4920958836228
 21
-5646.615647322458
 31
0.0
  0
LINE
  5
135
330
1F
100
AcDbEntity
  8
2D
100
AcDbLine
 10
1460.607537262862
 20
-3873.012269465703
 30
0.0
 11
1529.568686200168
 21
-3687.137775626597
 31
0.0
  0
SPLINE
  5
136
330
1F
100
AcDbEntity
  8
2D
100
AcDbSpline
210
0.0
220
0.0
230
1.0
 70
     8
 71
     3
 72
     8
 73
     4
 74
     0
 42
0.0000000001
 43
0.0000000001
 40
0.0
 40
0.0
 40
0.0
 40
0.0
 40
0.0296524734825132
 40
0.0296524734825132
 40
0.0296524734825132
 40
0.0296524734825132
 10
1529.568686200168
 20
-3687.137775626597
 30
0.0
 10
1529.572124330858
 20
-3687.128508705137
 30
0.0
 10
1529.575562476886
 20
-3687.119241789374
 30
0.0
 10
1529.579000638267
 20
-3687.109974879301
 30
0.0
  0
SPLINE
  5
137
330
1F
100
AcDbEntity
  8
2D
100
AcDbSpline
210
0.0
220
0.0
230
1.0
 70
     8
 71
     3
 72
     8
 73
     4
 74
     0
 42
0.0000000001
 43
0.0000000001
 40
0.0
 40
0.0
 40
0.0
 40
0.0
 40
0.0296524734785217
 40
0.0296524734785217
 40
0.0296524734785217
 40
0.0296524734785217
 10
1529.579000638267
 20
-3687.109974879301
 30
0.0
 10
1529.582456207761
 20
-3687.100714446514
 30
0.0
 10
1529.585894365959
 20
-3687.091447497967
 30
0.0
 10
1529.589315076366
 20
-3687.082174132006
 30
0.0
  0
SPLINE
  5
138
330
1F
100
AcDbEntity
  8
2D
100
AcDbSpline
210
0.0
220
0.0
230
1.0
 70
    12
 71
     2
 72
     6
 73
     3
 74
     0
 42
0.0000000001
 43
0.0000000001
 40
0.0
 40
0.0
 40
0.0
 40
0.4238773466084146
 40
0.4238773466084146
 40
0.4238773466084146
 10
1529.589315076366
 20
-3687.082174132006
 30
0.0
 41
0.999999999999998
 10
1529.66298224549
 20
-3686.883389237899
 30
0.0
 41
0.9996628986269828
 10
1529.725506744167
 20
-3686.680821772061
 30
0.0
 41
0.9999999999999982
  0
SPLINE
  5
139
330
1F
100
AcDbEntity
  8
2D
100
AcDbSpline
210
0.0
220
0.0
230
1.0
 70
     8
 71
     3
 72
     8
 73
     4
 74
     0
 42
0.0000000001
 43
0.0000000001
 40
-0.1769857591782819
 40
-0.1769857591782819
 40
-0.1769857591782819
 40
-0.1769857591782819
 40
0.0
 40
0.0
 40
0.0
 40
0.0
 10
1529.725506744166
 20
-3686.680821772061
 30
0.0
 10
1529.742220401702
 20
-3686.624237211888
 30
0.0
 10
1529.759287584886
 20
-3686.567009695209
 30
0.0
 10
1529.776590292669
 20
-3686.510600343755
 30
0.0
  0
SPLINE
  5
13A
330
1F
100
AcDbEntity
  8
2D
100
AcDbSpline
210
0.0
220
0.0
230
1.0
 70
     8
 71
     3
 72
     8
 73
     4
 74
     0
 42
0.0000000001
 43
0.0000000001
 40
0.0
 40
0.0
 40
0.0
 40
0.0
 40
0.2400289197981863
 40
0.2400289197981863
 40
0.2400289197981863
 40
0.2400289197981863
 10
1529.776590292669
 20
-3686.510600343755
 30
0.0
 10
1529.799921846738
 20
-3686.434061122051
 30
0.0
 10
1529.821261444446
 20
-3686.356935856834
 30
0.0
 10
1529.840252117217
 20
-3686.279198743311
 30
0.0
  0
SPLINE
  5
13B
330
1F
100
AcDbEntity
  8
2D
100
AcDbSpline
210
0.0
220
0.0
230
1.0
 70
     8
 71
     3
 72
     8
 73
     4
 74
     0
 42
0.0000000001
 43
0.0000000001
 40
-2.134098855352146
 40
-2.134098855352146
 40
-2.134098855352146
 40
-2.134098855352146
 40
0.0
 40
0.0
 40
0.0
 40
0.0
 10
1529.840252117217
 20
-3686.279198743311
 30
0.0
 10
1530.020974276118
 20
-3685.578367355368
 30
0.0
 10
1530.120616348831
 20
-3684.869624547564
 30
0.0
 10
1530.209154783908
 20
-3684.154328290567
 30
0.0
  0
SPLINE
  5
13C
330
1F
100
AcDbEntity
  8
2D
100
AcDbSpline
210
0.0
220
0.0
230
1.0
 70
     8
 71
     3
 72
     8
 73
     4
 74
     0
 42
0.0000000001
 43
0.0000000001
 40
0.0
 40
0.0
 40
0.0
 40
0.0
 40
0.2415839897092372
 40
0.2415839897092372
 40
0.2415839897092372
 40
0.2415839897092372
 10
1530.209154783908
 20
-3684.154328290567
 30
0.0
 10
1530.22172011471
 20
-3684.074728841916
 30
0.0
 10
1530.231147598402
 20
-3683.994754654942
 30
0.0
 10
1530.237449153923
 20
-3683.914415555493
 30
0.0
  0
SPLINE
  5
13D
330
1F
100
AcDbEntity
  8
2D
100
AcDbSpline
210
0.0
220
0.0
230
1.0
 70
     8
 71
     3
 72
     8
 73
     4
 74
     0
 42
0.0000000001
 43
0.0000000001
 40
-0.3273425268663238
 40
-0.3273425268663238
 40
-0.3273425268663238
 40
-0.3273425268663238
 40
0.0
 40
0.0
 40
0.0
 40
0.0
 10
1530.237449153923
 20
-3683.914415555493
 30
0.0
 10
1530.247118185474
 20
-3683.805688656228
 30
0.0
 10
1530.260022973453
 20
-3683.694634193649
 30
0.0
 10
1530.275790722677
 20
-3683.586622525165
 30
0.0
  0
SPLINE
  5
13E
330
1F
100
AcDbEntity
  8
2D
100
AcDbSpline
210
0.0
220
0.0
230
1.0
 70
     8
 71
     3
 72
     8
 73
     4
 74
     0
 42
0.0000000001
 43
0.0000000001
 40
0.0
 40
0.0
 40
0.0
 40
0.0
 40
0.3441100400211135
 40
0.3441100400211135
 40
0.3441100400211135
 40
0.3441100400211135
 10
1530.275790722677
 20
-3683.586622525165
 30
0.0
 10
1530.292110014758
 20
-3683.473047209474
 30
0.0
 10
1530.305728464973
 20
-3683.359154890731
 30
0.0
 10
1530.316794649822
 20
-3683.244950350814
 30
0.0
  0
SPLINE
  5
13F
330
1F
100
AcDbEntity
  8
2D
100
AcDbSpline
210
0.0
220
0.0
230
1.0
 70
     8
 71
     3
 72
     8
 73
     4
 74
     0
 42
0.0000000001
 43
0.0000000001
 40
-0.0777825871765742
 40
-0.0777825871765742
 40
-0.0777825871765742
 40
-0.0777825871765742
 40
0.0
 40
0.0
 40
0.0
 40
0.0
 10
1530.316794649822
 20
-3683.244950350814
 30
0.0
 10
1530.317143794255
 20
-3683.218871259256
 30
0.0
 10
1530.320319349205
 20
-3683.193139330112
 30
0.0
 10
1530.323509594116
 20
-3683.167409226617
 30
0.0
  0
SPLINE
  5
140
330
1F
100
AcDbEntity
  8
2D
100
AcDbSpline
210
0.0
220
0.0
230
1.0
 70
     8
 71
     3
 72
    12
 73
     8
 74
     0
 42
0.0000000001
 43
0.0000000001
 40
-9.583824167178518
 40
-9.583824167178518
 40
-9.583824167178518
 40
-9.583824167178518
 40
-4.452143067840129
 40
-4.452143067840129
 40
-2.236101253706295
 40
-2.236101253706295
 40
0.0
 40
0.0
 40
0.0
 40
0.0
 10
1530.323509594116
 20
-3683.167409226617
 30
0.0
 10
1530.561863762341
 20
-3681.245077170247
 30
0.0
 10
1530.771848133922
 20
-3680.120759328358
 30
0.0
 10
1531.024340709479
 20
-3677.355564644216
 30
0.0
 10
1531.081024304654
 20
-3676.52317556095
 30
0.0
 10
1531.074266425116
 20
-3674.838140532886
 30
0.0
 10
1531.02567749974
 20
-3674.026472691198
 30
0.0
 10
1530.748535784478
 20
-3673.208117133423
 30
0.0
  0
SPLINE
  5
141
330
1F
100
AcDbEntity
  8
2D
100
AcDbSpline
210
0.0
220
0.0
230
1.0
 70
     8
 71
     3
 72
     8
 73
     4
 74
     0
 42
0.0000000001
 43
0.0000000001
 40
0.0
 40
0.0
 40
0.0
 40
0.0
 40
0.076141131765747
 40
0.076141131765747
 40
0.076141131765747
 40
0.076141131765747
 10
1530.748535784478
 20
-3673.208117133423
 30
0.0
 10
1530.741593771792
 20
-3673.183667579853
 30
0.0
 10
1530.732965055693
 20
-3673.159790339162
 30
0.0
 10
1530.722769814613
 20
-3673.136517410529
 30
0.0
  0
SPLINE
  5
142
330
1F
100
AcDbEntity
  8
2D
100
AcDbSpline
210
0.0
220
0.0
230
1.0
 70
     8
 71
     3
 72
     8
 73
     4
 74
     0
 42
0.0000000001
 43
0.0000000001
 40
-0.2301593913205716
 40
-0.2301593913205716
 40
-0.2301593913205716
 40
-0.2301593913205716
 40
0.0
 40
0.0
 40
0.0
 40
0.0
 10
1530.722769814613
 20
-3673.136517410529
 30
0.0
 10
1530.693529942586
 20
-3673.063721891545
 30
0.0
 10
1530.660179934916
 20
-3672.998334860191
 30
0.0
 10
1530.604946857071
 20
-3672.940153156356
 30
0.0
  0
SPLINE
  5
143
330
1F
100
AcDbEntity
  8
2D
100
AcDbSpline
210
0.0
220
0.0
230
1.0
 70
    12
 71
     2
 72
     6
 73
     3
 74
     0
 42
0.0000000001
 43
0.0000000001
 40
0.0
 40
0.0
 40
0.0
 40
0.2012700455102027
 40
0.2012700455102027
 40
0.2012700455102027
 10
1530.60494685707
 20
-3672.940153156356
 30
0.0
 41
0.9999976707003398
 10
1530.533067042954
 20
-3672.868486280585
 30
0.0000000000000004
 41
0.9875533824356185
 10
1530.441855456629
 20
-3672.823939438563
 30
0.0
 41
1.0
  0
SPLINE
  5
144
330
1F
100
AcDbEntity
  8
2D
100
AcDbSpline
210
0.0
220
0.0
230
1.0
 70
     8
 71
     3
 72
     8
 73
     4
 74
     0
 42
0.0000000001
 43
0.0000000001
 40
-0.0526134834895017
 40
-0.0526134834895017
 40
-0.0526134834895017
 40
-0.0526134834895017
 40
0.0
 40
0.0
 40
0.0
 40
0.0
 10
1530.441855456629
 20
-3672.823939438563
 30
0.0
 10
1530.426137714763
 20
-3672.816149473732
 30
0.0
 10
1530.412346827849
 20
-3672.809285453645
 30
0.0
 10
1530.396646443925
 20
-3672.801462435309
 30
0.0
  0
SPLINE
  5
145
330
1F
100
AcDbEntity
  8
2D
100
AcDbSpline
210
0.0
220
0.0
230
1.0
 70
     8
 71
     3
 72
     8
 73
     4
 74
     0
 42
0.0000000001
 43
0.0000000001
 40
0.0
 40
0.0
 40
0.0
 40
0.0
 40
0.0542498415534037
 40
0.0542498415534037
 40
0.0542498415534037
 40
0.0542498415534037
 10
1530.396646443925
 20
-3672.801462435309
 30
0.0
 10
1530.380411729202
 20
-3672.79349038221
 30
0.0
 10
1530.363888456566
 20
-3672.78612809957
 30
0.0
 10
1530.347149118519
 20
-3672.779283151152
 30
0.0
  0
SPLINE
  5
146
330
1F
100
AcDbEntity
  8
2D
100
AcDbSpline
210
0.0
220
0.0
230
1.0
 70
     8
 71
     3
 72
    20
 73
    16
 74
     0
 42
0.0000000001
 43
0.0000000001
 40
-25.22281222376003
 40
-25.22281222376003
 40
-25.22281222376003
 40
-25.22281222376003
 40
-24.8496117620037
 40
-24.8496117620037
 40
-24.452851447698
 40
-24.452851447698
 40
-23.65931088459445
 40
-23.65931088459445
 40
-22.07216553494626
 40
-22.07216553494626
 40
-18.91475305007009
 40
-18.91475305007009
 40
-12.61359843282057
 40
-12.61359843282057
 40
0.0
 40
0.0
 40
0.0
 40
0.0
 10
1530.347149118519
 20
-3672.779283151152
 30
0.0
 10
1530.233748876606
 20
-3672.73085055001
 30
0.0
 10
1530.116745560605
 20
-3672.693209642565
 30
0.0
 10
1529.877774568984
 20
-3672.607907182675
 30
0.0
 10
1529.754632963002
 20
-3672.563950880343
 30
0.0
 10
1529.385201953319
 20
-3672.432079778026
 30
0.0
 10
1529.138912544913
 20
-3672.344164991228
 30
0.0
 10
1528.400024354145
 20
-3672.080413607144
 30
0.0
 10
1527.907425539121
 20
-3671.904577101363
 30
0.0
 10
1526.434867307878
 20
-3671.378938159747
 30
0.0
 10
1525.454909519878
 20
-3671.029131162775
 30
0.0
 10
1522.519256589527
 20
-3669.981287443698
 30
0.0
 10
1520.563542601012
 20
-3669.283303546699
 30
0.0
 10
1514.692806777519
 20
-3667.18835343188
 30
0.0
 10
1510.777583243886
 20
-3665.791952753375
 30
0.0
 10
1506.862583367976
 20
-3664.394925062745
 30
0.0
  0
LINE
  5
147
330
1F
100
AcDbEntity
  8
2D
100
AcDbLine
 10
1506.862583367976
 20
-3664.394925062745
 30
0.0
 11
1506.632329826385
 21
-3664.312770505105
 31
0.0
  0
SPLINE
  5
148
330
1F
100
AcDbEntity
  8
2D
100
AcDbSpline
210
0.0
220
0.0
230
1.0
 70
     8
 71
     3
 72
     8
 73
     4
 74
     0
 42
0.0000000001
 43
0.0000000001
 40
-0.8957785265500637
 40
-0.8957785265500637
 40
-0.8957785265500637
 40
-0.8957785265500637
 40
0.0
 40
0.0
 40
0.0
 40
0.0
 10
1506.632329826385
 20
-3664.312770505105
 30
0.0
 10
1506.350952087931
 20
-3664.212848270412
 30
0.0
 10
1506.110013741287
 20
-3664.126896225246
 30
0.0
 10
1505.828780777789
 20
-3664.026568234967
 30
0.0
  0
SPLINE
  5
149
330
1F
100
AcDbEntity
  8
2D
100
AcDbSpline
210
0.0
220
0.0
230
1.0
 70
     8
 71
     3
 72
     8
 73
     4
 74
     0
 42
0.0000000001
 43
0.0000000001
 40
-0.1730632206680164
 40
-0.1730632206680164
 40
-0.1730632206680164
 40
-0.1730632206680164
 40
0.0
 40
0.0
 40
0.0
 40
0.0
 10
1505.828780777789
 20
-3664.026568234967
 30
0.0
 10
1505.774446943225
 20
-3664.007185000146
 30
0.0
 10
1505.720113124891
 20
-3663.987801719856
 30
0.0
 10
1505.665779322775
 20
-3663.968418394087
 30
0.0
  0
SPLINE
  5
14A
330
1F
100
AcDbEntity
  8
2D
100
AcDbSpline
210
0.0
220
0.0
230
1.0
 70
     8
 71
     3
 72
     8
 73
     4
 74
     0
 42
0.0000000001
 43
0.0000000001
 40
-0.1587292161021731
 40
-0.1587292161021731
 40
-0.1587292161021731
 40
-0.1587292161021731
 40
0.0
 40
0.0
 40
0.0
 40
0.0
 10
1505.665779322775
 20
-3663.968418394087
 30
0.0
 10
1505.615945748399
 20
-3663.950640503658
 30
0.0
 10
1505.56731103405
 20
-3663.933290260342
 30
0.0
 10
1505.51764430706
 20
-3663.91504468123
 30
0.0
  0
LINE
  5
14B
330
1F
100
AcDbEntity
  8
2D
100
AcDbLine
 10
1505.51764430706
 20
-3663.91504468123
 30
0.0
 11
1505.317568672323
 21
-3663.843655821076
 31
0.0
  0
SPLINE
  5
14C
330
1F
100
AcDbEntity
  8
2D
100
AcDbSpline
210
0.0
220
0.0
230
1.0
 70
     8
 71
     3
 72
     8
 73
     4
 74
     0
 42
0.0000000001
 43
0.0000000001
 40
-0.322814344785781
 40
-0.322814344785781
 40
-0.322814344785781
 40
-0.322814344785781
 40
0.0
 40
0.0
 40
0.0
 40
0.0
 10
1505.317568672323
 20
-3663.843655821076
 30
0.0
 10
1505.216049376297
 20
-3663.807978349664
 30
0.0
 10
1505.11911488188
 20
-3663.77339692933
 30
0.0
 10
1505.017942844825
 20
-3663.736746151641
 30
0.0
  0
LINE
  5
14D
330
1F
100
AcDbEntity
  8
2D
100
AcDbLine
 10
1505.017942844825
 20
-3663.736746151641
 30
0.0
 11
1504.582259496696
 21
-3663.5812890045
 31
0.0
  0
LINE
  5
14E
330
1F
100
AcDbEntity
  8
2D
100
AcDbLine
 10
1504.582259496696
 20
-3663.5812890045
 30
0.0
 11
1504.493267543312
 21
-3663.549535491638
 31
0.0
  0
LINE
  5
14F
330
1F
100
AcDbEntity
  8
2D
100
AcDbLine
 10
1504.493267543312
 20
-3663.549535491638
 30
0.0
 11
1504.195594343939
 21
-3663.443321681483
 31
0.0
  0
SPLINE
  5
150
330
1F
100
AcDbEntity
  8
2D
100
AcDbSpline
210
0.0
220
0.0
230
1.0
 70
     8
 71
     3
 72
     8
 73
     4
 74
     0
 42
0.0000000001
 43
0.0000000001
 40
-0.2694917877486249
 40
-0.2694917877486249
 40
-0.2694917877486249
 40
-0.2694917877486249
 40
0.0
 40
0.0
 40
0.0
 40
0.0
 10
1504.195594343939
 20
-3663.443321681483
 30
0.0
 10
1504.110795212069
 20
-3663.413674256959
 30
0.0
 10
1504.028627534375
 20
-3663.38436040542
 30
0.0
 10
1503.944216056032
 20
-3663.353626465429
 30
0.0
  0
LINE
  5
151
330
1F
100
AcDbEntity
  8
2D
100
AcDbLine
 10
1503.944216056032
 20
-3663.353626465429
 30
0.0
 11
1481.541880072557
 21
-3655.358266640199
 31
0.0
  0
LINE
  5
152
330
1F
100
AcDbEntity
  8
2D
100
AcDbLine
 10
1481.541880072557
 20
-3655.358266640199
 30
0.0
 11
1481.175760908929
 21
-3655.227550969045
 31
0.0
  0
SPLINE
  5
153
330
1F
100
AcDbEntity
  8
2D
100
AcDbSpline
210
0.0
220
0.0
230
1.0
 70
    12
 71
     3
 72
    51
 73
    47
 74
     0
 42
0.0000000001
 43
0.0000000001
 40
-1644.653539299684
 40
-1644.653539299684
 40
-1644.653539299684
 40
-1644.653539299684
 40
-1644.172510054011
 40
-1644.172510054011
 40
-1642.248393071321
 40
-1642.248393071321
 40
-1580.676649625246
 40
-1580.676649625246
 40
-1457.533162733096
 40
-1457.533162733096
 40
-964.959215164495
 40
-964.959215164495
 40
-964.959215164495
 40
-946.1476867194589
 40
-927.3361582744226
 40
-908.5246298293862
 40
-889.7131013843499
 40
-870.9015729393136
 40
-852.0900444942773
 40
-833.278516049241
 40
-814.4669876042046
 40
-795.6554591591686
 40
-776.8439307141321
 40
-758.032402269096
 40
-739.2208738240597
 40
-720.4093453790234
 40
-701.597816933987
 40
-682.7862884889507
 40
-682.7862884889507
 40
-682.7862884889507
 40
-190.2123409203497
 40
-190.2123409203497
 40
-67.0688540281996
 40
-67.0688540281996
 40
-5.49711058212431
 40
-5.49711058212431
 40
-3.572993599434581
 40
-3.572993599434581
 40
-2.610935108089593
 40
-2.610935108089593
 40
-1.648876616744604
 40
-1.648876616744604
 40
-0.7331191162116173
 40
-0.7331191162116173
 40
-0.7331191162116173
 40
0.0
 40
0.0
 40
0.0
 40
0.0
 10
1481.175760908929
 20
-3655.227550969045
 30
0.0
 41
1.0
 10
1481.022722790691
 20
-3655.172908062485
 30
0.0
 41
1.0
 10
1480.87118093581
 20
-3655.11920703636
 30
0.0
 41
1.0
 10
1480.102779119727
 20
-3654.844535568051
 30
0.0
 41
1.0
 10
1479.490648380888
 20
-3654.626279441222
 30
0.0
 41
1.0
 10
1459.262301234296
 20
-3647.407306057356
 30
0.0
 41
1.0
 10
1439.643781143375
 20
-3640.40606526773
 30
0.0
 41
1.0
 10
1380.796045393832
 20
-3619.405013227243
 30
0.0
 41
1.0
 10
1341.56270294515
 20
-3605.403782127846
 30
0.0
 41
1.0
 10
1145.394984062172
 20
-3535.397244046823
 30
0.0
 41
1.0
 10
988.4616570543549
 20
-3479.392318159032
 30
0.0
 41
1.0
 10
831.5297428431622
 20
-3423.387895499457
 30
0.0
 41
1.0
 10
826.0539919576295
 20
-3421.433759485702
 30
0.0
 41
1.0
 10
815.0283902132978
 20
-3417.777311210301
 30
0.0
 41
1.0
 10
798.1627146209976
 20
-3413.024563465356
 30
0.0
 41
1.0
 10
781.1617955485126
 20
-3409.062038097499
 30
0.0
 41
1.0
 10
763.9686547124802
 20
-3405.874092492229
 30
0.0
 41
1.0
 10
746.6712163075681
 20
-3403.480423082728
 30
0.0
 41
1.0
 10
729.293372176704
 20
-3401.881885081501
 30
0.0
 41
1.0
 10
711.8489244233169
 20
-3401.080326940127
 30
0.0
 41
1.0
 10
694.3602165182965
 20
-3401.080939184997
 30
0.0
 41
1.0
 10
676.9217092487888
 20
-3401.88277378805
 30
0.0
 41
1.0
 10
659.5308791740754
 20
-3403.483529100741
 30
0.0
 41
1.0
 10
642.2476454875323
 20
-3405.876824336839
 30
0.0
 41
1.0
 10
625.068762738254
 20
-3409.061183514238
 30
0.0
 41
1.0
 10
608.0250075673503
 20
-3413.036295969491
 30
0.0
 41
1.0
 10
591.2712227517841
 20
-3417.756528626701
 30
0.0
 41
1.0
 10
580.1879371955583
 20
-3421.429465315979
 30
0.0
 41
1.0
 10
574.7001563668018
 20
-3423.387895499463
 30
0.0
 41
1.0
 10
417.7677005539845
 20
-3479.391765461037
 30
0.0
 41
1.0
 10
260.8338319396717
 20
-3535.396138645853
 30
0.0
 41
1.0
 10
64.66543604490653
 20
-3605.401985844422
 30
0.0
 41
1.0
 10
25.43195819456741
 20
-3619.403078768041
 30
0.0
 41
1.0
 10
-33.41598064962091
 20
-3640.403923552864
 30
0.0
 41
1.0
 10
-53.03456844771426
 20
-3647.405095248131
 30
0.0
 41
1.0
 10
-73.26298540621792
 20
-3654.623997389773
 30
0.0
 41
1.0
 10
-73.87511825741603
 20
-3654.842251360956
 30
0.0
 41
1.0
 10
-74.79720361960426
 20
-3655.171853874849
 30
0.0
 41
1.0
 10
-75.0960113420224
 20
-3655.276788341532
 30
0.0
 41
1.0
 10
-75.73496622832317
 20
-3655.510762458812
 30
0.0
 41
1.0
 10
-76.03862048465817
 20
-3655.61740797774
 30
0.0
 41
1.0
 10
-76.63526084889963
 20
-3655.83047635417
 30
0.0
 41
1.0
 10
-76.92640624066189
 20
-3655.934409639201
 30
0.0
 41
1.0
 10
-77.21745191056834
 20
-3656.03828180674
 30
0.0
 41
1.0
 10
-77.45038207248581
 20
-3656.121427867218
 30
0.0
 41
1.0
 10
-77.68324757994924
 20
-3656.20453464163
 30
0.0
 41
1.0
 10
-77.91590743000415
 20
-3656.28754933007
 30
0.0
 41
1.0
  0
LINE
  5
154
330
1F
100
AcDbEntity
  8
2D
100
AcDbLine
 10
-77.91590743000415
 20
-3656.28754933007
 30
0.0
 11
-78.05284760905124
 21
-3656.336417099322
 31
0.0
  0
SPLINE
  5
155
330
1F
100
AcDbEntity
  8
2D
100
AcDbSpline
210
0.0
220
0.0
230
1.0
 70
     8
 71
     3
 72
     8
 73
     4
 74
     0
 42
0.0000000001
 43
0.0000000001
 40
-2.055829098514159
 40
-2.055829098514159
 40
-2.055829098514159
 40
-2.055829098514159
 40
0.0
 40
0.0
 40
0.0
 40
0.0
 10
-78.05284760905124
 20
-3656.336417099322
 30
0.0
 10
-78.69826243502393
 20
-3656.566728628547
 30
0.0
 10
-79.35488890777197
 20
-3656.800969474419
 30
0.0
 10
-80.00028292384013
 20
-3657.031339317356
 30
0.0
  0
LINE
  5
156
330
1F
100
AcDbEntity
  8
2D
100
AcDbLine
 10
-80.00028292384013
 20
-3657.031339317356
 30
0.0
 11
-81.80145162891858
 21
-3657.674113003164
 31
0.0
  0
LINE
  5
157
330
1F
100
AcDbEntity
  8
2D
100
AcDbLine
 10
-81.80145162891858
 20
-3657.674113003164
 30
0.0
 11
-81.82657625614593
 21
-3657.683079072407
 31
0.0
  0
LINE
  5
158
330
1F
100
AcDbEntity
  8
2D
100
AcDbLine
 10
-81.82657625614593
 20
-3657.683079072407
 30
0.0
 11
-86.17063318535656
 21
-3659.233322877074
 31
0.0
  0
LINE
  5
159
330
1F
100
AcDbEntity
  8
2D
100
AcDbLine
 10
-86.17063318535656
 20
-3659.233322877074
 30
0.0
 11
-86.1921028019242
 21
-3659.240984754728
 31
0.0
  0
SPLINE
  5
15A
330
1F
100
AcDbEntity
  8
2D
100
AcDbSpline
210
0.0
220
0.0
230
1.0
 70
     8
 71
     3
 72
     8
 73
     4
 74
     0
 42
0.0000000001
 43
0.0000000001
 40
-17.64020400417297
 40
-17.64020400417297
 40
-17.64020400417297
 40
-17.64020400417297
 40
0.0
 40
0.0
 40
0.0
 40
0.0
 10
-86.1921028019242
 20
-3659.240984754728
 30
0.0
 10
-91.73005892504443
 20
-3661.217406218937
 30
0.0
 10
-97.26804280707438
 20
-3663.193749859929
 30
0.0
 10
-102.8060292213013
 20
-3665.170086416803
 30
0.0
  0
LINE
  5
15B
330
1F
100
AcDbEntity
  8
2D
100
AcDbLine
 10
-102.8060292213013
 20
-3665.170086416803
 30
0.0
 11
-102.8740479025182
 21
-3665.194361227695
 31
0.0
  0
LINE
  5
15C
330
1F
100
AcDbEntity
  8
2D
100
AcDbLine
 10
-102.8740479025182
 20
-3665.194361227695
 30
0.0
 11
-102.9240635300521
 21
-3665.212211017463
 31
0.0
  0
SPLINE
  5
15D
330
1F
100
AcDbEntity
  8
2D
100
AcDbSpline
210
0.0
220
0.0
230
1.0
 70
     8
 71
     3
 72
     8
 73
     4
 74
     0
 42
0.0000000001
 43
0.0000000001
 40
-0.159129324506166
 40
-0.159129324506166
 40
-0.159129324506166
 40
-0.159129324506166
 40
0.0
 40
0.0
 40
0.0
 40
0.0
 10
-102.9240635300521
 20
-3665.212211017463
 30
0.0
 10
-102.9740220978892
 20
-3665.230035518121
 30
0.0
 10
-103.0354642162565
 20
-3665.251964048259
 30
0.0
 10
-103.0854199527639
 20
-3665.269796492113
 30
0.0
  0
LINE
  5
15E
330
1F
100
AcDbEntity
  8
2D
100
AcDbLine
 10
-103.0854199527639
 20
-3665.269796492113
 30
0.0
 11
-103.1717394077205
 21
-3665.300602405761
 31
0.0
  0
SPLINE
  5
15F
330
1F
100
AcDbEntity
  8
2D
100
AcDbSpline
210
0.0
220
0.0
230
1.0
 70
     8
 71
     3
 72
     8
 73
     4
 74
     0
 42
0.0000000001
 43
0.0000000001
 40
-0.069405634592236
 40
-0.069405634592236
 40
-0.069405634592236
 40
-0.069405634592236
 40
0.0
 40
0.0
 40
0.0
 40
0.0
 10
-103.1717394077205
 20
-3665.300602405761
 30
0.0
 10
-103.1935292707931
 20
-3665.308376715227
 30
0.0
 10
-103.2185517366233
 20
-3665.317307060778
 30
0.0
 10
-103.2403403679491
 20
-3665.325084821366
 30
0.0
  0
LINE
  5
160
330
1F
100
AcDbEntity
  8
2D
100
AcDbLine
 10
-103.2403403679491
 20
-3665.325084821366
 30
0.0
 11
-103.3104902723753
 21
-3665.350119922232
 31
0.0
  0
LINE
  5
161
330
1F
100
AcDbEntity
  8
2D
100
AcDbLine
 10
-103.3104902723753
 20
-3665.350119922232
 30
0.0
 11
-103.3323389391298
 21
-3665.357917245417
 31
0.0
  0
LINE
  5
162
330
1F
100
AcDbEntity
  8
2D
100
AcDbLine
 10
-103.3323389391298
 20
-3665.357917245417
 30
0.0
 11
-103.4195550125369
 21
-3665.389042577745
 31
0.0
  0
SPLINE
  5
163
330
1F
100
AcDbEntity
  8
2D
100
AcDbSpline
210
0.0
220
0.0
230
1.0
 70
     8
 71
     3
 72
     8
 73
     4
 74
     0
 42
0.0000000001
 43
0.0000000001
 40
-0.0499196571776948
 40
-0.0499196571776948
 40
-0.0499196571776948
 40
-0.0499196571776948
 40
0.0
 40
0.0
 40
0.0
 40
0.0
 10
-103.4195550125369
 20
-3665.389042577745
 30
0.0
 10
-103.4352268535768
 20
-3665.39463535849
 30
0.0
 10
-103.4552367425968
 20
-3665.401773681101
 30
0.0
 10
-103.4709077031439
 20
-3665.407368928411
 30
0.0
  0
SPLINE
  5
164
330
1F
100
AcDbEntity
  8
2D
100
AcDbSpline
210
0.0
220
0.0
230
1.0
 70
     8
 71
     3
 72
     8
 73
     4
 74
     0
 42
0.0000000001
 43
0.0000000001
 40
-21.79714637398796
 40
-21.79714637398796
 40
-21.79714637398796
 40
-21.79714637398796
 40
0.0
 40
0.0
 40
0.0
 40
0.0
 10
-103.4709077031439
 20
-3665.407368928411
 30
0.0
 10
-110.3143309487641
 20
-3667.848307149234
 30
0.0
 10
-117.1573493839242
 20
-3670.290380602695
 30
0.0
 10
-124.00036830522
 20
-3672.733733307773
 30
0.0
  0
SPLINE
  5
165
330
1F
100
AcDbEntity
  8
2D
100
AcDbSpline
210
0.0
220
0.0
230
1.0
 70
     8
 71
     3
 72
     8
 73
     4
 74
     0
 42
0.0000000001
 43
0.0000000001
 40
-0.1141806822844033
 40
-0.1141806822844033
 40
-0.1141806822844033
 40
-0.1141806822844033
 40
0.0
 40
0.0
 40
0.0
 40
0.0
 10
-124.00036830522
 20
-3672.733733307773
 30
0.0
 10
-124.0365688525962
 20
-3672.746811878097
 30
0.0
 10
-124.0821963203052
 20
-3672.764482551865
 30
0.0
 10
-124.1172603433079
 20
-3672.77928583937
 30
0.0
  0
SPLINE
  5
166
330
1F
100
AcDbEntity
  8
2D
100
AcDbSpline
210
0.0
220
0.0
230
1.0
 70
     8
 71
     3
 72
     8
 73
     4
 74
     0
 42
0.0000000001
 43
0.0000000001
 40
0.0
 40
0.0
 40
0.0
 40
0.0
 40
0.0542498392505523
 40
0.0542498392505523
 40
0.0542498392505523
 40
0.0542498392505523
 10
-124.1172603433079
 20
-3672.77928583937
 30
0.0
 10
-124.1339996930801
 20
-3672.786130758031
 30
0.0
 10
-124.1505229684044
 20
-3672.793493032679
 30
0.0
 10
-124.1667576857944
 20
-3672.8014650786
 30
0.0
  0
SPLINE
  5
167
330
1F
100
AcDbEntity
  8
2D
100
AcDbSpline
210
0.0
220
0.0
230
1.0
 70
     8
 71
     3
 72
     8
 73
     4
 74
     0
 42
0.0000000001
 43
0.0000000001
 40
-0.0484109398651295
 40
-0.0484109398651295
 40
-0.0484109398651295
 40
-0.0484109398651295
 40
0.0
 40
0.0
 40
0.0
 40
0.0
 10
-124.1667576857944
 20
-3672.8014650786
 30
0.0
 10
-124.1811922848501
 20
-3672.808687961299
 30
0.0
 10
-124.1974867910321
 20
-3672.816806591591
 30
0.0
 10
-124.211966706338
 20
-3672.823942061041
 30
0.0
  0
SPLINE
  5
168
330
1F
100
AcDbEntity
  8
2D
100
AcDbSpline
210
0.0
220
0.0
230
1.0
 70
    12
 71
     2
 72
     6
 73
     3
 74
     0
 42
0.0000000001
 43
0.0000000001
 40
0.0
 40
0.0
 40
0.0
 40
0.2012700135899538
 40
0.2012700135899538
 40
0.2012700135899538
 10
-124.211966706338
 20
-3672.823942061041
 30
0.0
 41
1.0
 10
-124.3031782780109
 20
-3672.868488891781
 30
0.0000000000000012
 41
0.9875533933707997
 10
-124.3750581434424
 20
-3672.94015567382
 30
0.0
 41
0.9999976706514221
  0
SPLINE
  5
169
330
1F
100
AcDbEntity
  8
2D
100
AcDbSpline
210
0.0
220
0.0
230
1.0
 70
    12
 71
     3
 72
     8
 73
     4
 74
     0
 42
0.0000000001
 43
0.0000000001
 40
-0.0638837669235603
 40
-0.0638837669235603
 40
-0.0638837669235603
 40
-0.0638837669235603
 40
0.0
 40
0.0
 40
0.0
 40
0.0
 10
-124.3750581434433
 20
-3672.940155673821
 30
0.0
 41
1.0
 10
-124.3898734523609
 20
-3672.956742706707
 30
0.0
 41
1.0
 10
-124.4036415646224
 20
-3672.973222173834
 30
0.0
 41
1.0
 10
-124.416878519587
 20
-3672.989631152769
 30
0.0
 41
1.0
  0
SPLINE
  5
16A
330
1F
100
AcDbEntity
  8
2D
100
AcDbSpline
210
0.0
220
0.0
230
1.0
 70
    12
 71
     2
 72
     6
 73
     3
 74
     0
 42
0.0000000001
 43
0.0000000001
 40
0.0
 40
0.0
 40
0.0
 40
0.2422513242218131
 40
0.2422513242218131
 40
0.2422513242218131
 10
-124.4168785195868
 20
-3672.989631152769
 30
0.0
 41
0.9999955815240122
 10
-124.4855009444389
 20
-3673.090579263458
 30
0.0000000000000009
 41
0.988557743083537
 10
-124.5186471385714
 20
-3673.208119462077
 30
0.0
 41
1.0
  0
SPLINE
  5
16B
330
1F
100
AcDbEntity
  8
2D
100
AcDbSpline
210
0.0
220
0.0
230
1.0
 70
     8
 71
     3
 72
     8
 73
     4
 74
     0
 42
0.0000000001
 43
0.0000000001
 40
-0.7128501824539065
 40
-0.7128501824539065
 40
-0.7128501824539065
 40
-0.7128501824539065
 40
0.0
 40
0.0
 40
0.0
 40
0.0
 10
-124.5186471385714
 20
-3673.208119462077
 30
0.0
 10
-124.5888631024645
 20
-3673.418480799869
 30
0.0
 10
-124.6456003670282
 20
-3673.631125524669
 30
0.0
 10
-124.6929519538244
 20
-3673.847663986623
 30
0.0
  0
SPLINE
  5
16C
330
1F
100
AcDbEntity
  8
2D
100
AcDbSpline
210
0.0
220
0.0
230
1.0
 70
     8
 71
     3
 72
     8
 73
     4
 74
     0
 42
0.0000000001
 43
0.0000000001
 40
0.0
 40
0.0
 40
0.0
 40
0.0
 40
0.1100631219607508
 40
0.1100631219607508
 40
0.1100631219607508
 40
0.1100631219607508
 10
-124.6929519538244
 20
-3673.847663986623
 30
0.0
 10
-124.7023865837546
 20
-3673.883170149534
 30
0.0
 10
-124.7096167346972
 20
-3673.919141582934
 30
0.0
 10
-124.714590763946
 20
-3673.955543242641
 30
0.0
  0
SPLINE
  5
16D
330
1F
100
AcDbEntity
  8
2D
100
AcDbSpline
210
0.0
220
0.0
230
1.0
 70
     8
 71
     3
 72
    10
 73
     6
 74
     0
 42
0.0000000001
 43
0.0000000001
 40
-9.74668687155551
 40
-9.74668687155551
 40
-9.74668687155551
 40
-9.74668687155551
 40
-5.619242153301681
 40
-5.619242153301681
 40
0.0
 40
0.0
 40
0.0
 40
0.0
 10
-124.714590763946
 20
-3673.955543242641
 30
0.0
 10
-124.9639731960742
 20
-3675.27315804277
 30
0.0
 10
-124.8115151315942
 20
-3677.276659279809
 30
0.0
 10
-124.5049660540681
 20
-3680.339556379603
 30
0.0
 10
-124.3118320941794
 20
-3681.407536685702
 30
0.0
 10
-124.0964172743043
 20
-3683.167756055258
 30
0.0
  0
SPLINE
  5
16E
330
1F
100
AcDbEntity
  8
2D
100
AcDbSpline
210
0.0
220
0.0
230
1.0
 70
     8
 71
     3
 72
     8
 73
     4
 74
     0
 42
0.0000000001
 43
0.0000000001
 40
0.0
 40
0.0
 40
0.0
 40
0.0
 40
0.4218836001287504
 40
0.4218836001287504
 40
0.4218836001287504
 40
0.4218836001287504
 10
-124.0964172743043
 20
-3683.167756055258
 30
0.0
 10
-124.0820017393416
 20
-3683.307672652532
 30
0.0
 10
-124.0652184293285
 20
-3683.447296468988
 30
0.0
 10
-124.0459027727156
 20
-3683.586622898832
 30
0.0
  0
SPLINE
  5
16F
330
1F
100
AcDbEntity
  8
2D
100
AcDbSpline
210
0.0
220
0.0
230
1.0
 70
     8
 71
     3
 72
     8
 73
     4
 74
     0
 42
0.0000000001
 43
0.0000000001
 40
-0.3321654488312494
 40
-0.3321654488312494
 40
-0.3321654488312494
 40
-0.3321654488312494
 40
0.0
 40
0.0
 40
0.0
 40
0.0
 10
-124.0459027727156
 20
-3683.586622898832
 30
0.0
 10
-124.0299463349402
 20
-3683.696231096473
 30
0.0
 10
-124.0174169979146
 20
-3683.804092251576
 30
0.0
 10
-124.0075612170112
 20
-3683.91441589232
 30
0.0
  0
SPLINE
  5
170
330
1F
100
AcDbEntity
  8
2D
100
AcDbSpline
210
0.0
220
0.0
230
1.0
 70
     8
 71
     3
 72
     8
 73
     4
 74
     0
 42
0.0000000001
 43
0.0000000001
 40
0.0
 40
0.0
 40
0.0
 40
0.0
 40
0.2415839625933145
 40
0.2415839625933145
 40
0.2415839625933145
 40
0.2415839625933145
 10
-124.0075612170112
 20
-3683.91441589232
 30
0.0
 10
-124.0012596556153
 20
-3683.994754981903
 30
0.0
 10
-123.9918321841178
 20
-3684.074729161205
 30
0.0
 10
-123.979266856375
 20
-3684.154328601196
 30
0.0
  0
SPLINE
  5
171
330
1F
100
AcDbEntity
  8
2D
100
AcDbSpline
210
0.0
220
0.0
230
1.0
 70
     8
 71
     3
 72
     8
 73
     4
 74
     0
 42
0.0000000001
 43
0.0000000001
 40
-2.182553013923633
 40
-2.182553013923633
 40
-2.182553013923633
 40
-2.182553013923633
 40
0.0
 40
0.0
 40
0.0
 40
0.0
 10
-123.979266856375
 20
-3684.154328601196
 30
0.0
 10
-123.8907284489032
 20
-3684.869624782289
 30
0.0
 10
-123.7910864025471
 20
-3685.578367513585
 30
0.0
 10
-123.6103642702947
 20
-3686.279198827416
 30
0.0
  0
SPLINE
  5
172
330
1F
100
AcDbEntity
  8
2D
100
AcDbSpline
210
0.0
220
0.0
230
1.0
 70
     8
 71
     3
 72
     8
 73
     4
 74
     0
 42
0.0000000001
 43
0.0000000001
 40
0.0
 40
0.0
 40
0.0
 40
0.0
 40
0.2400288943869622
 40
0.2400288943869622
 40
0.2400288943869622
 40
0.2400288943869622
 10
-123.6103642702947
 20
-3686.279198827416
 30
0.0
 10
-123.5913735994982
 20
-3686.356935932686
 30
0.0
 10
-123.5700340055373
 20
-3686.43406119014
 30
0.0
 10
-123.5467024543068
 20
-3686.510600403854
 30
0.0
  0
SPLINE
  5
173
330
1F
100
AcDbEntity
  8
2D
100
AcDbSpline
210
0.0
220
0.0
230
1.0
 70
     8
 71
     3
 72
     8
 73
     4
 74
     0
 42
0.0000000001
 43
0.0000000001
 40
-0.1783993736397204
 40
-0.1783993736397204
 40
-0.1783993736397204
 40
-0.1783993736397204
 40
0.0
 40
0.0
 40
0.0
 40
0.0
 10
-123.5467024543068
 20
-3686.510600403854
 30
0.0
 10
-123.5292695364587
 20
-3686.567462559881
 30
0.0
 10
-123.5124718415027
 20
-3686.623787101298
 30
0.0
 10
-123.495618912224
 20
-3686.680821814107
 30
0.0
  0
SPLINE
  5
174
330
1F
100
AcDbEntity
  8
2D
100
AcDbSpline
210
0.0
220
0.0
230
1.0
 70
    12
 71
     2
 72
     6
 73
     3
 74
     0
 42
0.0000000001
 43
0.0000000001
 40
0.0
 40
0.0
 40
0.0
 40
0.4238773019827894
 40
0.4238773019827894
 40
0.4238773019827894
 10
-123.495618912224
 20
-3686.680821814107
 30
0.0
 41
1.0
 10
-123.4330944210332
 20
-3686.883389258915
 30
0.0
 41
0.9996628985556597
 10
-123.3594272593909
 20
-3687.082174132006
 30
0.0
 41
1.0
  0
SPLINE
  5
175
330
1F
100
AcDbEntity
  8
2D
100
AcDbSpline
210
0.0
220
0.0
230
1.0
 70
     8
 71
     3
 72
     8
 73
     4
 74
     0
 42
0.0000000001
 43
0.0000000001
 40
0.0
 40
0.0
 40
0.0
 40
0.0
 40
0.0296524734812196
 40
0.0296524734812196
 40
0.0296524734812196
 40
0.0296524734812196
 10
-123.3594272593909
 20
-3687.082174132006
 30
0.0
 10
-123.3560065489837
 20
-3687.091447497968
 30
0.0
 10
-123.3525683907901
 20
-3687.100714446514
 30
0.0
 10
-123.3491128212918
 20
-3687.109974879302
 30
0.0
  0
SPLINE
  5
176
330
1F
100
AcDbEntity
  8
2D
100
AcDbSpline
210
0.0
220
0.0
230
1.0
 70
     8
 71
     3
 72
     8
 73
     4
 74
     0
 42
0.0000000001
 43
0.0000000001
 40
0.0
 40
0.0
 40
0.0
 40
0.0
 40
0.0296524734782501
 40
0.0296524734782501
 40
0.0296524734782501
 40
0.0296524734782501
 10
-123.3491128212918
 20
-3687.109974879302
 30
0.0
 10
-123.3456746599149
 20
-3687.119241789373
 30
0.0
 10
-123.3422365138831
 20
-3687.128508705138
 30
0.0
 10
-123.3387983831999
 20
-3687.137775626597
 30
0.0
  0
LINE
  5
177
330
1F
100
AcDbEntity
  8
2D
100
AcDbLine
 10
-123.3387983831999
 20
-3687.137775626597
 30
0.0
 11
-54.37764944588707
 21
-3873.012269465703
 31
0.0
  0
SPLINE
  5
178
330
1F
100
AcDbEntity
  8
2D
100
AcDbSpline
210
0.0
220
0.0
230
1.0
 70
     8
 71
     3
 72
    32
 73
    28
 74
     0
 42
0.0000000001
 43
0.0000000001
 40
-534.3873126592508
 40
-534.3873126592508
 40
-534.3873126592508
 40
-534.3873126592508
 40
-267.3051154827428
 40
-267.3051154827428
 40
-133.8893117238059
 40
-133.8893117238059
 40
-67.1053540479053
 40
-67.1053540479053
 40
-62.93769791007728
 40
-62.93769791007728
 40
-58.75537626984292
 40
-58.75537626984292
 40
-54.57126330925986
 40
-54.57126330925986
 40
-50.38833867002069
 40
-50.38833867002069
 40
-41.9646155183711
 40
-41.9646155183711
 40
-33.5374260892259
 40
-33.5374260892259
 40
-29.36004692092704
 40
-29.36004692092704
 40
-25.17686998733331
 40
-25.17686998733331
 40
-16.7530801183851
 40
-16.7530801183851
 40
0.0
 40
0.0
 40
0.0
 40
0.0
 10
592.7388655523428
 20
-5244.034314481203
 30
0.0
 10
506.7900675371166
 20
-5220.62041900965
 30
0.0
 10
420.8412695218867
 20
-5197.206523538097
 30
0.0
 10
291.9583931946654
 20
-5162.096664365149
 30
0.0
 10
249.0243148826739
 20
-5150.400700663754
 30
0.0
 10
184.5987221619143
 20
-5132.850087641923
 30
0.0
 10
163.1072077531462
 20
-5126.995438321488
 30
0.0
 10
140.2745143389147
 20
-5120.775429324503
 30
0.0
 10
138.9344136655418
 20
-5120.406134769756
 30
0.0
 10
136.2450766468428
 20
-5119.682377218345
 30
0.0
 10
134.8883986515211
 20
-5119.392026932634
 30
0.0
 10
132.1328207064362
 20
-5118.951664716828
 30
0.0
 10
130.7526658564893
 20
-5118.804174300709
 30
0.0
 10
127.9659607312969
 20
-5118.653382460684
 30
0.0
 10
126.5783454623233
 20
-5118.650738569045
 30
0.0
 10
122.3787850513327
 20
-5118.862830403574
 30
0.0
 10
119.6619849343151
 20
-5119.286730562068
 30
0.0
 10
114.2294066409049
 20
-5120.72876627068
 30
0.0
 10
111.6589250456454
 20
-5121.708050119296
 30
0.0
 10
107.9080100617539
 20
-5123.607360374021
 30
0.0
 10
106.7059607111041
 20
-5124.297032227744
 30
0.0
 10
104.362890995104
 20
-5125.809369250585
 30
0.0
 10
103.2377516850829
 20
-5126.621749294643
 30
0.0
 10
99.96174944184168
 20
-5129.258332320292
 30
0.0
 10
98.01148623906556
 20
-5131.196735656589
 30
0.0
 10
92.70453657550388
 20
-5137.705259607519
 30
0.0
 10
90.12049092672532
 20
-5142.730653156236
 30
0.0
 10
88.64982042562042
 20
-5148.121377335266
 30
0.0
  0
LINE
  5
179
330
1F
100
AcDbEntity
  8
2D
100
AcDbLine
 10
88.64982042562042
 20
-5148.121377335266
 30
0.0
 11
40.78651379788062
 21
-5323.563723393206
 31
0.0
  0
LINE
  5
17A
330
1F
100
AcDbEntity
  8
2D
100
AcDbLine
 10
40.78651379788062
 20
-5323.563723393206
 30
0.0
 11
0.4625210353769944
 21
-5471.37080968134
 31
0.0
  0
SPLINE
  5
17B
330
1F
100
AcDbEntity
  8
2D
100
AcDbSpline
210
0.0
220
0.0
230
1.0
 70
     8
 71
     3
 72
    50
 73
    46
 74
     0
 42
0.0000000001
 43
0.0000000001
 40
-795.1690699939409
 40
-795.1690699939409
 40
-795.1690699939409
 40
-795.1690699939409
 40
-782.6940905643054
 40
-782.6940905643054
 40
-776.456600849485
 40
-776.456600849485
 40
-773.3378559920749
 40
-773.3378559920749
 40
-770.238571822185
 40
-770.238571822185
 40
-757.74267496415
 40
-757.74267496415
 40
-745.243932031586
 40
-745.243932031586
 40
-738.9685466296161
 40
-738.9685466296161
 40
-732.6883865410388
 40
-732.6883865410388
 40
-726.4104100237101
 40
-726.4104100237101
 40
-725.3808420995429
 40
-725.3808420995429
 40
-722.2697588053592
 40
-722.2697588053592
 40
-697.3810924519323
 40
-697.3810924519323
 40
-597.732967170593
 40
-597.732967170593
 40
-398.4198532951578
 40
-398.4198532951578
 40
-199.2993888879644
 40
-199.2993888879644
 40
-149.4680401013859
 40
-149.4680401013859
 40
-137.0102029047491
 40
-137.0102029047491
 40
-130.7812843064246
 40
-130.7812843064246
 40
-124.5569820654388
 40
-124.5569820654388
 40
-99.60146842486206
 40
-99.60146842486206
 40
-49.78234228755385
 40
-49.78234228755385
 40
0.0
 40
0.0
 40
0.0
 40
0.0
 10
0.4625210353769944
 20
-5471.37080968134
 30
0.0
 10
-0.6268328327096242
 20
-5475.363822529222
 30
0.0
 10
-1.716186700796243
 20
-5479.356835377102
 30
0.0
 10
-3.35021750292799
 20
-5485.346354648919
 30
0.0
 10
-3.89489443696948
 20
-5487.342861072859
 30
0.0
 10
-4.711909838035353
 20
-5490.337620708769
 30
0.0
 10
-4.984248305059737
 20
-5491.335873920739
 30
0.0
 10
-5.527225871552218
 20
-5493.326151334384
 30
0.0
 10
-5.811852042425016
 20
-5494.313793928921
 30
0.0
 10
-6.955156574033026
 20
-5499.365644178102
 30
0.0
 10
-7.069570626652421
 20
-5503.559311298894
 30
0.0
 10
-5.64003842161037
 20
-5511.741754685928
 30
0.0
 10
-4.108725059166318
 20
-5515.647385756802
 30
0.0
 10
-0.6794278749621299
 20
-5520.866021531765
 30
0.0
 10
0.6135461067970027
 20
-5522.447214151343
 30
0.0
 10
3.582905512332218
 20
-5525.384258930275
 30
0.0
 10
5.178684879821958
 20
-5526.660260792259
 30
0.0
 10
8.700570995082671
 20
-5528.907385311919
 30
0.0
 10
10.52895550092217
 20
-5529.81698941821
 30
0.0
 10
12.80859230554779
 20
-5530.661630007233
 30
0.0
 10
15.09472182427635
 20
-5531.461982053521
 30
0.0
 10
16.39423817222269
 20
-5531.917881531053
 30
0.0
 10
17.37063134986602
 20
-5532.260422154154
 30
0.0
 10
26.15816994867419
 20
-5535.343287762069
 30
0.0
 10
33.96931536983902
 20
-5538.083612746877
 30
0.0
 10
73.05437424486081
 20
-5551.795527913356
 30
0.0
 10
104.3282876987141
 20
-5562.767118095032
 30
0.0
 10
198.1553205008822
 20
-5595.683745346893
 30
0.0
 10
260.7084398491934
 20
-5617.628782417085
 30
0.0
 10
385.7542167681386
 20
-5661.497645209955
 30
0.0
 10
448.246874338769
 20
-5683.421470932633
 30
0.0
 10
526.378775345649
 20
-5710.831893975058
 30
0.0
 10
542.0180187818951
 20
-5716.318491294803
 30
0.0
 10
561.5670730771999
 20
-5723.176737944484
 30
0.0
 10
565.4768839362623
 20
-5724.548387274421
 30
0.0
 10
571.3416002248523
 20
-5726.605861269326
 30
0.0
 10
573.2965056543871
 20
-5727.291685934291
 30
0.0
 10
577.204867699842
 20
-5728.662826987925
 30
0.0
 10
579.1568305209912
 20
-5729.352286498652
 30
0.0
 10
588.9702103961426
 20
-5732.706068000636
 30
0.0
 10
596.8916209651652
 20
-5735.124566484064
 30
0.0
 10
620.9046234939888
 20
-5741.599305037141
 30
0.0
 10
637.1856339730548
 20
-5744.856678271995
 30
0.0
 10
670.027338626729
 20
-5749.203567067194
 30
0.0
 10
686.5575933031323
 20
-5750.292527028741
 30
0.0
 10
703.1155203083908
 20
-5750.292502159614
 30
0.0
  0
SPLINE
  5
17C
330
1F
100
AcDbEntity
  8
2D
100
AcDbSpline
210
0.0
220
0.0
230
1.0
 70
     8
 71
     3
 72
    88
 73
    84
 74
     0
 42
0.0000000001
 43
0.0000000001
 40
-1664.558897910184
 40
-1664.558897910184
 40
-1664.558897910184
 40
-1664.558897910184
 40
-1612.468016501101
 40
-1612.468016501101
 40
-1586.43970043222
 40
-1586.43970043222
 40
-1560.424265638582
 40
-1560.424265638582
 40
-1547.442614622853
 40
-1547.442614622853
 40
-1540.947118933773
 40
-1540.947118933773
 40
-1534.440749959773
 40
-1534.440749959773
 40
-1508.429981329248
 40
-1508.429981329248
 40
-1456.408441958454
 40
-1456.408441958454
 40
-1248.43728794032
 40
-1248.43728794032
 40
-1040.093135632644
 40
-1040.093135632644
 40
-988.1323935465447
 40
-988.1323935465447
 40
-962.1520299195498
 40
-962.1520299195498
 40
-949.1618502169235
 40
-949.1618502169235
 40
-942.666760925425
 40
-942.666760925425
 40
-939.4192164236553
 40
-939.4192164236553
 40
-935.7719010317909
 40
-935.7719010317909
 40
-929.2217172841458
 40
-929.2217172841458
 40
-922.6716110194155
 40
-922.6716110194155
 40
-916.1224437591849
 40
-916.1224437591849
 40
-909.5750398089862
 40
-909.5750398089862
 40
-896.555506884515
 40
-896.555506884515
 40
-893.3024822662425
 40
-893.3024822662425
 40
-891.6649899682733
 40
-891.6649899682733
 40
-890.0414043658818
 40
-890.0414043658818
 40
-883.547061956316
 40
-883.547061956316
 40
-831.5923226798059
 40
-831.5923226798059
 40
-623.4862205922846
 40
-623.4862205922846
 40
-571.4340343219485
 40
-571.4340343219485
 40
-545.4079411867779
 40
-545.4079411867779
 40
-538.9014179029872
 40
-538.9014179029872
 40
-535.6481562610919
 40
-535.6481562610919
 40
-533.230354016171
 40
-533.230354016171
 40
-520.2015464405397
 40
-520.2015464405397
 40
-507.1657061759225
 40
-507.1657061759225
 40
-494.1306539048052
 40
-494.1306539048052
 40
-481.0962392636258
 40
-481.0962392636258
 40
-474.5570073051745
 40
-474.5570073051745
 40
-471.2989829501711
 40
-471.2989829501711
 40
-468.0449122309735
 40
-468.0449122309735
 40
-415.9979789287387
 40
-415.9979789287387
 40
0.0
 40
0.0
 40
0.0
 40
0.0
 10
703.1155203083908
 20
-5750.292502159614
 30
0.0
 10
720.4785222797364
 20
-5750.292476060165
 30
0.0
 10
737.8118543585333
 20
-5749.094255525301
 30
0.0
 10
763.6031251981731
 20
-5745.513004418183
 30
0.0
 10
772.1299616456454
 20
-5744.027900855092
 30
0.0
 10
789.107179468836
 20
-5740.46404240936
 30
0.0
 10
797.5073829904795
 20
-5738.39625543184
 30
0.0
 10
810.0147428968921
 20
-5734.856844194685
 30
0.0
 10
814.1548885351222
 20
-5733.607728323312
 30
0.0
 10
820.3370555261063
 20
-5731.625680384271
 30
0.0
 10
822.3926890419607
 20
-5730.947038890989
 30
0.0
 10
826.4961948858036
 20
-5729.553153820997
 30
0.0
 10
828.5415327745686
 20
-5728.832593938886
 30
0.0
 10
838.7686031788144
 20
-5725.244721114954
 30
0.0
 10
846.9493342457718
 20
-5722.374747037637
 30
0.0
 10
871.4915277350519
 20
-5713.764823503578
 30
0.0
 10
887.85298978223
 20
-5708.024872977502
 30
0.0
 10
969.6241276251567
 20
-5679.337803088854
 30
0.0
 10
1035.033796578635
 20
-5656.390664222747
 30
0.0
 10
1165.970438316966
 20
-5610.455204786307
 30
0.0
 10
1231.497411085584
 20
-5587.466884169722
 30
0.0
 10
1313.366717636181
 20
-5558.745302134098
 30
0.0
 10
1329.709053050825
 20
-5553.012045368871
 30
0.0
 10
1354.222553742937
 20
-5544.412160761665
 30
0.0
 10
1362.393719069107
 20
-5541.545533058508
 30
0.0
 10
1374.650466378247
 20
-5537.245591690439
 30
0.0
 10
1378.736048369323
 20
-5535.812278048648
 30
0.0
 10
1384.864421176833
 20
-5533.662307639068
 30
0.0
 10
1386.907211994781
 20
-5532.945650875613
 30
0.0
 10
1389.971398175792
 20
-5531.870665744507
 30
0.0
 10
1390.992793539172
 20
-5531.512337377761
 30
0.0
 10
1393.161317456856
 20
-5530.75157062456
 30
0.0
 10
1393.929613007596
 20
-5530.50018039504
 30
0.0
 10
1397.061468096708
 20
-5529.164189579988
 30
0.0
 10
1398.918933769623
 20
-5528.113293722397
 30
0.0
 10
1402.463984652793
 20
-5525.551321717179
 30
0.0
 10
1404.044174479706
 20
-5524.116313914456
 30
0.0
 10
1406.939926539948
 20
-5520.83940319612
 30
0.0
 10
1408.170233176668
 20
-5519.09390794098
 30
0.0
 10
1410.288254719919
 20
-5515.269580508545
 30
0.0
 10
1411.115844004798
 20
-5513.299913571048
 30
0.0
 10
1412.994607446013
 20
-5507.045414603401
 30
0.0
 10
1413.345704577168
 20
-5502.663046885799
 30
0.0
 10
1412.668354985035
 20
-5497.279040129887
 30
0.0
 10
1412.47883610948
 20
-5496.216694873025
 30
0.0
 10
1412.110746596394
 20
-5494.627940237902
 30
0.0
 10
1411.9696815793
 20
-5494.100950211853
 30
0.0
 10
1411.683570875422
 20
-5493.052215039309
 30
0.0
 10
1411.541125575524
 20
-5492.530083591092
 30
0.0
 10
1410.828899076037
 20
-5489.919426350007
 30
0.0
 10
1410.259117876445
 20
-5487.830900557138
 30
0.0
 10
1405.131087080143
 20
-5469.03416842132
 30
0.0
 10
1400.572837483425
 20
-5452.325962078372
 30
0.0
 10
1377.756396831883
 20
-5368.692586957277
 30
0.0
 10
1359.498205777047
 20
-5301.767418179134
 30
0.0
 10
1336.673215612471
 20
-5218.102704925986
 30
0.0
 10
1332.106416502727
 20
-5201.363160450981
 30
0.0
 10
1325.256217838112
 20
-5176.253843738475
 30
0.0
 10
1322.972818283233
 20
-5167.884071500974
 30
0.0
 10
1320.118568839644
 20
-5157.421856204096
 30
0.0
 10
1319.547718950929
 20
-5155.32941314472
 30
0.0
 10
1318.691444117852
 20
-5152.190748555658
 30
0.0
 10
1318.406019173493
 20
-5151.14452702597
 30
0.0
 10
1317.908468323752
 20
-5149.320760668475
 30
0.0
 10
1317.482789428013
 20
-5147.737630659749
 30
0.0
 10
1315.979071195601
 20
-5142.810041097421
 30
0.0
 10
1314.037783887834
 20
-5138.883210455951
 30
0.0
 10
1308.97449839921
 20
-5131.816905799288
 30
0.0
 10
1305.883048786392
 20
-5128.720088588142
 30
0.0
 10
1298.82306200852
 20
-5123.644223095093
 30
0.0
 10
1294.904499985158
 20
-5121.700597083398
 30
0.0
 10
1286.591766388872
 20
-5119.151465952698
 30
0.0
 10
1282.256143042399
 20
-5118.564004533058
 30
0.0
 10
1275.730503605733
 20
-5118.747321521287
 30
0.0
 10
1273.59093382386
 20
-5118.982579757601
 30
0.0
 10
1270.382660441643
 20
-5119.602187694552
 30
0.0
 10
1269.329487838011
 20
-5119.856119080734
 30
0.0
 10
1267.234596314203
 20
-5120.425884090725
 30
0.0
 10
1266.188253017961
 20
-5120.712302332162
 30
0.0
 10
1248.400322185942
 20
-5125.558027093529
 30
0.0
 10
1231.659084554165
 20
-5130.118615421336
 30
0.0
 10
1081.109367196117
 20
-5171.130833205886
 30
0.0
 10
947.3008874698535
 20
-5207.582462662627
 30
0.0
 10
813.4924077435862
 20
-5244.034092119367
 30
0.0
  0
SPLINE
  5
17D
330
1F
100
AcDbEntity
  8
2D
100
AcDbSpline
210
0.0
220
0.0
230
1.0
 70
     8
 71
     3
 72
     8
 73
     4
 74
     0
 42
0.0000000001
 43
0.0000000001
 40
-6.989760934362181
 40
-6.989760934362181
 40
-6.989760934362181
 40
-6.989760934362181
 40
0.0
 40
0.0
 40
0.0
 40
0.0
 10
813.4924077435862
 20
-5244.034092119367
 30
0.0
 10
811.2444118436943
 20
-5244.646499738363
 30
0.0
 10
808.9912498053054
 20
-5245.240317267459
 30
0.0
 10
806.7334002451062
 20
-5245.81533389933
 30
0.0
  0
SPLINE
  5
17E
330
1F
100
AcDbEntity
  8
2D
100
AcDbSpline
210
0.0
220
0.0
230
1.0
 70
     8
 71
     3
 72
     8
 73
     4
 74
     0
 42
0.0000000001
 43
0.0000000001
 40
-10.89313803096026
 40
-10.89313803096026
 40
-10.89313803096026
 40
-10.89313803096026
 40
0.0
 40
0.0
 40
0.0
 40
0.0
 10
806.7334002451062
 20
-5245.81533389933
 30
0.0
 10
803.2146523719239
 20
-5246.711385636537
 30
0.0
 10
799.683234056658
 20
-5247.562060393514
 30
0.0
 10
796.1424204484429
 20
-5248.366506862181
 30
0.0
  0
SPLINE
  5
17F
330
1F
100
AcDbEntity
  8
2D
100
AcDbSpline
210
0.0
220
0.0
230
1.0
 70
     8
 71
     3
 72
     8
 73
     4
 74
     0
 42
0.0000000001
 43
0.0000000001
 40
0.0
 40
0.0
 40
0.0
 40
0.0
 40
3.070746969595131
 40
3.070746969595131
 40
3.070746969595131
 40
3.070746969595131
 10
796.1424204484429
 20
-5248.366506862181
 30
0.0
 10
795.1442745327149
 20
-5248.593278781254
 30
0.0
 10
794.1452892685047
 20
-5248.816393588016
 30
0.0
 10
793.1455076392449
 20
-5249.035841682484
 30
0.0
  0
SPLINE
  5
180
330
1F
100
AcDbEntity
  8
2D
100
AcDbSpline
210
0.0
220
0.0
230
1.0
 70
     8
 71
     3
 72
     8
 73
     4
 74
     0
 42
0.0000000001
 43
0.0000000001
 40
-52.32418449651844
 40
-52.32418449651844
 40
-52.32418449651844
 40
-52.32418449651844
 40
0.0
 40
0.0
 40
0.0
 40
0.0
 10
793.1455076392449
 20
-5249.035841682484
 30
0.0
 10
776.1451606268674
 20
-5252.767340011069
 30
0.0
 10
758.8075184470908
 20
-5255.452903651834
 30
0.0
 10
741.4759407849197
 20
-5257.047119840243
 30
0.0
  0
SPLINE
  5
181
330
1F
100
AcDbEntity
  8
2D
100
AcDbSpline
210
0.0
220
0.0
230
1.0
 70
     8
 71
     3
 72
     8
 73
     4
 74
     0
 42
0.0000000001
 43
0.0000000001
 40
-34.98464653814141
 40
-34.98464653814141
 40
-34.98464653814141
 40
-34.98464653814141
 40
0.0
 40
0.0
 40
0.0
 40
0.0
 10
741.4759407849197
 20
-5257.047119840243
 30
0.0
 10
729.8629501916803
 20
-5258.110215847739
 30
0.0
 10
718.1955971823954
 20
-5258.689992494236
 30
0.0
 10
706.5344243404652
 20
-5258.783639263222
 30
0.0
  0
SPLINE
  5
182
330
1F
100
AcDbEntity
  8
2D
100
AcDbSpline
210
0.0
220
0.0
230
1.0
 70
     8
 71
     3
 72
     8
 73
     4
 74
     0
 42
0.0000000001
 43
0.0000000001
 40
-0.1844351172863811
 40
-0.1844351172863811
 40
-0.1844351172863811
 40
-0.1844351172863811
 40
0.0
 40
0.0
 40
0.0
 40
0.0
 10
706.5344243404652
 20
-5258.783639263222
 30
0.0
 10
706.4729481393842
 20
-5258.784157370853
 30
0.0
 10
706.4114714489733
 20
-5258.784636972683
 30
0.0
 10
706.3499947094024
 20
-5258.785084749798
 30
0.0
  0
SPLINE
  5
183
330
1F
100
AcDbEntity
  8
2D
100
AcDbSpline
210
0.0
220
0.0
230
1.0
 70
     8
 71
     3
 72
     8
 73
     4
 74
     0
 42
0.0000000001
 43
0.0000000001
 40
-3.234494371103105
 40
-3.234494371103105
 40
-3.234494371103105
 40
-3.234494371103105
 40
0.0
 40
0.0
 40
0.0
 40
0.0
 10
706.3499947094024
 20
-5258.785084749798
 30
0.0
 10
705.2718613693942
 20
-5258.793319136465
 30
0.0
 10
704.19368621385
 20
-5258.797447296675
 30
0.0
 10
703.1155214284809
 20
-5258.797409709849
 30
0.0
  0
SPLINE
  5
184
330
1F
100
AcDbEntity
  8
2D
100
AcDbSpline
210
0.0
220
0.0
230
1.0
 70
     8
 71
     3
 72
     8
 73
     4
 74
     0
 42
0.0000000001
 43
0.0000000001
 40
-0.0917588377572952
 40
-0.0917588377572952
 40
-0.0917588377572952
 40
-0.0917588377572952
 40
0.0
 40
0.0
 40
0.0
 40
0.0
 10
703.1155214284809
 20
-5258.797409709849
 30
0.0
 10
703.0849351488578
 20
-5258.797369026966
 30
0.0
 10
703.0543488279945
 20
-5258.797365868502
 30
0.0
 10
703.0237625405643
 20
-5258.797400166633
 30
0.0
  0
SPLINE
  5
185
330
1F
100
AcDbEntity
  8
2D
100
AcDbSpline
210
0.0
220
0.0
230
1.0
 70
     8
 71
     3
 72
     8
 73
     4
 74
     0
 42
0.0000000001
 43
0.0000000001
 40
-3.142648315275293
 40
-3.142648315275293
 40
-3.142648315275293
 40
-3.142648315275293
 40
0.0
 40
0.0
 40
0.0
 40
0.0
 10
703.0237625405643
 20
-5258.797400166633
 30
0.0
 10
701.9762131244606
 20
-5258.797217607592
 30
0.0
 10
700.9286553559832
 20
-5258.793076256124
 30
0.0
 10
699.8811364984576
 20
-5258.78507271202
 30
0.0
  0
SPLINE
  5
186
330
1F
100
AcDbEntity
  8
2D
100
AcDbSpline
210
0.0
220
0.0
230
1.0
 70
     8
 71
     3
 72
     8
 73
     4
 74
     0
 42
0.0000000001
 43
0.0000000001
 40
-0.3682054936169377
 40
-0.3682054936169377
 40
-0.3682054936169377
 40
-0.3682054936169377
 40
0.0
 40
0.0
 40
0.0
 40
0.0
 10
699.8811364984576
 20
-5258.78507271202
 30
0.0
 10
699.7584044413925
 20
-5258.784198298821
 30
0.0
 10
699.6356733400607
 20
-5258.783215142726
 30
0.0
 10
699.5129431790338
 20
-5258.782100906348
 30
0.0
  0
SPLINE
  5
187
330
1F
100
AcDbEntity
  8
2D
100
AcDbSpline
210
0.0
220
0.0
230
1.0
 70
    12
 71
     2
 72
     6
 73
     3
 74
     0
 42
0.0000000001
 43
0.0000000001
 40
-51.37194652386502
 40
-51.37194652386502
 40
-51.37194652386502
 40
0.0
 40
0.0
 40
0.0
 10
699.5129431790338
 20
-5258.782100906348
 30
0.0
 41
1.0
 10
673.7880259366358
 20
-5258.561679601443
 30
0.0000000000000002
 41
0.9981292151569103
 10
648.2823385991112
 20
-5255.203128746261
 30
0.0
 41
0.9999999999990825
  0
SPLINE
  5
188
330
1F
100
AcDbEntity
  8
2D
100
AcDbSpline
210
0.0
220
0.0
230
1.0
 70
     8
 71
     3
 72
     8
 73
     4
 74
     0
 42
0.0000000001
 43
0.0000000001
 40
-19.40854037847503
 40
-19.40854037847503
 40
-19.40854037847503
 40
-19.40854037847503
 40
0.0
 40
0.0
 40
0.0
 40
0.0
 10
648.2823385991105
 20
-5255.203128746261
 30
0.0
 10
641.8683894870956
 20
-5254.357042845702
 30
0.0
 10
635.4753277403615
 20
-5253.364682862331
 30
0.0
 10
629.1068392921588
 20
-5252.225841459811
 30
0.0
  0
SPLINE
  5
189
330
1F
100
AcDbEntity
  8
2D
100
AcDbSpline
210
0.0
220
0.0
230
1.0
 70
     8
 71
     3
 72
     8
 73
     4
 74
     0
 42
0.0000000001
 43
0.0000000001
 40
-19.9195636915946
 40
-19.9195636915946
 40
-19.9195636915946
 40
-19.9195636915946
 40
0.0
 40
0.0
 40
0.0
 40
0.0
 10
629.1068392921588
 20
-5252.225841459811
 30
0.0
 10
622.5708511233133
 20
-5251.056000721585
 30
0.0
 10
616.0608287305695
 20
-5249.730515026744
 30
0.0
 10
609.5875792224178
 20
-5248.252437795584
 30
0.0
  0
SPLINE
  5
18A
330
1F
100
AcDbEntity
  8
2D
100
AcDbSpline
210
0.0
220
0.0
230
1.0
 70
     8
 71
     3
 72
     8
 73
     4
 74
     0
 42
0.0000000001
 43
0.0000000001
 40
0.0
 40
0.0
 40
0.0
 40
0.0
 40
2.721593150865635
 40
2.721593150865635
 40
2.721593150865635
 40
2.721593150865635
 10
609.5875792224178
 20
-5248.252437795584
 30
0.0
 10
608.7030285225555
 20
-5248.050996833415
 30
0.0
 10
607.8192739675469
 20
-5247.846050468389
 30
0.0
 10
606.9363320412012
 20
-5247.637671841105
 30
0.0
  0
SPLINE
  5
18B
330
1F
100
AcDbEntity
  8
2D
100
AcDbSpline
210
0.0
220
0.0
230
1.0
 70
     8
 71
     3
 72
     8
 73
     4
 74
     0
 42
0.0000000001
 43
0.0000000001
 40
-14.64755726629576
 40
-14.64755726629576
 40
-14.64755726629576
 40
-14.64755726629576
 40
0.0
 40
0.0
 40
0.0
 40
0.0
 10
606.9363320412012
 20
-5247.637671841105
 30
0.0
 10
602.1837095961455
 20
-5246.518934652697
 30
0.0
 10
597.449713844253
 20
-5245.317630896889
 30
0.0
 10
592.7388655523428
 20
-5244.034314481203
 30
0.0
  0
SPLINE
  5
18C
330
1F
100
AcDbEntity
  8
2D
100
AcDbSpline
210
0.0
220
0.0
230
1.0
 70
    12
 71
     3
 72
    18
 73
    14
 74
     0
 42
0.0000000001
 43
0.0000000001
 40
-8.20921901741617
 40
-8.20921901741617
 40
-8.20921901741617
 40
-8.20921901741617
 40
-7.916032623936298
 40
-7.916032623936298
 40
-7.622846230456425
 40
-7.622846230456425
 40
-6.450100656537033
 40
-6.450100656537033
 40
-4.104609508698251
 40
-4.104609508698251
 40
-1.759118360859417
 40
-1.759118360859417
 40
0.0
 40
0.0
 40
0.0
 40
0.0
 10
-54.43062926270795
 20
-5460.448000026943
 30
0.0
 41
1.0
 10
-54.41567228855274
 20
-5460.390434913043
 30
0.0
 41
1.0
 10
-54.33469845725267
 20
-5460.334053175839
 30
0.0
 41
1.0
 10
-54.50157523519738
 20
-5460.217110627143
 30
0.0
 41
1.0
 10
-54.41751447684874
 20
-5460.162566056843
 30
0.0
 41
1.0
 10
-54.2988556289456
 20
-5459.886133140221
 30
0.0
 41
1.0
 10
-54.14179438104475
 20
-5459.68144752995
 30
0.0
 41
1.0
 10
-53.5802753554708
 20
-5459.107192386063
 30
0.0
 41
1.0
 10
-53.05215244521241
 20
-5458.787477355526
 30
0.0
 41
1.0
 10
-51.69916859476143
 20
-5458.275814801304
 30
0.0
 41
1.0
 10
-50.87705566013028
 20
-5458.086639239519
 30
0.0
 41
1.0
 10
-49.20055171662534
 20
-5457.876638469451
 30
0.0
 41
1.0
 10
-48.40406796720345
 20
-5457.825842337701
 30
0.0
 41
1.0
 10
-47.53884925015882
 20
-5457.815119289998
 30
0.0
 41
1.0
  0
SPLINE
  5
18D
330
1F
100
AcDbEntity
  8
2D
100
AcDbSpline
210
0.0
220
0.0
230
1.0
 70
    12
 71
     3
 72
    11
 73
     7
 74
     0
 42
0.0000000001
 43
0.0000000001
 40
-4.341775091844221
 40
-4.341775091844221
 40
-4.341775091844221
 40
-4.341775091844221
 40
-0.0000000000058072
 40
-0.0000000000058072
 40
-0.0000000000058072
 40
1.081964329955525
 40
1.081964329955525
 40
1.081964329955525
 40
1.081964329955525
 10
-47.53884925016117
 20
-5457.815119289997
 30
0.0
 41
0.9999999999999737
 10
-46.09022266628327
 20
-5457.798678282206
 30
0.0
 41
0.9986854258946788
 10
-44.64342060209818
 20
-5457.873197228639
 30
0.0
 41
0.9986854258946875
 10
-43.20414884322963
 20
-5458.038382247264
 30
0.0
 41
1.0
 10
-42.84584614962296
 20
-5458.079504597337
 30
0.0
 41
1.0
 10
-42.48754345596171
 20
-5458.120626947416
 30
0.0
 41
1.0
 10
-42.12920875730561
 20
-5458.16148699595
 30
0.0
 41
1.0
  0
SPLINE
  5
18E
330
1F
100
AcDbEntity
  8
2D
100
AcDbSpline
210
0.0
220
0.0
230
1.0
 70
     8
 71
     3
 72
    14
 73
    10
 74
     0
 42
0.0000000001
 43
0.0000000001
 40
0.0
 40
0.0
 40
0.0
 40
0.0
 40
14.41483842665443
 40
22.45281883089022
 40
26.68889631524301
 40
31.02889798461337
 40
31.02889798461337
 40
31.02889798461337
 40
44.64577469757526
 40
44.64577469757526
 40
44.64577469757526
 40
44.64577469757526
 10
-42.12920875730561
 20
-5458.16148699595
 30
0.0
 10
-37.3593403981431
 20
-5458.747488142803
 30
0.0
 10
-29.9976974702804
 20
-5460.143552147591
 30
0.0
 10
-21.37941624752784
 20
-5462.350602622582
 30
0.0
 10
-16.05726230525397
 20
-5463.883373715855
 30
0.0
 10
-13.32558521967439
 20
-5464.724400415511
 30
0.0
 10
-11.94676754721149
 20
-5465.162421909441
 30
0.0
 10
-7.620688507176965
 20
-5466.536726606737
 30
0.0
 10
-3.294609467138798
 20
-5467.911031304033
 30
0.0
 10
1.031469572903006
 20
-5469.285336001329
 30
0.0
  0
SPLINE
  5
18F
330
1F
100
AcDbEntity
  8
2D
100
AcDbSpline
210
0.0
220
0.0
230
1.0
 70
    12
 71
     3
 72
    18
 73
    14
 74
     0
 42
0.0000000001
 43
0.0000000001
 40
-8.209219017420422
 40
-8.209219017420422
 40
-8.209219017420422
 40
-8.209219017420422
 40
-7.916032623940309
 40
-7.916032623940309
 40
-7.622846230460195
 40
-7.622846230460195
 40
-6.450100656539844
 40
-6.450100656539844
 40
-4.104609508699141
 40
-4.104609508699141
 40
-1.759118360858388
 40
-1.759118360858388
 40
0.0
 40
0.0
 40
0.0
 40
0.0
 10
-54.43062926270795
 20
-3872.88878493668
 30
0.0
 41
1.0
 10
-54.41567228855274
 20
-3872.94635005058
 30
0.0
 41
1.0
 10
-54.33469845725267
 20
-3873.002731787784
 30
0.0
 41
1.0
 10
-54.50157523519738
 20
-3873.119674336481
 30
0.0
 41
1.0
 10
-54.41751447684874
 20
-3873.17421890678
 30
0.0
 41
1.0
 10
-54.2988556289456
 20
-3873.450651823402
 30
0.0
 41
1.0
 10
-54.14179438104475
 20
-3873.655337433674
 30
0.0
 41
1.0
 10
-53.5802753554708
 20
-3874.229592577561
 30
0.0
 41
1.0
 10
-53.05215244521241
 20
-3874.549307608097
 30
0.0
 41
1.0
 10
-51.69916859476143
 20
-3875.060970162319
 30
0.0
 41
1.0
 10
-50.87705566013028
 20
-3875.250145724104
 30
0.0
 41
1.0
 10
-49.20055171662534
 20
-3875.460146494173
 30
0.0
 41
1.0
 10
-48.40406796721072
 20
-3875.510942625923
 30
0.0
 41
1.0
 10
-47.53884925016246
 20
-3875.521665673625
 30
0.0
 41
1.0
  0
SPLINE
  5
190
330
1F
100
AcDbEntity
  8
2D
100
AcDbSpline
210
0.0
220
0.0
230
1.0
 70
    12
 71
     3
 72
    11
 73
     7
 74
     0
 42
0.0000000001
 43
0.0000000001
 40
-4.341775091846725
 40
-4.341775091846725
 40
-4.341775091846725
 40
-4.341775091846725
 40
-0.0000000000065342
 40
-0.0000000000065342
 40
-0.0000000000065342
 40
1.081964329955633
 40
1.081964329955633
 40
1.081964329955633
 40
1.081964329955633
 10
-47.53884925016374
 20
-3875.521665673626
 30
0.0
 41
0.9999999999999704
 10
-46.09022266627963
 20
-3875.538106681418
 30
0.0
 41
0.9986854258946788
 10
-44.64342060208655
 20
-3875.463587734984
 30
0.0
 41
0.998685425894689
 10
-43.20414884322963
 20
-3875.298402716359
 30
0.0
 41
1.0
 10
-42.84584614962296
 20
-3875.257280366286
 30
0.0
 41
1.0
 10
-42.48754345596171
 20
-3875.216158016207
 30
0.0
 41
1.0
 10
-42.12920875730561
 20
-3875.175297967672
 30
0.0
 41
1.0
  0
SPLINE
  5
191
330
1F
100
AcDbEntity
  8
2D
100
AcDbSpline
210
0.0
220
0.0
230
1.0
 70
     8
 71
     3
 72
    14
 73
    10
 74
     0
 42
0.0000000001
 43
0.0000000001
 40
0.0
 40
0.0
 40
0.0
 40
0.0
 40
14.41483842665398
 40
22.45281883088953
 40
26.68889631524219
 40
31.02889798461242
 40
31.02889798461242
 40
31.02889798461242
 40
44.64577469757389
 40
44.64577469757389
 40
44.64577469757389
 40
44.64577469757389
 10
-42.12920875730561
 20
-3875.175297967672
 30
0.0
 10
-37.3593403981431
 20
-3874.589296820819
 30
0.0
 10
-29.9976974702804
 20
-3873.193232816032
 30
0.0
 10
-21.37941624752784
 20
-3870.986182341041
 30
0.0
 10
-16.05726230525397
 20
-3869.453411247768
 30
0.0
 10
-13.32558521967439
 20
-3868.612384548113
 30
0.0
 10
-11.94676754721149
 20
-3868.174363054182
 30
0.0
 10
-7.620688507176965
 20
-3866.800058356886
 30
0.0
 10
-3.294609467138798
 20
-3865.425753659591
 30
0.0
 10
1.031469572903006
 20
-3864.051448962295
 30
0.0
  0
SPLINE
  5
192
330
1F
100
AcDbEntity
  8
2D
100
AcDbSpline
210
0.0
220
0.0
230
1.0
 70
    12
 71
     3
 72
     9
 73
     5
 74
     0
 42
0.0000000001
 43
0.0000000001
 40
-6.703885951975899
 40
-6.703885951975899
 40
-6.703885951975899
 40
-6.703885951975899
 40
-4.125468278139015
 40
0.0
 40
0.0
 40
0.0
 40
0.0
 10
-146.2239837959205
 20
-3621.415764802598
 30
0.0
 41
1.0
 10
-146.1216415891067
 20
-3622.151422040366
 30
0.0
 41
1.0
 10
-145.8414735449624
 20
-3624.17602207802
 30
0.0
 41
1.0
 10
-145.62643788063
 20
-3626.499622781997
 30
0.0
 41
1.0
 10
-145.1053722356082
 20
-3627.90405489233
 30
0.0
 41
1.0
  0
LINE
  5
193
330
1F
100
AcDbEntity
  8
2D
100
AcDbLine
 10
-145.1053722356082
 20
-3627.90405489233
 30
0.0
 11
-123.4920958836228
 21
-3686.721137641165
 31
0.0
  0
LINE
  5
194
330
1F
100
AcDbEntity
  8
2D
100
AcDbLine
 10
1287.636623078412
 20
-3765.56479078138
 30
0.0
 11
1290.15163580361
 21
-3756.353207488533
 31
0.0
  0
LINE
  5
195
330
1F
100
AcDbEntity
  8
2D
100
AcDbLine
 10
1290.15163580361
 20
-3756.353207488533
 30
0.0
 11
1304.243531874887
 21
-3721.788657857038
 31
0.0
  0
SPLINE
  5
196
330
1F
100
AcDbEntity
  8
2D
100
AcDbSpline
210
0.0
220
0.0
230
1.0
 70
    12
 71
     2
 72
     8
 73
     5
 74
     0
 42
0.0000000001
 43
0.0000000001
 40
-10.75214484344038
 40
-10.75214484344038
 40
-10.75214484344038
 40
0.0000000000047988
 40
0.0000000000047988
 40
21.32738948873884
 40
21.32738948873884
 40
21.32738948873884
 10
1304.243531874887
 20
-3721.788657857038
 30
0.0
 41
1.0
 10
1305.479506068407
 20
-3718.757064931414
 30
0.0000000000000088
 41
0.9215112730281788
 10
1297.829688074336
 20
-3713.573336542298
 30
0.0
 41
1.0
 10
1290.179870080278
 20
-3708.389608153186
 30
0.0000000000000088
 41
0.9215112730282314
 10
1278.259149494977
 20
-3704.180921212703
 30
0.0
 41
0.9999999999998948
  0
SPLINE
  5
197
330
1F
100
AcDbEntity
  8
2D
100
AcDbSpline
210
0.0
220
0.0
230
1.0
 70
     8
 71
     3
 72
    44
 73
    40
 74
     0
 42
0.0000000001
 43
0.0000000001
 40
0.0
 40
0.0
 40
0.0
 40
0.0
 40
302.5158649969341
 40
302.5158649969341
 40
453.7047957532231
 40
453.7047957532231
 40
472.6090120586074
 40
472.6090120586074
 40
494.5289492709588
 40
494.5289492709588
 40
532.3996098576297
 40
532.3996098576297
 40
570.2766764424662
 40
570.2766764424662
 40
589.1847755270554
 40
589.1847755270554
 40
608.0932652849149
 40
608.0932652849149
 40
626.9775989560461
 40
626.9775989560461
 40
645.8597387939818
 40
645.8597387939818
 40
664.7489755788304
 40
664.7489755788304
 40
683.6303117742558
 40
683.6303117742558
 40
702.5174821018987
 40
702.5174821018987
 40
721.4070719967974
 40
721.4070719967974
 40
730.8439826400906
 40
730.8439826400906
 40
737.3211189134213
 40
737.3211189134213
 40
756.1977472439697
 40
756.1977472439697
 40
907.3990188786115
 40
907.3990188786115
 40
1209.767786399064
 40
1209.767786399064
 40
1209.767786399064
 40
1209.767786399064
 10
1278.259149494974
 20
-3704.180921212703
 30
0.0
 10
1183.170016885913
 20
-3670.609092418455
 30
0.0
 10
1088.08088432303
 20
-3637.037263493407
 30
0.0
 10
945.4688748506269
 20
-3586.687177011362
 30
0.0
 10
897.94562857458
 20
-3569.9099656818
 30
0.0
 10
844.4808239552913
 20
-3551.033260267326
 30
0.0
 10
838.5387450538947
 20
-3548.935240673404
 30
0.0
 10
825.7067279427938
 20
-3544.404345112153
 30
0.0
 10
821.6707366295341
 20
-3542.940398305391
 30
0.0
 10
802.6590510732422
 20
-3536.932521360325
 30
0.0
 10
790.5025248114689
 20
-3533.760069942307
 30
0.0
 10
765.767957101958
 20
-3528.635933607842
 30
0.0
 10
753.3499312327331
 20
-3526.717113762502
 30
0.0
 10
734.5121073609153
 20
-3524.787148485162
 30
0.0
 10
728.2333954739152
 20
-3524.305603093756
 30
0.0
 10
715.6388902771396
 20
-3523.662997797581
 30
0.0
 10
709.3436601507783
 20
-3523.50316615063
 30
0.0
 10
696.7406975116864
 20
-3523.505811759077
 30
0.0
 10
690.4535439671199
 20
-3523.667808660801
 30
0.0
 10
677.875946285716
 20
-3524.313822541782
 30
0.0
 10
671.6060067397339
 20
-3524.796790056379
 30
0.0
 10
659.076192987246
 20
-3526.084462458616
 30
0.0
 10
652.8367184614617
 20
-3526.88708898764
 30
0.0
 10
640.3892157239243
 20
-3528.81252520259
 30
0.0
 10
634.2012937989857
 20
-3529.931574075047
 30
0.0
 10
621.8686594625069
 20
-3532.488279837422
 30
0.0
 10
615.7440615263331
 20
-3533.922278953166
 30
0.0
 10
603.5549588051508
 20
-3537.104183094728
 30
0.0
 10
597.5102235041595
 20
-3538.847383332371
 30
0.0
 10
588.503276608164
 20
-3541.69423444413
 30
0.0
 10
585.5158715080979
 20
-3542.680345163891
 30
0.0
 10
580.4978800086865
 20
-3544.407516146187
 30
0.0
 10
575.6723298788784
 20
-3546.117057342462
 30
0.0
 10
567.7001926623016
 20
-3548.931793637059
 30
0.0
 10
561.7646981677754
 20
-3551.027441547725
 30
0.0
 10
508.286036988633
 20
-3569.909115562821
 30
0.0
 10
460.7427322363546
 20
-3586.694750599165
 30
0.0
 10
318.123233960614
 20
-3637.047327258857
 30
0.0
 10
223.0468361297171
 20
-3670.613690177479
 30
0.0
 10
127.9707436423669
 20
-3704.180918257672
 30
0.0
  0
SPLINE
  5
198
330
1F
100
AcDbEntity
  8
2D
100
AcDbSpline
210
0.0
220
0.0
230
1.0
 70
    12
 71
     2
 72
     8
 73
     5
 74
     0
 42
0.0000000001
 43
0.0000000001
 40
-21.32738948871124
 40
-21.32738948871124
 40
-21.32738948871124
 40
0.0
 40
0.0
 40
10.75214484340389
 40
10.75214484340389
 40
10.75214484340389
 10
127.9707436423669
 20
-3704.180918257672
 30
0.0
 41
1.0
 10
116.0500239977844
 20
-3708.389608153182
 30
0.0000000000000088
 41
0.9215112730281788
 10
108.4002060037456
 20
-3713.573336542299
 30
0.0
 41
1.0
 10
100.7503880097113
 20
-3718.757064931414
 30
0.0000000000000088
 41
0.9215112730281788
 10
101.9863622032753
 20
-3721.788657857038
 30
0.0
 41
1.0
  0
LINE
  5
199
330
1F
100
AcDbEntity
  8
2D
100
AcDbLine
 10
101.9863622032753
 20
-3721.788657857038
 30
0.0
 11
116.0782393196496
 21
-3756.353160996025
 31
0.0
  0
LINE
  5
19A
330
1F
100
AcDbEntity
  8
2D
100
AcDbLine
 10
116.0782393196496
 20
-3756.353160996025
 30
0.0
 11
118.5933649608669
 21
-3765.565157859474
 31
0.0
  0
LINE
  5
19B
330
1F
100
AcDbEntity
  8
2D
100
AcDbLine
 10
333.3242848349182
 20
-5804.37183501361
 30
0.0
 11
332.4691699829345
 21
-5823.504446371853
 31
0.0
  0
LINE
  5
19C
330
1F
100
AcDbEntity
  8
2D
100
AcDbLine
 10
332.4691699829345
 20
-5823.504446371853
 30
0.0
 11
310.5731146518592
 21
-5884.860135970668
 31
0.0
  0
SPLINE
  5
19D
330
1F
100
AcDbEntity
  8
2D
100
AcDbSpline
210
0.0
220
0.0
230
1.0
 70
     8
 71
     3
 72
     8
 73
     4
 74
     0
 42
0.0000000001
 43
0.0000000001
 40
-0.1246057591512208
 40
-0.1246057591512208
 40
-0.1246057591512208
 40
-0.1246057591512208
 40
0.0
 40
0.0
 40
0.0
 40
0.0
 10
-146.6980937264016
 20
-3612.883923212474
 30
0.0
 10
-146.7052660564368
 20
-3612.924834518097
 30
0.0
 10
-146.7117533086457
 20
-3612.96384899599
 30
0.0
 10
-146.7182566853298
 20
-3613.004872244929
 30
0.0
  0
SPLINE
  5
19E
330
1F
100
AcDbEntity
  8
2D
100
AcDbSpline
210
0.0
220
0.0
230
1.0
 70
     8
 71
     3
 72
     8
 73
     4
 74
     0
 42
0.0000000001
 43
0.0000000001
 40
0.0
 40
0.0
 40
0.0
 40
0.0
 40
0.2482281958218777
 40
0.2482281958218777
 40
0.2482281958218777
 40
0.2482281958218777
 10
-146.7182566853298
 20
-3613.004872244929
 30
0.0
 10
-146.7309816909874
 20
-3613.086630768368
 30
0.0
 10
-146.7423060795336
 20
-3613.16861771519
 30
0.0
 10
-146.752404104147
 20
-3613.250742035001
 30
0.0
  0
SPLINE
  5
19F
330
1F
100
AcDbEntity
  8
2D
100
AcDbSpline
210
0.0
220
0.0
230
1.0
 70
     8
 71
     3
 72
     8
 73
     4
 74
     0
 42
0.0000000001
 43
0.0000000001
 40
-0.0843868770997159
 40
-0.0843868770997159
 40
-0.0843868770997159
 40
-0.0843868770997159
 40
0.0
 40
0.0
 40
0.0
 40
0.0
 10
-146.752404104147
 20
-3613.250742035001
 30
0.0
 10
-146.7559715606767
 20
-3613.278644335935
 30
0.0
 10
-146.7591692759524
 20
-3613.305806341172
 30
0.0
 10
-146.7621452926178
 20
-3613.333778033839
 30
0.0
  0
SPLINE
  5
1A0
330
1F
100
AcDbEntity
  8
2D
100
AcDbSpline
210
0.0
220
0.0
230
1.0
 70
     8
 71
     3
 72
     8
 73
     4
 74
     0
 42
0.0000000001
 43
0.0000000001
 40
0.0
 40
0.0
 40
0.0
 40
0.0
 40
0.994371627059132
 40
0.994371627059132
 40
0.994371627059132
 40
0.994371627059132
 10
-146.7621452926178
 20
-3613.333778033839
 30
0.0
 10
-146.7973702509589
 20
-3613.663359052411
 30
0.0
 10
-146.8189539229134
 20
-3613.994810750298
 30
0.0
 10
-146.8267322919783
 20
-3614.326176529185
 30
0.0
  0
SPLINE
  5
1A1
330
1F
100
AcDbEntity
  8
2D
100
AcDbSpline
210
0.0
220
0.0
230
1.0
 70
     8
 71
     3
 72
     8
 73
     4
 74
     0
 42
0.0000000001
 43
0.0000000001
 40
-0.1724046481591095
 40
-0.1724046481591095
 40
-0.1724046481591095
 40
-0.1724046481591095
 40
0.0
 40
0.0
 40
0.0
 40
0.0
 10
-146.8267322919783
 20
-3614.326176529185
 30
0.0
 10
-146.8283819433818
 20
-3614.383621133658
 30
0.0
 10
-146.8295313890521
 20
-3614.438803803799
 30
0.0
 10
-146.830355016089
 20
-3614.496266079479
 30
0.0
  0
SPLINE
  5
1A2
330
1F
100
AcDbEntity
  8
2D
100
AcDbSpline
210
0.0
220
0.0
230
1.0
 70
     8
 71
     3
 72
     8
 73
     4
 74
     0
 42
0.0000000001
 43
0.0000000001
 40
0.0
 40
0.0
 40
0.0
 40
0.0
 40
0.3241788491689069
 40
0.3241788491689069
 40
0.3241788491689069
 40
0.3241788491689069
 10
-146.830355016089
 20
-3614.496266079479
 30
0.0
 10
-146.8320241374895
 20
-3614.60431275725
 30
0.0
 10
-146.8328277238434
 20
-3614.712377723939
 30
0.0
 10
-146.8326773285153
 20
-3614.820437152639
 30
0.0
  0
SPLINE
  5
1A3
330
1F
100
AcDbEntity
  8
2D
100
AcDbSpline
210
0.0
220
0.0
230
1.0
 70
     8
 71
     3
 72
     8
 73
     4
 74
     0
 42
0.0000000001
 43
0.0000000001
 40
-0.1228302091760923
 40
-0.1228302091760923
 40
-0.1228302091760923
 40
-0.1228302091760923
 40
0.0
 40
0.0
 40
0.0
 40
0.0
 10
-146.8326773285153
 20
-3614.820437152639
 30
0.0
 10
-146.8326109751033
 20
-3614.861380468038
 30
0.0
 10
-146.8324252158709
 20
-3614.901292048391
 30
0.0
 10
-146.8321402948277
 20
-3614.942234431339
 30
0.0
  0
SPLINE
  5
1A4
330
1F
100
AcDbEntity
  8
2D
100
AcDbSpline
210
0.0
220
0.0
230
1.0
 70
     8
 71
     3
 72
     8
 73
     4
 74
     0
 42
0.0000000001
 43
0.0000000001
 40
0.0
 40
0.0
 40
0.0
 40
0.0
 40
0.4095948333823486
 40
0.4095948333823486
 40
0.4095948333823486
 40
0.4095948333823486
 10
-146.8321402948277
 20
-3614.942234431339
 30
0.0
 10
-146.831147441244
 20
-3615.078762401321
 30
0.0
 10
-146.8288905474474
 20
-3615.215287898359
 30
0.0
 10
-146.8253260585989
 20
-3615.351772971774
 30
0.0
  0
SPLINE
  5
1A5
330
1F
100
AcDbEntity
  8
2D
100
AcDbSpline
210
0.0
220
0.0
230
1.0
 70
     8
 71
     3
 72
     8
 73
     4
 74
     0
 42
0.0000000001
 43
0.0000000001
 40
-1.172866090272825
 40
-1.172866090272825
 40
-1.172866090272825
 40
-1.172866090272825
 40
0.0
 40
0.0
 40
0.0
 40
0.0
 10
-146.8253260585989
 20
-3615.351772971774
 30
0.0
 10
-146.8152965918489
 20
-3615.742599680736
 30
0.0
 10
-146.7998136931565
 20
-3616.065047948365
 30
0.0
 10
-146.7753237208817
 20
-3616.455235536483
 30
0.0
  0
SPLINE
  5
1A6
330
1F
100
AcDbEntity
  8
2D
100
AcDbSpline
210
0.0
220
0.0
230
1.0
 70
     8
 71
     3
 72
     8
 73
     4
 74
     0
 42
0.0000000001
 43
0.0000000001
 40
0.0
 40
0.0
 40
0.0
 40
0.0
 40
0.3899724073977459
 40
0.3899724073977459
 40
0.3899724073977459
 40
0.3899724073977459
 10
-146.7753237208817
 20
-3616.455235536483
 30
0.0
 10
-146.7671827953382
 20
-3616.584971184242
 30
0.0
 10
-146.7583198786269
 20
-3616.71466322692
 30
0.0
 10
-146.7487606420691
 20
-3616.844302074056
 30
0.0
  0
SPLINE
  5
1A7
330
1F
100
AcDbEntity
  8
2D
100
AcDbSpline
210
0.0
220
0.0
230
1.0
 70
     8
 71
     3
 72
     8
 73
     4
 74
     0
 42
0.0000000001
 43
0.0000000001
 40
-0.1753925180434466
 40
-0.1753925180434466
 40
-0.1753925180434466
 40
-0.1753925180434466
 40
0.0
 40
0.0
 40
0.0
 40
0.0
 10
-146.7487606420691
 20
-3616.844302074056
 30
0.0
 10
-146.7444630407372
 20
-3616.90260808093
 30
0.0
 10
-146.7401632547153
 20
-3616.959514682125
 30
0.0
 10
-146.7356458042814
 20
-3617.017804074382
 30
0.0
  0
SPLINE
  5
1A8
330
1F
100
AcDbEntity
  8
2D
100
AcDbSpline
210
0.0
220
0.0
230
1.0
 70
     8
 71
     3
 72
     8
 73
     4
 74
     0
 42
0.0000000001
 43
0.0000000001
 40
0.0
 40
0.0
 40
0.0
 40
0.0
 40
0.4917012048573521
 40
0.4917012048573521
 40
0.4917012048573521
 40
0.4917012048573521
 10
-146.7356458042814
 20
-3617.017804074382
 30
0.0
 10
-146.7229234832666
 20
-3617.181209969116
 30
0.0
 10
-146.7092836945958
 20
-3617.344546906088
 30
0.0
 10
-146.6947568076503
 20
-3617.507802262323
 30
0.0
  0
SPLINE
  5
1A9
330
1F
100
AcDbEntity
  8
2D
100
AcDbSpline
210
0.0
220
0.0
230
1.0
 70
     8
 71
     3
 72
     8
 73
     4
 74
     0
 42
0.0000000001
 43
0.0000000001
 40
-0.1024310006339739
 40
-0.1024310006339739
 40
-0.1024310006339739
 40
-0.1024310006339739
 40
0.0
 40
0.0
 40
0.0
 40
0.0
 10
-146.6947568076503
 20
-3617.507802262323
 30
0.0
 10
-146.6917534851673
 20
-3617.541813592239
 30
0.0
 10
-146.6887328753292
 20
-3617.575385794922
 30
0.0
 10
-146.6856126434286
 20
-3617.609386602441
 30
0.0
  0
SPLINE
  5
1AA
330
1F
100
AcDbEntity
  8
2D
100
AcDbSpline
210
0.0
220
0.0
230
1.0
 70
     8
 71
     3
 72
     8
 73
     4
 74
     0
 42
0.0000000001
 43
0.0000000001
 40
0.0
 40
0.0
 40
0.0
 40
0.0
 40
0.9710782226011313
 40
0.9710782226011313
 40
0.9710782226011313
 40
0.9710782226011313
 10
-146.6856126434286
 20
-3617.609386602441
 30
0.0
 10
-146.6560992044797
 20
-3617.931731065908
 30
0.0
 10
-146.623715684349
 20
-3618.253830517026
 30
0.0
 10
-146.5884951079133
 20
-3618.575601398997
 30
0.0
  0
SPLINE
  5
1AB
330
1F
100
AcDbEntity
  8
2D
100
AcDbSpline
210
0.0
220
0.0
230
1.0
 70
     8
 71
     3
 72
     8
 73
     4
 74
     0
 42
0.0000000001
 43
0.0000000001
 40
-0.3089526533012993
 40
-0.3089526533012993
 40
-0.3089526533012993
 40
-0.3089526533012993
 40
0.0
 40
0.0
 40
0.0
 40
0.0
 10
-146.5884951079133
 20
-3618.575601398997
 30
0.0
 10
-146.5773559793124
 20
-3618.677981432957
 30
0.0
 10
-146.566280642397
 20
-3618.776988565144
 30
0.0
 10
-146.5545407409627
 20
-3618.879301452065
 30
0.0
  0
SPLINE
  5
1AC
330
1F
100
AcDbEntity
  8
2D
100
AcDbSpline
210
0.0
220
0.0
230
1.0
 70
     8
 71
     3
 72
     8
 73
     4
 74
     0
 42
0.0000000001
 43
0.0000000001
 40
0.0
 40
0.0
 40
0.0
 40
0.0
 40
0.460538131898214
 40
0.460538131898214
 40
0.460538131898214
 40
0.460538131898214
 10
-146.5545407409627
 20
-3618.879301452065
 30
0.0
 10
-146.5370599543639
 20
-3619.031815641517
 30
0.0
 10
-146.5191040748759
 20
-3619.184276833867
 30
0.0
 10
-146.5006628952469
 20
-3619.336677871706
 30
0.0
  0
SPLINE
  5
1AD
330
1F
100
AcDbEntity
  8
2D
100
AcDbSpline
210
0.0
220
0.0
230
1.0
 70
     8
 71
     3
 72
     8
 73
     4
 74
     0
 42
0.0000000001
 43
0.0000000001
 40
-0.2241083846180817
 40
-0.2241083846180817
 40
-0.2241083846180817
 40
-0.2241083846180817
 40
0.0
 40
0.0
 40
0.0
 40
0.0
 10
-146.5006628952469
 20
-3619.336677871706
 30
0.0
 10
-146.4917063317043
 20
-3619.410841803052
 30
0.0
 10
-146.4827957522029
 20
-3619.483362849414
 30
0.0
 10
-146.47354518067
 20
-3619.55749068221
 30
0.0
  0
SPLINE
  5
1AE
330
1F
100
AcDbEntity
  8
2D
100
AcDbSpline
210
0.0
220
0.0
230
1.0
 70
     8
 71
     3
 72
     8
 73
     4
 74
     0
 42
0.0000000001
 43
0.0000000001
 40
0.0
 40
0.0
 40
0.0
 40
0.0
 40
0.5850659038530989
 40
0.5850659038530989
 40
0.5850659038530989
 40
0.5850659038530989
 10
-146.47354518067
 20
-3619.55749068221
 30
0.0
 10
-146.4494425427292
 20
-3619.751017508835
 30
0.0
 10
-146.4246367422857
 20
-3619.944458416964
 30
0.0
 10
-146.3991011313847
 20
-3620.137801377942
 30
0.0
  0
SPLINE
  5
1AF
330
1F
100
AcDbEntity
  8
2D
100
AcDbSpline
210
0.0
220
0.0
230
1.0
 70
     8
 71
     3
 72
     8
 73
     4
 74
     0
 42
0.0000000001
 43
0.0000000001
 40
-0.1282142449525735
 40
-0.1282142449525735
 40
-0.1282142449525735
 40
-0.1282142449525735
 40
0.0
 40
0.0
 40
0.0
 40
0.0
 10
-146.3991011313847
 20
-3620.137801377942
 30
0.0
 10
-146.3935033532216
 20
-3620.180171277963
 30
0.0
 10
-146.3879377202975
 20
-3620.222045102419
 30
0.0
 10
-146.3822829325618
 20
-3620.264407431785
 30
0.0
  0
SPLINE
  5
1B0
330
1F
100
AcDbEntity
  8
2D
100
AcDbSpline
210
0.0
220
0.0
230
1.0
 70
     8
 71
     3
 72
     8
 73
     4
 74
     0
 42
0.0000000001
 43
0.0000000001
 40
0.0
 40
0.0
 40
0.0
 40
0.0
 40
0.2917739351376322
 40
0.2917739351376322
 40
0.2917739351376322
 40
0.2917739351376322
 10
-146.3822829325618
 20
-3620.264407431785
 30
0.0
 10
-146.3694092532205
 20
-3620.360809623492
 30
0.0
 10
-146.3563660301443
 20
-3620.457189307436
 30
0.0
 10
-146.3431953712352
 20
-3620.553551381323
 30
0.0
  0
SPLINE
  5
1B1
330
1F
100
AcDbEntity
  8
2D
100
AcDbSpline
210
0.0
220
0.0
230
1.0
 70
     8
 71
     3
 72
     8
 73
     4
 74
     0
 42
0.0000000001
 43
0.0000000001
 40
-0.4555035488446695
 40
-0.4555035488446695
 40
-0.4555035488446695
 40
-0.4555035488446695
 40
0.0
 40
0.0
 40
0.0
 40
0.0
 10
-146.3431953712352
 20
-3620.553551381323
 30
0.0
 10
-146.3227269833551
 20
-3620.703999961187
 30
0.0
 10
-146.3026170442972
 20
-3620.849722554973
 30
0.0
 10
-146.2817643114176
 20
-3621.000118312446
 30
0.0
  0
SPLINE
  5
1B2
330
1F
100
AcDbEntity
  8
2D
100
AcDbSpline
210
0.0
220
0.0
230
1.0
 70
     8
 71
     3
 72
     8
 73
     4
 74
     0
 42
0.0000000001
 43
0.0000000001
 40
-0.1246057591526609
 40
-0.1246057591526609
 40
-0.1246057591526609
 40
-0.1246057591526609
 40
0.0
 40
0.0
 40
0.0
 40
0.0
 10
-146.6980937264016
 20
-5720.45286175115
 30
0.0
 10
-146.7052660564368
 20
-5720.411950445526
 30
0.0
 10
-146.7117533086421
 20
-5720.372935967634
 30
0.0
 10
-146.7182566853298
 20
-5720.331912718694
 30
0.0
  0
SPLINE
  5
1B3
330
1F
100
AcDbEntity
  8
2D
100
AcDbSpline
210
0.0
220
0.0
230
1.0
 70
     8
 71
     3
 72
     8
 73
     4
 74
     0
 42
0.0000000001
 43
0.0000000001
 40
0.0
 40
0.0
 40
0.0
 40
0.0
 40
0.2482281958223511
 40
0.2482281958223511
 40
0.2482281958223511
 40
0.2482281958223511
 10
-146.7182566853298
 20
-5720.331912718694
 30
0.0
 10
-146.7309816909874
 20
-5720.250154195255
 30
0.0
 10
-146.7423060795372
 20
-5720.168167248435
 30
0.0
 10
-146.7524041041434
 20
-5720.086042928622
 30
0.0
  0
SPLINE
  5
1B4
330
1F
100
AcDbEntity
  8
2D
100
AcDbSpline
210
0.0
220
0.0
230
1.0
 70
     8
 71
     3
 72
     8
 73
     4
 74
     0
 42
0.0000000001
 43
0.0000000001
 40
-0.0843868771011586
 40
-0.0843868771011586
 40
-0.0843868771011586
 40
-0.0843868771011586
 40
0.0
 40
0.0
 40
0.0
 40
0.0
 10
-146.7524041041434
 20
-5720.086042928622
 30
0.0
 10
-146.7559715606767
 20
-5720.058140627687
 30
0.0
 10
-146.7591692759524
 20
-5720.030978622452
 30
0.0
 10
-146.7621452926178
 20
-5720.003006929784
 30
0.0
  0
SPLINE
  5
1B5
330
1F
100
AcDbEntity
  8
2D
100
AcDbSpline
210
0.0
220
0.0
230
1.0
 70
     8
 71
     3
 72
     8
 73
     4
 74
     0
 42
0.0000000001
 43
0.0000000001
 40
0.0
 40
0.0
 40
0.0
 40
0.0
 40
0.9943716270551668
 40
0.9943716270551668
 40
0.9943716270551668
 40
0.9943716270551668
 10
-146.7621452926178
 20
-5720.003006929784
 30
0.0
 10
-146.7973702509589
 20
-5719.673425911214
 30
0.0
 10
-146.8189539229097
 20
-5719.341974213326
 30
0.0
 10
-146.8267322919783
 20
-5719.010608434439
 30
0.0
  0
SPLINE
  5
1B6
330
1F
100
AcDbEntity
  8
2D
100
AcDbSpline
210
0.0
220
0.0
230
1.0
 70
     8
 71
     3
 72
     8
 73
     4
 74
     0
 42
0.0000000001
 43
0.0000000001
 40
-0.1724046481593189
 40
-0.1724046481593189
 40
-0.1724046481593189
 40
-0.1724046481593189
 40
0.0
 40
0.0
 40
0.0
 40
0.0
 10
-146.8267322919783
 20
-5719.010608434439
 30
0.0
 10
-146.8283819433782
 20
-5718.953163829965
 30
0.0
 10
-146.8295313890485
 20
-5718.897981159824
 30
0.0
 10
-146.8303550160854
 20
-5718.840518884144
 30
0.0
  0
SPLINE
  5
1B7
330
1F
100
AcDbEntity
  8
2D
100
AcDbSpline
210
0.0
220
0.0
230
1.0
 70
     8
 71
     3
 72
     8
 73
     4
 74
     0
 42
0.0000000001
 43
0.0000000001
 40
0.0
 40
0.0
 40
0.0
 40
0.0
 40
0.324178849168492
 40
0.324178849168492
 40
0.324178849168492
 40
0.324178849168492
 10
-146.8303550160854
 20
-5718.840518884144
 30
0.0
 10
-146.8320241374895
 20
-5718.732472206374
 30
0.0
 10
-146.8328277238434
 20
-5718.624407239683
 30
0.0
 10
-146.8326773285153
 20
-5718.516347810984
 30
0.0
  0
SPLINE
  5
1B8
330
1F
100
AcDbEntity
  8
2D
100
AcDbSpline
210
0.0
220
0.0
230
1.0
 70
     8
 71
     3
 72
     8
 73
     4
 74
     0
 42
0.0000000001
 43
0.0000000001
 40
-0.1228302091774687
 40
-0.1228302091774687
 40
-0.1228302091774687
 40
-0.1228302091774687
 40
0.0
 40
0.0
 40
0.0
 40
0.0
 10
-146.8326773285153
 20
-5718.516347810984
 30
0.0
 10
-146.8326109751033
 20
-5718.475404495585
 30
0.0
 10
-146.8324252158745
 20
-5718.435492915232
 30
0.0
 10
-146.8321402948277
 20
-5718.394550532284
 30
0.0
  0
SPLINE
  5
1B9
330
1F
100
AcDbEntity
  8
2D
100
AcDbSpline
210
0.0
220
0.0
230
1.0
 70
     8
 71
     3
 72
     8
 73
     4
 74
     0
 42
0.0000000001
 43
0.0000000001
 40
0.0
 40
0.0
 40
0.0
 40
0.0
 40
0.4095948333845015
 40
0.4095948333845015
 40
0.4095948333845015
 40
0.4095948333845015
 10
-146.8321402948277
 20
-5718.394550532284
 30
0.0
 10
-146.8311474412476
 20
-5718.258022562301
 30
0.0
 10
-146.8288905474474
 20
-5718.121497065265
 30
0.0
 10
-146.8253260585989
 20
-5717.985011991849
 30
0.0
  0
SPLINE
  5
1BA
330
1F
100
AcDbEntity
  8
2D
100
AcDbSpline
210
0.0
220
0.0
230
1.0
 70
     8
 71
     3
 72
     8
 73
     4
 74
     0
 42
0.0000000001
 43
0.0000000001
 40
-1.172866090275698
 40
-1.172866090275698
 40
-1.172866090275698
 40
-1.172866090275698
 40
0.0
 40
0.0
 40
0.0
 40
0.0
 10
-146.8253260585989
 20
-5717.985011991849
 30
0.0
 10
-146.8152965918489
 20
-5717.594185282886
 30
0.0
 10
-146.7998136931565
 20
-5717.271737015259
 30
0.0
 10
-146.7753237208817
 20
-5716.88154942714
 30
0.0
  0
SPLINE
  5
1BB
330
1F
100
AcDbEntity
  8
2D
100
AcDbSpline
210
0.0
220
0.0
230
1.0
 70
     8
 71
     3
 72
     8
 73
     4
 74
     0
 42
0.0000000001
 43
0.0000000001
 40
0.0
 40
0.0
 40
0.0
 40
0.0
 40
0.3899724073960986
 40
0.3899724073960986
 40
0.3899724073960986
 40
0.3899724073960986
 10
-146.7753237208817
 20
-5716.88154942714
 30
0.0
 10
-146.7671827953382
 20
-5716.751813779381
 30
0.0
 10
-146.7583198786269
 20
-5716.622121736702
 30
0.0
 10
-146.7487606420691
 20
-5716.492482889567
 30
0.0
  0
SPLINE
  5
1BC
330
1F
100
AcDbEntity
  8
2D
100
AcDbSpline
210
0.0
220
0.0
230
1.0
 70
     8
 71
     3
 72
     8
 73
     4
 74
     0
 42
0.0000000001
 43
0.0000000001
 40
-0.1753925180453347
 40
-0.1753925180453347
 40
-0.1753925180453347
 40
-0.1753925180453347
 40
0.0
 40
0.0
 40
0.0
 40
0.0
 10
-146.7487606420691
 20
-5716.492482889567
 30
0.0
 10
-146.7444630407372
 20
-5716.434176882693
 30
0.0
 10
-146.7401632547153
 20
-5716.377270281499
 30
0.0
 10
-146.7356458042814
 20
-5716.318980889241
 30
0.0
  0
SPLINE
  5
1BD
330
1F
100
AcDbEntity
  8
2D
100
AcDbSpline
210
0.0
220
0.0
230
1.0
 70
     8
 71
     3
 72
     8
 73
     4
 74
     0
 42
0.0000000001
 43
0.0000000001
 40
0.0
 40
0.0
 40
0.0
 40
0.0
 40
0.4917012048572267
 40
0.4917012048572267
 40
0.4917012048572267
 40
0.4917012048572267
 10
-146.7356458042814
 20
-5716.318980889241
 30
0.0
 10
-146.7229234832666
 20
-5716.155574994509
 30
0.0
 10
-146.7092836945994
 20
-5715.992238057535
 30
0.0
 10
-146.6947568076539
 20
-5715.8289827013
 30
0.0
  0
SPLINE
  5
1BE
330
1F
100
AcDbEntity
  8
2D
100
AcDbSpline
210
0.0
220
0.0
230
1.0
 70
     8
 71
     3
 72
     8
 73
     4
 74
     0
 42
0.0000000001
 43
0.0000000001
 40
-0.1024310006331035
 40
-0.1024310006331035
 40
-0.1024310006331035
 40
-0.1024310006331035
 40
0.0
 40
0.0
 40
0.0
 40
0.0
 10
-146.6947568076539
 20
-5715.8289827013
 30
0.0
 10
-146.6917534851673
 20
-5715.794971371384
 30
0.0
 10
-146.6887328753292
 20
-5715.761399168701
 30
0.0
 10
-146.6856126434286
 20
-5715.727398361183
 30
0.0
  0
SPLINE
  5
1BF
330
1F
100
AcDbEntity
  8
2D
100
AcDbSpline
210
0.0
220
0.0
230
1.0
 70
     8
 71
     3
 72
     8
 73
     4
 74
     0
 42
0.0000000001
 43
0.0000000001
 40
0.0
 40
0.0
 40
0.0
 40
0.0
 40
0.9710782226022269
 40
0.9710782226022269
 40
0.9710782226022269
 40
0.9710782226022269
 10
-146.6856126434286
 20
-5715.727398361183
 30
0.0
 10
-146.6560992044797
 20
-5715.405053897716
 30
0.0
 10
-146.623715684349
 20
-5715.082954446599
 30
0.0
 10
-146.5884951079133
 20
-5714.761183564626
 30
0.0
  0
SPLINE
  5
1C0
330
1F
100
AcDbEntity
  8
2D
100
AcDbSpline
210
0.0
220
0.0
230
1.0
 70
     8
 71
     3
 72
     8
 73
     4
 74
     0
 42
0.0000000001
 43
0.0000000001
 40
-0.3089526533002267
 40
-0.3089526533002267
 40
-0.3089526533002267
 40
-0.3089526533002267
 40
0.0
 40
0.0
 40
0.0
 40
0.0
 10
-146.5884951079133
 20
-5714.761183564626
 30
0.0
 10
-146.5773559793124
 20
-5714.658803530667
 30
0.0
 10
-146.566280642397
 20
-5714.559796398478
 30
0.0
 10
-146.5545407409627
 20
-5714.457483511558
 30
0.0
  0
SPLINE
  5
1C1
330
1F
100
AcDbEntity
  8
2D
100
AcDbSpline
210
0.0
220
0.0
230
1.0
 70
     8
 71
     3
 72
     8
 73
     4
 74
     0
 42
0.0000000001
 43
0.0000000001
 40
0.0
 40
0.0
 40
0.0
 40
0.0
 40
0.4605381318960204
 40
0.4605381318960204
 40
0.4605381318960204
 40
0.4605381318960204
 10
-146.5545407409627
 20
-5714.457483511558
 30
0.0
 10
-146.5370599543639
 20
-5714.304969322106
 30
0.0
 10
-146.5191040748796
 20
-5714.152508129755
 30
0.0
 10
-146.5006628952469
 20
-5714.000107091917
 30
0.0
  0
SPLINE
  5
1C2
330
1F
100
AcDbEntity
  8
2D
100
AcDbSpline
210
0.0
220
0.0
230
1.0
 70
     8
 71
     3
 72
     8
 73
     4
 74
     0
 42
0.0000000001
 43
0.0000000001
 40
-0.2241083846121598
 40
-0.2241083846121598
 40
-0.2241083846121598
 40
-0.2241083846121598
 40
0.0
 40
0.0
 40
0.0
 40
0.0
 10
-146.5006628952469
 20
-5714.000107091917
 30
0.0
 10
-146.4917063317007
 20
-5713.925943160573
 30
0.0
 10
-146.4827957522029
 20
-5713.853422114209
 30
0.0
 10
-146.47354518067
 20
-5713.779294281414
 30
0.0
  0
SPLINE
  5
1C3
330
1F
100
AcDbEntity
  8
2D
100
AcDbSpline
210
0.0
220
0.0
230
1.0
 70
     8
 71
     3
 72
     8
 73
     4
 74
     0
 42
0.0000000001
 43
0.0000000001
 40
0.0
 40
0.0
 40
0.0
 40
0.0
 40
0.585065903853789
 40
0.585065903853789
 40
0.585065903853789
 40
0.585065903853789
 10
-146.47354518067
 20
-5713.779294281414
 30
0.0
 10
-146.4494425427292
 20
-5713.585767454789
 30
0.0
 10
-146.4246367422857
 20
-5713.39232654666
 30
0.0
 10
-146.3991011313883
 20
-5713.198983585682
 30
0.0
  0
SPLINE
  5
1C4
330
1F
100
AcDbEntity
  8
2D
100
AcDbSpline
210
0.0
220
0.0
230
1.0
 70
     8
 71
     3
 72
     8
 73
     4
 74
     0
 42
0.0000000001
 43
0.0000000001
 40
-0.1282142449528463
 40
-0.1282142449528463
 40
-0.1282142449528463
 40
-0.1282142449528463
 40
0.0
 40
0.0
 40
0.0
 40
0.0
 10
-146.3991011313883
 20
-5713.198983585682
 30
0.0
 10
-146.393503353218
 20
-5713.15661368566
 30
0.0
 10
-146.3879377202975
 20
-5713.114739861206
 30
0.0
 10
-146.3822829325618
 20
-5713.072377531838
 30
0.0
  0
SPLINE
  5
1C5
330
1F
100
AcDbEntity
  8
2D
100
AcDbSpline
210
0.0
220
0.0
230
1.0
 70
     8
 71
     3
 72
     8
 73
     4
 74
     0
 42
0.0000000001
 43
0.0000000001
 40
0.0
 40
0.0
 40
0.0
 40
0.0
 40
0.2917739351396699
 40
0.2917739351396699
 40
0.2917739351396699
 40
0.2917739351396699
 10
-146.3822829325618
 20
-5713.072377531838
 30
0.0
 10
-146.3694092532205
 20
-5712.97597534013
 30
0.0
 10
-146.3563660301443
 20
-5712.879595656186
 30
0.0
 10
-146.3431953712352
 20
-5712.7832335823
 30
0.0
  0
SPLINE
  5
1C6
330
1F
100
AcDbEntity
  8
2D
100
AcDbSpline
210
0.0
220
0.0
230
1.0
 70
     8
 71
     3
 72
     8
 73
     4
 74
     0
 42
0.0000000001
 43
0.0000000001
 40
-0.4555035488429227
 40
-0.4555035488429227
 40
-0.4555035488429227
 40
-0.4555035488429227
 40
0.0
 40
0.0
 40
0.0
 40
0.0
 10
-146.3431953712352
 20
-5712.7832335823
 30
0.0
 10
-146.3227269833624
 20
-5712.632785002437
 30
0.0
 10
-146.3026170442972
 20
-5712.48706240865
 30
0.0
 10
-146.2817643114176
 20
-5712.336666651177
 30
0.0
  0
LINE
  5
1C7
330
1F
100
AcDbEntity
  8
2D
100
AcDbLine
 10
310.5731146518519
 20
-3448.476648992956
 30
0.0
 11
332.4691699829309
 21
-3509.832338591769
 31
0.0
  0
LINE
  5
1C8
330
1F
100
AcDbEntity
  8
2D
100
AcDbLine
 10
332.4691699829309
 20
-3509.832338591769
 30
0.0
 11
333.3242848349182
 21
-3528.964949950013
 31
0.0
  0
ENDSEC
  0
SECTION
  2
OBJECTS
  0
DICTIONARY
  5
C
330
0
100
AcDbDictionary
281
     1
  3
ACAD_GROUP
350
D
  3
ACAD_LAYOUT
350
1A
  3
ACAD_MLEADERSTYLE
350
1CA
  3
ACAD_MLINESTYLE
350
17
  3
ACAD_PLOTSETTINGS
350
19
  3
ACAD_PLOTSTYLENAME
350
E
  3
ACAD_TABLESTYLE
350
1C9
  3
ACAD_VISUALSTYLE
350
2A
  0
DICTIONARY
  5
D
102
{ACAD_REACTORS
330
C
102
}
330
C
100
AcDbDictionary
281
     1
  0
DICTIONARY
  5
1A
102
{ACAD_REACTORS
330
C
102
}
330
C
100
AcDbDictionary
281
     1
  3
Layout1
350
1E
  3
Layout2
350
26
  3
Model
350
22
  0
DICTIONARY
  5
1CA
102
{ACAD_REACTORS
330
C
102
}
330
C
100
AcDbDictionary
281
     1
  0
DICTIONARY
  5
17
102
{ACAD_REACTORS
330
C
102
}
330
C
100
AcDbDictionary
281
     1
  3
Standard
350
18
  0
DICTIONARY
  5
19
102
{ACAD_REACTORS
330
C
102
}
330
C
100
AcDbDictionary
281
     1
  0
ACDBDICTIONARYWDFLT
  5
E
102
{ACAD_REACTORS
330
C
102
}
330
C
100
AcDbDictionary
281
     1
  3
Normal
350
F
100
AcDbDictionaryWithDefault
340
F
  0
DICTIONARY
  5
1C9
102
{ACAD_REACTORS
330
C
102
}
330
C
100
AcDbDictionary
281
     1
  0
DICTIONARY
  5
2A
102
{ACAD_REACTORS
330
C
102
}
330
C
100
AcDbDictionary
281
     1
  3
2dWireframe
350
2F
  3
3D Hidden
350
31
  3
3dWireframe
350
30
  3
Basic
350
32
  3
Brighten
350
36
  3
ColorChange
350
3A
  3
Conceptual
350
34
  3
Dim
350
35
  3
Facepattern
350
39
  3
Flat
350
2B
  3
FlatWithEdges
350
2C
  3
Gouraud
350
2D
  3
GouraudWithEdges
350
2E
  3
Linepattern
350
38
  3
Realistic
350
33
  3
Thicken
350
37
  0
LAYOUT
  5
1E
102
{ACAD_REACTORS
330
1A
102
}
330
1A
100
AcDbPlotSettings
  1

  2
none_device
  4

  6

 40
0.0
 41
0.0
 42
0.0
 43
0.0
 44
0.0
 45
0.0
 46
0.0
 47
0.0
 48
0.0
 49
0.0
140
0.0
141
0.0
142
1.0
143
1.0
 70
   688
 72
     0
 73
     0
 74
     5
  7

 75
    16
 76
     0
 77
     2
 78
   300
147
1.0
148
0.0
149
0.0
100
AcDbLayout
  1
Layout1
 70
     1
 71
     1
 10
0.0
 20
0.0
 11
12.0
 21
9.0
 12
0.0
 22
0.0
 32
0.0
 14
1.000000000000000E+20
 24
1.000000000000000E+20
 34
1.000000000000000E+20
 15
-1.000000000000000E+20
 25
-1.000000000000000E+20
 35
-1.000000000000000E+20
146
0.0
 13
0.0
 23
0.0
 33
0.0
 16
1.0
 26
0.0
 36
0.0
 17
0.0
 27
1.0
 37
0.0
 76
     0
330
1B
  0
LAYOUT
  5
26
102
{ACAD_REACTORS
330
1A
102
}
330
1A
100
AcDbPlotSettings
  1

  2
none_device
  4

  6

 40
0.0
 41
0.0
 42
0.0
 43
0.0
 44
0.0
 45
0.0
 46
0.0
 47
0.0
 48
0.0
 49
0.0
140
0.0
141
0.0
142
1.0
143
1.0
 70
   688
 72
     0
 73
     0
 74
     5
  7

 75
    16
 76
     0
 77
     2
 78
   300
147
1.0
148
0.0
149
0.0
100
AcDbLayout
  1
Layout2
 70
     1
 71
     2
 10
0.0
 20
0.0
 11
0.0
 21
0.0
 12
0.0
 22
0.0
 32
0.0
 14
0.0
 24
0.0
 34
0.0
 15
0.0
 25
0.0
 35
0.0
146
0.0
 13
0.0
 23
0.0
 33
0.0
 16
1.0
 26
0.0
 36
0.0
 17
0.0
 27
1.0
 37
0.0
 76
     0
330
23
  0
LAYOUT
  5
22
102
{ACAD_REACTORS
330
1A
102
}
330
1A
100
AcDbPlotSettings
  1

  2
none_device
  4

  6

 40
0.0
 41
0.0
 42
0.0
 43
0.0
 44
0.0
 45
0.0
 46
0.0
 47
0.0
 48
0.0
 49
0.0
140
0.0
141
0.0
142
1.0
143
1.0
 70
  1712
 72
     0
 73
     0
 74
     0
  7

 75
     0
 76
     0
 77
     2
 78
   300
147
1.0
148
0.0
149
0.0
100
AcDbLayout
  1
Model
 70
     1
 71
     0
 10
0.0
 20
0.0
 11
12.0
 21
9.0
 12
0.0
 22
0.0
 32
0.0
 14
-146.8326773285154
 24
-5997.922601474311
 34
-0.0000000000000027
 15
1553.062574281012
 25
-3335.414183489312
 35
0.0000000000000042
146
0.0
 13
0.0
 23
0.0
 33
0.0
 16
1.0
 26
0.0
 36
0.0
 17
0.0
 27
1.0
 37
0.0
 76
     0
330
1F
331
29
  0
MLINESTYLE
  5
18
102
{ACAD_REACTORS
330
17
102
}
330
17
100
AcDbMlineStyle
  2
Standard
 70
     0
  3

 62
   256
 51
90.0
 52
90.0
 71
     2
 49
0.5
 62
   256
  6
BYLAYER
 49
-0.5
 62
   256
  6
BYLAYER
  0
ACDBPLACEHOLDER
  5
F
102
{ACAD_REACTORS
330
E
102
}
330
E
  0
VISUALSTYLE
  5
2F
102
{ACAD_REACTORS
330
2A
102
}
330
2A
100
AcDbVisualStyle
  2
2dWireframe
 70
     4
 71
     0
 72
     2
 73
     0
 90
        0
 40
-0.6
 41
-30.0
 62
     5
 63
     7
421
 16777215
 74
     1
 91
        4
 64
     7
 65
   257
 75
     1
175
     1
 42
1.0
 92
        0
 66
   257
 43
1.0
 76
     1
 77
     6
 78
     2
 67
     7
 79
     5
170
     0
171
     0
290
     0
174
     0
 93
        1
 44
0.0
173
     0
291
     0
 45
0.0
1001
ACAD
1000
AcDbSavedByObjectVersion
1070
     0
  0
VISUALSTYLE
  5
31
102
{ACAD_REACTORS
330
2A
102
}
330
2A
100
AcDbVisualStyle
  2
3D Hidden
 70
     6
 71
     1
 72
     2
 73
     2
 90
        0
 40
-0.6
 41
-30.0
 62
     5
 63
     7
421
 16777215
 74
     2
 91
        2
 64
     7
 65
   257
 75
     2
175
     1
 42
40.0
 92
        0
 66
   257
 43
1.0
 76
     1
 77
     6
 78
     2
 67
     7
 79
     3
170
     0
171
     0
290
     0
174
     0
 93
        1
 44
0.0
173
     0
291
     0
 45
0.0
1001
ACAD
1000
AcDbSavedByObjectVersion
1070
     0
  0
VISUALSTYLE
  5
30
102
{ACAD_REACTORS
330
2A
102
}
330
2A
100
AcDbVisualStyle
  2
3dWireframe
 70
     5
 71
     0
 72
     2
 73
     0
 90
        0
 40
-0.6
 41
-30.0
 62
     5
 63
     7
421
 16777215
 74
     1
 91
        4
 64
     7
 65
   257
 75
     1
175
     1
 42
1.0
 92
        0
 66
   257
 43
1.0
 76
     1
 77
     6
 78
     2
 67
     7
 79
     5
170
     0
171
     0
290
     0
174
     0
 93
        1
 44
0.0
173
     0
291
     0
 45
0.0
1001
ACAD
1000
AcDbSavedByObjectVersion
1070
     0
  0
VISUALSTYLE
  5
32
102
{ACAD_REACTORS
330
2A
102
}
330
2A
100
AcDbVisualStyle
  2
Basic
 70
     7
 71
     1
 72
     0
 73
     1
 90
        0
 40
-0.6
 41
-30.0
 62
     5
 63
     7
421
 16777215
 74
     0
 91
        4
 64
     7
 65
   257
 75
     1
175
     1
 42
1.0
 92
        8
 66
     7
 43
1.0
 76
     1
 77
     6
 78
     2
 67
     7
 79
     5
170
     0
171
     0
290
     0
174
     0
 93
        1
 44
0.0
173
     0
291
     1
 45
0.0
1001
ACAD
1000
AcDbSavedByObjectVersion
1070
     0
  0
VISUALSTYLE
  5
36
102
{ACAD_REACTORS
330
2A
102
}
330
2A
100
AcDbVisualStyle
  2
Brighten
 70
    12
 71
     2
 72
     2
 73
     0
 90
        0
 40
-0.6
 41
-30.0
 62
     5
 63
     7
421
 16777215
 74
     1
 91
        4
 64
     7
 65
   257
 75
     1
175
     1
 42
1.0
 92
        8
 66
     7
 43
1.0
 76
     1
 77
     6
 78
     2
 67
     7
 79
     5
170
     0
171
     0
290
     0
174
     0
 93
        1
 44
50.0
173
     0
291
     1
 45
0.0
1001
ACAD
1000
AcDbSavedByObjectVersion
1070
     0
  0
VISUALSTYLE
  5
3A
102
{ACAD_REACTORS
330
2A
102
}
330
2A
100
AcDbVisualStyle
  2
ColorChange
 70
    16
 71
     2
 72
     2
 73
     3
 90
        0
 40
-0.6
 41
-30.0
 62
     5
 63
     8
421
  8421504
 74
     1
 91
        4
 64
     7
 65
   257
 75
     1
175
     1
 42
1.0
 92
        8
 66
     8
424
  8421504
 43
1.0
 76
     1
 77
     6
 78
     2
 67
     7
 79
     5
170
     0
171
     0
290
     0
174
     0
 93
        1
 44
0.0
173
     0
291
     1
 45
0.0
1001
ACAD
1000
AcDbSavedByObjectVersion
1070
     0
  0
VISUALSTYLE
  5
34
102
{ACAD_REACTORS
330
2A
102
}
330
2A
100
AcDbVisualStyle
  2
Conceptual
 70
     9
 71
     3
 72
     2
 73
     0
 90
        0
 40
-0.6
 41
-30.0
 62
     5
 63
     7
421
 16777215
 74
     2
 91
        2
 64
     7
 65
   257
 75
     1
175
     1
 42
40.0
 92
        8
 66
     7
 43
1.0
 76
     1
 77
     6
 78
     2
 67
     7
 79
     3
170
     0
171
     0
290
     0
174
     0
 93
        1
 44
0.0
173
     0
291
     0
 45
0.0
1001
ACAD
1000
AcDbSavedByObjectVersion
1070
     0
  0
VISUALSTYLE
  5
35
102
{ACAD_REACTORS
330
2A
102
}
330
2A
100
AcDbVisualStyle
  2
Dim
 70
    11
 71
     2
 72
     2
 73
     0
 90
        0
 40
-0.6
 41
-30.0
 62
     5
 63
     7
421
 16777215
 74
     1
 91
        4
 64
     7
 65
   257
 75
     1
175
     1
 42
1.0
 92
        8
 66
     7
 43
1.0
 76
     1
 77
     6
 78
     2
 67
     7
 79
     5
170
     0
171
     0
290
     0
174
     0
 93
        1
 44
-50.0
173
     0
291
     1
 45
0.0
1001
ACAD
1000
AcDbSavedByObjectVersion
1070
     0
  0
VISUALSTYLE
  5
39
102
{ACAD_REACTORS
330
2A
102
}
330
2A
100
AcDbVisualStyle
  2
Facepattern
 70
    15
 71
     2
 72
     2
 73
     0
 90
        0
 40
-0.6
 41
-30.0
 62
     5
 63
     7
421
 16777215
 74
     1
 91
        4
 64
     7
 65
   257
 75
     1
175
     1
 42
1.0
 92
        8
 66
     7
 43
1.0
 76
     1
 77
     6
 78
     2
 67
     7
 79
     5
170
     0
171
     0
290
     0
174
     0
 93
        1
 44
0.0
173
     0
291
     1
 45
0.0
1001
ACAD
1000
AcDbSavedByObjectVersion
1070
     0
  0
VISUALSTYLE
  5
2B
102
{ACAD_REACTORS
330
2A
102
}
330
2A
100
AcDbVisualStyle
  2
Flat
 70
     0
 71
     2
 72
     1
 73
     1
 90
        2
 40
-0.6
 41
30.0
 62
     5
 63
     7
421
 16777215
 74
     0
 91
        4
 64
     7
 65
   257
 75
     1
175
     1
 42
1.0
 92
        8
 66
     7
 43
1.0
 76
     1
 77
     6
 78
     2
 67
     7
 79
     5
170
     0
171
     0
290
     0
174
     0
 93
       13
 44
0.0
173
     0
291
     1
 45
0.0
1001
ACAD
1000
AcDbSavedByObjectVersion
1070
     0
  0
VISUALSTYLE
  5
2C
102
{ACAD_REACTORS
330
2A
102
}
330
2A
100
AcDbVisualStyle
  2
FlatWithEdges
 70
     1
 71
     2
 72
     1
 73
     1
 90
        2
 40
-0.6
 41
30.0
 62
     5
 63
     7
421
 16777215
 74
     1
 91
        4
 64
     7
 65
   257
 75
     1
175
     1
 42
1.0
 92
        0
 66
   257
 43
1.0
 76
     1
 77
     6
 78
     2
 67
     7
 79
     5
170
     0
171
     0
290
     0
174
     0
 93
       13
 44
0.0
173
     0
291
     1
 45
0.0
1001
ACAD
1000
AcDbSavedByObjectVersion
1070
     0
  0
VISUALSTYLE
  5
2D
102
{ACAD_REACTORS
330
2A
102
}
330
2A
100
AcDbVisualStyle
  2
Gouraud
 70
     2
 71
     2
 72
     2
 73
     1
 90
        2
 40
-0.6
 41
30.0
 62
     5
 63
     7
421
 16777215
 74
     0
 91
        4
 64
     7
 65
   257
 75
     1
175
     1
 42
1.0
 92
        0
 66
     7
 43
1.0
 76
     1
 77
     6
 78
     2
 67
     7
 79
     5
170
     0
171
     0
290
     0
174
     0
 93
       13
 44
0.0
173
     0
291
     1
 45
0.0
1001
ACAD
1000
AcDbSavedByObjectVersion
1070
     0
  0
VISUALSTYLE
  5
2E
102
{ACAD_REACTORS
330
2A
102
}
330
2A
100
AcDbVisualStyle
  2
GouraudWithEdges
 70
     3
 71
     2
 72
     2
 73
     1
 90
        2
 40
-0.6
 41
30.0
 62
     5
 63
     7
421
 16777215
 74
     1
 91
        4
 64
     7
 65
   257
 75
     1
175
     1
 42
1.0
 92
        0
 66
   257
 43
1.0
 76
     1
 77
     6
 78
     2
 67
     7
 79
     5
170
     0
171
     0
290
     0
174
     0
 93
       13
 44
0.0
173
     0
291
     1
 45
0.0
1001
ACAD
1000
AcDbSavedByObjectVersion
1070
     0
  0
VISUALSTYLE
  5
38
102
{ACAD_REACTORS
330
2A
102
}
330
2A
100
AcDbVisualStyle
  2
Linepattern
 70
    14
 71
     2
 72
     2
 73
     0
 90
        0
 40
-0.6
 41
-30.0
 62
     5
 63
     7
421
 16777215
 74
     1
 91
        4
 64
     7
 65
   257
 75
     7
175
     7
 42
1.0
 92
        8
 66
     7
 43
1.0
 76
     1
 77
     6
 78
     2
 67
     7
 79
     5
170
     0
171
     0
290
     0
174
     0
 93
        1
 44
0.0
173
     0
291
     1
 45
0.0
1001
ACAD
1000
AcDbSavedByObjectVersion
1070
     0
  0
VISUALSTYLE
  5
33
102
{ACAD_REACTORS
330
2A
102
}
330
2A
100
AcDbVisualStyle
  2
Realistic
 70
     8
 71
     2
 72
     2
 73
     0
 90
        0
 40
-0.6
 41
-30.0
 62
     5
 63
     7
421
 16777215
 74
     1
 91
        0
 64
     7
 65
   257
 75
     1
175
     1
 42
1.0
 92
        8
 66
     8
424
  7895160
 43
1.0
 76
     1
 77
     6
 78
     2
 67
     7
 79
     5
170
     0
171
     0
290
     0
174
     0
 93
       13
 44
0.0
173
     0
291
     0
 45
0.0
1001
ACAD
1000
AcDbSavedByObjectVersion
1070
     0
  0
VISUALSTYLE
  5
37
102
{ACAD_REACTORS
330
2A
102
}
330
2A
100
AcDbVisualStyle
  2
Thicken
 70
    13
 71
     2
 72
     2
 73
     0
 90
        0
 40
-0.6
 41
-30.0
 62
     5
 63
     7
421
 16777215
 74
     1
 91
        4
 64
     7
 65
   257
 75
     1
175
     1
 42
1.0
 92
       12
 66
     7
 43
1.0
 76
     1
 77
     6
 78
     2
 67
     7
 79
     5
170
     0
171
     0
290
     0
174
     0
 93
        1
 44
0.0
173
     0
291
     1
 45
0.0
1001
ACAD
1000
AcDbSavedByObjectVersion
1070
     0
  0
ENDSEC
  0
EOF
