  0
SECTION
  2
HEADER
  9
$ACADVER
  1
AC1018
  9
$ACADMAINTVER
 70
     0
  9
$DWGCODEPAGE
  3
ANSI_1252
  9
$INSBASE
 10
0.0
 20
0.0
 30
0.0
  9
$EXTMIN
 10
-10846.89124628159
 20
-6230.563897949031
 30
-0.0000000000000016
  9
$EXTMAX
 10
-7456.789778778615
 20
-2974.574903274472
 30
0.0000000000000021
  9
$LIMMIN
 10
0.0
 20
0.0
  9
$LIMMAX
 10
12.0
 20
9.0
  9
$ORTHOMODE
 70
     0
  9
$REGENMODE
 70
     1
  9
$FILLMODE
 70
     1
  9
$QTEXTMODE
 70
     0
  9
$MIRRTEXT
 70
     1
  9
$LTSCALE
 40
1.0
  9
$ATTMODE
 70
     1
  9
$TEXTSIZE
 40
0.2
  9
$TRACEWID
 40
0.05
  9
$TEXTSTYLE
  7
Standard
  9
$CLAYER
  8
0
  9
$CELTYPE
  6
ByLayer
  9
$CECOLOR
 62
   256
  9
$CELTSCALE
 40
1.0
  9
$DISPSILH
 70
     0
  9
$DIMSCALE
 40
1.0
  9
$DIMASZ
 40
0.18
  9
$DIMEXO
 40
0.0625
  9
$DIMDLI
 40
0.38
  9
$DIMRND
 40
0.0
  9
$DIMDLE
 40
0.0
  9
$DIMEXE
 40
0.18
  9
$DIMTP
 40
0.0
  9
$DIMTM
 40
0.0
  9
$DIMTXT
 40
0.18
  9
$DIMCEN
 40
0.09
  9
$DIMTSZ
 40
0.0
  9
$DIMTOL
 70
     0
  9
$DIMLIM
 70
     0
  9
$DIMTIH
 70
     1
  9
$DIMTOH
 70
     1
  9
$DIMSE1
 70
     0
  9
$DIMSE2
 70
     0
  9
$DIMTAD
 70
     0
  9
$DIMZIN
 70
     0
  9
$DIMBLK
  1

  9
$DIMASO
 70
     1
  9
$DIMSHO
 70
     1
  9
$DIMPOST
  1

  9
$DIMAPOST
  1

  9
$DIMALT
 70
     0
  9
$DIMALTD
 70
     2
  9
$DIMALTF
 40
25.4
  9
$DIMLFAC
 40
1.0
  9
$DIMTOFL
 70
     0
  9
$DIMTVP
 40
0.0
  9
$DIMTIX
 70
     0
  9
$DIMSOXD
 70
     0
  9
$DIMSAH
 70
     0
  9
$DIMBLK1
  1

  9
$DIMBLK2
  1

  9
$DIMSTYLE
  2
Standard
  9
$DIMCLRD
 70
     0
  9
$DIMCLRE
 70
     0
  9
$DIMCLRT
 70
     0
  9
$DIMTFAC
 40
1.0
  9
$DIMGAP
 40
0.09
  9
$DIMJUST
 70
     0
  9
$DIMSD1
 70
     0
  9
$DIMSD2
 70
     0
  9
$DIMTOLJ
 70
     1
  9
$DIMTZIN
 70
     0
  9
$DIMALTZ
 70
     0
  9
$DIMALTTZ
 70
     0
  9
$DIMUPT
 70
     0
  9
$DIMDEC
 70
     4
  9
$DIMTDEC
 70
     4
  9
$DIMALTU
 70
     2
  9
$DIMALTTD
 70
     2
  9
$DIMTXSTY
  7
Standard
  9
$DIMAUNIT
 70
     0
  9
$DIMADEC
 70
     0
  9
$DIMALTRND
 40
0.0
  9
$DIMAZIN
 70
     0
  9
$DIMDSEP
 70
    46
  9
$DIMATFIT
 70
     3
  9
$DIMFRAC
 70
     0
  9
$DIMLDRBLK
  1

  9
$DIMLUNIT
 70
     2
  9
$DIMLWD
 70
    -2
  9
$DIMLWE
 70
    -2
  9
$DIMTMOVE
 70
     2
  9
$LUNITS
 70
     2
  9
$LUPREC
 70
     3
  9
$SKETCHINC
 40
0.1
  9
$FILLETRAD
 40
0.5
  9
$AUNITS
 70
     0
  9
$AUPREC
 70
     0
  9
$MENU
  1
.
  9
$ELEVATION
 40
0.0
  9
$PELEVATION
 40
0.0
  9
$THICKNESS
 40
0.0
  9
$LIMCHECK
 70
     0
  9
$CHAMFERA
 40
0.5
  9
$CHAMFERB
 40
0.5
  9
$CHAMFERC
 40
1.0
  9
$CHAMFERD
 40
0.0
  9
$SKPOLY
 70
     0
  9
$TDCREATE
 40
2456377.853590555
  9
$TDUCREATE
 40
2456377.811923889
  9
$TDUPDATE
 40
2456377.853590567
  9
$TDUUPDATE
 40
2456377.811923901
  9
$TDINDWG
 40
0.0000000116
  9
$TDUSRTIMER
 40
0.0000000116
  9
$USRTIMER
 70
     1
  9
$ANGBASE
 50
0.0
  9
$ANGDIR
 70
     0
  9
$PDMODE
 70
     0
  9
$PDSIZE
 40
0.0
  9
$PLINEWID
 40
0.0
  9
$SPLFRAME
 70
     0
  9
$SPLINETYPE
 70
     6
  9
$SPLINESEGS
 70
     8
  9
$HANDSEED
  5
81
  9
$SURFTAB1
 70
     6
  9
$SURFTAB2
 70
     6
  9
$SURFTYPE
 70
     6
  9
$SURFU
 70
     6
  9
$SURFV
 70
     6
  9
$UCSBASE
  2

  9
$UCSNAME
  2

  9
$UCSORG
 10
0.0
 20
0.0
 30
0.0
  9
$UCSXDIR
 10
1.0
 20
0.0
 30
0.0
  9
$UCSYDIR
 10
0.0
 20
1.0
 30
0.0
  9
$UCSORTHOREF
  2

  9
$UCSORTHOVIEW
 70
     0
  9
$UCSORGTOP
 10
0.0
 20
0.0
 30
0.0
  9
$UCSORGBOTTOM
 10
0.0
 20
0.0
 30
0.0
  9
$UCSORGLEFT
 10
0.0
 20
0.0
 30
0.0
  9
$UCSORGRIGHT
 10
0.0
 20
0.0
 30
0.0
  9
$UCSORGFRONT
 10
0.0
 20
0.0
 30
0.0
  9
$UCSORGBACK
 10
0.0
 20
0.0
 30
0.0
  9
$PUCSBASE
  2

  9
$PUCSNAME
  2

  9
$PUCSORG
 10
0.0
 20
0.0
 30
0.0
  9
$PUCSXDIR
 10
1.0
 20
0.0
 30
0.0
  9
$PUCSYDIR
 10
0.0
 20
1.0
 30
0.0
  9
$PUCSORTHOREF
  2

  9
$PUCSORTHOVIEW
 70
     0
  9
$PUCSORGTOP
 10
0.0
 20
0.0
 30
0.0
  9
$PUCSORGBOTTOM
 10
0.0
 20
0.0
 30
0.0
  9
$PUCSORGLEFT
 10
0.0
 20
0.0
 30
0.0
  9
$PUCSORGRIGHT
 10
0.0
 20
0.0
 30
0.0
  9
$PUCSORGFRONT
 10
0.0
 20
0.0
 30
0.0
  9
$PUCSORGBACK
 10
0.0
 20
0.0
 30
0.0
  9
$USERI1
 70
     0
  9
$USERI2
 70
     0
  9
$USERI3
 70
     0
  9
$USERI4
 70
     0
  9
$USERI5
 70
     0
  9
$USERR1
 40
0.0
  9
$USERR2
 40
0.0
  9
$USERR3
 40
0.0
  9
$USERR4
 40
0.0
  9
$USERR5
 40
0.0
  9
$WORLDVIEW
 70
     1
  9
$SHADEDGE
 70
     3
  9
$SHADEDIF
 70
    70
  9
$TILEMODE
 70
     1
  9
$MAXACTVP
 70
    64
  9
$PINSBASE
 10
0.0
 20
0.0
 30
0.0
  9
$PLIMCHECK
 70
     0
  9
$PEXTMIN
 10
1.000000000000000E+20
 20
1.000000000000000E+20
 30
1.000000000000000E+20
  9
$PEXTMAX
 10
-1.000000000000000E+20
 20
-1.000000000000000E+20
 30
-1.000000000000000E+20
  9
$PLIMMIN
 10
0.0
 20
0.0
  9
$PLIMMAX
 10
12.0
 20
9.0
  9
$UNITMODE
 70
     0
  9
$VISRETAIN
 70
     1
  9
$PLINEGEN
 70
     0
  9
$PSLTSCALE
 70
     1
  9
$TREEDEPTH
 70
  3020
  9
$CMLSTYLE
  2
Standard
  9
$CMLJUST
 70
     0
  9
$CMLSCALE
 40
1.0
  9
$PROXYGRAPHICS
 70
     1
  9
$MEASUREMENT
 70
     0
  9
$CELWEIGHT
370
    -1
  9
$ENDCAPS
280
     0
  9
$JOINSTYLE
280
     0
  9
$LWDISPLAY
290
     0
  9
$INSUNITS
 70
     4
  9
$HYPERLINKBASE
  1

  9
$STYLESHEET
  1

  9
$XEDIT
290
     1
  9
$CEPSNTYPE
380
     0
  9
$PSTYLEMODE
290
     1
  9
$FINGERPRINTGUID
  2
{42A20A61-C249-421D-958B-BF25BD72D926}
  9
$VERSIONGUID
  2
{FAEB1C32-E019-11D5-929B-00C0DF256EC4}
  9
$EXTNAMES
290
     1
  9
$PSVPSCALE
 40
0.0
  9
$OLESTARTUP
290
     0
  9
$SORTENTS
280
   127
  9
$INDEXCTL
280
     0
  9
$HIDETEXT
280
     1
  9
$XCLIPFRAME
290
     0
  9
$HALOGAP
280
     0
  9
$OBSCOLOR
 70
   257
  9
$OBSLTYPE
280
     0
  9
$INTERSECTIONDISPLAY
280
     0
  9
$INTERSECTIONCOLOR
 70
   257
  9
$DIMASSOC
280
     2
  9
$PROJECTNAME
  1

  0
ENDSEC
  0
SECTION
  2
CLASSES
  0
CLASS
  1
ACDBDICTIONARYWDFLT
  2
AcDbDictionaryWithDefault
  3
ObjectDBX Classes
 90
        0
 91
        4
280
     0
281
     0
  0
CLASS
  1
VISUALSTYLE
  2
AcDbVisualStyle
  3
ObjectDBX Classes
 90
     4095
 91
        4
280
     0
281
     0
  0
ENDSEC
  0
SECTION
  2
TABLES
  0
TABLE
  2
VPORT
  5
8
330
0
100
AcDbSymbolTable
 70
     1
  0
VPORT
  5
29
330
8
100
AcDbSymbolTableRecord
100
AcDbViewportTableRecord
  2
*Active
 70
     0
 10
0.0
 20
0.0
 11
1.0
 21
1.0
 12
-9151.840512530103
 22
-4602.569400611752
 13
0.0
 23
0.0
 14
0.5
 24
0.5
 15
0.5
 25
0.5
 16
0.0
 26
0.0
 36
1.0
 17
0.0
 27
0.0
 37
0.0
 40
3321.108774568052
 41
1.041189473627757
 42
50.0
 43
0.0
 44
0.0
 50
0.0
 51
0.0
 71
     0
 72
   100
 73
     1
 74
     3
 75
     0
 76
     0
 77
     0
 78
     0
281
     0
 65
     1
110
0.0
120
0.0
130
0.0
111
1.0
121
0.0
131
0.0
112
0.0
122
1.0
132
0.0
 79
     0
146
0.0
  0
ENDTAB
  0
TABLE
  2
LTYPE
  5
5
330
0
100
AcDbSymbolTable
 70
     1
  0
LTYPE
  5
14
330
5
100
AcDbSymbolTableRecord
100
AcDbLinetypeTableRecord
  2
ByBlock
 70
     0
  3

 72
    65
 73
     0
 40
0.0
  0
LTYPE
  5
15
330
5
100
AcDbSymbolTableRecord
100
AcDbLinetypeTableRecord
  2
ByLayer
 70
     0
  3

 72
    65
 73
     0
 40
0.0
  0
LTYPE
  5
16
330
5
100
AcDbSymbolTableRecord
100
AcDbLinetypeTableRecord
  2
Continuous
 70
     0
  3
Solid line
 72
    65
 73
     0
 40
0.0
  0
ENDTAB
  0
TABLE
  2
LAYER
  5
2
330
0
100
AcDbSymbolTable
 70
     2
  0
LAYER
  5
10
330
2
100
AcDbSymbolTableRecord
100
AcDbLayerTableRecord
  2
0
 70
     0
 62
     7
  6
Continuous
370
    -3
390
F
  0
LAYER
  5
3B
330
2
100
AcDbSymbolTableRecord
100
AcDbLayerTableRecord
  2
2D
 70
     0
 62
     7
  6
Continuous
370
    -3
390
F
  0
ENDTAB
  0
TABLE
  2
STYLE
  5
3
330
0
100
AcDbSymbolTable
 70
     1
  0
STYLE
  5
11
330
3
100
AcDbSymbolTableRecord
100
AcDbTextStyleTableRecord
  2
Standard
 70
     0
 40
0.0
 41
1.0
 50
0.0
 71
     0
 42
0.2
  3
txt
  4

  0
ENDTAB
  0
TABLE
  2
VIEW
  5
6
330
0
100
AcDbSymbolTable
 70
     0
  0
ENDTAB
  0
TABLE
  2
UCS
  5
7
330
0
100
AcDbSymbolTable
 70
     0
  0
ENDTAB
  0
TABLE
  2
APPID
  5
9
330
0
100
AcDbSymbolTable
 70
     1
  0
APPID
  5
12
330
9
100
AcDbSymbolTableRecord
100
AcDbRegAppTableRecord
  2
ACAD
 70
     0
  0
ENDTAB
  0
TABLE
  2
DIMSTYLE
  5
A
330
0
100
AcDbSymbolTable
 70
     1
100
AcDbDimStyleTable
  0
DIMSTYLE
105
27
330
A
100
AcDbSymbolTableRecord
100
AcDbDimStyleTableRecord
  2
Standard
 70
     0
340
11
  0
ENDTAB
  0
TABLE
  2
BLOCK_RECORD
  5
1
330
0
100
AcDbSymbolTable
 70
     1
  0
BLOCK_RECORD
  5
1F
330
1
100
AcDbSymbolTableRecord
100
AcDbBlockTableRecord
  2
*Model_Space
340
22
  0
BLOCK_RECORD
  5
1B
330
1
100
AcDbSymbolTableRecord
100
AcDbBlockTableRecord
  2
*Paper_Space
340
1E
  0
BLOCK_RECORD
  5
23
330
1
100
AcDbSymbolTableRecord
100
AcDbBlockTableRecord
  2
*Paper_Space0
340
26
  0
ENDTAB
  0
ENDSEC
  0
SECTION
  2
BLOCKS
  0
BLOCK
  5
20
330
1F
100
AcDbEntity
  8
0
100
AcDbBlockBegin
  2
*Model_Space
 70
     0
 10
0.0
 20
0.0
 30
0.0
  3
*Model_Space
  1

  0
ENDBLK
  5
21
330
1F
100
AcDbEntity
  8
0
100
AcDbBlockEnd
  0
BLOCK
  5
1C
330
1B
100
AcDbEntity
 67
     1
  8
0
100
AcDbBlockBegin
  2
*Paper_Space
 70
     0
 10
0.0
 20
0.0
 30
0.0
  3
*Paper_Space
  1

  0
ENDBLK
  5
1D
330
1B
100
AcDbEntity
 67
     1
  8
0
100
AcDbBlockEnd
  0
BLOCK
  5
24
330
23
100
AcDbEntity
  8
0
100
AcDbBlockBegin
  2
*Paper_Space0
 70
     0
 10
0.0
 20
0.0
 30
0.0
  3
*Paper_Space0
  1

  0
ENDBLK
  5
25
330
23
100
AcDbEntity
  8
0
100
AcDbBlockEnd
  0
ENDSEC
  0
SECTION
  2
ENTITIES
  0
SPLINE
  5
3C
330
1F
100
AcDbEntity
  8
2D
100
AcDbSpline
210
0.0
220
0.0
230
1.0
 70
    12
 71
     3
 72
    20
 73
    16
 74
     0
 42
0.0000000001
 43
0.0000000001
 40
-87.99283041163206
 40
-87.99283041163206
 40
-87.99283041163206
 40
-87.99283041163206
 40
-77.14289584501832
 40
-77.14289584501832
 40
-66.26537615472805
 40
-66.26537615472805
 40
-55.40974866318664
 40
-55.40974866318664
 40
-44.4652073508432
 40
-44.4652073508432
 40
-33.3362739739542
 40
-33.3362739739542
 40
-22.12492124411098
 40
-22.12492124411098
 40
0.0
 40
0.0
 40
0.0
 40
0.0
 10
-7624.50462724677
 20
-4670.345695112966
 30
0.0
 41
1.0
 10
-7627.367453321789
 20
-4672.716196367094
 30
0.0
 41
1.0
 10
-7630.042567365777
 20
-4675.370823615782
 30
0.0
 41
1.0
 10
-7634.948617646416
 20
-4680.816416533179
 30
0.0
 41
1.0
 10
-7637.227111651981
 20
-4683.653216492949
 30
0.0
 41
1.0
 10
-7641.562064246016
 20
-4689.496114171228
 30
0.0
 41
1.0
 10
-7643.603110445536
 20
-4692.483516940163
 30
0.0
 41
1.0
 10
-7647.531540710272
 20
-4698.596719199015
 30
0.0
 41
1.0
 10
-7649.409928546931
 20
-4701.713262461838
 30
0.0
 41
1.0
 10
-7653.060332196157
 20
-4708.079700896262
 30
0.0
 41
1.0
 10
-7654.825605648675
 20
-4711.324742317535
 30
0.0
 41
1.0
 10
-7658.253866102172
 20
-4717.899854463019
 30
0.0
 41
1.0
 10
-7659.913519919497
 20
-4721.226254017436
 30
0.0
 41
1.0
 10
-7664.704959545237
 20
-4731.18683546906
 30
0.0
 41
1.0
 10
-7667.691086375231
 20
-4737.873677190722
 30
0.0
 41
1.0
 10
-7670.544321525009
 20
-4744.62187363766
 30
0.0
 41
1.0
  0
SPLINE
  5
3D
330
1F
100
AcDbEntity
  8
2D
100
AcDbSpline
210
0.0
220
0.0
230
1.0
 70
    12
 71
     3
 72
    20
 73
    16
 74
     0
 42
0.0000000001
 43
0.0000000001
 40
-87.99283041163784
 40
-87.99283041163784
 40
-87.99283041163784
 40
-87.99283041163784
 40
-77.14289584502339
 40
-77.14289584502339
 40
-66.26537615473241
 40
-66.26537615473241
 40
-55.40974866319029
 40
-55.40974866319029
 40
-44.46520735084613
 40
-44.46520735084613
 40
-33.33627397395639
 40
-33.33627397395639
 40
-22.12492124411243
 40
-22.12492124411243
 40
0.0
 40
0.0
 40
0.0
 40
0.0
 10
-9873.73197035176
 20
-6065.935135224047
 30
0.0
 41
1.0
 10
-9874.353471620041
 20
-6062.270604489405
 30
0.0
 41
1.0
 10
-9875.314889232981
 20
-6058.626574144942
 30
0.0
 41
1.0
 10
-9877.577885897797
 20
-6051.65501351097
 30
0.0
 41
1.0
 10
-9878.895379725629
 20
-6048.263379839892
 30
0.0
 41
1.0
 10
-9881.788001249723
 20
-6041.587751930121
 30
0.0
 41
1.0
 10
-9883.35464483919
 20
-6038.32645268657
 30
0.0
 41
1.0
 10
-9886.684618161456
 20
-6031.867731150887
 30
0.0
 41
1.0
 10
-9888.444429880732
 20
-6028.682727934769
 30
0.0
 41
1.0
 10
-9892.132725471954
 20
-6022.338166423257
 30
0.0
 41
1.0
 10
-9894.06037705285
 20
-6019.186874058113
 30
0.0
 41
1.0
 10
-9898.040460976827
 20
-6012.930357341855
 30
0.0
 41
1.0
 10
-9900.091380585425
 20
-6009.829855197356
 30
0.0
 41
1.0
 10
-9906.321777346126
 20
-6000.700056034953
 30
0.0
 41
1.0
 10
-9910.619688733172
 20
-5994.770573480429
 30
0.0
 41
1.0
 10
-9915.03718071106
 20
-5988.925501134279
 30
0.0
 41
1.0
  0
LINE
  5
3E
330
1F
100
AcDbEntity
  8
2D
100
AcDbLine
 10
-8523.362199151361
 20
-5982.787060722852
 30
0.0
 11
-8566.089546722647
 21
-5931.323199565928
 31
0.0
  0
LINE
  5
3F
330
1F
100
AcDbEntity
  8
2D
100
AcDbLine
 10
-9737.591475753743
 20
-5931.841970857236
 30
0.0
 11
-9780.296504460832
 21
-5983.278772291054
 31
0.0
  0
SPLINE
  5
40
330
1F
100
AcDbEntity
  8
2D
100
AcDbSpline
210
0.0
220
0.0
230
1.0
 70
    12
 71
     3
 72
   114
 73
   110
 74
     0
 42
0.0000000001
 43
0.0000000001
 40
-2104.232761071308
 40
-2104.232761071308
 40
-2104.232761071308
 40
-2104.232761071308
 40
-2103.231506217463
 40
-2103.231506217463
 40
-2103.231506217463
 40
-1458.101801240937
 40
-1458.101801240937
 40
-1458.101801240937
 40
-1454.224689252513
 40
-1450.134111961232
 40
-1445.876127306495
 40
-1441.510968815979
 40
-1437.108859047309
 40
-1432.743636582494
 40
-1428.485536223514
 40
-1424.394811814979
 40
-1420.517543556288
 40
-1420.517543556288
 40
-1420.517543556288
 40
-1098.709719868904
 40
-1098.709719868904
 40
-916.8052934519869
 40
-916.8052934519869
 40
-871.3291868477578
 40
-871.3291868477578
 40
-859.9601601967006
 40
-859.9601601967006
 40
-854.2756468711718
 40
-854.2756468711718
 40
-853.8934682015339
 40
-853.8934682015339
 40
-853.8934682015339
 40
-846.4565686098783
 40
-846.4565686098783
 40
-842.7430986752231
 40
-842.7430986752231
 40
-839.0232162101581
 40
-839.0232162101581
 40
-831.5912841851972
 40
-831.5912841851972
 40
-824.1604397466617
 40
-824.1604397466617
 40
-820.3920890186563
 40
-820.3920890186563
 40
-816.62897864691
 40
-816.62897864691
 40
-809.0972597323193
 40
-809.0972597323193
 40
-794.031385330108
 40
-794.031385330108
 40
-786.44209417122
 40
-786.44209417122
 40
-778.8542711117526
 40
-778.8542711117526
 40
-763.677271339808
 40
-763.677271339808
 40
-756.0557938933739
 40
-756.0557938933739
 40
-748.4352285653385
 40
-748.4352285653385
 40
-733.1934421408057
 40
-733.1934421408057
 40
-717.9367316508926
 40
-717.9367316508926
 40
-710.3120103578026
 40
-710.3120103578026
 40
-702.6882586876945
 40
-702.6882586876945
 40
-687.501565607206
 40
-687.501565607206
 40
-679.9130179308471
 40
-679.9130179308471
 40
-672.3252847176084
 40
-672.3252847176084
 40
-664.8000117180954
 40
-664.8000117180954
 40
-657.2752722441846
 40
-657.2752722441846
 40
-653.5139535493599
 40
-653.5139535493599
 40
-649.7518657153967
 40
-649.7518657153967
 40
-642.2291635183767
 40
-642.2291635183767
 40
-634.7853256465838
 40
-634.7853256465838
 40
-627.3442797142519
 40
-627.3442797142519
 40
-623.6222036316294
 40
-623.6222036316294
 40
-619.9043388269122
 40
-619.9043388269122
 40
-616.1802284548926
 40
-616.1802284548926
 40
-612.4580436443629
 40
-612.4580436443629
 40
-612.4580436443629
 40
-37.5842576840572
 40
-37.5842576840572
 40
-37.5842576840572
 40
-33.70698942532828
 40
-29.61626501680094
 40
-25.35816465781184
 40
-20.99294219299686
 40
-16.5908324243139
 40
-12.22567393379608
 40
-7.967689279046496
 40
-3.877111987763032
 40
0.0
 40
0.0
 40
0.0
 40
0.0
 10
-9780.296504460832
 20
-5983.278772291054
 30
0.0
 41
1.0
 10
-9780.390915249296
 20
-5983.394509248833
 30
0.0
 41
1.0
 10
-9780.491521490712
 20
-5983.505061280411
 30
0.0
 41
1.0
 10
-9780.598331318793
 20
-5983.61024913859
 30
0.0
 41
1.0
 10
-9849.418164662125
 20
-6051.385016554113
 30
0.0
 41
1.0
 10
-9918.237999369016
 20
-6119.159783413586
 30
0.0
 41
1.0
 10
-9987.057834188974
 20
-6186.934550345501
 30
0.0
 41
1.0
 10
-9987.471428846078
 20
-6187.341864333219
 30
0.0
 41
1.0
 10
-9988.529497740321
 20
-6188.004668996643
 30
0.0
 41
1.0
 10
-9990.759709938811
 20
-6188.438526524239
 30
0.0
 41
1.0
 10
-9993.672757528799
 20
-6188.242077140199
 30
0.0
 41
1.0
 10
-9997.189334651895
 20
-6187.361226732693
 30
0.0
 41
1.0
 10
-10001.16176495125
 20
-6185.806217690985
 30
0.0
 41
1.0
 10
-10005.39188524766
 20
-6183.654621994597
 30
0.0
 41
1.0
 10
-10009.66355341564
 20
-6181.038615162713
 30
0.0
 41
1.0
 10
-10013.77491468531
 20
-6178.122352072157
 30
0.0
 41
1.0
 10
-10016.38322789643
 20
-6176.024345077949
 30
0.0
 41
1.0
 10
-10017.61617070533
 20
-6174.972494596637
 30
0.0
 41
1.0
 10
-10121.43605502672
 20
-6086.401474707195
 30
0.0
 41
1.0
 10
-10225.26579336948
 20
-5997.822048110454
 30
0.0
 41
1.0
 10
-10387.76843509501
 20
-5859.187481159496
 30
0.0
 41
1.0
 10
-10446.45662628373
 20
-5809.119298051799
 30
0.0
 41
1.0
 10
-10519.81044511179
 20
-5746.539547313999
 30
0.0
 41
1.0
 10
-10534.48928696242
 20
-5734.016703575208
 30
0.0
 41
1.0
 10
-10552.82396537758
 20
-5718.374991575772
 30
0.0
 41
1.0
 10
-10556.48944407684
 20
-5715.247878490367
 30
0.0
 41
1.0
 10
-10561.99559474176
 20
-5710.550495098607
 30
0.0
 41
1.0
 10
-10563.82417534991
 20
-5708.990385034127
 30
0.0
 41
1.0
 10
-10565.78630057154
 20
-5707.316654475178
 30
0.0
 41
1.0
 10
-10565.90975448231
 20
-5707.211323470798
 30
0.0
 41
1.0
 10
-10566.03309487278
 20
-5707.106030538245
 30
0.0
 41
1.0
 10
-10568.39849996179
 20
-5705.088051754495
 30
0.0
 41
1.0
 10
-10570.74207899688
 20
-5703.045639202623
 30
0.0
 41
1.0
 10
-10574.22436129844
 20
-5699.945756724866
 30
0.0
 41
1.0
 10
-10575.37859576139
 20
-5698.907337815479
 30
0.0
 41
1.0
 10
-10577.67827001973
 20
-5696.816434806648
 30
0.0
 41
1.0
 10
-10578.82353142024
 20
-5695.764077165315
 30
0.0
 41
1.0
 10
-10582.2405046829
 20
-5692.590959256048
 30
0.0
 41
1.0
 10
-10584.49489182095
 20
-5690.452855992923
 30
0.0
 41
1.0
 10
-10588.95929757936
 20
-5686.128705129294
 30
0.0
 41
1.0
 10
-10591.16807300705
 20
-5683.943865915878
 30
0.0
 41
1.0
 10
-10594.46302952802
 20
-5680.615405381244
 30
0.0
 41
1.0
 10
-10595.56570313844
 20
-5679.489589391917
 30
0.0
 41
1.0
 10
-10597.7576597694
 20
-5677.227651938802
 30
0.0
 41
1.0
 10
-10598.84680045155
 20
-5676.091706609095
 30
0.0
 41
1.0
 10
-10602.09786865763
 20
-5672.66462752377
 30
0.0
 41
1.0
 10
-10604.24090930582
 20
-5670.356879356527
 30
0.0
 41
1.0
 10
-10610.59830416402
 20
-5663.363064442888
 30
0.0
 41
1.0
 10
-10614.73308247468
 20
-5658.615270013193
 30
0.0
 41
1.0
 10
-10620.80336147649
 20
-5651.338276370375
 30
0.0
 41
1.0
 10
-10622.81019474807
 20
-5648.879415217094
 30
0.0
 41
1.0
 10
-10626.77159190507
 20
-5643.918232158767
 30
0.0
 41
1.0
 10
-10628.72500714266
 20
-5641.417348261872
 30
0.0
 41
1.0
 10
-10634.50639873697
 20
-5633.850070806744
 30
0.0
 41
1.0
 10
-10638.24856154377
 20
-5628.728324520443
 30
0.0
 41
1.0
 10
-10643.70923083371
 20
-5620.908633377198
 30
0.0
 41
1.0
 10
-10645.50612141109
 20
-5618.275650985764
 30
0.0
 41
1.0
 10
-10649.04374789622
 20
-5612.970397328675
 30
0.0
 41
1.0
 10
-10650.78346266081
 20
-5610.299683441755
 30
0.0
 41
1.0
 10
-10655.91759970833
 20
-5602.229761567723
 30
0.0
 41
1.0
 10
-10659.22099647516
 20
-5596.782498098572
 30
0.0
 41
1.0
 10
-10665.6013567257
 20
-5585.732836379894
 30
0.0
 41
1.0
 10
-10668.67063947609
 20
-5580.143204682733
 30
0.0
 41
1.0
 10
-10673.0966215399
 20
-5571.655186497327
 30
0.0
 41
1.0
 10
-10674.54064460177
 20
-5568.81173833547
 30
0.0
 41
1.0
 10
-10677.3678470059
 20
-5563.093192758507
 30
0.0
 41
1.0
 10
-10678.75020669518
 20
-5560.219770126472
 30
0.0
 41
1.0
 10
-10682.79450402986
 20
-5551.576525426717
 30
0.0
 41
1.0
 10
-10685.36084543175
 20
-5545.771244730489
 30
0.0
 41
1.0
 10
-10689.02551282398
 20
-5536.976847673851
 30
0.0
 41
1.0
 10
-10690.21481734841
 20
-5534.034445750324
 30
0.0
 41
1.0
 10
-10692.53064467648
 20
-5528.123563919547
 30
0.0
 41
1.0
 10
-10693.65650897094
 20
-5525.156802320315
 30
0.0
 41
1.0
 10
-10695.83600328245
 20
-5519.222767204273
 30
0.0
 41
1.0
 10
-10696.88954315884
 20
-5516.257396127226
 30
0.0
 41
1.0
 10
-10698.93382083471
 20
-5510.303587261997
 30
0.0
 41
1.0
 10
-10699.92399211903
 20
-5507.316853941262
 30
0.0
 41
1.0
 10
-10701.36170089239
 20
-5502.820728120219
 30
0.0
 41
1.0
 10
-10701.83284414013
 20
-5501.319879115376
 30
0.0
 41
1.0
 10
-10702.75930416967
 20
-5498.312779309357
 30
0.0
 41
1.0
 10
-10703.21455295995
 20
-5496.806742528476
 30
0.0
 41
1.0
 10
-10704.5561361924
 20
-5492.281830660004
 30
0.0
 41
1.0
 10
-10705.41812085997
 20
-5489.256861749868
 30
0.0
 41
1.0
 10
-10707.06930129796
 20
-5483.219551114144
 30
0.0
 41
1.0
 10
-10707.85868361929
 20
-5480.209092649147
 30
0.0
 41
1.0
 10
-10709.37400050326
 20
-5474.171872705606
 30
0.0
 41
1.0
 10
-10710.09951923698
 20
-5471.146802285089
 30
0.0
 41
1.0
 10
-10711.14030329189
 20
-5466.596497918004
 30
0.0
 41
1.0
 10
-10711.47931031952
 20
-5465.077614120372
 30
0.0
 41
1.0
 10
-10712.14095563549
 20
-5462.037920955038
 30
0.0
 41
1.0
 10
-10712.4635655651
 20
-5460.517328253954
 30
0.0
 41
1.0
 10
-10713.09331872462
 20
-5457.470117730958
 30
0.0
 41
1.0
 10
-10713.40039404945
 20
-5455.943708554031
 30
0.0
 41
1.0
 10
-10713.99830100861
 20
-5452.888370783628
 30
0.0
 41
1.0
 10
-10714.28909696285
 20
-5451.359657797687
 30
0.0
 41
1.0
 10
-10714.57183978802
 20
-5449.829377452531
 30
0.0
 41
1.0
 10
-10758.23043364293
 20
-5213.537305202836
 30
0.0
 41
1.0
 10
-10801.88902749784
 20
-4977.245232953163
 30
0.0
 41
1.0
 10
-10845.54762135274
 20
-4740.95316070347
 30
0.0
 41
1.0
 10
-10845.84207916994
 20
-4739.359475665296
 30
0.0
 41
1.0
 10
-10846.35484988361
 20
-4736.051606658503
 30
0.0
 41
1.0
 10
-10846.8247271068
 20
-4731.032931795673
 30
0.0
 41
1.0
 10
-10846.95442132479
 20
-4726.025555214008
 30
0.0
 41
1.0
 10
-10846.7026976342
 20
-4721.286365711494
 30
0.0
 41
1.0
 10
-10846.06315973241
 20
-4717.068635618208
 30
0.0
 41
1.0
 10
-10845.06770995175
 20
-4713.582765278718
 30
0.0
 41
1.0
 10
-10843.78131614613
 20
-4710.961767340949
 30
0.0
 41
1.0
 10
-10842.29047868556
 20
-4709.247275722908
 30
0.0
 41
1.0
 10
-10841.18743771925
 20
-4708.66236338339
 30
0.0
 41
1.0
 10
-10840.62789611394
 20
-4708.507836893768
 30
0.0
 41
1.0
  0
LINE
  5
41
330
1F
100
AcDbEntity
  8
2D
100
AcDbLine
 10
-10840.62789611394
 20
-4708.507836893768
 30
0.0
 11
-10561.31413471354
 21
-4631.370811435568
 31
0.0
  0
LINE
  5
42
330
1F
100
AcDbEntity
  8
2D
100
AcDbLine
 10
-7783.526241906937
 20
-4843.935736037237
 30
0.0
 11
-7783.990207719358
 21
-4843.813772179679
 31
0.0
  0
LINE
  5
43
330
1F
100
AcDbEntity
  8
2D
100
AcDbLine
 10
-8309.666016817475
 20
-5889.548750284778
 30
0.0
 11
-8388.855097098949
 21
-5988.286359944602
 31
0.0
  0
LINE
  5
44
330
1F
100
AcDbEntity
  8
2D
100
AcDbLine
 10
-10587.0120937168
 20
-4862.966438577666
 30
0.0
 11
-10632.92683185044
 21
-4745.017878521672
 31
0.0
  0
LINE
  5
45
330
1F
100
AcDbEntity
  8
2D
100
AcDbLine
 10
-9909.676367672273
 20
-3605.200106142074
 30
0.0
 11
-9932.869430049836
 21
-3542.498065695485
 31
0.0
  0
SPLINE
  5
46
330
1F
100
AcDbEntity
  8
2D
100
AcDbSpline
210
0.0
220
0.0
230
1.0
 70
    12
 71
     3
 72
   114
 73
   110
 74
     0
 42
0.0000000001
 43
0.0000000001
 40
-2104.232761071442
 40
-2104.232761071442
 40
-2104.232761071442
 40
-2104.232761071442
 40
-2103.231506217585
 40
-2103.231506217585
 40
-2103.231506217585
 40
-1458.101801241022
 40
-1458.101801241022
 40
-1458.101801241022
 40
-1454.224689252597
 40
-1450.134111961316
 40
-1445.87612730658
 40
-1441.510968816063
 40
-1437.108859047393
 40
-1432.743636582577
 40
-1428.485536223597
 40
-1424.394811815062
 40
-1420.51754355637
 40
-1420.51754355637
 40
-1420.51754355637
 40
-1098.709719868968
 40
-1098.709719868968
 40
-916.8052934520402
 40
-916.8052934520402
 40
-871.3291868478084
 40
-871.3291868478084
 40
-859.9601601967505
 40
-859.9601601967505
 40
-854.2756468712214
 40
-854.2756468712214
 40
-853.8934682015835
 40
-853.8934682015835
 40
-853.8934682015835
 40
-846.4565686099274
 40
-846.4565686099274
 40
-842.7430986752721
 40
-842.7430986752721
 40
-839.0232162102069
 40
-839.0232162102069
 40
-831.5912841852456
 40
-831.5912841852456
 40
-824.1604397467096
 40
-824.1604397467096
 40
-820.3920890187039
 40
-820.3920890187039
 40
-816.6289786469574
 40
-816.6289786469574
 40
-809.0972597323664
 40
-809.0972597323664
 40
-794.0313853301542
 40
-794.0313853301542
 40
-786.4420941712656
 40
-786.4420941712656
 40
-778.8542711117979
 40
-778.8542711117979
 40
-763.6772713398524
 40
-763.6772713398524
 40
-756.0557938934178
 40
-756.0557938934178
 40
-748.4352285653821
 40
-748.4352285653821
 40
-733.1934421408483
 40
-733.1934421408483
 40
-717.9367316509342
 40
-717.9367316509342
 40
-710.3120103578439
 40
-710.3120103578439
 40
-702.6882586877355
 40
-702.6882586877355
 40
-687.5015656072459
 40
-687.5015656072459
 40
-679.9130179308866
 40
-679.9130179308866
 40
-672.3252847176475
 40
-672.3252847176475
 40
-664.800011718134
 40
-664.800011718134
 40
-657.2752722442228
 40
-657.2752722442228
 40
-653.5139535493979
 40
-653.5139535493979
 40
-649.7518657154344
 40
-649.7518657154344
 40
-642.2291635184141
 40
-642.2291635184141
 40
-634.7853256466207
 40
-634.7853256466207
 40
-627.3442797142883
 40
-627.3442797142883
 40
-623.6222036316657
 40
-623.6222036316657
 40
-619.9043388269482
 40
-619.9043388269482
 40
-616.1802284549284
 40
-616.1802284549284
 40
-612.4580436443985
 40
-612.4580436443985
 40
-612.4580436443985
 40
-37.58425768405938
 40
-37.58425768405938
 40
-37.58425768405938
 40
-33.70698942533024
 40
-29.61626501680266
 40
-25.35816465781331
 40
-20.99294219299808
 40
-16.59083242431486
 40
-12.22567393379679
 40
-7.96768927904696
 40
-3.877111987763258
 40
0.0
 40
0.0
 40
0.0
 40
0.0
 10
-9932.869430049836
 20
-3542.498065695485
 30
0.0
 41
1.0
 10
-9932.922455801196
 20
-3542.358435075404
 30
0.0
 41
1.0
 10
-9932.96789354827
 20
-3542.216031498755
 30
0.0
 41
1.0
 10
-9933.005583991584
 20
-3542.070937545178
 30
0.0
 41
1.0
 10
-9957.290337637347
 20
-3448.583829877881
 30
0.0
 41
1.0
 10
-9981.575090119772
 20
-3355.09672130773
 30
0.0
 41
1.0
 10
-10005.8598426084
 20
-3261.609612603444
 30
0.0
 41
1.0
 10
-10006.00578954053
 20
-3261.04777212966
 30
0.0
 41
1.0
 10
-10006.05076076968
 20
-3259.800055256582
 30
0.0
 41
1.0
 10
-10005.31138631096
 20
-3257.651706073059
 30
0.0
 41
1.0
 10
-10003.68473235883
 20
-3255.227157549715
 30
0.0
 41
1.0
 10
-10001.16360496745
 20
-3252.622137630501
 30
0.0
 41
1.0
 10
-9997.830712484534
 20
-3249.959416597351
 30
0.0
 41
1.0
 10
-9993.852315804583
 20
-3247.37182280779
 30
0.0
 41
1.0
 10
-9989.450953347707
 20
-3244.980453073723
 30
0.0
 41
1.0
 10
-9984.869714792334
 20
-3242.878041315335
 30
0.0
 41
1.0
 10
-9981.74863083247
 20
-3241.668179310577
 30
0.0
 41
1.0
 10
-9980.221230190222
 20
-3241.126344757314
 30
0.0
 41
1.0
 10
-9851.606534766175
 20
-3195.501197461753
 30
0.0
 41
1.0
 10
-9722.979631909362
 20
-3149.871719687005
 30
0.0
 41
1.0
 10
-9521.667254224409
 20
-3078.457587246087
 30
0.0
 41
1.0
 10
-9448.962840137454
 20
-3052.666214328349
 30
0.0
 41
1.0
 10
-9358.090276821986
 20
-3020.429819127551
 30
0.0
 41
1.0
 10
-9339.905755091258
 20
-3013.97899105616
 30
0.0
 41
1.0
 10
-9317.19229593348
 20
-3005.921549778134
 30
0.0
 41
1.0
 10
-9312.651397211379
 20
-3004.31070865024
 30
0.0
 41
1.0
 10
-9305.830268530353
 20
-3001.890933993244
 30
0.0
 41
1.0
 10
-9303.56488327774
 20
-3001.087391765962
 30
0.0
 41
1.0
 10
-9301.134327483775
 20
-3000.225006758093
 30
0.0
 41
1.0
 10
-9300.98138120279
 20
-3000.170758037358
 30
0.0
 41
1.0
 10
-9300.828524653134
 20
-3000.116588592177
 30
0.0
 41
1.0
 10
-9297.898201217602
 20
-2999.077077086727
 30
0.0
 41
1.0
 10
-9294.957630545123
 20
-2998.068684382503
 30
0.0
 41
1.0
 10
-9290.531912419861
 20
-2996.602880685073
 30
0.0
 41
1.0
 10
-9289.055498033082
 20
-2996.12249377293
 30
0.0
 41
1.0
 10
-9286.094885781426
 20
-2995.176368949203
 30
0.0
 41
1.0
 10
-9284.610886629907
 20
-2994.710722303048
 30
0.0
 41
1.0
 10
-9280.154399279945
 20
-2993.338095608159
 30
0.0
 41
1.0
 10
-9277.17555396914
 20
-2992.454790708208
 30
0.0
 41
1.0
 10
-9271.19852659223
 20
-2990.75057734044
 30
0.0
 41
1.0
 10
-9268.202012616388
 20
-2989.930141315511
 30
0.0
 41
1.0
 10
-9263.672002977419
 20
-2988.740855531306
 30
0.0
 41
1.0
 10
-9262.145680925463
 20
-2988.348820167262
 30
0.0
 41
1.0
 10
-9259.090807313816
 20
-2987.581498767418
 30
0.0
 41
1.0
 10
-9257.562479459903
 20
-2987.20624793323
 30
0.0
 41
1.0
 10
-9252.969007808195
 20
-2986.104279819995
 30
0.0
 41
1.0
 10
-9249.898918945724
 20
-2985.402226260942
 30
0.0
 41
1.0
 10
-9240.663400132053
 20
-2983.393468268671
 30
0.0
 41
1.0
 10
-9234.484300388653
 20
-2982.186542427468
 30
0.0
 41
1.0
 10
-9225.147099529891
 20
-2980.568023425255
 30
0.0
 41
1.0
 10
-9222.014246670984
 20
-2980.05948540754
 30
0.0
 41
1.0
 10
-9215.737037531148
 20
-2979.10940636426
 30
0.0
 41
1.0
 10
-9212.59450092573
 20
-2978.668141092824
 30
0.0
 41
1.0
 10
-9203.15035061495
 20
-2977.444947830488
 30
0.0
 41
1.0
 10
-9196.843706815871
 20
-2976.765012917848
 30
0.0
 41
1.0
 10
-9187.341320991098
 20
-2975.94578016272
 30
0.0
 41
1.0
 10
-9184.162646063709
 20
-2975.706118470606
 30
0.0
 41
1.0
 10
-9177.799348380595
 20
-2975.295070893932
 30
0.0
 41
1.0
 10
-9174.616584925974
 20
-2975.123790655908
 30
0.0
 41
1.0
 10
-9165.060759052754
 20
-2974.712458483261
 30
0.0
 41
1.0
 10
-9158.691592123945
 20
-2974.575264698992
 30
0.0
 41
1.0
 10
-9145.93212424708
 20
-2974.574541496061
 30
0.0
 41
1.0
 10
-9139.55671982434
 20
-2974.7112805114
 30
0.0
 41
1.0
 10
-9129.992889416088
 20
-2975.122276700157
 30
0.0
 41
1.0
 10
-9126.80837954264
 20
-2975.293440125854
 30
0.0
 41
1.0
 10
-9120.442372598223
 20
-2975.704283810716
 30
0.0
 41
1.0
 10
-9117.262735758432
 20
-2975.943836518648
 30
0.0
 41
1.0
 10
-9107.75531760998
 20
-2976.762994636237
 30
0.0
 41
1.0
 10
-9101.444626350003
 20
-2977.443118135533
 30
0.0
 41
1.0
 10
-9091.996121391876
 20
-2978.666621605754
 30
0.0
 41
1.0
 10
-9088.853274315745
 20
-2979.107854636529
 30
0.0
 41
1.0
 10
-9082.576386827484
 20
-2980.057730255036
 30
0.0
 41
1.0
 10
-9079.444163768352
 20
-2980.566083974431
 30
0.0
 41
1.0
 10
-9073.215391455149
 20
-2981.645604091283
 30
0.0
 41
1.0
 10
-9070.120534832593
 20
-2982.215897332956
 30
0.0
 41
1.0
 10
-9063.942246268085
 20
-2983.422405365877
 30
0.0
 41
1.0
 10
-9060.860573695845
 20
-2984.058258539923
 30
0.0
 41
1.0
 10
-9056.247960129524
 20
-2985.06122912947
 30
0.0
 41
1.0
 10
-9054.712615140223
 20
-2985.403631610528
 30
0.0
 41
1.0
 10
-9051.645160301723
 20
-2986.104843592363
 30
0.0
 41
1.0
 10
-9050.113269795303
 20
-2986.463604965374
 30
0.0
 41
1.0
 10
-9045.523789551098
 20
-2987.56421573902
 30
0.0
 41
1.0
 10
-9042.473097295475
 20
-2988.330199574309
 30
0.0
 41
1.0
 10
-9036.419042695405
 20
-2989.918890686627
 30
0.0
 41
1.0
 10
-9033.417218027014
 20
-2990.740494775567
 30
0.0
 41
1.0
 10
-9027.431173745692
 20
-2992.44680183103
 30
0.0
 41
1.0
 10
-9024.448626546426
 20
-2993.331019386963
 30
0.0
 41
1.0
 10
-9019.987555342119
 20
-2994.704826139102
 30
0.0
 41
1.0
 10
-9018.502659874157
 20
-2995.170679339927
 30
0.0
 41
1.0
 10
-9015.539385715285
 20
-2996.117524270673
 30
0.0
 41
1.0
 10
-9014.06120884253
 20
-2996.598432226655
 30
0.0
 41
1.0
 10
-9011.10737053918
 20
-2997.576655253902
 30
0.0
 41
1.0
 10
-9009.631923752971
 20
-2998.073924810179
 30
0.0
 41
1.0
 10
-9006.68697014709
 20
-2999.083791079652
 30
0.0
 41
1.0
 10
-9005.217667889043
 20
-2999.596310888935
 30
0.0
 41
1.0
 10
-9003.751034822639
 20
-3000.116588592174
 30
0.0
 41
1.0
 10
-8777.286800614082
 20
-3080.453173345165
 30
0.0
 41
1.0
 10
-8550.822566405554
 20
-3160.789758098149
 30
0.0
 41
1.0
 10
-8324.358332196996
 20
-3241.126342851138
 30
0.0
 41
1.0
 10
-8322.830931559703
 20
-3241.668177420194
 30
0.0
 41
1.0
 10
-8319.709847610593
 20
-3242.878039459233
 30
0.0
 41
1.0
 10
-8315.128609074458
 20
-3244.980451278702
 30
0.0
 41
1.0
 10
-8310.727246639424
 20
-3247.371821082029
 30
0.0
 41
1.0
 10
-8306.748849982196
 20
-3249.959414944074
 30
0.0
 41
1.0
 10
-8303.415957525987
 20
-3252.622136060344
 30
0.0
 41
1.0
 10
-8300.89483014803
 20
-3255.227156028336
 30
0.0
 41
1.0
 10
-8299.268176253467
 20
-3257.651704712159
 30
0.0
 41
1.0
 10
-8298.528801687953
 20
-3259.800053634949
 30
0.0
 41
1.0
 10
-8298.573773226093
 20
-3261.047771302951
 30
0.0
 41
1.0
 10
-8298.719720163183
 20
-3261.609611792427
 30
0.0
 41
1.0
  0
LINE
  5
47
330
1F
100
AcDbEntity
  8
2D
100
AcDbLine
 10
-8298.719720163183
 20
-3261.609611792427
 30
0.0
 11
-8371.573977244207
 21
-3542.070937520861
 31
0.0
  0
SPLINE
  5
48
330
1F
100
AcDbEntity
  8
2D
100
AcDbSpline
210
0.0
220
0.0
230
1.0
 70
    12
 71
     3
 72
    13
 73
     9
 74
     0
 42
0.0000000001
 43
0.0000000001
 40
-22.37678726779029
 40
-22.37678726779029
 40
-22.37678726779029
 40
-22.37678726779029
 40
0.0
 40
0.0
 40
0.0
 40
11.91859046898212
 40
11.91859046898212
 40
23.84011215574155
 40
23.84011215574155
 40
23.84011215574155
 40
23.84011215574155
 10
-10472.48306723716
 20
-4681.067559817784
 30
0.0
 41
1.0
 10
-10473.25602083449
 20
-4673.644544910357
 30
0.0
 41
0.9992515405847255
 10
-10474.37975060302
 20
-4666.266480192096
 30
0.0
 41
0.9992515405847255
 10
-10475.8517333443
 20
-4658.949932209272
 30
0.0
 41
1.0
 10
-10476.63591936064
 20
-4655.052104840021
 30
0.0
 41
1.0
 10
-10477.51656962092
 20
-4651.181384541511
 30
0.0
 41
1.0
 10
-10479.53088840976
 20
-4643.486750601096
 30
0.0
 41
1.0
 10
-10480.6572183331
 20
-4639.682985793606
 30
0.0
 41
1.0
 10
-10481.94768480372
 20
-4635.919600322632
 30
0.0
 41
1.0
  0
SPLINE
  5
49
330
1F
100
AcDbEntity
  8
2D
100
AcDbSpline
210
0.0
220
0.0
230
1.0
 70
     8
 71
     3
 72
    15
 73
    11
 74
     0
 42
0.0000000001
 43
0.0000000001
 40
-22.22792923867176
 40
-22.22792923867176
 40
-22.22792923867176
 40
-22.22792923867176
 40
-18.25920162836696
 40
-14.52812833384209
 40
-11.14712245144986
 40
-8.177032736297798
 40
-5.647769606799223
 40
-3.499443217656433
 40
-1.681337782050171
 40
0.0
 40
0.0
 40
0.0
 40
0.0
 10
-10481.94768480372
 20
-4635.919600322632
 30
0.0
 10
-10482.37681847386
 20
-4634.668277844324
 30
0.0
 10
-10483.28304835609
 20
-4632.265510723545
 30
0.0
 10
-10484.83166044719
 20
-4628.909276030676
 30
0.0
 10
-10486.49811869666
 20
-4625.986555262112
 30
0.0
 10
-10488.23488139954
 20
-4623.582811614083
 30
0.0
 10
-10490.00905266035
 20
-4621.740976868164
 30
0.0
 10
-10491.79531096368
 20
-4620.492494262401
 30
0.0
 10
-10493.60059974913
 20
-4619.873777342202
 30
0.0
 10
-10494.79123932631
 20
-4619.939793787932
 30
0.0
 10
-10495.33062262462
 20
-4620.091084796514
 30
0.0
  0
LINE
  5
4A
330
1F
100
AcDbEntity
  8
2D
100
AcDbLine
 10
-10495.33062262462
 20
-4620.091084796514
 30
0.0
 11
-10780.65160340575
 21
-4698.887101318895
 31
0.0
  0
SPLINE
  5
4B
330
1F
100
AcDbEntity
  8
2D
100
AcDbSpline
210
0.0
220
0.0
230
1.0
 70
     8
 71
     3
 72
    18
 73
    14
 74
     0
 42
0.0000000001
 43
0.0000000001
 40
-35.35539123925471
 40
-35.35539123925471
 40
-35.35539123925471
 40
-35.35539123925471
 40
-31.11830974338505
 40
-31.11830974338505
 40
-26.79514543625177
 40
-26.79514543625177
 40
-18.04480816239711
 40
-18.04480816239711
 40
-13.53334266932215
 40
-13.53334266932215
 40
-9.028913031602947
 40
-9.028913031602947
 40
0.0
 40
0.0
 40
0.0
 40
0.0
 10
-10780.65160340575
 20
-4698.887101318895
 30
0.0
 10
-10782.08738159509
 20
-4699.283614753648
 30
0.0
 10
-10783.13230293162
 20
-4700.460066189325
 30
0.0
 10
-10784.59888949551
 20
-4702.826845824107
 30
0.0
 10
-10785.14921114138
 20
-4704.26354197738
 30
0.0
 10
-10786.31953806428
 20
-4708.309087016539
 30
0.0
 10
-10786.6955790223
 20
-4711.330615932708
 30
0.0
 10
-10786.91514050591
 20
-4715.568534907383
 30
0.0
 10
-10786.93409209753
 20
-4717.008392197576
 30
0.0
 10
-10786.88219804116
 20
-4719.892396282909
 30
0.0
 10
-10786.81045700684
 20
-4721.329110352642
 30
0.0
 10
-10786.47540948538
 20
-4725.64550200293
 30
0.0
 10
-10786.09603361142
 20
-4728.492580362122
 30
0.0
 10
-10785.57132748628
 20
-4731.332424236498
 30
0.0
  0
SPLINE
  5
4C
330
1F
100
AcDbEntity
  8
2D
100
AcDbSpline
210
0.0
220
0.0
230
1.0
 70
     8
 71
     3
 72
     8
 73
     4
 74
     0
 42
0.0000000001
 43
0.0000000001
 40
0.0
 40
0.0
 40
0.0
 40
0.0
 40
703.468532587674
 40
703.468532587674
 40
703.468532587674
 40
703.468532587674
 10
-10785.57132748628
 20
-4731.332424236498
 30
0.0
 10
-10742.96689442498
 20
-4961.919051957732
 30
0.0
 10
-10700.36246679251
 20
-5192.505681447911
 30
0.0
 10
-10657.75803023829
 20
-5423.092308884981
 30
0.0
  0
SPLINE
  5
4D
330
1F
100
AcDbEntity
  8
2D
100
AcDbSpline
210
0.0
220
0.0
230
1.0
 70
     8
 71
     3
 72
   104
 73
   100
 74
     0
 42
0.0000000001
 43
0.0000000001
 40
-1349.853033489492
 40
-1349.853033489492
 40
-1349.853033489492
 40
-1349.853033489492
 40
-1339.151645864623
 40
-1339.151645864623
 40
-1328.463105877499
 40
-1328.463105877499
 40
-1307.075155385546
 40
-1307.075155385546
 40
-1285.636925304799
 40
-1285.636925304799
 40
-1264.234432769528
 40
-1264.234432769528
 40
-1242.818717983427
 40
-1242.818717983427
 40
-1221.3970721485
 40
-1221.3970721485
 40
-1199.995348193876
 40
-1199.995348193876
 40
-1189.274122329611
 40
-1189.274122329611
 40
-1178.596629637388
 40
-1178.596629637388
 40
-1157.184407777978
 40
-1157.184407777978
 40
-1135.785727112591
 40
-1135.785727112591
 40
-1125.088631149569
 40
-1125.088631149569
 40
-1114.387715619188
 40
-1114.387715619188
 40
-1092.990751275729
 40
-1092.990751275729
 40
-1071.583937764372
 40
-1071.583937764372
 40
-1066.227529438874
 40
-1066.227529438874
 40
-1060.88044437611
 40
-1060.88044437611
 40
-1050.186417410102
 40
-1050.186417410102
 40
-1007.408935023985
 40
-1007.408935023985
 40
-665.3227461548292
 40
-665.3227461548292
 40
-494.1223712575637
 40
-494.1223712575637
 40
-408.5466155846077
 40
-408.5466155846077
 40
-365.7587376656354
 40
-365.7587376656354
 40
-344.3647986802958
 40
-344.3647986802958
 40
-339.0164654107875
 40
-339.0164654107875
 40
-333.2560323740603
 40
-333.2560323740603
 40
-327.8686707230021
 40
-327.8686707230021
 40
-322.4481467564621
 40
-322.4481467564621
 40
-312.0447209765564
 40
-312.0447209765564
 40
-306.9543380943912
 40
-306.9543380943912
 40
-304.3955736923938
 40
-304.3955736923938
 40
-303.7678182906245
 40
-303.7678182906245
 40
-303.1417404171847
 40
-303.1417404171847
 40
-301.8895846703178
 40
-301.8895846703178
 40
-281.8550927198677
 40
-281.8550927198677
 40
-241.7861088164289
 40
-241.7861088164289
 40
-161.6481409270552
 40
-161.6481409270552
 40
-80.98719025035632
 40
-80.98719025035632
 40
-40.65671493854231
 40
-40.65671493854231
 40
-30.57409611602278
 40
-30.57409611602278
 40
-25.53278670574456
 40
-25.53278670574456
 40
-23.01213200087753
 40
-23.01213200087753
 40
-22.38196832468049
 40
-22.38196832468049
 40
-21.74828960265435
 40
-21.74828960265435
 40
-20.47292739521636
 40
-20.47292739521636
 40
-15.54990066456716
 40
-15.54990066456716
 40
-10.3832495445463
 40
-10.3832495445463
 40
0.0
 40
0.0
 40
0.0
 40
0.0
 10
-10657.75803023829
 20
-5423.092308884981
 30
0.0
 10
-10657.11888408697
 20
-5426.550452425642
 30
0.0
 10
-10656.47901303901
 20
-5430.008461217289
 30
0.0
 10
-10655.19853901056
 20
-5436.920050170583
 30
0.0
 10
-10654.56966387666
 20
-5440.375638956483
 30
0.0
 10
-10652.51716150873
 20
-5450.715796304499
 30
0.0
 10
-10650.96513768111
 20
-5457.560739776216
 30
0.0
 10
-10647.47520787127
 20
-5471.196124339846
 30
0.0
 10
-10645.54490975637
 20
-5477.961240078197
 30
0.0
 10
-10641.31001908738
 20
-5491.389007166217
 30
0.0
 10
-10639.01415088956
 20
-5498.026532039132
 30
0.0
 10
-10634.0499065238
 20
-5511.194192604817
 30
0.0
 10
-10631.3905968665
 20
-5517.699281411659
 30
0.0
 10
-10625.70569748737
 20
-5530.579127139729
 30
0.0
 10
-10622.69077411879
 20
-5536.929351728351
 30
0.0
 10
-10616.30590022703
 20
-5549.471778765528
 30
0.0
 10
-10612.94820107115
 20
-5555.640178390163
 30
0.0
 10
-10607.64700680496
 20
-5564.770036222536
 30
0.0
 10
-10605.83672702511
 20
-5567.791451780464
 30
0.0
 10
-10602.13852896834
 20
-5573.773362556288
 30
0.0
 10
-10600.25254943987
 20
-5576.731097743516
 30
0.0
 10
-10594.46170293792
 20
-5585.545423726907
 30
0.0
 10
-10590.44316860092
 20
-5591.309358465262
 30
0.0
 10
-10582.08047800688
 20
-5602.624352130856
 30
0.0
 10
-10577.75327743408
 20
-5608.154747276679
 30
0.0
 10
-10571.02598285092
 20
-5616.279572126969
 30
0.0
 10
-10568.74781051724
 20
-5618.955468398197
 30
0.0
 10
-10564.11579130683
 20
-5624.247089922702
 30
0.0
 10
-10561.7639244741
 20
-5626.860130661659
 30
0.0
 10
-10554.59999246291
 20
-5634.603628347578
 30
0.0
 10
-10549.6913767859
 20
-5639.624470960582
 30
0.0
 10
-10539.5866008745
 20
-5649.411713222196
 30
0.0
 10
-10534.40645325712
 20
-5654.156758435215
 30
0.0
 10
-10527.76487785158
 20
-5659.923223851253
 30
0.0
 10
-10526.42591874575
 20
-5661.065927541484
 30
0.0
 10
-10523.75127605239
 20
-5663.350563897801
 30
0.0
 10
-10522.41496217745
 20
-5664.491702681022
 30
0.0
 10
-10518.40568784252
 20
-5667.914657154047
 30
0.0
 10
-10515.73235929201
 20
-5670.196041191363
 30
0.0
 10
-10502.36430259982
 20
-5681.602001395944
 30
0.0
 10
-10491.66877835881
 20
-5690.725644061207
 30
0.0
 10
-10395.44666948654
 20
-5772.81482814976
 30
0.0
 10
-10309.91961954803
 20
-5845.779824124009
 30
0.0
 10
-10181.58972180086
 20
-5955.260864866891
 30
0.0
 10
-10138.7868740982
 20
-5991.77690975979
 30
0.0
 10
-10074.5887107984
 20
-6046.545765846367
 30
0.0
 10
-10053.19339524263
 20
-6064.798577088567
 30
0.0
 10
-10021.10042186167
 20
-6092.177793938188
 30
0.0
 10
-10010.40276404982
 20
-6101.304199561249
 30
0.0
 10
-9994.356277318151
 20
-6114.993807992648
 30
0.0
 10
-9989.007448402048
 20
-6119.557010805335
 30
0.0
 10
-9982.321450126943
 20
-6125.260982010168
 30
0.0
 10
-9980.984242834715
 20
-6126.401705935998
 30
0.0
 10
-9978.206992544936
 20
-6128.771281868196
 30
0.0
 10
-9977.05264433003
 20
-6129.717422537475
 30
0.0
 10
-9974.132651379547
 20
-6131.931766738411
 30
0.0
 10
-9972.691172745359
 20
-6132.953894558533
 30
0.0
 10
-9969.722475665742
 20
-6134.906261905759
 30
0.0
 10
-9968.20428989123
 20
-6135.829173053317
 30
0.0
 10
-9963.645458905641
 20
-6138.337352431106
 30
0.0
 10
-9960.097587035762
 20
-6139.954936287239
 30
0.0
 10
-9955.077756968374
 20
-6141.125178300628
 30
0.0
 10
-9953.117821179836
 20
-6141.387774008199
 30
0.0
 10
-9950.540072103959
 20
-6140.918529724981
 30
0.0
 10
-9949.685307956566
 20
-6140.605656877696
 30
0.0
 10
-9948.822540634614
 20
-6139.893142694927
 30
0.0
 10
-9948.669310834532
 20
-6139.736390742377
 30
0.0
 10
-9948.35674574663
 20
-6139.428572132836
 30
0.0
 10
-9948.200672296185
 20
-6139.274868746373
 30
0.0
 10
-9947.73245194487
 20
-6138.813758586967
 30
0.0
 10
-9947.420305044001
 20
-6138.506351814031
 30
0.0
 10
-9942.113807728976
 20
-6133.280436673959
 30
0.0
 10
-9937.119457314922
 20
-6128.361928306721
 30
0.0
 10
-9922.136406074005
 20
-6113.606403202487
 30
0.0
 10
-9912.147705248983
 20
-6103.769386463615
 30
0.0
 10
-9882.1816027731
 20
-6074.258336206709
 30
0.0
 10
-9862.204201141987
 20
-6054.58430266862
 30
0.0
 10
-9822.119024875039
 20
-6015.10784213752
 30
0.0
 10
-9802.011250239982
 20
-5995.305415143718
 30
0.0
 10
-9771.849588434332
 20
-5965.601774517056
 30
0.0
 10
-9761.795701193576
 20
-5955.700560955432
 30
0.0
 10
-9749.228342178463
 20
-5943.324043969733
 30
0.0
 10
-9746.714870378248
 20
-5940.848740571913
 30
0.0
 10
-9742.944662680853
 20
-5937.135785472698
 30
0.0
 10
-9741.687926782335
 20
-5935.898133772667
 30
0.0
 10
-9739.802822935304
 20
-5934.041656221992
 30
0.0
 10
-9739.174454986456
 20
-5933.422830371691
 30
0.0
 10
-9738.388995050536
 20
-5932.649298058679
 30
0.0
 10
-9738.23190306337
 20
-5932.494591596075
 30
0.0
 10
-9737.916842831717
 20
-5932.184315719959
 30
0.0
 10
-9737.755958336518
 20
-5932.032285744009
 30
0.0
 10
-9737.318121374989
 20
-5931.524969040333
 30
0.0
 10
-9737.096075291458
 20
-5931.160651869214
 30
0.0
 10
-9736.248454246484
 20
-5929.160780025695
 30
0.0
 10
-9736.491782953573
 20
-5927.231338278105
 30
0.0
 10
-9737.35072176252
 20
-5924.059814695355
 30
0.0
 10
-9738.080657511386
 20
-5922.436433687183
 30
0.0
 10
-9740.481891220279
 20
-5918.015179874988
 30
0.0
 10
-9742.659648063203
 20
-5915.120971065523
 30
0.0
 10
-9744.854454225318
 20
-5912.602518642989
 30
0.0
  0
SPLINE
  5
4E
330
1F
100
AcDbEntity
  8
2D
100
AcDbSpline
210
0.0
220
0.0
230
1.0
 70
    12
 71
     3
 72
    13
 73
     9
 74
     0
 42
0.0000000001
 43
0.0000000001
 40
-23.84135470838413
 40
-23.84135470838413
 40
-23.84135470838413
 40
-23.84135470838413
 40
-11.91835862835962
 40
-11.91835862835962
 40
0.0
 40
0.0
 40
0.0
 40
22.38193240377165
 40
22.38193240377165
 40
22.38193240377165
 40
22.38193240377165
 10
-9744.854454225318
 20
-5912.602518642989
 30
0.0
 41
1.0
 10
-9747.468958792164
 20
-5909.603410417129
 30
0.0
 41
1.0
 10
-9750.199760185107
 20
-5906.725514975386
 30
0.0
 41
1.0
 10
-9755.856493644573
 20
-5901.133896400764
 30
0.0
 41
1.0
 10
-9758.767650736623
 20
-5898.435587337635
 30
0.0
 41
1.0
 10
-9761.75133365038
 20
-5895.808106184861
 30
0.0
 41
1.0
 10
-9767.353816020792
 20
-5890.874466363754
 30
0.0
 41
0.9991993498759063
 10
-9773.191293531552
 20
-5886.221245231375
 30
0.0
 41
0.9991993498759063
 10
-9779.249744851342
 20
-5881.859619593959
 30
0.0
 41
1.0
  0
SPLINE
  5
4F
330
1F
100
AcDbEntity
  8
2D
100
AcDbSpline
210
0.0
220
0.0
230
1.0
 70
    12
 71
     3
 72
    13
 73
     9
 74
     0
 42
0.0000000001
 43
0.0000000001
 40
-22.37678726846762
 40
-22.37678726846762
 40
-22.37678726846762
 40
-22.37678726846762
 40
0.0
 40
0.0
 40
0.0
 40
11.91859046897719
 40
11.91859046897719
 40
23.84011215573646
 40
23.84011215573646
 40
23.84011215573646
 40
23.84011215573646
 10
-8459.028157568286
 20
-3594.152524408958
 30
0.0
 41
1.0
 10
-8452.213161287147
 20
-3597.194634411482
 30
0.0
 41
0.9992515405847255
 10
-8445.261704926123
 20
-3599.910488244129
 30
0.0
 41
0.9992515405847255
 10
-8438.189397132901
 20
-3602.293987788196
 30
0.0
 41
1.0
 10
-8434.421686603393
 20
-3603.563776461378
 30
0.0
 41
1.0
 10
-8430.629219363796
 20
-3604.736471113379
 30
0.0
 41
1.0
 10
-8422.958311504157
 20
-3606.839336841127
 30
0.0
 41
1.0
 10
-8419.100989589166
 20
-3607.765788918184
 30
0.0
 41
1.0
 10
-8415.196568931777
 20
-3608.529904907426
 30
0.0
 41
1.0
  0
SPLINE
  5
50
330
1F
100
AcDbEntity
  8
2D
100
AcDbSpline
210
0.0
220
0.0
230
1.0
 70
     8
 71
     3
 72
    15
 73
    11
 74
     0
 42
0.0000000001
 43
0.0000000001
 40
-22.22792923865518
 40
-22.22792923865518
 40
-22.22792923865518
 40
-22.22792923865518
 40
-18.25920162835334
 40
-14.52812833383126
 40
-11.14712245144155
 40
-8.1770327362917
 40
-5.64776960679501
 40
-3.499443217653823
 40
-1.681337782048917
 40
0.0
 40
0.0
 40
0.0
 40
0.0
 10
-8415.196568931777
 20
-3608.529904907426
 30
0.0
 10
-8413.898325042162
 20
-3608.783925486611
 30
0.0
 10
-8411.364352735069
 20
-3609.20049094732
 30
0.0
 10
-8407.683462184435
 20
-3609.537470882258
 30
0.0
 10
-8404.319082625956
 20
-3609.555636088156
 30
0.0
 10
-8401.368998211135
 20
-3609.253427291129
 30
0.0
 10
-8398.886836901194
 20
-3608.637867281563
 30
0.0
 10
-8396.912490096754
 20
-3607.715163516041
 30
0.0
 10
-8395.474021133388
 20
-3606.461096026775
 30
0.0
 10
-8394.935873263868
 20
-3605.396963683316
 30
0.0
 10
-8394.79720347151
 20
-3604.854198540316
 30
0.0
  0
LINE
  5
51
330
1F
100
AcDbEntity
  8
2D
100
AcDbLine
 10
-8394.79720347151
 20
-3604.854198540316
 30
0.0
 11
-8320.376065106339
 21
-3318.360972689973
 31
0.0
  0
SPLINE
  5
52
330
1F
100
AcDbEntity
  8
2D
100
AcDbSpline
210
0.0
220
0.0
230
1.0
 70
     8
 71
     3
 72
    18
 73
    14
 74
     0
 42
0.0000000001
 43
0.0000000001
 40
-35.35539123913191
 40
-35.35539123913191
 40
-35.35539123913191
 40
-35.35539123913191
 40
-31.11830974790543
 40
-31.11830974790543
 40
-26.7951454509286
 40
-26.7951454509286
 40
-18.04480811846319
 40
-18.04480811846319
 40
-13.53334263637846
 40
-13.53334263637846
 40
-9.028913009635025
 40
-9.028913009635025
 40
0.0
 40
0.0
 40
0.0
 40
0.0
 10
-8320.376065106339
 20
-3318.360972689973
 30
0.0
 10
-8320.001566718693
 20
-3316.91929558452
 30
0.0
 10
-8320.497942879574
 20
-3315.426141447877
 30
0.0
 10
-8321.814340887428
 20
-3312.972650407573
 30
0.0
 10
-8322.783395430586
 20
-3311.777709805545
 30
0.0
 10
-8325.70177676313
 20
-3308.741404421348
 30
0.0
 10
-8328.130477044473
 20
-3306.904978973233
 30
0.0
 10
-8331.690841815373
 20
-3304.595873649486
 30
0.0
 10
-8332.92831901069
 20
-3303.859532444596
 30
0.0
 10
-8335.451886841398
 20
-3302.462471973048
 30
0.0
 10
-8336.731988240925
 20
-3301.806244496388
 30
0.0
 10
-8340.637616823504
 20
-3299.938208336279
 30
0.0
 10
-8343.292946946163
 20
-3298.84321830117
 30
0.0
 10
-8346.014676946706
 20
-3297.877705197814
 30
0.0
  0
SPLINE
  5
53
330
1F
100
AcDbEntity
  8
2D
100
AcDbSpline
210
0.0
220
0.0
230
1.0
 70
     8
 71
     3
 72
     8
 73
     4
 74
     0
 42
0.0000000001
 43
0.0000000001
 40
0.0
 40
0.0
 40
0.0
 40
0.0
 40
703.4685325876721
 40
703.4685325876721
 40
703.4685325876721
 40
703.4685325876721
 10
-8346.014676946706
 20
-3297.877705197814
 30
0.0
 10
-8567.010770856938
 20
-3219.480912682116
 30
0.0
 10
-8788.006863584702
 20
-3141.084114580447
 30
0.0
 10
-9009.002958995294
 20
-3062.687325231794
 30
0.0
  0
SPLINE
  5
54
330
1F
100
AcDbEntity
  8
2D
100
AcDbSpline
210
0.0
220
0.0
230
1.0
 70
     8
 71
     3
 72
   104
 73
   100
 74
     0
 42
0.0000000001
 43
0.0000000001
 40
-1349.853033489696
 40
-1349.853033489696
 40
-1349.853033489696
 40
-1349.853033489696
 40
-1339.151645862384
 40
-1339.151645862384
 40
-1328.463105872798
 40
-1328.463105872798
 40
-1307.075155375908
 40
-1307.075155375908
 40
-1285.636925290229
 40
-1285.636925290229
 40
-1264.234432750016
 40
-1264.234432750016
 40
-1242.818717958952
 40
-1242.818717958952
 40
-1221.397072119079
 40
-1221.397072119079
 40
-1199.995348159531
 40
-1199.995348159531
 40
-1189.274122292782
 40
-1189.274122292782
 40
-1178.596629598117
 40
-1178.596629598117
 40
-1157.184407733805
 40
-1157.184407733805
 40
-1135.785727063511
 40
-1135.785727063511
 40
-1125.088631098027
 40
-1125.088631098027
 40
-1114.387715565208
 40
-1114.387715565208
 40
-1092.990751216902
 40
-1092.990751216902
 40
-1071.58393770065
 40
-1071.58393770065
 40
-1066.227529373924
 40
-1066.227529373924
 40
-1060.880444309929
 40
-1060.880444309929
 40
-1050.186417341472
 40
-1050.186417341472
 40
-1007.408934945562
 40
-1007.408934945562
 40
-665.3227459982221
 40
-665.3227459982221
 40
-494.1223710618293
 40
-494.1223710618293
 40
-408.5466153693156
 40
-408.5466153693156
 40
-365.7587374405323
 40
-365.7587374405323
 40
-344.3647984503124
 40
-344.3647984503124
 40
-339.0164651795673
 40
-339.0164651795673
 40
-333.2560323822113
 40
-333.2560323822113
 40
-327.8686707299186
 40
-327.8686707299186
 40
-322.4481467621309
 40
-322.4481467621309
 40
-312.0447210990207
 40
-312.0447210990207
 40
-306.9543383518741
 40
-306.9543383518741
 40
-304.3955739414712
 40
-304.3955739414712
 40
-303.767818539557
 40
-303.767818539557
 40
-303.1417406660001
 40
-303.1417406660001
 40
-301.8895849188914
 40
-301.8895849188914
 40
-281.855092964418
 40
-281.855092964418
 40
-241.7861090529201
 40
-241.7861090529201
 40
-161.6481411474453
 40
-161.6481411474453
 40
-80.98719045451908
 40
-80.98719045451908
 40
-40.65671513459496
 40
-40.65671513459496
 40
-30.57409631005465
 40
-30.57409631005465
 40
-25.53278689877384
 40
-25.53278689877384
 40
-23.01213219339254
 40
-23.01213219339254
 40
-22.38196851707688
 40
-22.38196851707688
 40
-21.74828979492697
 40
-21.74828979492697
 40
-20.47292758724278
 40
-20.47292758724278
 40
-15.5499008558368
 40
-15.5499008558368
 40
-10.38324963250373
 40
-10.38324963250373
 40
0.0
 40
0.0
 40
0.0
 40
0.0
 10
-9009.002958995294
 20
-3062.687325231794
 30
0.0
 10
-9012.317372227091
 20
-3061.511770265236
 30
0.0
 10
-9015.632031211146
 20
-3060.336910452096
 30
0.0
 10
-9022.257879839442
 20
-3057.990039012979
 30
0.0
 10
-9025.564945080008
 20
-3056.806866461774
 30
0.0
 10
-9035.546035206487
 20
-3053.41430697972
 30
0.0
 10
-9042.249942054284
 20
-3051.335927305874
 30
0.0
 10
-9055.803496381679
 20
-3047.540602896808
 30
0.0
 10
-9062.627407528078
 20
-3045.829732231993
 30
0.0
 10
-9076.373640276903
 20
-3042.783371589592
 30
0.0
 10
-9083.269839534016
 20
-3041.45288933619
 30
0.0
 10
-9097.1554902752
 20
-3039.168220784678
 30
0.0
 10
-9104.118717264453
 20
-3038.218706101018
 30
0.0
 10
-9118.115440551355
 20
-3036.702050517262
 30
0.0
 10
-9125.122358049131
 20
-3036.137938450601
 30
0.0
 10
-9139.176855434318
 20
-3035.396187922234
 30
0.0
 10
-9146.19769578789
 20
-3035.219840877182
 30
0.0
 10
-9156.754981736758
 20
-3035.24588086591
 30
0.0
 10
-9160.276744255247
 20
-3035.302921364274
 30
0.0
 10
-9167.30632997867
 20
-3035.514699441736
 30
0.0
 10
-9170.810793552711
 20
-3035.669138030778
 30
0.0
 10
-9181.339647022545
 20
-3036.276995219201
 30
0.0
 10
-9188.34062810022
 20
-3036.875180671848
 30
0.0
 10
-9202.321045355307
 20
-3038.459986337487
 30
0.0
 10
-9209.274108330956
 20
-3039.442254387901
 30
0.0
 10
-9219.674060344183
 20
-3041.205849970505
 30
0.0
 10
-9223.1305406598
 20
-3041.840856950062
 30
0.0
 10
-9230.029228932446
 20
-3043.206492494844
 30
0.0
 10
-9233.468122009868
 20
-3043.936748548828
 30
0.0
 10
-9243.756153725615
 20
-3046.269146818533
 30
0.0
 10
-9250.558638815379
 20
-3048.009711385748
 30
0.0
 10
-9264.087027202626
 20
-3051.867082893755
 30
0.0
 10
-9270.78643070791
 20
-3053.980699719254
 30
0.0
 10
-9279.101123951023
 20
-3056.849240033583
 30
0.0
 10
-9280.760213928672
 20
-3057.437460788755
 30
0.0
 10
-9284.076088398328
 20
-3058.611451129099
 30
0.0
 10
-9285.732500511305
 20
-3059.198163500619
 30
0.0
 10
-9290.701503208413
 20
-3060.958819688892
 30
0.0
 10
-9294.013904015777
 20
-3062.133298107635
 30
0.0
 10
-9310.575783653603
 20
-3068.007394699994
 30
0.0
 10
-9323.824852097274
 20
-3072.708169066896
 30
0.0
 10
-9443.027225330039
 20
-3114.994367711715
 30
0.0
 10
-9548.98029040002
 20
-3152.580467682079
 30
0.0
 10
-9707.958601789698
 20
-3208.976898824747
 30
0.0
 10
-9760.983848164007
 20
-3227.787229843111
 30
0.0
 10
-9840.514150521096
 20
-3256.000042093759
 30
0.0
 10
-9867.019206525209
 20
-3265.402523265933
 30
0.0
 10
-9906.776790543187
 20
-3279.506245072015
 30
0.0
 10
-9920.029318563935
 20
-3284.207485686542
 30
0.0
 10
-9939.908110599226
 20
-3291.259346621956
 30
0.0
 10
-9946.534374615683
 20
-3293.609966937451
 30
0.0
 10
-9954.817157719077
 20
-3296.548225690936
 30
0.0
 10
-9956.473657263665
 20
-3297.135919213225
 30
0.0
 10
-9959.914395287484
 20
-3298.356300524303
 30
0.0
 10
-9961.310951397576
 20
-3298.882925125713
 30
0.0
 10
-9964.68862613061
 20
-3300.30454106854
 30
0.0
 10
-9966.29455410584
 20
-3301.041834274705
 30
0.0
 10
-9969.469702365855
 20
-3302.636617688198
 30
0.0
 10
-9971.028059752334
 20
-3303.489949562805
 30
0.0
 10
-9975.479622270013
 20
-3306.183923298704
 30
0.0
 10
-9978.654426977704
 20
-3308.447678588569
 30
0.0
 10
-9982.177801265509
 20
-3312.209857880876
 30
0.0
 10
-9983.385183760121
 20
-3313.775914286769
 30
0.0
 10
-9984.267680813387
 20
-3316.242932571255
 30
0.0
 10
-9984.424107052739
 20
-3317.13961645556
 30
0.0
 10
-9984.238435330375
 20
-3318.243051968021
 30
0.0
 10
-9984.179299057421
 20
-3318.454128843791
 30
0.0
 10
-9984.069002865752
 20
-3318.878727455016
 30
0.0
 10
-9984.013928553646
 20
-3319.090742721185
 30
0.0
 10
-9983.848705617314
 20
-3319.72678851969
 30
0.0
 10
-9983.738556993103
 20
-3320.150819052029
 30
0.0
 10
-9981.86603038129
 20
-3327.35933810199
 30
0.0
 10
-9980.10365239355
 20
-3334.143826619576
 30
0.0
 10
-9974.816518427575
 20
-3354.497292172538
 30
0.0
 10
-9971.29176244677
 20
-3368.066269207251
 30
0.0
 10
-9960.717494469875
 20
-3408.773200332239
 30
0.0
 10
-9953.667982446528
 20
-3435.911154415438
 30
0.0
 10
-9939.522952908574
 20
-3490.364165643357
 30
0.0
 10
-9932.427435392889
 20
-3517.6792227878
 30
0.0
 10
-9921.784158928134
 20
-3558.651808445195
 30
0.0
 10
-9918.23640007585
 20
-3572.309336983288
 30
0.0
 10
-9913.801701463413
 20
-3589.38124764171
 30
0.0
 10
-9912.914761738943
 20
-3592.795629771303
 30
0.0
 10
-9911.584352148606
 20
-3597.917202964396
 30
0.0
 10
-9911.140882284602
 20
-3599.624394028378
 30
0.0
 10
-9910.47567748767
 20
-3602.185180624017
 30
0.0
 10
-9910.25394255522
 20
-3603.038776155797
 30
0.0
 10
-9909.976773889462
 20
-3604.105770570462
 30
0.0
 10
-9909.921340156307
 20
-3604.319169453385
 30
0.0
 10
-9909.81016348123
 20
-3604.747157555772
 30
0.0
 10
-9909.758943907527
 20
-3604.962502603666
 30
0.0
 10
-9909.538513235111
 20
-3605.595338886888
 30
0.0
 10
-9909.334028351619
 20
-3605.96979502158
 30
0.0
 10
-9908.025899053417
 20
-3607.703792301016
 30
0.0
 10
-9906.233289131033
 20
-3608.457784333038
 30
0.0
 10
-9903.057199703198
 20
-3609.299683304031
 30
0.0
 10
-9901.286342700852
 20
-3609.47923089707
 30
0.0
 10
-9896.256807667825
 20
-3609.610328412406
 30
0.0
 10
-9892.661470948206
 20
-3609.171440072474
 30
0.0
 10
-9889.383024064056
 20
-3608.529908385678
 30
0.0
  0
SPLINE
  5
55
330
1F
100
AcDbEntity
  8
2D
100
AcDbSpline
210
0.0
220
0.0
230
1.0
 70
    12
 71
     3
 72
    13
 73
     9
 74
     0
 42
0.0000000001
 43
0.0000000001
 40
-23.84135470837478
 40
-23.84135470837478
 40
-23.84135470837478
 40
-23.84135470837478
 40
-11.91835862816805
 40
-11.91835862816805
 40
0.0
 40
0.0
 40
0.0
 40
22.38193240378218
 40
22.38193240378218
 40
22.38193240378218
 40
22.38193240378218
 10
-9889.383024064056
 20
-3608.529908385678
 30
0.0
 41
1.0
 10
-9885.478467868339
 20
-3607.765235125417
 30
0.0
 41
1.0
 10
-9881.620736609886
 20
-3606.839239467297
 30
0.0
 41
1.0
 10
-9873.949886146362
 20
-3604.736173876303
 30
0.0
 41
1.0
 10
-9870.157503404505
 20
-3603.564192411784
 30
0.0
 41
1.0
 10
-9866.390196521472
 20
-3602.29398778806
 30
0.0
 41
1.0
 10
-9859.316297918054
 20
-3599.908915641587
 30
0.0
 41
0.9991993498759063
 10
-9852.367751452608
 20
-3597.180122389458
 30
0.0
 41
0.9991993498759063
 10
-9845.561247188914
 20
-3594.114162457643
 30
0.0
 41
1.0
  0
LINE
  5
56
330
1F
100
AcDbEntity
  8
2D
100
AcDbLine
 10
-8764.191971244869
 20
-3085.09842659951
 30
0.0
 11
-8834.754932529748
 21
-3300.497384927864
 31
0.0
  0
LINE
  5
57
330
1F
100
AcDbEntity
  8
2D
100
AcDbLine
 10
-9540.386313248095
 20
-3085.098132332802
 30
0.0
 11
-9469.823245859418
 21
-3300.497384927864
 31
0.0
  0
LINE
  5
58
330
1F
100
AcDbEntity
  8
2D
100
AcDbLine
 10
-9870.389302551233
 20
-3423.228989023745
 30
0.0
 11
-9745.285484136144
 21
-3404.018038627576
 31
0.0
  0
SPLINE
  5
59
330
1F
100
AcDbEntity
  8
2D
100
AcDbSpline
210
0.0
220
0.0
230
1.0
 70
    12
 71
     3
 72
    20
 73
    16
 74
     0
 42
0.0000000001
 43
0.0000000001
 40
-87.99283041163017
 40
-87.99283041163017
 40
-87.99283041163017
 40
-87.99283041163017
 40
-77.14289584501667
 40
-77.14289584501667
 40
-66.26537615472662
 40
-66.26537615472662
 40
-55.40974866318545
 40
-55.40974866318545
 40
-44.46520735084225
 40
-44.46520735084225
 40
-33.33627397395349
 40
-33.33627397395349
 40
-22.1249212441105
 40
-22.1249212441105
 40
0.0
 40
0.0
 40
0.0
 40
0.0
 10
-9957.734207188765
 20
-3420.252397153007
 30
0.0
 41
1.0
 10
-9954.24987984548
 20
-3421.546426633521
 30
0.0
 41
1.0
 10
-9950.613348188544
 20
-3422.535829729296
 30
0.0
 41
1.0
 10
-9943.44430124309
 20
-3424.06179744587
 30
0.0
 41
1.0
 10
-9939.848313409693
 20
-3424.616631157179
 30
0.0
 41
1.0
 10
-9932.620739291571
 20
-3425.449361388671
 30
0.0
 41
1.0
 10
-9929.013049502577
 20
-3425.723257863287
 30
0.0
 41
1.0
 10
-9921.754645915575
 20
-3426.068777140118
 30
0.0
 41
1.0
 10
-9918.116446359647
 20
-3426.137237093412
 30
0.0
 41
1.0
 10
-9910.777747119191
 20
-3426.115360170502
 30
0.0
 41
1.0
 10
-9907.084822085777
 20
-3426.021611114372
 30
0.0
 41
1.0
 10
-9899.676477708304
 20
-3425.703015685146
 30
0.0
 41
1.0
 10
-9895.96590428238
 20
-3425.477118275227
 30
0.0
 41
1.0
 10
-9884.94406789594
 20
-3424.646335986007
 30
0.0
 41
1.0
 10
-9877.6600296789
 20
-3423.88897681887
 30
0.0
 41
1.0
 10
-9870.389302551233
 20
-3422.98585271808
 30
0.0
 41
1.0
  0
LINE
  5
5A
330
1F
100
AcDbEntity
  8
2D
100
AcDbLine
 10
-10372.65802484309
 20
-5872.078389265597
 30
0.0
 11
-10221.39833383393
 21
-5703.269354040515
 31
0.0
  0
LINE
  5
5B
330
1F
100
AcDbEntity
  8
2D
100
AcDbLine
 10
-10760.75494100227
 20
-5199.874223683699
 30
0.0
 11
-10538.93249049876
 21
-5153.284061558489
 31
0.0
  0
SPLINE
  5
5C
330
1F
100
AcDbEntity
  8
2D
100
AcDbSpline
210
0.0
220
0.0
230
1.0
 70
    15
 71
     2
 72
    28
 73
    25
 74
     0
 42
0.0000000001
 43
0.0000000001
 40
-417.6994305818904
 40
-417.6994305818904
 40
-417.6994305818904
 40
0.0
 40
0.0
 40
150.1250998016803
 40
150.1250998016803
 40
567.824530392148
 40
567.824530392148
 40
717.9496301859563
 40
717.9496301859563
 40
1135.649060772827
 40
1135.649060772827
 40
1285.77416057745
 40
1285.77416057745
 40
1703.473591166445
 40
1703.473591166445
 40
1853.598690959821
 40
1853.598690959821
 40
2271.298121553846
 40
2271.298121553846
 40
2421.423221351389
 40
2421.423221351389
 40
2839.12265193351
 40
2839.12265193351
 40
2989.247751729501
 40
2989.247751729501
 40
2989.247751729501
 10
-9224.91098012972
 20
-4175.539865765044
 30
0.0
 41
1.0
 10
-9416.44733468605
 20
-4260.791333688308
 30
0.0
 41
0.9945100414077126
 10
-9586.04544888996
 20
-4384.040948514015
 30
0.0
 41
1.0
 10
-9650.613949475923
 20
-4430.963892581934
 30
-0.0000000000000003
 41
0.9135915525345719
 10
-9658.966160768632
 20
-4510.343326407345
 30
0.0
 41
1.0
 10
-9680.904401113452
 20
-4718.844409158894
 30
0.0
 41
0.9945100414080136
 10
-9658.966160769003
 20
-4927.345491910475
 30
0.0
 41
1.0
 10
-9650.613949478291
 20
-5006.724925731785
 30
0.0000000000000002
 41
0.9135915525362936
 10
-9586.045448897105
 20
-5053.647869798984
 30
0.0
 41
1.0
 10
-9416.447334693059
 20
-5176.897484628763
 30
0.0
 41
0.9945100414077015
 10
-9224.910980143559
 20
-5262.148952552454
 30
0.0
 41
1.0
 10
-9151.990268265768
 20
-5294.605442310213
 30
-0.0000000000000003
 41
0.913591552535723
 10
-9079.069556387298
 20
-5262.148952553984
 30
0.0
 41
1.0
 10
-8887.533201834513
 20
-5176.897484634706
 30
0.0
 41
0.9945100414067227
 10
-8717.935087628637
 20
-5053.647869805385
 30
0.0
 41
1.0
 10
-8653.366587048467
 20
-5006.724925737626
 30
0.0000000000000001
 41
0.9135915525405182
 10
-8645.014375757175
 20
-4927.345491916865
 30
0.0
 41
1.0
 10
-8623.076135411102
 20
-4718.844409163624
 30
0.0
 41
0.9945100414077931
 10
-8645.014375755545
 20
-4510.343326410215
 30
0.0
 41
1.0
 10
-8653.366587046363
 20
-4430.963892586673
 30
0.0
 41
0.9135915525322551
 10
-8717.935087630194
 20
-4384.040948519334
 30
0.0
 41
1.0
 10
-8887.533201834432
 20
-4260.791333694124
 30
0.0
 41
0.9945100414086796
 10
-9079.069556381579
 20
-4175.539865771354
 30
0.0
 41
1.0
 10
-9151.99026825425
 20
-4143.083376014134
 30
0.0000000000000002
 41
0.913591552540956
 10
-9224.91098012972
 20
-4175.539865765044
 30
0.0
 41
1.0
  0
SPLINE
  5
5D
330
1F
100
AcDbEntity
  8
2D
100
AcDbSpline
210
0.0
220
0.0
230
1.0
 70
    15
 71
     2
 72
    20
 73
    17
 74
     0
 42
0.0000000001
 43
0.0000000001
 40
-76.31516318028122
 40
-76.31516318028122
 40
-76.31516318028122
 40
-0.0000000008027583
 40
-0.0000000008027583
 40
261.3867767284922
 40
261.3867767284922
 40
337.7019399078681
 40
337.7019399078681
 40
599.0887166358244
 40
599.0887166358244
 40
675.4038798166262
 40
675.4038798166262
 40
936.790656544372
 40
936.790656544372
 40
1013.105819724646
 40
1013.105819724646
 40
1274.492596451914
 40
1274.492596451914
 40
1274.492596451914
 10
-10309.82727085445
 20
-3723.971364644801
 30
0.0
 41
0.9999999999956606
 10
-10350.31420814321
 20
-3741.890506412624
 30
-0.0000000000000037
 41
0.8053864672095719
 10
-10345.24181956274
 20
-3785.874123894649
 30
0.0
 41
1.0
 10
-10330.15100807303
 20
-3916.729335290912
 30
0.0000000000000001
 41
0.9886318222813665
 10
-10276.83995231377
 20
-4037.181609137476
 30
0.0
 41
1.0
 10
-10258.92081054618
 20
-4077.668546426376
 30
0.0000000000000047
 41
0.805386467207564
 10
-10214.93719306412
 20
-4072.596157845659
 30
0.0
 41
1.0
 10
-10084.08198166855
 20
-4057.505346356002
 30
0.0000000000000002
 41
0.9886318222814827
 10
-9963.629707822543
 20
-4004.194290597163
 30
0.0
 41
1.0
 10
-9923.142770533117
 20
-3986.275148828749
 30
0.0000000000000013
 41
0.8053864672076977
 10
-9928.215159114461
 20
-3942.291531345938
 30
0.0
 41
1.0
 10
-9943.305970604039
 20
-3811.436319950447
 30
0.0000000000000003
 41
0.9886318222813681
 10
-9996.61702636295
 20
-3690.984046104578
 30
0.0
 41
1.0
 10
-10014.53616813101
 20
-3650.49710881531
 30
0.0000000000000032
 41
0.8053864672073179
 10
-10058.51978561355
 20
-3655.569497396418
 30
0.0
 41
1.0
 10
-10189.37499700879
 20
-3670.660308886074
 30
-0.0000000000000003
 41
0.9886318222814838
 10
-10309.82727085446
 20
-3723.971364644801
 30
0.0
 41
1.0
  0
SPLINE
  5
5E
330
1F
100
AcDbEntity
  8
2D
100
AcDbSpline
210
0.0
220
0.0
230
1.0
 70
    11
 71
     3
 72
   176
 73
   172
 74
     0
 42
0.0000000001
 43
0.0000000001
 40
-3563.966855952469
 40
-3563.966855952469
 40
-3563.966855952469
 40
-3563.966855952469
 40
-3508.271767721682
 40
-3508.271767721682
 40
-3452.565855847666
 40
-3452.565855847666
 40
-3424.699932027023
 40
-3424.699932027023
 40
-3396.828334534199
 40
-3396.828334534199
 40
-3341.118494234782
 40
-3341.118494234782
 40
-3334.157080595291
 40
-3334.157080595291
 40
-3327.195995239053
 40
-3327.195995239053
 40
-3313.273824526588
 40
-3313.273824526588
 40
-3285.429483101661
 40
-3285.429483101661
 40
-3229.740800251807
 40
-3229.740800251807
 40
-3118.363434552102
 40
-3118.363434552102
 40
-2895.936740854954
 40
-2895.936740854954
 40
-2882.035072498883
 40
-2882.035072498883
 40
-2878.559655409864
 40
-2878.559655409864
 40
-2876.604767597124
 40
-2876.604767597124
 40
-2869.613056276953
 40
-2869.613056276953
 40
-2855.680101061674
 40
-2855.680101061674
 40
-2841.747636106212
 40
-2841.747636106212
 40
-2827.815576837319
 40
-2827.815576837319
 40
-2820.823592582718
 40
-2820.823592582718
 40
-2817.343727267019
 40
-2817.343727267019
 40
-2813.32179786508
 40
-2813.32179786508
 40
-2785.501401697421
 40
-2785.501401697421
 40
-2674.219817026782
 40
-2674.219817026782
 40
-2451.474837472566
 40
-2451.474837472566
 40
-2444.514056861505
 40
-2444.514056861505
 40
-2442.773861708744
 40
-2442.773861708744
 40
-2441.02925537332
 40
-2441.02925537332
 40
-2437.54593273567
 40
-2437.54593273567
 40
-2423.594391997408
 40
-2423.594391997408
 40
-2416.571234980257
 40
-2416.571234980257
 40
-2409.6148023899
 40
-2409.6148023899
 40
-2402.653627421405
 40
-2402.653627421405
 40
-2399.171470813012
 40
-2399.171470813012
 40
-2395.395367623281
 40
-2395.395367623281
 40
-2381.487620070528
 40
-2381.487620070528
 40
-2367.579786888453
 40
-2367.579786888453
 40
-2339.764120524302
 40
-2339.764120524302
 40
-2228.501455067708
 40
-2228.501455067708
 40
-2005.879623464253
 40
-2005.879623464253
 40
-1894.568707662528
 40
-1894.568707662528
 40
-1838.913249761667
 40
-1838.913249761667
 40
-1811.085520811236
 40
-1811.085520811236
 40
-1797.171656336022
 40
-1797.171656336022
 40
-1790.214796107597
 40
-1790.214796107597
 40
-1783.258593325017
 40
-1783.258593325017
 40
-1755.400077091705
 40
-1755.400077091705
 40
-1727.542730800669
 40
-1727.542730800669
 40
-1699.680055270146
 40
-1699.680055270146
 40
-1671.820198525903
 40
-1671.820198525903
 40
-1616.139634923326
 40
-1616.139634923326
 40
-1560.461674595104
 40
-1560.461674595104
 40
-1553.505718384126
 40
-1553.505718384126
 40
-1546.550654057298
 40
-1546.550654057298
 40
-1532.64064454357
 40
-1532.64064454357
 40
-1504.820625516111
 40
-1504.820625516111
 40
-1449.180587461194
 40
-1449.180587461194
 40
-1337.900511351363
 40
-1337.900511351363
 40
-1115.295250291759
 40
-1115.295250291759
 40
-1003.992619761967
 40
-1003.992619761967
 40
-948.3413044970605
 40
-948.3413044970605
 40
-946.6022008950277
 40
-946.6022008950277
 40
-944.8618884312061
 40
-944.8618884312061
 40
-941.3733769259286
 40
-941.3733769259286
 40
-934.4153756205586
 40
-934.4153756205586
 40
-927.4508590244233
 40
-927.4508590244233
 40
-920.419993513661
 40
-920.419993513661
 40
-906.4507771971898
 40
-906.4507771971898
 40
-902.9576326153709
 40
-902.9576326153709
 40
-898.9813785138543
 40
-898.9813785138543
 40
-892.0046370486832
 40
-892.0046370486832
 40
-668.8202428501287
 40
-668.8202428501287
 40
-557.2280457508505
 40
-557.2280457508505
 40
-529.3299964760286
 40
-529.3299964760286
 40
-527.7784383819591
 40
-527.7784383819591
 40
-524.2872927760235
 40
-524.2872927760235
 40
-517.2706434801352
 40
-517.2706434801352
 40
-503.2907105886418
 40
-503.2907105886418
 40
-489.3124010990233
 40
-489.3124010990233
 40
-475.33183690069
 40
-475.33183690069
 40
-468.3159243036074
 40
-468.3159243036074
 40
-464.3664391624561
 40
-464.3664391624561
 40
-460.8772082035032
 40
-460.8772082035032
 40
-446.9202843676781
 40
-446.9202843676781
 40
0.0
 40
0.0
 40
0.0
 40
0.0
 10
-8424.075957981982
 20
-5266.79613907325
 30
0.0
 10
-8410.89371355373
 20
-5253.71179250015
 30
0.0
 10
-8398.584387377578
 20
-5239.766095348912
 30
0.0
 10
-8375.887436611996
 20
-5210.355316640449
 30
0.0
 10
-8365.520165463666
 20
-5194.916474308803
 30
0.0
 10
-8351.54086555832
 20
-5170.806262673854
 30
0.0
 10
-8347.15657168513
 20
-5162.635568399292
 30
0.0
 10
-8338.912400118319
 20
-5145.976381319548
 30
0.0
 10
-8335.074704836687
 20
-5137.533092785146
 30
0.0
 10
-8324.385084077836
 20
-5111.791363513154
 30
0.0
 10
-8318.403123463951
 20
-5094.195641045802
 30
0.0
 10
-8312.994015776629
 20
-5074.007899672065
 30
0.0
 10
-8312.40693398086
 20
-5071.761869931934
 30
0.0
 10
-8311.221915347789
 20
-5067.272767484271
 30
0.0
 10
-8310.629420002235
 20
-5065.028269185464
 30
0.0
 10
-8308.851933965558
 20
-5058.294774289041
 30
0.0
 10
-8307.666943274435
 20
-5053.805777691427
 30
0.0
 10
-8304.111971201088
 20
-5040.338787898581
 30
0.0
 10
-8301.741989818842
 20
-5031.360794703353
 30
0.0
 10
-8294.63204567214
 20
-5004.426815117666
 30
0.0
 10
-8289.892082907678
 20
-4986.470828727206
 30
0.0
 10
-8275.672194614268
 20
-4932.602869555831
 30
0.0
 10
-8266.192269085328
 20
-4896.690896774915
 30
0.0
 10
-8237.78041354843
 20
-4789.06074930366
 30
0.0
 10
-8218.84848354047
 20
-4717.342574613324
 30
0.0
 10
-8198.73330790702
 20
-4641.142014004841
 30
0.0
 10
-8197.550062281534
 20
-4636.659628086693
 30
0.0
 10
-8196.071005249662
 20
-4631.056645689011
 30
0.0
 10
-8195.775193843274
 20
-4629.936049209476
 30
0.0
 10
-8195.312991440256
 20
-4628.18512826967
 30
0.0
 10
-8194.76124094766
 20
-4626.079169148362
 30
0.0
 10
-8193.929353523108
 20
-4623.212650776531
 30
0.0
 10
-8193.099562047475
 20
-4621.069881798354
 30
0.0
 10
-8190.023188125302
 20
-4614.803398345827
 30
0.0
 10
-8187.262630498484
 20
-4611.019720499761
 30
0.0
 10
-8180.567224360919
 20
-4604.570442985365
 30
0.0
 10
-8176.683211940257
 20
-4601.953865225584
 30
0.0
 10
-8168.191772886221
 20
-4598.171022872712
 30
0.0
 10
-8163.648992787133
 20
-4597.033553989317
 30
0.0
 10
-8156.686395846471
 20
-4596.534042273333
 30
0.0
 10
-8154.388743675536
 20
-4596.569051935211
 30
0.0
 10
-8150.913411770667
 20
-4596.925149265173
 30
0.0
 10
-8149.769082277253
 20
-4597.092890286996
 30
0.0
 10
-8147.310954463184
 20
-4597.563028672781
 30
0.0
 10
-8146.543308140881
 20
-4597.763542177722
 30
0.0
 10
-8136.278851187224
 20
-4600.458213894419
 30
0.0
 10
-8127.310873698512
 20
-4602.812527951561
 30
0.0
 10
-8082.470986254917
 20
-4614.58409823725
 30
0.0
 10
-8046.599076300041
 20
-4624.001354465803
 30
0.0
 10
-7938.924739437618
 20
-4652.268508925892
 30
0.0
 10
-7867.122312530064
 20
-4671.118407157428
 30
0.0
 10
-7793.076059781659
 20
-4690.557364708702
 30
0.0
 10
-7790.832233940793
 20
-4691.146424028439
 30
0.0
 10
-7788.027451639722
 20
-4691.882748178108
 30
0.0
 10
-7787.466495179502
 20
-4692.03001300804
 30
0.0
 10
-7786.343160302804
 20
-4692.324915966306
 30
0.0
 10
-7785.779669087471
 20
-4692.467975305533
 30
0.0
 10
-7784.104604011412
 20
-4692.949380524063
 30
0.0
 10
-7783.01352253024
 20
-4693.327243281711
 30
0.0
 10
-7777.630428335953
 20
-4695.519392542853
 30
0.0
 10
-7773.735637815578
 20
-4698.184889747507
 30
0.0
 10
-7768.974002980987
 20
-4703.316988892941
 30
0.0
 10
-7767.615360396852
 20
-4705.155268162979
 30
0.0
 10
-7765.289734611975
 20
-4709.201728433056
 30
0.0
 10
-7764.367846306468
 20
-4711.341198692869
 30
0.0
 10
-7763.043907101801
 20
-4715.796221921076
 30
0.0
 10
-7762.648115022723
 20
-4718.091393944907
 30
0.0
 10
-7762.471862351053
 20
-4721.574902984588
 30
0.0
 10
-7762.482980455974
 20
-4722.729462857937
 30
0.0
 10
-7762.652622765967
 20
-4725.147725324811
 30
0.0
 10
-7762.78992553784
 20
-4726.094878234249
 30
0.0
 10
-7763.838580050735
 20
-4731.90034445022
 30
0.0
 10
-7764.658501290574
 20
-4736.467011199434
 30
0.0
 10
-7766.303141554552
 20
-4745.599511011885
 30
0.0
 10
-7767.125464218025
 20
-4750.165774975156
 30
0.0
 10
-7769.592432208465
 20
-4763.864566864964
 30
0.0
 10
-7771.237077535439
 20
-4772.997094791501
 30
0.0
 10
-7779.460304170407
 20
-4818.659734424168
 30
0.0
 10
-7786.038885478625
 20
-4855.189846130258
 30
0.0
 10
-7805.780335159998
 20
-4964.811864661547
 30
0.0
 10
-7818.943203533756
 20
-5037.903771486639
 30
0.0
 10
-7838.68750609495
 20
-5147.541631724174
 30
0.0
 10
-7845.268940282102
 20
-5184.08758513667
 30
0.0
 10
-7855.141091562913
 20
-5238.906515255398
 30
0.0
 10
-7858.431808656536
 20
-5257.179491961638
 30
0.0
 10
-7863.367884296971
 20
-5284.588957020997
 30
0.0
 10
-7865.013242843783
 20
-5293.725445374116
 30
0.0
 10
-7867.481280664
 20
-5307.430177903795
 30
0.0
 10
-7868.303959937399
 20
-5311.998422080356
 30
0.0
 10
-7869.53797458985
 20
-5318.850764702912
 30
0.0
 10
-7869.950171098175
 20
-5321.134707861654
 30
0.0
 10
-7870.770580785054
 20
-5325.703089477659
 30
0.0
 10
-7871.1860420435
 20
-5327.986010345503
 30
0.0
 10
-7873.412068391739
 20
-5339.385674546696
 30
0.0
 10
-7875.554872846395
 20
-5348.397999483531
 30
0.0
 10
-7880.588873500408
 20
-5366.291547478666
 30
0.0
 10
-7883.459327889836
 20
-5375.098453686809
 30
0.0
 10
-7889.939847312507
 20
-5392.521944491862
 30
0.0
 10
-7893.522798541457
 20
-5401.065536009482
 30
0.0
 10
-7901.411406999552
 20
-5417.899385266463
 30
0.0
 10
-7905.683728874686
 20
-5426.11878866486
 30
0.0
 10
-7919.545134355798
 20
-5450.298864065023
 30
0.0
 10
-7930.092044014997
 20
-5465.620116597755
 30
0.0
 10
-7953.596141572914
 20
-5494.391768767857
 30
0.0
 10
-7966.507985342159
 20
-5507.786173434518
 30
0.0
 10
-7982.182466521193
 20
-5521.603462298081
 30
0.0
 10
-7983.939958265928
 20
-5523.118082187405
 30
0.0
 10
-7987.480260050612
 20
-5526.118523757261
 30
0.0
 10
-7989.253749806023
 20
-5527.614559848414
 30
0.0
 10
-7994.569540922956
 20
-5532.10814753358
 30
0.0
 10
-7998.113391549825
 20
-5535.103864104204
 30
0.0
 10
-8008.744943430433
 20
-5544.091013816076
 30
0.0
 10
-8015.832644684171
 20
-5550.082446957323
 30
0.0
 10
-8037.095748445387
 20
-5568.056746381068
 30
0.0
 10
-8051.271150952871
 20
-5580.039612663561
 30
0.0
 10
-8093.797358475302
 20
-5615.988211511049
 30
0.0
 10
-8122.148163490263
 20
-5639.953944076043
 30
0.0
 10
-8207.212070906182
 20
-5711.860856595375
 30
0.0
 10
-8263.925173307147
 20
-5759.802036549718
 30
0.0
 10
-8348.99482690859
 20
-5831.713806481226
 30
0.0
 10
-8377.351378109077
 20
-5855.684396458395
 30
0.0
 10
-8419.886204909799
 20
-5891.640281424148
 30
0.0
 10
-8434.064480510042
 20
-5903.62557641273
 30
0.0
 10
-8448.685827222795
 20
-5915.985411869709
 30
0.0
 10
-8449.128898335297
 20
-5916.359952338102
 30
0.0
 10
-8450.015348541816
 20
-5917.109293620311
 30
0.0
 10
-8450.456861815339
 20
-5917.485968760637
 30
0.0
 10
-8451.82855105236
 20
-5918.565019003229
 30
0.0
 10
-8452.778649379321
 20
-5919.223403521749
 30
0.0
 10
-8455.75903336809
 20
-5921.033005833759
 30
0.0
 10
-8457.88448913537
 20
-5921.994294914786
 30
0.0
 10
-8462.314772045469
 20
-5923.394002245313
 30
0.0
 10
-8464.604704546513
 20
-5923.827674709025
 30
0.0
 10
-8469.262218918182
 20
-5924.160458367399
 30
0.0
 10
-8471.545807283564
 20
-5924.058646947319
 30
0.0
 10
-8478.464322213153
 20
-5922.963283484277
 30
0.0
 10
-8482.846117994766
 20
-5921.204223152534
 30
0.0
 10
-8487.65961498523
 20
-5917.938502862172
 30
0.0
 10
-8488.580630956869
 20
-5917.238365479492
 30
0.0
 10
-8490.478300652761
 20
-5915.629288930451
 30
0.0
 10
-8491.066845093545
 20
-5915.04608140682
 30
0.0
 10
-8493.629943582757
 20
-5912.456870218206
 30
0.0
 10
-8495.262563207241
 20
-5910.807617559271
 30
0.0
 10
-8549.12231833112
 20
-5856.39914236026
 30
0.0
 10
-8601.34945383052
 20
-5803.639919820186
 30
0.0
 10
-8679.690157079622
 20
-5724.501086010077
 30
0.0
 10
-8705.803724829322
 20
-5698.12147474004
 30
0.0
 10
-8738.44568451645
 20
-5665.146960652496
 30
0.0
 10
-8744.97407645387
 20
-5658.552057834987
 30
0.0
 10
-8751.865546800542
 20
-5651.590377586364
 30
0.0
 10
-8753.592570069432
 20
-5649.849454213753
 30
0.0
 10
-8754.750151586599
 20
-5648.634926054317
 30
0.0
 10
-8755.5113707179
 20
-5647.763334288348
 30
0.0
 10
-8757.694639166282
 20
-5645.032668131903
 30
0.0
 10
-8758.969417399265
 20
-5643.118486035703
 30
0.0
 10
-8762.322255296032
 20
-5636.989633546045
 30
0.0
 10
-8763.826371623527
 20
-5632.550976144671
 30
0.0
 10
-8765.242721775681
 20
-5623.35711727474
 30
0.0
 10
-8765.144347853628
 20
-5618.671200941334
 30
0.0
 10
-8763.342149541695
 20
-5609.544784016828
 30
0.0
 10
-8761.652606086984
 20
-5605.173935640214
 30
0.0
 10
-8758.043409452035
 20
-5599.192248040974
 30
0.0
 10
-8756.688805794543
 20
-5597.333986644094
 30
0.0
 10
-8754.291436838106
 20
-5594.583628026484
 30
0.0
 10
-8753.697517248078
 20
-5593.980933609091
 30
0.0
 10
-8751.94241664225
 20
-5592.238807783388
 30
0.0
 10
-8751.119162832383
 20
-5591.421639970608
 30
0.0
 10
-8747.002893783076
 20
-5587.335800906686
 30
0.0
 10
-8743.709878543614
 20
-5584.067129655563
 30
0.0
 10
-8634.969894863349
 20
-5476.131018627458
 30
0.0
 10
-8529.522926422705
 20
-5371.463578850314
 30
0.0
 10
-8424.075957981982
 20
-5266.79613907325
 30
0.0
  0
SPLINE
  5
5F
330
1F
100
AcDbEntity
  8
2D
100
AcDbSpline
210
0.0
220
0.0
230
1.0
 70
    15
 71
     2
 72
    20
 73
    17
 74
     0
 42
0.0000000001
 43
0.0000000001
 40
-76.31516318028595
 40
-76.31516318028595
 40
-76.31516318028595
 40
-0.0000000008090362
 40
-0.0000000008090362
 40
261.3867767284861
 40
261.3867767284861
 40
337.7019399078595
 40
337.7019399078595
 40
599.0887166358176
 40
599.0887166358176
 40
675.4038798166198
 40
675.4038798166198
 40
936.7906565443708
 40
936.7906565443708
 40
1013.105819724641
 40
1013.105819724641
 40
1274.492596451914
 40
1274.492596451914
 40
1274.492596451914
 10
-9434.657097059844
 20
-6218.997189108931
 30
0.0
 41
0.9999999999956266
 10
-9398.895196430529
 20
-6245.100334438502
 30
-0.0000000000000037
 41
0.8053864672095888
 10
-9363.340460630981
 20
-6218.715708328943
 30
0.0
 41
1.0
 10
-9257.561929089092
 20
-6140.219076516996
 30
0.0000000000000001
 41
0.9886318222813665
 10
-9179.902727874
 20
-6033.824211003624
 30
0.0
 41
1.0
 10
-9153.799582544181
 20
-5998.062310374436
 30
0.0000000000000047
 41
0.805386467207564
 10
-9180.184208653973
 20
-5962.507574574993
 30
0.0
 41
1.0
 10
-9258.680840465522
 20
-5856.729043033672
 30
0.0000000000000002
 41
0.9886318222814827
 10
-9365.075705978252
 20
-5779.069841818848
 30
0.0
 41
1.0
 10
-9400.837606608426
 20
-5752.966696488986
 30
0.0000000000000013
 41
0.8053864672076977
 10
-9436.392342408206
 20
-5779.351322599698
 30
0.0
 41
1.0
 10
-9542.170873949495
 20
-5857.847954411142
 30
0.0000000000000003
 41
0.9886318222813681
 10
-9619.830075164162
 20
-5964.242819923865
 30
0.0
 41
1.0
 10
-9645.933220494067
 20
-6000.004720553648
 30
0.0000000000000032
 41
0.8053864672073179
 10
-9619.548594383687
 20
-6035.559456353314
 30
0.0
 41
1.0
 10
-9541.051962572314
 20
-6141.337987894336
 30
-0.0000000000000003
 41
0.9886318222814838
 10
-9434.657097059844
 20
-6218.997189108931
 30
0.0
 41
1.0
  0
SPLINE
  5
60
330
1F
100
AcDbEntity
  8
2D
100
AcDbSpline
210
0.0
220
0.0
230
1.0
 70
    12
 71
     3
 72
    20
 73
    16
 74
     0
 42
0.0000000001
 43
0.0000000001
 40
0.0
 40
0.0
 40
0.0
 40
0.0
 40
22.1249212441067
 40
22.1249212441067
 40
33.33627397394775
 40
33.33627397394775
 40
44.4652073508346
 40
44.4652073508346
 40
55.40974866317593
 40
55.40974866317593
 40
66.26537615471524
 40
66.26537615471524
 40
77.14289584500341
 40
77.14289584500341
 40
87.99283041161505
 40
87.99283041161505
 40
87.99283041161505
 40
87.99283041161505
 10
-8434.188875837925
 20
-3422.98585271808
 30
0.0
 41
1.0
 10
-8426.918148710265
 20
-3423.88897681887
 30
0.0
 41
1.0
 10
-8419.634110493225
 20
-3424.646335986007
 30
0.0
 41
1.0
 10
-8408.612274106785
 20
-3425.477118275227
 30
0.0
 41
1.0
 10
-8404.90170068086
 20
-3425.703015685146
 30
0.0
 41
1.0
 10
-8397.493356303388
 20
-3426.021611114372
 30
0.0
 41
1.0
 10
-8393.800431269974
 20
-3426.115360170502
 30
0.0
 41
1.0
 10
-8386.461732029518
 20
-3426.137237093412
 30
0.0
 41
1.0
 10
-8382.82353247359
 20
-3426.068777140118
 30
0.0
 41
1.0
 10
-8375.565128886588
 20
-3425.723257863287
 30
0.0
 41
1.0
 10
-8371.957439097594
 20
-3425.449361388671
 30
0.0
 41
1.0
 10
-8364.729864979472
 20
-3424.616631157179
 30
0.0
 41
1.0
 10
-8361.133877146076
 20
-3424.06179744587
 30
0.0
 41
1.0
 10
-8353.96483020062
 20
-3422.535829729296
 30
0.0
 41
1.0
 10
-8350.328298543685
 20
-3421.546426633521
 30
0.0
 41
1.0
 10
-8346.843971200393
 20
-3420.252397153007
 30
0.0
 41
1.0
  0
LINE
  5
61
330
1F
100
AcDbEntity
  8
2D
100
AcDbLine
 10
-8346.843971200393
 20
-3420.252397153007
 30
0.0
 11
-8324.416339057094
 21
-3360.531973971444
 31
0.0
  0
LINE
  5
62
330
1F
100
AcDbEntity
  8
2D
100
AcDbLine
 10
-7808.702961361279
 20
-4619.49115049071
 30
0.0
 11
-7742.804870276635
 21
-4630.75638950348
 31
0.0
  0
SPLINE
  5
63
330
1F
100
AcDbEntity
  8
2D
100
AcDbSpline
210
0.0
220
0.0
230
1.0
 70
    12
 71
     3
 72
   114
 73
   110
 74
     0
 42
0.0000000001
 43
0.0000000001
 40
-2104.232761071341
 40
-2104.232761071341
 40
-2104.232761071341
 40
-2104.232761071341
 40
-2103.231506217482
 40
-2103.231506217482
 40
-2103.231506217482
 40
-1458.10180124095
 40
-1458.10180124095
 40
-1458.10180124095
 40
-1454.224689252526
 40
-1450.134111961245
 40
-1445.876127306508
 40
-1441.510968815992
 40
-1437.108859047322
 40
-1432.743636582507
 40
-1428.485536223527
 40
-1424.394811814991
 40
-1420.5175435563
 40
-1420.5175435563
 40
-1420.5175435563
 40
-1098.709719868914
 40
-1098.709719868914
 40
-916.8052934519951
 40
-916.8052934519951
 40
-871.3291868477654
 40
-871.3291868477654
 40
-859.9601601967082
 40
-859.9601601967082
 40
-854.2756468711793
 40
-854.2756468711793
 40
-853.8934682015415
 40
-853.8934682015415
 40
-853.8934682015415
 40
-846.456568609886
 40
-846.456568609886
 40
-842.7430986752307
 40
-842.7430986752307
 40
-839.0232162101656
 40
-839.0232162101656
 40
-831.5912841852046
 40
-831.5912841852046
 40
-824.1604397466691
 40
-824.1604397466691
 40
-820.3920890186636
 40
-820.3920890186636
 40
-816.6289786469173
 40
-816.6289786469173
 40
-809.0972597323265
 40
-809.0972597323265
 40
-794.0313853301151
 40
-794.0313853301151
 40
-786.4420941712269
 40
-786.4420941712269
 40
-778.8542711117594
 40
-778.8542711117594
 40
-763.6772713398148
 40
-763.6772713398148
 40
-756.0557938933806
 40
-756.0557938933806
 40
-748.4352285653453
 40
-748.4352285653453
 40
-733.1934421408123
 40
-733.1934421408123
 40
-717.936731650899
 40
-717.936731650899
 40
-710.3120103578088
 40
-710.3120103578088
 40
-702.6882586877008
 40
-702.6882586877008
 40
-687.501565607212
 40
-687.501565607212
 40
-679.9130179308531
 40
-679.9130179308531
 40
-672.3252847176144
 40
-672.3252847176144
 40
-664.8000117181012
 40
-664.8000117181012
 40
-657.2752722441905
 40
-657.2752722441905
 40
-653.5139535493657
 40
-653.5139535493657
 40
-649.7518657154023
 40
-649.7518657154023
 40
-642.2291635183825
 40
-642.2291635183825
 40
-634.7853256465895
 40
-634.7853256465895
 40
-627.3442797142575
 40
-627.3442797142575
 40
-623.622203631635
 40
-623.622203631635
 40
-619.9043388269178
 40
-619.9043388269178
 40
-616.180228454898
 40
-616.180228454898
 40
-612.4580436443684
 40
-612.4580436443684
 40
-612.4580436443684
 40
-37.58425768405753
 40
-37.58425768405753
 40
-37.58425768405753
 40
-33.70698942532858
 40
-29.6162650168012
 40
-25.35816465781206
 40
-20.99294219299705
 40
-16.59083242431404
 40
-12.22567393379618
 40
-7.967689279046567
 40
-3.877111987763067
 40
0.0
 40
0.0
 40
0.0
 40
0.0
 10
-7742.804870276635
 20
-4630.75638950348
 30
0.0
 41
1.0
 10
-7742.657433736811
 20
-4630.780283165785
 30
0.0
 41
1.0
 10
-7742.511389748313
 20
-4630.812134710854
 30
0.0
 41
1.0
 10
-7742.366889476925
 20
-4630.852040806251
 30
0.0
 41
1.0
 10
-7649.26230248783
 20
-4656.564381058026
 30
0.0
 41
1.0
 10
-7556.157715298516
 20
-4682.276722768705
 30
0.0
 41
1.0
 10
-7463.053127989933
 20
-4707.989064541076
 30
0.0
 41
1.0
 10
-7462.493586400702
 20
-4708.143591027141
 30
0.0
 41
1.0
 10
-7461.390546277307
 20
-4708.728503236795
 30
0.0
 41
1.0
 10
-7459.899708537534
 20
-4710.442994892721
 30
0.0
 41
1.0
 10
-7458.613314899678
 20
-4713.063992800106
 30
0.0
 41
1.0
 10
-7457.617865167969
 20
-4716.549863126825
 30
0.0
 41
1.0
 10
-7456.978327351524
 20
-4720.767593201683
 30
0.0
 41
1.0
 10
-7456.72660373506
 20
-4725.506782687634
 30
0.0
 41
1.0
 10
-7456.856298023955
 20
-4730.514159253585
 30
0.0
 41
1.0
 10
-7457.326175309663
 20
-4735.532834102528
 30
0.0
 41
1.0
 10
-7457.838946058404
 20
-4738.840703101494
 30
0.0
 41
1.0
 10
-7458.133403891752
 20
-4740.434388136068
 30
0.0
 41
1.0
 10
-7482.928214994416
 20
-4874.630555321071
 30
0.0
 41
1.0
 10
-7507.725379508473
 20
-5008.839459692561
 30
0.0
 41
1.0
 10
-7546.53511546789
 20
-5218.888159084437
 30
0.0
 41
1.0
 10
-7560.551338366127
 20
-5294.747715109872
 30
0.0
 41
1.0
 10
-7578.07008285353
 20
-5389.563861048469
 30
0.0
 41
1.0
 10
-7581.575762733632
 20
-5408.537532858652
 30
0.0
 41
1.0
 10
-7585.954543476244
 20
-5432.236686136114
 30
0.0
 41
1.0
 10
-7586.829963499073
 20
-5436.974640349414
 30
0.0
 41
1.0
 10
-7588.144941515198
 20
-5444.091798398168
 30
0.0
 41
1.0
 10
-7588.581746159663
 20
-5446.455450689931
 30
0.0
 41
1.0
 10
-7589.050176731984
 20
-5448.991566256749
 30
0.0
 41
1.0
 10
-7589.079669102201
 20
-5449.151145981864
 30
0.0
 41
1.0
 10
-7589.109185261394
 20
-5449.310608359597
 30
0.0
 41
1.0
 10
-7589.674103607915
 20
-5452.368098648798
 30
0.0
 41
1.0
 10
-7590.271095245302
 20
-5455.418903904894
 30
0.0
 41
1.0
 10
-7591.214531068999
 20
-5459.984590080081
 30
0.0
 41
1.0
 10
-7591.53671099283
 20
-5461.50339590161
 30
0.0
 41
1.0
 10
-7592.197648986159
 20
-5464.54042373417
 30
0.0
 41
1.0
 10
-7592.53638673716
 20
-5466.058428021656
 30
0.0
 41
1.0
 10
-7593.575900824453
 20
-5470.604172625812
 30
0.0
 41
1.0
 10
-7594.30035899721
 20
-5473.625580788889
 30
0.0
 41
1.0
 10
-7595.812980615712
 20
-5479.653945020285
 30
0.0
 41
1.0
 10
-7596.600719163867
 20
-5482.659220258631
 30
0.0
 41
1.0
 10
-7597.835772281866
 20
-5487.176966577469
 30
0.0
 41
1.0
 10
-7598.259420723403
 20
-5488.694817930841
 30
0.0
 41
1.0
 10
-7599.122337704091
 20
-5491.7240767838
 30
0.0
 41
1.0
 10
-7599.561524875851
 20
-5493.235272947695
 30
0.0
 41
1.0
 10
-7600.903928321484
 20
-5497.764320146255
 30
0.0
 41
1.0
 10
-7601.830976535759
 20
-5500.77412187255
 30
0.0
 41
1.0
 10
-7604.70910049124
 20
-5509.77669477846
 30
0.0
 41
1.0
 10
-7606.753421923964
 20
-5515.731415049358
 30
0.0
 41
1.0
 10
-7610.020343780929
 20
-5524.626927694389
 30
0.0
 41
1.0
 10
-7611.146363368247
 20
-5527.594326865386
 30
0.0
 41
1.0
 10
-7613.462175351084
 20
-5533.505588966992
 30
0.0
 41
1.0
 10
-7614.651296718923
 20
-5536.447738135324
 30
0.0
 41
1.0
 10
-7618.314055435392
 20
-5545.238208852787
 30
0.0
 41
1.0
 10
-7620.878536427666
 20
-5551.039890051728
 30
0.0
 41
1.0
 10
-7624.920252962493
 20
-5559.678813950101
 30
0.0
 41
1.0
 10
-7626.302037312507
 20
-5562.551458033649
 30
0.0
 41
1.0
 10
-7629.127708510499
 20
-5568.267759267412
 30
0.0
 41
1.0
 10
-7630.570757200509
 20
-5571.109753392356
 30
0.0
 41
1.0
 10
-7634.992446026215
 20
-5579.591007439035
 30
0.0
 41
1.0
 10
-7638.058216188201
 20
-5585.175464692456
 30
0.0
 41
1.0
 10
-7644.437323814531
 20
-5596.225849614065
 30
0.0
 41
1.0
 10
-7647.743445486867
 20
-5601.678742295887
 30
0.0
 41
1.0
 10
-7652.881293831317
 20
-5609.755764292535
 30
0.0
 41
1.0
 10
-7654.621780642894
 20
-5612.428049028695
 30
0.0
 41
1.0
 10
-7658.160585183174
 20
-5617.735750920797
 30
0.0
 41
1.0
 10
-7659.957862333689
 20
-5620.369620844899
 30
0.0
 41
1.0
 10
-7665.420983147462
 20
-5628.193707427065
 30
0.0
 41
1.0
 10
-7669.165333005545
 20
-5633.318864623997
 30
0.0
 41
1.0
 10
-7674.94917057145
 20
-5640.889758210415
 30
0.0
 41
1.0
 10
-7676.902713123152
 20
-5643.390927103166
 30
0.0
 41
1.0
 10
-7680.863773283341
 20
-5648.351933315436
 30
0.0
 41
1.0
 10
-7682.870132048014
 20
-5650.810341195273
 30
0.0
 41
1.0
 10
-7686.919410049701
 20
-5655.664856194464
 30
0.0
 41
1.0
 10
-7688.960726795882
 20
-5658.059934029838
 30
0.0
 41
1.0
 10
-7693.094737684511
 20
-5662.807234862145
 30
0.0
 41
1.0
 10
-7695.18623897243
 20
-5665.158115008834
 30
0.0
 41
1.0
 10
-7698.361143765385
 20
-5668.65127024033
 30
0.0
 41
1.0
 10
-7699.425345506959
 20
-5669.809716764115
 30
0.0
 41
1.0
 10
-7701.566340315916
 20
-5672.1156045883
 30
0.0
 41
1.0
 10
-7702.642982032045
 20
-5673.26287999617
 30
0.0
 41
1.0
 10
-7705.890879043804
 20
-5676.687181090995
 30
0.0
 41
1.0
 10
-7708.079586631862
 20
-5678.946166165843
 30
0.0
 41
1.0
 10
-7712.482460793934
 20
-5683.394785689249
 30
0.0
 41
1.0
 10
-7714.694903141
 20
-5685.583640065305
 30
0.0
 41
1.0
 10
-7719.165630538355
 20
-5689.914552953384
 30
0.0
 41
1.0
 10
-7721.4226590039
 20
-5692.055405817969
 30
0.0
 41
1.0
 10
-7724.842946153291
 20
-5695.231903432913
 30
0.0
 41
1.0
 10
-7725.988834593623
 20
-5696.28493402972
 30
0.0
 41
1.0
 10
-7728.29046343653
 20
-5698.377782264309
 30
0.0
 41
1.0
 10
-7729.44603037967
 20
-5699.41746700941
 30
0.0
 41
1.0
 10
-7731.770115523501
 20
-5701.48645450516
 30
0.0
 41
1.0
 10
-7732.938486984876
 20
-5702.515594125809
 30
0.0
 41
1.0
 10
-7735.285533631602
 20
-5704.561065626739
 30
0.0
 41
1.0
 10
-7736.464039935407
 20
-5705.577258803398
 30
0.0
 41
1.0
 10
-7737.647930176641
 20
-5706.587261445315
 30
0.0
 41
1.0
 10
-7920.453570530288
 20
-5862.542748942018
 30
0.0
 41
1.0
 10
-8103.25921088392
 20
-6018.498236438707
 30
0.0
 41
1.0
 10
-8286.064851237574
 20
-6174.453723935411
 30
0.0
 41
1.0
 10
-8287.297794057664
 20
-6175.505574404529
 30
0.0
 41
1.0
 10
-8289.906107293104
 20
-6177.603581372284
 30
0.0
 41
1.0
 10
-8294.017468606053
 20
-6180.519844415644
 30
0.0
 41
1.0
 10
-8298.289136823088
 20
-6183.135851193982
 30
0.0
 41
1.0
 10
-8302.519257170909
 20
-6185.287446834452
 30
0.0
 41
1.0
 10
-8306.491687528895
 20
-6186.842455811468
 30
0.0
 41
1.0
 10
-8310.008264687527
 20
-6187.723306182965
 30
0.0
 41
1.0
 10
-8312.921312387709
 20
-6187.919755436911
 30
0.0
 41
1.0
 10
-8315.151524413795
 20
-6187.485898132162
 30
0.0
 41
1.0
 10
-8316.209593841962
 20
-6186.823092803678
 30
0.0
 41
1.0
 10
-8316.623188510184
 20
-6186.415778803823
 30
0.0
 41
1.0
  0
LINE
  5
64
330
1F
100
AcDbEntity
  8
2D
100
AcDbLine
 10
-8316.623188510184
 20
-6186.415778803823
 30
0.0
 11
-8523.082692829554
 21
-5983.09147853359
 31
0.0
  0
LINE
  5
65
330
1F
100
AcDbEntity
  8
2D
100
AcDbLine
 10
-10560.91074799517
 20
-4631.280960765731
 30
0.0
 11
-10494.9780630708
 21
-4620.009922911133
 31
0.0
  0
SPLINE
  5
66
330
1F
100
AcDbEntity
  8
2D
100
AcDbSpline
210
0.0
220
0.0
230
1.0
 70
    12
 71
     3
 72
    74
 73
    70
 74
     0
 42
0.0000000001
 43
0.0000000001
 40
-1404.933144929871
 40
-1404.933144929871
 40
-1404.933144929871
 40
-1404.933144929871
 40
-1263.154113461981
 40
-1263.154113461981
 40
-1263.154113461981
 40
-1256.94031704201
 40
-1256.94031704201
 40
-1250.339366976568
 40
-1250.339366976568
 40
-1243.455089759182
 40
-1243.455089759182
 40
-1239.953934709865
 40
-1239.953934709865
 40
-1236.459474806944
 40
-1236.459474806944
 40
-1229.416076254392
 40
-1229.416076254392
 40
-1222.510423687456
 40
-1222.510423687456
 40
-1219.213335437213
 40
-1219.213335437213
 40
-1215.928054360278
 40
-1215.928054360278
 40
-1209.685279774024
 40
-1209.685279774024
 40
-1209.685279774024
 40
-810.3366133341538
 40
-810.3366133341538
 40
-810.3366133341538
 40
-808.887405119463
 40
-808.887405119463
 40
-808.887405119463
 40
-755.7378500104833
 40
-755.7378500104833
 40
-702.6860860216559
 40
-702.6860860216559
 40
-649.5768098281218
 40
-649.5768098281218
 40
-596.3744048056063
 40
-596.3744048056063
 40
-596.3744048056063
 40
-596.0776547234465
 40
-596.0776547234465
 40
-596.0776547234465
 40
-195.2797371357408
 40
-195.2797371357408
 40
-195.2797371357408
 40
-189.040112961436
 40
-189.040112961436
 40
-182.4155345515019
 40
-182.4155345515019
 40
-175.5125546237041
 40
-175.5125546237041
 40
-172.0054484074368
 40
-172.0054484074368
 40
-168.5052810654445
 40
-168.5052810654445
 40
-161.4708570930416
 40
-161.4708570930416
 40
-154.5840290046282
 40
-154.5840290046282
 40
-151.2935772250044
 40
-151.2935772250044
 40
-148.01525604306
 40
-148.01525604306
 40
-141.8006897078931
 40
-141.8006897078931
 40
-141.8006897078931
 40
0.0
 40
0.0
 40
0.0
 40
0.0
 10
-10521.23541920468
 20
-4835.755543260486
 30
0.0
 41
1.0
 10
-10540.47464720538
 20
-4840.794611756505
 30
0.0
 41
1.0
 10
-10559.71387520611
 20
-4845.833680252536
 30
0.0
 41
1.0
 10
-10578.95310320683
 20
-4850.872748748565
 30
0.0
 41
1.0
 10
-10579.80202198509
 20
-4851.095094461764
 30
0.0
 41
1.0
 10
-10580.59380493801
 20
-4851.530456895902
 30
0.0
 41
1.0
 10
-10582.1500676924
 20
-4852.889247459386
 30
0.0
 41
1.0
 10
-10582.87377863595
 20
-4853.809101874735
 30
0.0
 41
1.0
 10
-10584.23504309261
 20
-4856.189159501904
 30
0.0
 41
1.0
 10
-10584.83362139122
 20
-4857.610666962804
 30
0.0
 41
1.0
 10
-10585.61910347575
 20
-4860.130645288841
 30
0.0
 41
1.0
 10
-10585.85812041776
 20
-4861.029395576031
 30
0.0
 41
1.0
 10
-10586.28804832668
 20
-4862.937625217639
 30
0.0
 41
1.0
 10
-10586.47622528261
 20
-4863.9343585263
 30
0.0
 41
1.0
 10
-10586.96812414055
 20
-4867.094913586036
 30
0.0
 41
1.0
 10
-10587.18473099325
 20
-4869.329321945301
 30
0.0
 41
1.0
 10
-10587.40551957172
 20
-4874.134186760191
 30
0.0
 41
1.0
 10
-10587.40817036697
 20
-4876.578347918223
 30
0.0
 41
1.0
 10
-10587.25481198921
 20
-4880.394762152621
 30
0.0
 41
1.0
 10
-10587.1813058202
 20
-4881.638417749731
 30
0.0
 41
1.0
 10
-10586.98572901524
 20
-4884.159272617091
 30
0.0
 41
1.0
 10
-10586.86495785092
 20
-4885.421826101891
 30
0.0
 41
1.0
 10
-10586.44509063448
 20
-4889.12162041051
 30
0.0
 41
1.0
 10
-10586.09342044143
 20
-4891.51692548233
 30
0.0
 41
1.0
 10
-10585.65639406584
 20
-4893.942644035035
 30
0.0
 41
1.0
 10
-10557.88618377396
 20
-5048.081428515688
 30
0.0
 41
1.0
 10
-10530.11597348208
 20
-5202.220212996341
 30
0.0
 41
1.0
 10
-10502.34576318995
 20
-5356.358997476953
 30
0.0
 41
1.0
 10
-10502.24498704978
 20
-5356.918356285816
 30
0.0
 41
1.0
 10
-10502.14317776308
 20
-5357.476154823417
 30
0.0
 41
1.0
 10
-10502.03984904028
 20
-5358.035054754355
 30
0.0
 41
1.0
 10
-10498.24831029173
 20
-5378.543299581052
 30
0.0
 41
1.0
 10
-10492.72075133582
 20
-5398.688435677524
 30
0.0
 41
1.0
 10
-10478.27939804599
 20
-5437.791878550486
 30
0.0
 41
1.0
 10
-10469.40527310341
 20
-5456.662154371526
 30
0.0
 41
1.0
 10
-10448.49170302757
 20
-5492.707562440934
 30
0.0
 41
1.0
 10
-10436.50215077378
 20
-5509.789809350541
 30
0.0
 41
1.0
 10
-10409.68955642161
 20
-5541.763192682147
 30
0.0
 41
1.0
 10
-10394.92286761144
 20
-5556.573899501548
 30
0.0
 41
1.0
 10
-10378.98101662183
 20
-5570.052400180774
 30
0.0
 41
1.0
 10
-10378.89256392516
 20
-5570.127185080878
 30
0.0
 41
1.0
 10
-10378.8041106895
 20
-5570.201969428189
 30
0.0
 41
1.0
 10
-10378.71565691497
 20
-5570.276753223009
 30
0.0
 41
1.0
 10
-10258.67861615887
 20
-5671.762817262615
 30
0.0
 41
1.0
 10
-10138.64157540277
 20
-5773.248881302226
 30
0.0
 41
1.0
 10
-10018.60453464667
 20
-5874.734945341836
 30
0.0
 41
1.0
 10
-10016.72363687642
 20
-5876.325162081283
 30
0.0
 41
1.0
 10
-10014.82639561443
 20
-5877.826396111478
 30
0.0
 41
1.0
 10
-10010.78470190474
 20
-5880.814591127691
 30
0.0
 41
1.0
 10
-10008.7247060832
 20
-5882.226914639885
 30
0.0
 41
1.0
 10
-10004.44504833882
 20
-5884.932613724377
 30
0.0
 41
1.0
 10
-10002.32817589727
 20
-5886.151848041853
 30
0.0
 41
1.0
 10
-9999.14086221084
 20
-5887.802104132027
 30
0.0
 41
1.0
 10
-9998.088806603937
 20
-5888.314299170209
 30
0.0
 41
1.0
 10
-9996.013600558388
 20
-5889.258243090007
 30
0.0
 41
1.0
 10
-9995.003995438059
 20
-5889.683963168399
 30
0.0
 41
1.0
 10
-9992.022597146872
 20
-5890.837430682651
 30
0.0
 41
1.0
 10
-9990.183895575105
 20
-5891.410264810952
 30
0.0
 41
1.0
 10
-9986.732297583472
 20
-5892.187838984746
 30
0.0
 41
1.0
 10
-9985.201469867814
 20
-5892.380510851789
 30
0.0
 41
1.0
 10
-9983.132310129502
 20
-5892.389269436984
 30
0.0
 41
1.0
 10
-9982.50596260469
 20
-5892.348419963765
 30
0.0
 41
1.0
 10
-9981.331946043862
 20
-5892.178968804372
 30
0.0
 41
1.0
 10
-9980.790871968962
 20
-5892.051680009793
 30
0.0
 41
1.0
 10
-9979.343079221613
 20
-5891.556632311265
 30
0.0
 41
1.0
 10
-9978.570230692061
 20
-5891.088633105515
 30
0.0
 41
1.0
 10
-9977.95326576084
 20
-5890.464672812211
 30
0.0
 41
1.0
 10
-9963.967554396815
 20
-5876.320386608591
 30
0.0
 41
1.0
 10
-9949.98184234642
 20
-5862.176101000661
 30
0.0
 41
1.0
 10
-9935.996130868985
 20
-5848.031814906288
 30
0.0
 41
1.0
  0
SPLINE
  5
67
330
1F
100
AcDbEntity
  8
2D
100
AcDbSpline
210
0.0
220
0.0
230
1.0
 70
    12
 71
     3
 72
    13
 73
     9
 74
     0
 42
0.0000000001
 43
0.0000000001
 40
-22.37678726775432
 40
-22.37678726775432
 40
-22.37678726775432
 40
-22.37678726775432
 40
0.0
 40
0.0
 40
0.0
 40
11.91859046897662
 40
11.91859046897662
 40
23.8401121557503
 40
23.8401121557503
 40
23.8401121557503
 40
23.8401121557503
 10
-8524.459579983308
 20
-5881.31314326268
 30
0.0
 41
1.0
 10
-8530.501622667141
 20
-5885.694048167627
 30
0.0
 41
0.9992515405847255
 10
-8536.329349259659
 20
-5890.356259053287
 30
0.0
 41
0.9992515405847255
 10
-8541.929674310104
 20
-5895.289307492551
 30
0.0
 41
1.0
 10
-8544.913198823273
 20
-5897.917346188617
 30
0.0
 41
1.0
 10
-8547.825015802588
 20
-5900.615371835125
 30
0.0
 41
1.0
 10
-8553.481604873388
 20
-5906.207140047787
 30
0.0
 41
1.0
 10
-8556.212596865018
 20
-5909.084452778195
 30
0.0
 41
1.0
 10
-8558.826551051814
 20
-5912.083722259962
 30
0.0
 41
1.0
  0
SPLINE
  5
68
330
1F
100
AcDbEntity
  8
2D
100
AcDbSpline
210
0.0
220
0.0
230
1.0
 70
     8
 71
     3
 72
    15
 73
    11
 74
     0
 42
0.0000000001
 43
0.0000000001
 40
-22.22792923866373
 40
-22.22792923866373
 40
-22.22792923866373
 40
-22.22792923866373
 40
-18.25920162836036
 40
-14.52812833383684
 40
-11.14712245144583
 40
-8.177032736294844
 40
-5.647769606797183
 40
-3.499443217655169
 40
-1.681337782049564
 40
0.0
 40
0.0
 40
0.0
 40
0.0
 10
-8558.826551051814
 20
-5912.083722259962
 30
0.0
 10
-8559.695661271286
 20
-5913.081024159084
 30
0.0
 10
-8561.32340369614
 20
-5915.067225819154
 30
0.0
 10
-8563.45568215568
 20
-5918.086480577085
 30
0.0
 10
-8565.153603464689
 20
-5920.991036139751
 30
0.0
 10
-8566.36692517663
 20
-5923.696988584808
 30
0.0
 10
-8567.074915225767
 20
-5926.154383340292
 30
0.0
 10
-8567.263003726872
 20
-5928.325569711577
 30
0.0
 10
-8566.896183904788
 20
-5930.198354121043
 30
0.0
 10
-8566.243692197128
 20
-5931.196470018772
 30
0.0
 10
-8565.842978691177
 20
-5931.587944153189
 30
0.0
  0
LINE
  5
69
330
1F
100
AcDbEntity
  8
2D
100
AcDbLine
 10
-8565.842978691177
 20
-5931.587944153189
 30
0.0
 11
-8354.943136275211
 21
-6139.285153481152
 31
0.0
  0
SPLINE
  5
6A
330
1F
100
AcDbEntity
  8
2D
100
AcDbSpline
210
0.0
220
0.0
230
1.0
 70
     8
 71
     3
 72
    18
 73
    14
 74
     0
 42
0.0000000001
 43
0.0000000001
 40
-35.35539123921625
 40
-35.35539123921625
 40
-35.35539123921625
 40
-35.35539123921625
 40
-31.11830972989371
 40
-31.11830972989371
 40
-26.79514560142455
 40
-26.79514560142455
 40
-18.04480821996744
 40
-18.04480821996744
 40
-13.53334271250482
 40
-13.53334271250482
 40
-9.028913060418931
 40
-9.028913060418931
 40
0.0
 40
0.0
 40
0.0
 40
0.0
 10
-8354.943136275211
 20
-6139.285153481152
 30
0.0
 10
-8353.881856473123
 20
-6140.330317149966
 30
0.0
 10
-8352.340558975218
 20
-6140.64701985449
 30
0.0
 10
-8349.557574466995
 20
-6140.733731256342
 30
0.0
 10
-8348.038198155034
 20
-6140.491975692373
 30
0.0
 10
-8343.949489952796
 20
-6139.482736027464
 30
0.0
 10
-8341.144748721734
 20
-6138.297632609651
 30
0.0
 10
-8337.364822465981
 20
-6136.368818933183
 30
0.0
 10
-8336.10839367902
 20
-6135.665302847888
 30
0.0
 10
-8333.63671990469
 20
-6134.178359234084
 30
0.0
 10
-8332.428359539485
 20
-6133.397872641011
 30
0.0
 10
-8328.857778478374
 20
-6130.949517150828
 30
0.0
 10
-8326.581824229765
 20
-6129.197428826756
 30
0.0
 10
-8324.384800354313
 20
-6127.323098055707
 30
0.0
  0
SPLINE
  5
6B
330
1F
100
AcDbEntity
  8
2D
100
AcDbSpline
210
0.0
220
0.0
230
1.0
 70
     8
 71
     3
 72
     8
 73
     4
 74
     0
 42
0.0000000001
 43
0.0000000001
 40
0.0
 40
0.0
 40
0.0
 40
0.0
 40
703.4685325876796
 40
703.4685325876796
 40
703.4685325876796
 40
703.4685325876796
 10
-8324.384800354313
 20
-6127.323098055707
 30
0.0
 10
-8145.99313950539
 20
-5975.133262850172
 30
0.0
 10
-7967.601474410108
 20
-5822.943431461661
 30
0.0
 10
-7789.209815553728
 20
-5670.753593373244
 30
0.0
  0
SPLINE
  5
6C
330
1F
100
AcDbEntity
  8
2D
100
AcDbSpline
210
0.0
220
0.0
230
1.0
 70
     8
 71
     3
 72
   104
 73
   100
 74
     0
 42
0.0000000001
 43
0.0000000001
 40
-1349.853033489559
 40
-1349.853033489559
 40
-1349.853033489559
 40
-1349.853033489559
 40
-1339.151645864574
 40
-1339.151645864574
 40
-1328.463105877333
 40
-1328.463105877333
 40
-1307.075155385185
 40
-1307.075155385185
 40
-1285.636925304246
 40
-1285.636925304246
 40
-1264.234432768788
 40
-1264.234432768788
 40
-1242.818717982515
 40
-1242.818717982515
 40
-1221.397072147413
 40
-1221.397072147413
 40
-1199.995348192595
 40
-1199.995348192595
 40
-1189.274122328231
 40
-1189.274122328231
 40
-1178.596629635933
 40
-1178.596629635933
 40
-1157.184407776342
 40
-1157.184407776342
 40
-1135.785727110786
 40
-1135.785727110786
 40
-1125.088631147669
 40
-1125.088631147669
 40
-1114.387715617206
 40
-1114.387715617206
 40
-1092.990751273584
 40
-1092.990751273584
 40
-1071.583937762079
 40
-1071.583937762079
 40
-1066.227529436511
 40
-1066.227529436511
 40
-1060.880444373706
 40
-1060.880444373706
 40
-1050.186417407609
 40
-1050.186417407609
 40
-1007.40893502114
 40
-1007.40893502114
 40
-665.3227461492417
 40
-665.3227461492417
 40
-494.1223712505985
 40
-494.1223712505985
 40
-408.5466155769624
 40
-408.5466155769624
 40
-365.7587376576348
 40
-365.7587376576348
 40
-344.3647986721296
 40
-344.3647986721296
 40
-339.0164654025749
 40
-339.0164654025749
 40
-333.2560323660123
 40
-333.2560323660123
 40
-327.8686707149083
 40
-327.8686707149083
 40
-322.448146748302
 40
-322.448146748302
 40
-312.0447211468383
 40
-312.0447211468383
 40
-306.9543382196562
 40
-306.9543382196562
 40
-304.3955738100038
 40
-304.3955738100038
 40
-303.7678184082365
 40
-303.7678184082365
 40
-303.1417405348247
 40
-303.1417405348247
 40
-301.8895847880215
 40
-301.8895847880215
 40
-281.8550928385199
 40
-281.8550928385199
 40
-241.7861089369906
 40
-241.7861089369906
 40
-161.6481410514554
 40
-161.6481410514554
 40
-80.98719037857613
 40
-80.98719037857613
 40
-40.65671506868263
 40
-40.65671506868263
 40
-30.5740962466409
 40
-30.5740962466409
 40
-25.53278683661235
 40
-25.53278683661235
 40
-23.01213213185696
 40
-23.01213213185696
 40
-22.3819684556904
 40
-22.3819684556904
 40
-21.7482897336714
 40
-21.7482897336714
 40
-20.47292752625104
 40
-20.47292752625104
 40
-15.54990080473272
 40
-15.54990080473272
 40
-10.3832496299725
 40
-10.3832496299725
 40
0.0
 40
0.0
 40
0.0
 40
0.0
 10
-7789.209815553728
 20
-5670.753593373244
 30
0.0
 10
-7786.534548473242
 20
-5668.471004799138
 30
0.0
 10
-7783.859760537151
 20
-5666.187855820632
 30
0.0
 10
-7778.514385937302
 20
-5661.623138306451
 30
0.0
 10
-7775.836195830609
 20
-5659.350722071758
 30
0.0
 10
-7767.907608072073
 20
-5652.403124205774
 30
0.0
 10
-7762.755725051913
 20
-5647.636560407915
 30
0.0
 10
-7752.692100534365
 20
-5637.796500253353
 30
0.0
 10
-7747.798487502845
 20
-5632.742255179814
 30
0.0
 10
-7738.287145423023
 20
-5622.360848734199
 30
0.0
 10
-7733.686814363737
 20
-5617.053806114693
 30
0.0
 10
-7724.765407988325
 20
-5606.170814100509
 30
0.0
 10
-7720.461490656391
 20
-5600.615239977328
 30
0.0
 10
-7712.14966674861
 20
-5589.252049833023
 30
0.0
 10
-7708.157672619422
 20
-5583.465937311058
 30
0.0
 10
-7700.488049125986
 20
-5571.665260802247
 30
0.0
 10
-7696.824907928287
 20
-5565.673208222678
 30
0.0
 10
-7691.568816245603
 20
-5556.51731040157
 30
0.0
 10
-7689.857333506992
 20
-5553.438854345284
 30
0.0
 10
-7686.525945840342
 20
-5547.245165491995
 30
0.0
 10
-7684.907461794759
 20
-5544.132991715715
 30
0.0
 10
-7680.16945482689
 20
-5534.710808543911
 30
0.0
 10
-7677.187008086217
 20
-5528.348688352912
 30
0.0
 10
-7671.569281425185
 20
-5515.448889021678
 30
0.0
 10
-7668.943419022336
 20
-5508.93622582545
 30
0.0
 10
-7665.270761592252
 20
-5499.047805392556
 30
0.0
 10
-7664.09245361033
 20
-5495.736902141771
 30
0.0
 10
-7661.825784548117
 20
-5489.079645072484
 30
0.0
 10
-7660.738758303403
 20
-5485.736348279544
 30
0.0
 10
-7657.614658598821
 20
-5475.660452323918
 30
0.0
 10
-7655.720789186078
 20
-5468.899045143705
 30
0.0
 10
-7652.297176710224
 20
-5455.25443137409
 30
0.0
 10
-7650.777920822355
 20
-5448.395769335571
 30
0.0
 10
-7649.104802984784
 20
-5439.760763605209
 30
0.0
 10
-7648.784672112964
 20
-5438.029839159809
 30
0.0
 10
-7648.143440336669
 20
-5434.571212463145
 30
0.0
 10
-7647.823342098633
 20
-5432.843361308408
 30
0.0
 10
-7646.863613736456
 20
-5427.659750647108
 30
0.0
 10
-7646.224541479594
 20
-5424.20388819105
 30
0.0
 10
-7643.030718533944
 20
-5406.923831394096
 30
0.0
 10
-7640.477174331307
 20
-5393.099414361948
 30
0.0
 10
-7617.496909970843
 20
-5268.724031628569
 30
0.0
 10
-7597.070894839355
 20
-5158.172935683957
 30
0.0
 10
-7566.422481196842
 20
-4992.295463798406
 30
0.0
 10
-7556.200082525193
 20
-4936.969087887145
 30
0.0
 10
-7540.867943467903
 20
-4853.987419549921
 30
0.0
 10
-7535.758203019544
 20
-4826.332127135548
 30
0.0
 10
-7528.093592382527
 20
-4784.849188479849
 30
0.0
 10
-7525.538722173642
 20
-4771.021542242261
 30
0.0
 10
-7521.70641687002
 20
-4750.280072875449
 30
0.0
 10
-7520.428981769666
 20
-4743.366249747265
 30
0.0
 10
-7518.832196941385
 20
-4734.724019788947
 30
0.0
 10
-7518.512904689025
 20
-4732.99560234083
 30
0.0
 10
-7517.84941688045
 20
-4729.405645071182
 30
0.0
 10
-7517.607209132726
 20
-4727.932879857485
 30
0.0
 10
-7517.149527277234
 20
-4724.296919683103
 30
0.0
 10
-7516.985077936191
 20
-4722.537498656819
 30
0.0
 10
-7516.778626755779
 20
-4718.990347896111
 30
0.0
 10
-7516.738455143826
 20
-4717.214104873941
 30
0.0
 10
-7516.845723576993
 20
-4712.011951798664
 30
0.0
 10
-7517.218790818308
 20
-4708.130612586397
 30
0.0
 10
-7518.715246526783
 20
-4703.198191261187
 30
0.0
 10
-7519.467799853122
 20
-4701.36953925078
 30
0.0
 10
-7521.163051872547
 20
-4699.371765194402
 30
0.0
 10
-7521.861389775902
 20
-4698.787954155032
 30
0.0
 10
-7522.909828822263
 20
-4698.397032827157
 30
0.0
 10
-7523.122194895306
 20
-4698.342707903919
 30
0.0
 10
-7523.545056174884
 20
-4698.22592790224
 30
0.0
 10
-7523.756203937428
 20
-4698.167616022539
 30
0.0
 10
-7524.389647225074
 20
-4697.992680383435
 30
0.0
 10
-7524.811942750162
 20
-4697.876056624032
 30
0.0
 10
-7531.990966677
 20
-4695.893452714142
 30
0.0
 10
-7538.747695078779
 20
-4694.027472563798
 30
0.0
 10
-7559.017880285686
 20
-4688.429532115068
 30
0.0
 10
-7572.531337091521
 20
-4684.697571819228
 30
0.0
 10
-7613.071707544306
 20
-4673.501690951152
 30
0.0
 10
-7640.098621198766
 20
-4666.037770406046
 30
0.0
 10
-7694.328827003683
 20
-4651.061219709238
 30
0.0
 10
-7721.532119154432
 20
-4643.5485895586
 30
0.0
 10
-7762.337057424851
 20
-4632.279644527876
 30
0.0
 10
-7775.938703517899
 20
-4628.523329551411
 30
0.0
 10
-7792.940761145455
 20
-4623.82793587869
 30
0.0
 10
-7796.341172670149
 20
-4622.888857146922
 30
0.0
 10
-7801.44178995788
 20
-4621.480239053045
 30
0.0
 10
-7803.141995720402
 20
-4621.010699689093
 30
0.0
 10
-7805.692304364358
 20
-4620.306390644131
 30
0.0
 10
-7806.542407245663
 20
-4620.071620962651
 30
0.0
 10
-7807.60503584734
 20
-4619.778158860999
 30
0.0
 10
-7807.81756156767
 20
-4619.719466440679
 30
0.0
 10
-7808.243798474392
 20
-4619.601754214407
 30
0.0
 10
-7808.455902543308
 20
-4619.538439142465
 30
0.0
 10
-7809.114170177218
 20
-4619.412919562921
 30
0.0
 10
-7809.540701144197
 20
-4619.40278059935
 30
0.0
 10
-7811.696451484295
 20
-4619.668655162984
 30
0.0
 10
-7813.245732704545
 20
-4620.844104881132
 30
0.0
 10
-7815.562883301904
 20
-4623.173729511823
 30
0.0
 10
-7816.603804598763
 20
-4624.617562889882
 30
0.0
 10
-7819.232105885927
 20
-4628.9077192269
 30
0.0
 10
-7820.649685793967
 20
-4632.240816331374
 30
0.0
 10
-7821.733326497935
 20
-4635.400800461354
 30
0.0
  0
SPLINE
  5
6D
330
1F
100
AcDbEntity
  8
2D
100
AcDbSpline
210
0.0
220
0.0
230
1.0
 70
    12
 71
     3
 72
    13
 73
     9
 74
     0
 42
0.0000000001
 43
0.0000000001
 40
-23.84135470837718
 40
-23.84135470837718
 40
-23.84135470837718
 40
-23.84135470837718
 40
-11.91835862800213
 40
-11.91835862800213
 40
-0.0000000000011381
 40
-0.0000000000011381
 40
-0.0000000000011381
 40
22.381932403779
 40
22.381932403779
 40
22.381932403779
 40
22.381932403779
 10
-7821.733326497935
 20
-4635.400800461354
 30
0.0
 41
1.0
 10
-7823.023378126807
 20
-4639.164581947481
 30
0.0
 41
1.0
 10
-7824.15030799231
 20
-4642.968473047335
 30
0.0
 41
1.0
 10
-7826.164424996419
 20
-4650.663157212763
 30
0.0
 41
1.0
 10
-7827.04565064632
 20
-4654.533447740216
 30
0.0
 41
1.0
 10
-7827.829274615633
 20
-4658.431133516536
 30
0.0
 41
1.0
 10
-7829.300690848649
 20
-4665.749845484123
 30
0.0
 41
0.9991993498759063
 10
-7830.411759803364
 20
-4673.131859868637
 30
0.0
 41
0.9991993498759063
 10
-7831.159812747286
 20
-4680.559445437874
 30
0.0
 41
1.0
  0
SPLINE
  5
6E
330
1F
100
AcDbEntity
  8
2D
100
AcDbSpline
210
0.0
220
0.0
230
1.0
 70
    15
 71
     2
 72
    20
 73
    17
 74
     0
 42
0.0000000001
 43
0.0000000001
 40
-76.31516318027954
 40
-76.31516318027954
 40
-76.31516318027954
 40
-0.0000000008038416
 40
-0.0000000008038416
 40
261.3867767284917
 40
261.3867767284917
 40
337.7019399078617
 40
337.7019399078617
 40
599.0887166358176
 40
599.0887166358176
 40
675.4038798166248
 40
675.4038798166248
 40
936.790656544373
 40
936.790656544373
 40
1013.105819724643
 40
1013.105819724643
 40
1274.49259645191
 40
1274.49259645191
 40
1274.49259645191
 10
-7711.486436873005
 20
-4213.564673736289
 30
0.0
 41
0.9999999999956546
 10
-7706.761400213576
 20
-4169.542386638892
 30
-0.0000000000000037
 41
0.8053864672095749
 10
-7747.388524593578
 20
-4151.943395266428
 30
0.0
 41
1.0
 10
-7868.257867625172
 20
-4099.584815682108
 30
0.0000000000000001
 41
0.9886318222813665
 10
-7999.228124599536
 20
-4085.52740734892
 30
0.0
 41
1.0
 10
-8043.250411696949
 20
-4080.80237068921
 30
0.0000000000000047
 41
0.805386467207564
 10
-8060.849403069205
 20
-4121.429495069367
 30
0.0
 41
1.0
 10
-8113.207982653231
 20
-4242.298838100346
 30
0.0000000000000002
 41
0.9886318222814827
 10
-8127.265390986508
 20
-4373.269095074009
 30
0.0
 41
1.0
 10
-8131.990427645763
 20
-4417.291382172288
 30
0.0000000000000013
 41
0.8053864672076977
 10
-8091.363303264636
 20
-4434.890373544384
 30
0.0
 41
1.0
 10
-7970.49396023377
 20
-4487.248953128431
 30
0.0000000000000003
 41
0.9886318222813681
 10
-7839.523703260191
 20
-4501.306361461577
 30
0.0
 41
1.0
 10
-7795.501416162227
 20
-4506.031398121065
 30
0.0000000000000032
 41
0.8053864672073179
 10
-7777.902424790063
 20
-4465.404273740288
 30
0.0
 41
1.0
 10
-7725.543845206221
 20
-4344.534930709609
 30
-0.0000000000000003
 41
0.9886318222814838
 10
-7711.486436873001
 20
-4213.564673736289
 30
0.0
 41
1.0
  0
SPLINE
  5
6F
330
1F
100
AcDbEntity
  8
2D
100
AcDbSpline
210
0.0
220
0.0
230
1.0
 70
    11
 71
     3
 72
   176
 73
   172
 74
     0
 42
0.0000000001
 43
0.0000000001
 40
-3563.966855952285
 40
-3563.966855952285
 40
-3563.966855952285
 40
-3563.966855952285
 40
-3508.271767811907
 40
-3508.271767811907
 40
-3452.565856027305
 40
-3452.565856027305
 40
-3424.699932251499
 40
-3424.699932251499
 40
-3396.828334803536
 40
-3396.828334803536
 40
-3341.118494592513
 40
-3341.118494592513
 40
-3334.157080964225
 40
-3334.157080964225
 40
-3327.195995619194
 40
-3327.195995619194
 40
-3313.273824929126
 40
-3313.273824929126
 40
-3285.429483548996
 40
-3285.429483548996
 40
-3229.740800788752
 40
-3229.740800788752
 40
-3118.363435268292
 40
-3118.363435268292
 40
-2895.936741929082
 40
-2895.936741929082
 40
-2882.035073595372
 40
-2882.035073595372
 40
-2878.559656511959
 40
-2878.559656511959
 40
-2876.604767662475
 40
-2876.604767662475
 40
-2869.613056353576
 40
-2869.613056353576
 40
-2855.680101160778
 40
-2855.680101160778
 40
-2841.747636227854
 40
-2841.747636227854
 40
-2827.81557698145
 40
-2827.81557698145
 40
-2820.823592738114
 40
-2820.823592738114
 40
-2817.343727428006
 40
-2817.343727428006
 40
-2813.321798041388
 40
-2813.321798041388
 40
-2785.501401918614
 40
-2785.501401918614
 40
-2674.219817427488
 40
-2674.219817427488
 40
-2451.47483823262
 40
-2451.47483823262
 40
-2444.51405763278
 40
-2444.51405763278
 40
-2442.773862482822
 40
-2442.773862482822
 40
-2441.029256150191
 40
-2441.029256150191
 40
-2437.545933518197
 40
-2437.545933518197
 40
-2423.594392802814
 40
-2423.594392802814
 40
-2416.571235797109
 40
-2416.571235797109
 40
-2409.614803217447
 40
-2409.614803217447
 40
-2402.653628259648
 40
-2402.653628259648
 40
-2399.171471656908
 40
-2399.171471656908
 40
-2395.395368472945
 40
-2395.395368472945
 40
-2381.487620942769
 40
-2381.487620942769
 40
-2367.579787783285
 40
-2367.579787783285
 40
-2339.764121464327
 40
-2339.764121464327
 40
-2228.501456188491
 40
-2228.501456188491
 40
-2005.879624946666
 40
-2005.879624946666
 40
-1894.568709325764
 40
-1894.568709325764
 40
-1838.913251515302
 40
-1838.913251515302
 40
-1811.085522610072
 40
-1811.085522610072
 40
-1797.171658157457
 40
-1797.171658157457
 40
-1790.21479794033
 40
-1790.21479794033
 40
-1783.258595169053
 40
-1783.258595169053
 40
-1755.400078980929
 40
-1755.400078980929
 40
-1727.542732735104
 40
-1727.542732735104
 40
-1699.680057249774
 40
-1699.680057249774
 40
-1671.820200550747
 40
-1671.820200550747
 40
-1616.139637039238
 40
-1616.139637039238
 40
-1560.461676801342
 40
-1560.461676801342
 40
-1553.505720601645
 40
-1553.505720601645
 40
-1546.550656286101
 40
-1546.550656286101
 40
-1532.640646794933
 40
-1532.640646794933
 40
-1504.820627812592
 40
-1504.820627812592
 40
-1449.180589847908
 40
-1449.180589847908
 40
-1337.900513918533
 40
-1337.900513918533
 40
-1115.295253219938
 40
-1115.295253219938
 40
-1003.992622870649
 40
-1003.992622870649
 40
-948.3413076960044
 40
-948.3413076960044
 40
-946.6022040967957
 40
-946.6022040967957
 40
-944.8618916357966
 40
-944.8618916357966
 40
-941.373380136147
 40
-941.373380136147
 40
-934.4153788360894
 40
-934.4153788360894
 40
-927.4508622508944
 40
-927.4508622508944
 40
-920.4199967514193
 40
-920.4199967514193
 40
-906.4507804561345
 40
-906.4507804561345
 40
-902.9576358799379
 40
-902.9576358799379
 40
-898.9813817842687
 40
-898.9813817842687
 40
-892.0046403302903
 40
-892.0046403302903
 40
-668.8202464891937
 40
-668.8202464891937
 40
-557.2280495686455
 40
-557.2280495686455
 40
-529.3300003385134
 40
-529.3300003385134
 40
-527.7784378305037
 40
-527.7784378305037
 40
-524.2872922301493
 40
-524.2872922301493
 40
-517.2706429454674
 40
-517.2706429454674
 40
-503.2907100766446
 40
-503.2907100766446
 40
-489.3124006092294
 40
-489.3124006092294
 40
-475.3318364328994
 40
-475.3318364328994
 40
-468.3159238470845
 40
-468.3159238470845
 40
-464.3664384164425
 40
-464.3664384164425
 40
-460.8772074630905
 40
-460.8772074630905
 40
-446.9202836496912
 40
-446.9202836496912
 40
0.0
 40
0.0
 40
0.0
 40
0.0
 10
-9990.487541552273
 20
-5075.260828689483
 30
0.0
 10
-9985.747287242262
 20
-5093.219160529557
 30
0.0
 10
-9979.824622323704
 20
-5110.852198277673
 30
0.0
 10
-9965.702616199942
 20
-5145.213723583184
 30
0.0
 10
-9957.515822109945
 20
-5161.911464931221
 30
0.0
 10
-9943.625416296101
 20
-5186.072999593933
 30
0.0
 10
-9938.741534424367
 20
-5193.955256603056
 30
0.0
 10
-9928.43634099032
 20
-5209.424512152952
 30
0.0
 10
-9923.043086268863
 20
-5216.969698026031
 30
0.0
 10
-9906.094905161113
 20
-5239.098045796328
 30
0.0
 10
-9893.84754281396
 20
-5253.07643688541
 30
0.0
 10
-9879.068999782667
 20
-5267.854732241633
 30
0.0
 10
-9877.41742186795
 20
-5269.486174860936
 30
0.0
 10
-9874.122254424623
 20
-5272.756982324965
 30
0.0
 10
-9872.474709551887
 20
-5274.392347495245
 30
0.0
 10
-9867.532074933657
 20
-5279.298443006086
 30
0.0
 10
-9864.236985188178
 20
-5282.569173346646
 30
0.0
 10
-9854.35171595174
 20
-5292.381364368338
 30
0.0
 10
-9847.761536460788
 20
-5298.922825049463
 30
0.0
 10
-9827.99099798792
 20
-5318.54720709284
 30
0.0
 10
-9814.810639006002
 20
-5331.63012845509
 30
0.0
 10
-9775.269562060279
 20
-5370.878892541843
 30
0.0
 10
-9748.908844096459
 20
-5397.044735266346
 30
0.0
 10
-9669.904329941743
 20
-5475.465197665567
 30
0.0
 10
-9617.260533750847
 20
-5527.719817340288
 30
0.0
 10
-9561.326500298008
 20
-5583.240350744678
 30
0.0
 10
-9558.03626303608
 20
-5586.506264474347
 30
0.0
 10
-9553.923466458666
 20
-5590.588656636433
 30
0.0
 10
-9553.10090714318
 20
-5591.405135068854
 30
0.0
 10
-9551.815666084683
 20
-5592.68087480576
 30
0.0
 10
-9550.267727718918
 20
-5594.21168381494
 30
0.0
 10
-9548.201193460573
 20
-5596.365378893932
 30
0.0
 10
-9546.760396828842
 20
-5598.155383880748
 30
0.0
 10
-9542.871649927638
 20
-5603.952843575125
 30
0.0
 10
-9540.975167606626
 20
-5608.235395531611
 30
0.0
 10
-9538.737632511886
 20
-5617.25842609254
 30
0.0
 10
-9538.413615911235
 20
-5621.930368397409
 30
0.0
 10
-9539.383297862154
 20
-5631.175591509286
 30
0.0
 10
-9540.66961096264
 20
-5635.678488920632
 30
0.0
 10
-9543.718319597454
 20
-5641.958030605542
 30
0.0
 10
-9544.897464939477
 20
-5643.930350923704
 30
0.0
 10
-9546.94352022588
 20
-5646.762027974939
 30
0.0
 10
-9547.66095295877
 20
-5647.669175875616
 30
0.0
 10
-9549.297168649264
 20
-5649.562907813245
 30
0.0
 10
-9549.854641603499
 20
-5650.127452281346
 30
0.0
 10
-9557.320524239763
 20
-5657.669396898833
 30
0.0
 10
-9563.843408766097
 20
-5664.25873619605
 30
0.0
 10
-9596.457831397736
 20
-5697.205432682191
 30
0.0
 10
-9622.549369503042
 20
-5723.562789871108
 30
0.0
 10
-9700.866611789384
 20
-5802.677923699557
 30
0.0
 10
-9753.092315970414
 20
-5855.435700339091
 30
0.0
 10
-9806.9500734071
 20
-5909.842157498614
 30
0.0
 10
-9808.582126662764
 20
-5911.490838018597
 30
0.0
 10
-9810.622193232335
 20
-5913.551688668579
 30
0.0
 10
-9811.030206546242
 20
-5913.963858798577
 30
0.0
 10
-9811.847267438108
 20
-5914.789243859626
 30
0.0
 10
-9812.252906067803
 20
-5915.205711897295
 30
0.0
 10
-9813.507347754592
 20
-5916.415658196895
 30
0.0
 10
-9814.380127242443
 20
-5917.171631098359
 30
0.0
 10
-9818.97013128854
 20
-5920.737452790987
 30
0.0
 10
-9823.22591484182
 20
-5922.777691721788
 30
0.0
 10
-9830.051260493714
 20
-5924.335338879338
 30
0.0
 10
-9832.322578332878
 20
-5924.592818236857
 30
0.0
 10
-9836.989728614808
 20
-5924.583639111216
 30
0.0
 10
-9839.303508362795
 20
-5924.312282673372
 30
0.0
 10
-9843.823641255618
 20
-5923.231336043486
 30
0.0
 10
-9846.0092145735
 20
-5922.426516026788
 30
0.0
 10
-9849.11414823221
 20
-5920.837400798044
 30
0.0
 10
-9850.108467360256
 20
-5920.250492300065
 30
0.0
 10
-9852.11792293467
 20
-5918.894446516529
 30
0.0
 10
-9852.869530029395
 20
-5918.301962373507
 30
0.0
 10
-9857.372883996937
 20
-5914.491067817549
 30
0.0
 10
-9860.917772792407
 20
-5911.497661820081
 30
0.0
 10
-9868.004429498058
 20
-5905.507111665168
 30
0.0
 10
-9871.54776875889
 20
-5902.51182736685
 30
0.0
 10
-9882.1777865414
 20
-5893.525974471903
 30
0.0
 10
-9889.264465063072
 20
-5887.53540587526
 30
0.0
 10
-9924.697857671326
 20
-5857.582562891976
 30
0.0
 10
-9953.044571757779
 20
-5833.620288505162
 30
0.0
 10
-10038.10929977931
 20
-5761.712682307919
 30
0.0
 10
-10094.82731371401
 20
-5713.767350497036
 30
0.0
 10
-10179.90433461568
 20
-5641.849352780266
 30
0.0
 10
-10208.26334158284
 20
-5617.876686874597
 30
0.0
 10
-10250.80185203354
 20
-5581.917688016045
 30
0.0
 10
-10264.98135551709
 20
-5569.931355063185
 30
0.0
 10
-10286.25061074242
 20
-5551.951855633889
 30
0.0
 10
-10293.3403624842
 20
-5545.958689157455
 30
0.0
 10
-10303.97499009686
 20
-5536.968939442805
 30
0.0
 10
-10307.51986596775
 20
-5533.972356204588
 30
0.0
 10
-10312.83716142809
 20
-5529.477496855644
 30
0.0
 10
-10314.60901597021
 20
-5527.978552628722
 30
0.0
 10
-10318.15514566041
 20
-5524.98386619037
 30
0.0
 10
-10319.92448249756
 20
-5523.482605752348
 30
0.0
 10
-10328.68386811627
 20
-5515.854978284659
 30
0.0
 10
-10335.41736823143
 20
-5509.493092723181
 30
0.0
 10
-10348.39663503206
 20
-5496.186746276573
 30
0.0
 10
-10354.58841234233
 20
-5489.297406750842
 30
0.0
 10
-10366.43733829078
 20
-5474.973366898565
 30
0.0
 10
-10372.04482997013
 20
-5467.598644354965
 30
0.0
 10
-10382.6790668411
 20
-5452.349984401249
 30
0.0
 10
-10387.66111805048
 20
-5444.54034342504
 30
0.0
 10
-10401.67097487179
 20
-5420.445976446398
 30
0.0
 10
-10409.66611395352
 20
-5403.651458483285
 30
0.0
 10
-10422.83104686266
 20
-5368.910486820301
 30
0.0
 10
-10427.97501968794
 20
-5351.031299773086
 30
0.0
 10
-10432.10390226569
 20
-5330.548156449123
 30
0.0
 10
-10432.53685569455
 20
-5328.268814006572
 30
0.0
 10
-10433.36516342427
 20
-5323.702601939044
 30
0.0
 10
-10433.7740238065
 20
-5321.418696711934
 30
0.0
 10
-10435.00768933751
 20
-5314.568292720876
 30
0.0
 10
-10435.83013067678
 20
-5310.001369765479
 30
0.0
 10
-10438.29745469457
 20
-5296.300600899285
 30
0.0
 10
-10439.94233737309
 20
-5287.166754988488
 30
0.0
 10
-10444.87698540867
 20
-5259.765217256098
 30
0.0
 10
-10448.16675076572
 20
-5241.497525434504
 30
0.0
 10
-10458.03604683689
 20
-5186.694449969722
 30
0.0
 10
-10464.61557755099
 20
-5150.159066326535
 30
0.0
 10
-10484.35683679248
 20
-5040.538105299513
 30
0.0
 10
-10497.51856531985
 20
-4967.452527915678
 30
0.0
 10
-10517.26115811091
 20
-4857.824161839928
 30
0.0
 10
-10523.8420223746
 20
-4821.281373148012
 30
0.0
 10
-10533.71331877013
 20
-4766.467190110139
 30
0.0
 10
-10537.00375090198
 20
-4748.195795764183
 30
0.0
 10
-10540.39700903794
 20
-4729.353420344914
 30
0.0
 10
-10540.49983504206
 20
-4728.782439271603
 30
0.0
 10
-10540.7055585253
 20
-4727.640080232464
 30
0.0
 10
-10540.81101212901
 20
-4727.069380951321
 30
0.0
 10
-10541.0596524326
 20
-4725.341938104665
 30
0.0
 10
-10541.15478098759
 20
-4724.189936558162
 30
0.0
 10
-10541.2317505662
 20
-4720.704047152872
 30
0.0
 10
-10541.00152344748
 20
-4718.382703927203
 30
0.0
 10
-10539.99856409811
 20
-4713.846112713823
 30
0.0
 10
-10539.22916921814
 20
-4711.646136763294
 30
0.0
 10
-10537.1886111344
 20
-4707.446219169645
 30
0.0
 10
-10535.95864567552
 20
-4705.519479343486
 30
0.0
 10
-10531.55077562506
 20
-4700.075551389188
 30
0.0
 10
-10527.83648680085
 20
-4697.160335094507
 30
0.0
 10
-10522.60154157213
 20
-4694.624584564706
 30
0.0
 10
-10521.53469682677
 20
-4694.177030027312
 30
0.0
 10
-10519.19236081056
 20
-4693.338138137136
 30
0.0
 10
-10518.39301605935
 20
-4693.12004746208
 30
0.0
 10
-10514.86914414948
 20
-4692.194944652282
 30
0.0
 10
-10512.62453963734
 20
-4691.605680912238
 30
0.0
 10
-10438.57554037189
 20
-4672.166002332857
 30
0.0
 10
-10366.77114561858
 20
-4653.315587493518
 30
0.0
 10
-10259.0645534886
 20
-4625.039965234513
 30
0.0
 10
-10223.16235611194
 20
-4615.614757814844
 30
0.0
 10
-10178.28460939112
 20
-4603.833248540258
 30
0.0
 10
-10169.30906004695
 20
-4601.476946685342
 30
0.0
 10
-10159.83433150441
 20
-4598.989598046993
 30
0.0
 10
-10157.46313885221
 20
-4598.364414428683
 30
0.0
 10
-10155.83253442585
 20
-4597.969183161425
 30
0.0
 10
-10154.69710424913
 20
-4597.745743938865
 30
0.0
 10
-10151.24064376421
 20
-4597.220311077504
 30
0.0
 10
-10148.94552432494
 20
-4597.07341179163
 30
0.0
 10
-10141.96136342458
 20
-4597.234195243114
 30
0.0
 10
-10137.36531519232
 20
-4598.150920993903
 30
0.0
 10
-10128.69502477612
 20
-4601.521255216541
 30
0.0
 10
-10124.6860891525
 20
-4603.949407698674
 30
0.0
 10
-10117.68347940613
 20
-4610.073365681858
 30
0.0
 10
-10114.74298540345
 20
-4613.721977422566
 30
0.0
 10
-10111.36729030238
 20
-4619.838477195415
 30
0.0
 10
-10110.43529055457
 20
-4621.940729073305
 30
0.0
 10
-10109.2520945685
 20
-4625.392090893738
 30
0.0
 10
-10109.02710574436
 20
-4626.207787367001
 30
0.0
 10
-10108.39593080052
 20
-4628.598812085781
 30
0.0
 10
-10108.09986962043
 20
-4629.720354705276
 30
0.0
 10
-10106.61956371997
 20
-4635.328067802756
 30
0.0
 10
-10105.43531899959
 20
-4639.814238280739
 30
0.0
 10
-10066.32989670358
 20
-4787.953882068979
 30
0.0
 10
-10028.40871912793
 20
-4931.607355379232
 30
0.0
 10
-9990.487541552273
 20
-5075.260828689483
 30
0.0
  0
SPLINE
  5
70
330
1F
100
AcDbEntity
  8
2D
100
AcDbSpline
210
0.0
220
0.0
230
1.0
 70
    11
 71
     3
 72
   176
 73
   172
 74
     0
 42
0.0000000001
 43
0.0000000001
 40
-3563.966855952288
 40
-3563.966855952288
 40
-3563.966855952288
 40
-3563.966855952288
 40
-3508.271767807325
 40
-3508.271767807325
 40
-3452.565856019272
 40
-3452.565856019272
 40
-3424.699932241646
 40
-3424.699932241646
 40
-3396.82833479186
 40
-3396.82833479186
 40
-3341.118494577704
 40
-3341.118494577704
 40
-3334.157080948933
 40
-3334.157080948933
 40
-3327.195995603479
 40
-3327.195995603479
 40
-3313.27382491255
 40
-3313.27382491255
 40
-3285.429483530648
 40
-3285.429483530648
 40
-3229.740800766866
 40
-3229.740800766866
 40
-3118.363435239282
 40
-3118.363435239282
 40
-2895.936741885874
 40
-2895.936741885874
 40
-2882.035073551286
 40
-2882.035073551286
 40
-2878.559656467633
 40
-2878.559656467633
 40
-2876.60476761693
 40
-2876.60476761693
 40
-2869.613056307571
 40
-2869.613056307571
 40
-2855.680101114127
 40
-2855.680101114127
 40
-2841.747636180446
 40
-2841.747636180446
 40
-2827.815576933368
 40
-2827.815576933368
 40
-2820.823592689558
 40
-2820.823592689558
 40
-2817.343727379267
 40
-2817.343727379267
 40
-2813.321797992974
 40
-2813.321797992974
 40
-2785.501401868378
 40
-2785.501401868378
 40
-2674.219817369997
 40
-2674.219817369997
 40
-2451.474838160551
 40
-2451.474838160551
 40
-2444.514057560259
 40
-2444.514057560259
 40
-2442.773862410187
 40
-2442.773862410187
 40
-2441.029256077467
 40
-2441.029256077467
 40
-2437.545933445232
 40
-2437.545933445232
 40
-2423.594392728668
 40
-2423.594392728668
 40
-2416.571235722537
 40
-2416.571235722537
 40
-2409.614803137896
 40
-2409.614803137896
 40
-2402.653628184894
 40
-2402.653628184894
 40
-2399.171471581929
 40
-2399.171471581929
 40
-2395.395368398682
 40
-2395.395368398682
 40
-2381.487620867699
 40
-2381.487620867699
 40
-2367.579787707414
 40
-2367.579787707414
 40
-2339.764121386821
 40
-2339.764121386821
 40
-2228.501456104451
 40
-2228.501456104451
 40
-2005.879624849591
 40
-2005.879624849591
 40
-1894.568709222151
 40
-1894.568709222151
 40
-1838.913251408431
 40
-1838.913251408431
 40
-1811.085522501571
 40
-1811.085522501571
 40
-1797.171658048141
 40
-1797.171658048141
 40
-1790.214797830608
 40
-1790.214797830608
 40
-1783.258595058935
 40
-1783.258595058935
 40
-1755.400078869293
 40
-1755.400078869293
 40
-1727.542732621927
 40
-1727.542732621927
 40
-1699.680057135049
 40
-1699.680057135049
 40
-1671.820200434454
 40
-1671.820200434454
 40
-1616.13963692033
 40
-1616.13963692033
 40
-1560.461676679362
 40
-1560.461676679362
 40
-1553.505720479273
 40
-1553.505720479273
 40
-1546.55065616333
 40
-1546.55065616333
 40
-1532.640646671338
 40
-1532.640646671338
 40
-1504.820627687376
 40
-1504.820627687376
 40
-1449.180589719451
 40
-1449.180589719451
 40
-1337.9005137836
 40
-1337.9005137836
 40
-1115.295253072015
 40
-1115.295253072015
 40
-1003.992622716234
 40
-1003.992622716234
 40
-948.3413075383431
 40
-948.3413075383431
 40
-946.6022039390488
 40
-946.6022039390488
 40
-944.8618914779491
 40
-944.8618914779491
 40
-941.37337997813
 40
-941.37337997813
 40
-934.4153786836384
 40
-934.4153786836384
 40
-927.4508620978033
 40
-927.4508620978033
 40
-920.4199965979888
 40
-920.4199965979888
 40
-906.4507803012568
 40
-906.4507803012568
 40
-902.9576357248777
 40
-902.9576357248777
 40
-898.981381672512
 40
-898.981381672512
 40
-892.0046402181957
 40
-892.0046402181957
 40
-668.8202463668553
 40
-668.8202463668553
 40
-557.228049441192
 40
-557.228049441192
 40
-529.3300002097715
 40
-529.3300002097715
 40
-527.778437703212
 40
-527.778437703212
 40
-524.2872921027171
 40
-524.2872921027171
 40
-517.2706428177739
 40
-517.2706428177739
 40
-503.2907099477408
 40
-503.2907099477408
 40
-489.3124004796942
 40
-489.3124004796942
 40
-475.3318363029172
 40
-475.3318363029172
 40
-468.3159237168011
 40
-468.3159237168011
 40
-464.3664384341158
 40
-464.3664384341158
 40
-460.8772074806358
 40
-460.8772074806358
 40
-446.9202836667174
 40
-446.9202836667174
 40
0.0
 40
0.0
 40
0.0
 40
0.0
 10
-9041.407305253048
 20
-3814.476259727287
 30
0.0
 10
-9059.329803991448
 20
-3809.602274460067
 30
0.0
 10
-9077.56179508589
 20
-3805.914933863675
 30
0.0
 10
-9114.380751975343
 20
-3800.964187266463
 30
0.0
 10
-9132.934817213729
 20
-3799.70528824992
 30
0.0
 10
-9160.804522932896
 20
-3799.653965222252
 30
0.0
 10
-9170.072698677828
 20
-3799.942402487675
 30
0.0
 10
-9188.622063678686
 20
-3801.132334017535
 30
0.0
 10
-9197.853013681775
 20
-3802.030436678851
 30
0.0
 10
-9225.490815548346
 20
-3805.643818180929
 30
0.0
 10
-9243.720138509434
 20
-3809.261149558414
 30
0.0
 10
-9263.907789228058
 20
-3814.670595576334
 30
0.0
 10
-9266.146448938565
 20
-3815.285182697153
 30
0.0
 10
-9270.62663501497
 20
-3816.503477680787
 30
0.0
 10
-9272.866675233268
 20
-3817.112610809316
 30
0.0
 10
-9279.586795888146
 20
-3818.940010194894
 30
0.0
 10
-9284.066876324734
 20
-3820.158276451945
 30
0.0
 10
-9297.507117634512
 20
-3823.813075223098
 30
0.0
 10
-9306.46727850771
 20
-3826.249607737199
 30
0.0
 10
-9333.347761127272
 20
-3833.559205279507
 30
0.0
 10
-9351.268082873652
 20
-3838.432270307713
 30
0.0
 10
-9405.029048112778
 20
-3853.05146539233
 30
0.0
 10
-9440.869691605523
 20
-3862.797595448741
 30
0.0
 10
-9548.286061297124
 20
-3892.007280520763
 30
0.0
 10
-9619.861787495971
 20
-3911.470835536374
 30
0.0
 10
-9695.910996582246
 20
-3932.150862740458
 30
0.0
 10
-9700.384479469674
 20
-3933.367334928936
 30
0.0
 10
-9705.976333078961
 20
-3934.88792516453
 30
0.0
 10
-9707.094703800813
 20
-3935.192043211648
 30
0.0
 10
-9708.842147351195
 20
-3935.66722474994
 30
0.0
 10
-9710.941836023663
 20
-3936.242374193404
 30
0.0
 10
-9713.840257803608
 20
-3936.955197819524
 30
0.0
 10
-9716.110845910964
 20
-3937.307961810886
 30
0.0
 10
-9723.07596673426
 20
-3937.776985569005
 30
0.0
 10
-9727.733006682287
 20
-3937.278111458573
 30
0.0
 10
-9736.665947914455
 20
-3934.704358412049
 30
0.0
 10
-9740.873976935818
 20
-3932.648993866969
 30
0.0
 10
-9748.395734038826
 20
-3927.18661310802
 30
0.0
 10
-9751.65220103753
 20
-3923.821184579976
 30
0.0
 10
-9755.566089343349
 20
-3918.041154611099
 30
0.0
 10
-9756.684596172268
 20
-3916.03382463107
 30
0.0
 10
-9758.113872790727
 20
-3912.846050249883
 30
0.0
 10
-9758.540769551273
 20
-3911.771161327375
 30
0.0
 10
-9759.3626816719
 20
-3909.407291004721
 30
0.0
 10
-9759.572855045826
 20
-3908.642233030013
 30
0.0
 10
-9762.371429360293
 20
-3898.405616696771
 30
0.0
 10
-9764.816522322686
 20
-3889.461963342406
 30
0.0
 10
-9777.041987134642
 20
-3844.743696570578
 30
0.0
 10
-9786.822358984205
 20
-3808.969083153114
 30
0.0
 10
-9816.179453560286
 20
-3701.586794864575
 30
0.0
 10
-9835.756176286803
 20
-3629.979119993499
 30
0.0
 10
-9855.944671598514
 20
-3556.1337052827
 30
0.0
 10
-9856.556444183716
 20
-3553.895965442978
 30
0.0
 10
-9857.321159915216
 20
-3551.098790643327
 30
0.0
 10
-9857.474103061522
 20
-3550.539355683396
 30
0.0
 10
-9857.780377046362
 20
-3549.419067664085
 30
0.0
 10
-9857.938229632015
 20
-3548.859540287185
 30
0.0
 10
-9858.358853021276
 20
-3547.168188769057
 30
0.0
 10
-9858.577155014591
 20
-3546.03435310994
 30
0.0
 10
-9859.370245162707
 20
-3540.276382156139
 30
0.0
 10
-9859.00925212997
 20
-3535.570646020776
 30
0.0
 10
-9856.945541312558
 20
-3528.880899717769
 30
0.0
 10
-9856.03286605755
 20
-3526.785141090228
 30
0.0
 10
-9853.691341559828
 20
-3522.747859944327
 30
0.0
 10
-9852.299450118993
 20
-3520.879746125117
 30
0.0
 10
-9849.103256431128
 20
-3517.505669526569
 30
0.0
 10
-9847.313475189625
 20
-3516.01531751761
 30
0.0
 10
-9844.384794204107
 20
-3514.120923707418
 30
0.0
 10
-9843.379356971138
 20
-3513.553272332053
 30
0.0
 10
-9841.200259086978
 20
-3512.491055648722
 30
0.0
 10
-9840.311349219864
 20
-3512.136386882297
 30
0.0
 10
-9834.759340739762
 20
-3510.141815222291
 30
0.0
 10
-9830.39453070438
 20
-3508.568554470536
 30
0.0
 10
-9821.663233734751
 20
-3505.426604812999
 30
0.0
 10
-9817.297571810439
 20
-3503.85562514804
 30
0.0
 10
-9804.200586037496
 20
-3499.142686153183
 30
0.0
 10
-9795.469262188857
 20
-3496.000726823291
 30
0.0
 10
-9751.812642945628
 20
-3480.290930173912
 30
0.0
 10
-9716.887347550964
 20
-3467.723092854644
 30
0.0
 10
-9612.081169848057
 20
-3430.008680520603
 30
0.0
 10
-9542.200287539617
 20
-3404.862105506393
 30
0.0
 10
-9437.378964076746
 20
-3367.14224298563
 30
0.0
 10
-9402.438522922424
 20
-3354.568955478801
 30
0.0
 10
-9350.02786119092
 20
-3335.709024218625
 30
0.0
 10
-9332.557640613744
 20
-3329.422380465244
 30
0.0
 10
-9306.352309747981
 20
-3319.992414835182
 30
0.0
 10
-9297.617199459393
 20
-3316.849092958496
 30
0.0
 10
-9284.514534026512
 20
-3312.134110143468
 30
0.0
 10
-9280.146978882218
 20
-3310.562449205126
 30
0.0
 10
-9273.595668769423
 20
-3308.204965931515
 30
0.0
 10
-9271.411617718997
 20
-3307.419966999694
 30
0.0
 10
-9267.045078341911
 20
-3305.846271822044
 30
0.0
 10
-9264.86028024631
 20
-3305.06461139222
 30
0.0
 10
-9253.874868279348
 20
-3301.292574658697
 30
0.0
 10
-9244.998563709563
 20
-3298.642135283354
 30
0.0
 10
-9226.985296254938
 20
-3294.054933734818
 30
0.0
 10
-9217.92306455522
 20
-3292.137367052394
 30
0.0
 10
-9199.5936191841
 20
-3289.037916099614
 30
0.0
 10
-9190.403176275806
 20
-3287.86904712559
 30
0.0
 10
-9171.88033094673
 20
-3286.283857822318
 30
0.0
 10
-9162.625957862194
 20
-3285.874095400139
 30
0.0
 10
-9134.754695560088
 20
-3285.788386978799
 30
0.0
 10
-9116.212646818534
 20
-3287.26165240881
 30
0.0
 10
-9079.543616351835
 20
-3293.23097190186
 30
0.0
 10
-9061.487799757302
 20
-3297.715754282396
 30
0.0
 10
-9041.684436000509
 20
-3304.38160874279
 30
0.0
 10
-9039.493990826897
 20
-3305.146331296013
 30
0.0
 10
-9035.12538131249
 20
-3306.712101793691
 30
0.0
 10
-9032.94303117487
 20
-3307.499970929645
 30
0.0
 10
-9026.393574526915
 20
-3309.856787235537
 30
0.0
 10
-9022.027282560786
 20
-3311.427993620312
 30
0.0
 10
-9008.928406662384
 20
-3316.141612774635
 30
0.0
 10
-9000.195822730126
 20
-3319.284025544184
 30
0.0
 10
-8973.998070933329
 20
-3328.71126385283
 30
0.0
 10
-8956.532903068797
 20
-3334.996089391928
 30
0.0
 10
-8904.137399475203
 20
-3353.850566009221
 30
0.0
 10
-8869.20706374614
 20
-3366.420217087416
 30
0.0
 10
-8764.40189708873
 20
-3404.134265595107
 30
0.0
 10
-8694.52706616039
 20
-3429.278663024601
 30
0.0
 10
-8589.714819767873
 20
-3466.995259168842
 30
0.0
 10
-8554.77740430371
 20
-3479.567457883594
 30
0.0
 10
-8502.371281107455
 20
-3498.425755955716
 30
0.0
 10
-8484.902573375362
 20
-3504.711855313084
 30
0.0
 10
-8466.887968526655
 20
-3511.194395275376
 30
0.0
 10
-8466.342071410025
 20
-3511.390835880296
 30
0.0
 10
-8465.249897720274
 20
-3511.783853637225
 30
0.0
 10
-8464.702930843017
 20
-3511.977877778038
 30
0.0
 10
-8463.082601302453
 20
-3512.626270382094
 30
0.0
 10
-8462.037374420473
 20
-3513.119887410086
 30
0.0
 10
-8458.980020853127
 20
-3514.796174501368
 30
0.0
 10
-8457.084792204947
 20
-3516.156228649932
 30
0.0
 10
-8453.657468643647
 20
-3519.29311253088
 30
0.0
 10
-8452.13693102288
 20
-3521.059416017574
 30
0.0
 10
-8449.519974734798
 20
-3524.926549952905
 30
0.0
 10
-8448.466351828309
 20
-3526.955101199161
 30
0.0
 10
-8445.955706948578
 20
-3533.494392616797
 30
0.0
 10
-8445.288199992046
 20
-3538.168669242404
 30
0.0
 10
-8445.709648229957
 20
-3543.970140063044
 30
0.0
 10
-8445.85547700366
 20
-3545.117831983117
 30
0.0
 10
-8446.30014332126
 20
-3547.565800408197
 30
0.0
 10
-8446.510943638332
 20
-3548.367098634834
 30
0.0
 10
-8447.471717055054
 20
-3551.881412619416
 30
0.0
 10
-8448.083701942716
 20
-3554.119929018398
 30
0.0
 10
-8468.272946084293
 20
-3627.968082796794
 30
0.0
 10
-8487.850205338222
 20
-3699.577720176204
 30
0.0
 10
-8517.2160942191
 20
-3806.99217624532
 30
0.0
 10
-8527.004723846057
 20
-3842.796994935027
 30
0.0
 10
-8539.240510879757
 20
-3887.553018297158
 30
0.0
 10
-8541.687668286493
 20
-3896.504222969584
 30
0.0
 10
-8544.27092544876
 20
-3905.95325290008
 30
0.0
 10
-8544.915096879628
 20
-3908.319357784277
 30
0.0
 10
-8545.388118774888
 20
-3909.929118274154
 30
0.0
 10
-8545.76232982027
 20
-3911.024149262702
 30
0.0
 10
-8547.035521856826
 20
-3914.280248280494
 30
0.0
 10
-8548.05586306308
 20
-3916.341329662564
 30
0.0
 10
-8551.68718606685
 20
-3922.309398700866
 30
0.0
 10
-8554.77911797116
 20
-3925.831330351272
 30
0.0
 10
-8562.033058235476
 20
-3931.654854998782
 30
0.0
 10
-8566.14036778107
 20
-3933.912618849865
 30
0.0
 10
-8574.945175839388
 20
-3936.915077791451
 30
0.0
 10
-8579.575213296823
 20
-3937.637314427119
 30
0.0
 10
-8586.560105032866
 20
-3937.502502253641
 30
0.0
 10
-8588.846708438181
 20
-3937.258511772623
 30
0.0
 10
-8592.42727339701
 20
-3936.55750865347
 30
0.0
 10
-8593.246181772582
 20
-3936.344506431729
 30
0.0
 10
-8595.632457344527
 20
-3935.695607620853
 30
0.0
 10
-8596.75177233449
 20
-3935.39123281414
 30
0.0
 10
-8602.348347284267
 20
-3933.869358780573
 30
0.0
 10
-8606.825607244089
 20
-3932.651859553714
 30
0.0
 10
-8754.671013220282
 20
-3892.448326793633
 30
0.0
 10
-8898.039159236676
 20
-3853.462293260479
 30
0.0
 10
-9041.407305253048
 20
-3814.476259727287
 30
0.0
  0
LINE
  5
71
330
1F
100
AcDbEntity
  8
2D
100
AcDbLine
 10
-9944.554548306081
 20
-5841.423356715388
 30
0.0
 11
-9944.21694160088
 21
-5841.08253246412
 31
0.0
  0
LINE
  5
72
330
1F
100
AcDbEntity
  8
2D
100
AcDbLine
 10
-8371.697857640775
 20
-3542.465206001436
 30
0.0
 11
-8394.903194993854
 21
-3605.200105012959
 31
0.0
  0
SPLINE
  5
73
330
1F
100
AcDbEntity
  8
2D
100
AcDbSpline
210
0.0
220
0.0
230
1.0
 70
    12
 71
     3
 72
    74
 73
    70
 74
     0
 42
0.0000000001
 43
0.0000000001
 40
-1404.933144929846
 40
-1404.933144929846
 40
-1404.933144929846
 40
-1404.933144929846
 40
-1263.154113461958
 40
-1263.154113461958
 40
-1263.154113461958
 40
-1256.940317041987
 40
-1256.940317041987
 40
-1250.339366976546
 40
-1250.339366976546
 40
-1243.45508975916
 40
-1243.45508975916
 40
-1239.953934709843
 40
-1239.953934709843
 40
-1236.459474806922
 40
-1236.459474806922
 40
-1229.41607625437
 40
-1229.41607625437
 40
-1222.510423687434
 40
-1222.510423687434
 40
-1219.213335437191
 40
-1219.213335437191
 40
-1215.928054360257
 40
-1215.928054360257
 40
-1209.685279774003
 40
-1209.685279774003
 40
-1209.685279774003
 40
-810.3366133341393
 40
-810.3366133341393
 40
-810.3366133341393
 40
-808.8874051194485
 40
-808.8874051194485
 40
-808.8874051194485
 40
-755.7378500104697
 40
-755.7378500104697
 40
-702.6860860216433
 40
-702.6860860216433
 40
-649.5768098281102
 40
-649.5768098281102
 40
-596.3744048055958
 40
-596.3744048055958
 40
-596.3744048055958
 40
-596.0776547234359
 40
-596.0776547234359
 40
-596.0776547234359
 40
-195.2797371357373
 40
-195.2797371357373
 40
-195.2797371357373
 40
-189.0401129614326
 40
-189.0401129614326
 40
-182.4155345514987
 40
-182.4155345514987
 40
-175.512554623701
 40
-175.512554623701
 40
-172.0054484074338
 40
-172.0054484074338
 40
-168.5052810654416
 40
-168.5052810654416
 40
-161.4708570930387
 40
-161.4708570930387
 40
-154.5840290046255
 40
-154.5840290046255
 40
-151.2935772250017
 40
-151.2935772250017
 40
-148.0152560430574
 40
-148.0152560430574
 40
-141.8006897078905
 40
-141.8006897078905
 40
-141.8006897078905
 40
0.0
 40
0.0
 40
0.0
 40
0.0
 10
-8568.615704904692
 20
-3474.587757390127
 30
0.0
 41
1.0
 10
-8563.360052233304
 20
-3455.406562944308
 30
0.0
 41
1.0
 10
-8558.104399561915
 20
-3436.225368498461
 30
0.0
 41
1.0
 10
-8552.848746890526
 20
-3417.044174052623
 30
0.0
 41
1.0
 10
-8552.616844537446
 20
-3416.197815968301
 30
0.0
 41
1.0
 10
-8552.5979879888
 20
-3415.294430599716
 30
0.0
 41
1.0
 10
-8552.996603758005
 20
-3413.267272237709
 30
0.0
 41
1.0
 10
-8553.431365577711
 20
-3412.180592967928
 30
0.0
 41
1.0
 10
-8554.811923716978
 20
-3409.811674553602
 30
0.0
 41
1.0
 10
-8555.743696140478
 20
-3408.582536810408
 30
0.0
 41
1.0
 10
-8557.533320345541
 20
-3406.642300207958
 30
0.0
 41
1.0
 10
-8558.192152454907
 20
-3405.985930320653
 30
0.0
 41
1.0
 10
-8559.629763846333
 20
-3404.659487008931
 30
0.0
 41
1.0
 10
-8560.398871734466
 20
-3403.99815433035
 30
0.0
 41
1.0
 10
-8562.890043277297
 20
-3401.991879893426
 30
0.0
 41
1.0
 10
-8564.716794252494
 20
-3400.68708867672
 30
0.0
 41
1.0
 10
-8568.767534954703
 20
-3398.093447751452
 30
0.0
 41
1.0
 10
-8570.88291521087
 20
-3396.869071516406
 30
0.0
 41
1.0
 10
-8574.264706078113
 20
-3395.093676650239
 30
0.0
 41
1.0
 10
-8575.378496503272
 20
-3394.535507061378
 30
0.0
 41
1.0
 10
-8577.659409260134
 20
-3393.444454109181
 30
0.0
 41
1.0
 10
-8578.813198233769
 20
-3392.917768263124
 30
0.0
 41
1.0
 10
-8582.227247702034
 20
-3391.431486784474
 30
0.0
 41
1.0
 10
-8584.477477840574
 20
-3390.538389569502
 30
0.0
 41
1.0
 10
-8586.796724917429
 20
-3389.704006236524
 30
0.0
 41
1.0
 10
-8734.169933132074
 20
-3336.684321577405
 30
0.0
 41
1.0
 10
-8881.54314134672
 20
-3283.664636918284
 30
0.0
 41
1.0
 10
-9028.916349561445
 20
-3230.644952259398
 30
0.0
 41
1.0
 10
-9029.451156569838
 20
-3230.452547552452
 30
0.0
 41
1.0
 10
-9029.985128916942
 20
-3230.26181771227
 30
0.0
 41
1.0
 10
-9030.520814816704
 20
-3230.071853045682
 30
0.0
 41
1.0
 10
-9050.177245197938
 20
-3223.101299508017
 30
0.0
 41
1.0
 10
-9070.387224298134
 20
-3217.815737936519
 30
0.0
 41
1.0
 10
-9111.472475846462
 20
-3210.770595314048
 30
0.0
 41
1.0
 10
-9132.251676555188
 20
-3209.020675040164
 30
0.0
 41
1.0
 10
-9173.924700670996
 20
-3209.109653974959
 30
0.0
 41
1.0
 10
-9194.713136575327
 20
-3210.951787351941
 30
0.0
 41
1.0
 10
-9235.809195961516
 20
-3218.185483536484
 30
0.0
 41
1.0
 10
-9256.01898872021
 20
-3223.568457766171
 30
0.0
 41
1.0
 10
-9275.662638208149
 20
-3230.635255366908
 30
0.0
 41
1.0
 10
-9275.771630179795
 20
-3230.674465199204
 30
0.0
 41
1.0
 10
-9275.8806219422
 20
-3230.71367577468
 30
0.0
 41
1.0
 10
-9275.989613495574
 20
-3230.752887093074
 30
0.0
 41
1.0
 10
-9423.897643462016
 20
-3283.964981763159
 30
0.0
 41
1.0
 10
-9571.805673428466
 20
-3337.177076433242
 30
0.0
 41
1.0
 10
-9719.713703394907
 20
-3390.389171103326
 30
0.0
 41
1.0
 10
-9722.031320373924
 20
-3391.222967984565
 30
0.0
 41
1.0
 10
-9724.280047812088
 20
-3392.115410099456
 30
0.0
 41
1.0
 10
-9728.888747462439
 20
-3394.121522018258
 30
0.0
 41
1.0
 10
-9731.141853413126
 20
-3395.199368975308
 30
0.0
 41
1.0
 10
-9735.624886427486
 20
-3397.55281175919
 30
0.0
 41
1.0
 10
-9737.73921054036
 20
-3398.77645991141
 30
0.0
 41
1.0
 10
-9740.762031080416
 20
-3400.711626488602
 30
0.0
 41
1.0
 10
-9741.731632798623
 20
-3401.366635851285
 30
0.0
 41
1.0
 10
-9743.586715235699
 20
-3402.691845044918
 30
0.0
 41
1.0
 10
-9744.460202198647
 20
-3403.353328687718
 30
0.0
 41
1.0
 10
-9746.949833514027
 20
-3405.35856158956
 30
0.0
 41
1.0
 10
-9748.365273207168
 20
-3406.664506796534
 30
0.0
 41
1.0
 10
-9750.764471190818
 20
-3409.264891254045
 30
0.0
 41
1.0
 10
-9751.696743780096
 20
-3410.494291011099
 30
0.0
 41
1.0
 10
-9752.738908806536
 20
-3412.281856616367
 30
0.0
 41
1.0
 10
-9753.016705887403
 20
-3412.844714221062
 30
0.0
 41
1.0
 10
-9753.456965159083
 20
-3413.946167966901
 30
0.0
 41
1.0
 10
-9753.617266866811
 20
-3414.478396258385
 30
0.0
 41
1.0
 10
-9753.912439357478
 20
-3415.979745406265
 30
0.0
 41
1.0
 10
-9753.89356442112
 20
-3416.88305146901
 30
0.0
 41
1.0
 10
-9753.661681421774
 20
-3417.729338919341
 30
0.0
 41
1.0
 10
-9748.405225933053
 20
-3436.913463352395
 30
0.0
 41
1.0
 10
-9743.148771303404
 20
-3456.097588082014
 30
0.0
 41
1.0
 10
-9737.892315965993
 20
-3475.281712558656
 30
0.0
 41
1.0
  0
LINE
  5
74
330
1F
100
AcDbEntity
  8
2D
100
AcDbLine
 10
-9914.826618493771
 20
-5988.803932981446
 30
0.0
 11
-9994.015698775245
 21
-5890.06632332163
 31
0.0
  0
LINE
  5
75
330
1F
100
AcDbEntity
  8
2D
100
AcDbLine
 10
-7670.754883742298
 20
-4744.500305484828
 30
0.0
 11
-7716.669621875913
 21
-4862.448865540814
 31
0.0
  0
LINE
  5
76
330
1F
100
AcDbEntity
  8
2D
100
AcDbLine
 10
-7931.023892540168
 20
-5871.560577206811
 30
0.0
 11
-8082.283381758785
 21
-5702.751781003666
 31
0.0
  0
LINE
  5
77
330
1F
100
AcDbEntity
  8
2D
100
AcDbLine
 10
-7542.926466696113
 20
-5199.356705891621
 30
0.0
 11
-7764.749225093958
 21
-5152.76648852164
 31
0.0
  0
LINE
  5
78
330
1F
100
AcDbEntity
  8
2D
100
AcDbLine
 10
-9727.890014574285
 20
-3471.174134737395
 30
0.0
 11
-9727.763655467064
 21
-3471.636922846221
 31
0.0
  0
LINE
  5
79
330
1F
100
AcDbEntity
  8
2D
100
AcDbLine
 10
-8559.292694253021
 20
-3404.018038627576
 30
0.0
 11
-8434.188875837925
 21
-3423.228989023745
 31
0.0
  0
LINE
  5
7A
330
1F
100
AcDbEntity
  8
2D
100
AcDbLine
 10
-10742.11030801759
 20
-4681.300580557761
 30
0.0
 11
-10679.17708834595
 21
-4670.863268149809
 31
0.0
  0
SPLINE
  5
7B
330
1F
100
AcDbEntity
  8
2D
100
AcDbSpline
210
0.0
220
0.0
230
1.0
 70
    12
 71
     3
 72
    20
 73
    16
 74
     0
 42
0.0000000001
 43
0.0000000001
 40
-87.99283041162761
 40
-87.99283041162761
 40
-87.99283041162761
 40
-87.99283041162761
 40
-77.14289584501442
 40
-77.14289584501442
 40
-66.26537615472469
 40
-66.26537615472469
 40
-55.40974866318383
 40
-55.40974866318383
 40
-44.46520735084096
 40
-44.46520735084096
 40
-33.33627397395252
 40
-33.33627397395252
 40
-22.12492124410986
 40
-22.12492124410986
 40
0.0
 40
0.0
 40
0.0
 40
0.0
 10
-10679.17708834595
 20
-4670.863268149809
 30
0.0
 41
1.0
 10
-10676.31426227094
 20
-4673.233769403938
 30
0.0
 41
1.0
 10
-10673.63914822694
 20
-4675.888396652626
 30
0.0
 41
1.0
 10
-10668.73309794631
 20
-4681.333989570024
 30
0.0
 41
1.0
 10
-10666.45460394074
 20
-4684.170789529793
 30
0.0
 41
1.0
 10
-10662.11965134671
 20
-4690.013687208072
 30
0.0
 41
1.0
 10
-10660.07860514718
 20
-4693.00108997701
 30
0.0
 41
1.0
 10
-10656.15017488245
 20
-4699.114292235862
 30
0.0
 41
1.0
 10
-10654.27178704579
 20
-4702.230835498683
 30
0.0
 41
1.0
 10
-10650.62138339656
 20
-4708.597273933105
 30
0.0
 41
1.0
 10
-10648.85610994404
 20
-4711.842315354382
 30
0.0
 41
1.0
 10
-10645.42784949055
 20
-4718.417427499863
 30
0.0
 41
1.0
 10
-10643.76819567322
 20
-4721.743827054281
 30
0.0
 41
1.0
 10
-10638.97675604748
 20
-4731.704408505907
 30
0.0
 41
1.0
 10
-10635.99062921749
 20
-4738.391250227569
 30
0.0
 41
1.0
 10
-10633.13739406772
 20
-4745.139446674505
 30
0.0
 41
1.0
  0
LINE
  5
7C
330
1F
100
AcDbEntity
  8
2D
100
AcDbLine
 10
-8389.444157712616
 20
-6114.700672960814
 30
0.0
 11
-8429.94974524096
 21
-6065.417562187203
 31
0.0
  0
SPLINE
  5
7D
330
1F
100
AcDbEntity
  8
2D
100
AcDbSpline
210
0.0
220
0.0
230
1.0
 70
    12
 71
     3
 72
    20
 73
    16
 74
     0
 42
0.0000000001
 43
0.0000000001
 40
-87.99283041164216
 40
-87.99283041164216
 40
-87.99283041164216
 40
-87.99283041164216
 40
-77.14289584502718
 40
-77.14289584502718
 40
-66.26537615473565
 40
-66.26537615473565
 40
-55.409748663193
 40
-55.409748663193
 40
-44.46520735084831
 40
-44.46520735084831
 40
-33.33627397395803
 40
-33.33627397395803
 40
-22.12492124411352
 40
-22.12492124411352
 40
0.0
 40
0.0
 40
0.0
 40
0.0
 10
-8429.94974524096
 20
-6065.417562187203
 30
0.0
 41
1.0
 10
-8429.328243972686
 20
-6061.75303145256
 30
0.0
 41
1.0
 10
-8428.36682635974
 20
-6058.109001108097
 30
0.0
 41
1.0
 10
-8426.103829694923
 20
-6051.137440474125
 30
0.0
 41
1.0
 10
-8424.786335867091
 20
-6047.745806803047
 30
0.0
 41
1.0
 10
-8421.893714343005
 20
-6041.070178893277
 30
0.0
 41
1.0
 10
-8420.32707075353
 20
-6037.808879649722
 30
0.0
 41
1.0
 10
-8416.997097431264
 20
-6031.35015811404
 30
0.0
 41
1.0
 10
-8415.237285711995
 20
-6028.165154897925
 30
0.0
 41
1.0
 10
-8411.548990120766
 20
-6021.820593386412
 30
0.0
 41
1.0
 10
-8409.62133853987
 20
-6018.669301021266
 30
0.0
 41
1.0
 10
-8405.6412546159
 20
-6012.41278430501
 30
0.0
 41
1.0
 10
-8403.590335007295
 20
-6009.312282160511
 30
0.0
 41
1.0
 10
-8397.359938246595
 20
-6000.182482998105
 30
0.0
 41
1.0
 10
-8393.062026859548
 20
-5994.253000443581
 30
0.0
 41
1.0
 10
-8388.64453488166
 20
-5988.407928097435
 30
0.0
 41
1.0
  0
SPLINE
  5
7E
330
1F
100
AcDbEntity
  8
2D
100
AcDbSpline
210
0.0
220
0.0
230
1.0
 70
    12
 71
     3
 72
    74
 73
    70
 74
     0
 42
0.0000000001
 43
0.0000000001
 40
-1404.933144929866
 40
-1404.933144929866
 40
-1404.933144929866
 40
-1404.933144929866
 40
-1263.154113461976
 40
-1263.154113461976
 40
-1263.154113461976
 40
-1256.940317042005
 40
-1256.940317042005
 40
-1250.339366976563
 40
-1250.339366976563
 40
-1243.455089759177
 40
-1243.455089759177
 40
-1239.95393470986
 40
-1239.95393470986
 40
-1236.459474806939
 40
-1236.459474806939
 40
-1229.416076254387
 40
-1229.416076254387
 40
-1222.510423687451
 40
-1222.510423687451
 40
-1219.213335437208
 40
-1219.213335437208
 40
-1215.928054360273
 40
-1215.928054360273
 40
-1209.68527977402
 40
-1209.68527977402
 40
-1209.68527977402
 40
-810.3366133341505
 40
-810.3366133341505
 40
-810.3366133341505
 40
-808.8874051194597
 40
-808.8874051194597
 40
-808.8874051194597
 40
-755.7378500104802
 40
-755.7378500104802
 40
-702.6860860216531
 40
-702.6860860216531
 40
-649.576809828119
 40
-649.576809828119
 40
-596.374404805604
 40
-596.374404805604
 40
-596.374404805604
 40
-596.0776547234441
 40
-596.0776547234441
 40
-596.0776547234441
 40
-195.27973713574
 40
-195.27973713574
 40
-195.27973713574
 40
-189.0401129614352
 40
-189.0401129614352
 40
-182.4155345515012
 40
-182.4155345515012
 40
-175.5125546237034
 40
-175.5125546237034
 40
-172.0054484074361
 40
-172.0054484074361
 40
-168.5052810654439
 40
-168.5052810654439
 40
-161.4708570930409
 40
-161.4708570930409
 40
-154.5840290046276
 40
-154.5840290046276
 40
-151.2935772250038
 40
-151.2935772250038
 40
-148.0152560430594
 40
-148.0152560430594
 40
-141.8006897078925
 40
-141.8006897078925
 40
-141.8006897078925
 40
0.0
 40
0.0
 40
0.0
 40
0.0
 10
-8366.119680677937
 20
-5846.189926839406
 30
0.0
 41
1.0
 10
-8352.136105348622
 20
-5860.332052789207
 30
0.0
 41
1.0
 10
-8338.152530019284
 20
-5874.474178739022
 30
0.0
 41
1.0
 10
-8324.168954689954
 20
-5888.616304688831
 30
0.0
 41
1.0
 10
-8323.551938264773
 20
-5889.240317059954
 30
0.0
 41
1.0
 10
-8322.779011860493
 20
-5889.708339994401
 30
0.0
 41
1.0
 10
-8320.824133336897
 20
-5890.376707792924
 30
0.0
 41
1.0
 10
-8319.665660573653
 20
-5890.543532647357
 30
0.0
 41
1.0
 10
-8316.92383797772
 20
-5890.532393434513
 30
0.0
 41
1.0
 10
-8315.39348725561
 20
-5890.340023716807
 30
0.0
 41
1.0
 10
-8312.818380966
 20
-5889.76028199322
 30
0.0
 41
1.0
 10
-8311.920531914639
 20
-5889.517901593335
 30
0.0
 41
1.0
 10
-8310.052992614288
 20
-5888.936115263449
 30
0.0
 41
1.0
 10
-8309.095707770222
 20
-5888.600714633369
 30
0.0
 41
1.0
 10
-8306.112637369468
 20
-5887.446434010557
 30
0.0
 41
1.0
 10
-8304.069279541563
 20
-5886.516816867998
 30
0.0
 41
1.0
 10
-8299.797750260888
 20
-5884.305592978376
 30
0.0
 41
1.0
 10
-8297.679719209456
 20
-5883.085808055391
 30
0.0
 41
1.0
 10
-8294.451286719992
 20
-5881.044788687159
 30
0.0
 41
1.0
 10
-8293.41100246384
 20
-5880.35930267891
 30
0.0
 41
1.0
 10
-8291.32566651193
 20
-5878.929500763747
 30
0.0
 41
1.0
 10
-8290.292648702616
 20
-5878.193633125004
 30
0.0
 41
1.0
 10
-8287.298466450793
 20
-5875.980120295035
 30
0.0
 41
1.0
 10
-8285.39990650531
 20
-5874.477912438188
 30
0.0
 41
1.0
 10
-8283.517685804025
 20
-5872.886577218461
 30
0.0
 41
1.0
 10
-8163.914687881272
 20
-5771.767477396927
 30
0.0
 41
1.0
 10
-8044.311689958511
 20
-5670.648377575394
 30
0.0
 41
1.0
 10
-7924.708692035911
 20
-5569.529277753668
 30
0.0
 41
1.0
 10
-7924.274661167688
 20
-5569.162323651751
 30
0.0
 41
1.0
 10
-7923.842498107279
 20
-5568.795254954332
 30
0.0
 41
1.0
 10
-7923.410140930315
 20
-5568.426319689983
 30
0.0
 41
1.0
 10
-7907.545249297644
 20
-5554.88862840095
 30
0.0
 41
1.0
 10
-7892.862829153357
 20
-5540.029053875975
 30
0.0
 41
1.0
 10
-7866.218930894847
 20
-5507.970753625486
 30
0.0
 41
1.0
 10
-7854.313855128701
 20
-5490.850398078329
 30
0.0
 41
1.0
 10
-7833.554401088735
 20
-5454.716011074127
 30
0.0
 41
1.0
 10
-7824.755517438196
 20
-5435.791630787538
 30
0.0
 41
1.0
 10
-7810.472052404173
 20
-5396.58455127139
 30
0.0
 41
1.0
 10
-7805.028948455652
 20
-5376.3908702223
 30
0.0
 41
1.0
 10
-7801.32714995732
 20
-5355.845571942337
 30
0.0
 41
1.0
 10
-7801.30661068235
 20
-5355.731577209937
 30
0.0
 41
1.0
 10
-7801.286072155603
 20
-5355.61758228715
 30
0.0
 41
1.0
 10
-7801.265534376758
 20
-5355.503587173937
 30
0.0
 41
1.0
 10
-7773.394545166415
 20
-5200.805428464246
 30
0.0
 41
1.0
 10
-7745.523555956072
 20
-5046.107269754552
 30
0.0
 41
1.0
 10
-7717.652566745721
 20
-4891.409111044859
 30
0.0
 41
1.0
 10
-7717.215847536962
 20
-4888.985097424172
 30
0.0
 41
1.0
 10
-7716.864361360782
 20
-4886.591421279086
 30
0.0
 41
1.0
 10
-7716.297355420127
 20
-4881.597114344072
 30
0.0
 41
1.0
 10
-7716.104245290979
 20
-4879.106943874827
 30
0.0
 41
1.0
 10
-7715.900870021
 20
-4874.047802006453
 30
0.0
 41
1.0
 10
-7715.903418349673
 20
-4871.604919536757
 30
0.0
 41
1.0
 10
-7716.067911496048
 20
-4868.019496869391
 30
0.0
 41
1.0
 10
-7716.150365384743
 20
-4866.852292468526
 30
0.0
 41
1.0
 10
-7716.370488993223
 20
-4864.583139355093
 30
0.0
 41
1.0
 10
-7716.506607150604
 20
-4863.495935633903
 30
0.0
 41
1.0
 10
-7716.998374126411
 20
-4860.337235217808
 30
0.0
 41
1.0
 10
-7717.42163600503
 20
-4858.458455882534
 30
0.0
 41
1.0
 10
-7718.474036013013
 20
-4855.080497251229
 30
0.0
 41
1.0
 10
-7719.072591139386
 20
-4853.658425627132
 30
0.0
 41
1.0
 10
-7720.099585851265
 20
-4851.862101436669
 30
0.0
 41
1.0
 10
-7720.44813629521
 20
-4851.340093305193
 30
0.0
 41
1.0
 10
-7721.181893584358
 20
-4850.408090718747
 30
0.0
 41
1.0
 10
-7721.562665951529
 20
-4850.003151221842
 30
0.0
 41
1.0
 10
-7722.715286208218
 20
-4848.996849772489
 30
0.0
 41
1.0
 10
-7723.507009674122
 20
-4848.561542915495
 30
0.0
 41
1.0
 10
-7724.355857604689
 20
-4848.339215758469
 30
0.0
 41
1.0
 10
-7743.598024457435
 20
-4843.299377529033
 30
0.0
 41
1.0
 10
-7762.840191137479
 20
-4838.259538407345
 30
0.0
 41
1.0
 10
-7782.082357952317
 20
-4833.219700025074
 30
0.0
 41
1.0
  0
ENDSEC
  0
SECTION
  2
OBJECTS
  0
DICTIONARY
  5
C
330
0
100
AcDbDictionary
281
     1
  3
ACAD_GROUP
350
D
  3
ACAD_LAYOUT
350
1A
  3
ACAD_MLEADERSTYLE
350
80
  3
ACAD_MLINESTYLE
350
17
  3
ACAD_PLOTSETTINGS
350
19
  3
ACAD_PLOTSTYLENAME
350
E
  3
ACAD_TABLESTYLE
350
7F
  3
ACAD_VISUALSTYLE
350
2A
  0
DICTIONARY
  5
D
102
{ACAD_REACTORS
330
C
102
}
330
C
100
AcDbDictionary
281
     1
  0
DICTIONARY
  5
1A
102
{ACAD_REACTORS
330
C
102
}
330
C
100
AcDbDictionary
281
     1
  3
Layout1
350
1E
  3
Layout2
350
26
  3
Model
350
22
  0
DICTIONARY
  5
80
102
{ACAD_REACTORS
330
C
102
}
330
C
100
AcDbDictionary
281
     1
  0
DICTIONARY
  5
17
102
{ACAD_REACTORS
330
C
102
}
330
C
100
AcDbDictionary
281
     1
  3
Standard
350
18
  0
DICTIONARY
  5
19
102
{ACAD_REACTORS
330
C
102
}
330
C
100
AcDbDictionary
281
     1
  0
ACDBDICTIONARYWDFLT
  5
E
102
{ACAD_REACTORS
330
C
102
}
330
C
100
AcDbDictionary
281
     1
  3
Normal
350
F
100
AcDbDictionaryWithDefault
340
F
  0
DICTIONARY
  5
7F
102
{ACAD_REACTORS
330
C
102
}
330
C
100
AcDbDictionary
281
     1
  0
DICTIONARY
  5
2A
102
{ACAD_REACTORS
330
C
102
}
330
C
100
AcDbDictionary
281
     1
  3
2dWireframe
350
2F
  3
3D Hidden
350
31
  3
3dWireframe
350
30
  3
Basic
350
32
  3
Brighten
350
36
  3
ColorChange
350
3A
  3
Conceptual
350
34
  3
Dim
350
35
  3
Facepattern
350
39
  3
Flat
350
2B
  3
FlatWithEdges
350
2C
  3
Gouraud
350
2D
  3
GouraudWithEdges
350
2E
  3
Linepattern
350
38
  3
Realistic
350
33
  3
Thicken
350
37
  0
LAYOUT
  5
1E
102
{ACAD_REACTORS
330
1A
102
}
330
1A
100
AcDbPlotSettings
  1

  2
none_device
  4

  6

 40
0.0
 41
0.0
 42
0.0
 43
0.0
 44
0.0
 45
0.0
 46
0.0
 47
0.0
 48
0.0
 49
0.0
140
0.0
141
0.0
142
1.0
143
1.0
 70
   688
 72
     0
 73
     0
 74
     5
  7

 75
    16
 76
     0
 77
     2
 78
   300
147
1.0
148
0.0
149
0.0
100
AcDbLayout
  1
Layout1
 70
     1
 71
     1
 10
0.0
 20
0.0
 11
12.0
 21
9.0
 12
0.0
 22
0.0
 32
0.0
 14
1.000000000000000E+20
 24
1.000000000000000E+20
 34
1.000000000000000E+20
 15
-1.000000000000000E+20
 25
-1.000000000000000E+20
 35
-1.000000000000000E+20
146
0.0
 13
0.0
 23
0.0
 33
0.0
 16
1.0
 26
0.0
 36
0.0
 17
0.0
 27
1.0
 37
0.0
 76
     0
330
1B
  0
LAYOUT
  5
26
102
{ACAD_REACTORS
330
1A
102
}
330
1A
100
AcDbPlotSettings
  1

  2
none_device
  4

  6

 40
0.0
 41
0.0
 42
0.0
 43
0.0
 44
0.0
 45
0.0
 46
0.0
 47
0.0
 48
0.0
 49
0.0
140
0.0
141
0.0
142
1.0
143
1.0
 70
   688
 72
     0
 73
     0
 74
     5
  7

 75
    16
 76
     0
 77
     2
 78
   300
147
1.0
148
0.0
149
0.0
100
AcDbLayout
  1
Layout2
 70
     1
 71
     2
 10
0.0
 20
0.0
 11
0.0
 21
0.0
 12
0.0
 22
0.0
 32
0.0
 14
0.0
 24
0.0
 34
0.0
 15
0.0
 25
0.0
 35
0.0
146
0.0
 13
0.0
 23
0.0
 33
0.0
 16
1.0
 26
0.0
 36
0.0
 17
0.0
 27
1.0
 37
0.0
 76
     0
330
23
  0
LAYOUT
  5
22
102
{ACAD_REACTORS
330
1A
102
}
330
1A
100
AcDbPlotSettings
  1

  2
none_device
  4

  6

 40
0.0
 41
0.0
 42
0.0
 43
0.0
 44
0.0
 45
0.0
 46
0.0
 47
0.0
 48
0.0
 49
0.0
140
0.0
141
0.0
142
1.0
143
1.0
 70
  1712
 72
     0
 73
     0
 74
     0
  7

 75
     0
 76
     0
 77
     2
 78
   300
147
1.0
148
0.0
149
0.0
100
AcDbLayout
  1
Model
 70
     1
 71
     0
 10
0.0
 20
0.0
 11
12.0
 21
9.0
 12
0.0
 22
0.0
 32
0.0
 14
-10846.89124628159
 24
-6230.563897949031
 34
-0.0000000000000016
 15
-7456.789778778615
 25
-2974.574903274472
 35
0.0000000000000021
146
0.0
 13
0.0
 23
0.0
 33
0.0
 16
1.0
 26
0.0
 36
0.0
 17
0.0
 27
1.0
 37
0.0
 76
     0
330
1F
331
29
  0
MLINESTYLE
  5
18
102
{ACAD_REACTORS
330
17
102
}
330
17
100
AcDbMlineStyle
  2
Standard
 70
     0
  3

 62
   256
 51
90.0
 52
90.0
 71
     2
 49
0.5
 62
   256
  6
BYLAYER
 49
-0.5
 62
   256
  6
BYLAYER
  0
ACDBPLACEHOLDER
  5
F
102
{ACAD_REACTORS
330
E
102
}
330
E
  0
VISUALSTYLE
  5
2F
102
{ACAD_REACTORS
330
2A
102
}
330
2A
100
AcDbVisualStyle
  2
2dWireframe
 70
     4
 71
     0
 72
     2
 73
     0
 90
        0
 40
-0.6
 41
-30.0
 62
     5
 63
     7
421
 16777215
 74
     1
 91
        4
 64
     7
 65
   257
 75
     1
175
     1
 42
1.0
 92
        0
 66
   257
 43
1.0
 76
     1
 77
     6
 78
     2
 67
     7
 79
     5
170
     0
171
     0
290
     0
174
     0
 93
        1
 44
0.0
173
     0
291
     0
 45
0.0
1001
ACAD
1000
AcDbSavedByObjectVersion
1070
     0
  0
VISUALSTYLE
  5
31
102
{ACAD_REACTORS
330
2A
102
}
330
2A
100
AcDbVisualStyle
  2
3D Hidden
 70
     6
 71
     1
 72
     2
 73
     2
 90
        0
 40
-0.6
 41
-30.0
 62
     5
 63
     7
421
 16777215
 74
     2
 91
        2
 64
     7
 65
   257
 75
     2
175
     1
 42
40.0
 92
        0
 66
   257
 43
1.0
 76
     1
 77
     6
 78
     2
 67
     7
 79
     3
170
     0
171
     0
290
     0
174
     0
 93
        1
 44
0.0
173
     0
291
     0
 45
0.0
1001
ACAD
1000
AcDbSavedByObjectVersion
1070
     0
  0
VISUALSTYLE
  5
30
102
{ACAD_REACTORS
330
2A
102
}
330
2A
100
AcDbVisualStyle
  2
3dWireframe
 70
     5
 71
     0
 72
     2
 73
     0
 90
        0
 40
-0.6
 41
-30.0
 62
     5
 63
     7
421
 16777215
 74
     1
 91
        4
 64
     7
 65
   257
 75
     1
175
     1
 42
1.0
 92
        0
 66
   257
 43
1.0
 76
     1
 77
     6
 78
     2
 67
     7
 79
     5
170
     0
171
     0
290
     0
174
     0
 93
        1
 44
0.0
173
     0
291
     0
 45
0.0
1001
ACAD
1000
AcDbSavedByObjectVersion
1070
     0
  0
VISUALSTYLE
  5
32
102
{ACAD_REACTORS
330
2A
102
}
330
2A
100
AcDbVisualStyle
  2
Basic
 70
     7
 71
     1
 72
     0
 73
     1
 90
        0
 40
-0.6
 41
-30.0
 62
     5
 63
     7
421
 16777215
 74
     0
 91
        4
 64
     7
 65
   257
 75
     1
175
     1
 42
1.0
 92
        8
 66
     7
 43
1.0
 76
     1
 77
     6
 78
     2
 67
     7
 79
     5
170
     0
171
     0
290
     0
174
     0
 93
        1
 44
0.0
173
     0
291
     1
 45
0.0
1001
ACAD
1000
AcDbSavedByObjectVersion
1070
     0
  0
VISUALSTYLE
  5
36
102
{ACAD_REACTORS
330
2A
102
}
330
2A
100
AcDbVisualStyle
  2
Brighten
 70
    12
 71
     2
 72
     2
 73
     0
 90
        0
 40
-0.6
 41
-30.0
 62
     5
 63
     7
421
 16777215
 74
     1
 91
        4
 64
     7
 65
   257
 75
     1
175
     1
 42
1.0
 92
        8
 66
     7
 43
1.0
 76
     1
 77
     6
 78
     2
 67
     7
 79
     5
170
     0
171
     0
290
     0
174
     0
 93
        1
 44
50.0
173
     0
291
     1
 45
0.0
1001
ACAD
1000
AcDbSavedByObjectVersion
1070
     0
  0
VISUALSTYLE
  5
3A
102
{ACAD_REACTORS
330
2A
102
}
330
2A
100
AcDbVisualStyle
  2
ColorChange
 70
    16
 71
     2
 72
     2
 73
     3
 90
        0
 40
-0.6
 41
-30.0
 62
     5
 63
     8
421
  8421504
 74
     1
 91
        4
 64
     7
 65
   257
 75
     1
175
     1
 42
1.0
 92
        8
 66
     8
424
  8421504
 43
1.0
 76
     1
 77
     6
 78
     2
 67
     7
 79
     5
170
     0
171
     0
290
     0
174
     0
 93
        1
 44
0.0
173
     0
291
     1
 45
0.0
1001
ACAD
1000
AcDbSavedByObjectVersion
1070
     0
  0
VISUALSTYLE
  5
34
102
{ACAD_REACTORS
330
2A
102
}
330
2A
100
AcDbVisualStyle
  2
Conceptual
 70
     9
 71
     3
 72
     2
 73
     0
 90
        0
 40
-0.6
 41
-30.0
 62
     5
 63
     7
421
 16777215
 74
     2
 91
        2
 64
     7
 65
   257
 75
     1
175
     1
 42
40.0
 92
        8
 66
     7
 43
1.0
 76
     1
 77
     6
 78
     2
 67
     7
 79
     3
170
     0
171
     0
290
     0
174
     0
 93
        1
 44
0.0
173
     0
291
     0
 45
0.0
1001
ACAD
1000
AcDbSavedByObjectVersion
1070
     0
  0
VISUALSTYLE
  5
35
102
{ACAD_REACTORS
330
2A
102
}
330
2A
100
AcDbVisualStyle
  2
Dim
 70
    11
 71
     2
 72
     2
 73
     0
 90
        0
 40
-0.6
 41
-30.0
 62
     5
 63
     7
421
 16777215
 74
     1
 91
        4
 64
     7
 65
   257
 75
     1
175
     1
 42
1.0
 92
        8
 66
     7
 43
1.0
 76
     1
 77
     6
 78
     2
 67
     7
 79
     5
170
     0
171
     0
290
     0
174
     0
 93
        1
 44
-50.0
173
     0
291
     1
 45
0.0
1001
ACAD
1000
AcDbSavedByObjectVersion
1070
     0
  0
VISUALSTYLE
  5
39
102
{ACAD_REACTORS
330
2A
102
}
330
2A
100
AcDbVisualStyle
  2
Facepattern
 70
    15
 71
     2
 72
     2
 73
     0
 90
        0
 40
-0.6
 41
-30.0
 62
     5
 63
     7
421
 16777215
 74
     1
 91
        4
 64
     7
 65
   257
 75
     1
175
     1
 42
1.0
 92
        8
 66
     7
 43
1.0
 76
     1
 77
     6
 78
     2
 67
     7
 79
     5
170
     0
171
     0
290
     0
174
     0
 93
        1
 44
0.0
173
     0
291
     1
 45
0.0
1001
ACAD
1000
AcDbSavedByObjectVersion
1070
     0
  0
VISUALSTYLE
  5
2B
102
{ACAD_REACTORS
330
2A
102
}
330
2A
100
AcDbVisualStyle
  2
Flat
 70
     0
 71
     2
 72
     1
 73
     1
 90
        2
 40
-0.6
 41
30.0
 62
     5
 63
     7
421
 16777215
 74
     0
 91
        4
 64
     7
 65
   257
 75
     1
175
     1
 42
1.0
 92
        8
 66
     7
 43
1.0
 76
     1
 77
     6
 78
     2
 67
     7
 79
     5
170
     0
171
     0
290
     0
174
     0
 93
       13
 44
0.0
173
     0
291
     1
 45
0.0
1001
ACAD
1000
AcDbSavedByObjectVersion
1070
     0
  0
VISUALSTYLE
  5
2C
102
{ACAD_REACTORS
330
2A
102
}
330
2A
100
AcDbVisualStyle
  2
FlatWithEdges
 70
     1
 71
     2
 72
     1
 73
     1
 90
        2
 40
-0.6
 41
30.0
 62
     5
 63
     7
421
 16777215
 74
     1
 91
        4
 64
     7
 65
   257
 75
     1
175
     1
 42
1.0
 92
        0
 66
   257
 43
1.0
 76
     1
 77
     6
 78
     2
 67
     7
 79
     5
170
     0
171
     0
290
     0
174
     0
 93
       13
 44
0.0
173
     0
291
     1
 45
0.0
1001
ACAD
1000
AcDbSavedByObjectVersion
1070
     0
  0
VISUALSTYLE
  5
2D
102
{ACAD_REACTORS
330
2A
102
}
330
2A
100
AcDbVisualStyle
  2
Gouraud
 70
     2
 71
     2
 72
     2
 73
     1
 90
        2
 40
-0.6
 41
30.0
 62
     5
 63
     7
421
 16777215
 74
     0
 91
        4
 64
     7
 65
   257
 75
     1
175
     1
 42
1.0
 92
        0
 66
     7
 43
1.0
 76
     1
 77
     6
 78
     2
 67
     7
 79
     5
170
     0
171
     0
290
     0
174
     0
 93
       13
 44
0.0
173
     0
291
     1
 45
0.0
1001
ACAD
1000
AcDbSavedByObjectVersion
1070
     0
  0
VISUALSTYLE
  5
2E
102
{ACAD_REACTORS
330
2A
102
}
330
2A
100
AcDbVisualStyle
  2
GouraudWithEdges
 70
     3
 71
     2
 72
     2
 73
     1
 90
        2
 40
-0.6
 41
30.0
 62
     5
 63
     7
421
 16777215
 74
     1
 91
        4
 64
     7
 65
   257
 75
     1
175
     1
 42
1.0
 92
        0
 66
   257
 43
1.0
 76
     1
 77
     6
 78
     2
 67
     7
 79
     5
170
     0
171
     0
290
     0
174
     0
 93
       13
 44
0.0
173
     0
291
     1
 45
0.0
1001
ACAD
1000
AcDbSavedByObjectVersion
1070
     0
  0
VISUALSTYLE
  5
38
102
{ACAD_REACTORS
330
2A
102
}
330
2A
100
AcDbVisualStyle
  2
Linepattern
 70
    14
 71
     2
 72
     2
 73
     0
 90
        0
 40
-0.6
 41
-30.0
 62
     5
 63
     7
421
 16777215
 74
     1
 91
        4
 64
     7
 65
   257
 75
     7
175
     7
 42
1.0
 92
        8
 66
     7
 43
1.0
 76
     1
 77
     6
 78
     2
 67
     7
 79
     5
170
     0
171
     0
290
     0
174
     0
 93
        1
 44
0.0
173
     0
291
     1
 45
0.0
1001
ACAD
1000
AcDbSavedByObjectVersion
1070
     0
  0
VISUALSTYLE
  5
33
102
{ACAD_REACTORS
330
2A
102
}
330
2A
100
AcDbVisualStyle
  2
Realistic
 70
     8
 71
     2
 72
     2
 73
     0
 90
        0
 40
-0.6
 41
-30.0
 62
     5
 63
     7
421
 16777215
 74
     1
 91
        0
 64
     7
 65
   257
 75
     1
175
     1
 42
1.0
 92
        8
 66
     8
424
  7895160
 43
1.0
 76
     1
 77
     6
 78
     2
 67
     7
 79
     5
170
     0
171
     0
290
     0
174
     0
 93
       13
 44
0.0
173
     0
291
     0
 45
0.0
1001
ACAD
1000
AcDbSavedByObjectVersion
1070
     0
  0
VISUALSTYLE
  5
37
102
{ACAD_REACTORS
330
2A
102
}
330
2A
100
AcDbVisualStyle
  2
Thicken
 70
    13
 71
     2
 72
     2
 73
     0
 90
        0
 40
-0.6
 41
-30.0
 62
     5
 63
     7
421
 16777215
 74
     1
 91
        4
 64
     7
 65
   257
 75
     1
175
     1
 42
1.0
 92
       12
 66
     7
 43
1.0
 76
     1
 77
     6
 78
     2
 67
     7
 79
     5
170
     0
171
     0
290
     0
174
     0
 93
        1
 44
0.0
173
     0
291
     1
 45
0.0
1001
ACAD
1000
AcDbSavedByObjectVersion
1070
     0
  0
ENDSEC
  0
EOF
