  0
SECTION
  2
HEADER
  9
$ACADVER
  1
AC1018
  9
$ACADMAINTVER
 70
     0
  9
$DWGCODEPAGE
  3
ANSI_1252
  9
$INSBASE
 10
0.0
 20
0.0
 30
0.0
  9
$EXTMIN
 10
-10.30519410126971
 20
-0.0010969117718707
 30
0.0
  9
$EXTMAX
 10
42.53112020426538
 20
61.1382268285444
 30
0.0
  9
$LIMMIN
 10
0.0
 20
0.0
  9
$LIMMAX
 10
12.0
 20
9.0
  9
$ORTHOMODE
 70
     0
  9
$REGENMODE
 70
     1
  9
$FILLMODE
 70
     1
  9
$QTEXTMODE
 70
     0
  9
$MIRRTEXT
 70
     1
  9
$LTSCALE
 40
0.0393700787401575
  9
$ATTMODE
 70
     1
  9
$TEXTSIZE
 40
0.2
  9
$TRACEWID
 40
0.05
  9
$TEXTSTYLE
  7
Standard
  9
$CLAYER
  8
Default
  9
$CELTYPE
  6
ByLayer
  9
$CECOLOR
 62
   256
  9
$CELTSCALE
 40
1.0
  9
$DISPSILH
 70
     0
  9
$DIMSCALE
 40
1.0
  9
$DIMASZ
 40
0.18
  9
$DIMEXO
 40
0.0625
  9
$DIMDLI
 40
0.38
  9
$DIMRND
 40
0.0
  9
$DIMDLE
 40
0.0
  9
$DIMEXE
 40
0.18
  9
$DIMTP
 40
0.0
  9
$DIMTM
 40
0.0
  9
$DIMTXT
 40
0.18
  9
$DIMCEN
 40
0.09
  9
$DIMTSZ
 40
0.0
  9
$DIMTOL
 70
     0
  9
$DIMLIM
 70
     0
  9
$DIMTIH
 70
     1
  9
$DIMTOH
 70
     1
  9
$DIMSE1
 70
     0
  9
$DIMSE2
 70
     0
  9
$DIMTAD
 70
     0
  9
$DIMZIN
 70
     0
  9
$DIMBLK
  1

  9
$DIMASO
 70
     1
  9
$DIMSHO
 70
     1
  9
$DIMPOST
  1

  9
$DIMAPOST
  1

  9
$DIMALT
 70
     0
  9
$DIMALTD
 70
     2
  9
$DIMALTF
 40
25.4
  9
$DIMLFAC
 40
1.0
  9
$DIMTOFL
 70
     0
  9
$DIMTVP
 40
0.0
  9
$DIMTIX
 70
     0
  9
$DIMSOXD
 70
     0
  9
$DIMSAH
 70
     0
  9
$DIMBLK1
  1

  9
$DIMBLK2
  1

  9
$DIMSTYLE
  2
Standard
  9
$DIMCLRD
 70
     0
  9
$DIMCLRE
 70
     0
  9
$DIMCLRT
 70
     0
  9
$DIMTFAC
 40
1.0
  9
$DIMGAP
 40
0.09
  9
$DIMJUST
 70
     0
  9
$DIMSD1
 70
     0
  9
$DIMSD2
 70
     0
  9
$DIMTOLJ
 70
     1
  9
$DIMTZIN
 70
     0
  9
$DIMALTZ
 70
     0
  9
$DIMALTTZ
 70
     0
  9
$DIMUPT
 70
     0
  9
$DIMDEC
 70
     4
  9
$DIMTDEC
 70
     4
  9
$DIMALTU
 70
     2
  9
$DIMALTTD
 70
     2
  9
$DIMTXSTY
  7
Standard
  9
$DIMAUNIT
 70
     0
  9
$DIMADEC
 70
     0
  9
$DIMALTRND
 40
0.0
  9
$DIMAZIN
 70
     0
  9
$DIMDSEP
 70
    46
  9
$DIMATFIT
 70
     3
  9
$DIMFRAC
 70
     0
  9
$DIMLDRBLK
  1

  9
$DIMLUNIT
 70
     2
  9
$DIMLWD
 70
    -2
  9
$DIMLWE
 70
    -2
  9
$DIMTMOVE
 70
     2
  9
$LUNITS
 70
     2
  9
$LUPREC
 70
     3
  9
$SKETCHINC
 40
0.1
  9
$FILLETRAD
 40
0.5
  9
$AUNITS
 70
     0
  9
$AUPREC
 70
     0
  9
$MENU
  1
.
  9
$ELEVATION
 40
0.0
  9
$PELEVATION
 40
0.0
  9
$THICKNESS
 40
0.0
  9
$LIMCHECK
 70
     0
  9
$CHAMFERA
 40
0.5
  9
$CHAMFERB
 40
0.5
  9
$CHAMFERC
 40
1.0
  9
$CHAMFERD
 40
0.0
  9
$SKPOLY
 70
     0
  9
$TDCREATE
 40
2456967.461306134
  9
$TDUCREATE
 40
2456967.669639468
  9
$TDUPDATE
 40
2456967.461306146
  9
$TDUUPDATE
 40
2456967.669639479
  9
$TDINDWG
 40
0.0000000116
  9
$TDUSRTIMER
 40
0.0000000116
  9
$USRTIMER
 70
     1
  9
$ANGBASE
 50
0.0
  9
$ANGDIR
 70
     0
  9
$PDMODE
 70
     0
  9
$PDSIZE
 40
0.0
  9
$PLINEWID
 40
0.0
  9
$SPLFRAME
 70
     0
  9
$SPLINETYPE
 70
     6
  9
$SPLINESEGS
 70
     8
  9
$HANDSEED
  5
19E
  9
$SURFTAB1
 70
     6
  9
$SURFTAB2
 70
     6
  9
$SURFTYPE
 70
     6
  9
$SURFU
 70
     6
  9
$SURFV
 70
     6
  9
$UCSBASE
  2

  9
$UCSNAME
  2

  9
$UCSORG
 10
0.0
 20
0.0
 30
0.0
  9
$UCSXDIR
 10
1.0
 20
0.0
 30
0.0
  9
$UCSYDIR
 10
0.0
 20
1.0
 30
0.0
  9
$UCSORTHOREF
  2

  9
$UCSORTHOVIEW
 70
     0
  9
$UCSORGTOP
 10
0.0
 20
0.0
 30
0.0
  9
$UCSORGBOTTOM
 10
0.0
 20
0.0
 30
0.0
  9
$UCSORGLEFT
 10
0.0
 20
0.0
 30
0.0
  9
$UCSORGRIGHT
 10
0.0
 20
0.0
 30
0.0
  9
$UCSORGFRONT
 10
0.0
 20
0.0
 30
0.0
  9
$UCSORGBACK
 10
0.0
 20
0.0
 30
0.0
  9
$PUCSBASE
  2

  9
$PUCSNAME
  2

  9
$PUCSORG
 10
0.0
 20
0.0
 30
0.0
  9
$PUCSXDIR
 10
1.0
 20
0.0
 30
0.0
  9
$PUCSYDIR
 10
0.0
 20
1.0
 30
0.0
  9
$PUCSORTHOREF
  2

  9
$PUCSORTHOVIEW
 70
     0
  9
$PUCSORGTOP
 10
0.0
 20
0.0
 30
0.0
  9
$PUCSORGBOTTOM
 10
0.0
 20
0.0
 30
0.0
  9
$PUCSORGLEFT
 10
0.0
 20
0.0
 30
0.0
  9
$PUCSORGRIGHT
 10
0.0
 20
0.0
 30
0.0
  9
$PUCSORGFRONT
 10
0.0
 20
0.0
 30
0.0
  9
$PUCSORGBACK
 10
0.0
 20
0.0
 30
0.0
  9
$USERI1
 70
     0
  9
$USERI2
 70
     0
  9
$USERI3
 70
     0
  9
$USERI4
 70
     0
  9
$USERI5
 70
     0
  9
$USERR1
 40
0.0
  9
$USERR2
 40
0.0
  9
$USERR3
 40
0.0
  9
$USERR4
 40
0.0
  9
$USERR5
 40
0.0
  9
$WORLDVIEW
 70
     1
  9
$SHADEDGE
 70
     3
  9
$SHADEDIF
 70
    70
  9
$TILEMODE
 70
     1
  9
$MAXACTVP
 70
    64
  9
$PINSBASE
 10
0.0
 20
0.0
 30
0.0
  9
$PLIMCHECK
 70
     0
  9
$PEXTMIN
 10
1.000000000000000E+20
 20
1.000000000000000E+20
 30
1.000000000000000E+20
  9
$PEXTMAX
 10
-1.000000000000000E+20
 20
-1.000000000000000E+20
 30
-1.000000000000000E+20
  9
$PLIMMIN
 10
0.0
 20
0.0
  9
$PLIMMAX
 10
12.0
 20
9.0
  9
$UNITMODE
 70
     0
  9
$VISRETAIN
 70
     1
  9
$PLINEGEN
 70
     0
  9
$PSLTSCALE
 70
     1
  9
$TREEDEPTH
 70
  3020
  9
$CMLSTYLE
  2
Standard
  9
$CMLJUST
 70
     0
  9
$CMLSCALE
 40
1.0
  9
$PROXYGRAPHICS
 70
     1
  9
$MEASUREMENT
 70
     0
  9
$CELWEIGHT
370
    -1
  9
$ENDCAPS
280
     0
  9
$JOINSTYLE
280
     0
  9
$LWDISPLAY
290
     0
  9
$INSUNITS
 70
     1
  9
$HYPERLINKBASE
  1

  9
$STYLESHEET
  1

  9
$XEDIT
290
     1
  9
$CEPSNTYPE
380
     0
  9
$PSTYLEMODE
290
     1
  9
$FINGERPRINTGUID
  2
{1C2CEA82-F8B8-46DA-B059-80F008BCB2B2}
  9
$VERSIONGUID
  2
{FAEB1C32-E019-11D5-929B-00C0DF256EC4}
  9
$EXTNAMES
290
     1
  9
$PSVPSCALE
 40
0.0
  9
$OLESTARTUP
290
     0
  9
$SORTENTS
280
   127
  9
$INDEXCTL
280
     0
  9
$HIDETEXT
280
     1
  9
$XCLIPFRAME
290
     0
  9
$HALOGAP
280
     0
  9
$OBSCOLOR
 70
   257
  9
$OBSLTYPE
280
     0
  9
$INTERSECTIONDISPLAY
280
     0
  9
$INTERSECTIONCOLOR
 70
   257
  9
$DIMASSOC
280
     2
  9
$PROJECTNAME
  1

  0
ENDSEC
  0
SECTION
  2
CLASSES
  0
CLASS
  1
ACDBDICTIONARYWDFLT
  2
AcDbDictionaryWithDefault
  3
ObjectDBX Classes
 90
        0
 91
        4
280
     0
281
     0
  0
CLASS
  1
VISUALSTYLE
  2
AcDbVisualStyle
  3
ObjectDBX Classes
 90
     4095
 91
        4
280
     0
281
     0
  0
ENDSEC
  0
SECTION
  2
TABLES
  0
TABLE
  2
VPORT
  5
8
330
0
100
AcDbSymbolTable
 70
     1
  0
VPORT
  5
29
330
8
100
AcDbSymbolTableRecord
100
AcDbViewportTableRecord
  2
*Active
 70
     0
 10
0.0
 20
0.0
 11
1.0
 21
1.0
 12
16.11296305149784
 22
30.56856495838627
 13
0.0
 23
0.0
 14
0.5
 24
0.5
 15
0.5
 25
0.5
 16
0.0
 26
0.0
 36
1.0
 17
0.0
 27
0.0
 37
0.0
 40
62.3621102151226
 41
0.864195268661337
 42
50.0
 43
0.0
 44
0.0
 50
0.0
 51
0.0
 71
     0
 72
   100
 73
     1
 74
     3
 75
     0
 76
     0
 77
     0
 78
     0
281
     0
 65
     1
110
0.0
120
0.0
130
0.0
111
1.0
121
0.0
131
0.0
112
0.0
122
1.0
132
0.0
 79
     0
146
0.0
  0
ENDTAB
  0
TABLE
  2
LTYPE
  5
5
330
0
100
AcDbSymbolTable
 70
     1
  0
LTYPE
  5
14
330
5
100
AcDbSymbolTableRecord
100
AcDbLinetypeTableRecord
  2
ByBlock
 70
     0
  3

 72
    65
 73
     0
 40
0.0
  0
LTYPE
  5
15
330
5
100
AcDbSymbolTableRecord
100
AcDbLinetypeTableRecord
  2
ByLayer
 70
     0
  3

 72
    65
 73
     0
 40
0.0
  0
LTYPE
  5
16
330
5
100
AcDbSymbolTableRecord
100
AcDbLinetypeTableRecord
  2
Continuous
 70
     0
  3
Solid line
 72
    65
 73
     0
 40
0.0
  0
ENDTAB
  0
TABLE
  2
LAYER
  5
2
330
0
100
AcDbSymbolTable
 70
     2
  0
LAYER
  5
10
330
2
100
AcDbSymbolTableRecord
100
AcDbLayerTableRecord
  2
0
 70
     0
 62
     7
  6
Continuous
370
    -3
390
F
  0
LAYER
  5
3B
330
2
100
AcDbSymbolTableRecord
100
AcDbLayerTableRecord
  2
Default
 70
     0
 62
     7
  6
Continuous
370
    -3
390
F
  0
ENDTAB
  0
TABLE
  2
STYLE
  5
3
330
0
100
AcDbSymbolTable
 70
     1
  0
STYLE
  5
11
330
3
100
AcDbSymbolTableRecord
100
AcDbTextStyleTableRecord
  2
Standard
 70
     0
 40
0.0
 41
1.0
 50
0.0
 71
     0
 42
0.2
  3
txt
  4

  0
ENDTAB
  0
TABLE
  2
VIEW
  5
6
330
0
100
AcDbSymbolTable
 70
     0
  0
ENDTAB
  0
TABLE
  2
UCS
  5
7
330
0
100
AcDbSymbolTable
 70
     0
  0
ENDTAB
  0
TABLE
  2
APPID
  5
9
330
0
100
AcDbSymbolTable
 70
     1
  0
APPID
  5
12
330
9
100
AcDbSymbolTableRecord
100
AcDbRegAppTableRecord
  2
ACAD
 70
     0
  0
ENDTAB
  0
TABLE
  2
DIMSTYLE
  5
A
330
0
100
AcDbSymbolTable
 70
     1
100
AcDbDimStyleTable
  0
DIMSTYLE
105
27
330
A
100
AcDbSymbolTableRecord
100
AcDbDimStyleTableRecord
  2
Standard
 70
     0
340
11
  0
ENDTAB
  0
TABLE
  2
BLOCK_RECORD
  5
1
330
0
100
AcDbSymbolTable
 70
     1
  0
BLOCK_RECORD
  5
1F
330
1
100
AcDbSymbolTableRecord
100
AcDbBlockTableRecord
  2
*Model_Space
340
22
  0
BLOCK_RECORD
  5
1B
330
1
100
AcDbSymbolTableRecord
100
AcDbBlockTableRecord
  2
*Paper_Space
340
1E
  0
BLOCK_RECORD
  5
23
330
1
100
AcDbSymbolTableRecord
100
AcDbBlockTableRecord
  2
*Paper_Space0
340
26
  0
ENDTAB
  0
ENDSEC
  0
SECTION
  2
BLOCKS
  0
BLOCK
  5
20
330
1F
100
AcDbEntity
  8
0
100
AcDbBlockBegin
  2
*Model_Space
 70
     0
 10
0.0
 20
0.0
 30
0.0
  3
*Model_Space
  1

  0
ENDBLK
  5
21
330
1F
100
AcDbEntity
  8
0
100
AcDbBlockEnd
  0
BLOCK
  5
1C
330
1B
100
AcDbEntity
 67
     1
  8
0
100
AcDbBlockBegin
  2
*Paper_Space
 70
     0
 10
0.0
 20
0.0
 30
0.0
  3
*Paper_Space
  1

  0
ENDBLK
  5
1D
330
1B
100
AcDbEntity
 67
     1
  8
0
100
AcDbBlockEnd
  0
BLOCK
  5
24
330
23
100
AcDbEntity
  8
0
100
AcDbBlockBegin
  2
*Paper_Space0
 70
     0
 10
0.0
 20
0.0
 30
0.0
  3
*Paper_Space0
  1

  0
ENDBLK
  5
25
330
23
100
AcDbEntity
  8
0
100
AcDbBlockEnd
  0
ENDSEC
  0
SECTION
  2
ENTITIES
  0
ARC
  5
3C
330
1F
100
AcDbEntity
  8
Default
100
AcDbCircle
 10
22.15579679577515
 20
0.3169018588539809
 30
0.0
 40
0.3130000000000004
100
AcDbArc
 50
165.0000000000024
 51
345.000000000001
  0
SPLINE
  5
3D
330
1F
100
AcDbEntity
  8
Default
100
AcDbSpline
210
0.0
220
0.0
230
1.0
 70
    12
 71
     2
 72
     6
 73
     3
 74
     0
 42
0.0000000001
 43
0.0000000001
 40
0.0
 40
0.0
 40
0.0
 40
2.214180770429409
 40
2.214180770429409
 40
2.214180770429409
 10
29.37602611079164
 20
16.82780677822677
 30
0.0
 41
1.0
 10
28.84067051860529
 20
17.79685513188047
 30
0.0
 41
0.9999931460790769
 10
28.29574386106832
 20
18.80062522753476
 30
0.0
 41
1.0
  0
SPLINE
  5
3E
330
1F
100
AcDbEntity
  8
Default
100
AcDbSpline
210
0.0
220
0.0
230
1.0
 70
     8
 71
     3
 72
    12
 73
     8
 74
     0
 42
0.0000000001
 43
0.0000000001
 40
0.0
 40
0.0
 40
0.0
 40
0.0
 40
0.2639859535880296
 40
0.5031150420067292
 40
0.9585712003459558
 40
1.441803683154144
 40
2.016737052370897
 40
2.016737052370897
 40
2.016737052370897
 40
2.016737052370897
 10
28.29574386106832
 20
18.80062522753476
 30
0.0
 10
28.25405127982107
 20
18.87837130198329
 30
0.0
 10
28.15665400313041
 20
19.01581309891735
 30
0.0
 10
27.91169608743084
 20
19.22640776481473
 30
0.0
 10
27.50120849428016
 20
19.30730555041776
 30
0.0
 10
27.03693119270933
 20
19.05474499345242
 30
0.0
 10
26.84219239855692
 20
18.75314439384867
 30
0.0
 10
26.75937996106549
 20
18.5804439009809
 30
0.0
  0
ARC
  5
3F
330
1F
100
AcDbEntity
  8
Default
100
AcDbCircle
 10
28.46273392616644
 20
17.76366051247779
 30
0.0
 40
1.889060569214162
100
AcDbArc
 50
154.3815939553787
 51
165.8279099109673
  0
SPLINE
  5
40
330
1F
100
AcDbEntity
  8
Default
100
AcDbSpline
210
0.0
220
0.0
230
1.0
 70
    24
 71
     2
 72
     6
 73
     3
 74
     0
 42
0.0000000001
 43
0.0000000001
 40
0.0
 40
0.0
 40
0.0
 40
18.45713274992135
 40
18.45713274992135
 40
18.45713274992135
 10
26.63116742737354
 20
18.22616888500662
 30
0.0
 10
24.24251799507212
 20
9.312090624938392
 30
0.0
 10
21.8538685627707
 20
0.398012364870171
 30
0.0
  0
LINE
  5
41
330
1F
100
AcDbEntity
  8
Default
100
AcDbLine
 10
22.45764861649239
 20
0.2360209072589976
 30
0.0
 11
27.23465390329584
 21
18.0640473456494
 31
0.0
  0
ARC
  5
42
330
1F
100
AcDbEntity
  8
Default
100
AcDbCircle
 10
28.47645869285203
 20
17.73130675513099
 30
0.0
 40
1.285610919346616
100
AcDbArc
 50
138.8328596108664
 51
165.000000000012
  0
SPLINE
  5
43
330
1F
100
AcDbEntity
  8
Default
100
AcDbSpline
210
0.0
220
0.0
230
1.0
 70
     8
 71
     3
 72
    12
 73
     8
 74
     0
 42
0.0000000001
 43
0.0000000001
 40
0.0
 40
0.0
 40
0.0
 40
0.0
 40
0.0452680447334109
 40
0.0842656855033955
 40
0.1373982052754821
 40
0.2120102331750809
 40
0.3199447094083522
 40
0.3199447094083522
 40
0.3199447094083522
 40
0.3199447094083522
 10
27.50866037175891
 20
18.5775702162544
 30
0.0
 10
27.51939901865764
 20
18.58879883167058
 30
0.0
 10
27.54309051919459
 20
18.60292502936146
 30
0.0
 10
27.58016131373812
 20
18.63094389832394
 30
0.0
 10
27.6392462475641
 20
18.64084033180802
 30
0.0
 10
27.69866921613479
 20
18.57770461474029
 30
0.0
 10
27.73099922516178
 20
18.53256071662889
 30
0.0
 10
27.7492698626646
 20
18.49728938734349
 30
0.0
  0
SPLINE
  5
44
330
1F
100
AcDbEntity
  8
Default
100
AcDbSpline
210
0.0
220
0.0
230
1.0
 70
    12
 71
     2
 72
     6
 73
     3
 74
     0
 42
0.0000000001
 43
0.0000000001
 40
0.0
 40
0.0
 40
0.0
 40
2.445223510254951
 40
2.445223510254951
 40
2.445223510254951
 10
27.7492698626646
 20
18.49728938734349
 30
0.0
 41
1.0
 10
28.33294431495938
 20
17.42103558188121
 30
0.0
 41
0.9999897855350538
 10
28.92548997457213
 20
16.35160138420902
 30
0.0
 41
1.0
  0
ARC
  5
45
330
1F
100
AcDbEntity
  8
Default
100
AcDbCircle
 10
41.71280402994684
 20
-3.816143434957917
 30
0.0
 40
4.163860774476061
100
AcDbArc
 50
91.8568602099126
 51
100.4788747243007
  0
SPLINE
  5
46
330
1F
100
AcDbEntity
  8
Default
100
AcDbSpline
210
0.0
220
0.0
230
1.0
 70
    12
 71
     2
 72
     6
 73
     3
 74
     0
 42
0.0000000001
 43
0.0000000001
 40
0.0
 40
0.0
 40
0.0
 40
0.0386071186616564
 40
0.0386071186616564
 40
0.0386071186616564
 10
37.17780249584995
 20
16.75848804310434
 30
0.0
 41
1.0
 10
37.17452609245244
 20
16.73945598008708
 30
0.0
 41
0.9993427218135228
 10
37.1698793501625
 20
16.72071132676922
 30
0.0
 41
1.0
  0
SPLINE
  5
47
330
1F
100
AcDbEntity
  8
Default
100
AcDbSpline
210
0.0
220
0.0
230
1.0
 70
    12
 71
     2
 72
     6
 73
     3
 74
     0
 42
0.0000000001
 43
0.0000000001
 40
0.0
 40
0.0
 40
0.0
 40
0.1030253619859047
 40
0.1030253619859047
 40
0.1030253619859047
 10
31.89826328725438
 20
16.24945325700829
 30
0.0
 41
1.0
 10
31.90796555689024
 20
16.19882163009445
 30
0.0
 41
0.9988318248813274
 10
31.91273502190019
 20
16.14748988666461
 30
0.0
 41
1.0
  0
SPLINE
  5
48
330
1F
100
AcDbEntity
  8
Default
100
AcDbSpline
210
0.0
220
0.0
230
1.0
 70
    12
 71
     2
 72
     6
 73
     3
 74
     0
 42
0.0000000001
 43
0.0000000001
 40
0.0
 40
0.0
 40
0.0
 40
0.3452869146421289
 40
0.3452869146421289
 40
0.3452869146421289
 10
34.18670038691856
 20
16.52134817489605
 30
0.0
 41
1.0
 10
34.35799183470926
 20
16.54291212723592
 30
0.0
 41
0.9999999805998954
 10
34.52929176444239
 20
16.56440859671747
 30
0.0
 41
1.0
  0
SPLINE
  5
49
330
1F
100
AcDbEntity
  8
Default
100
AcDbSpline
210
0.0
220
0.0
230
1.0
 70
    12
 71
     2
 72
     6
 73
     3
 74
     0
 42
0.0000000001
 43
0.0000000001
 40
0.0
 40
0.0
 40
0.0
 40
0.0961494044018356
 40
0.0961494044018356
 40
0.0961494044018356
 10
34.52929176444239
 20
16.56440859671753
 30
0.0
 41
1.0
 10
34.53879195776388
 20
16.51720776351869
 30
0.0
 41
0.9977366220019549
 10
34.5418727461899
 20
16.46915902710987
 30
0.0
 41
1.0
  0
SPLINE
  5
4A
330
1F
100
AcDbEntity
  8
Default
100
AcDbSpline
210
0.0
220
0.0
230
1.0
 70
    12
 71
     2
 72
     6
 73
     3
 74
     0
 42
0.0000000001
 43
0.0000000001
 40
0.0
 40
0.0
 40
0.0
 40
0.34871336792383
 40
0.34871336792383
 40
0.34871336792383
 10
36.81805484145396
 20
16.82334877153651
 30
0.0
 41
1.0
 10
36.9916026072507
 20
16.84014131835445
 30
0.0
 41
0.9999861007087908
 10
37.1653177965343
 20
16.85510292434553
 30
0.0
 41
1.0
  0
SPLINE
  5
4B
330
1F
100
AcDbEntity
  8
Default
100
AcDbSpline
210
0.0
220
0.0
230
1.0
 70
    12
 71
     2
 72
     6
 73
     3
 74
     0
 42
0.0000000001
 43
0.0000000001
 40
0.0
 40
0.0
 40
0.0
 40
0.3445086105441869
 40
0.3445086105441869
 40
0.3445086105441869
 10
31.55543783902816
 20
16.21545290539216
 30
0.0
 41
1.0
 10
31.72693032519603
 20
16.23164884062989
 30
0.0
 41
0.9999889935142514
 10
31.89826328725438
 20
16.24945325700829
 30
0.0
 41
1.0
  0
SPLINE
  5
4C
330
1F
100
AcDbEntity
  8
Default
100
AcDbSpline
210
0.0
220
0.0
230
1.0
 70
     8
 71
     3
 72
    16
 73
    12
 74
     0
 42
0.0000000001
 43
0.0000000001
 40
0.0
 40
0.0
 40
0.0
 40
0.0
 40
1.0
 40
2.0
 40
3.0
 40
4.0
 40
5.0
 40
6.0
 40
7.0
 40
8.0
 40
9.0
 40
9.0
 40
9.0
 40
9.0
 10
22.48728871904702
 20
32.04072129152792
 30
0.0
 10
22.64985513325377
 20
31.47978789239808
 30
0.0
 10
22.93837338802561
 20
30.34704578945712
 30
0.0
 10
23.23922333962646
 20
28.61993258022726
 30
0.0
 10
23.45573131445454
 20
26.88106962755358
 30
0.0
 10
23.64203400678387
 20
25.13905200612513
 30
0.0
 10
23.78787907277909
 20
23.39194893621796
 30
0.0
 10
23.85017894382027
 20
21.64357592843411
 30
0.0
 10
24.07791343598514
 20
19.89055917089166
 30
0.0
 10
24.93974832654452
 20
18.3225601664479
 30
0.0
 10
25.87463129760809
 20
17.58682526312434
 30
0.0
 10
26.38362964575391
 20
17.30239533840341
 30
0.0
  0
SPLINE
  5
4D
330
1F
100
AcDbEntity
  8
Default
100
AcDbSpline
210
0.0
220
0.0
230
1.0
 70
    12
 71
     2
 72
     6
 73
     3
 74
     0
 42
0.0000000001
 43
0.0000000001
 40
0.0
 40
0.0
 40
0.0
 40
0.0493556684224416
 40
0.0493556684224416
 40
0.0493556684224416
 10
34.5418727461899
 20
16.46915902710987
 30
0.0
 41
1.0
 10
34.53949218614371
 20
16.44459267256654
 30
0.0
 41
0.9997816609613368
 10
34.53608726660936
 20
16.42014723608759
 30
0.0
 41
1.0
  0
SPLINE
  5
4E
330
1F
100
AcDbEntity
  8
Default
100
AcDbSpline
210
0.0
220
0.0
230
1.0
 70
    12
 71
     2
 72
     6
 73
     3
 74
     0
 42
0.0000000001
 43
0.0000000001
 40
0.0
 40
0.0
 40
0.0
 40
0.0803114375025241
 40
0.0803114375025241
 40
0.0803114375025241
 10
31.91273502190019
 20
16.14748988666461
 30
0.0
 41
1.0
 10
31.91409402882939
 20
16.10734739610983
 30
0.0
 41
0.9996351925177726
 10
31.91328343325827
 20
16.06719008814984
 30
0.0
 41
1.0
  0
SPLINE
  5
4F
330
1F
100
AcDbEntity
  8
Default
100
AcDbSpline
210
0.0
220
0.0
230
1.0
 70
    12
 71
     3
 72
    12
 73
     8
 74
     0
 42
0.0000000001
 43
0.0000000001
 40
0.0
 40
0.0
 40
0.0
 40
0.0
 40
0.5000923912246765
 40
0.5000923912246765
 40
0.7499538313486022
 40
0.7499538313486022
 40
0.9978803374167774
 40
0.9978803374167774
 40
0.9978803374167774
 40
0.9978803374167774
 10
29.22756506995871
 20
15.81982029185706
 30
0.0
 41
1.0
 10
30.87383326508539
 20
15.83614151937455
 30
0.0
 41
1.0
 10
32.67271822555468
 20
16.14462992916663
 30
0.0
 41
1.0
 10
35.43808613135749
 20
16.52413242550474
 30
0.0
 41
1.0
 10
36.30173263956679
 20
16.63122220284347
 30
0.0
 41
1.0
 10
37.85897251529137
 20
16.76176516341655
 30
0.0
 41
1.0
 10
38.5440124836321
 20
16.78891914710768
 30
0.0
 41
1.0
 10
39.22401067115503
 20
16.75712262489272
 30
0.0
 41
1.0
  0
SPLINE
  5
50
330
1F
100
AcDbEntity
  8
Default
100
AcDbSpline
210
0.0
220
0.0
230
1.0
 70
    12
 71
     2
 72
     6
 73
     3
 74
     0
 42
0.0000000001
 43
0.0000000001
 40
0.0
 40
0.0
 40
0.0
 40
0.0975165444674373
 40
0.0975165444674373
 40
0.0975165444674373
 10
37.1653177965343
 20
16.85510292434553
 30
0.0
 41
1.0
 10
37.17532631124692
 20
16.80728215242109
 30
0.0
 41
0.996974714520229
 10
37.17780249584995
 20
16.75848804310434
 30
0.0
 41
1.0
  0
SPLINE
  5
51
330
1F
100
AcDbEntity
  8
Default
100
AcDbSpline
210
0.0
220
0.0
230
1.0
 70
    24
 71
     2
 72
     6
 73
     3
 74
     0
 42
0.0000000001
 43
0.0000000001
 40
0.0
 40
0.0
 40
0.0
 40
0.1352682287944049
 40
0.1352682287944049
 40
0.1352682287944049
 10
37.1698793501625
 20
16.72071132676922
 30
0.0
 10
37.15599666829989
 20
16.78690531875184
 30
0.0
 10
37.14211398643728
 20
16.85309931073446
 30
0.0
  0
SPLINE
  5
52
330
1F
100
AcDbEntity
  8
Default
100
AcDbSpline
210
0.0
220
0.0
230
1.0
 70
    24
 71
     2
 72
     6
 73
     3
 74
     0
 42
0.0000000001
 43
0.0000000001
 40
0.0
 40
0.0
 40
0.0
 40
0.1444700679384147
 40
0.1444700679384147
 40
0.1444700679384147
 10
34.53608726660936
 20
16.42014723608759
 30
0.0
 10
34.52126019295178
 20
16.49084418099531
 30
0.0
 10
34.5064331192942
 20
16.56154112590303
 30
0.0
  0
SPLINE
  5
53
330
1F
100
AcDbEntity
  8
Default
100
AcDbSpline
210
0.0
220
0.0
230
1.0
 70
    12
 71
     2
 72
     6
 73
     3
 74
     0
 42
0.0000000001
 43
0.0000000001
 40
0.0
 40
0.0
 40
0.0
 40
1.90272112062679
 40
1.90272112062679
 40
1.90272112062679
 10
26.95637132394641
 20
17.02548262065525
 30
0.0
 41
1.0
 10
27.84321226993695
 20
16.66093064405217
 30
0.0
 41
0.9883314745276515
 10
28.79866229793451
 20
16.58030650914139
 30
0.0
 41
1.0
  0
SPLINE
  5
54
330
1F
100
AcDbEntity
  8
Default
100
AcDbSpline
210
0.0
220
0.0
230
1.0
 70
    12
 71
     2
 72
     6
 73
     3
 74
     0
 42
0.0000000001
 43
0.0000000001
 40
0.0
 40
0.0
 40
0.0
 40
0.0883807088191059
 40
0.0883807088191059
 40
0.0883807088191059
 10
38.97219271176134
 20
17.73470122481542
 30
0.0
 41
1.0
 10
39.0161447357261
 20
17.73928466204062
 30
0.0
 41
0.9999996602720717
 10
39.06008914379395
 20
17.74394055153302
 30
0.0
 41
1.0
  0
ARC
  5
55
330
1F
100
AcDbEntity
  8
Default
100
AcDbCircle
 10
20.44276135360211
 20
-6.076233446502785
 30
0.0
 40
6.626057535121478
100
AcDbArc
 50
72.29246914784379
 51
77.70753085215975
  0
SPLINE
  5
56
330
1F
100
AcDbEntity
  8
Default
100
AcDbSpline
210
0.0
220
0.0
230
1.0
 70
    24
 71
     2
 72
     6
 73
     3
 74
     0
 42
0.0000000001
 43
0.0000000001
 40
0.0
 40
0.0
 40
0.0
 40
0.1838267805805533
 40
0.1838267805805533
 40
0.1838267805805533
 10
31.91328343325827
 20
16.06719008814984
 30
0.0
 10
31.8944171500566
 20
16.15714638127493
 30
0.0
 10
31.87555086685494
 20
16.24710267440002
 30
0.0
  0
ARC
  5
57
330
1F
100
AcDbEntity
  8
Default
100
AcDbCircle
 10
37.06040058050313
 20
17.27292302353268
 30
0.0
 40
0.5629594648360736
100
AcDbArc
 50
274.9644718855907
 51
281.213768550722
  0
LINE
  5
58
330
1F
100
AcDbEntity
  8
Default
100
AcDbLine
 10
37.10911796839342
 20
16.71207547279749
 30
0.0
 11
36.87798120927617
 21
16.69199803975021
 31
0.0
  0
ARC
  5
59
330
1F
100
AcDbEntity
  8
Default
100
AcDbCircle
 10
36.83304839531189
 20
17.2092765670034
 30
0.0
 40
0.5192263788830309
100
AcDbArc
 50
268.4205411910058
 51
274.9644718855895
  0
POLYLINE
  5
5A
330
1F
100
AcDbEntity
  8
Default
100
AcDb2dPolyline
 66
     1
 10
0.0
 20
0.0
 30
0.0
  0
VERTEX
  5
5B
330
5A
100
AcDbEntity
  8
Default
100
AcDbVertex
100
AcDb2dVertex
 10
34.18670038691856
 20
16.52134817489605
 30
0.0
  0
VERTEX
  5
5C
330
5A
100
AcDbEntity
  8
Default
100
AcDbVertex
100
AcDb2dVertex
 10
34.18789710416743
 20
16.37293483264951
 30
0.0
  0
SEQEND
  5
5D
330
5A
100
AcDbEntity
  8
Default
  0
POLYLINE
  5
5E
330
1F
100
AcDbEntity
  8
Default
100
AcDb2dPolyline
 66
     1
 10
0.0
 20
0.0
 30
0.0
  0
VERTEX
  5
5F
330
5E
100
AcDbEntity
  8
Default
100
AcDbVertex
100
AcDb2dVertex
 10
36.81873682088012
 20
16.69024746245794
 30
0.0
  0
VERTEX
  5
60
330
5E
100
AcDbEntity
  8
Default
100
AcDbVertex
100
AcDb2dVertex
 10
36.81805525825527
 20
16.82333287120875
 30
0.0
  0
SEQEND
  5
61
330
5E
100
AcDbEntity
  8
Default
  0
ARC
  5
62
330
1F
100
AcDbEntity
  8
Default
100
AcDbCircle
 10
34.41757636411162
 20
16.83722771765521
 30
0.0
 40
0.433590777249134
100
AcDbArc
 50
277.7630007554158
 51
285.8621791818984
  0
LINE
  5
63
330
1F
100
AcDbEntity
  8
Default
100
AcDbLine
 10
34.47614396796642
 20
16.40761068133773
 30
0.0
 11
34.24708599581032
 21
16.37638432055834
 31
0.0
  0
ARC
  5
64
330
1F
100
AcDbEntity
  8
Default
100
AcDbCircle
 10
34.19521685671675
 20
16.7568654115889
 30
0.0
 40
0.384000349247385
100
AcDbArc
 50
268.9077709668633
 51
277.7630007554155
  0
ARC
  5
65
330
1F
100
AcDbEntity
  8
Default
100
AcDbCircle
 10
39.35904198689063
 20
17.45031935430256
 30
0.0
 40
0.33292144935625
100
AcDbArc
 50
189.7845542337152
 51
236.6936036941898
  0
LINE
  5
66
330
1F
100
AcDbEntity
  8
Default
100
AcDbLine
 10
39.03096329694465
 20
17.39374140237079
 30
0.0
 11
38.96395452379484
 21
17.78252210959437
 31
0.0
  0
SPLINE
  5
67
330
1F
100
AcDbEntity
  8
Default
100
AcDbSpline
210
0.0
220
0.0
230
1.0
 70
    12
 71
     2
 72
     6
 73
     3
 74
     0
 42
0.0000000001
 43
0.0000000001
 40
-0.1887487941263943
 40
-0.1887487941263943
 40
-0.1887487941263943
 40
0.0
 40
0.0
 40
0.0
 10
38.96395452379484
 20
17.78252210959437
 30
0.0
 41
1.0
 10
38.94402058803475
 20
17.89817755705695
 30
0.0
 41
0.7305167774868642
 10
38.82695867988926
 20
17.89113352492287
 30
0.0
 41
1.0
  0
ARC
  5
68
330
1F
100
AcDbEntity
  8
Default
100
AcDbCircle
 10
36.65468513005429
 20
38.68885681302729
 30
0.0
 40
20.91086000966659
100
AcDbArc
 50
274.8897481760373
 51
275.9627895583474
  0
SPLINE
  5
69
330
1F
100
AcDbEntity
  8
Default
100
AcDbSpline
210
0.0
220
0.0
230
1.0
 70
     8
 71
     3
 72
    11
 73
     7
 74
     0
 42
0.0000000001
 43
0.0000000001
 40
0.0
 40
0.0
 40
0.0
 40
0.0
 40
1.279400275604543
 40
4.509988620172255
 40
5.981477435535067
 40
8.9862209192608
 40
8.9862209192608
 40
8.9862209192608
 40
8.9862209192608
 10
38.43709855780038
 20
17.85410054575928
 30
0.0
 10
38.01206231951132
 20
17.81773869498037
 30
0.0
 10
36.51683095780949
 20
17.66567090259599
 30
0.0
 10
34.53911971145666
 20
17.40347785557593
 30
0.0
 10
31.98153112404512
 20
17.17036662683791
 30
0.0
 10
30.48437078874485
 20
17.15263784246236
 30
0.0
 10
29.48942286168413
 20
17.28308776584207
 30
0.0
  0
SPLINE
  5
6A
330
1F
100
AcDbEntity
  8
Default
100
AcDbSpline
210
0.0
220
0.0
230
1.0
 70
    12
 71
     2
 72
     8
 73
     5
 74
     0
 42
0.0000000001
 43
0.0000000001
 40
0.0
 40
0.0
 40
0.0
 40
0.1089413388740386
 40
0.1089413388740386
 40
0.2178826777480772
 40
0.2178826777480772
 40
0.2178826777480772
 10
29.48942286168413
 20
17.28308776584207
 30
0.0
 41
1.0
 10
29.4312196524001
 20
17.28959357114454
 30
0.0
 41
0.9010994502832596
 10
29.38990784925865
 20
17.24825471452938
 30
0.0
 41
1.0
 10
29.34859604611723
 20
17.20691585791421
 30
0.0
 41
0.9010994502832596
 10
29.35517837162303
 20
17.14799987030581
 30
0.0
 41
1.0
  0
LINE
  5
6B
330
1F
100
AcDbEntity
  8
Default
100
AcDbLine
 10
29.35517837162303
 20
17.14799987030581
 30
0.0
 11
29.37991145975595
 21
16.78415425482146
 31
0.0
  0
ARC
  5
6C
330
1F
100
AcDbEntity
  8
Default
100
AcDbCircle
 10
29.04529558522172
 20
16.76246760347939
 30
0.0
 40
0.3353179004120339
100
AcDbArc
 50
276.2012357005876
 51
3.708186950511097
  0
SPLINE
  5
6D
330
1F
100
AcDbEntity
  8
Default
100
AcDbSpline
210
0.0
220
0.0
230
1.0
 70
    12
 71
     2
 72
     6
 73
     3
 74
     0
 42
0.0000000001
 43
0.0000000001
 40
0.0
 40
0.0
 40
0.0
 40
0.0366460543725269
 40
0.0366460543725269
 40
0.0366460543725269
 10
29.0815168919312
 20
16.42911177065658
 30
0.0
 41
1.0
 10
29.06320068813744
 20
16.42961177986129
 30
0.0
 41
0.9999999880475364
 10
29.04475408543395
 20
16.43010963504654
 30
0.0
 41
1.0
  0
SPLINE
  5
6E
330
1F
100
AcDbEntity
  8
Default
100
AcDbSpline
210
0.0
220
0.0
230
1.0
 70
    12
 71
     3
 72
    13
 73
     9
 74
     0
 42
0.0000000001
 43
0.0000000001
 40
0.0017897730988345
 40
0.0017897730988345
 40
0.0017897730988345
 40
0.0017897730988345
 40
0.056827820050712
 40
0.0948058267223934
 40
0.0948058267223934
 40
0.1277625648166471
 40
0.1442543741449534
 40
0.1839260472662313
 40
0.1839260472662313
 40
0.1839260472662313
 40
0.1839260472662313
 10
29.04475408543395
 20
16.43010963504654
 30
0.0
 41
1.0
 10
29.02630352463663
 20
16.43060730463242
 30
0.0
 41
1.0
 10
28.99577334601294
 20
16.42787442296778
 30
0.0
 41
1.0
 10
28.97130526617683
 20
16.41931989180209
 30
0.0
 41
1.0
 10
28.95422819915611
 20
16.4103326067033
 30
0.0
 41
1.0
 10
28.94331685259931
 20
16.40255897144606
 30
0.0
 41
1.0
 10
28.92776168520091
 20
16.38277015830565
 30
0.0
 41
1.0
 10
28.92286052011779
 20
16.366443482334
 30
0.0
 41
1.0
 10
28.92268430050076
 20
16.35503630609403
 30
0.0
 41
1.0
  0
SPLINE
  5
6F
330
1F
100
AcDbEntity
  8
Default
100
AcDbSpline
210
0.0
220
0.0
230
1.0
 70
    12
 71
     3
 72
    14
 73
    10
 74
     0
 42
0.0000000001
 43
0.0000000001
 40
-0.3056027183356503
 40
-0.3056027183356503
 40
-0.3056027183356503
 40
-0.3056027183356503
 40
-0.2062393081546245
 40
-0.1208043058249814
 40
-0.0532418690462874
 40
0.0000000084914336
 40
0.0000000084914336
 40
0.0000000084914336
 40
0.2080413483919661
 40
0.2080413483919661
 40
0.2080413483919661
 40
0.2080413483919661
 10
28.92268430050076
 20
16.35503630609403
 30
0.0
 41
1.0
 10
28.92217277600696
 20
16.32192393103597
 30
0.0
 41
1.0
 10
28.93170080648831
 20
16.2552714758624
 30
0.0
 41
1.0
 10
28.94666059789093
 20
16.17243249312189
 30
0.0
 41
1.0
 10
28.96600898673067
 20
16.1062957606531
 30
0.0
 41
1.0
 10
28.99501878623016
 20
16.05413350929112
 30
0.0
 41
1.0
 10
29.00510803191314
 20
16.03950635618278
 30
0.0
 41
1.0
 10
29.04448346496075
 20
15.98242077159184
 30
0.0
 41
0.99996530826571
 10
29.08443921287224
 20
15.92573984971667
 30
0.0
 41
0.9999653082633301
 10
29.12497111756271
 20
15.86946948986391
 30
0.0
 41
0.9999999999928604
  0
SPLINE
  5
70
330
1F
100
AcDbEntity
  8
Default
100
AcDbSpline
210
0.0
220
0.0
230
1.0
 70
    12
 71
     2
 72
     6
 73
     3
 74
     0
 42
0.0000000001
 43
0.0000000001
 40
0.0
 40
0.0
 40
0.0
 40
0.1186826334809769
 40
0.1186826334809769
 40
0.1186826334809769
 10
29.1249711175627
 20
15.86946948986391
 30
0.0
 41
0.9999999704501452
 10
29.16300356471232
 20
15.81723537537222
 30
0.0
 41
0.8819876428313956
 10
29.22756506995871
 20
15.81982029185706
 30
0.0
 41
1.0
  0
ARC
  5
71
330
1F
100
AcDbEntity
  8
Default
100
AcDbCircle
 10
31.82433736372498
 20
16.30061131462347
 30
0.0
 40
0.2497936593548327
100
AcDbArc
 50
276.7689380778336
 51
290.8595375067115
  0
LINE
  5
72
330
1F
100
AcDbEntity
  8
Default
100
AcDbLine
 10
31.85377945119149
 20
16.05255882876716
 30
0.0
 11
31.61737562187237
 21
16.02449935499812
 31
0.0
  0
ARC
  5
73
330
1F
100
AcDbEntity
  8
Default
100
AcDbCircle
 10
31.59171984314874
 20
16.24065181688514
 30
0.0
 40
0.2176697171444255
100
AcDbArc
 50
261.0983729049312
 51
276.7689380778315
  0
POLYLINE
  5
74
330
1F
100
AcDbEntity
  8
Default
100
AcDb2dPolyline
 66
     1
 10
0.0
 20
0.0
 30
0.0
  0
VERTEX
  5
75
330
74
100
AcDbEntity
  8
Default
100
AcDbVertex
100
AcDb2dVertex
 10
31.55543783902816
 20
16.21545290539216
 30
0.0
  0
VERTEX
  5
76
330
74
100
AcDbEntity
  8
Default
100
AcDbVertex
100
AcDb2dVertex
 10
31.55803797014154
 20
16.02560382876978
 30
0.0
  0
SEQEND
  5
77
330
74
100
AcDbEntity
  8
Default
  0
ARC
  5
78
330
1F
100
AcDbEntity
  8
Default
100
AcDbCircle
 10
29.45948487603521
 20
16.0311270618152
 30
0.0
 40
0.3079524195066076
100
AcDbArc
 50
223.3070485099986
 51
319.6683196383844
  0
SPLINE
  5
79
330
1F
100
AcDbEntity
  8
Default
100
AcDbSpline
210
0.0
220
0.0
230
1.0
 70
    24
 71
     2
 72
     6
 73
     3
 74
     0
 42
0.0000000001
 43
0.0000000001
 40
0.0
 40
0.0
 40
0.0
 40
16.64725632581119
 40
16.64725632581119
 40
16.64725632581119
 10
41.5771976022103
 20
0.3472771798569942
 30
0.0
 10
40.70709793716517
 20
8.62572250458927
 30
0.0
 10
39.83699827212004
 20
16.90416782932154
 30
0.0
  0
SPLINE
  5
7A
330
1F
100
AcDbEntity
  8
Default
100
AcDbSpline
210
0.0
220
0.0
230
1.0
 70
     8
 71
     3
 72
    13
 73
     9
 74
     0
 42
0.0000000001
 43
0.0000000001
 40
0.0
 40
0.0
 40
0.0
 40
0.0
 40
0.346495537165288
 40
0.6648286708025185
 40
0.9224832851047094
 40
1.055156539597317
 40
1.251536063079185
 40
1.445826830392989
 40
1.445826830392989
 40
1.445826830392989
 40
1.445826830392989
 10
39.83699827212004
 20
16.90416782932154
 30
0.0
 10
39.82523944982121
 20
17.02007882343547
 30
0.0
 10
39.79802896647222
 20
17.23952159486659
 30
0.0
 10
39.75720104517187
 20
17.54504114848954
 30
0.0
 10
39.71608644308994
 20
17.77685226406987
 30
0.0
 10
39.6778868096619
 20
17.96981359518328
 30
0.0
 10
39.57449656855006
 20
18.11895023093497
 30
0.0
 10
39.4409954847
 20
18.15996103339885
 30
0.0
 10
39.37729354335916
 20
18.16049641251434
 30
0.0
  0
SPLINE
  5
7B
330
1F
100
AcDbEntity
  8
Default
100
AcDbSpline
210
0.0
220
0.0
230
1.0
 70
    12
 71
     2
 72
     8
 73
     5
 74
     0
 42
0.0000000001
 43
0.0000000001
 40
0.0
 40
0.0
 40
0.0
 40
0.258723373474266
 40
0.258723373474266
 40
0.5174467469485321
 40
0.5174467469485321
 40
0.5174467469485321
 10
39.37729354335916
 20
18.16049641251434
 30
0.0
 41
1.0
 10
39.24025412784458
 20
18.15972076667997
 30
0.0
 41
0.9190905939898084
 10
39.14640875212659
 20
18.06000299604083
 30
0.0
 41
1.0
 10
39.0525633764086
 20
17.96028522540169
 30
0.0
 41
0.9190905939898084
 10
39.06008963045061
 20
17.82355942745197
 30
0.0
 41
1.0
  0
LINE
  5
7C
330
1F
100
AcDbEntity
  8
Default
100
AcDbLine
 10
39.06008963045061
 20
17.82355942745197
 30
0.0
 11
39.06008982487528
 21
17.4390714470877
 31
0.0
  0
ARC
  5
7D
330
1F
100
AcDbEntity
  8
Default
100
AcDbCircle
 10
39.67201124815902
 20
17.43907076422986
 30
0.0
 40
0.6119214232841275
100
AcDbArc
 50
179.9999360622609
 51
197.7136736565066
  0
SPLINE
  5
7E
330
1F
100
AcDbEntity
  8
Default
100
AcDbSpline
210
0.0
220
0.0
230
1.0
 70
    12
 71
     2
 72
     8
 73
     5
 74
     0
 42
0.0000000001
 43
0.0000000001
 40
0.0
 40
0.0
 40
0.0
 40
0.9094385351699203
 40
0.9094385351699203
 40
17.56017190196994
 40
17.56017190196994
 40
17.56017190196994
 10
39.08496232441954
 20
17.74102857464567
 30
0.0
 41
1.0
 10
39.17214715615974
 20
17.29437367464448
 30
0.0
 41
0.9987969842411227
 10
39.21524772115535
 20
16.84049692253364
 30
0.0
 41
1.0
 10
40.08552908770706
 20
8.560322624615573
 30
0.0
 41
1.0
 10
40.95551025631386
 20
0.2782726027252491
 30
0.0
 41
1.0
  0
SPLINE
  5
7F
330
1F
100
AcDbEntity
  8
Default
100
AcDbSpline
210
0.0
220
0.0
230
1.0
 70
    12
 71
     2
 72
     6
 73
     3
 74
     0
 42
0.0000000001
 43
0.0000000001
 40
0.0
 40
0.0
 40
0.0
 40
1.082344106876008
 40
1.082344106876008
 40
1.082344106876008
 10
42.44767117314944
 20
17.66093423285085
 30
0.0
 41
1.0
 10
42.03665283942384
 20
18.0143252440225
 30
0.0
 41
0.9975644276718084
 10
41.6788126248387
 20
18.42147590196275
 30
0.0
 41
1.0
  0
SPLINE
  5
80
330
1F
100
AcDbEntity
  8
Default
100
AcDbSpline
210
0.0
220
0.0
230
1.0
 70
    12
 71
     3
 72
    10
 73
     6
 74
     0
 42
0.0000000001
 43
0.0000000001
 40
0.0
 40
0.0
 40
0.0
 40
0.0
 40
0.499786126541424
 40
0.499786126541424
 40
1.0
 40
1.0
 40
1.0
 40
1.0
 10
41.6788126248387
 20
18.42147590196275
 30
0.0
 41
1.0
 10
41.66947352379408
 20
18.43192639853806
 30
0.0
 41
1.0
 10
41.64951466219597
 20
18.44314611268472
 30
0.0
 41
1.0
 10
41.56917204881181
 20
18.46528389428956
 30
0.0
 41
1.0
 10
41.50219857846646
 20
18.47851461144132
 30
0.0
 41
1.0
 10
41.37914466144356
 20
18.48182237565728
 30
0.0
 41
1.0
  0
SPLINE
  5
81
330
1F
100
AcDbEntity
  8
Default
100
AcDbSpline
210
0.0
220
0.0
230
1.0
 70
    12
 71
     3
 72
    36
 73
    32
 74
     0
 42
0.0000000001
 43
0.0000000001
 40
0.0
 40
0.0
 40
0.0
 40
0.0
 40
2.990739583321262
 40
2.990739583321262
 40
2.990739583321262
 40
4.333651030355169
 40
4.333651030355169
 40
4.333651030355169
 40
8.814443795263726
 40
9.100566613352905
 40
10.24480724454827
 40
11.67549121983906
 40
12.96398165262606
 40
14.1559140323942
 40
15.39293631914945
 40
16.62719998542071
 40
17.10106454752805
 40
17.66960510727877
 40
19.56375070971521
 40
19.56375070971521
 40
19.56375070971521
 40
21.69406019694155
 40
21.69406019694155
 40
21.69406019694155
 40
25.8288213752095
 40
25.8288213752095
 40
25.8288213752095
 40
26.0991454120005
 40
26.0991454120005
 40
26.0991454120005
 40
26.42524490160192
 40
26.42524490160192
 40
26.42524490160192
 40
26.42524490160192
 10
41.37914466144356
 20
18.48182237565728
 30
0.0
 41
1.0
 10
40.37556799973333
 20
18.50194664279254
 30
0.0
 41
0.9999981939119967
 10
39.37880985634422
 20
18.51957944732687
 30
0.0
 41
0.9999981939119967
 10
38.38201336916261
 20
18.53489203530629
 30
0.0
 41
1.0
 10
37.93445137417005
 20
18.54309441229616
 30
0.0
 41
0.9999999941358523
 10
37.48688829517967
 20
18.55123742615438
 30
0.0
 41
0.9999999941358523
 10
37.03932414006526
 20
18.55932107673771
 30
0.0
 41
1.0
 10
35.54621283399001
 20
18.58768119362266
 30
0.0
 41
1.0
 10
33.95693169911165
 20
18.61724566697675
 30
0.0
 41
1.0
 10
31.98753448633913
 20
18.65285516176563
 30
0.0
 41
1.0
 10
31.03321088262456
 20
18.70226855546477
 30
0.0
 41
1.0
 10
29.76399922686329
 20
18.93583736158083
 30
0.0
 41
1.0
 10
28.54576304158923
 20
19.43500148314249
 30
0.0
 41
1.0
 10
27.59712290329064
 20
20.26244166380486
 30
0.0
 41
1.0
 10
26.99976089843418
 20
21.34465318273028
 30
0.0
 41
1.0
 10
26.72175005144022
 20
22.2875405765629
 30
0.0
 41
1.0
 10
26.57565075683918
 20
23.03312045669749
 30
0.0
 41
1.0
 10
26.39832572362918
 20
23.99521713631082
 30
0.0
 41
1.0
 10
26.24480498074358
 20
24.80211622850193
 30
0.0
 41
1.0
 10
26.12900069275892
 20
25.42261495241321
 30
0.0
 41
1.0
 10
25.99859963529959
 20
26.12064406159847
 30
0.0
 41
0.9999946372837994
 10
25.87084057378128
 20
26.81916223634286
 30
0.0
 41
0.9999946372830957
 10
25.74572556361054
 20
27.51815823878364
 30
0.0
 41
0.9999999999978886
 10
25.50987884251748
 20
28.87612823478656
 30
0.0
 41
0.9999340955377237
 10
25.25509053411934
 20
30.23067401311113
 30
0.0
 41
0.9999340955802639
 10
24.98141101350869
 20
31.58152776176007
 30
0.0
 41
1.000000000125509
 10
24.96345403367659
 20
31.66982851181049
 30
0.0
 41
0.9999998892704794
 10
24.94557700656737
 20
31.75814540220078
 30
0.0
 41
0.9999998892704794
 10
24.92777993812633
 20
31.84647840355982
 30
0.0
 41
1.000000000125509
 10
24.90741216051692
 20
31.95327378440473
 30
0.0
 41
0.9996238213620874
 10
24.88346873056437
 20
32.05932477165456
 30
0.0
 41
0.9996238213620874
 10
24.85597666929829
 20
32.16451168292159
 30
0.0
 41
1.000000000125509
  0
SPLINE
  5
82
330
1F
100
AcDbEntity
  8
Default
100
AcDbSpline
210
0.0
220
0.0
230
1.0
 70
    12
 71
     3
 72
    10
 73
     6
 74
     0
 42
0.0000000001
 43
0.0000000001
 40
0.0
 40
0.0
 40
0.0
 40
0.0
 40
0.4997792602654922
 40
0.4997792602654922
 40
1.0
 40
1.0
 40
1.0
 40
1.0
 10
24.8559766692983
 20
32.16451168292159
 30
0.0
 41
1.0
 10
24.83464320836408
 20
32.24330088151548
 30
0.0
 41
1.0
 10
24.80043158054782
 20
32.30822518944305
 30
0.0
 41
1.0
 10
24.72391311999291
 20
32.37880731736738
 30
0.0
 41
1.0
 10
24.68237828706829
 20
32.39564722695252
 30
0.0
 41
1.0
 10
24.63558977865873
 20
32.38806023672282
 30
0.0
 41
1.0
  0
SPLINE
  5
83
330
1F
100
AcDbEntity
  8
Default
100
AcDbSpline
210
0.0
220
0.0
230
1.0
 70
    12
 71
     2
 72
     6
 73
     3
 74
     0
 42
0.0000000001
 43
0.0000000001
 40
0.0
 40
0.0
 40
0.0
 40
1.03984789255465
 40
1.03984789255465
 40
1.03984789255465
 10
24.63558977865873
 20
32.38806023672282
 30
0.0
 41
1.0
 10
24.12258675379156
 20
32.30347406384345
 30
0.0
 41
0.9999833139372739
 10
23.60864070386283
 20
32.22482050748437
 30
0.0
 41
1.0
  0
SPLINE
  5
84
330
1F
100
AcDbEntity
  8
Default
100
AcDbSpline
210
0.0
220
0.0
230
1.0
 70
    12
 71
     2
 72
     6
 73
     3
 74
     0
 42
0.0000000001
 43
0.0000000001
 40
0.0
 40
0.0
 40
0.0
 40
1.136364072058917
 40
1.136364072058917
 40
1.136364072058917
 10
23.60864070386283
 20
32.22482050748437
 30
0.0
 41
1.0
 10
23.04786460388954
 20
32.13338065667723
 30
0.0
 41
0.9999994086296703
 10
22.48728871904702
 20
32.04072129152797
 30
0.0
 41
1.0
  0
ARC
  5
85
330
1F
100
AcDbEntity
  8
Default
100
AcDbCircle
 10
41.26669707806285
 20
0.3119017415983641
 30
0.0
 40
0.3129986533702349
100
AcDbArc
 50
186.1678674671069
 51
6.16786746710624
  0
ARC
  5
86
330
1F
100
AcDbEntity
  8
Default
100
AcDbCircle
 10
40.90618505519569
 20
7.195235774268402
 30
0.0
 40
10.68427900452597
100
AcDbArc
 50
88.89187675271286
 51
96.4329090927219
  0
ARC
  5
87
330
1F
100
AcDbEntity
  8
Default
100
AcDbCircle
 10
41.02122730186083
 20
13.14278118571669
 30
0.0
 40
4.735621076912604
100
AcDbArc
 50
78.22685043782138
 51
88.89187675271288
  0
SPLINE
  5
88
330
1F
100
AcDbEntity
  8
Default
100
AcDbSpline
210
0.0
220
0.0
230
1.0
 70
    12
 71
     2
 72
     6
 73
     3
 74
     0
 42
0.0000000001
 43
0.0000000001
 40
0.0
 40
0.0
 40
0.0
 40
0.4752604825934983
 40
0.4752604825934983
 40
0.4752604825934983
 10
41.98747066012051
 20
17.7787795417041
 30
0.0
 41
1.0
 10
42.22061480347803
 20
17.73174364204441
 30
0.0
 41
0.9986683373178159
 10
42.44767527930706
 20
17.66093273215731
 30
0.0
 41
1.0
  0
SPLINE
  5
89
330
1F
100
AcDbEntity
  8
Default
100
AcDbSpline
210
0.0
220
0.0
230
1.0
 70
    12
 71
     2
 72
     8
 73
     5
 74
     0
 42
0.0000000001
 43
0.0000000001
 40
0.0
 40
0.0
 40
0.0
 40
0.0324543335714889
 40
0.0324543335714889
 40
0.0649086671429778
 40
0.0649086671429778
 40
0.0649086671429778
 10
42.44767527930706
 20
17.66093273215731
 30
0.0
 41
1.0
 10
42.46402950401944
 20
17.65569325185569
 30
0.0
 41
0.9197371239895568
 10
42.47912317551074
 20
17.66387517632631
 30
0.0
 41
1.0
 10
42.49421684700205
 20
17.67205710079692
 30
0.0
 41
0.9197371239895568
 10
42.49879473635303
 20
17.68877823736307
 30
0.0
 41
1.0
  0
SPLINE
  5
8A
330
1F
100
AcDbEntity
  8
Default
100
AcDbSpline
210
0.0
220
0.0
230
1.0
 70
    12
 71
     2
 72
     6
 73
     3
 74
     0
 42
0.0000000001
 43
0.0000000001
 40
0.0
 40
0.0
 40
0.0
 40
0.1197804066303905
 40
0.1197804066303905
 40
0.1197804066303905
 10
42.49879473635303
 20
17.68877823736307
 30
0.0
 41
1.0
 10
42.51403395661182
 20
17.74687076678793
 30
0.0
 41
0.9999980136198698
 10
42.52946057162335
 20
17.80474014990376
 30
0.0
 41
1.0
  0
SPLINE
  5
8B
330
1F
100
AcDbEntity
  8
Default
100
AcDbSpline
210
0.0
220
0.0
230
1.0
 70
    12
 71
     3
 72
    59
 73
    55
 74
     0
 42
0.0000000001
 43
0.0000000001
 40
0.0
 40
0.0
 40
0.0
 40
0.0
 40
0.0213292444772112
 40
0.0422339028831005
 40
0.5213050783143771
 40
1.138131412743502
 40
1.138131412743502
 40
1.138131412743502
 40
1.161781021547216
 40
1.190660427673819
 40
1.266727426220671
 40
1.487915670039002
 40
1.487915670039002
 40
1.487915670039002
 40
3.408829853382499
 40
8.2904732492629
 40
10.51377757559225
 40
11.3697014921579
 40
12.98432973188382
 40
14.32711787798274
 40
14.98821339550627
 40
15.62821414854803
 40
17.06007105052871
 40
18.11268626327257
 40
18.35675537765046
 40
18.67392838797119
 40
20.80986268708262
 40
23.63983047276914
 40
23.63983047276914
 40
23.63983047276914
 40
27.65896466783846
 40
27.65896466783846
 40
27.65896466783846
 40
27.8059439588151
 40
27.87957196899965
 40
27.96182902675386
 40
28.0483590627115
 40
28.0483590627115
 40
28.12728586872971
 40
28.12728586872971
 40
28.12728586872971
 40
29.18399970511256
 40
29.18399970511256
 40
29.18399970511256
 40
30.30326730634012
 40
30.30326730634012
 40
30.30326730634012
 40
30.4234114192628
 40
30.4234114192628
 40
30.4234114192628
 40
30.45516024418013
 40
30.45516024418013
 40
30.45516024418013
 40
30.48690906909746
 40
30.48690906909746
 40
30.48690906909746
 40
30.48690906909746
 10
42.52946057162335
 20
17.80474014990376
 30
0.0
 41
1.0
 10
42.53060518566703
 20
17.80903390511607
 30
0.0
 41
1.0
 10
42.53503109240069
 20
17.83031546813312
 30
0.0
 41
1.0
 10
42.39823980915473
 20
17.93735665080739
 30
0.0
 41
1.0
 10
42.12050477206178
 20
18.18581433341269
 30
0.0
 41
1.0
 10
41.86458947220264
 20
18.44660483109214
 30
0.0
 41
1.0
 10
41.72404135783775
 20
18.59669329090389
 30
0.0
 41
1.0
 10
41.71864325206538
 20
18.60245569609451
 30
0.0
 41
1.0
 10
41.69521817446885
 20
18.62368303525522
 30
0.0
 41
1.0
 10
41.65671771731932
 20
18.64297948665727
 30
0.0
 41
1.0
 10
41.5513538322911
 20
18.67148960480787
 30
0.0
 41
1.0
 10
41.45190544402185
 20
18.6779736270767
 30
0.0
 41
1.0
 10
41.37809778142723
 20
18.6801046221421
 30
0.0
 41
1.0
 10
40.73773207333177
 20
18.69401504305489
 30
0.0
 41
1.0
 10
38.47063327067755
 20
18.73775361859325
 30
0.0
 41
1.0
 10
35.46243706425641
 20
18.78884644817287
 30
0.0
 41
1.0
 10
32.80928891248597
 20
18.83805203463839
 30
0.0
 41
1.0
 10
31.24536987349016
 20
18.88507119691843
 30
0.0
 41
1.0
 10
29.98350274686125
 20
19.0847396629087
 30
0.0
 41
1.0
 10
28.85010482279584
 20
19.52167296159435
 30
0.0
 41
1.0
 10
28.139156650864
 20
20.05649828433076
 30
0.0
 41
1.0
 10
27.53168010096459
 20
20.74079450676106
 30
0.0
 41
1.0
 10
27.08726181686522
 20
21.69903496738202
 30
0.0
 41
1.0
 10
26.87246255392439
 20
22.5807247836905
 30
0.0
 41
1.0
 10
26.7721743427423
 20
23.11094918517983
 30
0.0
 41
1.0
 10
26.60633658074757
 20
23.99398474186258
 30
0.0
 41
1.0
 10
26.28023752706046
 20
25.72480131197496
 30
0.0
 41
1.0
 10
25.97642633333525
 20
27.35198324737739
 30
0.0
 41
1.0
 10
25.8039001263828
 20
28.27939478820695
 30
0.0
 41
1.0
 10
25.55887622983617
 20
29.59651636324395
 30
0.0
 41
0.9999892345137223
 10
25.30637112179475
 20
30.91222420456733
 30
0.0
 41
0.9999892345137223
 10
25.04639295727934
 20
32.22647581947297
 30
0.0
 41
1.0
 10
25.03374256750568
 20
32.27344564871013
 30
0.0
 41
1.0
 10
25.00912880294165
 20
32.34064927542702
 30
0.0
 41
1.0
 10
24.96025731897191
 20
32.41275449528595
 30
0.0
 41
1.0
 10
24.91381179331914
 20
32.45633424865379
 30
0.0
 41
1.0
 10
24.87786183075767
 20
32.47490638827194
 30
0.0
 41
1.0
 10
24.84225585432769
 20
32.48691627405443
 30
0.0
 41
1.0
 10
24.82457733053877
 20
32.49425455727343
 30
0.0
 41
1.0
 10
24.77630595346828
 20
32.48690961908468
 30
0.0
 41
1.0
 10
24.42806980664877
 20
32.43392225620621
 30
0.0
 41
0.9999636970347625
 10
24.08040558838021
 20
32.37730365579776
 30
0.0
 41
0.9999636970347625
 10
23.73335116238869
 20
32.31705998412859
 30
0.0
 41
1.0
 10
23.36600849351549
 20
32.25184405341544
 30
0.0
 41
1.0
 10
22.99866582464232
 20
32.18662812270228
 30
0.0
 41
1.0
 10
22.63132315576911
 20
32.12141219198913
 30
0.0
 41
1.0
 10
22.59189410519063
 20
32.11415875188806
 30
0.0
 41
0.9978746378784636
 10
22.55316948441592
 20
32.10378252094063
 30
0.0
 41
0.9978746378784636
 10
22.51539620497148
 20
32.09034965889152
 30
0.0
 41
1.0
 10
22.50489542617171
 20
32.0875380335057
 30
0.0
 41
0.9481677523081955
 10
22.49629801246577
 20
32.08088550990329
 30
0.0
 41
0.9481677523081955
 10
22.49094083368379
 20
32.07142653383768
 30
0.0
 41
1.0
 10
22.48558365490183
 20
32.06196755777206
 30
0.0
 41
0.9481677523081955
 10
22.4842997348965
 20
32.05117296921429
 30
0.0
 41
0.9481677523081955
 10
22.48728871904702
 20
32.04072129152792
 30
0.0
 41
1.0
  0
SPLINE
  5
8C
330
1F
100
AcDbEntity
  8
Default
100
AcDbSpline
210
0.0
220
0.0
230
1.0
 70
    12
 71
     2
 72
     6
 73
     3
 74
     0
 42
0.0000000001
 43
0.0000000001
 40
0.0
 40
0.0
 40
0.0
 40
0.3803754732123821
 40
0.3803754732123821
 40
0.3803754732123821
 10
-8.632117677150319
 20
43.25972726230603
 30
0.0
 41
1.0
 10
-8.822198507823828
 20
43.24415412940514
 30
0.0
 41
0.9958369574502205
 10
-9.006293431936882
 20
43.19433140794503
 30
0.0
 41
1.0
  0
SPLINE
  5
8D
330
1F
100
AcDbEntity
  8
Default
100
AcDbSpline
210
0.0
220
0.0
230
1.0
 70
    12
 71
     2
 72
     6
 73
     3
 74
     0
 42
0.0000000001
 43
0.0000000001
 40
0.0
 40
0.0
 40
0.0
 40
0.3578849118590647
 40
0.3578849118590647
 40
0.3578849118590647
 10
-9.258101141058035
 20
56.1311428621815
 30
0.0
 41
1.0
 10
-9.149801148467095
 20
55.98731710340614
 30
0.0
 41
0.9908731887055335
 10
-9.007016076258708
 20
55.8776486921067
 30
0.0
 41
1.0
  0
POLYLINE
  5
8E
330
1F
100
AcDbEntity
  8
Default
100
AcDb2dPolyline
 66
     1
 10
0.0
 20
0.0
 30
0.0
  0
VERTEX
  5
8F
330
8E
100
AcDbEntity
  8
Default
100
AcDbVertex
100
AcDb2dVertex
 10
-7.568916441549476
 20
58.12348415673716
 30
0.0
  0
VERTEX
  5
90
330
8E
100
AcDbEntity
  8
Default
100
AcDbVertex
100
AcDb2dVertex
 10
-7.616911643689633
 20
58.03634149758348
 30
0.0
  0
SEQEND
  5
91
330
8E
100
AcDbEntity
  8
Default
  0
ARC
  5
92
330
1F
100
AcDbEntity
  8
Default
100
AcDbCircle
 10
-334.2731708237845
 20
288.6599430234047
 30
0.0
 40
399.8644235766344
100
AcDbArc
 50
324.5638436431537
 51
324.7774070112224
  0
SPLINE
  5
93
330
1F
100
AcDbEntity
  8
Default
100
AcDbSpline
210
0.0
220
0.0
230
1.0
 70
     8
 71
     3
 72
    18
 73
    14
 74
     0
 42
0.0000000001
 43
0.0000000001
 40
-11.04446704942164
 40
-11.04446704942164
 40
-11.04446704942164
 40
-11.04446704942164
 40
-10.61383137829946
 40
-10.49565764506195
 40
-10.38182066249299
 40
-10.00594223520787
 40
-9.327331098099943
 40
-8.454856792675347
 40
-7.339592750294725
 40
-5.855096042031121
 40
-4.741449960198119
 40
-3.809270731539037
 40
-0.0000000000000004
 40
-0.0000000000000004
 40
-0.0000000000000004
 40
-0.0000000000000004
 10
-8.47880153934804
 20
56.82037309447664
 30
0.0
 10
-8.561965257785914
 20
56.70350662856607
 30
0.0
 10
-8.666101670809297
 20
56.55271791874215
 30
0.0
 10
-8.795361084214278
 20
56.3740307300153
 30
0.0
 10
-8.901900778619904
 20
56.19617739148041
 30
0.0
 10
-9.038434482588087
 20
55.82839993278552
 30
0.0
 10
-9.137511363956804
 20
55.19205374979209
 30
0.0
 10
-9.183367501853667
 20
54.30401696167715
 30
0.0
 10
-9.178602508883898
 20
53.14631919495028
 30
0.0
 10
-9.135009676514244
 20
51.9092394639771
 30
0.0
 10
-9.070657451083576
 20
50.7341777537465
 30
0.0
 10
-8.955844847393195
 20
48.78587999690451
 30
0.0
 10
-8.864146267761868
 20
47.20804304360716
 30
0.0
 10
-8.789670692117909
 20
45.94047758424684
 30
0.0
  0
ARC
  5
94
330
1F
100
AcDbEntity
  8
Default
100
AcDbCircle
 10
-32002.3661830024
 20
-1833.83623144178
 30
0.0
 40
32048.7519027629
100
AcDbArc
 50
3.354775432790386
 51
3.362537249001389
  0
ARC
  5
95
330
1F
100
AcDbEntity
  8
Default
100
AcDbCircle
 10
-8.159356409129742
 20
41.62835268659843
 30
0.0
 40
0.3766012876736257
100
AcDbArc
 50
183.354775432787
 51
260.3242844076337
  0
SPLINE
  5
96
330
1F
100
AcDbEntity
  8
Default
100
AcDbSpline
210
0.0
220
0.0
230
1.0
 70
    12
 71
     2
 72
     6
 73
     3
 74
     0
 42
0.0000000001
 43
0.0000000001
 40
-8.275528837056001
 40
-8.275528837056001
 40
-8.275528837056001
 40
0.0
 40
0.0
 40
0.0
 10
-8.222652382976833
 20
41.25710862998313
 30
0.0
 41
1.0
 10
-4.15124522691848
 20
40.44684632371077
 30
0.0
 41
0.9951340748191598
 10
0.0000035245055869
 20
40.45072436047467
 30
0.0
 41
1.0
  0
SPLINE
  5
97
330
1F
100
AcDbEntity
  8
Default
100
AcDbSpline
210
0.0
220
0.0
230
1.0
 70
    12
 71
     2
 72
     6
 73
     3
 74
     0
 42
0.0000000001
 43
0.0000000001
 40
0.0
 40
0.0
 40
0.0
 40
8.275528837056001
 40
8.275528837056001
 40
8.275528837056001
 10
0.0000035245055869
 20
40.45072436047467
 30
0.0
 41
1.0
 10
4.151252275929649
 20
40.44684632371077
 30
0.0
 41
0.9951340748191598
 10
8.222659431988006
 20
41.25710862998313
 30
0.0
 41
1.0
  0
ARC
  5
98
330
1F
100
AcDbEntity
  8
Default
100
AcDbCircle
 10
8.159363458140916
 20
41.62835268659843
 30
0.0
 40
0.3766012876736257
100
AcDbArc
 50
279.6757155923663
 51
356.6452245672131
  0
ARC
  5
99
330
1F
100
AcDbEntity
  8
Default
100
AcDbCircle
 10
32002.36619005141
 20
-1833.83623144178
 30
0.0
 40
32048.7519027629
100
AcDbArc
 50
176.6374627509986
 51
176.6452245672096
  0
SPLINE
  5
9A
330
1F
100
AcDbEntity
  8
Default
100
AcDbSpline
210
0.0
220
0.0
230
1.0
 70
     8
 71
     3
 72
    18
 73
    14
 74
     0
 42
0.0000000001
 43
0.0000000001
 40
0.0000000000000004
 40
0.0000000000000004
 40
0.0000000000000004
 40
0.0000000000000004
 40
3.809270731539037
 40
4.741449960198119
 40
5.855096042031121
 40
7.339592750294725
 40
8.454856792675347
 40
9.327331098099943
 40
10.00594223520787
 40
10.38182066249299
 40
10.49565764506195
 40
10.61383137829946
 40
11.04446704942164
 40
11.04446704942164
 40
11.04446704942164
 40
11.04446704942164
 10
8.789677741129083
 20
45.94047758424684
 30
0.0
 10
8.864153316773042
 20
47.20804304360716
 30
0.0
 10
8.955851896404369
 20
48.78587999690451
 30
0.0
 10
9.07066450009475
 20
50.7341777537465
 30
0.0
 10
9.135016725525418
 20
51.9092394639771
 30
0.0
 10
9.178609557895072
 20
53.14631919495028
 30
0.0
 10
9.18337455086484
 20
54.30401696167715
 30
0.0
 10
9.137518412967978
 20
55.19205374979209
 30
0.0
 10
9.038441531599261
 20
55.82839993278552
 30
0.0
 10
8.901907827631078
 20
56.19617739148041
 30
0.0
 10
8.795368133225452
 20
56.3740307300153
 30
0.0
 10
8.666108719820471
 20
56.55271791874215
 30
0.0
 10
8.561972306797088
 20
56.70350662856607
 30
0.0
 10
8.478808588359215
 20
56.82037309447664
 30
0.0
  0
ARC
  5
9B
330
1F
100
AcDbEntity
  8
Default
100
AcDbCircle
 10
334.2731778727957
 20
288.6599430234047
 30
0.0
 40
399.8644235766344
100
AcDbArc
 50
215.2225929887776
 51
215.4361563568463
  0
POLYLINE
  5
9C
330
1F
100
AcDbEntity
  8
Default
100
AcDb2dPolyline
 66
     1
 10
0.0
 20
0.0
 30
0.0
  0
VERTEX
  5
9D
330
9C
100
AcDbEntity
  8
Default
100
AcDbVertex
100
AcDb2dVertex
 10
7.616918692700807
 20
58.03634149758348
 30
0.0
  0
VERTEX
  5
9E
330
9C
100
AcDbEntity
  8
Default
100
AcDbVertex
100
AcDb2dVertex
 10
7.56892349056065
 20
58.12348415673716
 30
0.0
  0
SEQEND
  5
9F
330
9C
100
AcDbEntity
  8
Default
  0
SPLINE
  5
A0
330
1F
100
AcDbEntity
  8
Default
100
AcDbSpline
210
0.0
220
0.0
230
1.0
 70
    12
 71
     3
 72
    14
 73
    10
 74
     0
 42
0.0000000001
 43
0.0000000001
 40
0.0
 40
0.0
 40
0.0
 40
0.0
 40
0.1509122625360565
 40
0.2729743886858338
 40
0.3826367999386246
 40
0.3826367999386246
 40
0.3826367999386246
 40
1.382636799938624
 40
2.382636799938624
 40
2.382636799938624
 40
2.382636799938624
 40
2.382636799938624
 10
7.56892349056065
 20
58.12348415673716
 30
0.0
 41
1.0
 10
7.534593833471121
 20
58.16065878481497
 30
0.0
 41
1.0
 10
7.465105207851963
 20
58.21933521737652
 30
0.0
 41
1.0
 10
7.378551344033866
 20
58.28721917253624
 30
0.0
 41
1.0
 10
7.314220894509532
 20
58.33007133394731
 30
0.0
 41
1.0
 10
7.282460471626479
 20
58.34936273431629
 30
0.0
 41
1.0
 10
6.200659474380359
 20
59.03886758272137
 30
0.0
 41
1.0
 10
3.848421675949425
 20
60.12565447908585
 30
0.0
 41
1.0
 10
1.2824600892082
 20
60.49596977630256
 30
0.0
 41
1.0
 10
0.0000035245055869
 20
60.49577537812605
 30
0.0
 41
1.0
  0
SPLINE
  5
A1
330
1F
100
AcDbEntity
  8
Default
100
AcDbSpline
210
0.0
220
0.0
230
1.0
 70
    12
 71
     3
 72
    14
 73
    10
 74
     0
 42
0.0000000001
 43
0.0000000001
 40
-2.382636799938624
 40
-2.382636799938624
 40
-2.382636799938624
 40
-2.382636799938624
 40
-1.382636799938624
 40
-0.3826367999386246
 40
-0.3826367999386246
 40
-0.3826367999386246
 40
-0.2729743886858338
 40
-0.1509122625360565
 40
0.0
 40
0.0
 40
0.0
 40
0.0
 10
0.0000035245055869
 20
60.49577537812605
 30
0.0
 41
1.0
 10
-1.282453040197026
 20
60.49596977630256
 30
0.0
 41
1.0
 10
-3.848414626938251
 20
60.12565447908585
 30
0.0
 41
1.0
 10
-6.200652425369185
 20
59.03886758272137
 30
0.0
 41
1.0
 10
-7.282453422615305
 20
58.34936273431629
 30
0.0
 41
1.0
 10
-7.314213845498358
 20
58.33007133394731
 30
0.0
 41
1.0
 10
-7.378544295022692
 20
58.28721917253624
 30
0.0
 41
1.0
 10
-7.465098158840789
 20
58.21933521737652
 30
0.0
 41
1.0
 10
-7.534586784459947
 20
58.16065878481497
 30
0.0
 41
1.0
 10
-7.568916441549476
 20
58.12348415673716
 30
0.0
 41
1.0
  0
SPLINE
  5
A2
330
1F
100
AcDbEntity
  8
Default
100
AcDbSpline
210
0.0
220
0.0
230
1.0
 70
    12
 71
     2
 72
     6
 73
     3
 74
     0
 42
0.0000000001
 43
0.0000000001
 40
0.0
 40
0.0
 40
0.0
 40
0.3578849118590647
 40
0.3578849118590647
 40
0.3578849118590647
 10
9.258108190069208
 20
56.1311428621815
 30
0.0
 41
1.0
 10
9.149808197478261
 20
55.98731710340614
 30
0.0
 41
0.9908731887055335
 10
9.007023125269882
 20
55.8776486921067
 30
0.0
 41
1.0
  0
SPLINE
  5
A3
330
1F
100
AcDbEntity
  8
Default
100
AcDbSpline
210
0.0
220
0.0
230
1.0
 70
    24
 71
     2
 72
     6
 73
     3
 74
     0
 42
0.0000000001
 43
0.0000000001
 40
0.0
 40
0.0
 40
0.0
 40
1.686982970028102
 40
1.686982970028102
 40
1.686982970028102
 10
8.915668867621832
 20
43.21732676104426
 30
0.0
 10
9.181622941497935
 20
42.41686044952316
 30
0.0
 10
9.447577015374037
 20
41.61639413800204
 30
0.0
  0
ARC
  5
A4
330
1F
100
AcDbEntity
  8
Default
100
AcDbCircle
 10
9.744371860202307
 20
41.71501149210344
 30
0.0
 40
0.3127499999146248
100
AcDbArc
 50
198.3803306832698
 51
18.3803253786681
  0
SPLINE
  5
A5
330
1F
100
AcDbEntity
  8
Default
100
AcDbSpline
210
0.0
220
0.0
230
1.0
 70
    24
 71
     2
 72
     6
 73
     3
 74
     0
 42
0.0000000001
 43
0.0000000001
 40
0.0
 40
0.0
 40
0.0
 40
1.810830870569882
 40
1.810830870569882
 40
1.810830870569882
 10
10.04116671416085
 20
41.81362881872673
 30
0.0
 10
9.755450684105696
 20
42.67278160650299
 30
0.0
 10
9.46973465405054
 20
43.53193439427925
 30
0.0
  0
SPLINE
  5
A6
330
1F
100
AcDbEntity
  8
Default
100
AcDbSpline
210
0.0
220
0.0
230
1.0
 70
     8
 71
     3
 72
    12
 73
     8
 74
     0
 42
0.0000000001
 43
0.0000000001
 40
0.0
 40
0.0
 40
0.0
 40
0.0
 40
0.0750557525198067
 40
0.1540605927046651
 40
0.3160468439997657
 40
0.5533785256003709
 40
0.9065026260404271
 40
0.9065026260404271
 40
0.9065026260404271
 40
0.9065026260404271
 10
9.46973465405054
 20
43.53193439427925
 30
0.0
 10
9.461974436070705
 20
43.55632698100989
 30
0.0
 10
9.432364947218645
 20
43.62346637932389
 30
0.0
 10
9.367155115325943
 20
43.70922172208563
 30
0.0
 10
9.226975183022915
 20
43.79024260908258
 30
0.0
 10
8.980267175564904
 20
43.84428255495701
 30
0.0
 10
8.786542375160792
 20
43.87291533948753
 30
0.0
 10
8.668994434595078
 20
43.88436916061298
 30
0.0
  0
SPLINE
  5
A7
330
1F
100
AcDbEntity
  8
Default
100
AcDbSpline
210
0.0
220
0.0
230
1.0
 70
    12
 71
     2
 72
     6
 73
     3
 74
     0
 42
0.0000000001
 43
0.0000000001
 40
0.0
 40
0.0
 40
0.0
 40
0.3803754732123821
 40
0.3803754732123821
 40
0.3803754732123821
 10
8.632124726161493
 20
43.25972726230603
 30
0.0
 41
1.0
 10
8.822205556835005
 20
43.24415412940514
 30
0.0
 41
0.9958369574502205
 10
9.006300480948056
 20
43.19433140794503
 30
0.0
 41
1.0
  0
SPLINE
  5
A8
330
1F
100
AcDbEntity
  8
Default
100
AcDbSpline
210
0.0
220
0.0
230
1.0
 70
     8
 71
     3
 72
    12
 73
     8
 74
     0
 42
0.0000000001
 43
0.0000000001
 40
0.0
 40
0.0
 40
0.0
 40
0.0
 40
0.2171242619641758
 40
0.4170753575842093
 40
0.7387636275918782
 40
0.9677007429689114
 40
1.150453683789364
 40
1.150453683789364
 40
1.150453683789364
 40
1.150453683789364
 10
9.125819319968002
 20
55.17633876943322
 30
0.0
 10
9.184051167795587
 20
55.21940113129488
 30
0.0
 10
9.294562389462328
 20
55.30351991089096
 30
0.0
 10
9.484469491304566
 20
55.4608093173554
 30
0.0
 10
9.666986179607306
 20
55.63184528683748
 30
0.0
 10
9.816925851783935
 20
55.82732732714164
 30
0.0
 10
9.86366349212048
 20
55.97758423438004
 30
0.0
 10
9.86885469449993
 20
56.03845909161176
 30
0.0
  0
SPLINE
  5
A9
330
1F
100
AcDbEntity
  8
Default
100
AcDbSpline
210
0.0
220
0.0
230
1.0
 70
    24
 71
     2
 72
     6
 73
     3
 74
     0
 42
0.0000000001
 43
0.0000000001
 40
0.0
 40
0.0
 40
0.0
 40
4.778652432864088
 40
4.778652432864088
 40
4.778652432864088
 10
9.86885469449993
 20
56.03845909161176
 30
0.0
 10
10.08617398461264
 20
58.41788173054634
 30
0.0
 10
10.30349327472535
 20
60.79730436948091
 30
0.0
  0
ARC
  5
AA
330
1F
100
AcDbEntity
  8
Default
100
AcDbCircle
 10
9.992288496772375
 20
60.82572682854443
 30
0.0
 40
0.3124999999999707
100
AcDbArc
 50
354.7816302291374
 51
174.7816302291348
  0
SPLINE
  5
AB
330
1F
100
AcDbEntity
  8
Default
100
AcDbSpline
210
0.0
220
0.0
230
1.0
 70
    24
 71
     2
 72
     6
 73
     3
 74
     0
 42
0.0000000001
 43
0.0000000001
 40
0.0
 40
0.0
 40
0.0
 40
4.749746588292059
 40
4.749746588292059
 40
4.749746588292059
 10
9.681083718819394
 20
60.85414928760797
 30
0.0
 10
9.465078982904657
 20
58.48911966468346
 30
0.0
 10
9.24907424698992
 20
56.12409004175896
 30
0.0
  0
SPLINE
  5
AC
330
1F
100
AcDbEntity
  8
Default
100
AcDbSpline
210
0.0
220
0.0
230
1.0
 70
     8
 71
     3
 72
    12
 73
     8
 74
     0
 42
0.0000000001
 43
0.0000000001
 40
0.0
 40
0.0
 40
0.0
 40
0.0
 40
0.2171242619641758
 40
0.4170753575842093
 40
0.7387636275918782
 40
0.9677007429689114
 40
1.150453683789364
 40
1.150453683789364
 40
1.150453683789364
 40
1.150453683789364
 10
-9.125812270956828
 20
55.17633876943322
 30
0.0
 10
-9.184044118784414
 20
55.21940113129488
 30
0.0
 10
-9.294555340451154
 20
55.30351991089096
 30
0.0
 10
-9.484462442293392
 20
55.4608093173554
 30
0.0
 10
-9.666979130596133
 20
55.63184528683748
 30
0.0
 10
-9.816918802772761
 20
55.82732732714164
 30
0.0
 10
-9.863656443109306
 20
55.97758423438004
 30
0.0
 10
-9.868847645488756
 20
56.03845909161176
 30
0.0
  0
SPLINE
  5
AD
330
1F
100
AcDbEntity
  8
Default
100
AcDbSpline
210
0.0
220
0.0
230
1.0
 70
    24
 71
     2
 72
     6
 73
     3
 74
     0
 42
0.0000000001
 43
0.0000000001
 40
0.0
 40
0.0
 40
0.0
 40
4.778652432864088
 40
4.778652432864088
 40
4.778652432864088
 10
-9.868847645488756
 20
56.03845909161176
 30
0.0
 10
-10.08616693560147
 20
58.41788173054634
 30
0.0
 10
-10.30348622571418
 20
60.79730436948091
 30
0.0
  0
ARC
  5
AE
330
1F
100
AcDbEntity
  8
Default
100
AcDbCircle
 10
-9.9922814477612
 20
60.82572682854443
 30
0.0
 40
0.3124999999999707
100
AcDbArc
 50
5.218369770865218
 51
185.2183697708626
  0
SPLINE
  5
AF
330
1F
100
AcDbEntity
  8
Default
100
AcDbSpline
210
0.0
220
0.0
230
1.0
 70
    24
 71
     2
 72
     6
 73
     3
 74
     0
 42
0.0000000001
 43
0.0000000001
 40
0.0
 40
0.0
 40
0.0
 40
4.749746588292059
 40
4.749746588292059
 40
4.749746588292059
 10
-9.68107666980822
 20
60.85414928760797
 30
0.0
 10
-9.465071933893483
 20
58.48911966468346
 30
0.0
 10
-9.249067197978746
 20
56.12409004175896
 30
0.0
  0
SPLINE
  5
B0
330
1F
100
AcDbEntity
  8
Default
100
AcDbSpline
210
0.0
220
0.0
230
1.0
 70
    24
 71
     2
 72
     6
 73
     3
 74
     0
 42
0.0000000001
 43
0.0000000001
 40
0.0
 40
0.0
 40
0.0
 40
1.686982970028102
 40
1.686982970028102
 40
1.686982970028102
 10
-8.915661818610658
 20
43.21732676104426
 30
0.0
 10
-9.18161589248676
 20
42.41686044952316
 30
0.0
 10
-9.447569966362863
 20
41.61639413800204
 30
0.0
  0
ARC
  5
B1
330
1F
100
AcDbEntity
  8
Default
100
AcDbCircle
 10
-9.744364811191133
 20
41.71501149210344
 30
0.0
 40
0.3127499999146248
100
AcDbArc
 50
161.6196746213318
 51
341.6196693167288
  0
SPLINE
  5
B2
330
1F
100
AcDbEntity
  8
Default
100
AcDbSpline
210
0.0
220
0.0
230
1.0
 70
    24
 71
     2
 72
     6
 73
     3
 74
     0
 42
0.0000000001
 43
0.0000000001
 40
0.0
 40
0.0
 40
0.0
 40
1.810830870569882
 40
1.810830870569882
 40
1.810830870569882
 10
-10.04115966514968
 20
41.81362881872673
 30
0.0
 10
-9.755443635094522
 20
42.67278160650299
 30
0.0
 10
-9.469727605039367
 20
43.53193439427925
 30
0.0
  0
SPLINE
  5
B3
330
1F
100
AcDbEntity
  8
Default
100
AcDbSpline
210
0.0
220
0.0
230
1.0
 70
     8
 71
     3
 72
    12
 73
     8
 74
     0
 42
0.0000000001
 43
0.0000000001
 40
0.0
 40
0.0
 40
0.0
 40
0.0
 40
0.0750557525198067
 40
0.1540605927046651
 40
0.3160468439997657
 40
0.5533785256003709
 40
0.9065026260404271
 40
0.9065026260404271
 40
0.9065026260404271
 40
0.9065026260404271
 10
-9.469727605039367
 20
43.53193439427925
 30
0.0
 10
-9.46196738705953
 20
43.55632698100989
 30
0.0
 10
-9.43235789820747
 20
43.62346637932389
 30
0.0
 10
-9.367148066314769
 20
43.70922172208563
 30
0.0
 10
-9.226968134011742
 20
43.79024260908258
 30
0.0
 10
-8.98026012655373
 20
43.84428255495701
 30
0.0
 10
-8.786535326149618
 20
43.87291533948753
 30
0.0
 10
-8.668987385583904
 20
43.88436916061298
 30
0.0
  0
ARC
  5
B4
330
1F
100
AcDbEntity
  8
Default
100
AcDbCircle
 10
-9.799400709137046
 20
-1.409345703839463
 30
0.0
 40
1.756441534916812
100
AcDbArc
 50
77.91302779449965
 51
98.30055561097694
  0
ARC
  5
B5
330
1F
100
AcDbEntity
  8
Default
100
AcDbCircle
 10
-9.742289631028456
 20
0.3184265453399722
 30
0.0
 40
0.3108508409247763
100
AcDbArc
 50
178.1067917027374
 51
358.1067917027376
  0
SPLINE
  5
B6
330
1F
100
AcDbEntity
  8
Default
100
AcDbSpline
210
0.0
220
0.0
230
1.0
 70
    12
 71
     2
 72
     6
 73
     3
 74
     0
 42
0.0000000001
 43
0.0000000001
 40
-1.570796326794897
 40
-1.570796326794897
 40
-1.570796326794897
 40
-0.1927952421114859
 40
-0.1927952421114859
 40
-0.1927952421114859
 10
-10.30519410126971
 20
0.3242329931235988
 30
0.0
 41
1.0
 10
-10.3051941012697
 20
0.2566038497271324
 30
0.0
 41
0.7430556932578992
 10
-10.04254687686278
 20
0.237966420883048
 30
0.0
 41
0.9369267180187653
  0
SPLINE
  5
B7
330
1F
100
AcDbEntity
  8
Default
100
AcDbSpline
210
0.0
220
0.0
230
1.0
 70
    12
 71
     2
 72
     6
 73
     3
 74
     0
 42
0.0000000001
 43
0.0000000001
 40
0.012437000183899
 40
0.012437000183899
 40
0.012437000183899
 40
0.1295677382289931
 40
0.1295677382289931
 40
0.1295677382289931
 10
-9.8846152691952
 20
0.0420723197020834
 30
0.0
 41
0.9963247001003321
 10
-9.940292371937556
 20
0.0216842611636874
 30
0.0
 41
0.980855500190082
 10
-9.999632651278375
 20
0.0229840627901133
 30
0.0
 41
1.0
  0
SPLINE
  5
B8
330
1F
100
AcDbEntity
  8
Default
100
AcDbSpline
210
0.0
220
0.0
230
1.0
 70
    12
 71
     2
 72
     6
 73
     3
 74
     0
 42
0.0000000001
 43
0.0000000001
 40
0.0
 40
0.0
 40
0.0
 40
0.4726868759032517
 40
0.4726868759032517
 40
0.4726868759032517
 10
-9.999632651278375
 20
0.0229840627901133
 30
0.0
 41
1.0
 10
-10.2942019413709
 20
0.0298640619194615
 30
0.0
 41
0.7282303322561501
 10
-10.30519410126971
 20
0.3242329931235988
 30
0.0
 41
1.0
  0
ARC
  5
B9
330
1F
100
AcDbEntity
  8
Default
100
AcDbCircle
 10
9.799400709137046
 20
-1.409345703839463
 30
0.0
 40
1.756441534916812
100
AcDbArc
 50
81.69944438902306
 51
102.0869722055004
  0
ARC
  5
BA
330
1F
100
AcDbEntity
  8
Default
100
AcDbCircle
 10
9.742289631028456
 20
0.3184265453399722
 30
0.0
 40
0.3108508409247763
100
AcDbArc
 50
181.8932082972624
 51
1.893208297262657
  0
SPLINE
  5
BB
330
1F
100
AcDbEntity
  8
Default
100
AcDbSpline
210
0.0
220
0.0
230
1.0
 70
    12
 71
     2
 72
     6
 73
     3
 74
     0
 42
0.0000000001
 43
0.0000000001
 40
-1.570796326794897
 40
-1.570796326794897
 40
-1.570796326794897
 40
-0.1927952421114859
 40
-0.1927952421114859
 40
-0.1927952421114859
 10
10.30519410126971
 20
0.3242329931235988
 30
0.0
 41
1.0
 10
10.3051941012697
 20
0.2566038497271324
 30
0.0
 41
0.7430556932578992
 10
10.04254687686278
 20
0.237966420883048
 30
0.0
 41
0.9369267180187653
  0
SPLINE
  5
BC
330
1F
100
AcDbEntity
  8
Default
100
AcDbSpline
210
0.0
220
0.0
230
1.0
 70
    12
 71
     2
 72
     6
 73
     3
 74
     0
 42
0.0000000001
 43
0.0000000001
 40
0.012437000183899
 40
0.012437000183899
 40
0.012437000183899
 40
0.1295677382289931
 40
0.1295677382289931
 40
0.1295677382289931
 10
9.884615269195203
 20
0.0420723197020834
 30
0.0
 41
0.9963247001003321
 10
9.94029237193756
 20
0.0216842611636874
 30
0.0
 41
0.980855500190082
 10
9.999632651278375
 20
0.0229840627901133
 30
0.0
 41
1.0
  0
SPLINE
  5
BD
330
1F
100
AcDbEntity
  8
Default
100
AcDbSpline
210
0.0
220
0.0
230
1.0
 70
    12
 71
     2
 72
     6
 73
     3
 74
     0
 42
0.0000000001
 43
0.0000000001
 40
0.0
 40
0.0
 40
0.0
 40
0.4726868759032517
 40
0.4726868759032517
 40
0.4726868759032517
 10
9.999632651278375
 20
0.0229840627901133
 30
0.0
 41
1.0
 10
10.29420194137091
 20
0.0298640619194615
 30
0.0
 41
0.7282303322561501
 10
10.30519410126971
 20
0.3242329931235988
 30
0.0
 41
1.0
  0
SPLINE
  5
BE
330
1F
100
AcDbEntity
  8
Default
100
AcDbSpline
210
0.0
220
0.0
230
1.0
 70
    12
 71
     2
 72
     6
 73
     3
 74
     0
 42
0.0000000001
 43
0.0000000001
 40
0.0
 40
0.0
 40
0.0
 40
0.0844971621245576
 40
0.0844971621245576
 40
0.0844971621245576
 10
4.052968397501473
 20
17.79057249323189
 30
0.0
 41
1.0
 10
4.10384073943749
 20
17.79340465836437
 30
0.0
 41
0.7624308717548118
 10
4.114907141209216
 20
17.74366985078238
 30
0.0
 41
1.0
  0
POLYLINE
  5
BF
330
1F
100
AcDbEntity
  8
Default
100
AcDb2dPolyline
 66
     1
 10
0.0
 20
0.0
 30
0.0
  0
VERTEX
  5
C0
330
BF
100
AcDbEntity
  8
Default
100
AcDbVertex
100
AcDb2dVertex
 10
4.114907141209216
 20
17.74366985078238
 30
0.0
  0
VERTEX
  5
C1
330
BF
100
AcDbEntity
  8
Default
100
AcDbVertex
100
AcDb2dVertex
 10
4.121183257219087
 20
17.69763112204286
 30
0.0
  0
SEQEND
  5
C2
330
BF
100
AcDbEntity
  8
Default
  0
SPLINE
  5
C3
330
1F
100
AcDbEntity
  8
Default
100
AcDbSpline
210
0.0
220
0.0
230
1.0
 70
    12
 71
     2
 72
     6
 73
     3
 74
     0
 42
0.0000000001
 43
0.0000000001
 40
-0.065528962576113
 40
-0.065528962576113
 40
-0.065528962576113
 40
0.0
 40
0.0
 40
0.0
 10
4.121183257219087
 20
17.69763112204286
 30
0.0
 41
1.0
 10
4.100155162969886
 20
17.72852906652176
 30
0.0
 41
0.8543860015409506
 10
4.063749180268985
 20
17.72639491972084
 30
0.0
 41
1.0
  0
POLYLINE
  5
C4
330
1F
100
AcDbEntity
  8
Default
100
AcDb2dPolyline
 66
     1
 10
0.0
 20
0.0
 30
0.0
  0
VERTEX
  5
C5
330
C4
100
AcDbEntity
  8
Default
100
AcDbVertex
100
AcDb2dVertex
 10
4.063749180268985
 20
17.72639491972084
 30
0.0
  0
VERTEX
  5
C6
330
C4
100
AcDbEntity
  8
Default
100
AcDbVertex
100
AcDb2dVertex
 10
4.052968397501473
 20
17.79057249323189
 30
0.0
  0
SEQEND
  5
C7
330
C4
100
AcDbEntity
  8
Default
  0
SPLINE
  5
C8
330
1F
100
AcDbEntity
  8
Default
100
AcDbSpline
210
0.0
220
0.0
230
1.0
 70
     8
 71
     3
 72
    13
 73
     9
 74
     0
 42
0.0000000001
 43
0.0000000001
 40
-6.0
 40
-6.0
 40
-6.0
 40
-6.0
 40
-5.0
 40
-4.0
 40
-3.0
 40
-2.0
 40
-1.0
 40
0.0
 40
0.0
 40
0.0
 40
0.0
 10
4.052968397501473
 20
17.79057249323189
 30
0.0
 10
4.087180818311424
 20
17.80845283595814
 30
0.0
 10
4.167458507524657
 20
17.81348585988825
 30
0.0
 10
4.284410785022743
 20
17.81959921893854
 30
0.0
 10
4.402247718352072
 20
17.8263046503863
 30
0.0
 10
4.519945179263289
 20
17.83329596663044
 30
0.0
 10
4.637196462690667
 20
17.84060949343962
 30
0.0
 10
4.716563758818523
 20
17.84579830366055
 30
0.0
 10
4.754364320936304
 20
17.83511171261267
 30
0.0
  0
POLYLINE
  5
C9
330
1F
100
AcDbEntity
  8
Default
100
AcDb2dPolyline
 66
     1
 10
0.0
 20
0.0
 30
0.0
  0
VERTEX
  5
CA
330
C9
100
AcDbEntity
  8
Default
100
AcDbVertex
100
AcDb2dVertex
 10
4.754364320936304
 20
17.83511171261267
 30
0.0
  0
VERTEX
  5
CB
330
C9
100
AcDbEntity
  8
Default
100
AcDbVertex
100
AcDb2dVertex
 10
4.763931317946344
 20
17.77009544121697
 30
0.0
  0
SEQEND
  5
CC
330
C9
100
AcDbEntity
  8
Default
  0
SPLINE
  5
CD
330
1F
100
AcDbEntity
  8
Default
100
AcDbSpline
210
0.0
220
0.0
230
1.0
 70
    12
 71
     2
 72
     6
 73
     3
 74
     0
 42
0.0000000001
 43
0.0000000001
 40
0.0
 40
0.0
 40
0.0
 40
0.0603146745624972
 40
0.0603146745624972
 40
0.0603146745624972
 10
4.763931317946344
 20
17.77009544121697
 30
0.0
 41
1.0
 10
4.731188504897781
 20
17.76622726501503
 30
0.0
 41
0.8767934007613639
 10
4.716849961964982
 20
17.73653785983358
 30
0.0
 41
1.0
  0
SPLINE
  5
CE
330
1F
100
AcDbEntity
  8
Default
100
AcDbSpline
210
0.0
220
0.0
230
1.0
 70
    12
 71
     2
 72
     6
 73
     3
 74
     0
 42
0.0000000001
 43
0.0000000001
 40
0.0
 40
0.0
 40
0.0
 40
0.1384417277388144
 40
0.1384417277388144
 40
0.1384417277388144
 10
-5.23575833210262
 20
17.77657065099762
 30
0.0
 41
1.0
 10
-5.272995207017141
 20
17.83512266914581
 30
0.0
 41
0.9963553071551586
 10
-5.319639994121559
 20
17.88665544546462
 30
0.0
 41
1.0
  0
SPLINE
  5
CF
330
1F
100
AcDbEntity
  8
Default
100
AcDbSpline
210
0.0
220
0.0
230
1.0
 70
    12
 71
     2
 72
     6
 73
     3
 74
     0
 42
0.0000000001
 43
0.0000000001
 40
-0.0591433968118628
 40
-0.0591433968118628
 40
-0.0591433968118628
 40
0.0
 40
0.0
 40
0.0
 10
-5.319639994121559
 20
17.88665544546462
 30
0.0
 41
1.0
 10
-5.349097686866087
 20
17.88938015386655
 30
0.0
 41
0.9999996335956421
 10
-5.378638614351217
 20
17.89200032147311
 30
0.0
 41
1.0
  0
SPLINE
  5
D0
330
1F
100
AcDbEntity
  8
Default
100
AcDbSpline
210
0.0
220
0.0
230
1.0
 70
    12
 71
     2
 72
     6
 73
     3
 74
     0
 42
0.0000000001
 43
0.0000000001
 40
-0.0773887080460484
 40
-0.0773887080460484
 40
-0.0773887080460484
 40
0.0
 40
0.0
 40
0.0
 10
-5.378638614351217
 20
17.89200032147311
 30
0.0
 41
1.0
 10
-5.427289684534304
 20
17.89607896419633
 30
0.0
 41
0.7177403430871934
 10
-5.432830823795399
 20
17.8476584481067
 30
0.0
 41
1.0
  0
POLYLINE
  5
D1
330
1F
100
AcDbEntity
  8
Default
100
AcDb2dPolyline
 66
     1
 10
0.0
 20
0.0
 30
0.0
  0
VERTEX
  5
D2
330
D1
100
AcDbEntity
  8
Default
100
AcDbVertex
100
AcDb2dVertex
 10
-5.432830823795399
 20
17.8476584481067
 30
0.0
  0
VERTEX
  5
D3
330
D1
100
AcDbEntity
  8
Default
100
AcDbVertex
100
AcDb2dVertex
 10
-5.436186968693505
 20
17.79436065893533
 30
0.0
  0
SEQEND
  5
D4
330
D1
100
AcDbEntity
  8
Default
  0
SPLINE
  5
D5
330
1F
100
AcDbEntity
  8
Default
100
AcDbSpline
210
0.0
220
0.0
230
1.0
 70
    12
 71
     2
 72
     6
 73
     3
 74
     0
 42
0.0000000001
 43
0.0000000001
 40
0.0
 40
0.0
 40
0.0
 40
0.5486298575330966
 40
0.5486298575330966
 40
0.5486298575330966
 10
4.919370126105065
 20
16.46934536708508
 30
0.0
 41
1.0
 10
4.646476577700796
 20
16.44130646396137
 30
0.0
 41
0.9999163992662642
 10
4.372949235699593
 20
16.4203335760628
 30
0.0
 41
1.0
  0
SPLINE
  5
D6
330
1F
100
AcDbEntity
  8
Default
100
AcDbSpline
210
0.0
220
0.0
230
1.0
 70
    12
 71
     2
 72
     6
 73
     3
 74
     0
 42
0.0000000001
 43
0.0000000001
 40
0.0
 40
0.0
 40
0.0
 40
0.0556651977850032
 40
0.0556651977850032
 40
0.0556651977850032
 10
4.372949235699593
 20
16.4203335760628
 30
0.0
 41
1.0
 10
4.345057564864703
 20
16.41877557284635
 30
0.0
 41
0.994502455536999
 10
4.316355660387089
 20
16.40961980738666
 30
0.0
 41
1.0
  0
SPLINE
  5
D7
330
1F
100
AcDbEntity
  8
Default
100
AcDbSpline
210
0.0
220
0.0
230
1.0
 70
    12
 71
     2
 72
     6
 73
     3
 74
     0
 42
0.0000000001
 43
0.0000000001
 40
0.0
 40
0.0
 40
0.0
 40
0.0314878321421101
 40
0.0314878321421101
 40
0.0314878321421101
 10
4.316355660387089
 20
16.40961980738666
 30
0.0
 41
1.0
 10
4.316640090509494
 20
16.3921846315908
 30
0.0
 41
0.999999923751877
 10
4.318658710403184
 20
16.37657066053354
 30
0.0
 41
1.0
  0
SPLINE
  5
D8
330
1F
100
AcDbEntity
  8
Default
100
AcDbSpline
210
0.0
220
0.0
230
1.0
 70
    12
 71
     2
 72
     6
 73
     3
 74
     0
 42
0.0000000001
 43
0.0000000001
 40
0.0
 40
0.0
 40
0.0
 40
0.0609623479842182
 40
0.0609623479842182
 40
0.0609623479842182
 10
4.318658710403184
 20
16.37657066053354
 30
0.0
 41
1.0
 10
4.348514065997665
 20
16.36852288191406
 30
0.0
 41
0.9787990801203377
 10
4.379091258820466
 20
16.37312117262472
 30
0.0
 41
1.0
  0
SPLINE
  5
D9
330
1F
100
AcDbEntity
  8
Default
100
AcDbSpline
210
0.0
220
0.0
230
1.0
 70
    12
 71
     2
 72
     6
 73
     3
 74
     0
 42
0.0000000001
 43
0.0000000001
 40
0.0
 40
0.0
 40
0.0
 40
0.5500319223454894
 40
0.5500319223454894
 40
0.5500319223454894
 10
4.379091258820466
 20
16.37312117262472
 30
0.0
 41
1.0
 10
4.653255717554844
 20
16.3949698926649
 30
0.0
 41
0.9999034471246364
 10
4.926707138689068
 20
16.42442897072549
 30
0.0
 41
1.0
  0
SPLINE
  5
DA
330
1F
100
AcDbEntity
  8
Default
100
AcDbSpline
210
0.0
220
0.0
230
1.0
 70
    12
 71
     2
 72
     6
 73
     3
 74
     0
 42
0.0000000001
 43
0.0000000001
 40
0.0
 40
0.0
 40
0.0
 40
0.2673757701681636
 40
0.2673757701681636
 40
0.2673757701681636
 10
4.926707138689068
 20
16.42442897072549
 30
0.0
 41
1.0
 10
5.062721102411699
 20
16.43978566240887
 30
0.0
 41
0.96540295015036
 10
5.172506126108402
 20
16.52153451487128
 30
0.0
 41
1.0
  0
SPLINE
  5
DB
330
1F
100
AcDbEntity
  8
Default
100
AcDbSpline
210
0.0
220
0.0
230
1.0
 70
    12
 71
     2
 72
     6
 73
     3
 74
     0
 42
0.0000000001
 43
0.0000000001
 40
0.0
 40
0.0
 40
0.0
 40
0.0433830346394287
 40
0.0433830346394287
 40
0.0433830346394287
 10
5.172506126108402
 20
16.52153451487128
 30
0.0
 41
1.0
 10
5.169874211532726
 20
16.54306577118549
 30
0.0
 41
0.9999999216235457
 10
5.167225248459545
 20
16.56459493669275
 30
0.0
 41
1.0
  0
SPLINE
  5
DC
330
1F
100
AcDbEntity
  8
Default
100
AcDbSpline
210
0.0
220
0.0
230
1.0
 70
    12
 71
     2
 72
     6
 73
     3
 74
     0
 42
0.0000000001
 43
0.0000000001
 40
0.0
 40
0.0
 40
0.0
 40
0.2685493329288811
 40
0.2685493329288811
 40
0.2685493329288811
 10
5.167225248459545
 20
16.56459493669275
 30
0.0
 41
1.0
 10
5.055981865639002
 20
16.4839638234455
 30
0.0
 41
0.9663145264801982
 10
4.919370126105065
 20
16.46934536708508
 30
0.0
 41
1.0
  0
SPLINE
  5
DD
330
1F
100
AcDbEntity
  8
Default
100
AcDbSpline
210
0.0
220
0.0
230
1.0
 70
    12
 71
     2
 72
     6
 73
     3
 74
     0
 42
0.0000000001
 43
0.0000000001
 40
0.0
 40
0.0
 40
0.0
 40
0.540848380615198
 40
0.540848380615198
 40
0.540848380615198
 10
-4.869013096536833
 20
16.75867438307955
 30
0.0
 41
1.0
 10
-4.59937019472355
 20
16.73808592610497
 30
0.0
 41
0.9999801416098341
 10
-4.329489215773492
 20
16.72089766674443
 30
0.0
 41
1.0
  0
SPLINE
  5
DE
330
1F
100
AcDbEntity
  8
Default
100
AcDbSpline
210
0.0
220
0.0
230
1.0
 70
    12
 71
     2
 72
     6
 73
     3
 74
     0
 42
0.0000000001
 43
0.0000000001
 40
0.0
 40
0.0
 40
0.0
 40
0.059343123790252
 40
0.059343123790252
 40
0.059343123790252
 10
-4.329489215773492
 20
16.72089766674443
 30
0.0
 41
1.0
 10
-4.299648315477628
 20
16.72045542405649
 30
0.0
 41
0.9913467129098419
 10
-4.270950935053747
 20
16.7122618127727
 30
0.0
 41
1.0
  0
SPLINE
  5
DF
330
1F
100
AcDbEntity
  8
Default
100
AcDbSpline
210
0.0
220
0.0
230
1.0
 70
    12
 71
     2
 72
     6
 73
     3
 74
     0
 42
0.0000000001
 43
0.0000000001
 40
0.0
 40
0.0
 40
0.0
 40
0.0203768763467583
 40
0.0203768763467583
 40
0.0203768763467583
 10
-4.270950935053747
 20
16.7122618127727
 30
0.0
 41
1.0
 10
-4.272746072333614
 20
16.70223266292706
 30
0.0
 41
0.9999848848277485
 10
-4.274430818361736
 20
16.69218437972542
 30
0.0
 41
1.0
  0
SPLINE
  5
E0
330
1F
100
AcDbEntity
  8
Default
100
AcDbSpline
210
0.0
220
0.0
230
1.0
 70
    12
 71
     2
 72
     6
 73
     3
 74
     0
 42
0.0000000001
 43
0.0000000001
 40
0.0
 40
0.0
 40
0.0
 40
0.0605645191202352
 40
0.0605645191202352
 40
0.0605645191202352
 10
-4.274430818361736
 20
16.69218437972542
 30
0.0
 41
1.0
 10
-4.304479475620353
 20
16.68707416831447
 30
0.0
 41
0.9902925121170654
 10
-4.334773846752569
 20
16.69043380243315
 30
0.0
 41
1.0
  0
SPLINE
  5
E1
330
1F
100
AcDbEntity
  8
Default
100
AcDbSpline
210
0.0
220
0.0
230
1.0
 70
    12
 71
     2
 72
     6
 73
     3
 74
     0
 42
0.0000000001
 43
0.0000000001
 40
0.0
 40
0.0
 40
0.0
 40
0.5418730968609387
 40
0.5418730968609387
 40
0.5418730968609387
 10
-4.334773846752569
 20
16.69043380243315
 30
0.0
 41
1.0
 10
-4.605182180683364
 20
16.7074177793125
 30
0.0
 41
0.999974363643424
 10
-4.875319566204809
 20
16.7282724064607
 30
0.0
 41
1.0
  0
SPLINE
  5
E2
330
1F
100
AcDbEntity
  8
Default
100
AcDbSpline
210
0.0
220
0.0
230
1.0
 70
    12
 71
     2
 72
     6
 73
     3
 74
     0
 42
0.0000000001
 43
0.0000000001
 40
0.0
 40
0.0
 40
0.0
 40
0.2775120725341504
 40
0.2775120725341504
 40
0.2775120725341504
 10
-4.875319566204809
 20
16.7282724064607
 30
0.0
 41
1.0
 10
-5.017319759973843
 20
16.73932550393691
 30
0.0
 41
0.9617558144384456
 10
-5.132189111788676
 20
16.82353511151172
 30
0.0
 41
1.0
  0
SPLINE
  5
E3
330
1F
100
AcDbEntity
  8
Default
100
AcDbSpline
210
0.0
220
0.0
230
1.0
 70
    12
 71
     2
 72
     6
 73
     3
 74
     0
 42
0.0000000001
 43
0.0000000001
 40
0.0
 40
0.0
 40
0.0
 40
0.0315606653918514
 40
0.0315606653918514
 40
0.0315606653918514
 10
-5.132189111788676
 20
16.82353511151172
 30
0.0
 41
1.0
 10
-5.131039503284942
 20
16.8390890738413
 30
0.0
 41
0.9999996186824177
 10
-5.129110051236952
 20
16.85458678206853
 30
0.0
 41
0.9999999911101315
  0
SPLINE
  5
E4
330
1F
100
AcDbEntity
  8
Default
100
AcDbSpline
210
0.0
220
0.0
230
1.0
 70
    12
 71
     2
 72
     6
 73
     3
 74
     0
 42
0.0000000001
 43
0.0000000001
 40
0.0
 40
0.0
 40
0.0
 40
0.2797647164684515
 40
0.2797647164684515
 40
0.2797647164684515
 10
-5.12911005123695
 20
16.85458678206853
 30
0.0
 41
1.0
 10
-5.011965983091252
 20
16.77031359524905
 30
0.0
 41
0.9633487021761659
 10
-4.869013096536833
 20
16.75867438307955
 30
0.0
 41
1.0
  0
SPLINE
  5
E5
330
1F
100
AcDbEntity
  8
Default
100
AcDbSpline
210
0.0
220
0.0
230
1.0
 70
    12
 71
     2
 72
     6
 73
     3
 74
     0
 42
0.0000000001
 43
0.0000000001
 40
0.0
 40
0.0
 40
0.0
 40
0.5584599709629063
 40
0.5584599709629063
 40
0.5584599709629063
 10
-4.971695798244752
 20
16.14767622663982
 30
0.0
 41
1.0
 10
-4.696147909710404
 20
16.10227202845763
 30
0.0
 41
0.9998192475167311
 10
-4.419073051295356
 20
16.06737642812505
 30
0.0
 41
1.0
  0
SPLINE
  5
E6
330
1F
100
AcDbEntity
  8
Default
100
AcDbSpline
210
0.0
220
0.0
230
1.0
 70
    12
 71
     2
 72
     6
 73
     3
 74
     0
 42
0.0000000001
 43
0.0000000001
 40
0.0
 40
0.0
 40
0.0
 40
0.0561738830643892
 40
0.0561738830643892
 40
0.0561738830643892
 10
-4.419073051295356
 20
16.06737642812505
 30
0.0
 41
1.0
 10
-4.391040593455172
 20
16.06447387461749
 30
0.0
 41
0.9949308899116455
 10
-4.362497747031171
 20
16.05438291342723
 30
0.0
 41
1.0
  0
SPLINE
  5
E7
330
1F
100
AcDbEntity
  8
Default
100
AcDbSpline
210
0.0
220
0.0
230
1.0
 70
    12
 71
     2
 72
     6
 73
     3
 74
     0
 42
0.0000000001
 43
0.0000000001
 40
0.0
 40
0.0
 40
0.0
 40
0.0283372933773131
 40
0.0283372933773131
 40
0.0283372933773131
 10
-4.362497747031171
 20
16.05438291342723
 30
0.0
 41
1.0
 10
-4.362837685158151
 20
16.03871810853084
 30
0.0
 41
0.9999990854309546
 10
-4.364797828913083
 20
16.02468569497334
 30
0.0
 41
1.0
  0
SPLINE
  5
E8
330
1F
100
AcDbEntity
  8
Default
100
AcDbSpline
210
0.0
220
0.0
230
1.0
 70
    12
 71
     2
 72
     6
 73
     3
 74
     0
 42
0.0000000001
 43
0.0000000001
 40
0.0
 40
0.0
 40
0.0
 40
0.0605286278463647
 40
0.0605286278463647
 40
0.0605286278463647
 10
-4.364797828913083
 20
16.02468569497334
 30
0.0
 41
1.0
 10
-4.394994547440515
 20
16.01976491563757
 30
0.0
 41
0.9838643704755842
 10
-4.424990417224365
 20
16.02579016874499
 30
0.0
 41
1.0
  0
SPLINE
  5
E9
330
1F
100
AcDbEntity
  8
Default
100
AcDbSpline
210
0.0
220
0.0
230
1.0
 70
    12
 71
     2
 72
     6
 73
     3
 74
     0
 42
0.0000000001
 43
0.0000000001
 40
0.0
 40
0.0
 40
0.0
 40
0.5596462079793444
 40
0.5596462079793444
 40
0.5596462079793444
 10
-4.424990417224365
 20
16.02579016874499
 30
0.0
 41
1.0
 10
-4.702325168924755
 20
16.06330690427001
 30
0.0
 41
0.9997979442994098
 10
-4.97792781393116
 20
16.11194076089944
 30
0.0
 41
1.0
  0
SPLINE
  5
EA
330
1F
100
AcDbEntity
  8
Default
100
AcDbSpline
210
0.0
220
0.0
230
1.0
 70
    12
 71
     2
 72
     6
 73
     3
 74
     0
 42
0.0000000001
 43
0.0000000001
 40
0.0
 40
0.0
 40
0.0
 40
0.2524827425738361
 40
0.2524827425738361
 40
0.2524827425738361
 10
-4.97792781393116
 20
16.11194076089944
 30
0.0
 41
1.0
 10
-5.104783184541841
 20
16.13489373259297
 30
0.0
 41
0.9691771351868905
 10
-5.205278389049994
 20
16.21563924536737
 30
0.0
 41
1.0
  0
SPLINE
  5
EB
330
1F
100
AcDbEntity
  8
Default
100
AcDbSpline
210
0.0
220
0.0
230
1.0
 70
    12
 71
     2
 72
     6
 73
     3
 74
     0
 42
0.0000000001
 43
0.0000000001
 40
0.0
 40
0.0
 40
0.0
 40
0.0340967881267165
 40
0.0340967881267165
 40
0.0340967881267165
 10
-5.205278389049994
 20
16.21563924536737
 30
0.0
 41
1.0
 10
-5.204048150093771
 20
16.23264324425491
 30
0.0
 41
0.9999955463947131
 10
-5.202716436918223
 20
16.2496395969835
 30
0.0
 41
1.0
  0
SPLINE
  5
EC
330
1F
100
AcDbEntity
  8
Default
100
AcDbSpline
210
0.0
220
0.0
230
1.0
 70
    12
 71
     2
 72
     6
 73
     3
 74
     0
 42
0.0000000001
 43
0.0000000001
 40
0.0
 40
0.0
 40
0.0
 40
0.255138279393215
 40
0.255138279393215
 40
0.255138279393215
 10
-5.202716436918223
 20
16.2496395969835
 30
0.0
 41
1.0
 10
-5.100140042838177
 20
16.16935323442326
 30
0.0
 41
0.9692933544879403
 10
-4.971695798244752
 20
16.14767622663982
 30
0.0
 41
1.0
  0
SPLINE
  5
ED
330
1F
100
AcDbEntity
  8
Default
100
AcDbSpline
210
0.0
220
0.0
230
1.0
 70
    12
 71
     2
 72
     6
 73
     3
 74
     0
 42
0.0000000001
 43
0.0000000001
 40
-0.1030086613417345
 40
-0.1030086613417345
 40
-0.1030086613417345
 40
0.0
 40
0.0
 40
0.0
 10
-5.277013398878182
 20
17.15344463884795
 30
0.0
 41
1.0
 10
-5.259864102924984
 20
17.10474719093911
 30
0.0
 41
0.9963857408822986
 10
-5.234651165836425
 20
17.05953429687428
 30
0.0
 41
1.0
  0
SPLINE
  5
EE
330
1F
100
AcDbEntity
  8
Default
100
AcDbSpline
210
0.0
220
0.0
230
1.0
 70
    12
 71
     2
 72
     6
 73
     3
 74
     0
 42
0.0000000001
 43
0.0000000001
 40
-0.4857429286577369
 40
-0.4857429286577369
 40
-0.4857429286577369
 40
0.0
 40
0.0
 40
0.0
 10
-5.234651165836425
 20
17.05953429687428
 30
0.0
 41
1.0
 10
-5.102475448619366
 20
16.8309782590946
 30
0.0
 41
0.8847262971728665
 10
-4.839366722721252
 20
16.81075997194172
 30
0.0
 41
1.0
  0
SPLINE
  5
EF
330
1F
100
AcDbEntity
  8
Default
100
AcDbSpline
210
0.0
220
0.0
230
1.0
 70
    12
 71
     2
 72
     6
 73
     3
 74
     0
 42
0.0000000001
 43
0.0000000001
 40
-0.7907644686086126
 40
-0.7907644686086126
 40
-0.7907644686086126
 40
0.0
 40
0.0
 40
0.0
 10
-4.839366722721252
 20
16.81075997194172
 30
0.0
 41
1.0
 10
-4.445117430898176
 20
16.78076348064329
 30
0.0
 41
0.9999751379154269
 10
-4.050484316408784
 20
16.75632992627565
 30
0.0
 41
1.0
  0
SPLINE
  5
F0
330
1F
100
AcDbEntity
  8
Default
100
AcDbSpline
210
0.0
220
0.0
230
1.0
 70
    12
 71
     2
 72
     6
 73
     3
 74
     0
 42
0.0000000001
 43
0.0000000001
 40
-0.1976412617261341
 40
-0.1976412617261341
 40
-0.1976412617261341
 40
0.0
 40
0.0
 40
0.0
 10
-4.050484316408784
 20
16.75632992627565
 30
0.0
 41
1.0
 10
-3.934628336074871
 20
16.74928368681933
 30
0.0
 41
0.7912883703176437
 10
-3.898582484764631
 20
16.85961479867283
 30
0.0
 41
1.0
  0
POLYLINE
  5
F1
330
1F
100
AcDbEntity
  8
Default
100
AcDb2dPolyline
 66
     1
 10
0.0
 20
0.0
 30
0.0
  0
VERTEX
  5
F2
330
F1
100
AcDbEntity
  8
Default
100
AcDbVertex
100
AcDb2dVertex
 10
-3.898582484764631
 20
16.85961479867283
 30
0.0
  0
VERTEX
  5
F3
330
F1
100
AcDbEntity
  8
Default
100
AcDbVertex
100
AcDb2dVertex
 10
-3.858462500337907
 20
17.05602354251132
 30
0.0
  0
SEQEND
  5
F4
330
F1
100
AcDbEntity
  8
Default
  0
SPLINE
  5
F5
330
1F
100
AcDbEntity
  8
Default
100
AcDbSpline
210
0.0
220
0.0
230
1.0
 70
     8
 71
     3
 72
    12
 73
     8
 74
     0
 42
0.0000000001
 43
0.0000000001
 40
0.0
 40
0.0
 40
0.0
 40
0.0
 40
0.1314998467573677
 40
0.8179331223926242
 40
0.9244197278151636
 40
0.9535125333836083
 40
0.9664940845669292
 40
0.9664940845669292
 40
0.9664940845669292
 40
0.9664940845669292
 10
-3.858462500337907
 20
17.05602354251132
 30
0.0
 10
-3.861679222609752
 20
17.01438058121131
 30
0.0
 10
-3.923461849243921
 20
16.56958173776539
 30
0.0
 10
-3.970983765322359
 20
16.27806230927807
 30
0.0
 10
-4.007791148639143
 20
16.00644034826233
 30
0.0
 10
-4.012448396411941
 20
15.9571630054902
 30
0.0
 10
-4.01298992921204
 20
15.94309869639045
 30
0.0
 10
-4.012107167603773
 20
15.93884812418921
 30
0.0
  0
SPLINE
  5
F6
330
1F
100
AcDbEntity
  8
Default
100
AcDbSpline
210
0.0
220
0.0
230
1.0
 70
    12
 71
     2
 72
     6
 73
     3
 74
     0
 42
0.0000000001
 43
0.0000000001
 40
0.0
 40
0.0
 40
0.0
 40
0.5486298575330966
 40
0.5486298575330966
 40
0.5486298575330966
 10
-4.919370126105065
 20
16.46934536708508
 30
0.0
 41
1.0
 10
-4.646476577700793
 20
16.44130646396137
 30
0.0
 41
0.9999163992662642
 10
-4.372949235699593
 20
16.4203335760628
 30
0.0
 41
1.0
  0
SPLINE
  5
F7
330
1F
100
AcDbEntity
  8
Default
100
AcDbSpline
210
0.0
220
0.0
230
1.0
 70
    12
 71
     2
 72
     6
 73
     3
 74
     0
 42
0.0000000001
 43
0.0000000001
 40
0.0
 40
0.0
 40
0.0
 40
0.0556651977850032
 40
0.0556651977850032
 40
0.0556651977850032
 10
-4.372949235699593
 20
16.4203335760628
 30
0.0
 41
1.0
 10
-4.345057564864709
 20
16.41877557284635
 30
0.0
 41
0.994502455536999
 10
-4.316355660387075
 20
16.40961980738666
 30
0.0
 41
1.0
  0
SPLINE
  5
F8
330
1F
100
AcDbEntity
  8
Default
100
AcDbSpline
210
0.0
220
0.0
230
1.0
 70
    12
 71
     2
 72
     6
 73
     3
 74
     0
 42
0.0000000001
 43
0.0000000001
 40
0.0
 40
0.0
 40
0.0
 40
0.0314878321421101
 40
0.0314878321421101
 40
0.0314878321421101
 10
-4.316355660387075
 20
16.40961980738666
 30
0.0
 41
1.0
 10
-4.316640090509488
 20
16.3921846315908
 30
0.0
 41
0.999999923751877
 10
-4.318658710403184
 20
16.37657066053354
 30
0.0
 41
1.0
  0
SPLINE
  5
F9
330
1F
100
AcDbEntity
  8
Default
100
AcDbSpline
210
0.0
220
0.0
230
1.0
 70
    12
 71
     2
 72
     6
 73
     3
 74
     0
 42
0.0000000001
 43
0.0000000001
 40
0.0
 40
0.0
 40
0.0
 40
0.0609623479842182
 40
0.0609623479842182
 40
0.0609623479842182
 10
-4.318658710403184
 20
16.37657066053354
 30
0.0
 41
1.0
 10
-4.348514065997667
 20
16.36852288191406
 30
0.0
 41
0.9787990801203377
 10
-4.379091258820466
 20
16.37312117262472
 30
0.0
 41
1.0
  0
SPLINE
  5
FA
330
1F
100
AcDbEntity
  8
Default
100
AcDbSpline
210
0.0
220
0.0
230
1.0
 70
    12
 71
     2
 72
     6
 73
     3
 74
     0
 42
0.0000000001
 43
0.0000000001
 40
0.0
 40
0.0
 40
0.0
 40
0.5500319223454894
 40
0.5500319223454894
 40
0.5500319223454894
 10
-4.379091258820466
 20
16.37312117262472
 30
0.0
 41
1.0
 10
-4.653255717554838
 20
16.3949698926649
 30
0.0
 41
0.9999034471246364
 10
-4.926707138689068
 20
16.42442897072549
 30
0.0
 41
1.0
  0
SPLINE
  5
FB
330
1F
100
AcDbEntity
  8
Default
100
AcDbSpline
210
0.0
220
0.0
230
1.0
 70
    12
 71
     2
 72
     6
 73
     3
 74
     0
 42
0.0000000001
 43
0.0000000001
 40
0.0
 40
0.0
 40
0.0
 40
0.2673757701681636
 40
0.2673757701681636
 40
0.2673757701681636
 10
-4.926707138689068
 20
16.42442897072549
 30
0.0
 41
1.0
 10
-5.062721102411707
 20
16.43978566240887
 30
0.0
 41
0.96540295015036
 10
-5.172506126108402
 20
16.52153451487128
 30
0.0
 41
1.0
  0
SPLINE
  5
FC
330
1F
100
AcDbEntity
  8
Default
100
AcDbSpline
210
0.0
220
0.0
230
1.0
 70
    12
 71
     2
 72
     6
 73
     3
 74
     0
 42
0.0000000001
 43
0.0000000001
 40
0.0
 40
0.0
 40
0.0
 40
0.0433830346394287
 40
0.0433830346394287
 40
0.0433830346394287
 10
-5.172506126108402
 20
16.52153451487128
 30
0.0
 41
1.0
 10
-5.169874211532719
 20
16.54306577118549
 30
0.0
 41
0.9999999216235457
 10
-5.167225248459545
 20
16.56459493669275
 30
0.0
 41
1.0
  0
SPLINE
  5
FD
330
1F
100
AcDbEntity
  8
Default
100
AcDbSpline
210
0.0
220
0.0
230
1.0
 70
    12
 71
     2
 72
     6
 73
     3
 74
     0
 42
0.0000000001
 43
0.0000000001
 40
0.0
 40
0.0
 40
0.0
 40
0.2685493329288811
 40
0.2685493329288811
 40
0.2685493329288811
 10
-5.167225248459545
 20
16.56459493669275
 30
0.0
 41
1.0
 10
-5.055981865639002
 20
16.4839638234455
 30
0.0
 41
0.9663145264801982
 10
-4.919370126105065
 20
16.46934536708508
 30
0.0
 41
1.0
  0
SPLINE
  5
FE
330
1F
100
AcDbEntity
  8
Default
100
AcDbSpline
210
0.0
220
0.0
230
1.0
 70
    12
 71
     2
 72
     6
 73
     3
 74
     0
 42
0.0000000001
 43
0.0000000001
 40
0.0
 40
0.0
 40
0.0
 40
0.0724207446047263
 40
0.0724207446047263
 40
0.0724207446047263
 10
4.747827051558033
 20
17.83421746333582
 30
0.0
 41
1.0
 10
4.70730999984676
 20
17.82632448211862
 30
0.0
 41
0.8256035884653902
 10
4.699946329839776
 20
17.78570789688676
 30
0.0
 41
1.0
  0
POLYLINE
  5
FF
330
1F
100
AcDbEntity
  8
Default
100
AcDb2dPolyline
 66
     1
 10
0.0
 20
0.0
 30
0.0
  0
VERTEX
  5
100
330
FF
100
AcDbEntity
  8
Default
100
AcDbVertex
100
AcDb2dVertex
 10
4.699946329839776
 20
17.78570789688676
 30
0.0
  0
VERTEX
  5
101
330
FF
100
AcDbEntity
  8
Default
100
AcDbVertex
100
AcDb2dVertex
 10
4.696606777139266
 20
17.73507444418593
 30
0.0
  0
SEQEND
  5
102
330
FF
100
AcDbEntity
  8
Default
  0
SPLINE
  5
103
330
1F
100
AcDbEntity
  8
Default
100
AcDbSpline
210
0.0
220
0.0
230
1.0
 70
    12
 71
     2
 72
     6
 73
     3
 74
     0
 42
0.0000000001
 43
0.0000000001
 40
0.0
 40
0.0
 40
0.0
 40
0.5584599709629063
 40
0.5584599709629063
 40
0.5584599709629063
 10
4.971695798244752
 20
16.14767622663982
 30
0.0
 41
1.0
 10
4.696147909710404
 20
16.10227202845763
 30
0.0
 41
0.9998192475167311
 10
4.419073051295356
 20
16.06737642812505
 30
0.0
 41
1.0
  0
SPLINE
  5
104
330
1F
100
AcDbEntity
  8
Default
100
AcDbSpline
210
0.0
220
0.0
230
1.0
 70
    12
 71
     2
 72
     6
 73
     3
 74
     0
 42
0.0000000001
 43
0.0000000001
 40
0.0
 40
0.0
 40
0.0
 40
0.0561738830643892
 40
0.0561738830643892
 40
0.0561738830643892
 10
4.419073051295356
 20
16.06737642812505
 30
0.0
 41
1.0
 10
4.391040593455174
 20
16.06447387461749
 30
0.0
 41
0.9949308899116455
 10
4.362497747031171
 20
16.05438291342723
 30
0.0
 41
1.0
  0
SPLINE
  5
105
330
1F
100
AcDbEntity
  8
Default
100
AcDbSpline
210
0.0
220
0.0
230
1.0
 70
    12
 71
     2
 72
     6
 73
     3
 74
     0
 42
0.0000000001
 43
0.0000000001
 40
0.0
 40
0.0
 40
0.0
 40
0.0283372933773131
 40
0.0283372933773131
 40
0.0283372933773131
 10
4.362497747031171
 20
16.05438291342723
 30
0.0
 41
1.0
 10
4.362837685158143
 20
16.03871810853084
 30
0.0
 41
0.9999990854309546
 10
4.364797828913083
 20
16.02468569497334
 30
0.0
 41
1.0
  0
SPLINE
  5
106
330
1F
100
AcDbEntity
  8
Default
100
AcDbSpline
210
0.0
220
0.0
230
1.0
 70
    12
 71
     2
 72
     6
 73
     3
 74
     0
 42
0.0000000001
 43
0.0000000001
 40
0.0
 40
0.0
 40
0.0
 40
0.0605286278463647
 40
0.0605286278463647
 40
0.0605286278463647
 10
4.364797828913083
 20
16.02468569497334
 30
0.0
 41
1.0
 10
4.394994547440515
 20
16.01976491563757
 30
0.0
 41
0.9838643704755842
 10
4.424990417224365
 20
16.02579016874499
 30
0.0
 41
1.0
  0
SPLINE
  5
107
330
1F
100
AcDbEntity
  8
Default
100
AcDbSpline
210
0.0
220
0.0
230
1.0
 70
    12
 71
     2
 72
     6
 73
     3
 74
     0
 42
0.0000000001
 43
0.0000000001
 40
0.0
 40
0.0
 40
0.0
 40
0.5596462079793444
 40
0.5596462079793444
 40
0.5596462079793444
 10
4.424990417224365
 20
16.02579016874499
 30
0.0
 41
1.0
 10
4.702325168924752
 20
16.06330690427001
 30
0.0
 41
0.9997979442994098
 10
4.97792781393116
 20
16.11194076089944
 30
0.0
 41
1.0
  0
SPLINE
  5
108
330
1F
100
AcDbEntity
  8
Default
100
AcDbSpline
210
0.0
220
0.0
230
1.0
 70
    12
 71
     2
 72
     6
 73
     3
 74
     0
 42
0.0000000001
 43
0.0000000001
 40
0.0
 40
0.0
 40
0.0
 40
0.2524827425738361
 40
0.2524827425738361
 40
0.2524827425738361
 10
4.97792781393116
 20
16.11194076089944
 30
0.0
 41
1.0
 10
5.104783184541844
 20
16.13489373259297
 30
0.0
 41
0.9691771351868905
 10
5.205278389049994
 20
16.21563924536737
 30
0.0
 41
1.0
  0
SPLINE
  5
109
330
1F
100
AcDbEntity
  8
Default
100
AcDbSpline
210
0.0
220
0.0
230
1.0
 70
    12
 71
     2
 72
     6
 73
     3
 74
     0
 42
0.0000000001
 43
0.0000000001
 40
0.0
 40
0.0
 40
0.0
 40
0.0340967881267165
 40
0.0340967881267165
 40
0.0340967881267165
 10
5.205278389049994
 20
16.21563924536737
 30
0.0
 41
1.0
 10
5.204048150093771
 20
16.23264324425491
 30
0.0
 41
0.9999955463947131
 10
5.202716436918223
 20
16.2496395969835
 30
0.0
 41
1.0
  0
SPLINE
  5
10A
330
1F
100
AcDbEntity
  8
Default
100
AcDbSpline
210
0.0
220
0.0
230
1.0
 70
    12
 71
     2
 72
     6
 73
     3
 74
     0
 42
0.0000000001
 43
0.0000000001
 40
0.0
 40
0.0
 40
0.0
 40
0.255138279393215
 40
0.255138279393215
 40
0.255138279393215
 10
5.202716436918223
 20
16.2496395969835
 30
0.0
 41
1.0
 10
5.100140042838183
 20
16.16935323442326
 30
0.0
 41
0.9692933544879403
 10
4.971695798244752
 20
16.14767622663982
 30
0.0
 41
1.0
  0
SPLINE
  5
10B
330
1F
100
AcDbEntity
  8
Default
100
AcDbSpline
210
0.0
220
0.0
230
1.0
 70
    12
 71
     2
 72
     6
 73
     3
 74
     0
 42
0.0000000001
 43
0.0000000001
 40
0.0
 40
0.0
 40
0.0
 40
0.0535969945834471
 40
0.0535969945834471
 40
0.0535969945834471
 10
-5.516249205694635
 20
17.17427574439849
 30
0.0
 41
1.0
 10
-5.519656120133171
 20
17.14768589800154
 30
0.0
 41
0.9995120403986335
 10
-5.524739922367445
 20
17.12133244177053
 30
0.0
 41
1.0
  0
SPLINE
  5
10C
330
1F
100
AcDbEntity
  8
Default
100
AcDbSpline
210
0.0
220
0.0
230
1.0
 70
    12
 71
     2
 72
     6
 73
     3
 74
     0
 42
0.0000000001
 43
0.0000000001
 40
-0.712645957621635
 40
-0.712645957621635
 40
-0.712645957621635
 40
0.0
 40
0.0
 40
0.0
 10
-5.524739922367445
 20
17.12133244177053
 30
0.0
 41
1.0
 10
-5.444739140930836
 20
16.77401729304237
 30
0.0
 41
0.9997284738377231
 10
-5.378726979550692
 20
16.41094317271871
 30
0.0
 41
1.0
  0
SPLINE
  5
10D
330
1F
100
AcDbEntity
  8
Default
100
AcDbSpline
210
0.0
220
0.0
230
1.0
 70
    12
 71
     2
 72
     6
 73
     3
 74
     0
 42
0.0000000001
 43
0.0000000001
 40
-0.5883891816124054
 40
-0.5883891816124054
 40
-0.5883891816124054
 40
0.0
 40
0.0
 40
0.0
 10
-5.378726979550692
 20
16.41094317271871
 30
0.0
 41
1.0
 10
-5.32427143359655
 20
16.08351335128877
 30
0.0
 41
0.8385194730581287
 10
-5.002315525676892
 20
16.00010134829661
 30
0.0
 41
1.0
  0
POLYLINE
  5
10E
330
1F
100
AcDbEntity
  8
Default
100
AcDb2dPolyline
 66
     1
 10
0.0
 20
0.0
 30
0.0
  0
VERTEX
  5
10F
330
10E
100
AcDbEntity
  8
Default
100
AcDbVertex
100
AcDb2dVertex
 10
-5.002315525676892
 20
16.00010134829661
 30
0.0
  0
VERTEX
  5
110
330
10E
100
AcDbEntity
  8
Default
100
AcDbVertex
100
AcDb2dVertex
 10
-4.187334949730683
 20
15.82000663183227
 30
0.0
  0
SEQEND
  5
111
330
10E
100
AcDbEntity
  8
Default
  0
SPLINE
  5
112
330
1F
100
AcDbEntity
  8
Default
100
AcDbSpline
210
0.0
220
0.0
230
1.0
 70
    12
 71
     2
 72
     6
 73
     3
 74
     0
 42
0.0000000001
 43
0.0000000001
 40
-0.2350272866052569
 40
-0.2350272866052569
 40
-0.2350272866052569
 40
0.0
 40
0.0
 40
0.0
 10
-4.187334949730683
 20
15.82000663183227
 30
0.0
 41
1.0
 10
-4.040562164321485
 20
15.79219957866478
 30
0.0
 41
0.7086665120110662
 10
-4.012107167603773
 20
15.93884812418921
 30
0.0
 41
1.0
  0
POLYLINE
  5
113
330
1F
100
AcDbEntity
  8
Default
100
AcDb2dPolyline
 66
     1
 10
0.0
 20
0.0
 30
0.0
  0
VERTEX
  5
114
330
113
100
AcDbEntity
  8
Default
100
AcDbVertex
100
AcDb2dVertex
 10
-4.012107167603773
 20
15.93884812418921
 30
0.0
  0
VERTEX
  5
115
330
113
100
AcDbEntity
  8
Default
100
AcDbVertex
100
AcDb2dVertex
 10
-3.924579880050317
 20
16.40398780672082
 30
0.0
  0
SEQEND
  5
116
330
113
100
AcDbEntity
  8
Default
  0
POLYLINE
  5
117
330
1F
100
AcDbEntity
  8
Default
100
AcDb2dPolyline
 66
     1
 10
0.0
 20
0.0
 30
0.0
  0
VERTEX
  5
118
330
117
100
AcDbEntity
  8
Default
100
AcDbVertex
100
AcDb2dVertex
 10
-3.924579880050317
 20
16.40398780672082
 30
0.0
  0
VERTEX
  5
119
330
117
100
AcDbEntity
  8
Default
100
AcDbVertex
100
AcDb2dVertex
 10
-3.949505689829863
 20
16.40949168774194
 30
0.0
  0
SEQEND
  5
11A
330
117
100
AcDbEntity
  8
Default
  0
SPLINE
  5
11B
330
1F
100
AcDbEntity
  8
Default
100
AcDbSpline
210
0.0
220
0.0
230
1.0
 70
    12
 71
     2
 72
     6
 73
     3
 74
     0
 42
0.0000000001
 43
0.0000000001
 40
0.0
 40
0.0
 40
0.0
 40
0.0535969945834471
 40
0.0535969945834471
 40
0.0535969945834471
 10
5.516249205694635
 20
17.17427574439849
 30
0.0
 41
1.0
 10
5.51965612013317
 20
17.14768589800154
 30
0.0
 41
0.9995120403986335
 10
5.524739922367445
 20
17.12133244177053
 30
0.0
 41
1.0
  0
SPLINE
  5
11C
330
1F
100
AcDbEntity
  8
Default
100
AcDbSpline
210
0.0
220
0.0
230
1.0
 70
    12
 71
     2
 72
     6
 73
     3
 74
     0
 42
0.0000000001
 43
0.0000000001
 40
-0.712645957621635
 40
-0.712645957621635
 40
-0.712645957621635
 40
0.0
 40
0.0
 40
0.0
 10
5.524739922367445
 20
17.12133244177053
 30
0.0
 41
1.0
 10
5.444739140930836
 20
16.77401729304237
 30
0.0
 41
0.9997284738377231
 10
5.378726979550692
 20
16.41094317271871
 30
0.0
 41
1.0
  0
SPLINE
  5
11D
330
1F
100
AcDbEntity
  8
Default
100
AcDbSpline
210
0.0
220
0.0
230
1.0
 70
    12
 71
     2
 72
     6
 73
     3
 74
     0
 42
0.0000000001
 43
0.0000000001
 40
-0.5883891816124054
 40
-0.5883891816124054
 40
-0.5883891816124054
 40
0.0
 40
0.0
 40
0.0
 10
5.378726979550692
 20
16.41094317271871
 30
0.0
 41
1.0
 10
5.324271433596548
 20
16.08351335128877
 30
0.0
 41
0.8385194730581287
 10
5.002315525676892
 20
16.00010134829661
 30
0.0
 41
1.0
  0
POLYLINE
  5
11E
330
1F
100
AcDbEntity
  8
Default
100
AcDb2dPolyline
 66
     1
 10
0.0
 20
0.0
 30
0.0
  0
VERTEX
  5
11F
330
11E
100
AcDbEntity
  8
Default
100
AcDbVertex
100
AcDb2dVertex
 10
5.002315525676892
 20
16.00010134829661
 30
0.0
  0
VERTEX
  5
120
330
11E
100
AcDbEntity
  8
Default
100
AcDbVertex
100
AcDb2dVertex
 10
4.187334949730683
 20
15.82000663183227
 30
0.0
  0
SEQEND
  5
121
330
11E
100
AcDbEntity
  8
Default
  0
SPLINE
  5
122
330
1F
100
AcDbEntity
  8
Default
100
AcDbSpline
210
0.0
220
0.0
230
1.0
 70
    12
 71
     2
 72
     6
 73
     3
 74
     0
 42
0.0000000001
 43
0.0000000001
 40
-0.2350272866052569
 40
-0.2350272866052569
 40
-0.2350272866052569
 40
0.0
 40
0.0
 40
0.0
 10
4.187334949730683
 20
15.82000663183227
 30
0.0
 41
1.0
 10
4.040562164321495
 20
15.79219957866478
 30
0.0
 41
0.7086665120110662
 10
4.012107167603773
 20
15.93884812418921
 30
0.0
 41
1.0
  0
POLYLINE
  5
123
330
1F
100
AcDbEntity
  8
Default
100
AcDb2dPolyline
 66
     1
 10
0.0
 20
0.0
 30
0.0
  0
VERTEX
  5
124
330
123
100
AcDbEntity
  8
Default
100
AcDbVertex
100
AcDb2dVertex
 10
4.012107167603773
 20
15.93884812418921
 30
0.0
  0
VERTEX
  5
125
330
123
100
AcDbEntity
  8
Default
100
AcDbVertex
100
AcDb2dVertex
 10
3.924579880050317
 20
16.40398780672082
 30
0.0
  0
SEQEND
  5
126
330
123
100
AcDbEntity
  8
Default
  0
POLYLINE
  5
127
330
1F
100
AcDbEntity
  8
Default
100
AcDb2dPolyline
 66
     1
 10
0.0
 20
0.0
 30
0.0
  0
VERTEX
  5
128
330
127
100
AcDbEntity
  8
Default
100
AcDbVertex
100
AcDb2dVertex
 10
3.924579880050317
 20
16.40398780672082
 30
0.0
  0
VERTEX
  5
129
330
127
100
AcDbEntity
  8
Default
100
AcDbVertex
100
AcDb2dVertex
 10
3.949505689829863
 20
16.40949168774194
 30
0.0
  0
SEQEND
  5
12A
330
127
100
AcDbEntity
  8
Default
  0
SPLINE
  5
12B
330
1F
100
AcDbEntity
  8
Default
100
AcDbSpline
210
0.0
220
0.0
230
1.0
 70
    12
 71
     2
 72
     6
 73
     3
 74
     0
 42
0.0000000001
 43
0.0000000001
 40
-0.1030086613417345
 40
-0.1030086613417345
 40
-0.1030086613417345
 40
0.0
 40
0.0
 40
0.0
 10
5.277013398878182
 20
17.15344463884795
 30
0.0
 41
1.0
 10
5.259864102924983
 20
17.10474719093911
 30
0.0
 41
0.9963857408822986
 10
5.234651165836425
 20
17.05953429687428
 30
0.0
 41
1.0
  0
SPLINE
  5
12C
330
1F
100
AcDbEntity
  8
Default
100
AcDbSpline
210
0.0
220
0.0
230
1.0
 70
    12
 71
     2
 72
     6
 73
     3
 74
     0
 42
0.0000000001
 43
0.0000000001
 40
-0.4857429286577369
 40
-0.4857429286577369
 40
-0.4857429286577369
 40
0.0
 40
0.0
 40
0.0
 10
5.234651165836425
 20
17.05953429687428
 30
0.0
 41
1.0
 10
5.102475448619361
 20
16.8309782590946
 30
0.0
 41
0.8847262971728665
 10
4.839366722721252
 20
16.81075997194172
 30
0.0
 41
1.0
  0
SPLINE
  5
12D
330
1F
100
AcDbEntity
  8
Default
100
AcDbSpline
210
0.0
220
0.0
230
1.0
 70
    12
 71
     2
 72
     6
 73
     3
 74
     0
 42
0.0000000001
 43
0.0000000001
 40
-0.7907644686086126
 40
-0.7907644686086126
 40
-0.7907644686086126
 40
0.0
 40
0.0
 40
0.0
 10
4.839366722721252
 20
16.81075997194172
 30
0.0
 41
1.0
 10
4.445117430898178
 20
16.78076348064329
 30
0.0
 41
0.9999751379154269
 10
4.050484316408784
 20
16.75632992627565
 30
0.0
 41
1.0
  0
SPLINE
  5
12E
330
1F
100
AcDbEntity
  8
Default
100
AcDbSpline
210
0.0
220
0.0
230
1.0
 70
    12
 71
     2
 72
     6
 73
     3
 74
     0
 42
0.0000000001
 43
0.0000000001
 40
-0.1976412617261341
 40
-0.1976412617261341
 40
-0.1976412617261341
 40
0.0
 40
0.0
 40
0.0
 10
4.050484316408784
 20
16.75632992627565
 30
0.0
 41
1.0
 10
3.934628336074872
 20
16.74928368681933
 30
0.0
 41
0.7912883703176437
 10
3.898582484764631
 20
16.85961479867283
 30
0.0
 41
1.0
  0
POLYLINE
  5
12F
330
1F
100
AcDbEntity
  8
Default
100
AcDb2dPolyline
 66
     1
 10
0.0
 20
0.0
 30
0.0
  0
VERTEX
  5
130
330
12F
100
AcDbEntity
  8
Default
100
AcDbVertex
100
AcDb2dVertex
 10
3.898582484764631
 20
16.85961479867283
 30
0.0
  0
VERTEX
  5
131
330
12F
100
AcDbEntity
  8
Default
100
AcDbVertex
100
AcDb2dVertex
 10
3.858462500337907
 20
17.05602354251132
 30
0.0
  0
SEQEND
  5
132
330
12F
100
AcDbEntity
  8
Default
  0
SPLINE
  5
133
330
1F
100
AcDbEntity
  8
Default
100
AcDbSpline
210
0.0
220
0.0
230
1.0
 70
     8
 71
     3
 72
    12
 73
     8
 74
     0
 42
0.0000000001
 43
0.0000000001
 40
0.0
 40
0.0
 40
0.0
 40
0.0
 40
0.1314998467573677
 40
0.8179331223926242
 40
0.9244197278151636
 40
0.9535125333836083
 40
0.9664940845669292
 40
0.9664940845669292
 40
0.9664940845669292
 40
0.9664940845669292
 10
3.858462500337907
 20
17.05602354251132
 30
0.0
 10
3.861679222609752
 20
17.01438058121131
 30
0.0
 10
3.923461849243921
 20
16.56958173776539
 30
0.0
 10
3.970983765322359
 20
16.27806230927807
 30
0.0
 10
4.007791148639143
 20
16.00644034826233
 30
0.0
 10
4.012448396411941
 20
15.9571630054902
 30
0.0
 10
4.01298992921204
 20
15.94309869639045
 30
0.0
 10
4.012107167603773
 20
15.93884812418921
 30
0.0
  0
SPLINE
  5
134
330
1F
100
AcDbEntity
  8
Default
100
AcDbSpline
210
0.0
220
0.0
230
1.0
 70
    12
 71
     2
 72
     6
 73
     3
 74
     0
 42
0.0000000001
 43
0.0000000001
 40
0.0
 40
0.0
 40
0.0
 40
0.540848380615198
 40
0.540848380615198
 40
0.540848380615198
 10
4.869013096536833
 20
16.75867438307955
 30
0.0
 41
1.0
 10
4.599370194723553
 20
16.73808592610497
 30
0.0
 41
0.9999801416098341
 10
4.329489215773492
 20
16.72089766674443
 30
0.0
 41
1.0
  0
SPLINE
  5
135
330
1F
100
AcDbEntity
  8
Default
100
AcDbSpline
210
0.0
220
0.0
230
1.0
 70
    12
 71
     2
 72
     6
 73
     3
 74
     0
 42
0.0000000001
 43
0.0000000001
 40
0.0
 40
0.0
 40
0.0
 40
0.059343123790252
 40
0.059343123790252
 40
0.059343123790252
 10
4.329489215773492
 20
16.72089766674443
 30
0.0
 41
1.0
 10
4.299648315477621
 20
16.72045542405649
 30
0.0
 41
0.9913467129098419
 10
4.270950935053747
 20
16.7122618127727
 30
0.0
 41
1.0
  0
SPLINE
  5
136
330
1F
100
AcDbEntity
  8
Default
100
AcDbSpline
210
0.0
220
0.0
230
1.0
 70
    12
 71
     2
 72
     6
 73
     3
 74
     0
 42
0.0000000001
 43
0.0000000001
 40
0.0
 40
0.0
 40
0.0
 40
0.0203768763467583
 40
0.0203768763467583
 40
0.0203768763467583
 10
4.270950935053747
 20
16.7122618127727
 30
0.0
 41
1.0
 10
4.272746072333611
 20
16.70223266292706
 30
0.0
 41
0.9999848848277485
 10
4.274430818361736
 20
16.69218437972542
 30
0.0
 41
1.0
  0
SPLINE
  5
137
330
1F
100
AcDbEntity
  8
Default
100
AcDbSpline
210
0.0
220
0.0
230
1.0
 70
    12
 71
     2
 72
     6
 73
     3
 74
     0
 42
0.0000000001
 43
0.0000000001
 40
0.0
 40
0.0
 40
0.0
 40
0.0605645191202352
 40
0.0605645191202352
 40
0.0605645191202352
 10
4.274430818361736
 20
16.69218437972542
 30
0.0
 41
1.0
 10
4.304479475620348
 20
16.68707416831447
 30
0.0
 41
0.9902925121170654
 10
4.334773846752569
 20
16.69043380243315
 30
0.0
 41
1.0
  0
SPLINE
  5
138
330
1F
100
AcDbEntity
  8
Default
100
AcDbSpline
210
0.0
220
0.0
230
1.0
 70
    12
 71
     2
 72
     6
 73
     3
 74
     0
 42
0.0000000001
 43
0.0000000001
 40
0.0
 40
0.0
 40
0.0
 40
0.5418730968609387
 40
0.5418730968609387
 40
0.5418730968609387
 10
4.334773846752569
 20
16.69043380243315
 30
0.0
 41
1.0
 10
4.605182180683363
 20
16.7074177793125
 30
0.0
 41
0.999974363643424
 10
4.875319566204809
 20
16.7282724064607
 30
0.0
 41
1.0
  0
SPLINE
  5
139
330
1F
100
AcDbEntity
  8
Default
100
AcDbSpline
210
0.0
220
0.0
230
1.0
 70
    12
 71
     2
 72
     6
 73
     3
 74
     0
 42
0.0000000001
 43
0.0000000001
 40
0.0
 40
0.0
 40
0.0
 40
0.2775120725341504
 40
0.2775120725341504
 40
0.2775120725341504
 10
4.875319566204809
 20
16.7282724064607
 30
0.0
 41
1.0
 10
5.017319759973837
 20
16.73932550393691
 30
0.0
 41
0.9617558144384456
 10
5.132189111788676
 20
16.82353511151172
 30
0.0
 41
1.0
  0
SPLINE
  5
13A
330
1F
100
AcDbEntity
  8
Default
100
AcDbSpline
210
0.0
220
0.0
230
1.0
 70
    12
 71
     2
 72
     6
 73
     3
 74
     0
 42
0.0000000001
 43
0.0000000001
 40
0.0
 40
0.0
 40
0.0
 40
0.0315606653918514
 40
0.0315606653918514
 40
0.0315606653918514
 10
5.132189111788676
 20
16.82353511151172
 30
0.0
 41
1.0
 10
5.131039503284947
 20
16.8390890738413
 30
0.0
 41
0.9999996186824177
 10
5.129110051236965
 20
16.85458678206853
 30
0.0
 41
0.9999999911101315
  0
SPLINE
  5
13B
330
1F
100
AcDbEntity
  8
Default
100
AcDbSpline
210
0.0
220
0.0
230
1.0
 70
    12
 71
     2
 72
     6
 73
     3
 74
     0
 42
0.0000000001
 43
0.0000000001
 40
0.0
 40
0.0
 40
0.0
 40
0.2797647164684515
 40
0.2797647164684515
 40
0.2797647164684515
 10
5.129110051236964
 20
16.85458678206853
 30
0.0
 41
1.0
 10
5.011965983091257
 20
16.77031359524905
 30
0.0
 41
0.9633487021761659
 10
4.869013096536833
 20
16.75867438307955
 30
0.0
 41
1.0
  0
SPLINE
  5
13C
330
1F
100
AcDbEntity
  8
Default
100
AcDbSpline
210
0.0
220
0.0
230
1.0
 70
     8
 71
     3
 72
    18
 73
    14
 74
     0
 42
0.0000000001
 43
0.0000000001
 40
0.0
 40
0.0
 40
0.0
 40
0.0
 40
0.2333027194675158
 40
0.2905961816495549
 40
0.3809533486540008
 40
0.4920801357797896
 40
0.6761604746707232
 40
1.165086677208357
 40
1.917925925034485
 40
3.064069455414916
 40
4.21509045905279
 40
4.690458462965164
 40
7.107196983414992
 40
7.107196983414992
 40
7.107196983414992
 40
7.107196983414992
 10
8.789646091496763
 20
18.60199477917794
 30
0.0
 10
8.865435094725598
 20
18.62287068845228
 30
0.0
 10
8.953614461628973
 20
18.65762835935436
 30
0.0
 10
9.080593245485773
 20
18.68814477495958
 30
0.0
 10
9.135304537119993
 20
18.75968514264009
 30
0.0
 10
9.16184465730467
 20
18.88679992641008
 30
0.0
 10
9.184581260289974
 20
19.14714478783178
 30
0.0
 10
9.173728661906978
 20
19.62295880200453
 30
0.0
 10
9.110124543878698
 20
20.41635411417067
 30
0.0
 10
8.996916874127521
 20
21.42686670036911
 30
0.0
 10
8.88137992262375
 20
22.34374671730131
 30
0.0
 10
8.704983523689975
 20
23.67989224627666
 30
0.0
 10
8.578338740395935
 20
24.63554902146161
 30
0.0
 10
8.472828093350387
 20
25.43419810095602
 30
0.0
  0
SPLINE
  5
13D
330
1F
100
AcDbEntity
  8
Default
100
AcDbSpline
210
0.0
220
0.0
230
1.0
 70
    12
 71
     2
 72
     6
 73
     3
 74
     0
 42
0.0000000001
 43
0.0000000001
 40
0.0
 40
0.0
 40
0.0
 40
6.481588670327722
 40
6.481588670327722
 40
6.481588670327722
 10
8.472828093350387
 20
25.43419810095602
 30
0.0
 41
1.0
 10
8.045640851330845
 20
28.64671459846861
 30
0.0
 41
0.9999997669392705
 10
7.622840574727803
 20
31.85981140881213
 30
0.0
 41
1.0
  0
SPLINE
  5
13E
330
1F
100
AcDbEntity
  8
Default
100
AcDbSpline
210
0.0
220
0.0
230
1.0
 70
    12
 71
     2
 72
     6
 73
     3
 74
     0
 42
0.0000000001
 43
0.0000000001
 40
0.0
 40
0.0
 40
0.0
 40
0.3221193712202933
 40
0.3221193712202933
 40
0.3221193712202933
 10
7.622840574727803
 20
31.85981140881213
 30
0.0
 41
1.0
 10
7.601781455217507
 20
32.01948865671621
 30
0.0
 41
0.9999974648356978
 10
7.581441649960141
 20
32.1792591243717
 30
0.0
 41
1.0
  0
SPLINE
  5
13F
330
1F
100
AcDbEntity
  8
Default
100
AcDbSpline
210
0.0
220
0.0
230
1.0
 70
     8
 71
     3
 72
     9
 73
     5
 74
     0
 42
0.0000000001
 43
0.0000000001
 40
0.0
 40
0.0
 40
0.0
 40
0.0
 40
1.0
 40
2.0
 40
2.0
 40
2.0
 40
2.0
 10
7.581441649960141
 20
32.1792591243717
 30
0.0
 10
7.571605695984545
 20
32.25652117022883
 30
0.0
 10
7.484264307865658
 20
32.44915625183608
 30
0.0
 10
7.314518751400357
 20
32.49646634992374
 30
0.0
 10
7.236776831898226
 20
32.48887795607303
 30
0.0
  0
SPLINE
  5
140
330
1F
100
AcDbEntity
  8
Default
100
AcDbSpline
210
0.0
220
0.0
230
1.0
 70
     8
 71
     3
 72
     9
 73
     5
 74
     0
 42
0.0000000001
 43
0.0000000001
 40
0.0
 40
0.0
 40
0.0
 40
0.0
 40
1.0
 40
2.0
 40
2.0
 40
2.0
 40
2.0
 10
7.236776831898226
 20
32.48887795607303
 30
0.0
 10
6.034350601300304
 20
32.37150905300716
 30
0.0
 10
3.624737716319856
 20
32.18128262632209
 30
0.0
 10
1.208150745076665
 20
32.12248659899783
 30
0.0
 10
0.0
 20
32.12296075061933
 30
0.0
  0
SPLINE
  5
141
330
1F
100
AcDbEntity
  8
Default
100
AcDbSpline
210
0.0
220
0.0
230
1.0
 70
     8
 71
     3
 72
     9
 73
     5
 74
     0
 42
0.0000000001
 43
0.0000000001
 40
-2.0
 40
-2.0
 40
-2.0
 40
-2.0
 40
-1.0
 40
0.0
 40
0.0
 40
0.0
 40
0.0
 10
0.0
 20
32.12296075061933
 30
0.0
 10
-1.208150745076665
 20
32.12248659899783
 30
0.0
 10
-3.624737716319856
 20
32.18128262632209
 30
0.0
 10
-6.034350601300304
 20
32.37150905300716
 30
0.0
 10
-7.236776831898226
 20
32.48887795607303
 30
0.0
  0
SPLINE
  5
142
330
1F
100
AcDbEntity
  8
Default
100
AcDbSpline
210
0.0
220
0.0
230
1.0
 70
     8
 71
     3
 72
     9
 73
     5
 74
     0
 42
0.0000000001
 43
0.0000000001
 40
-2.0
 40
-2.0
 40
-2.0
 40
-2.0
 40
-1.0
 40
0.0
 40
0.0
 40
0.0
 40
0.0
 10
-7.236776831898226
 20
32.48887795607303
 30
0.0
 10
-7.314518751400357
 20
32.49646634992374
 30
0.0
 10
-7.484264307865658
 20
32.44915625183608
 30
0.0
 10
-7.571605695984545
 20
32.25652117022883
 30
0.0
 10
-7.581441649960141
 20
32.1792591243717
 30
0.0
  0
SPLINE
  5
143
330
1F
100
AcDbEntity
  8
Default
100
AcDbSpline
210
0.0
220
0.0
230
1.0
 70
    12
 71
     2
 72
     6
 73
     3
 74
     0
 42
0.0000000001
 43
0.0000000001
 40
-0.3221193712202933
 40
-0.3221193712202933
 40
-0.3221193712202933
 40
0.0
 40
0.0
 40
0.0
 10
-7.581441649960141
 20
32.1792591243717
 30
0.0
 41
1.0
 10
-7.601781455217505
 20
32.01948865671621
 30
0.0
 41
0.9999974648356978
 10
-7.622840574727803
 20
31.85981140881213
 30
0.0
 41
1.0
  0
SPLINE
  5
144
330
1F
100
AcDbEntity
  8
Default
100
AcDbSpline
210
0.0
220
0.0
230
1.0
 70
    12
 71
     2
 72
     6
 73
     3
 74
     0
 42
0.0000000001
 43
0.0000000001
 40
-6.481588670327722
 40
-6.481588670327722
 40
-6.481588670327722
 40
0.0
 40
0.0
 40
0.0
 10
-7.622840574727803
 20
31.85981140881213
 30
0.0
 41
1.0
 10
-8.045640851330845
 20
28.64671459846861
 30
0.0
 41
0.9999997669392705
 10
-8.472828093350387
 20
25.43419810095602
 30
0.0
 41
1.0
  0
SPLINE
  5
145
330
1F
100
AcDbEntity
  8
Default
100
AcDbSpline
210
0.0
220
0.0
230
1.0
 70
     8
 71
     3
 72
    18
 73
    14
 74
     0
 42
0.0000000001
 43
0.0000000001
 40
-7.107196983414992
 40
-7.107196983414992
 40
-7.107196983414992
 40
-7.107196983414992
 40
-4.690458462965164
 40
-4.21509045905279
 40
-3.064069455414916
 40
-1.917925925034485
 40
-1.165086677208357
 40
-0.6761604746707232
 40
-0.4920801357797896
 40
-0.3809533486540008
 40
-0.2905961816495549
 40
-0.2333027194675158
 40
0.0
 40
0.0
 40
0.0
 40
0.0
 10
-8.472828093350387
 20
25.43419810095602
 30
0.0
 10
-8.578338740395935
 20
24.63554902146161
 30
0.0
 10
-8.704983523689975
 20
23.67989224627666
 30
0.0
 10
-8.88137992262375
 20
22.34374671730131
 30
0.0
 10
-8.996916874127521
 20
21.42686670036911
 30
0.0
 10
-9.110124543878698
 20
20.41635411417067
 30
0.0
 10
-9.173728661906978
 20
19.62295880200453
 30
0.0
 10
-9.184581260289974
 20
19.14714478783178
 30
0.0
 10
-9.16184465730467
 20
18.88679992641008
 30
0.0
 10
-9.135304537119993
 20
18.75968514264009
 30
0.0
 10
-9.080593245485773
 20
18.68814477495958
 30
0.0
 10
-8.953614461628973
 20
18.65762835935436
 30
0.0
 10
-8.865435094725598
 20
18.62287068845228
 30
0.0
 10
-8.789646091496763
 20
18.60199477917794
 30
0.0
  0
SPLINE
  5
146
330
1F
100
AcDbEntity
  8
Default
100
AcDbSpline
210
0.0
220
0.0
230
1.0
 70
    12
 71
     2
 72
     6
 73
     3
 74
     0
 42
0.0000000001
 43
0.0000000001
 40
0.0
 40
0.0
 40
0.0
 40
0.1384417277388144
 40
0.1384417277388144
 40
0.1384417277388144
 10
5.23575833210262
 20
17.77657065099762
 30
0.0
 41
1.0
 10
5.272995207017136
 20
17.83512266914581
 30
0.0
 41
0.9963553071551586
 10
5.319639994121559
 20
17.88665544546462
 30
0.0
 41
1.0
  0
SPLINE
  5
147
330
1F
100
AcDbEntity
  8
Default
100
AcDbSpline
210
0.0
220
0.0
230
1.0
 70
    12
 71
     2
 72
     6
 73
     3
 74
     0
 42
0.0000000001
 43
0.0000000001
 40
-0.0591433968118628
 40
-0.0591433968118628
 40
-0.0591433968118628
 40
0.0
 40
0.0
 40
0.0
 10
5.319639994121559
 20
17.88665544546462
 30
0.0
 41
1.0
 10
5.349097686866089
 20
17.88938015386655
 30
0.0
 41
0.9999996335956421
 10
5.378638614351217
 20
17.89200032147311
 30
0.0
 41
1.0
  0
SPLINE
  5
148
330
1F
100
AcDbEntity
  8
Default
100
AcDbSpline
210
0.0
220
0.0
230
1.0
 70
    12
 71
     2
 72
     6
 73
     3
 74
     0
 42
0.0000000001
 43
0.0000000001
 40
-0.0773887080460484
 40
-0.0773887080460484
 40
-0.0773887080460484
 40
0.0
 40
0.0
 40
0.0
 10
5.378638614351217
 20
17.89200032147311
 30
0.0
 41
1.0
 10
5.427289684534301
 20
17.89607896419633
 30
0.0
 41
0.7177403430871934
 10
5.432830823795399
 20
17.8476584481067
 30
0.0
 41
1.0
  0
POLYLINE
  5
149
330
1F
100
AcDbEntity
  8
Default
100
AcDb2dPolyline
 66
     1
 10
0.0
 20
0.0
 30
0.0
  0
VERTEX
  5
14A
330
149
100
AcDbEntity
  8
Default
100
AcDbVertex
100
AcDb2dVertex
 10
5.432830823795399
 20
17.8476584481067
 30
0.0
  0
VERTEX
  5
14B
330
149
100
AcDbEntity
  8
Default
100
AcDbVertex
100
AcDb2dVertex
 10
5.436186968693505
 20
17.79436065893533
 30
0.0
  0
SEQEND
  5
14C
330
149
100
AcDbEntity
  8
Default
  0
SPLINE
  5
14D
330
1F
100
AcDbEntity
  8
Default
100
AcDbSpline
210
0.0
220
0.0
230
1.0
 70
    12
 71
     2
 72
     6
 73
     3
 74
     0
 42
0.0000000001
 43
0.0000000001
 40
0.0
 40
0.0
 40
0.0
 40
0.0724207446047263
 40
0.0724207446047263
 40
0.0724207446047263
 10
-4.747827051558033
 20
17.83421746333582
 30
0.0
 41
1.0
 10
-4.707309999846755
 20
17.82632448211862
 30
0.0
 41
0.8256035884653902
 10
-4.699946329839776
 20
17.78570789688676
 30
0.0
 41
1.0
  0
POLYLINE
  5
14E
330
1F
100
AcDbEntity
  8
Default
100
AcDb2dPolyline
 66
     1
 10
0.0
 20
0.0
 30
0.0
  0
VERTEX
  5
14F
330
14E
100
AcDbEntity
  8
Default
100
AcDbVertex
100
AcDb2dVertex
 10
-4.699946329839776
 20
17.78570789688676
 30
0.0
  0
VERTEX
  5
150
330
14E
100
AcDbEntity
  8
Default
100
AcDbVertex
100
AcDb2dVertex
 10
-4.696606777139266
 20
17.73507444418593
 30
0.0
  0
SEQEND
  5
151
330
14E
100
AcDbEntity
  8
Default
  0
SPLINE
  5
152
330
1F
100
AcDbEntity
  8
Default
100
AcDbSpline
210
0.0
220
0.0
230
1.0
 70
    12
 71
     2
 72
     6
 73
     3
 74
     0
 42
0.0000000001
 43
0.0000000001
 40
0.0
 40
0.0
 40
0.0
 40
0.0844971621245576
 40
0.0844971621245576
 40
0.0844971621245576
 10
-4.052968397501473
 20
17.79057249323189
 30
0.0
 41
1.0
 10
-4.103840739437481
 20
17.79340465836437
 30
0.0
 41
0.7624308717548118
 10
-4.114907141209216
 20
17.74366985078238
 30
0.0
 41
1.0
  0
POLYLINE
  5
153
330
1F
100
AcDbEntity
  8
Default
100
AcDb2dPolyline
 66
     1
 10
0.0
 20
0.0
 30
0.0
  0
VERTEX
  5
154
330
153
100
AcDbEntity
  8
Default
100
AcDbVertex
100
AcDb2dVertex
 10
-4.114907141209216
 20
17.74366985078238
 30
0.0
  0
VERTEX
  5
155
330
153
100
AcDbEntity
  8
Default
100
AcDbVertex
100
AcDb2dVertex
 10
-4.121183257219087
 20
17.69763112204286
 30
0.0
  0
SEQEND
  5
156
330
153
100
AcDbEntity
  8
Default
  0
SPLINE
  5
157
330
1F
100
AcDbEntity
  8
Default
100
AcDbSpline
210
0.0
220
0.0
230
1.0
 70
    12
 71
     2
 72
     6
 73
     3
 74
     0
 42
0.0000000001
 43
0.0000000001
 40
-0.065528962576113
 40
-0.065528962576113
 40
-0.065528962576113
 40
0.0
 40
0.0
 40
0.0
 10
-4.121183257219087
 20
17.69763112204286
 30
0.0
 41
1.0
 10
-4.100155162969893
 20
17.72852906652176
 30
0.0
 41
0.8543860015409506
 10
-4.063749180268985
 20
17.72639491972084
 30
0.0
 41
1.0
  0
POLYLINE
  5
158
330
1F
100
AcDbEntity
  8
Default
100
AcDb2dPolyline
 66
     1
 10
0.0
 20
0.0
 30
0.0
  0
VERTEX
  5
159
330
158
100
AcDbEntity
  8
Default
100
AcDbVertex
100
AcDb2dVertex
 10
-4.063749180268985
 20
17.72639491972084
 30
0.0
  0
VERTEX
  5
15A
330
158
100
AcDbEntity
  8
Default
100
AcDbVertex
100
AcDb2dVertex
 10
-4.052968397501473
 20
17.79057249323189
 30
0.0
  0
SEQEND
  5
15B
330
158
100
AcDbEntity
  8
Default
  0
SPLINE
  5
15C
330
1F
100
AcDbEntity
  8
Default
100
AcDbSpline
210
0.0
220
0.0
230
1.0
 70
     8
 71
     3
 72
    13
 73
     9
 74
     0
 42
0.0000000001
 43
0.0000000001
 40
-6.0
 40
-6.0
 40
-6.0
 40
-6.0
 40
-5.0
 40
-4.0
 40
-3.0
 40
-2.0
 40
-1.0
 40
0.0
 40
0.0
 40
0.0
 40
0.0
 10
-4.052968397501473
 20
17.79057249323189
 30
0.0
 10
-4.087180818311424
 20
17.80845283595814
 30
0.0
 10
-4.167458507524657
 20
17.81348585988825
 30
0.0
 10
-4.284410785022743
 20
17.81959921893854
 30
0.0
 10
-4.402247718352072
 20
17.8263046503863
 30
0.0
 10
-4.519945179263289
 20
17.83329596663044
 30
0.0
 10
-4.637196462690667
 20
17.84060949343962
 30
0.0
 10
-4.716563758818523
 20
17.84579830366055
 30
0.0
 10
-4.754364320936304
 20
17.83511171261267
 30
0.0
  0
POLYLINE
  5
15D
330
1F
100
AcDbEntity
  8
Default
100
AcDb2dPolyline
 66
     1
 10
0.0
 20
0.0
 30
0.0
  0
VERTEX
  5
15E
330
15D
100
AcDbEntity
  8
Default
100
AcDbVertex
100
AcDb2dVertex
 10
-4.754364320936304
 20
17.83511171261267
 30
0.0
  0
VERTEX
  5
15F
330
15D
100
AcDbEntity
  8
Default
100
AcDbVertex
100
AcDb2dVertex
 10
-4.763931317946344
 20
17.77009544121697
 30
0.0
  0
SEQEND
  5
160
330
15D
100
AcDbEntity
  8
Default
  0
SPLINE
  5
161
330
1F
100
AcDbEntity
  8
Default
100
AcDbSpline
210
0.0
220
0.0
230
1.0
 70
    12
 71
     2
 72
     6
 73
     3
 74
     0
 42
0.0000000001
 43
0.0000000001
 40
0.0
 40
0.0
 40
0.0
 40
0.0603146745624972
 40
0.0603146745624972
 40
0.0603146745624972
 10
-4.763931317946344
 20
17.77009544121697
 30
0.0
 41
1.0
 10
-4.731188504897776
 20
17.76622726501503
 30
0.0
 41
0.8767934007613639
 10
-4.716849961964982
 20
17.73653785983358
 30
0.0
 41
1.0
  0
SPLINE
  5
162
330
1F
100
AcDbEntity
  8
Default
100
AcDbSpline
210
0.0
220
0.0
230
1.0
 70
    12
 71
     2
 72
     6
 73
     3
 74
     0
 42
0.0000000001
 43
0.0000000001
 40
-3.894196445260582
 40
-3.894196445260582
 40
-3.894196445260582
 40
0.0
 40
0.0
 40
0.0
 10
-3.877375392511027
 20
16.86171119341705
 30
0.0
 41
1.0
 10
-1.951460636389015
 20
16.54696733811308
 30
0.0
 41
0.9966471802277466
 10
0.0000000000000098
 20
16.55053481960918
 30
0.0
 41
0.9999999977424644
  0
SPLINE
  5
163
330
1F
100
AcDbEntity
  8
Default
100
AcDbSpline
210
0.0
220
0.0
230
1.0
 70
    12
 71
     2
 72
     6
 73
     3
 74
     0
 42
0.0000000001
 43
0.0000000001
 40
0.0
 40
0.0
 40
0.0
 40
3.894196445260582
 40
3.894196445260582
 40
3.894196445260582
 10
0.0000000000000098
 20
16.55053481960918
 30
0.0
 41
0.9999999977424644
 10
1.951460636389011
 20
16.54696733811308
 30
0.0
 41
0.9966471802277466
 10
3.877375392511027
 20
16.86171119341705
 30
0.0
 41
1.0
  0
ARC
  5
164
330
1F
100
AcDbEntity
  8
Default
100
AcDbCircle
 10
-63.85904567680191
 20
37.5280885188716
 30
0.0
 40
56.53701087835524
100
AcDbArc
 50
352.4515982317758
 51
354.5899439829723
  0
SPLINE
  5
165
330
1F
100
AcDbEntity
  8
Default
100
AcDbSpline
210
0.0
220
0.0
230
1.0
 70
     8
 71
     3
 72
    23
 73
    19
 74
     0
 42
0.0000000001
 43
0.0000000001
 40
-11.91967701549755
 40
-11.91967701549755
 40
-11.91967701549755
 40
-11.91967701549755
 40
-8.329327274556412
 40
-4.522153002375717
 40
-3.809294555456245
 40
-2.42112832591297
 40
-1.528295460971046
 40
-0.946943201027295
 40
-0.7579104400587644
 40
-0.6748850320902328
 40
-0.6276874961547436
 40
-0.5831373980459477
 40
-0.5504869057075638
 40
-0.4870405797229443
 40
-0.4054342416030434
 40
-0.2521911721077188
 40
-0.1143499834053041
 40
0.0
 40
0.0
 40
0.0
 40
0.0
 10
-7.811970797288353
 20
30.10117822525298
 30
0.0
 10
-7.969184748668113
 20
28.91476533527139
 30
0.0
 10
-8.282864121426712
 20
26.46894895335171
 30
0.0
 10
-8.640856763004876
 20
23.78926114320604
 30
0.0
 10
-8.896030503006926
 20
21.83654615300112
 30
0.0
 10
-9.01342701759799
 20
20.8452848253162
 30
0.0
 10
-9.104281934374114
 20
19.8956936036888
 30
0.0
 10
-9.122949475264761
 20
19.34068191181868
 30
0.0
 10
-9.099785444971303
 20
19.05705985287462
 30
0.0
 10
-9.075839442173958
 20
18.95241378746702
 30
0.0
 10
-9.053827700445282
 20
18.89937805818223
 30
0.0
 10
-9.028607513733618
 20
18.8638538433552
 30
0.0
 10
-8.98502974677612
 20
18.84574009282061
 30
0.0
 10
-8.928933297339654
 20
18.82681788088288
 30
0.0
 10
-8.834800126068302
 20
18.7947739326288
 30
0.0
 10
-8.715958254986816
 20
18.75853933210227
 30
0.0
 10
-8.586475670998055
 20
18.71984312358645
 30
0.0
 10
-8.506651720863601
 20
18.69340305522884
 30
0.0
 10
-8.471104637638888
 20
18.67961554229391
 30
0.0
  0
SPLINE
  5
166
330
1F
100
AcDbEntity
  8
Default
100
AcDbSpline
210
0.0
220
0.0
230
1.0
 70
     8
 71
     3
 72
    13
 73
     9
 74
     0
 42
0.0000000001
 43
0.0000000001
 40
-6.0
 40
-6.0
 40
-6.0
 40
-6.0
 40
-4.999999763674965
 40
-3.99999952734993
 40
-2.999999291024896
 40
-1.999999054699861
 40
-0.9999988183748261
 40
0.0
 40
0.0
 40
0.0
 40
0.0
 10
-8.471104637638888
 20
18.67961554229391
 30
0.0
 10
-8.00967755191283
 20
18.57184560135834
 30
0.0
 10
-7.078985919410911
 20
18.39161988701886
 30
0.0
 10
-5.673248377356231
 20
18.17908305075996
 30
0.0
 10
-4.259968851419558
 20
18.0239552221283
 30
0.0
 10
-2.841972030856311
 20
17.92167090834335
 30
0.0
 10
-1.421484898259394
 20
17.8647140190983
 30
0.0
 10
-0.4738220070142631
 20
17.8532840880032
 30
0.0
 10
0.0
 20
17.85344592670231
 30
0.0
  0
SPLINE
  5
167
330
1F
100
AcDbEntity
  8
Default
100
AcDbSpline
210
0.0
220
0.0
230
1.0
 70
     8
 71
     3
 72
    13
 73
     9
 74
     0
 42
0.0000000001
 43
0.0000000001
 40
0.0
 40
0.0
 40
0.0
 40
0.0
 40
0.9999988183748261
 40
1.999999054699861
 40
2.999999291024896
 40
3.99999952734993
 40
4.999999763674965
 40
6.0
 40
6.0
 40
6.0
 40
6.0
 10
0.0
 20
17.85344592670231
 30
0.0
 10
0.4738220070142631
 20
17.8532840880032
 30
0.0
 10
1.421484898259394
 20
17.8647140190983
 30
0.0
 10
2.841972030856311
 20
17.92167090834335
 30
0.0
 10
4.259968851419558
 20
18.0239552221283
 30
0.0
 10
5.673248377356231
 20
18.17908305075996
 30
0.0
 10
7.078985919410911
 20
18.39161988701886
 30
0.0
 10
8.00967755191283
 20
18.57184560135834
 30
0.0
 10
8.471104637638888
 20
18.67961554229391
 30
0.0
  0
SPLINE
  5
168
330
1F
100
AcDbEntity
  8
Default
100
AcDbSpline
210
0.0
220
0.0
230
1.0
 70
     8
 71
     3
 72
    23
 73
    19
 74
     0
 42
0.0000000001
 43
0.0000000001
 40
0.0
 40
0.0
 40
0.0
 40
0.0
 40
0.1143499834053041
 40
0.2521911721077188
 40
0.4054342416030434
 40
0.4870405797229443
 40
0.5504869057075638
 40
0.5831373980459477
 40
0.6276874961547436
 40
0.6748850320902328
 40
0.7579104400587644
 40
0.946943201027295
 40
1.528295460971046
 40
2.42112832591297
 40
3.809294555456245
 40
4.522153002375717
 40
8.329327274556412
 40
11.91967701549755
 40
11.91967701549755
 40
11.91967701549755
 40
11.91967701549755
 10
8.471104637638888
 20
18.67961554229391
 30
0.0
 10
8.506651720863601
 20
18.69340305522884
 30
0.0
 10
8.586475670998055
 20
18.71984312358645
 30
0.0
 10
8.715958254986816
 20
18.75853933210227
 30
0.0
 10
8.834800126068302
 20
18.7947739326288
 30
0.0
 10
8.928933297339654
 20
18.82681788088288
 30
0.0
 10
8.98502974677612
 20
18.84574009282061
 30
0.0
 10
9.028607513733618
 20
18.8638538433552
 30
0.0
 10
9.053827700445282
 20
18.89937805818223
 30
0.0
 10
9.075839442173958
 20
18.95241378746702
 30
0.0
 10
9.099785444971303
 20
19.05705985287462
 30
0.0
 10
9.122949475264761
 20
19.34068191181868
 30
0.0
 10
9.104281934374114
 20
19.8956936036888
 30
0.0
 10
9.01342701759799
 20
20.8452848253162
 30
0.0
 10
8.896030503006926
 20
21.83654615300112
 30
0.0
 10
8.640856763004876
 20
23.78926114320604
 30
0.0
 10
8.282864121426712
 20
26.46894895335171
 30
0.0
 10
7.969184748668113
 20
28.91476533527139
 30
0.0
 10
7.811970797288353
 20
30.10117822525298
 30
0.0
  0
ARC
  5
169
330
1F
100
AcDbEntity
  8
Default
100
AcDbCircle
 10
63.85904567680191
 20
37.5280885188716
 30
0.0
 40
56.53701087835524
100
AcDbArc
 50
185.4100560170277
 51
187.5484017682241
  0
SPLINE
  5
16A
330
1F
100
AcDbEntity
  8
Default
100
AcDbSpline
210
0.0
220
0.0
230
1.0
 70
     8
 71
     3
 72
    11
 73
     7
 74
     0
 42
0.0000000001
 43
0.0000000001
 40
0.0
 40
0.0
 40
0.0
 40
0.0
 40
0.5807161227333388
 40
1.579145115981618
 40
4.028826996229559
 40
8.734236464915913
 40
8.734236464915913
 40
8.734236464915913
 40
8.734236464915913
 10
8.70071169447607
 20
18.75968055258353
 30
0.0
 10
8.51285920585127
 20
18.71240513817823
 30
0.0
 10
7.99348248026223
 20
18.62509875230748
 30
0.0
 10
6.661035791553132
 20
18.4574130443781
 30
0.0
 10
3.953919749157336
 20
18.20719859838012
 30
0.0
 10
1.568426588123145
 20
18.13348863536181
 30
0.0
 10
0.0
 20
18.13557078427268
 30
0.0
  0
SPLINE
  5
16B
330
1F
100
AcDbEntity
  8
Default
100
AcDbSpline
210
0.0
220
0.0
230
1.0
 70
     8
 71
     3
 72
    11
 73
     7
 74
     0
 42
0.0000000001
 43
0.0000000001
 40
-8.734236464915913
 40
-8.734236464915913
 40
-8.734236464915913
 40
-8.734236464915913
 40
-4.028826996229559
 40
-1.579145115981618
 40
-0.5807161227333388
 40
0.0
 40
0.0
 40
0.0
 40
0.0
 10
0.0
 20
18.13557078427268
 30
0.0
 10
-1.568426588123145
 20
18.13348863536181
 30
0.0
 10
-3.953919749157336
 20
18.20719859838012
 30
0.0
 10
-6.661035791553132
 20
18.4574130443781
 30
0.0
 10
-7.99348248026223
 20
18.62509875230748
 30
0.0
 10
-8.51285920585127
 20
18.71240513817823
 30
0.0
 10
-8.70071169447607
 20
18.75968055258353
 30
0.0
  0
ARC
  5
16C
330
1F
100
AcDbEntity
  8
Default
100
AcDbCircle
 10
-8.676763224814124
 20
18.90395046462554
 30
0.0
 40
0.4767832321942155
100
AcDbArc
 50
192.0252858064753
 51
200.7856856410668
  0
ARC
  5
16D
330
1F
100
AcDbEntity
  8
Default
100
AcDbCircle
 10
-8.974349750225286
 20
18.79099301476545
 30
0.0
 40
0.1584797204555228
100
AcDbArc
 50
200.7856856410651
 51
243.3113223527148
  0
ARC
  5
16E
330
1F
100
AcDbEntity
  8
Default
100
AcDbCircle
 10
-5.570431036215808
 20
28.98615809365877
 30
0.0
 40
10.90527057606768
100
AcDbArc
 50
251.4179538194733
 51
253.3208065539643
  0
ARC
  5
16F
330
1F
100
AcDbEntity
  8
Default
100
AcDbCircle
 10
-7.011265588063594
 20
24.17726241744466
 30
0.0
 40
5.885162825181336
100
AcDbArc
 50
253.3208065539643
 51
257.9575618665136
  0
SPLINE
  5
170
330
1F
100
AcDbEntity
  8
Default
100
AcDbSpline
210
0.0
220
0.0
230
1.0
 70
     8
 71
     3
 72
    11
 73
     7
 74
     0
 42
0.0000000001
 43
0.0000000001
 40
-8.289804655665163
 40
-8.289804655665163
 40
-8.289804655665163
 40
-8.289804655665163
 40
-4.386439640998885
 40
-2.244382141007875
 40
-1.117145790588472
 40
0.0
 40
0.0
 40
0.0
 40
0.0
 10
-8.239123202748488
 20
18.42161239707713
 30
0.0
 10
-6.966390493670332
 20
18.15009926775721
 30
0.0
 10
-4.968541923158369
 20
17.86355295932999
 30
0.0
 10
-2.582170737175687
 20
17.70794489975183
 30
0.0
 10
-1.120485126484397
 20
17.66473061990125
 30
0.0
 10
-0.3724032010042606
 20
17.65871227578154
 30
0.0
 10
0.0
 20
17.65926547750744
 30
0.0
  0
SPLINE
  5
171
330
1F
100
AcDbEntity
  8
Default
100
AcDbSpline
210
0.0
220
0.0
230
1.0
 70
     8
 71
     3
 72
    11
 73
     7
 74
     0
 42
0.0000000001
 43
0.0000000001
 40
0.0
 40
0.0
 40
0.0
 40
0.0
 40
1.117145790588472
 40
2.244382141007875
 40
4.386439640998885
 40
8.289804655665163
 40
8.289804655665163
 40
8.289804655665163
 40
8.289804655665163
 10
0.0
 20
17.65926547750744
 30
0.0
 10
0.3724032010042606
 20
17.65871227578154
 30
0.0
 10
1.120485126484397
 20
17.66473061990125
 30
0.0
 10
2.582170737175687
 20
17.70794489975183
 30
0.0
 10
4.968541923158369
 20
17.86355295932999
 30
0.0
 10
6.966390493670332
 20
18.15009926775721
 30
0.0
 10
8.239123202748488
 20
18.42161239707713
 30
0.0
  0
ARC
  5
172
330
1F
100
AcDbEntity
  8
Default
100
AcDbCircle
 10
7.011265588063594
 20
24.17726241744466
 30
0.0
 40
5.885162825181336
100
AcDbArc
 50
282.0424381334864
 51
286.6791934460358
  0
ARC
  5
173
330
1F
100
AcDbEntity
  8
Default
100
AcDbCircle
 10
5.570431036215808
 20
28.98615809365877
 30
0.0
 40
10.90527057606768
100
AcDbArc
 50
286.6791934460358
 51
288.5820461805268
  0
ARC
  5
174
330
1F
100
AcDbEntity
  8
Default
100
AcDbCircle
 10
8.974349750225286
 20
18.79099301476545
 30
0.0
 40
0.1584797204555228
100
AcDbArc
 50
296.6886776472851
 51
339.2143143589349
  0
ARC
  5
175
330
1F
100
AcDbEntity
  8
Default
100
AcDbCircle
 10
8.676763224814124
 20
18.90395046462554
 30
0.0
 40
0.4767832321942155
100
AcDbArc
 50
339.2143143589332
 51
347.9747141935247
  0
SPLINE
  5
176
330
1F
100
AcDbEntity
  8
Default
100
AcDbSpline
210
0.0
220
0.0
230
1.0
 70
     8
 71
     3
 72
    11
 73
     7
 74
     0
 42
0.0000000001
 43
0.0000000001
 40
0.0
 40
0.0
 40
0.0
 40
0.0
 40
0.4227618085603584
 40
0.8713107482652187
 40
1.810554185318841
 40
3.922906212066565
 40
3.922906212066565
 40
3.922906212066565
 40
3.922906212066565
 10
3.899111266035248
 20
16.70705213806247
 30
0.0
 10
3.761498735196341
 20
16.67670348445337
 30
0.0
 10
3.476667084054299
 20
16.61967576896046
 30
0.0
 10
2.881273375021124
 20
16.52054870347009
 30
0.0
 10
1.72185301817521
 20
16.38521073814994
 30
0.0
 10
0.7039870290796557
 20
16.35075213408686
 30
0.0
 10
0.0
 20
16.35057039687858
 30
0.0
  0
SPLINE
  5
177
330
1F
100
AcDbEntity
  8
Default
100
AcDbSpline
210
0.0
220
0.0
230
1.0
 70
     8
 71
     3
 72
    11
 73
     7
 74
     0
 42
0.0000000001
 43
0.0000000001
 40
-3.922906212066565
 40
-3.922906212066565
 40
-3.922906212066565
 40
-3.922906212066565
 40
-1.810554185318841
 40
-0.8713107482652187
 40
-0.4227618085603584
 40
0.0
 40
0.0
 40
0.0
 40
0.0
 10
0.0
 20
16.35057039687858
 30
0.0
 10
-0.7039870290796557
 20
16.35075213408686
 30
0.0
 10
-1.72185301817521
 20
16.38521073814994
 30
0.0
 10
-2.881273375021124
 20
16.52054870347009
 30
0.0
 10
-3.476667084054299
 20
16.61967576896046
 30
0.0
 10
-3.761498735196341
 20
16.67670348445337
 30
0.0
 10
-3.899111266035248
 20
16.70705213806247
 30
0.0
  0
SPLINE
  5
178
330
1F
100
AcDbEntity
  8
Default
100
AcDbSpline
210
0.0
220
0.0
230
1.0
 70
     8
 71
     3
 72
    11
 73
     7
 74
     0
 42
0.0000000001
 43
0.0000000001
 40
-4.009012688354398
 40
-4.009012688354398
 40
-4.009012688354398
 40
-4.009012688354398
 40
-2.15587852467404
 40
-1.126572318068338
 40
-0.5718741373387862
 40
0.0
 40
0.0
 40
0.0
 40
0.0
 10
-3.985293499267726
 20
16.08615519744216
 30
0.0
 10
-3.381262688887432
 20
15.9560493162495
 30
0.0
 10
-2.428133949005542
 20
15.82290592759034
 30
0.0
 10
-1.284535150079364
 20
15.75063706726459
 30
0.0
 10
-0.5661186533450291
 20
15.72903622604982
 30
0.0
 10
-0.1906428340348043
 20
15.72553963196061
 30
0.0
 10
0.0
 20
15.72557039687561
 30
0.0
  0
SPLINE
  5
179
330
1F
100
AcDbEntity
  8
Default
100
AcDbSpline
210
0.0
220
0.0
230
1.0
 70
     8
 71
     3
 72
    11
 73
     7
 74
     0
 42
0.0000000001
 43
0.0000000001
 40
0.0
 40
0.0
 40
0.0
 40
0.0
 40
0.5718741373387862
 40
1.126572318068338
 40
2.15587852467404
 40
4.009012688354398
 40
4.009012688354398
 40
4.009012688354398
 40
4.009012688354398
 10
0.0
 20
15.72557039687561
 30
0.0
 10
0.1906428340348043
 20
15.72553963196061
 30
0.0
 10
0.5661186533450291
 20
15.72903622604982
 30
0.0
 10
1.284535150079364
 20
15.75063706726459
 30
0.0
 10
2.428133949005542
 20
15.82290592759034
 30
0.0
 10
3.381262688887432
 20
15.9560493162495
 30
0.0
 10
3.985293499267726
 20
16.08615519744216
 30
0.0
  0
SPLINE
  5
17A
330
1F
100
AcDbEntity
  8
Default
100
AcDbSpline
210
0.0
220
0.0
230
1.0
 70
    24
 71
     2
 72
     6
 73
     3
 74
     0
 42
0.0000000001
 43
0.0000000001
 40
-16.56354563283629
 40
-16.56354563283629
 40
-16.56354563283629
 40
0.0
 40
0.0
 40
0.0
 10
-9.431608471437642
 20
0.3081570575757837
 30
0.0
 10
-9.142565727687057
 20
8.585246272075285
 30
0.0
 10
-8.853522983936472
 20
16.86233548657479
 30
0.0
  0
SPLINE
  5
17B
330
1F
100
AcDbEntity
  8
Default
100
AcDbSpline
210
0.0
220
0.0
230
1.0
 70
    12
 71
     2
 72
     8
 73
     5
 74
     0
 42
0.0000000001
 43
0.0000000001
 40
-1.222457226751036
 40
-1.222457226751036
 40
-1.222457226751036
 40
-0.6112286133755178
 40
-0.6112286133755178
 40
0.0
 40
0.0
 40
0.0
 10
-8.853522983936472
 20
16.86233548657479
 30
0.0
 41
1.0
 10
-8.837554893120934
 20
17.18891439842446
 30
0.0
 41
0.9077856432035236
 10
-8.57907844328858
 20
17.38797780205656
 30
0.0
 41
1.0
 10
-8.320601993456235
 20
17.58704120568866
 30
0.0
 41
0.9077856432035236
 10
-7.999547204354201
 20
17.51881460234336
 30
0.0
 41
1.0
  0
SPLINE
  5
17C
330
1F
100
AcDbEntity
  8
Default
100
AcDbSpline
210
0.0
220
0.0
230
1.0
 70
     8
 71
     3
 72
    13
 73
     9
 74
     0
 42
0.0000000001
 43
0.0000000001
 40
0.0
 40
0.0
 40
0.0
 40
0.0
 40
1.000001619185143
 40
2.000003238370286
 40
3.000004857555429
 40
4.000006476740571
 40
5.000008095925715
 40
6.0
 40
6.0
 40
6.0
 40
6.0
 10
-7.999547204354201
 20
17.51881460234336
 30
0.0
 10
-7.562042887283013
 20
17.42135459911238
 30
0.0
 10
-6.679944931942345
 20
17.28417718845879
 30
0.0
 10
-5.347858824785646
 20
17.1533409069134
 30
0.0
 10
-4.012936458833877
 20
17.05889243238486
 30
0.0
 10
-2.675979901176021
 20
16.99902596982438
 30
0.0
 10
-1.338188428793444
 20
16.96468568394485
 30
0.0
 10
-0.4460589073454457
 20
16.95742969315497
 30
0.0
 10
0.0
 20
16.95742514911869
 30
0.0
  0
SPLINE
  5
17D
330
1F
100
AcDbEntity
  8
Default
100
AcDbSpline
210
0.0
220
0.0
230
1.0
 70
     8
 71
     3
 72
    13
 73
     9
 74
     0
 42
0.0000000001
 43
0.0000000001
 40
-6.0
 40
-6.0
 40
-6.0
 40
-6.0
 40
-5.000008095925715
 40
-4.000006476740571
 40
-3.000004857555429
 40
-2.000003238370286
 40
-1.000001619185143
 40
0.0
 40
0.0
 40
0.0
 40
0.0
 10
0.0
 20
16.95742514911869
 30
0.0
 10
0.4460589073454457
 20
16.95742969315497
 30
0.0
 10
1.338188428793444
 20
16.96468568394485
 30
0.0
 10
2.675979901176021
 20
16.99902596982438
 30
0.0
 10
4.012936458833877
 20
17.05889243238486
 30
0.0
 10
5.347858824785646
 20
17.1533409069134
 30
0.0
 10
6.679944931942345
 20
17.28417718845879
 30
0.0
 10
7.562042887283013
 20
17.42135459911238
 30
0.0
 10
7.999547204354201
 20
17.51881460234336
 30
0.0
  0
SPLINE
  5
17E
330
1F
100
AcDbEntity
  8
Default
100
AcDbSpline
210
0.0
220
0.0
230
1.0
 70
    12
 71
     2
 72
     8
 73
     5
 74
     0
 42
0.0000000001
 43
0.0000000001
 40
0.0
 40
0.0
 40
0.0
 40
0.6112286133755178
 40
0.6112286133755178
 40
1.222457226751036
 40
1.222457226751036
 40
1.222457226751036
 10
7.999547204354201
 20
17.51881460234336
 30
0.0
 41
1.0
 10
8.320601993456236
 20
17.58704120568866
 30
0.0
 41
0.9077856432035236
 10
8.57907844328858
 20
17.38797780205656
 30
0.0
 41
1.0
 10
8.837554893120934
 20
17.18891439842446
 30
0.0
 41
0.9077856432035236
 10
8.853522983936472
 20
16.86233548657479
 30
0.0
 41
1.0
  0
SPLINE
  5
17F
330
1F
100
AcDbEntity
  8
Default
100
AcDbSpline
210
0.0
220
0.0
230
1.0
 70
    24
 71
     2
 72
     6
 73
     3
 74
     0
 42
0.0000000001
 43
0.0000000001
 40
0.0
 40
0.0
 40
0.0
 40
16.56354563283629
 40
16.56354563283629
 40
16.56354563283629
 10
8.853522983936472
 20
16.86233548657479
 30
0.0
 10
9.142565727687057
 20
8.585246272075285
 30
0.0
 10
9.431608471437642
 20
0.3081570575757837
 30
0.0
  0
SPLINE
  5
180
330
1F
100
AcDbEntity
  8
Default
100
AcDbSpline
210
0.0
220
0.0
230
1.0
 70
    24
 71
     2
 72
     6
 73
     3
 74
     0
 42
0.0000000001
 43
0.0000000001
 40
-16.56960874592967
 40
-16.56960874592967
 40
-16.56960874592967
 40
0.0
 40
0.0
 40
0.0
 10
-10.0529707906193
 20
0.328696033104162
 30
0.0
 10
-9.76371178166275
 20
8.608449213243938
 30
0.0
 10
-9.4744527727062
 20
16.88820239338371
 30
0.0
  0
SPLINE
  5
181
330
1F
100
AcDbEntity
  8
Default
100
AcDbSpline
210
0.0
220
0.0
230
1.0
 70
    12
 71
     2
 72
    12
 73
     9
 74
     0
 42
0.0000000001
 43
0.0000000001
 40
-2.316120308862204
 40
-2.316120308862204
 40
-2.316120308862204
 40
-1.709067693849356
 40
-1.709067693849356
 40
-1.152509474674487
 40
-1.152509474674487
 40
-0.5751586605609431
 40
-0.5751586605609431
 40
0.0
 40
0.0
 40
0.0
 10
-9.4744527727062
 20
16.88820239338371
 30
0.0
 41
1.0
 10
-9.462638121241307
 20
17.19713893195692
 30
0.0
 41
0.9728778334853428
 10
-9.313038204499122
 20
17.46769620087714
 30
0.0
 41
1.0
 10
-9.177453917094802
 20
17.71530011304514
 30
0.0
 41
0.9787941542434109
 10
-8.953958072018452
 20
17.88775417517601
 30
0.0
 41
1.0
 10
-8.721963387497244
 20
18.06747502681469
 30
0.0
 41
0.9757025556445308
 10
-8.435402356943314
 20
18.13075135673101
 30
0.0
 41
1.0
 10
-8.14984983981897
 20
18.19218274937486
 30
0.0
 41
0.9770174929806065
 10
-7.864659089295856
 20
18.12909319513425
 30
0.0
 41
1.0
  0
SPLINE
  5
182
330
1F
100
AcDbEntity
  8
Default
100
AcDbSpline
210
0.0
220
0.0
230
1.0
 70
     8
 71
     3
 72
    13
 73
     9
 74
     0
 42
0.0000000001
 43
0.0000000001
 40
-6.0
 40
-6.0
 40
-6.0
 40
-6.0
 40
-4.999998318786673
 40
-3.999996637573347
 40
-2.999994956360021
 40
-1.999993275146695
 40
-0.9999915939333683
 40
0.0
 40
0.0
 40
0.0
 40
0.0
 10
-7.864659089295856
 20
18.12909319513425
 30
0.0
 10
-7.436376264580019
 20
18.0334595017064
 30
0.0
 10
-6.568630686795444
 20
17.90097775310239
 30
0.0
 10
-5.258737456377418
 20
17.77302416860999
 30
0.0
 10
-3.94599938788528
 20
17.68129106501476
 30
0.0
 10
-2.63133538966386
 20
17.62294183676003
 30
0.0
 10
-1.315857800282714
 20
17.58951807762625
 30
0.0
 10
-0.4386156793459293
 20
17.58239522444097
 30
0.0
 10
0.0
 20
17.58242514911724
 30
0.0
  0
SPLINE
  5
183
330
1F
100
AcDbEntity
  8
Default
100
AcDbSpline
210
0.0
220
0.0
230
1.0
 70
     8
 71
     3
 72
    13
 73
     9
 74
     0
 42
0.0000000001
 43
0.0000000001
 40
0.0
 40
0.0
 40
0.0
 40
0.0
 40
0.9999915939333683
 40
1.999993275146695
 40
2.999994956360021
 40
3.999996637573347
 40
4.999998318786673
 40
6.0
 40
6.0
 40
6.0
 40
6.0
 10
0.0
 20
17.58242514911724
 30
0.0
 10
0.4386156793459293
 20
17.58239522444097
 30
0.0
 10
1.315857800282714
 20
17.58951807762625
 30
0.0
 10
2.63133538966386
 20
17.62294183676003
 30
0.0
 10
3.94599938788528
 20
17.68129106501476
 30
0.0
 10
5.258737456377418
 20
17.77302416860999
 30
0.0
 10
6.568630686795444
 20
17.90097775310239
 30
0.0
 10
7.436376264580019
 20
18.0334595017064
 30
0.0
 10
7.864659089295856
 20
18.12909319513425
 30
0.0
  0
SPLINE
  5
184
330
1F
100
AcDbEntity
  8
Default
100
AcDbSpline
210
0.0
220
0.0
230
1.0
 70
    12
 71
     2
 72
    12
 73
     9
 74
     0
 42
0.0000000001
 43
0.0000000001
 40
0.0
 40
0.0
 40
0.0
 40
0.5751586605609431
 40
0.5751586605609431
 40
1.152509474674487
 40
1.152509474674487
 40
1.709067693849356
 40
1.709067693849356
 40
2.316120308862204
 40
2.316120308862204
 40
2.316120308862204
 10
7.864659089295856
 20
18.12909319513425
 30
0.0
 41
1.0
 10
8.149849839818973
 20
18.19218274937486
 30
0.0
 41
0.9770174929806065
 10
8.435402356943314
 20
18.13075135673101
 30
0.0
 41
1.0
 10
8.721963387497247
 20
18.06747502681469
 30
0.0
 41
0.9757025556445308
 10
8.953958072018452
 20
17.88775417517601
 30
0.0
 41
1.0
 10
9.177453917094802
 20
17.71530011304514
 30
0.0
 41
0.9787941542434109
 10
9.313038204499122
 20
17.46769620087714
 30
0.0
 41
1.0
 10
9.462638121241307
 20
17.19713893195692
 30
0.0
 41
0.9728778334853428
 10
9.4744527727062
 20
16.88820239338371
 30
0.0
 41
1.0
  0
SPLINE
  5
185
330
1F
100
AcDbEntity
  8
Default
100
AcDbSpline
210
0.0
220
0.0
230
1.0
 70
    24
 71
     2
 72
     6
 73
     3
 74
     0
 42
0.0000000001
 43
0.0000000001
 40
0.0
 40
0.0
 40
0.0
 40
16.56960874592967
 40
16.56960874592967
 40
16.56960874592967
 10
9.4744527727062
 20
16.88820239338371
 30
0.0
 10
9.76371178166275
 20
8.608449213243938
 30
0.0
 10
10.0529707906193
 20
0.328696033104162
 30
0.0
  0
SPLINE
  5
186
330
1F
100
AcDbEntity
  8
Default
100
AcDbSpline
210
0.0
220
0.0
230
1.0
 70
    24
 71
     2
 72
     6
 73
     3
 74
     0
 42
0.0000000001
 43
0.0000000001
 40
0.0
 40
0.0
 40
0.0
 40
17.83083806335333
 40
17.83083806335333
 40
17.83083806335333
 10
10.30468797774788
 20
0.3247335801426461
 30
0.0
 10
10.08655365675813
 20
9.23816364705819
 30
0.0
 10
9.86841933576838
 20
18.15159371397374
 30
0.0
  0
SPLINE
  5
187
330
1F
100
AcDbEntity
  8
Default
100
AcDbSpline
210
0.0
220
0.0
230
1.0
 70
     8
 71
     3
 72
    11
 73
     7
 74
     0
 42
0.0000000001
 43
0.0000000001
 40
0.0
 40
0.0
 40
0.0
 40
0.0
 40
0.1824349116265365
 40
0.3586749388135063
 40
0.6962877070449509
 40
1.340101816302518
 40
1.340101816302518
 40
1.340101816302518
 40
1.340101816302518
 10
9.86841933576838
 20
18.15159371397374
 30
0.0
 10
9.866794566070553
 20
18.21360819562677
 30
0.0
 10
9.856855229915965
 20
18.33331147070065
 30
0.0
 10
9.806551592077454
 20
18.56000567915388
 30
0.0
 10
9.648684043465607
 20
18.91706416591154
 30
0.0
 10
9.38279887859946
 20
19.1350429437693
 30
0.0
 10
9.17905829942319
 20
19.2051369486649
 30
0.0
  0
SPLINE
  5
188
330
1F
100
AcDbEntity
  8
Default
100
AcDbSpline
210
0.0
220
0.0
230
1.0
 70
     8
 71
     3
 72
    11
 73
     7
 74
     0
 42
0.0000000001
 43
0.0000000001
 40
0.0
 40
0.0
 40
0.0
 40
0.0
 40
0.0671409219962213
 40
0.1305827037991225
 40
0.2658739246681853
 40
0.580665449317166
 40
0.580665449317166
 40
0.580665449317166
 40
0.580665449317166
 10
8.973450604976904
 20
18.61493834789548
 30
0.0
 10
8.994477527488868
 20
18.60742104083912
 30
0.0
 10
9.0340430553143
 20
18.58836150537493
 30
0.0
 10
9.105194583525787
 20
18.53537386823451
 30
0.0
 10
9.21212882884572
 20
18.39760795467747
 30
0.0
 10
9.24063625125956
 20
18.24455598412584
 30
0.0
 10
9.243502256515399
 20
18.14038391756899
 30
0.0
  0
POLYLINE
  5
189
330
1F
100
AcDbEntity
  8
Default
100
AcDb2dPolyline
 66
     1
 10
0.0
 20
0.0
 30
0.0
  0
VERTEX
  5
18A
330
189
100
AcDbEntity
  8
Default
100
AcDbVertex
100
AcDb2dVertex
 10
9.243502256515399
 20
18.14038391756899
 30
0.0
  0
VERTEX
  5
18B
330
189
100
AcDbEntity
  8
Default
100
AcDbVertex
100
AcDb2dVertex
 10
9.257715871875092
 20
17.55976046437128
 30
0.0
  0
SEQEND
  5
18C
330
189
100
AcDbEntity
  8
Default
  0
SPLINE
  5
18D
330
1F
100
AcDbEntity
  8
Default
100
AcDbSpline
210
0.0
220
0.0
230
1.0
 70
    12
 71
     2
 72
     6
 73
     3
 74
     0
 42
0.0000000001
 43
0.0000000001
 40
0.0
 40
0.0
 40
0.0
 40
0.0601763261136819
 40
0.0601763261136819
 40
0.0601763261136819
 10
4.270317781476479
 20
16.77052079506958
 30
0.0
 41
1.0
 10
4.30034092801867
 20
16.7724977630168
 30
0.0
 41
0.999999855496977
 10
4.330361931599981
 20
16.77450701027184
 30
0.0
 41
1.0
  0
SPLINE
  5
18E
330
1F
100
AcDbEntity
  8
Default
100
AcDbSpline
210
0.0
220
0.0
230
1.0
 70
    12
 71
     2
 72
     6
 73
     3
 74
     0
 42
0.0000000001
 43
0.0000000001
 40
0.0
 40
0.0
 40
0.0
 40
0.183273240850117
 40
0.183273240850117
 40
0.183273240850117
 10
8.156902909753057
 20
18.16068284813468
 30
0.0
 41
1.0
 10
8.224306258323324
 20
18.22276925660604
 30
0.0
 41
0.999940760985509
 10
8.290342144342759
 20
18.28630818383169
 30
0.0
 41
1.0
  0
SPLINE
  5
18F
330
1F
100
AcDbEntity
  8
Default
100
AcDbSpline
210
0.0
220
0.0
230
1.0
 70
    12
 71
     2
 72
     6
 73
     3
 74
     0
 42
0.0000000001
 43
0.0000000001
 40
0.0
 40
0.0
 40
0.0
 40
1.950461626167058
 40
1.950461626167058
 40
1.950461626167058
 10
5.392967618399297
 20
16.48845827356582
 30
0.0
 41
1.0
 10
6.314614543706219
 20
16.82076644033567
 30
0.0
 41
0.9931328539509889
 10
7.133811199886509
 20
17.35814769338855
 30
0.0
 41
1.0
  0
SPLINE
  5
190
330
1F
100
AcDbEntity
  8
Default
100
AcDbSpline
210
0.0
220
0.0
230
1.0
 70
    12
 71
     2
 72
     6
 73
     3
 74
     0
 42
0.0000000001
 43
0.0000000001
 40
0.0
 40
0.0
 40
0.0
 40
1.16046253457911
 40
1.16046253457911
 40
1.16046253457911
 10
7.994609445420366
 20
18.15100237372786
 30
0.0
 41
1.0
 10
8.522173983011616
 20
18.39263018487113
 30
0.0
 41
0.9999108642062707
 10
9.043098797406003
 20
18.64825819231539
 30
0.0
 41
1.0
  0
SPLINE
  5
191
330
1F
100
AcDbEntity
  8
Default
100
AcDbSpline
210
0.0
220
0.0
230
1.0
 70
    24
 71
     2
 72
     6
 73
     3
 74
     0
 42
0.0000000001
 43
0.0000000001
 40
0.0
 40
0.0
 40
0.0
 40
17.83083806335333
 40
17.83083806335333
 40
17.83083806335333
 10
-10.30468797774788
 20
0.3247335801426461
 30
0.0
 10
-10.08655365675813
 20
9.23816364705819
 30
0.0
 10
-9.86841933576838
 20
18.15159371397374
 30
0.0
  0
SPLINE
  5
192
330
1F
100
AcDbEntity
  8
Default
100
AcDbSpline
210
0.0
220
0.0
230
1.0
 70
     8
 71
     3
 72
    11
 73
     7
 74
     0
 42
0.0000000001
 43
0.0000000001
 40
0.0
 40
0.0
 40
0.0
 40
0.0
 40
0.1824349116265365
 40
0.3586749388135063
 40
0.6962877070449509
 40
1.340101816302518
 40
1.340101816302518
 40
1.340101816302518
 40
1.340101816302518
 10
-9.86841933576838
 20
18.15159371397374
 30
0.0
 10
-9.866794566070553
 20
18.21360819562677
 30
0.0
 10
-9.856855229915965
 20
18.33331147070065
 30
0.0
 10
-9.806551592077454
 20
18.56000567915388
 30
0.0
 10
-9.648684043465607
 20
18.91706416591154
 30
0.0
 10
-9.38279887859946
 20
19.1350429437693
 30
0.0
 10
-9.17905829942319
 20
19.2051369486649
 30
0.0
  0
SPLINE
  5
193
330
1F
100
AcDbEntity
  8
Default
100
AcDbSpline
210
0.0
220
0.0
230
1.0
 70
     8
 71
     3
 72
    11
 73
     7
 74
     0
 42
0.0000000001
 43
0.0000000001
 40
0.0
 40
0.0
 40
0.0
 40
0.0
 40
0.0671409219962213
 40
0.1305827037991225
 40
0.2658739246681853
 40
0.580665449317166
 40
0.580665449317166
 40
0.580665449317166
 40
0.580665449317166
 10
-8.973450604976904
 20
18.61493834789548
 30
0.0
 10
-8.994477527488868
 20
18.60742104083912
 30
0.0
 10
-9.0340430553143
 20
18.58836150537493
 30
0.0
 10
-9.105194583525787
 20
18.53537386823451
 30
0.0
 10
-9.21212882884572
 20
18.39760795467747
 30
0.0
 10
-9.24063625125956
 20
18.24455598412584
 30
0.0
 10
-9.243502256515399
 20
18.14038391756899
 30
0.0
  0
POLYLINE
  5
194
330
1F
100
AcDbEntity
  8
Default
100
AcDb2dPolyline
 66
     1
 10
0.0
 20
0.0
 30
0.0
  0
VERTEX
  5
195
330
194
100
AcDbEntity
  8
Default
100
AcDbVertex
100
AcDb2dVertex
 10
-9.243502256515399
 20
18.14038391756899
 30
0.0
  0
VERTEX
  5
196
330
194
100
AcDbEntity
  8
Default
100
AcDbVertex
100
AcDb2dVertex
 10
-9.257715871875092
 20
17.55976046437128
 30
0.0
  0
SEQEND
  5
197
330
194
100
AcDbEntity
  8
Default
  0
SPLINE
  5
198
330
1F
100
AcDbEntity
  8
Default
100
AcDbSpline
210
0.0
220
0.0
230
1.0
 70
    12
 71
     2
 72
     6
 73
     3
 74
     0
 42
0.0000000001
 43
0.0000000001
 40
0.0
 40
0.0
 40
0.0
 40
0.0601763261136819
 40
0.0601763261136819
 40
0.0601763261136819
 10
-4.270317781476479
 20
16.77052079506958
 30
0.0
 41
1.0
 10
-4.300340928018676
 20
16.7724977630168
 30
0.0
 41
0.999999855496977
 10
-4.330361931599981
 20
16.77450701027184
 30
0.0
 41
1.0
  0
SPLINE
  5
199
330
1F
100
AcDbEntity
  8
Default
100
AcDbSpline
210
0.0
220
0.0
230
1.0
 70
    12
 71
     2
 72
     6
 73
     3
 74
     0
 42
0.0000000001
 43
0.0000000001
 40
0.0
 40
0.0
 40
0.0
 40
0.183273240850117
 40
0.183273240850117
 40
0.183273240850117
 10
-8.156902909753057
 20
18.16068284813468
 30
0.0
 41
1.0
 10
-8.22430625832332
 20
18.22276925660604
 30
0.0
 41
0.999940760985509
 10
-8.290342144342759
 20
18.28630818383169
 30
0.0
 41
1.0
  0
SPLINE
  5
19A
330
1F
100
AcDbEntity
  8
Default
100
AcDbSpline
210
0.0
220
0.0
230
1.0
 70
    12
 71
     2
 72
     6
 73
     3
 74
     0
 42
0.0000000001
 43
0.0000000001
 40
0.0
 40
0.0
 40
0.0
 40
1.950461626167058
 40
1.950461626167058
 40
1.950461626167058
 10
-5.392967618399297
 20
16.48845827356582
 30
0.0
 41
1.0
 10
-6.314614543706214
 20
16.82076644033567
 30
0.0
 41
0.9931328539509889
 10
-7.133811199886509
 20
17.35814769338855
 30
0.0
 41
1.0
  0
SPLINE
  5
19B
330
1F
100
AcDbEntity
  8
Default
100
AcDbSpline
210
0.0
220
0.0
230
1.0
 70
    12
 71
     2
 72
     6
 73
     3
 74
     0
 42
0.0000000001
 43
0.0000000001
 40
0.0
 40
0.0
 40
0.0
 40
1.16046253457911
 40
1.16046253457911
 40
1.16046253457911
 10
-7.994609445420366
 20
18.15100237372786
 30
0.0
 41
1.0
 10
-8.522173983011612
 20
18.39263018487113
 30
0.0
 41
0.9999108642062707
 10
-9.043098797406003
 20
18.64825819231539
 30
0.0
 41
1.0
  0
ENDSEC
  0
SECTION
  2
OBJECTS
  0
DICTIONARY
  5
C
330
0
100
AcDbDictionary
281
     1
  3
ACAD_GROUP
350
D
  3
ACAD_LAYOUT
350
1A
  3
ACAD_MLEADERSTYLE
350
19D
  3
ACAD_MLINESTYLE
350
17
  3
ACAD_PLOTSETTINGS
350
19
  3
ACAD_PLOTSTYLENAME
350
E
  3
ACAD_TABLESTYLE
350
19C
  3
ACAD_VISUALSTYLE
350
2A
  0
DICTIONARY
  5
D
102
{ACAD_REACTORS
330
C
102
}
330
C
100
AcDbDictionary
281
     1
  0
DICTIONARY
  5
1A
102
{ACAD_REACTORS
330
C
102
}
330
C
100
AcDbDictionary
281
     1
  3
Layout1
350
1E
  3
Layout2
350
26
  3
Model
350
22
  0
DICTIONARY
  5
19D
102
{ACAD_REACTORS
330
C
102
}
330
C
100
AcDbDictionary
281
     1
  0
DICTIONARY
  5
17
102
{ACAD_REACTORS
330
C
102
}
330
C
100
AcDbDictionary
281
     1
  3
Standard
350
18
  0
DICTIONARY
  5
19
102
{ACAD_REACTORS
330
C
102
}
330
C
100
AcDbDictionary
281
     1
  0
ACDBDICTIONARYWDFLT
  5
E
102
{ACAD_REACTORS
330
C
102
}
330
C
100
AcDbDictionary
281
     1
  3
Normal
350
F
100
AcDbDictionaryWithDefault
340
F
  0
DICTIONARY
  5
19C
102
{ACAD_REACTORS
330
C
102
}
330
C
100
AcDbDictionary
281
     1
  0
DICTIONARY
  5
2A
102
{ACAD_REACTORS
330
C
102
}
330
C
100
AcDbDictionary
281
     1
  3
2dWireframe
350
2F
  3
3D Hidden
350
31
  3
3dWireframe
350
30
  3
Basic
350
32
  3
Brighten
350
36
  3
ColorChange
350
3A
  3
Conceptual
350
34
  3
Dim
350
35
  3
Facepattern
350
39
  3
Flat
350
2B
  3
FlatWithEdges
350
2C
  3
Gouraud
350
2D
  3
GouraudWithEdges
350
2E
  3
Linepattern
350
38
  3
Realistic
350
33
  3
Thicken
350
37
  0
LAYOUT
  5
1E
102
{ACAD_REACTORS
330
1A
102
}
330
1A
100
AcDbPlotSettings
  1

  2
none_device
  4

  6

 40
0.0
 41
0.0
 42
0.0
 43
0.0
 44
0.0
 45
0.0
 46
0.0
 47
0.0
 48
0.0
 49
0.0
140
0.0
141
0.0
142
1.0
143
1.0
 70
   688
 72
     0
 73
     0
 74
     5
  7

 75
    16
 76
     0
 77
     2
 78
   300
147
1.0
148
0.0
149
0.0
100
AcDbLayout
  1
Layout1
 70
     1
 71
     1
 10
0.0
 20
0.0
 11
12.0
 21
9.0
 12
0.0
 22
0.0
 32
0.0
 14
1.000000000000000E+20
 24
1.000000000000000E+20
 34
1.000000000000000E+20
 15
-1.000000000000000E+20
 25
-1.000000000000000E+20
 35
-1.000000000000000E+20
146
0.0
 13
0.0
 23
0.0
 33
0.0
 16
1.0
 26
0.0
 36
0.0
 17
0.0
 27
1.0
 37
0.0
 76
     0
330
1B
  0
LAYOUT
  5
26
102
{ACAD_REACTORS
330
1A
102
}
330
1A
100
AcDbPlotSettings
  1

  2
none_device
  4

  6

 40
0.0
 41
0.0
 42
0.0
 43
0.0
 44
0.0
 45
0.0
 46
0.0
 47
0.0
 48
0.0
 49
0.0
140
0.0
141
0.0
142
1.0
143
1.0
 70
   688
 72
     0
 73
     0
 74
     5
  7

 75
    16
 76
     0
 77
     2
 78
   300
147
1.0
148
0.0
149
0.0
100
AcDbLayout
  1
Layout2
 70
     1
 71
     2
 10
0.0
 20
0.0
 11
0.0
 21
0.0
 12
0.0
 22
0.0
 32
0.0
 14
0.0
 24
0.0
 34
0.0
 15
0.0
 25
0.0
 35
0.0
146
0.0
 13
0.0
 23
0.0
 33
0.0
 16
1.0
 26
0.0
 36
0.0
 17
0.0
 27
1.0
 37
0.0
 76
     0
330
23
  0
LAYOUT
  5
22
102
{ACAD_REACTORS
330
1A
102
}
330
1A
100
AcDbPlotSettings
  1

  2
none_device
  4

  6

 40
0.0
 41
0.0
 42
0.0
 43
0.0
 44
0.0
 45
0.0
 46
0.0
 47
0.0
 48
0.0
 49
0.0
140
0.0
141
0.0
142
1.0
143
1.0
 70
  1712
 72
     0
 73
     0
 74
     0
  7

 75
     0
 76
     0
 77
     2
 78
   300
147
1.0
148
0.0
149
0.0
100
AcDbLayout
  1
Model
 70
     1
 71
     0
 10
0.0
 20
0.0
 11
12.0
 21
9.0
 12
0.0
 22
0.0
 32
0.0
 14
-10.30519410126971
 24
-0.0010969117718707
 34
0.0
 15
42.53112020426538
 25
61.1382268285444
 35
0.0
146
0.0
 13
0.0
 23
0.0
 33
0.0
 16
1.0
 26
0.0
 36
0.0
 17
0.0
 27
1.0
 37
0.0
 76
     0
330
1F
331
29
  0
MLINESTYLE
  5
18
102
{ACAD_REACTORS
330
17
102
}
330
17
100
AcDbMlineStyle
  2
Standard
 70
     0
  3

 62
   256
 51
90.0
 52
90.0
 71
     2
 49
0.5
 62
   256
  6
BYLAYER
 49
-0.5
 62
   256
  6
BYLAYER
  0
ACDBPLACEHOLDER
  5
F
102
{ACAD_REACTORS
330
E
102
}
330
E
  0
VISUALSTYLE
  5
2F
102
{ACAD_REACTORS
330
2A
102
}
330
2A
100
AcDbVisualStyle
  2
2dWireframe
 70
     4
 71
     0
 72
     2
 73
     0
 90
        0
 40
-0.6
 41
-30.0
 62
     5
 63
     7
421
 16777215
 74
     1
 91
        4
 64
     7
 65
   257
 75
     1
175
     1
 42
1.0
 92
        0
 66
   257
 43
1.0
 76
     1
 77
     6
 78
     2
 67
     7
 79
     5
170
     0
171
     0
290
     0
174
     0
 93
        1
 44
0.0
173
     0
291
     0
 45
0.0
1001
ACAD
1000
AcDbSavedByObjectVersion
1070
     0
  0
VISUALSTYLE
  5
31
102
{ACAD_REACTORS
330
2A
102
}
330
2A
100
AcDbVisualStyle
  2
3D Hidden
 70
     6
 71
     1
 72
     2
 73
     2
 90
        0
 40
-0.6
 41
-30.0
 62
     5
 63
     7
421
 16777215
 74
     2
 91
        2
 64
     7
 65
   257
 75
     2
175
     1
 42
40.0
 92
        0
 66
   257
 43
1.0
 76
     1
 77
     6
 78
     2
 67
     7
 79
     3
170
     0
171
     0
290
     0
174
     0
 93
        1
 44
0.0
173
     0
291
     0
 45
0.0
1001
ACAD
1000
AcDbSavedByObjectVersion
1070
     0
  0
VISUALSTYLE
  5
30
102
{ACAD_REACTORS
330
2A
102
}
330
2A
100
AcDbVisualStyle
  2
3dWireframe
 70
     5
 71
     0
 72
     2
 73
     0
 90
        0
 40
-0.6
 41
-30.0
 62
     5
 63
     7
421
 16777215
 74
     1
 91
        4
 64
     7
 65
   257
 75
     1
175
     1
 42
1.0
 92
        0
 66
   257
 43
1.0
 76
     1
 77
     6
 78
     2
 67
     7
 79
     5
170
     0
171
     0
290
     0
174
     0
 93
        1
 44
0.0
173
     0
291
     0
 45
0.0
1001
ACAD
1000
AcDbSavedByObjectVersion
1070
     0
  0
VISUALSTYLE
  5
32
102
{ACAD_REACTORS
330
2A
102
}
330
2A
100
AcDbVisualStyle
  2
Basic
 70
     7
 71
     1
 72
     0
 73
     1
 90
        0
 40
-0.6
 41
-30.0
 62
     5
 63
     7
421
 16777215
 74
     0
 91
        4
 64
     7
 65
   257
 75
     1
175
     1
 42
1.0
 92
        8
 66
     7
 43
1.0
 76
     1
 77
     6
 78
     2
 67
     7
 79
     5
170
     0
171
     0
290
     0
174
     0
 93
        1
 44
0.0
173
     0
291
     1
 45
0.0
1001
ACAD
1000
AcDbSavedByObjectVersion
1070
     0
  0
VISUALSTYLE
  5
36
102
{ACAD_REACTORS
330
2A
102
}
330
2A
100
AcDbVisualStyle
  2
Brighten
 70
    12
 71
     2
 72
     2
 73
     0
 90
        0
 40
-0.6
 41
-30.0
 62
     5
 63
     7
421
 16777215
 74
     1
 91
        4
 64
     7
 65
   257
 75
     1
175
     1
 42
1.0
 92
        8
 66
     7
 43
1.0
 76
     1
 77
     6
 78
     2
 67
     7
 79
     5
170
     0
171
     0
290
     0
174
     0
 93
        1
 44
50.0
173
     0
291
     1
 45
0.0
1001
ACAD
1000
AcDbSavedByObjectVersion
1070
     0
  0
VISUALSTYLE
  5
3A
102
{ACAD_REACTORS
330
2A
102
}
330
2A
100
AcDbVisualStyle
  2
ColorChange
 70
    16
 71
     2
 72
     2
 73
     3
 90
        0
 40
-0.6
 41
-30.0
 62
     5
 63
     8
421
  8421504
 74
     1
 91
        4
 64
     7
 65
   257
 75
     1
175
     1
 42
1.0
 92
        8
 66
     8
424
  8421504
 43
1.0
 76
     1
 77
     6
 78
     2
 67
     7
 79
     5
170
     0
171
     0
290
     0
174
     0
 93
        1
 44
0.0
173
     0
291
     1
 45
0.0
1001
ACAD
1000
AcDbSavedByObjectVersion
1070
     0
  0
VISUALSTYLE
  5
34
102
{ACAD_REACTORS
330
2A
102
}
330
2A
100
AcDbVisualStyle
  2
Conceptual
 70
     9
 71
     3
 72
     2
 73
     0
 90
        0
 40
-0.6
 41
-30.0
 62
     5
 63
     7
421
 16777215
 74
     2
 91
        2
 64
     7
 65
   257
 75
     1
175
     1
 42
40.0
 92
        8
 66
     7
 43
1.0
 76
     1
 77
     6
 78
     2
 67
     7
 79
     3
170
     0
171
     0
290
     0
174
     0
 93
        1
 44
0.0
173
     0
291
     0
 45
0.0
1001
ACAD
1000
AcDbSavedByObjectVersion
1070
     0
  0
VISUALSTYLE
  5
35
102
{ACAD_REACTORS
330
2A
102
}
330
2A
100
AcDbVisualStyle
  2
Dim
 70
    11
 71
     2
 72
     2
 73
     0
 90
        0
 40
-0.6
 41
-30.0
 62
     5
 63
     7
421
 16777215
 74
     1
 91
        4
 64
     7
 65
   257
 75
     1
175
     1
 42
1.0
 92
        8
 66
     7
 43
1.0
 76
     1
 77
     6
 78
     2
 67
     7
 79
     5
170
     0
171
     0
290
     0
174
     0
 93
        1
 44
-50.0
173
     0
291
     1
 45
0.0
1001
ACAD
1000
AcDbSavedByObjectVersion
1070
     0
  0
VISUALSTYLE
  5
39
102
{ACAD_REACTORS
330
2A
102
}
330
2A
100
AcDbVisualStyle
  2
Facepattern
 70
    15
 71
     2
 72
     2
 73
     0
 90
        0
 40
-0.6
 41
-30.0
 62
     5
 63
     7
421
 16777215
 74
     1
 91
        4
 64
     7
 65
   257
 75
     1
175
     1
 42
1.0
 92
        8
 66
     7
 43
1.0
 76
     1
 77
     6
 78
     2
 67
     7
 79
     5
170
     0
171
     0
290
     0
174
     0
 93
        1
 44
0.0
173
     0
291
     1
 45
0.0
1001
ACAD
1000
AcDbSavedByObjectVersion
1070
     0
  0
VISUALSTYLE
  5
2B
102
{ACAD_REACTORS
330
2A
102
}
330
2A
100
AcDbVisualStyle
  2
Flat
 70
     0
 71
     2
 72
     1
 73
     1
 90
        2
 40
-0.6
 41
30.0
 62
     5
 63
     7
421
 16777215
 74
     0
 91
        4
 64
     7
 65
   257
 75
     1
175
     1
 42
1.0
 92
        8
 66
     7
 43
1.0
 76
     1
 77
     6
 78
     2
 67
     7
 79
     5
170
     0
171
     0
290
     0
174
     0
 93
       13
 44
0.0
173
     0
291
     1
 45
0.0
1001
ACAD
1000
AcDbSavedByObjectVersion
1070
     0
  0
VISUALSTYLE
  5
2C
102
{ACAD_REACTORS
330
2A
102
}
330
2A
100
AcDbVisualStyle
  2
FlatWithEdges
 70
     1
 71
     2
 72
     1
 73
     1
 90
        2
 40
-0.6
 41
30.0
 62
     5
 63
     7
421
 16777215
 74
     1
 91
        4
 64
     7
 65
   257
 75
     1
175
     1
 42
1.0
 92
        0
 66
   257
 43
1.0
 76
     1
 77
     6
 78
     2
 67
     7
 79
     5
170
     0
171
     0
290
     0
174
     0
 93
       13
 44
0.0
173
     0
291
     1
 45
0.0
1001
ACAD
1000
AcDbSavedByObjectVersion
1070
     0
  0
VISUALSTYLE
  5
2D
102
{ACAD_REACTORS
330
2A
102
}
330
2A
100
AcDbVisualStyle
  2
Gouraud
 70
     2
 71
     2
 72
     2
 73
     1
 90
        2
 40
-0.6
 41
30.0
 62
     5
 63
     7
421
 16777215
 74
     0
 91
        4
 64
     7
 65
   257
 75
     1
175
     1
 42
1.0
 92
        0
 66
     7
 43
1.0
 76
     1
 77
     6
 78
     2
 67
     7
 79
     5
170
     0
171
     0
290
     0
174
     0
 93
       13
 44
0.0
173
     0
291
     1
 45
0.0
1001
ACAD
1000
AcDbSavedByObjectVersion
1070
     0
  0
VISUALSTYLE
  5
2E
102
{ACAD_REACTORS
330
2A
102
}
330
2A
100
AcDbVisualStyle
  2
GouraudWithEdges
 70
     3
 71
     2
 72
     2
 73
     1
 90
        2
 40
-0.6
 41
30.0
 62
     5
 63
     7
421
 16777215
 74
     1
 91
        4
 64
     7
 65
   257
 75
     1
175
     1
 42
1.0
 92
        0
 66
   257
 43
1.0
 76
     1
 77
     6
 78
     2
 67
     7
 79
     5
170
     0
171
     0
290
     0
174
     0
 93
       13
 44
0.0
173
     0
291
     1
 45
0.0
1001
ACAD
1000
AcDbSavedByObjectVersion
1070
     0
  0
VISUALSTYLE
  5
38
102
{ACAD_REACTORS
330
2A
102
}
330
2A
100
AcDbVisualStyle
  2
Linepattern
 70
    14
 71
     2
 72
     2
 73
     0
 90
        0
 40
-0.6
 41
-30.0
 62
     5
 63
     7
421
 16777215
 74
     1
 91
        4
 64
     7
 65
   257
 75
     7
175
     7
 42
1.0
 92
        8
 66
     7
 43
1.0
 76
     1
 77
     6
 78
     2
 67
     7
 79
     5
170
     0
171
     0
290
     0
174
     0
 93
        1
 44
0.0
173
     0
291
     1
 45
0.0
1001
ACAD
1000
AcDbSavedByObjectVersion
1070
     0
  0
VISUALSTYLE
  5
33
102
{ACAD_REACTORS
330
2A
102
}
330
2A
100
AcDbVisualStyle
  2
Realistic
 70
     8
 71
     2
 72
     2
 73
     0
 90
        0
 40
-0.6
 41
-30.0
 62
     5
 63
     7
421
 16777215
 74
     1
 91
        0
 64
     7
 65
   257
 75
     1
175
     1
 42
1.0
 92
        8
 66
     8
424
  7895160
 43
1.0
 76
     1
 77
     6
 78
     2
 67
     7
 79
     5
170
     0
171
     0
290
     0
174
     0
 93
       13
 44
0.0
173
     0
291
     0
 45
0.0
1001
ACAD
1000
AcDbSavedByObjectVersion
1070
     0
  0
VISUALSTYLE
  5
37
102
{ACAD_REACTORS
330
2A
102
}
330
2A
100
AcDbVisualStyle
  2
Thicken
 70
    13
 71
     2
 72
     2
 73
     0
 90
        0
 40
-0.6
 41
-30.0
 62
     5
 63
     7
421
 16777215
 74
     1
 91
        4
 64
     7
 65
   257
 75
     1
175
     1
 42
1.0
 92
       12
 66
     7
 43
1.0
 76
     1
 77
     6
 78
     2
 67
     7
 79
     5
170
     0
171
     0
290
     0
174
     0
 93
        1
 44
0.0
173
     0
291
     1
 45
0.0
1001
ACAD
1000
AcDbSavedByObjectVersion
1070
     0
  0
ENDSEC
  0
EOF
