  0
SECTION
  2
HEADER
  9
$ACADVER
  1
AC1018
  9
$ACADMAINTVER
 70
     0
  9
$DWGCODEPAGE
  3
ANSI_1252
  9
$INSBASE
 10
0.0
 20
0.0
 30
0.0
  9
$EXTMIN
 10
-10.54600000003634
 20
0.0000000000000228
 30
0.0
  9
$EXTMAX
 10
40.99812938372015
 20
60.98313826907402
 30
0.0
  9
$LIMMIN
 10
0.0
 20
0.0
  9
$LIMMAX
 10
12.0
 20
9.0
  9
$ORTHOMODE
 70
     0
  9
$REGENMODE
 70
     1
  9
$FILLMODE
 70
     1
  9
$QTEXTMODE
 70
     0
  9
$MIRRTEXT
 70
     1
  9
$LTSCALE
 40
0.0393700787401575
  9
$ATTMODE
 70
     1
  9
$TEXTSIZE
 40
0.2
  9
$TRACEWID
 40
0.05
  9
$TEXTSTYLE
  7
Standard
  9
$CLAYER
  8
Default
  9
$CELTYPE
  6
ByLayer
  9
$CECOLOR
 62
   256
  9
$CELTSCALE
 40
1.0
  9
$DISPSILH
 70
     0
  9
$DIMSCALE
 40
1.0
  9
$DIMASZ
 40
0.18
  9
$DIMEXO
 40
0.0625
  9
$DIMDLI
 40
0.38
  9
$DIMRND
 40
0.0
  9
$DIMDLE
 40
0.0
  9
$DIMEXE
 40
0.18
  9
$DIMTP
 40
0.0
  9
$DIMTM
 40
0.0
  9
$DIMTXT
 40
0.18
  9
$DIMCEN
 40
0.09
  9
$DIMTSZ
 40
0.0
  9
$DIMTOL
 70
     0
  9
$DIMLIM
 70
     0
  9
$DIMTIH
 70
     1
  9
$DIMTOH
 70
     1
  9
$DIMSE1
 70
     0
  9
$DIMSE2
 70
     0
  9
$DIMTAD
 70
     0
  9
$DIMZIN
 70
     0
  9
$DIMBLK
  1

  9
$DIMASO
 70
     1
  9
$DIMSHO
 70
     1
  9
$DIMPOST
  1

  9
$DIMAPOST
  1

  9
$DIMALT
 70
     0
  9
$DIMALTD
 70
     2
  9
$DIMALTF
 40
25.4
  9
$DIMLFAC
 40
1.0
  9
$DIMTOFL
 70
     0
  9
$DIMTVP
 40
0.0
  9
$DIMTIX
 70
     0
  9
$DIMSOXD
 70
     0
  9
$DIMSAH
 70
     0
  9
$DIMBLK1
  1

  9
$DIMBLK2
  1

  9
$DIMSTYLE
  2
Standard
  9
$DIMCLRD
 70
     0
  9
$DIMCLRE
 70
     0
  9
$DIMCLRT
 70
     0
  9
$DIMTFAC
 40
1.0
  9
$DIMGAP
 40
0.09
  9
$DIMJUST
 70
     0
  9
$DIMSD1
 70
     0
  9
$DIMSD2
 70
     0
  9
$DIMTOLJ
 70
     1
  9
$DIMTZIN
 70
     0
  9
$DIMALTZ
 70
     0
  9
$DIMALTTZ
 70
     0
  9
$DIMUPT
 70
     0
  9
$DIMDEC
 70
     4
  9
$DIMTDEC
 70
     4
  9
$DIMALTU
 70
     2
  9
$DIMALTTD
 70
     2
  9
$DIMTXSTY
  7
Standard
  9
$DIMAUNIT
 70
     0
  9
$DIMADEC
 70
     0
  9
$DIMALTRND
 40
0.0
  9
$DIMAZIN
 70
     0
  9
$DIMDSEP
 70
    46
  9
$DIMATFIT
 70
     3
  9
$DIMFRAC
 70
     0
  9
$DIMLDRBLK
  1

  9
$DIMLUNIT
 70
     2
  9
$DIMLWD
 70
    -2
  9
$DIMLWE
 70
    -2
  9
$DIMTMOVE
 70
     2
  9
$LUNITS
 70
     2
  9
$LUPREC
 70
     3
  9
$SKETCHINC
 40
0.1
  9
$FILLETRAD
 40
0.5
  9
$AUNITS
 70
     0
  9
$AUPREC
 70
     0
  9
$MENU
  1
.
  9
$ELEVATION
 40
0.0
  9
$PELEVATION
 40
0.0
  9
$THICKNESS
 40
0.0
  9
$LIMCHECK
 70
     0
  9
$CHAMFERA
 40
0.5
  9
$CHAMFERB
 40
0.5
  9
$CHAMFERC
 40
1.0
  9
$CHAMFERD
 40
0.0
  9
$SKPOLY
 70
     0
  9
$TDCREATE
 40
2456967.478544618
  9
$TDUCREATE
 40
2456967.686877951
  9
$TDUPDATE
 40
2456967.47854463
  9
$TDUUPDATE
 40
2456967.686877963
  9
$TDINDWG
 40
0.0000000116
  9
$TDUSRTIMER
 40
0.0000000116
  9
$USRTIMER
 70
     1
  9
$ANGBASE
 50
0.0
  9
$ANGDIR
 70
     0
  9
$PDMODE
 70
     0
  9
$PDSIZE
 40
0.0
  9
$PLINEWID
 40
0.0
  9
$SPLFRAME
 70
     0
  9
$SPLINETYPE
 70
     6
  9
$SPLINESEGS
 70
     8
  9
$HANDSEED
  5
1E7
  9
$SURFTAB1
 70
     6
  9
$SURFTAB2
 70
     6
  9
$SURFTYPE
 70
     6
  9
$SURFU
 70
     6
  9
$SURFV
 70
     6
  9
$UCSBASE
  2

  9
$UCSNAME
  2

  9
$UCSORG
 10
0.0
 20
0.0
 30
0.0
  9
$UCSXDIR
 10
1.0
 20
0.0
 30
0.0
  9
$UCSYDIR
 10
0.0
 20
1.0
 30
0.0
  9
$UCSORTHOREF
  2

  9
$UCSORTHOVIEW
 70
     0
  9
$UCSORGTOP
 10
0.0
 20
0.0
 30
0.0
  9
$UCSORGBOTTOM
 10
0.0
 20
0.0
 30
0.0
  9
$UCSORGLEFT
 10
0.0
 20
0.0
 30
0.0
  9
$UCSORGRIGHT
 10
0.0
 20
0.0
 30
0.0
  9
$UCSORGFRONT
 10
0.0
 20
0.0
 30
0.0
  9
$UCSORGBACK
 10
0.0
 20
0.0
 30
0.0
  9
$PUCSBASE
  2

  9
$PUCSNAME
  2

  9
$PUCSORG
 10
0.0
 20
0.0
 30
0.0
  9
$PUCSXDIR
 10
1.0
 20
0.0
 30
0.0
  9
$PUCSYDIR
 10
0.0
 20
1.0
 30
0.0
  9
$PUCSORTHOREF
  2

  9
$PUCSORTHOVIEW
 70
     0
  9
$PUCSORGTOP
 10
0.0
 20
0.0
 30
0.0
  9
$PUCSORGBOTTOM
 10
0.0
 20
0.0
 30
0.0
  9
$PUCSORGLEFT
 10
0.0
 20
0.0
 30
0.0
  9
$PUCSORGRIGHT
 10
0.0
 20
0.0
 30
0.0
  9
$PUCSORGFRONT
 10
0.0
 20
0.0
 30
0.0
  9
$PUCSORGBACK
 10
0.0
 20
0.0
 30
0.0
  9
$USERI1
 70
     0
  9
$USERI2
 70
     0
  9
$USERI3
 70
     0
  9
$USERI4
 70
     0
  9
$USERI5
 70
     0
  9
$USERR1
 40
0.0
  9
$USERR2
 40
0.0
  9
$USERR3
 40
0.0
  9
$USERR4
 40
0.0
  9
$USERR5
 40
0.0
  9
$WORLDVIEW
 70
     1
  9
$SHADEDGE
 70
     3
  9
$SHADEDIF
 70
    70
  9
$TILEMODE
 70
     1
  9
$MAXACTVP
 70
    64
  9
$PINSBASE
 10
0.0
 20
0.0
 30
0.0
  9
$PLIMCHECK
 70
     0
  9
$PEXTMIN
 10
1.000000000000000E+20
 20
1.000000000000000E+20
 30
1.000000000000000E+20
  9
$PEXTMAX
 10
-1.000000000000000E+20
 20
-1.000000000000000E+20
 30
-1.000000000000000E+20
  9
$PLIMMIN
 10
0.0
 20
0.0
  9
$PLIMMAX
 10
12.0
 20
9.0
  9
$UNITMODE
 70
     0
  9
$VISRETAIN
 70
     1
  9
$PLINEGEN
 70
     0
  9
$PSLTSCALE
 70
     1
  9
$TREEDEPTH
 70
  3020
  9
$CMLSTYLE
  2
Standard
  9
$CMLJUST
 70
     0
  9
$CMLSCALE
 40
1.0
  9
$PROXYGRAPHICS
 70
     1
  9
$MEASUREMENT
 70
     0
  9
$CELWEIGHT
370
    -1
  9
$ENDCAPS
280
     0
  9
$JOINSTYLE
280
     0
  9
$LWDISPLAY
290
     0
  9
$INSUNITS
 70
     1
  9
$HYPERLINKBASE
  1

  9
$STYLESHEET
  1

  9
$XEDIT
290
     1
  9
$CEPSNTYPE
380
     0
  9
$PSTYLEMODE
290
     1
  9
$FINGERPRINTGUID
  2
{868E5C01-A554-417B-BC69-691AA0857341}
  9
$VERSIONGUID
  2
{FAEB1C32-E019-11D5-929B-00C0DF256EC4}
  9
$EXTNAMES
290
     1
  9
$PSVPSCALE
 40
0.0
  9
$OLESTARTUP
290
     0
  9
$SORTENTS
280
   127
  9
$INDEXCTL
280
     0
  9
$HIDETEXT
280
     1
  9
$XCLIPFRAME
290
     0
  9
$HALOGAP
280
     0
  9
$OBSCOLOR
 70
   257
  9
$OBSLTYPE
280
     0
  9
$INTERSECTIONDISPLAY
280
     0
  9
$INTERSECTIONCOLOR
 70
   257
  9
$DIMASSOC
280
     2
  9
$PROJECTNAME
  1

  0
ENDSEC
  0
SECTION
  2
CLASSES
  0
CLASS
  1
ACDBDICTIONARYWDFLT
  2
AcDbDictionaryWithDefault
  3
ObjectDBX Classes
 90
        0
 91
        4
280
     0
281
     0
  0
CLASS
  1
VISUALSTYLE
  2
AcDbVisualStyle
  3
ObjectDBX Classes
 90
     4095
 91
        4
280
     0
281
     0
  0
ENDSEC
  0
SECTION
  2
TABLES
  0
TABLE
  2
VPORT
  5
8
330
0
100
AcDbSymbolTable
 70
     1
  0
VPORT
  5
29
330
8
100
AcDbSymbolTableRecord
100
AcDbViewportTableRecord
  2
*Active
 70
     0
 10
0.0
 20
0.0
 11
1.0
 21
1.0
 12
15.22606469184191
 22
30.49156913453702
 13
0.0
 23
0.0
 14
0.5
 24
0.5
 15
0.5
 25
0.5
 16
0.0
 26
0.0
 36
1.0
 17
0.0
 27
0.0
 37
0.0
 40
62.20280103445548
 41
0.845219364676346
 42
50.0
 43
0.0
 44
0.0
 50
0.0
 51
0.0
 71
     0
 72
   100
 73
     1
 74
     3
 75
     0
 76
     0
 77
     0
 78
     0
281
     0
 65
     1
110
0.0
120
0.0
130
0.0
111
1.0
121
0.0
131
0.0
112
0.0
122
1.0
132
0.0
 79
     0
146
0.0
  0
ENDTAB
  0
TABLE
  2
LTYPE
  5
5
330
0
100
AcDbSymbolTable
 70
     1
  0
LTYPE
  5
14
330
5
100
AcDbSymbolTableRecord
100
AcDbLinetypeTableRecord
  2
ByBlock
 70
     0
  3

 72
    65
 73
     0
 40
0.0
  0
LTYPE
  5
15
330
5
100
AcDbSymbolTableRecord
100
AcDbLinetypeTableRecord
  2
ByLayer
 70
     0
  3

 72
    65
 73
     0
 40
0.0
  0
LTYPE
  5
16
330
5
100
AcDbSymbolTableRecord
100
AcDbLinetypeTableRecord
  2
Continuous
 70
     0
  3
Solid line
 72
    65
 73
     0
 40
0.0
  0
ENDTAB
  0
TABLE
  2
LAYER
  5
2
330
0
100
AcDbSymbolTable
 70
     2
  0
LAYER
  5
10
330
2
100
AcDbSymbolTableRecord
100
AcDbLayerTableRecord
  2
0
 70
     0
 62
     7
  6
Continuous
370
    -3
390
F
  0
LAYER
  5
3B
330
2
100
AcDbSymbolTableRecord
100
AcDbLayerTableRecord
  2
Default
 70
     0
 62
     7
  6
Continuous
370
    -3
390
F
  0
ENDTAB
  0
TABLE
  2
STYLE
  5
3
330
0
100
AcDbSymbolTable
 70
     1
  0
STYLE
  5
11
330
3
100
AcDbSymbolTableRecord
100
AcDbTextStyleTableRecord
  2
Standard
 70
     0
 40
0.0
 41
1.0
 50
0.0
 71
     0
 42
0.2
  3
txt
  4

  0
ENDTAB
  0
TABLE
  2
VIEW
  5
6
330
0
100
AcDbSymbolTable
 70
     0
  0
ENDTAB
  0
TABLE
  2
UCS
  5
7
330
0
100
AcDbSymbolTable
 70
     0
  0
ENDTAB
  0
TABLE
  2
APPID
  5
9
330
0
100
AcDbSymbolTable
 70
     1
  0
APPID
  5
12
330
9
100
AcDbSymbolTableRecord
100
AcDbRegAppTableRecord
  2
ACAD
 70
     0
  0
ENDTAB
  0
TABLE
  2
DIMSTYLE
  5
A
330
0
100
AcDbSymbolTable
 70
     1
100
AcDbDimStyleTable
  0
DIMSTYLE
105
27
330
A
100
AcDbSymbolTableRecord
100
AcDbDimStyleTableRecord
  2
Standard
 70
     0
340
11
  0
ENDTAB
  0
TABLE
  2
BLOCK_RECORD
  5
1
330
0
100
AcDbSymbolTable
 70
     1
  0
BLOCK_RECORD
  5
1F
330
1
100
AcDbSymbolTableRecord
100
AcDbBlockTableRecord
  2
*Model_Space
340
22
  0
BLOCK_RECORD
  5
1B
330
1
100
AcDbSymbolTableRecord
100
AcDbBlockTableRecord
  2
*Paper_Space
340
1E
  0
BLOCK_RECORD
  5
23
330
1
100
AcDbSymbolTableRecord
100
AcDbBlockTableRecord
  2
*Paper_Space0
340
26
  0
ENDTAB
  0
ENDSEC
  0
SECTION
  2
BLOCKS
  0
BLOCK
  5
20
330
1F
100
AcDbEntity
  8
0
100
AcDbBlockBegin
  2
*Model_Space
 70
     0
 10
0.0
 20
0.0
 30
0.0
  3
*Model_Space
  1

  0
ENDBLK
  5
21
330
1F
100
AcDbEntity
  8
0
100
AcDbBlockEnd
  0
BLOCK
  5
1C
330
1B
100
AcDbEntity
 67
     1
  8
0
100
AcDbBlockBegin
  2
*Paper_Space
 70
     0
 10
0.0
 20
0.0
 30
0.0
  3
*Paper_Space
  1

  0
ENDBLK
  5
1D
330
1B
100
AcDbEntity
 67
     1
  8
0
100
AcDbBlockEnd
  0
BLOCK
  5
24
330
23
100
AcDbEntity
  8
0
100
AcDbBlockBegin
  2
*Paper_Space0
 70
     0
 10
0.0
 20
0.0
 30
0.0
  3
*Paper_Space0
  1

  0
ENDBLK
  5
25
330
23
100
AcDbEntity
  8
0
100
AcDbBlockEnd
  0
ENDSEC
  0
SECTION
  2
ENTITIES
  0
SPLINE
  5
3C
330
1F
100
AcDbEntity
  8
Default
100
AcDbSpline
210
0.0
220
0.0
230
1.0
 70
    24
 71
     2
 72
     6
 73
     3
 74
     0
 42
0.0000000001
 43
0.0000000001
 40
0.0
 40
0.0
 40
0.0
 40
0.1686969534964888
 40
0.1686969534964888
 40
0.1686969534964888
 10
-3.852011428329405
 20
17.04061717031546
 30
0.0
 10
-3.835948104383775
 20
17.12342197182822
 30
0.0
 10
-3.819884780438144
 20
17.20622677334098
 30
0.0
  0
SPLINE
  5
3D
330
1F
100
AcDbEntity
  8
Default
100
AcDbSpline
210
0.0
220
0.0
230
1.0
 70
    12
 71
     2
 72
     6
 73
     3
 74
     0
 42
0.0000000001
 43
0.0000000001
 40
0.0
 40
0.0
 40
0.0
 40
0.1797454813701551
 40
0.1797454813701551
 40
0.1797454813701551
 10
-3.982068920221806
 20
16.93963917367777
 30
0.0
 41
1.0
 10
-3.872850911335782
 20
16.93321334997703
 30
0.0
 41
0.7524925652658285
 10
-3.852011428329405
 20
17.04061717031546
 30
0.0
 41
1.0
  0
SPLINE
  5
3E
330
1F
100
AcDbEntity
  8
Default
100
AcDbSpline
210
0.0
220
0.0
230
1.0
 70
    12
 71
     2
 72
     6
 73
     3
 74
     0
 42
0.0000000001
 43
0.0000000001
 40
-0.8819556308869502
 40
-0.8819556308869502
 40
-0.8819556308869502
 40
0.0
 40
0.0
 40
0.0
 10
-4.862076988361693
 20
16.99809166246802
 30
0.0
 41
1.0
 10
-4.422294077596578
 20
16.96553638459066
 30
0.0
 41
0.9999713796876327
 10
-3.982068920221806
 20
16.93963917367777
 30
0.0
 41
1.0
  0
ARC
  5
3F
330
1F
100
AcDbEntity
  8
Default
100
AcDbCircle
 10
-4.825118106506764
 20
17.49673146845446
 30
0.0
 40
0.5000076150041797
100
AcDbArc
 50
205.9336707212852
 51
265.7610225549237
  0
ARC
  5
40
330
1F
100
AcDbEntity
  8
Default
100
AcDbCircle
 10
-4.668216760128615
 20
17.57303264710373
 30
0.0
 40
0.6744779630824255
100
AcDbArc
 50
197.8871890890363
 51
205.9336707212858
  0
POLYLINE
  5
41
330
1F
100
AcDbEntity
  8
Default
100
AcDb2dPolyline
 66
     1
 10
0.0
 20
0.0
 30
0.0
  0
VERTEX
  5
42
330
41
100
AcDbEntity
  8
Default
100
AcDbVertex
100
AcDb2dVertex
 10
-3.974973799636842
 20
16.08476657246138
 30
0.0
  0
VERTEX
  5
43
330
41
100
AcDbEntity
  8
Default
100
AcDbVertex
100
AcDb2dVertex
 10
-3.915694241926005
 20
16.40010164036653
 30
0.0
  0
SEQEND
  5
44
330
41
100
AcDbEntity
  8
Default
  0
ARC
  5
45
330
1F
100
AcDbEntity
  8
Default
100
AcDbCircle
 10
-4.100332022457309
 20
16.10550807205031
 30
0.0
 40
0.1270625587413707
100
AcDbArc
 50
259.2747971933902
 51
350.6050802569434
  0
ARC
  5
46
330
1F
100
AcDbEntity
  8
Default
100
AcDbCircle
 10
-1.239568893197841
 20
31.20924989633831
 30
0.0
 40
15.49934224577794
100
AcDbArc
 50
255.8811294775157
 51
259.2747971933903
  0
SPLINE
  5
47
330
1F
100
AcDbEntity
  8
Default
100
AcDbSpline
210
0.0
220
0.0
230
1.0
 70
    12
 71
     2
 72
     6
 73
     3
 74
     0
 42
0.0000000001
 43
0.0000000001
 40
-0.5389965836581292
 40
-0.5389965836581292
 40
-0.5389965836581292
 40
0.0
 40
0.0
 40
0.0
 10
-5.385695089246951
 20
16.54028663443935
 30
0.0
 41
1.0
 10
-5.309680235352672
 20
16.25204357851372
 30
0.0
 41
0.8621117229312395
 10
-5.020392087314391
 20
16.17811600608948
 30
0.0
 41
1.0
  0
SPLINE
  5
48
330
1F
100
AcDbEntity
  8
Default
100
AcDbSpline
210
0.0
220
0.0
230
1.0
 70
    12
 71
     2
 72
     6
 73
     3
 74
     0
 42
0.0000000001
 43
0.0000000001
 40
-0.5113006500514725
 40
-0.5113006500514725
 40
-0.5113006500514725
 40
0.0
 40
0.0
 40
0.0
 10
-5.533439365475331
 20
17.05181423886525
 30
0.0
 41
1.0
 10
-5.457606691244778
 20
16.80655247030323
 30
0.0
 41
0.9998280076521521
 10
-5.385695089246951
 20
16.54028663443935
 30
0.0
 41
1.0
  0
SPLINE
  5
49
330
1F
100
AcDbEntity
  8
Default
100
AcDbSpline
210
0.0
220
0.0
230
1.0
 70
    12
 71
     2
 72
     6
 73
     3
 74
     0
 42
0.0000000001
 43
0.0000000001
 40
-0.3334060439454795
 40
-0.3334060439454795
 40
-0.3334060439454795
 40
0.0
 40
0.0
 40
0.0
 10
-5.48717449372981
 20
17.38302436324344
 30
0.0
 41
1.0
 10
-5.50600556621324
 20
17.21735001946877
 30
0.0
 41
0.999657403781152
 10
-5.533439365475331
 20
17.05181423886525
 30
0.0
 41
1.0
  0
SPLINE
  5
4A
330
1F
100
AcDbEntity
  8
Default
100
AcDbSpline
210
0.0
220
0.0
230
1.0
 70
    12
 71
     2
 72
     6
 73
     3
 74
     0
 42
0.0000000001
 43
0.0000000001
 40
0.0
 40
0.0
 40
0.0
 40
0.3792440286681254
 40
0.3792440286681254
 40
0.3792440286681254
 10
-3.873491361162721
 20
16.84051072434966
 30
0.0
 41
1.0
 10
-3.686284286046908
 20
16.80884094841635
 30
0.0
 41
0.9980659618543902
 10
-3.504806087771939
 20
16.75184632251881
 30
0.0
 41
1.0
  0
SPLINE
  5
4B
330
1F
100
AcDbEntity
  8
Default
100
AcDbSpline
210
0.0
220
0.0
230
1.0
 70
    12
 71
     2
 72
     6
 73
     3
 74
     0
 42
0.0000000001
 43
0.0000000001
 40
0.0
 40
0.0
 40
0.0
 40
0.2331431811534332
 40
0.2331431811534332
 40
0.2331431811534332
 10
-5.212245717172507
 20
16.35801340396162
 30
0.0
 41
1.0
 10
-5.117289810673647
 20
16.28689435088895
 30
0.0
 41
0.9740991827395424
 10
-5.000714246351279
 20
16.26487886334282
 30
0.0
 41
1.0
  0
SPLINE
  5
4C
330
1F
100
AcDbEntity
  8
Default
100
AcDbSpline
210
0.0
220
0.0
230
1.0
 70
    12
 71
     2
 72
     6
 73
     3
 74
     0
 42
0.0000000001
 43
0.0000000001
 40
0.0
 40
0.0
 40
0.0
 40
0.0258052011654917
 40
0.0258052011654917
 40
0.0258052011654917
 10
-5.212337368497188
 20
16.33220989144366
 30
0.0
 41
1.0
 10
-5.212534587597528
 20
16.34511251097172
 30
0.0
 41
0.999822609931566
 10
-5.212245717172507
 20
16.35801340396162
 30
0.0
 41
1.0
  0
SPLINE
  5
4D
330
1F
100
AcDbEntity
  8
Default
100
AcDbSpline
210
0.0
220
0.0
230
1.0
 70
    12
 71
     2
 72
     6
 73
     3
 74
     0
 42
0.0000000001
 43
0.0000000001
 40
0.0
 40
0.0
 40
0.0
 40
0.2286703024581835
 40
0.2286703024581835
 40
0.2286703024581835
 10
-5.005745373222098
 20
16.2389078147279
 30
0.0
 41
1.0
 10
-5.119895795538358
 20
16.26152469081551
 30
0.0
 41
0.9739833963501032
 10
-5.212337368497188
 20
16.33220989144366
 30
0.0
 41
1.0
  0
ARC
  5
4E
330
1F
100
AcDbEntity
  8
Default
100
AcDbCircle
 10
-2.421449014105917
 20
29.32372450084155
 30
0.0
 40
13.33757906746722
100
AcDbArc
 50
258.8276738314142
 51
261.6579323971376
  0
ARC
  5
4F
330
1F
100
AcDbEntity
  8
Default
100
AcDbCircle
 10
-7.920945913279965
 20
16.70151133934194
 30
0.0
 40
3.610405711948466
100
AcDbArc
 50
350.8480308071748
 51
351.2752087420715
  0
LINE
  5
50
330
1F
100
AcDbEntity
  8
Default
100
AcDbLine
 10
-4.351347803186783
 20
16.16017993079431
 30
0.0
 11
-4.352318569292578
 21
16.15385425263934
 31
0.0
  0
ARC
  5
51
330
1F
100
AcDbEntity
  8
Default
100
AcDbCircle
 10
-2.476811494359993
 20
29.85258598062421
 30
0.0
 40
13.8201255351219
100
AcDbArc
 50
259.4772940774598
 51
262.2044771775822
  0
POLYLINE
  5
52
330
1F
100
AcDbEntity
  8
Default
100
AcDb2dPolyline
 66
     1
 10
0.0
 20
0.0
 30
0.0
  0
VERTEX
  5
53
330
52
100
AcDbEntity
  8
Default
100
AcDbVertex
100
AcDb2dVertex
 10
-3.504806087771939
 20
16.75184632251881
 30
0.0
  0
VERTEX
  5
54
330
52
100
AcDbEntity
  8
Default
100
AcDbVertex
100
AcDb2dVertex
 10
-3.903930024116988
 20
16.60625165158066
 30
0.0
  0
SEQEND
  5
55
330
52
100
AcDbEntity
  8
Default
  0
SPLINE
  5
56
330
1F
100
AcDbEntity
  8
Default
100
AcDbSpline
210
0.0
220
0.0
230
1.0
 70
    12
 71
     2
 72
     6
 73
     3
 74
     0
 42
0.0000000001
 43
0.0000000001
 40
0.0
 40
0.0
 40
0.0
 40
0.2589603388760939
 40
0.2589603388760939
 40
0.2589603388760939
 10
-5.139761344139842
 20
16.96327782728385
 30
0.0
 41
1.0
 10
-5.029163050028791
 20
16.8891345420122
 30
0.0
 41
0.9675434361208503
 10
-4.897216614110306
 20
16.87852057813392
 30
0.0
 41
1.0
  0
SPLINE
  5
57
330
1F
100
AcDbEntity
  8
Default
100
AcDbSpline
210
0.0
220
0.0
230
1.0
 70
    12
 71
     2
 72
     6
 73
     3
 74
     0
 42
0.0000000001
 43
0.0000000001
 40
0.0
 40
0.0
 40
0.0
 40
0.0329597756481124
 40
0.0329597756481124
 40
0.0329597756481124
 10
-5.144401258273689
 20
16.93091760895412
 30
0.0
 41
1.0
 10
-5.142357425241122
 20
16.94712904965213
 30
0.0
 41
0.9999854773655392
 10
-5.139761344139847
 20
16.96327782728385
 30
0.0
 41
0.9999997527681319
  0
SPLINE
  5
58
330
1F
100
AcDbEntity
  8
Default
100
AcDbSpline
210
0.0
220
0.0
230
1.0
 70
    12
 71
     2
 72
     6
 73
     3
 74
     0
 42
0.0000000001
 43
0.0000000001
 40
0.0
 40
0.0
 40
0.0
 40
0.2586130425465446
 40
0.2586130425465446
 40
0.2586130425465446
 10
-4.90333679655852
 20
16.84531200725822
 30
0.0
 41
1.0
 10
-5.035039652586889
 20
16.85665844671779
 30
0.0
 41
0.9675914429885938
 10
-5.144401258273689
 20
16.93091760895412
 30
0.0
 41
1.0
  0
ARC
  5
59
330
1F
100
AcDbEntity
  8
Default
100
AcDbCircle
 10
-2.312353238620304
 20
48.52010261997186
 30
0.0
 40
31.78058457858758
100
AcDbArc
 50
265.3236426773087
 51
266.4758442532101
  0
ARC
  5
5A
330
1F
100
AcDbEntity
  8
Default
100
AcDbCircle
 10
0.0847626311959999
 20
16.15459431249172
 30
0.0
 40
4.398202752364889
100
AcDbArc
 50
171.2060360899845
 51
171.5668283930248
  0
LINE
  5
5B
330
1F
100
AcDbEntity
  8
Default
100
AcDbLine
 10
-4.260795032961099
 20
16.83308823494434
 30
0.0
 11
-4.261737017776454
 21
16.8269991402498
 31
0.0
  0
ARC
  5
5C
330
1F
100
AcDbEntity
  8
Default
100
AcDbCircle
 10
-2.038812325215986
 20
52.43913225471494
 30
0.0
 40
35.67530767759909
100
AcDbArc
 50
265.4043777029838
 51
266.4291075639948
  0
SPLINE
  5
5D
330
1F
100
AcDbEntity
  8
Default
100
AcDbSpline
210
0.0
220
0.0
230
1.0
 70
    12
 71
     2
 72
     6
 73
     3
 74
     0
 42
0.0000000001
 43
0.0000000001
 40
0.0
 40
0.0
 40
0.0
 40
0.2589603388760939
 40
0.2589603388760939
 40
0.2589603388760939
 10
5.139761355967082
 20
16.96327782728385
 30
0.0
 41
1.0
 10
5.029163061856041
 20
16.8891345420122
 30
0.0
 41
0.9675434361208503
 10
4.897216625937546
 20
16.87852057813392
 30
0.0
 41
1.0
  0
SPLINE
  5
5E
330
1F
100
AcDbEntity
  8
Default
100
AcDbSpline
210
0.0
220
0.0
230
1.0
 70
    12
 71
     2
 72
     6
 73
     3
 74
     0
 42
0.0000000001
 43
0.0000000001
 40
0.0
 40
0.0
 40
0.0
 40
0.0329597756481124
 40
0.0329597756481124
 40
0.0329597756481124
 10
5.144401270100929
 20
16.93091760895412
 30
0.0
 41
1.0
 10
5.142357437068357
 20
16.94712904965213
 30
0.0
 41
0.9999854773655392
 10
5.139761355967088
 20
16.96327782728385
 30
0.0
 41
0.9999997527681319
  0
SPLINE
  5
5F
330
1F
100
AcDbEntity
  8
Default
100
AcDbSpline
210
0.0
220
0.0
230
1.0
 70
    12
 71
     2
 72
     6
 73
     3
 74
     0
 42
0.0000000001
 43
0.0000000001
 40
0.0
 40
0.0
 40
0.0
 40
0.2586130425465446
 40
0.2586130425465446
 40
0.2586130425465446
 10
4.90333680838576
 20
16.84531200725822
 30
0.0
 41
1.0
 10
5.03503966441412
 20
16.85665844671779
 30
0.0
 41
0.9675914429885938
 10
5.144401270100929
 20
16.93091760895412
 30
0.0
 41
1.0
  0
ARC
  5
60
330
1F
100
AcDbEntity
  8
Default
100
AcDbCircle
 10
2.312353250447543
 20
48.52010261997186
 30
0.0
 40
31.78058457858758
100
AcDbArc
 50
273.5241557467899
 51
274.6763573226913
  0
ARC
  5
61
330
1F
100
AcDbEntity
  8
Default
100
AcDbCircle
 10
-0.0847626193687603
 20
16.15459431249172
 30
0.0
 40
4.398202752364889
100
AcDbArc
 50
8.433171606975248
 51
8.793963910015556
  0
LINE
  5
62
330
1F
100
AcDbEntity
  8
Default
100
AcDbLine
 10
4.260795044788338
 20
16.83308823494434
 30
0.0
 11
4.261737029603694
 21
16.8269991402498
 31
0.0
  0
ARC
  5
63
330
1F
100
AcDbEntity
  8
Default
100
AcDbCircle
 10
2.038812337043225
 20
52.43913225471494
 30
0.0
 40
35.67530767759909
100
AcDbArc
 50
273.5708924360052
 51
274.5956222970162
  0
ARC
  5
64
330
1F
100
AcDbEntity
  8
Default
100
AcDbCircle
 10
-10.03005566684392
 20
11.53680742143872
 30
0.0
 40
1.201617230874027
100
AcDbArc
 50
32.26152447052785
 51
45.62890314934231
  0
ARC
  5
65
330
1F
100
AcDbEntity
  8
Default
100
AcDbCircle
 10
-8.568867784372287
 20
13.03042987722437
 30
0.0
 40
0.8878750683003669
100
AcDbArc
 50
222.3709419140255
 51
225.6289031493422
  0
SPLINE
  5
66
330
1F
100
AcDbEntity
  8
Default
100
AcDbSpline
210
0.0
220
0.0
230
1.0
 70
    12
 71
     2
 72
     6
 73
     3
 74
     0
 42
0.0000000001
 43
0.0000000001
 40
0.0
 40
0.0
 40
0.0
 40
0.2852906795196817
 40
0.2852906795196817
 40
0.2852906795196817
 10
-8.998878774614894
 20
12.61571221212949
 30
0.0
 41
1.0
 10
-9.124653506723819
 20
12.5342959524548
 30
0.0
 41
0.9949452759334962
 10
-9.224827420403685
 20
12.43206619783956
 30
0.0
 41
1.0
  0
SPLINE
  5
67
330
1F
100
AcDbEntity
  8
Default
100
AcDbSpline
210
0.0
220
0.0
230
1.0
 70
     8
 71
     3
 72
    11
 73
     7
 74
     0
 42
0.0000000001
 43
0.0000000001
 40
0.0
 40
0.0
 40
0.0
 40
0.0
 40
0.1508033255554565
 40
0.2936437639651817
 40
0.563936443460426
 40
1.101486738075395
 40
1.101486738075395
 40
1.101486738075395
 40
1.101486738075395
 10
9.81398408387902
 20
18.74638375536079
 30
0.0
 10
9.81232647158221
 20
18.79684541934151
 30
0.0
 10
9.80161173713195
 20
18.89487523698324
 30
0.0
 10
9.752610549873367
 20
19.07626890594372
 30
0.0
 10
9.592096028087994
 20
19.35749787959669
 30
0.0
 10
9.331663413868611
 20
19.48445313170588
 30
0.0
 10
9.153388509427444
 20
19.49948126982163
 30
0.0
  0
SPLINE
  5
68
330
1F
100
AcDbEntity
  8
Default
100
AcDbSpline
210
0.0
220
0.0
230
1.0
 70
    24
 71
     2
 72
     6
 73
     3
 74
     0
 42
0.0000000001
 43
0.0000000001
 40
0.0
 40
0.0
 40
0.0
 40
17.34183860043975
 40
17.34183860043975
 40
17.34183860043975
 10
10.41921967332155
 20
1.414704121571879
 30
0.0
 10
10.11660187860029
 20
10.08054393846633
 30
0.0
 10
9.81398408387902
 20
18.74638375536079
 30
0.0
  0
ARC
  5
69
330
1F
100
AcDbEntity
  8
Default
100
AcDbCircle
 10
10.45625059160076
 20
0.4927761690350221
 30
0.0
 40
0.0350793959067026
100
AcDbArc
 50
139.1419179860726
 51
223.086343465842
  0
ARC
  5
6A
330
1F
100
AcDbEntity
  8
Default
100
AcDbCircle
 10
10.47553176837444
 20
0.4760989650079961
 30
0.0
 40
0.0605723932184462
100
AcDbArc
 50
91.33627549753372
 51
139.1419179860709
  0
ARC
  5
6B
330
1F
100
AcDbEntity
  8
Default
100
AcDbCircle
 10
10.47502979641806
 20
0.4976182248606716
 30
0.0
 40
0.0390472795032539
100
AcDbArc
 50
31.60422799340228
 51
91.3362754975331
  0
SPLINE
  5
6C
330
1F
100
AcDbEntity
  8
Default
100
AcDbSpline
210
0.0
220
0.0
230
1.0
 70
    12
 71
     2
 72
     6
 73
     3
 74
     0
 42
0.0000000001
 43
0.0000000001
 40
-0.1497768937663166
 40
-0.1497768937663166
 40
-0.1497768937663166
 40
0.0
 40
0.0
 40
0.0
 10
10.54598902196024
 20
0.3724998610707735
 30
0.0
 41
1.0
 10
10.54537461146618
 20
0.4488776444080688
 30
0.0
 41
0.9709588602062039
 10
10.50828590617628
 20
0.5180809030909025
 30
0.0
 41
1.0
  0
SPLINE
  5
6D
330
1F
100
AcDbEntity
  8
Default
100
AcDbSpline
210
0.0
220
0.0
230
1.0
 70
    12
 71
     2
 72
    14
 73
    11
 74
     0
 42
0.0000000001
 43
0.0000000001
 40
-0.0377388910180526
 40
-0.0377388910180526
 40
-0.0377388910180526
 40
0.1594995282360696
 40
0.1594995282360696
 40
0.442890158773121
 40
0.442890158773121
 40
0.7089673713477064
 40
0.7089673713477064
 40
0.9941018613045786
 40
0.9941018613045786
 40
1.15360142612721
 40
1.15360142612721
 40
1.15360142612721
 10
9.926000011863124
 20
0.3880346511982619
 30
0.0
 41
1.0
 10
9.926000011862655
 20
0.288642561466971
 30
0.0
 41
1.0
 10
9.926000011862186
 20
0.1892504717356801
 30
0.0
 41
1.0
 10
9.92599195552921
 20
0.0115477872781985
 30
0.0
 41
0.7291096165445335
 10
10.10209136241888
 20
0.0003876434457031
 30
0.0
 41
1.0
 10
10.2351299584972
 20
0.0003355246250893
 30
0.0
 41
1.0
 10
10.36816855457553
 20
0.0002834058044755
 30
0.0
 41
1.0
 10
10.54600703727689
 20
0.0099020249389798
 30
0.0
 41
0.7259366150019833
 10
10.54600001186357
 20
0.1892504351343685
 30
0.0
 41
1.0
 10
10.54600001186324
 20
0.2696252175455471
 30
0.0
 41
1.0
 10
10.54598902196024
 20
0.3724998610707735
 30
0.0
 41
1.0
  0
LINE
  5
6E
330
1F
100
AcDbEntity
  8
Default
100
AcDbLine
 10
9.377145977854696
 20
18.71979300234409
 30
0.0
 11
9.994790567161516
 21
1.032766104167178
 31
0.0
  0
SPLINE
  5
6F
330
1F
100
AcDbEntity
  8
Default
100
AcDbSpline
210
0.0
220
0.0
230
1.0
 70
     8
 71
     3
 72
    11
 73
     7
 74
     0
 42
0.0000000001
 43
0.0000000001
 40
0.0
 40
0.0
 40
0.0
 40
0.0
 40
0.0464584992306436
 40
0.094096761779655
 40
0.1892134414676934
 40
0.4090795522264841
 40
0.4090795522264841
 40
0.4090795522264841
 40
0.4090795522264841
 10
9.172189583932507
 20
19.05253198453973
 30
0.0
 10
9.187047308973263
 20
19.04835432752773
 30
0.0
 10
9.216647384880034
 20
19.03706299682994
 30
0.0
 10
9.270910982502116
 20
19.0051119895696
 30
0.0
 10
9.35402642880203
 20
18.91292092875765
 30
0.0
 10
9.374174785365128
 20
18.80489042242822
 30
0.0
 10
9.376707941974686
 20
18.73232719829413
 30
0.0
  0
SPLINE
  5
70
330
1F
100
AcDbEntity
  8
Default
100
AcDbSpline
210
0.0
220
0.0
230
1.0
 70
    12
 71
     3
 72
    17
 73
    13
 74
     0
 42
0.0000000001
 43
0.0000000001
 40
0.0
 40
0.0
 40
0.0
 40
0.0
 40
0.2666889048665558
 40
0.2666889048665558
 40
0.2666889048665558
 40
0.5434599382612618
 40
0.5974398554719312
 40
0.6792622619103524
 40
0.9904800976972297
 40
1.617092231315321
 40
1.885694735778084
 40
2.119352715452405
 40
2.119352715452405
 40
2.119352715452405
 40
2.119352715452405
 10
10.43063122774414
 20
0.4688134435481026
 30
0.0
 41
1.0
 10
10.47423628125624
 20
0.3811639612010567
 30
0.0
 41
0.879927745846642
 10
10.45923956096569
 20
0.2874711595345999
 30
0.0
 41
0.879927745846642
 10
10.39330295548265
 20
0.2192391129598106
 30
0.0
 41
1.0
 10
10.3302951426337
 20
0.1512524073706399
 30
0.0
 41
1.0
 10
10.19863493452759
 20
0.1293309469969385
 30
0.0
 41
1.0
 10
10.08506386185228
 20
0.2099900146644794
 30
0.0
 41
1.0
 10
9.983312780016078
 20
0.3191837096034519
 30
0.0
 41
1.0
 10
9.763016902675105
 20
0.5774749683331186
 30
0.0
 41
1.0
 10
9.543622341164365
 20
0.9182953319200431
 30
0.0
 41
1.0
 10
9.413460406054313
 20
1.273022708579472
 30
0.0
 41
1.0
 10
9.388827513729524
 20
1.439676276213217
 30
0.0
 41
1.0
 10
9.38586497897974
 20
1.517451847324737
 30
0.0
 41
1.0
  0
SPLINE
  5
71
330
1F
100
AcDbEntity
  8
Default
100
AcDbSpline
210
0.0
220
0.0
230
1.0
 70
     8
 71
     3
 72
    18
 73
    14
 74
     0
 42
0.0000000001
 43
0.0000000001
 40
-7.107196983414992
 40
-7.107196983414992
 40
-7.107196983414992
 40
-7.107196983414992
 40
-4.690458462965164
 40
-4.21509045905279
 40
-3.064069455414916
 40
-1.917925925034485
 40
-1.165086677208357
 40
-0.6761604746707232
 40
-0.4920801357797896
 40
-0.3809533486540008
 40
-0.2905961816495549
 40
-0.2333027194675158
 40
0.0
 40
0.0
 40
0.0
 40
0.0
 10
-8.472828087436767
 20
25.2670061194386
 30
0.0
 10
-8.578338734482315
 20
24.46835703994419
 30
0.0
 10
-8.704983517776355
 20
23.51270026475924
 30
0.0
 10
-8.88137991671013
 20
22.17655473578389
 30
0.0
 10
-8.996916868213901
 20
21.25967471885169
 30
0.0
 10
-9.110124537965078
 20
20.24916213265325
 30
0.0
 10
-9.173728655993358
 20
19.45576682048711
 30
0.0
 10
-9.184581254376354
 20
18.97995280631436
 30
0.0
 10
-9.16184465139105
 20
18.71960794489266
 30
0.0
 10
-9.135304531206373
 20
18.59249316112268
 30
0.0
 10
-9.080593239572153
 20
18.52095279344216
 30
0.0
 10
-8.953614455715353
 20
18.49043637783694
 30
0.0
 10
-8.865435088811978
 20
18.45567870693486
 30
0.0
 10
-8.789646085583144
 20
18.43480279766052
 30
0.0
  0
SPLINE
  5
72
330
1F
100
AcDbEntity
  8
Default
100
AcDbSpline
210
0.0
220
0.0
230
1.0
 70
    12
 71
     2
 72
     6
 73
     3
 74
     0
 42
0.0000000001
 43
0.0000000001
 40
-6.481588670327722
 40
-6.481588670327722
 40
-6.481588670327722
 40
0.0
 40
0.0
 40
0.0
 10
-7.622840568814183
 20
31.69261942729471
 30
0.0
 41
1.0
 10
-8.045640845417225
 20
28.47952261695119
 30
0.0
 41
0.9999997669392705
 10
-8.472828087436767
 20
25.2670061194386
 30
0.0
 41
1.0
  0
SPLINE
  5
73
330
1F
100
AcDbEntity
  8
Default
100
AcDbSpline
210
0.0
220
0.0
230
1.0
 70
    12
 71
     2
 72
     6
 73
     3
 74
     0
 42
0.0000000001
 43
0.0000000001
 40
-0.3221193712202933
 40
-0.3221193712202933
 40
-0.3221193712202933
 40
0.0
 40
0.0
 40
0.0
 10
-7.581441644046521
 20
32.01206714285428
 30
0.0
 41
1.0
 10
-7.601781449303889
 20
31.85229667519879
 30
0.0
 41
0.9999974648356978
 10
-7.622840568814183
 20
31.69261942729471
 30
0.0
 41
1.0
  0
SPLINE
  5
74
330
1F
100
AcDbEntity
  8
Default
100
AcDbSpline
210
0.0
220
0.0
230
1.0
 70
     8
 71
     3
 72
     9
 73
     5
 74
     0
 42
0.0000000001
 43
0.0000000001
 40
-2.0
 40
-2.0
 40
-2.0
 40
-2.0
 40
-1.0
 40
0.0
 40
0.0
 40
0.0
 40
0.0
 10
-7.236776825984606
 20
32.32168597455561
 30
0.0
 10
-7.314518745486737
 20
32.32927436840632
 30
0.0
 10
-7.484264301952038
 20
32.28196427031866
 30
0.0
 10
-7.571605690070925
 20
32.08932918871141
 30
0.0
 10
-7.581441644046521
 20
32.01206714285428
 30
0.0
  0
SPLINE
  5
75
330
1F
100
AcDbEntity
  8
Default
100
AcDbSpline
210
0.0
220
0.0
230
1.0
 70
     8
 71
     3
 72
     9
 73
     5
 74
     0
 42
0.0000000001
 43
0.0000000001
 40
-2.0
 40
-2.0
 40
-2.0
 40
-2.0
 40
-1.0
 40
0.0
 40
0.0
 40
0.0
 40
0.0
 10
0.0000000059136198
 20
31.95576876910191
 30
0.0
 10
-1.208150739163045
 20
31.95529461748041
 30
0.0
 10
-3.624737710406237
 20
32.01409064480467
 30
0.0
 10
-6.034350595386684
 20
32.20431707148974
 30
0.0
 10
-7.236776825984606
 20
32.32168597455561
 30
0.0
  0
SPLINE
  5
76
330
1F
100
AcDbEntity
  8
Default
100
AcDbSpline
210
0.0
220
0.0
230
1.0
 70
     8
 71
     3
 72
     9
 73
     5
 74
     0
 42
0.0000000001
 43
0.0000000001
 40
0.0
 40
0.0
 40
0.0
 40
0.0
 40
1.0
 40
2.0
 40
2.0
 40
2.0
 40
2.0
 10
7.236776837811846
 20
32.32168597455561
 30
0.0
 10
6.034350607213923
 20
32.20431707148974
 30
0.0
 10
3.624737722233476
 20
32.01409064480467
 30
0.0
 10
1.208150750990285
 20
31.95529461748041
 30
0.0
 10
0.0000000059136198
 20
31.95576876910191
 30
0.0
  0
SPLINE
  5
77
330
1F
100
AcDbEntity
  8
Default
100
AcDbSpline
210
0.0
220
0.0
230
1.0
 70
     8
 71
     3
 72
     9
 73
     5
 74
     0
 42
0.0000000001
 43
0.0000000001
 40
0.0
 40
0.0
 40
0.0
 40
0.0
 40
1.0
 40
2.0
 40
2.0
 40
2.0
 40
2.0
 10
7.581441655873761
 20
32.01206714285428
 30
0.0
 10
7.571605701898164
 20
32.08932918871141
 30
0.0
 10
7.484264313779278
 20
32.28196427031866
 30
0.0
 10
7.314518757313976
 20
32.32927436840632
 30
0.0
 10
7.236776837811846
 20
32.32168597455561
 30
0.0
  0
SPLINE
  5
78
330
1F
100
AcDbEntity
  8
Default
100
AcDbSpline
210
0.0
220
0.0
230
1.0
 70
    12
 71
     2
 72
     6
 73
     3
 74
     0
 42
0.0000000001
 43
0.0000000001
 40
0.0
 40
0.0
 40
0.0
 40
0.3221193712202933
 40
0.3221193712202933
 40
0.3221193712202933
 10
7.622840580641423
 20
31.69261942729471
 30
0.0
 41
1.0
 10
7.601781461131121
 20
31.85229667519879
 30
0.0
 41
0.9999974648356978
 10
7.581441655873761
 20
32.01206714285428
 30
0.0
 41
1.0
  0
SPLINE
  5
79
330
1F
100
AcDbEntity
  8
Default
100
AcDbSpline
210
0.0
220
0.0
230
1.0
 70
    12
 71
     2
 72
     6
 73
     3
 74
     0
 42
0.0000000001
 43
0.0000000001
 40
0.0
 40
0.0
 40
0.0
 40
6.481588670327722
 40
6.481588670327722
 40
6.481588670327722
 10
8.472828099264007
 20
25.2670061194386
 30
0.0
 41
1.0
 10
8.045640857244464
 20
28.47952261695119
 30
0.0
 41
0.9999997669392705
 10
7.622840580641423
 20
31.69261942729471
 30
0.0
 41
1.0
  0
SPLINE
  5
7A
330
1F
100
AcDbEntity
  8
Default
100
AcDbSpline
210
0.0
220
0.0
230
1.0
 70
     8
 71
     3
 72
    18
 73
    14
 74
     0
 42
0.0000000001
 43
0.0000000001
 40
0.0
 40
0.0
 40
0.0
 40
0.0
 40
0.2333027194675158
 40
0.2905961816495549
 40
0.3809533486540008
 40
0.4920801357797896
 40
0.6761604746707232
 40
1.165086677208357
 40
1.917925925034485
 40
3.064069455414916
 40
4.21509045905279
 40
4.690458462965164
 40
7.107196983414992
 40
7.107196983414992
 40
7.107196983414992
 40
7.107196983414992
 10
8.789646097410383
 20
18.43480279766052
 30
0.0
 10
8.865435100639218
 20
18.45567870693486
 30
0.0
 10
8.953614467542593
 20
18.49043637783694
 30
0.0
 10
9.080593251399392
 20
18.52095279344216
 30
0.0
 10
9.135304543033612
 20
18.59249316112268
 30
0.0
 10
9.16184466321829
 20
18.71960794489266
 30
0.0
 10
9.184581266203594
 20
18.97995280631436
 30
0.0
 10
9.173728667820598
 20
19.45576682048711
 30
0.0
 10
9.110124549792317
 20
20.24916213265325
 30
0.0
 10
8.996916880041141
 20
21.25967471885169
 30
0.0
 10
8.88137992853737
 20
22.17655473578389
 30
0.0
 10
8.704983529603595
 20
23.51270026475924
 30
0.0
 10
8.578338746309555
 20
24.46835703994419
 30
0.0
 10
8.472828099264007
 20
25.2670061194386
 30
0.0
  0
SPLINE
  5
7B
330
1F
100
AcDbEntity
  8
Default
100
AcDbSpline
210
0.0
220
0.0
230
1.0
 70
    12
 71
     2
 72
     6
 73
     3
 74
     0
 42
0.0000000001
 43
0.0000000001
 40
0.0
 40
0.0
 40
0.0
 40
0.2497088885855053
 40
0.2497088885855053
 40
0.2497088885855053
 10
5.182069053770036
 20
16.65427153168923
 30
0.0
 41
1.0
 10
5.076440986317334
 20
16.5816771199849
 30
0.0
 41
0.9707367384459072
 10
4.949960045747233
 20
16.56672921539316
 30
0.0
 41
1.0
  0
SPLINE
  5
7C
330
1F
100
AcDbEntity
  8
Default
100
AcDbSpline
210
0.0
220
0.0
230
1.0
 70
    12
 71
     2
 72
     6
 73
     3
 74
     0
 42
0.0000000001
 43
0.0000000001
 40
0.0
 40
0.0
 40
0.0
 40
0.0393067456422581
 40
0.0393067456422581
 40
0.0393067456422581
 10
5.188029919843245
 20
16.61571825370588
 30
0.0
 41
1.0
 10
5.185434374594687
 20
16.63504706428589
 30
0.0
 41
0.9999997988105347
 10
5.182069053770038
 20
16.65427153168923
 30
0.0
 41
0.99999999690695
  0
SPLINE
  5
7D
330
1F
100
AcDbEntity
  8
Default
100
AcDbSpline
210
0.0
220
0.0
230
1.0
 70
    12
 71
     2
 72
     6
 73
     3
 74
     0
 42
0.0000000001
 43
0.0000000001
 40
0.0
 40
0.0
 40
0.0
 40
0.2508277888405657
 40
0.2508277888405657
 40
0.2508277888405657
 10
4.956788681732291
 20
16.52537207618728
 30
0.0
 41
1.0
 10
5.083849274082908
 20
16.54126452838419
 30
0.0
 41
0.9693972343546567
 10
5.188029919843245
 20
16.61571825370588
 30
0.0
 41
1.0
  0
ARC
  5
7E
330
1F
100
AcDbEntity
  8
Default
100
AcDbCircle
 10
2.803599042211872
 20
34.36591679755294
 30
0.0
 40
17.97001006062006
100
AcDbArc
 50
274.8131991347316
 51
276.881788360765
  0
ARC
  5
7F
330
1F
100
AcDbEntity
  8
Default
100
AcDbCircle
 10
-80.17860929379661
 20
5.667393088065154
 30
0.0
 40
85.1764586819801
100
AcDbArc
 50
7.278957263966203
 51
7.303621893190757
  0
LINE
  5
80
330
1F
100
AcDbEntity
  8
Default
100
AcDbLine
 10
4.305703843490576
 20
16.50390621067401
 30
0.0
 11
4.306762384327627
 21
16.49564714918999
 31
0.0
  0
ARC
  5
81
330
1F
100
AcDbEntity
  8
Default
100
AcDbCircle
 10
2.73875208351734
 20
35.90802079391424
 30
0.0
 40
19.46728025630697
100
AcDbArc
 50
274.6168211796017
 51
276.522066911462
  0
SPLINE
  5
82
330
1F
100
AcDbEntity
  8
Default
100
AcDbSpline
210
0.0
220
0.0
230
1.0
 70
    12
 71
     2
 72
     6
 73
     3
 74
     0
 42
0.0000000001
 43
0.0000000001
 40
0.0
 40
0.0
 40
0.0
 40
0.2331431811534332
 40
0.2331431811534332
 40
0.2331431811534332
 10
5.212245728999747
 20
16.35801340396162
 30
0.0
 41
1.0
 10
5.1172898225009
 20
16.28689435088895
 30
0.0
 41
0.9740991827395424
 10
5.000714258178519
 20
16.26487886334282
 30
0.0
 41
1.0
  0
SPLINE
  5
83
330
1F
100
AcDbEntity
  8
Default
100
AcDbSpline
210
0.0
220
0.0
230
1.0
 70
    12
 71
     2
 72
     6
 73
     3
 74
     0
 42
0.0000000001
 43
0.0000000001
 40
0.0
 40
0.0
 40
0.0
 40
0.0258052011654917
 40
0.0258052011654917
 40
0.0258052011654917
 10
5.212337380324428
 20
16.33220989144366
 30
0.0
 41
1.0
 10
5.212534599424769
 20
16.34511251097172
 30
0.0
 41
0.999822609931566
 10
5.212245728999747
 20
16.35801340396162
 30
0.0
 41
1.0
  0
SPLINE
  5
84
330
1F
100
AcDbEntity
  8
Default
100
AcDbSpline
210
0.0
220
0.0
230
1.0
 70
    12
 71
     2
 72
     6
 73
     3
 74
     0
 42
0.0000000001
 43
0.0000000001
 40
0.0
 40
0.0
 40
0.0
 40
0.2286703024581835
 40
0.2286703024581835
 40
0.2286703024581835
 10
5.005745385049337
 20
16.2389078147279
 30
0.0
 41
1.0
 10
5.119895807365598
 20
16.26152469081551
 30
0.0
 41
0.9739833963501032
 10
5.212337380324428
 20
16.33220989144366
 30
0.0
 41
1.0
  0
ARC
  5
85
330
1F
100
AcDbEntity
  8
Default
100
AcDbCircle
 10
2.421449025933157
 20
29.32372450084155
 30
0.0
 40
13.33757906746722
100
AcDbArc
 50
278.3420676028624
 51
281.1723261685858
  0
ARC
  5
86
330
1F
100
AcDbEntity
  8
Default
100
AcDbCircle
 10
7.920945925107205
 20
16.70151133934194
 30
0.0
 40
3.610405711948466
100
AcDbArc
 50
188.7247912579286
 51
189.151969192825
  0
LINE
  5
87
330
1F
100
AcDbEntity
  8
Default
100
AcDbLine
 10
4.351347815014023
 20
16.16017993079431
 30
0.0
 11
4.352318581119818
 21
16.15385425263934
 31
0.0
  0
ARC
  5
88
330
1F
100
AcDbEntity
  8
Default
100
AcDbCircle
 10
2.476811506187232
 20
29.85258598062421
 30
0.0
 40
13.8201255351219
100
AcDbArc
 50
277.7955228224178
 51
280.5227059225402
  0
SPLINE
  5
89
330
1F
100
AcDbEntity
  8
Default
100
AcDbSpline
210
0.0
220
0.0
230
1.0
 70
    12
 71
     2
 72
     6
 73
     3
 74
     0
 42
0.0000000001
 43
0.0000000001
 40
0.0
 40
0.0
 40
0.0
 40
0.3792440286681254
 40
0.3792440286681254
 40
0.3792440286681254
 10
3.87349137298996
 20
16.84051072434966
 30
0.0
 41
1.0
 10
3.686284297874155
 20
16.80884094841635
 30
0.0
 41
0.9980659618543902
 10
3.504806099599179
 20
16.75184632251881
 30
0.0
 41
1.0
  0
POLYLINE
  5
8A
330
1F
100
AcDbEntity
  8
Default
100
AcDb2dPolyline
 66
     1
 10
0.0
 20
0.0
 30
0.0
  0
VERTEX
  5
8B
330
8A
100
AcDbEntity
  8
Default
100
AcDbVertex
100
AcDb2dVertex
 10
3.974973811464082
 20
16.08476657246138
 30
0.0
  0
VERTEX
  5
8C
330
8A
100
AcDbEntity
  8
Default
100
AcDbVertex
100
AcDb2dVertex
 10
3.915694253753244
 20
16.40010164036653
 30
0.0
  0
SEQEND
  5
8D
330
8A
100
AcDbEntity
  8
Default
  0
ARC
  5
8E
330
1F
100
AcDbEntity
  8
Default
100
AcDbCircle
 10
4.100332034284548
 20
16.10550807205031
 30
0.0
 40
0.1270625587413707
100
AcDbArc
 50
189.3949197430565
 51
280.7252028066098
  0
ARC
  5
8F
330
1F
100
AcDbEntity
  8
Default
100
AcDbCircle
 10
1.239568905025081
 20
31.20924989633831
 30
0.0
 40
15.49934224577794
100
AcDbArc
 50
280.7252028066097
 51
284.1188705224843
  0
SPLINE
  5
90
330
1F
100
AcDbEntity
  8
Default
100
AcDbSpline
210
0.0
220
0.0
230
1.0
 70
    12
 71
     2
 72
     6
 73
     3
 74
     0
 42
0.0000000001
 43
0.0000000001
 40
-0.5389965836581292
 40
-0.5389965836581292
 40
-0.5389965836581292
 40
0.0
 40
0.0
 40
0.0
 10
5.385695101074191
 20
16.54028663443935
 30
0.0
 41
1.0
 10
5.309680247179918
 20
16.25204357851372
 30
0.0
 41
0.8621117229312395
 10
5.020392099141631
 20
16.17811600608948
 30
0.0
 41
1.0
  0
SPLINE
  5
91
330
1F
100
AcDbEntity
  8
Default
100
AcDbSpline
210
0.0
220
0.0
230
1.0
 70
    12
 71
     2
 72
     6
 73
     3
 74
     0
 42
0.0000000001
 43
0.0000000001
 40
-0.5113006500514725
 40
-0.5113006500514725
 40
-0.5113006500514725
 40
0.0
 40
0.0
 40
0.0
 10
5.533439377302571
 20
17.05181423886525
 30
0.0
 41
1.0
 10
5.457606703072025
 20
16.80655247030323
 30
0.0
 41
0.9998280076521521
 10
5.385695101074191
 20
16.54028663443935
 30
0.0
 41
1.0
  0
SPLINE
  5
92
330
1F
100
AcDbEntity
  8
Default
100
AcDbSpline
210
0.0
220
0.0
230
1.0
 70
    12
 71
     2
 72
     6
 73
     3
 74
     0
 42
0.0000000001
 43
0.0000000001
 40
-0.3334060439454795
 40
-0.3334060439454795
 40
-0.3334060439454795
 40
0.0
 40
0.0
 40
0.0
 10
5.48717450555705
 20
17.38302436324344
 30
0.0
 41
1.0
 10
5.506005578040484
 20
17.21735001946877
 30
0.0
 41
0.999657403781152
 10
5.533439377302571
 20
17.05181423886525
 30
0.0
 41
1.0
  0
ARC
  5
93
330
1F
100
AcDbEntity
  8
Default
100
AcDbCircle
 10
10.03005567867116
 20
11.53680742143872
 30
0.0
 40
1.201617230874027
100
AcDbArc
 50
134.3710968506577
 51
147.7384755294722
  0
ARC
  5
94
330
1F
100
AcDbEntity
  8
Default
100
AcDbCircle
 10
8.568867796199527
 20
13.03042987722437
 30
0.0
 40
0.8878750683003669
100
AcDbArc
 50
314.3710968506578
 51
317.6290580859745
  0
SPLINE
  5
95
330
1F
100
AcDbEntity
  8
Default
100
AcDbSpline
210
0.0
220
0.0
230
1.0
 70
    12
 71
     2
 72
     6
 73
     3
 74
     0
 42
0.0000000001
 43
0.0000000001
 40
0.0
 40
0.0
 40
0.0
 40
0.2852906795196817
 40
0.2852906795196817
 40
0.2852906795196817
 10
8.998878786442134
 20
12.61571221212949
 30
0.0
 41
1.0
 10
9.124653518551053
 20
12.5342959524548
 30
0.0
 41
0.9949452759334962
 10
9.224827432230924
 20
12.43206619783956
 30
0.0
 41
1.0
  0
SPLINE
  5
96
330
1F
100
AcDbEntity
  8
Default
100
AcDbSpline
210
0.0
220
0.0
230
1.0
 70
    12
 71
     2
 72
     6
 73
     3
 74
     0
 42
0.0000000001
 43
0.0000000001
 40
0.0
 40
0.0
 40
0.0
 40
0.0173380954150765
 40
0.0173380954150765
 40
0.0173380954150765
 10
3.932233193652863
 20
16.40486421965898
 30
0.0
 41
1.0
 10
3.923456301530694
 20
16.4042450476169
 30
0.0
 41
0.9780419435713372
 10
3.915694253753244
 20
16.40010164036653
 30
0.0
 41
1.0
  0
POLYLINE
  5
97
330
1F
100
AcDbEntity
  8
Default
100
AcDb2dPolyline
 66
     1
 10
0.0
 20
0.0
 30
0.0
  0
VERTEX
  5
98
330
97
100
AcDbEntity
  8
Default
100
AcDbVertex
100
AcDb2dVertex
 10
3.504806099599179
 20
16.75184632251881
 30
0.0
  0
VERTEX
  5
99
330
97
100
AcDbEntity
  8
Default
100
AcDbVertex
100
AcDb2dVertex
 10
3.903930035944214
 20
16.60625165158066
 30
0.0
  0
SEQEND
  5
9A
330
97
100
AcDbEntity
  8
Default
  0
POLYLINE
  5
9B
330
1F
100
AcDbEntity
  8
Default
100
AcDb2dPolyline
 66
     1
 10
0.0
 20
0.0
 30
0.0
  0
VERTEX
  5
9C
330
9B
100
AcDbEntity
  8
Default
100
AcDbVertex
100
AcDb2dVertex
 10
3.94790886954128
 20
16.29332598843013
 30
0.0
  0
VERTEX
  5
9D
330
9B
100
AcDbEntity
  8
Default
100
AcDbVertex
100
AcDb2dVertex
 10
3.811359375792662
 20
17.2623998001503
 30
0.0
  0
SEQEND
  5
9E
330
9B
100
AcDbEntity
  8
Default
  0
SPLINE
  5
9F
330
1F
100
AcDbEntity
  8
Default
100
AcDbSpline
210
0.0
220
0.0
230
1.0
 70
    12
 71
     2
 72
     6
 73
     3
 74
     0
 42
0.0000000001
 43
0.0000000001
 40
0.5367362653132891
 40
0.5367362653132891
 40
0.5367362653132891
 40
1.16046253457911
 40
1.16046253457911
 40
1.16046253457911
 10
8.48120475143334
 20
18.21031973074422
 30
0.0
 41
0.9999556825401937
 10
8.763123288841006
 20
18.34367674321702
 30
0.0
 41
0.9999520912270546
 10
9.043098803319623
 20
18.48106621079797
 30
0.0
 41
1.0
  0
SPLINE
  5
A0
330
1F
100
AcDbEntity
  8
Default
100
AcDbSpline
210
0.0
220
0.0
230
1.0
 70
     8
 71
     3
 72
     9
 73
     5
 74
     0
 42
0.0000000001
 43
0.0000000001
 40
0.0
 40
0.0
 40
0.0
 40
0.0
 40
1.081584310814043
 40
2.024839522124213
 40
2.024839522124213
 40
2.024839522124213
 40
2.024839522124213
 10
8.082444329208244
 20
18.20375471331804
 30
0.0
 10
7.732099581964036
 20
18.11867197965731
 30
0.0
 10
7.069629578328673
 20
17.98685342411455
 30
0.0
 10
6.39886405737532
 20
17.90853517660656
 30
0.0
 10
6.086083293860042
 20
17.87574597997506
 30
0.0
  0
SPLINE
  5
A1
330
1F
100
AcDbEntity
  8
Default
100
AcDbSpline
210
0.0
220
0.0
230
1.0
 70
    24
 71
     2
 72
     6
 73
     3
 74
     0
 42
0.0000000001
 43
0.0000000001
 40
0.0
 40
0.0
 40
0.0
 40
4.708583355346176
 40
4.708583355346176
 40
4.708583355346176
 10
8.833819485263533
 20
17.32496298453806
 30
0.0
 10
8.916062330676212
 20
14.97033759833377
 30
0.0
 10
8.998305176088891
 20
12.61571221212949
 30
0.0
  0
SPLINE
  5
A2
330
1F
100
AcDbEntity
  8
Default
100
AcDbSpline
210
0.0
220
0.0
230
1.0
 70
     8
 71
     3
 72
    12
 73
     8
 74
     0
 42
0.0000000001
 43
0.0000000001
 40
0.0
 40
0.0
 40
0.0
 40
0.0
 40
0.1062578475434899
 40
0.2103563583966438
 40
0.4429173232980189
 40
0.6749144584257519
 40
0.8870198854941378
 40
0.8870198854941378
 40
0.8870198854941378
 40
0.8870198854941378
 10
8.187257605327503
 20
17.78360406414717
 30
0.0
 10
8.22178768145615
 20
17.79168474351497
 30
0.0
 10
8.291647940887586
 20
17.80048914061057
 30
0.0
 10
8.43971613119821
 20
17.78519336090721
 30
0.0
 10
8.615938037718607
 20
17.70623430226305
 30
0.0
 10
8.776327775906438
 20
17.54161011696555
 30
0.0
 10
8.829818409998566
 20
17.39960140455055
 30
0.0
 10
8.833819485263533
 20
17.32496298453806
 30
0.0
  0
SPLINE
  5
A3
330
1F
100
AcDbEntity
  8
Default
100
AcDbSpline
210
0.0
220
0.0
230
1.0
 70
     8
 71
     3
 72
    11
 73
     7
 74
     0
 42
0.0000000001
 43
0.0000000001
 40
0.0
 40
0.0
 40
0.0
 40
0.0
 40
0.4534921181579492
 40
0.8570613039793787
 40
1.243504075710657
 40
1.643155312824442
 40
1.643155312824442
 40
1.643155312824442
 40
1.643155312824442
 10
8.088590665105954
 20
18.20522417826893
 30
0.0
 10
8.235778086236351
 20
18.23966876949125
 30
0.0
 10
8.529951957679742
 20
18.23202920825867
 30
0.0
 10
8.908124983879944
 20
18.04339322518674
 30
0.0
 10
9.174794574569631
 20
17.74033655681118
 30
0.0
 10
9.258852313645846
 20
17.48488866895881
 30
0.0
 10
9.266041222594566
 20
17.35186570201127
 30
0.0
  0
SPLINE
  5
A4
330
1F
100
AcDbEntity
  8
Default
100
AcDbSpline
210
0.0
220
0.0
230
1.0
 70
    12
 71
     2
 72
     6
 73
     3
 74
     0
 42
0.0000000001
 43
0.0000000001
 40
0.0
 40
0.0
 40
0.0
 40
0.0015672370115101
 40
0.0015672370115101
 40
0.0015672370115101
 10
5.533977467489606
 20
17.0527565501352
 30
0.0
 41
1.0
 10
5.534178114523876
 20
17.0535141099775
 30
0.0
 41
0.9998800978383098
 10
5.534355206285682
 20
17.05427751986409
 30
0.0
 41
1.0
  0
SPLINE
  5
A5
330
1F
100
AcDbEntity
  8
Default
100
AcDbSpline
210
0.0
220
0.0
230
1.0
 70
    12
 71
     2
 72
     6
 73
     3
 74
     0
 42
0.0000000001
 43
0.0000000001
 40
0.0
 40
0.0
 40
0.0
 40
0.9821602023113478
 40
0.9821602023113478
 40
0.9821602023113478
 10
5.521584237825451
 20
17.18331705549573
 30
0.0
 41
1.0
 10
5.994236639776827
 20
17.31723211038944
 30
0.0
 41
0.9994596511961883
 10
6.457069037713524
 20
17.48191272982525
 30
0.0
 41
1.0
  0
SPLINE
  5
A6
330
1F
100
AcDbEntity
  8
Default
100
AcDbSpline
210
0.0
220
0.0
230
1.0
 70
    12
 71
     2
 72
     6
 73
     3
 74
     0
 42
0.0000000001
 43
0.0000000001
 40
0.0
 40
0.0
 40
0.0
 40
0.8811416051574253
 40
0.8811416051574253
 40
0.8811416051574253
 10
10.44948965561284
 20
0.5332730905129921
 30
0.0
 41
1.0
 10
10.43466180598134
 20
0.973594364437665
 30
0.0
 41
0.9999997785560399
 10
10.41924790357224
 20
1.413895512525949
 30
0.0
 41
1.0
  0
SPLINE
  5
A7
330
1F
100
AcDbEntity
  8
Default
100
AcDbSpline
210
0.0
220
0.0
230
1.0
 70
    24
 71
     2
 72
     6
 73
     3
 74
     0
 42
0.0000000001
 43
0.0000000001
 40
0.0
 40
0.0
 40
0.0
 40
0.1115294638954875
 40
0.1115294638954875
 40
0.1115294638954875
 10
3.915694253753244
 20
16.40010164036653
 30
0.0
 10
3.931801561647262
 20
16.34671381439833
 30
0.0
 10
3.94790886954128
 20
16.29332598843013
 30
0.0
  0
SPLINE
  5
A8
330
1F
100
AcDbEntity
  8
Default
100
AcDbSpline
210
0.0
220
0.0
230
1.0
 70
    24
 71
     2
 72
     6
 73
     3
 74
     0
 42
0.0000000001
 43
0.0000000001
 40
0.0
 40
0.0
 40
0.0
 40
15.81361563265581
 40
15.81361563265581
 40
15.81361563265581
 10
9.81836584641323
 20
1.539789735845262
 30
0.0
 10
9.54242223310009
 20
9.441780938486259
 30
0.0
 10
9.266478619786952
 20
17.34377214112726
 30
0.0
  0
SPLINE
  5
A9
330
1F
100
AcDbEntity
  8
Default
100
AcDbSpline
210
0.0
220
0.0
230
1.0
 70
    12
 71
     2
 72
     6
 73
     3
 74
     0
 42
0.0000000001
 43
0.0000000001
 40
0.0
 40
0.0
 40
0.0
 40
0.2497088885855053
 40
0.2497088885855053
 40
0.2497088885855053
 10
-5.182069041942796
 20
16.65427153168923
 30
0.0
 41
1.0
 10
-5.076440974490103
 20
16.5816771199849
 30
0.0
 41
0.9707367384459072
 10
-4.949960033919993
 20
16.56672921539316
 30
0.0
 41
1.0
  0
SPLINE
  5
AA
330
1F
100
AcDbEntity
  8
Default
100
AcDbSpline
210
0.0
220
0.0
230
1.0
 70
    12
 71
     2
 72
     6
 73
     3
 74
     0
 42
0.0000000001
 43
0.0000000001
 40
0.0
 40
0.0
 40
0.0
 40
0.0393067456422581
 40
0.0393067456422581
 40
0.0393067456422581
 10
-5.188029908016006
 20
16.61571825370588
 30
0.0
 41
1.0
 10
-5.185434362767452
 20
16.63504706428589
 30
0.0
 41
0.9999997988105347
 10
-5.182069041942789
 20
16.65427153168923
 30
0.0
 41
0.99999999690695
  0
SPLINE
  5
AB
330
1F
100
AcDbEntity
  8
Default
100
AcDbSpline
210
0.0
220
0.0
230
1.0
 70
    12
 71
     2
 72
     6
 73
     3
 74
     0
 42
0.0000000001
 43
0.0000000001
 40
0.0
 40
0.0
 40
0.0
 40
0.2508277888405657
 40
0.2508277888405657
 40
0.2508277888405657
 10
-4.956788669905052
 20
16.52537207618728
 30
0.0
 41
1.0
 10
-5.083849262255675
 20
16.54126452838419
 30
0.0
 41
0.9693972343546567
 10
-5.188029908016006
 20
16.61571825370588
 30
0.0
 41
1.0
  0
ARC
  5
AC
330
1F
100
AcDbEntity
  8
Default
100
AcDbCircle
 10
-2.803599030384632
 20
34.36591679755294
 30
0.0
 40
17.97001006062006
100
AcDbArc
 50
263.118211639235
 51
265.1868008652684
  0
ARC
  5
AD
330
1F
100
AcDbEntity
  8
Default
100
AcDbCircle
 10
80.17860930562385
 20
5.667393088065154
 30
0.0
 40
85.1764586819801
100
AcDbArc
 50
172.6963781068093
 51
172.7210427360339
  0
LINE
  5
AE
330
1F
100
AcDbEntity
  8
Default
100
AcDbLine
 10
-4.305703831663337
 20
16.50390621067401
 30
0.0
 11
-4.306762372500387
 21
16.49564714918999
 31
0.0
  0
ARC
  5
AF
330
1F
100
AcDbEntity
  8
Default
100
AcDbCircle
 10
-2.738752071690101
 20
35.90802079391424
 30
0.0
 40
19.46728025630697
100
AcDbArc
 50
263.477933088538
 51
265.3831788203983
  0
SPLINE
  5
B0
330
1F
100
AcDbEntity
  8
Default
100
AcDbSpline
210
0.0
220
0.0
230
1.0
 70
    24
 71
     2
 72
     6
 73
     3
 74
     0
 42
0.0000000001
 43
0.0000000001
 40
0.0
 40
0.0
 40
0.0
 40
0.1686969534964888
 40
0.1686969534964888
 40
0.1686969534964888
 10
3.852011440156645
 20
17.04061717031546
 30
0.0
 10
3.835948116211014
 20
17.12342197182822
 30
0.0
 10
3.819884792265384
 20
17.20622677334098
 30
0.0
  0
SPLINE
  5
B1
330
1F
100
AcDbEntity
  8
Default
100
AcDbSpline
210
0.0
220
0.0
230
1.0
 70
    12
 71
     2
 72
     6
 73
     3
 74
     0
 42
0.0000000001
 43
0.0000000001
 40
0.0
 40
0.0
 40
0.0
 40
0.1797454813701551
 40
0.1797454813701551
 40
0.1797454813701551
 10
3.982068932049046
 20
16.93963917367777
 30
0.0
 41
1.0
 10
3.872850923163011
 20
16.93321334997703
 30
0.0
 41
0.7524925652658285
 10
3.852011440156645
 20
17.04061717031546
 30
0.0
 41
1.0
  0
SPLINE
  5
B2
330
1F
100
AcDbEntity
  8
Default
100
AcDbSpline
210
0.0
220
0.0
230
1.0
 70
    12
 71
     2
 72
     6
 73
     3
 74
     0
 42
0.0000000001
 43
0.0000000001
 40
-0.8819556308869502
 40
-0.8819556308869502
 40
-0.8819556308869502
 40
0.0
 40
0.0
 40
0.0
 10
4.862077000188933
 20
16.99809166246802
 30
0.0
 41
1.0
 10
4.422294089423824
 20
16.96553638459066
 30
0.0
 41
0.9999713796876327
 10
3.982068932049046
 20
16.93963917367777
 30
0.0
 41
1.0
  0
ARC
  5
B3
330
1F
100
AcDbEntity
  8
Default
100
AcDbCircle
 10
4.825118118334004
 20
17.49673146845446
 30
0.0
 40
0.5000076150041797
100
AcDbArc
 50
274.2389774450763
 51
334.0663292787148
  0
ARC
  5
B4
330
1F
100
AcDbEntity
  8
Default
100
AcDbCircle
 10
4.668216771955855
 20
17.57303264710373
 30
0.0
 40
0.6744779630824255
100
AcDbArc
 50
334.0663292787141
 51
342.1128109109637
  0
SPLINE
  5
B5
330
1F
100
AcDbEntity
  8
Default
100
AcDbSpline
210
0.0
220
0.0
230
1.0
 70
    24
 71
     2
 72
     6
 73
     3
 74
     0
 42
0.0000000001
 43
0.0000000001
 40
0.0028413556211521
 40
0.0028413556211521
 40
0.0028413556211521
 40
10.6629383564886
 40
10.6629383564886
 40
10.6629383564886
 10
9.01358301274152
 20
12.17821221212949
 30
0.0
 10
9.199599022806616
 20
6.851410633229136
 30
0.0
 10
9.385615032871712
 20
1.524609054328785
 30
0.0
  0
SPLINE
  5
B6
330
1F
100
AcDbEntity
  8
Default
100
AcDbSpline
210
0.0
220
0.0
230
1.0
 70
    12
 71
     2
 72
    18
 73
    15
 74
     0
 42
0.0000000001
 43
0.0000000001
 40
0.0
 40
0.0
 40
0.0
 40
0.3242139027855036
 40
0.3242139027855036
 40
0.515932164585932
 40
0.515932164585932
 40
0.7262946757684461
 40
0.7262946757684461
 40
0.9101505668782213
 40
0.9101505668782213
 40
1.082651277134167
 40
1.082651277134167
 40
1.207427770769314
 40
1.207427770769314
 40
1.256354410854803
 40
1.256354410854803
 40
1.256354410854803
 10
9.81836584641323
 20
1.539789735845262
 30
0.0
 41
1.0
 10
9.829411239120166
 20
1.376333937784989
 30
0.0
 41
0.9843113434208393
 10
9.896544371816859
 20
1.226891838248419
 30
0.0
 41
1.0
 10
9.934267212976092
 20
1.138653467389244
 30
0.0
 41
0.9983670127300864
 10
9.981808688170545
 20
1.055293819037413
 30
0.0
 41
1.0
 10
10.0338589545423
 20
0.9638149950328557
 30
0.0
 41
0.9990176519269051
 10
10.09380441731824
 20
0.8773040306225255
 30
0.0
 41
1.0
 10
10.14610865884689
 20
0.8016713723404904
 30
0.0
 41
0.9995311995311507
 10
10.2029439131898
 20
0.7293817704293558
 30
0.0
 41
1.0
 10
10.25623429433151
 20
0.6615404751758215
 30
0.0
 41
0.999679299175703
 10
10.31289123280301
 20
0.5964843656476366
 30
0.0
 41
1.0
 10
10.35383352856686
 20
0.549398897300315
 30
0.0
 41
0.9998035906119707
 10
10.39660963906765
 20
0.5039729434597576
 30
0.0
 41
1.0
 10
10.41337368138665
 20
0.4861544274314659
 30
0.0
 41
0.9999015077900728
 10
10.43063122774414
 20
0.4688134435481026
 30
0.0
 41
1.0
  0
SPLINE
  5
B7
330
1F
100
AcDbEntity
  8
Default
100
AcDbSpline
210
0.0
220
0.0
230
1.0
 70
    12
 71
     2
 72
     6
 73
     3
 74
     0
 42
0.0000000001
 43
0.0000000001
 40
0.0
 40
0.0
 40
0.0
 40
1.896879750639666
 40
1.896879750639666
 40
1.896879750639666
 10
5.435736722601206
 20
16.72172136960443
 30
0.0
 41
1.0
 10
6.33515386579827
 20
17.0384437320298
 30
0.0
 41
0.9919753430902843
 10
7.126372109727654
 20
17.57064476811519
 30
0.0
 41
1.0
  0
SPLINE
  5
B8
330
1F
100
AcDbEntity
  8
Default
100
AcDbSpline
210
0.0
220
0.0
230
1.0
 70
     8
 71
     3
 72
    11
 73
     7
 74
     0
 42
0.0000000001
 43
0.0000000001
 40
0.0
 40
0.0
 40
0.0
 40
0.0
 40
0.0464584992306436
 40
0.094096761779655
 40
0.1892134414676934
 40
0.4090795522264841
 40
0.4090795522264841
 40
0.4090795522264841
 40
0.4090795522264841
 10
-9.172189572105268
 20
19.05253198453973
 30
0.0
 10
-9.187047297146023
 20
19.04835432752773
 30
0.0
 10
-9.216647373052794
 20
19.03706299682994
 30
0.0
 10
-9.270910970674862
 20
19.0051119895696
 30
0.0
 10
-9.35402641697479
 20
18.91292092875765
 30
0.0
 10
-9.374174773537888
 20
18.80489042242822
 30
0.0
 10
-9.376707930147433
 20
18.73232719829413
 30
0.0
  0
SPLINE
  5
B9
330
1F
100
AcDbEntity
  8
Default
100
AcDbSpline
210
0.0
220
0.0
230
1.0
 70
     8
 71
     3
 72
    11
 73
     7
 74
     0
 42
0.0000000001
 43
0.0000000001
 40
0.0
 40
0.0
 40
0.0
 40
0.0
 40
0.1508033255554565
 40
0.2936437639651817
 40
0.563936443460426
 40
1.101486738075395
 40
1.101486738075395
 40
1.101486738075395
 40
1.101486738075395
 10
-9.813984072051795
 20
18.74638375536079
 30
0.0
 10
-9.81232645975497
 20
18.79684541934151
 30
0.0
 10
-9.80161172530471
 20
18.89487523698324
 30
0.0
 10
-9.752610538046127
 20
19.07626890594372
 30
0.0
 10
-9.592096016260754
 20
19.35749787959669
 30
0.0
 10
-9.331663402041372
 20
19.48445313170588
 30
0.0
 10
-9.153388497600204
 20
19.49948126982163
 30
0.0
  0
SPLINE
  5
BA
330
1F
100
AcDbEntity
  8
Default
100
AcDbSpline
210
0.0
220
0.0
230
1.0
 70
    24
 71
     2
 72
     6
 73
     3
 74
     0
 42
0.0000000001
 43
0.0000000001
 40
0.0
 40
0.0
 40
0.0
 40
17.34183860043975
 40
17.34183860043975
 40
17.34183860043975
 10
-10.41921966149431
 20
1.414704121571879
 30
0.0
 10
-10.11660186677305
 20
10.08054393846633
 30
0.0
 10
-9.813984072051795
 20
18.74638375536079
 30
0.0
  0
LINE
  5
BB
330
1F
100
AcDbEntity
  8
Default
100
AcDbLine
 10
-9.377145966027456
 20
18.71979300234409
 30
0.0
 11
-9.994790555334276
 21
1.032766104167178
 31
0.0
  0
SPLINE
  5
BC
330
1F
100
AcDbEntity
  8
Default
100
AcDbSpline
210
0.0
220
0.0
230
1.0
 70
    24
 71
     2
 72
     6
 73
     3
 74
     0
 42
0.0000000001
 43
0.0000000001
 40
0.0028413556211521
 40
0.0028413556211521
 40
0.0028413556211521
 40
10.6629383564886
 40
10.6629383564886
 40
10.6629383564886
 10
-9.01358300091428
 20
12.17821221212949
 30
0.0
 10
-9.199599010979377
 20
6.851410633229136
 30
0.0
 10
-9.385615021044472
 20
1.524609054328785
 30
0.0
  0
POLYLINE
  5
BD
330
1F
100
AcDbEntity
  8
Default
100
AcDb2dPolyline
 66
     1
 10
0.0
 20
0.0
 30
0.0
  0
VERTEX
  5
BE
330
BD
100
AcDbEntity
  8
Default
100
AcDbVertex
100
AcDb2dVertex
 10
-3.94790885771404
 20
16.29332598843013
 30
0.0
  0
VERTEX
  5
BF
330
BD
100
AcDbEntity
  8
Default
100
AcDbVertex
100
AcDb2dVertex
 10
-3.811359363965423
 20
17.2623998001503
 30
0.0
  0
SEQEND
  5
C0
330
BD
100
AcDbEntity
  8
Default
  0
SPLINE
  5
C1
330
1F
100
AcDbEntity
  8
Default
100
AcDbSpline
210
0.0
220
0.0
230
1.0
 70
    12
 71
     3
 72
    17
 73
    13
 74
     0
 42
0.0000000001
 43
0.0000000001
 40
0.0
 40
0.0
 40
0.0
 40
0.0
 40
0.2666889048665558
 40
0.2666889048665558
 40
0.2666889048665558
 40
0.5434599382612618
 40
0.5974398554719312
 40
0.6792622619103524
 40
0.9904800976972297
 40
1.617092231315321
 40
1.885694735778084
 40
2.119352715452405
 40
2.119352715452405
 40
2.119352715452405
 40
2.119352715452405
 10
-10.4306312159169
 20
0.4688134435481026
 30
0.0
 41
1.0
 10
-10.474236269429
 20
0.3811639612010567
 30
0.0
 41
0.879927745846642
 10
-10.45923954913845
 20
0.2874711595345999
 30
0.0
 41
0.879927745846642
 10
-10.39330294365541
 20
0.2192391129598106
 30
0.0
 41
1.0
 10
-10.33029513080646
 20
0.1512524073706399
 30
0.0
 41
1.0
 10
-10.19863492270035
 20
0.1293309469969385
 30
0.0
 41
1.0
 10
-10.08506385002504
 20
0.2099900146644794
 30
0.0
 41
1.0
 10
-9.983312768188824
 20
0.3191837096034519
 30
0.0
 41
1.0
 10
-9.763016890847865
 20
0.5774749683331186
 30
0.0
 41
1.0
 10
-9.543622329337126
 20
0.9182953319200431
 30
0.0
 41
1.0
 10
-9.413460394227073
 20
1.273022708579472
 30
0.0
 41
1.0
 10
-9.388827501902284
 20
1.439676276213217
 30
0.0
 41
1.0
 10
-9.385864967152514
 20
1.517451847324737
 30
0.0
 41
1.0
  0
SPLINE
  5
C2
330
1F
100
AcDbEntity
  8
Default
100
AcDbSpline
210
0.0
220
0.0
230
1.0
 70
    24
 71
     2
 72
     6
 73
     3
 74
     0
 42
0.0000000001
 43
0.0000000001
 40
0.0
 40
0.0
 40
0.0
 40
4.708583355346176
 40
4.708583355346176
 40
4.708583355346176
 10
-8.833819473436293
 20
17.32496298453806
 30
0.0
 10
-8.916062318848972
 20
14.97033759833377
 30
0.0
 10
-8.998305164261652
 20
12.61571221212949
 30
0.0
  0
SPLINE
  5
C3
330
1F
100
AcDbEntity
  8
Default
100
AcDbSpline
210
0.0
220
0.0
230
1.0
 70
     8
 71
     3
 72
    12
 73
     8
 74
     0
 42
0.0000000001
 43
0.0000000001
 40
0.0
 40
0.0
 40
0.0
 40
0.0
 40
0.1062578475434899
 40
0.2103563583966438
 40
0.4429173232980189
 40
0.6749144584257519
 40
0.8870198854941378
 40
0.8870198854941378
 40
0.8870198854941378
 40
0.8870198854941378
 10
-8.187257593500249
 20
17.78360406414717
 30
0.0
 10
-8.221787669628924
 20
17.79168474351497
 30
0.0
 10
-8.291647929060346
 20
17.80048914061057
 30
0.0
 10
-8.43971611937097
 20
17.78519336090721
 30
0.0
 10
-8.615938025891381
 20
17.70623430226305
 30
0.0
 10
-8.776327764079198
 20
17.54161011696555
 30
0.0
 10
-8.829818398171327
 20
17.39960140455055
 30
0.0
 10
-8.833819473436293
 20
17.32496298453806
 30
0.0
  0
SPLINE
  5
C4
330
1F
100
AcDbEntity
  8
Default
100
AcDbSpline
210
0.0
220
0.0
230
1.0
 70
    12
 71
     2
 72
     6
 73
     3
 74
     0
 42
0.0000000001
 43
0.0000000001
 40
0.5367362653132901
 40
0.5367362653132901
 40
0.5367362653132901
 40
1.16046253457911
 40
1.16046253457911
 40
1.16046253457911
 10
8.48120475143334
 20
18.21031973074422
 30
0.0
 41
0.9999556825401937
 10
8.763123288841006
 20
18.34367674321702
 30
0.0
 41
0.9999520912270546
 10
9.043098803319623
 20
18.48106621079797
 30
0.0
 41
1.0
  0
SPLINE
  5
C5
330
1F
100
AcDbEntity
  8
Default
100
AcDbSpline
210
0.0
220
0.0
230
1.0
 70
     8
 71
     3
 72
    11
 73
     7
 74
     0
 42
0.0000000001
 43
0.0000000001
 40
-3.686334082119029
 40
-3.686334082119029
 40
-3.686334082119029
 40
-3.686334082119029
 40
-1.72869259828159
 40
-0.8330206311073163
 40
-0.4136017952176811
 40
0.0
 40
0.0
 40
0.0
 40
0.0
 10
0.0000000059136198
 20
16.38450837052897
 30
0.0
 10
-0.6524821320203245
 20
16.38461946248637
 30
0.0
 10
-1.603935738658151
 20
16.4181053933566
 30
0.0
 10
-2.68904796558374
 20
16.53402301956629
 30
0.0
 10
-3.259062488118303
 20
16.61883820249163
 30
0.0
 10
-3.532457744316687
 20
16.66755791819061
 30
0.0
 10
-3.667791511059676
 20
16.69387160610849
 30
0.0
  0
SPLINE
  5
C6
330
1F
100
AcDbEntity
  8
Default
100
AcDbSpline
210
0.0
220
0.0
230
1.0
 70
     8
 71
     3
 72
    11
 73
     7
 74
     0
 42
0.0000000001
 43
0.0000000001
 40
0.0
 40
0.0
 40
0.0
 40
0.0
 40
0.4136017952176811
 40
0.8330206311073163
 40
1.72869259828159
 40
3.686334082119029
 40
3.686334082119029
 40
3.686334082119029
 40
3.686334082119029
 10
3.667791522886915
 20
16.69387160610849
 30
0.0
 10
3.532457756143927
 20
16.66755791819061
 30
0.0
 10
3.259062499945543
 20
16.61883820249163
 30
0.0
 10
2.689047977410979
 20
16.53402301956629
 30
0.0
 10
1.603935750485391
 20
16.4181053933566
 30
0.0
 10
0.6524821438475641
 20
16.38461946248637
 30
0.0
 10
0.0000000059136198
 20
16.38450837052897
 30
0.0
  0
SPLINE
  5
C7
330
1F
100
AcDbEntity
  8
Default
100
AcDbSpline
210
0.0
220
0.0
230
1.0
 70
     8
 71
     3
 72
    11
 73
     7
 74
     0
 42
0.0000000001
 43
0.0000000001
 40
0.0
 40
0.0
 40
0.0
 40
0.0
 40
0.5450957521140577
 40
1.073357482598732
 40
2.109452048126138
 40
3.957237125949674
 40
3.957237125949674
 40
3.957237125949674
 40
3.957237125949674
 10
0.0000000059136198
 20
15.94700837053159
 30
0.0
 10
0.1817158441921691
 20
15.94701123166948
 30
0.0
 10
0.5394561136846079
 20
15.95047287823762
 30
0.0
 10
1.242383382146528
 20
15.97222620856966
 30
0.0
 10
2.377617893722061
 20
16.04464352229923
 30
0.0
 10
3.331417914056487
 20
16.17542688809059
 30
0.0
 10
3.934487544691066
 20
16.30136550020212
 30
0.0
  0
SPLINE
  5
C8
330
1F
100
AcDbEntity
  8
Default
100
AcDbSpline
210
0.0
220
0.0
230
1.0
 70
     8
 71
     3
 72
    11
 73
     7
 74
     0
 42
0.0000000001
 43
0.0000000001
 40
-3.957237125949674
 40
-3.957237125949674
 40
-3.957237125949674
 40
-3.957237125949674
 40
-2.109452048126138
 40
-1.073357482598732
 40
-0.5450957521140577
 40
0.0
 40
0.0
 40
0.0
 40
0.0
 10
-3.934487532863827
 20
16.30136550020212
 30
0.0
 10
-3.331417902229248
 20
16.17542688809059
 30
0.0
 10
-2.377617881894821
 20
16.04464352229923
 30
0.0
 10
-1.242383370319288
 20
15.97222620856966
 30
0.0
 10
-0.5394561018573683
 20
15.95047287823762
 30
0.0
 10
-0.1817158323649295
 20
15.94701123166948
 30
0.0
 10
0.0000000059136198
 20
15.94700837053159
 30
0.0
  0
ARC
  5
C9
330
1F
100
AcDbEntity
  8
Default
100
AcDbCircle
 10
-10.45625057977352
 20
0.4927761690350221
 30
0.0
 40
0.0350793959067026
100
AcDbArc
 50
316.9136565341582
 51
40.85808201392754
  0
ARC
  5
CA
330
1F
100
AcDbEntity
  8
Default
100
AcDbCircle
 10
-10.4755317565472
 20
0.4760989650079961
 30
0.0
 40
0.0605723932184462
100
AcDbArc
 50
40.85808201392926
 51
88.66372450246797
  0
ARC
  5
CB
330
1F
100
AcDbEntity
  8
Default
100
AcDbCircle
 10
-10.47502978459082
 20
0.4976182248606716
 30
0.0
 40
0.0390472795032539
100
AcDbArc
 50
88.66372450246692
 51
148.3957720065995
  0
SPLINE
  5
CC
330
1F
100
AcDbEntity
  8
Default
100
AcDbSpline
210
0.0
220
0.0
230
1.0
 70
    12
 71
     2
 72
     6
 73
     3
 74
     0
 42
0.0000000001
 43
0.0000000001
 40
-0.1497768937663166
 40
-0.1497768937663166
 40
-0.1497768937663166
 40
0.0
 40
0.0
 40
0.0
 10
-10.545989010133
 20
0.3724998610707735
 30
0.0
 41
1.0
 10
-10.54537459963893
 20
0.4488776444080688
 30
0.0
 41
0.9709588602062039
 10
-10.50828589434904
 20
0.5180809030909025
 30
0.0
 41
1.0
  0
SPLINE
  5
CD
330
1F
100
AcDbEntity
  8
Default
100
AcDbSpline
210
0.0
220
0.0
230
1.0
 70
    12
 71
     2
 72
    14
 73
    11
 74
     0
 42
0.0000000001
 43
0.0000000001
 40
-0.0377388910180526
 40
-0.0377388910180526
 40
-0.0377388910180526
 40
0.1594995282360696
 40
0.1594995282360696
 40
0.442890158773121
 40
0.442890158773121
 40
0.7089673713477064
 40
0.7089673713477064
 40
0.9941018613045786
 40
0.9941018613045786
 40
1.15360142612721
 40
1.15360142612721
 40
1.15360142612721
 10
-9.926000000035884
 20
0.3880346511982619
 30
0.0
 41
1.0
 10
-9.926000000035415
 20
0.288642561466971
 30
0.0
 41
1.0
 10
-9.926000000034946
 20
0.1892504717356801
 30
0.0
 41
1.0
 10
-9.925991943701979
 20
0.0115477872781985
 30
0.0
 41
0.7291096165445335
 10
-10.10209135059162
 20
0.0003876434457031
 30
0.0
 41
1.0
 10
-10.23512994666996
 20
0.0003355246250893
 30
0.0
 41
1.0
 10
-10.36816854274829
 20
0.0002834058044755
 30
0.0
 41
1.0
 10
-10.54600702544966
 20
0.0099020249389798
 30
0.0
 41
0.7259366150019833
 10
-10.54600000003633
 20
0.1892504351343685
 30
0.0
 41
1.0
 10
-10.546000000036
 20
0.2696252175455471
 30
0.0
 41
1.0
 10
-10.545989010133
 20
0.3724998610707735
 30
0.0
 41
1.0
  0
SPLINE
  5
CE
330
1F
100
AcDbEntity
  8
Default
100
AcDbSpline
210
0.0
220
0.0
230
1.0
 70
    12
 71
     2
 72
     6
 73
     3
 74
     0
 42
0.0000000001
 43
0.0000000001
 40
0.0
 40
0.0
 40
0.0
 40
3.517041458982458
 40
3.517041458982458
 40
3.517041458982458
 10
0.0000000059136198
 20
16.49900793883077
 30
0.0
 41
1.0
 10
1.761654588446159
 20
16.49718383275292
 30
0.0
 41
0.9973329495787826
 10
3.504806099599179
 20
16.75184632251881
 30
0.0
 41
1.0
  0
SPLINE
  5
CF
330
1F
100
AcDbEntity
  8
Default
100
AcDbSpline
210
0.0
220
0.0
230
1.0
 70
    12
 71
     2
 72
     6
 73
     3
 74
     0
 42
0.0000000001
 43
0.0000000001
 40
-3.517041458982458
 40
-3.517041458982458
 40
-3.517041458982458
 40
0.0
 40
0.0
 40
0.0
 10
-3.504806087771939
 20
16.75184632251881
 30
0.0
 41
1.0
 10
-1.761654576618918
 20
16.49718383275292
 30
0.0
 41
0.9973329495787826
 10
0.0000000059136198
 20
16.49900793883077
 30
0.0
 41
1.0
  0
ARC
  5
D0
330
1F
100
AcDbEntity
  8
Default
100
AcDbCircle
 10
8.676763230727744
 20
18.73675848310812
 30
0.0
 40
0.4767832321942155
100
AcDbArc
 50
339.2143143589327
 51
347.9747141935242
  0
ARC
  5
D1
330
1F
100
AcDbEntity
  8
Default
100
AcDbCircle
 10
8.974349756138906
 20
18.62380103324803
 30
0.0
 40
0.1584797204555228
100
AcDbArc
 50
296.6886776472851
 51
339.2143143589349
  0
ARC
  5
D2
330
1F
100
AcDbEntity
  8
Default
100
AcDbCircle
 10
5.570431042129428
 20
28.81896611214135
 30
0.0
 40
10.90527057606768
100
AcDbArc
 50
286.6791934460358
 51
288.5820461805268
  0
ARC
  5
D3
330
1F
100
AcDbEntity
  8
Default
100
AcDbCircle
 10
7.011265593977214
 20
24.01007043592724
 30
0.0
 40
5.885162825181336
100
AcDbArc
 50
282.0424381334864
 51
286.6791934460358
  0
SPLINE
  5
D4
330
1F
100
AcDbEntity
  8
Default
100
AcDbSpline
210
0.0
220
0.0
230
1.0
 70
     8
 71
     3
 72
    11
 73
     7
 74
     0
 42
0.0000000001
 43
0.0000000001
 40
0.0
 40
0.0
 40
0.0
 40
0.0
 40
1.117145790588472
 40
2.244382141007875
 40
4.386439640998885
 40
8.289804655665163
 40
8.289804655665163
 40
8.289804655665163
 40
8.289804655665163
 10
0.0000000059136198
 20
17.49207349599002
 30
0.0
 10
0.3724032069178804
 20
17.49152029426412
 30
0.0
 10
1.120485132398017
 20
17.49753863838383
 30
0.0
 10
2.582170743089307
 20
17.54075291823441
 30
0.0
 10
4.968541929071989
 20
17.69636097781257
 30
0.0
 10
6.966390499583952
 20
17.98290728623979
 30
0.0
 10
8.239123208662107
 20
18.25442041555971
 30
0.0
  0
SPLINE
  5
D5
330
1F
100
AcDbEntity
  8
Default
100
AcDbSpline
210
0.0
220
0.0
230
1.0
 70
     8
 71
     3
 72
    11
 73
     7
 74
     0
 42
0.0000000001
 43
0.0000000001
 40
-8.289804655665163
 40
-8.289804655665163
 40
-8.289804655665163
 40
-8.289804655665163
 40
-4.386439640998885
 40
-2.244382141007875
 40
-1.117145790588472
 40
0.0
 40
0.0
 40
0.0
 40
0.0
 10
-8.239123196834868
 20
18.25442041555971
 30
0.0
 10
-6.966390487756712
 20
17.98290728623979
 30
0.0
 10
-4.96854191724475
 20
17.69636097781257
 30
0.0
 10
-2.582170731262067
 20
17.54075291823441
 30
0.0
 10
-1.120485120570777
 20
17.49753863838383
 30
0.0
 10
-0.3724031950906408
 20
17.49152029426412
 30
0.0
 10
0.0000000059136198
 20
17.49207349599002
 30
0.0
  0
ARC
  5
D6
330
1F
100
AcDbEntity
  8
Default
100
AcDbCircle
 10
-7.011265582149974
 20
24.01007043592724
 30
0.0
 40
5.885162825181336
100
AcDbArc
 50
253.3208065539642
 51
257.9575618665136
  0
ARC
  5
D7
330
1F
100
AcDbEntity
  8
Default
100
AcDbCircle
 10
-5.570431030302188
 20
28.81896611214135
 30
0.0
 40
10.90527057606768
100
AcDbArc
 50
251.4179538194732
 51
253.3208065539642
  0
ARC
  5
D8
330
1F
100
AcDbEntity
  8
Default
100
AcDbCircle
 10
-8.974349744311667
 20
18.62380103324803
 30
0.0
 40
0.1584797204555228
100
AcDbArc
 50
200.7856856410651
 51
243.3113223527142
  0
ARC
  5
D9
330
1F
100
AcDbEntity
  8
Default
100
AcDbCircle
 10
-8.676763218900504
 20
18.73675848310812
 30
0.0
 40
0.4767832321942155
100
AcDbArc
 50
192.0252858064753
 51
200.7856856410668
  0
SPLINE
  5
DA
330
1F
100
AcDbEntity
  8
Default
100
AcDbSpline
210
0.0
220
0.0
230
1.0
 70
     8
 71
     3
 72
    11
 73
     7
 74
     0
 42
0.0000000001
 43
0.0000000001
 40
-8.734236464915913
 40
-8.734236464915913
 40
-8.734236464915913
 40
-8.734236464915913
 40
-4.028826996229559
 40
-1.579145115981618
 40
-0.5807161227333388
 40
0.0
 40
0.0
 40
0.0
 40
0.0
 10
0.0000000059136198
 20
17.96837880275526
 30
0.0
 10
-1.568426582209526
 20
17.96629665384439
 30
0.0
 10
-3.953919743243716
 20
18.0400066168627
 30
0.0
 10
-6.661035785639513
 20
18.29022106286068
 30
0.0
 10
-7.99348247434861
 20
18.45790677079006
 30
0.0
 10
-8.512859199937651
 20
18.54521315666081
 30
0.0
 10
-8.70071168856245
 20
18.59248857106611
 30
0.0
  0
SPLINE
  5
DB
330
1F
100
AcDbEntity
  8
Default
100
AcDbSpline
210
0.0
220
0.0
230
1.0
 70
     8
 71
     3
 72
    11
 73
     7
 74
     0
 42
0.0000000001
 43
0.0000000001
 40
0.0
 40
0.0
 40
0.0
 40
0.0
 40
0.5807161227333388
 40
1.579145115981618
 40
4.028826996229559
 40
8.734236464915913
 40
8.734236464915913
 40
8.734236464915913
 40
8.734236464915913
 10
8.70071170038969
 20
18.59248857106611
 30
0.0
 10
8.51285921176489
 20
18.54521315666081
 30
0.0
 10
7.99348248617585
 20
18.45790677079006
 30
0.0
 10
6.661035797466752
 20
18.29022106286068
 30
0.0
 10
3.953919755070956
 20
18.0400066168627
 30
0.0
 10
1.568426594036765
 20
17.96629665384439
 30
0.0
 10
0.0000000059136198
 20
17.96837880275526
 30
0.0
  0
ARC
  5
DC
330
1F
100
AcDbEntity
  8
Default
100
AcDbCircle
 10
63.85904568271555
 20
37.36089653735418
 30
0.0
 40
56.53701087835524
100
AcDbArc
 50
185.4100560170273
 51
187.5484017682238
  0
SPLINE
  5
DD
330
1F
100
AcDbEntity
  8
Default
100
AcDbSpline
210
0.0
220
0.0
230
1.0
 70
     8
 71
     3
 72
    23
 73
    19
 74
     0
 42
0.0000000001
 43
0.0000000001
 40
0.0
 40
0.0
 40
0.0
 40
0.0
 40
0.1143499834053041
 40
0.2521911721077188
 40
0.4054342416030434
 40
0.4870405797229443
 40
0.5504869057075638
 40
0.5831373980459477
 40
0.6276874961547436
 40
0.6748850320902328
 40
0.7579104400587644
 40
0.946943201027295
 40
1.528295460971046
 40
2.42112832591297
 40
3.809294555456245
 40
4.522153002375717
 40
8.329327274556412
 40
11.91967701549755
 40
11.91967701549755
 40
11.91967701549755
 40
11.91967701549755
 10
8.471104643552508
 20
18.51242356077649
 30
0.0
 10
8.506651726777221
 20
18.52621107371142
 30
0.0
 10
8.586475676911675
 20
18.55265114206903
 30
0.0
 10
8.715958260900436
 20
18.59134735058485
 30
0.0
 10
8.834800131981922
 20
18.62758195111138
 30
0.0
 10
8.928933303253274
 20
18.65962589936546
 30
0.0
 10
8.98502975268974
 20
18.67854811130319
 30
0.0
 10
9.028607519647238
 20
18.69666186183779
 30
0.0
 10
9.053827706358902
 20
18.73218607666481
 30
0.0
 10
9.075839448087578
 20
18.7852218059496
 30
0.0
 10
9.099785450884923
 20
18.8898678713572
 30
0.0
 10
9.122949481178381
 20
19.17348993030127
 30
0.0
 10
9.104281940287734
 20
19.72850162217138
 30
0.0
 10
9.01342702351161
 20
20.67809284379878
 30
0.0
 10
8.896030508920546
 20
21.6693541714837
 30
0.0
 10
8.640856768918496
 20
23.62206916168862
 30
0.0
 10
8.282864127340332
 20
26.30175697183429
 30
0.0
 10
7.969184754581732
 20
28.74757335375397
 30
0.0
 10
7.811970803201973
 20
29.93398624373556
 30
0.0
  0
SPLINE
  5
DE
330
1F
100
AcDbEntity
  8
Default
100
AcDbSpline
210
0.0
220
0.0
230
1.0
 70
     8
 71
     3
 72
    13
 73
     9
 74
     0
 42
0.0000000001
 43
0.0000000001
 40
0.0
 40
0.0
 40
0.0
 40
0.0
 40
0.9999988183748261
 40
1.999999054699861
 40
2.999999291024896
 40
3.99999952734993
 40
4.999999763674965
 40
6.0
 40
6.0
 40
6.0
 40
6.0
 10
0.0000000059136198
 20
17.68625394518489
 30
0.0
 10
0.473822012927883
 20
17.68609210648578
 30
0.0
 10
1.421484904173013
 20
17.69752203758089
 30
0.0
 10
2.841972036769931
 20
17.75447892682593
 30
0.0
 10
4.259968857333178
 20
17.85676324061088
 30
0.0
 10
5.673248383269851
 20
18.01189106924254
 30
0.0
 10
7.078985925324531
 20
18.22442790550144
 30
0.0
 10
8.00967755782645
 20
18.40465361984092
 30
0.0
 10
8.471104643552508
 20
18.51242356077649
 30
0.0
  0
SPLINE
  5
DF
330
1F
100
AcDbEntity
  8
Default
100
AcDbSpline
210
0.0
220
0.0
230
1.0
 70
     8
 71
     3
 72
    13
 73
     9
 74
     0
 42
0.0000000001
 43
0.0000000001
 40
-6.0
 40
-6.0
 40
-6.0
 40
-6.0
 40
-4.999999763674965
 40
-3.99999952734993
 40
-2.999999291024896
 40
-1.999999054699861
 40
-0.9999988183748261
 40
0.0
 40
0.0
 40
0.0
 40
0.0
 10
-8.471104631725268
 20
18.51242356077649
 30
0.0
 10
-8.00967754599921
 20
18.40465361984092
 30
0.0
 10
-7.078985913497291
 20
18.22442790550144
 30
0.0
 10
-5.673248371442611
 20
18.01189106924254
 30
0.0
 10
-4.259968845505938
 20
17.85676324061088
 30
0.0
 10
-2.841972024942692
 20
17.75447892682593
 30
0.0
 10
-1.421484892345774
 20
17.69752203758089
 30
0.0
 10
-0.4738220011006433
 20
17.68609210648578
 30
0.0
 10
0.0000000059136198
 20
17.68625394518489
 30
0.0
  0
SPLINE
  5
E0
330
1F
100
AcDbEntity
  8
Default
100
AcDbSpline
210
0.0
220
0.0
230
1.0
 70
     8
 71
     3
 72
    23
 73
    19
 74
     0
 42
0.0000000001
 43
0.0000000001
 40
-11.91967701549755
 40
-11.91967701549755
 40
-11.91967701549755
 40
-11.91967701549755
 40
-8.329327274556412
 40
-4.522153002375717
 40
-3.809294555456245
 40
-2.42112832591297
 40
-1.528295460971046
 40
-0.946943201027295
 40
-0.7579104400587644
 40
-0.6748850320902328
 40
-0.6276874961547436
 40
-0.5831373980459477
 40
-0.5504869057075638
 40
-0.4870405797229443
 40
-0.4054342416030434
 40
-0.2521911721077188
 40
-0.1143499834053041
 40
0.0
 40
0.0
 40
0.0
 40
0.0
 10
-7.811970791374733
 20
29.93398624373556
 30
0.0
 10
-7.969184742754493
 20
28.74757335375397
 30
0.0
 10
-8.282864115513092
 20
26.30175697183429
 30
0.0
 10
-8.640856757091257
 20
23.62206916168862
 30
0.0
 10
-8.896030497093307
 20
21.6693541714837
 30
0.0
 10
-9.01342701168437
 20
20.67809284379878
 30
0.0
 10
-9.104281928460495
 20
19.72850162217138
 30
0.0
 10
-9.122949469351141
 20
19.17348993030127
 30
0.0
 10
-9.099785439057683
 20
18.8898678713572
 30
0.0
 10
-9.075839436260338
 20
18.7852218059496
 30
0.0
 10
-9.053827694531662
 20
18.73218607666481
 30
0.0
 10
-9.028607507819999
 20
18.69666186183779
 30
0.0
 10
-8.985029740862501
 20
18.67854811130319
 30
0.0
 10
-8.928933291426034
 20
18.65962589936546
 30
0.0
 10
-8.834800120154682
 20
18.62758195111138
 30
0.0
 10
-8.715958249073196
 20
18.59134735058485
 30
0.0
 10
-8.586475665084436
 20
18.55265114206903
 30
0.0
 10
-8.506651714949982
 20
18.52621107371142
 30
0.0
 10
-8.471104631725268
 20
18.51242356077649
 30
0.0
  0
ARC
  5
E1
330
1F
100
AcDbEntity
  8
Default
100
AcDbCircle
 10
-63.85904567088829
 20
37.36089653735418
 30
0.0
 40
56.53701087835524
100
AcDbArc
 50
352.4515982317758
 51
354.5899439829722
  0
SPLINE
  5
E2
330
1F
100
AcDbEntity
  8
Default
100
AcDbSpline
210
0.0
220
0.0
230
1.0
 70
     8
 71
     3
 72
    12
 73
     8
 74
     0
 42
0.0000000001
 43
0.0000000001
 40
0.0
 40
0.0
 40
0.0
 40
0.0
 40
0.5
 40
0.5
 40
0.75
 40
0.75
 40
1.0
 40
1.0
 40
1.0
 40
1.0
 10
-4.272130183187002
 20
17.29020938543285
 30
0.0
 10
-4.925279568823527
 20
17.33092538390878
 30
0.0
 10
-5.578898310387402
 20
17.38487027585563
 30
0.0
 10
-6.555795079446568
 20
17.49225547762726
 30
0.0
 10
-6.883247657791912
 20
17.53035473895837
 30
0.0
 10
-7.538457898053537
 20
17.63801968960683
 30
0.0
 10
-7.862865213831043
 20
17.70483160151662
 30
0.0
 10
-8.184632676338722
 20
17.78297421826362
 30
0.0
  0
ARC
  5
E3
330
1F
100
AcDbEntity
  8
Default
100
AcDbCircle
 10
-0.3010118268659738
 20
80.99326498540587
 30
0.0
 40
63.82671128746307
100
AcDbArc
 50
266.4329139582876
 51
270.2702124421946
  0
ARC
  5
E4
330
1F
100
AcDbEntity
  8
Default
100
AcDbCircle
 10
0.3010118386932135
 20
80.99326498540756
 30
0.0
 40
63.82671128746475
100
AcDbArc
 50
269.7297875578047
 51
273.5670860417116
  0
SPLINE
  5
E5
330
1F
100
AcDbEntity
  8
Default
100
AcDbSpline
210
0.0
220
0.0
230
1.0
 70
     8
 71
     3
 72
    12
 73
     8
 74
     0
 42
0.0000000001
 43
0.0000000001
 40
-1.0
 40
-1.0
 40
-1.0
 40
-1.0
 40
-0.75
 40
-0.75
 40
-0.5
 40
-0.5
 40
0.0
 40
0.0
 40
0.0
 40
0.0
 10
8.184632688165962
 20
17.78297421826362
 30
0.0
 10
7.862865225658297
 20
17.70483160151662
 30
0.0
 10
7.538457909880776
 20
17.63801968960683
 30
0.0
 10
6.883247669619152
 20
17.53035473895837
 30
0.0
 10
6.555795091273808
 20
17.49225547762726
 30
0.0
 10
5.578898322214641
 20
17.38487027585563
 30
0.0
 10
4.925279580650766
 20
17.33092538390878
 30
0.0
 10
4.272130195014242
 20
17.29020938543285
 30
0.0
  0
SPLINE
  5
E6
330
1F
100
AcDbEntity
  8
Default
100
AcDbSpline
210
0.0
220
0.0
230
1.0
 70
    12
 71
     2
 72
     6
 73
     3
 74
     0
 42
0.0000000001
 43
0.0000000001
 40
0.5367362653132891
 40
0.5367362653132891
 40
0.5367362653132891
 40
1.16046253457911
 40
1.16046253457911
 40
1.16046253457911
 10
-8.481204739606103
 20
18.21031973074422
 30
0.0
 41
0.9999556825401937
 10
-8.763123277013761
 20
18.34367674321702
 30
0.0
 41
0.9999520912270546
 10
-9.043098791492383
 20
18.48106621079797
 30
0.0
 41
1.0
  0
POLYLINE
  5
E7
330
1F
100
AcDbEntity
  8
Default
100
AcDb2dPolyline
 66
     1
 10
0.0
 20
0.0
 30
0.0
  0
VERTEX
  5
E8
330
E7
100
AcDbEntity
  8
Default
100
AcDbVertex
100
AcDb2dVertex
 10
30.08911742770134
 20
16.33220989144369
 30
0.0
  0
VERTEX
  5
E9
330
E7
100
AcDbEntity
  8
Default
100
AcDbVertex
100
AcDb2dVertex
 10
30.09382151084164
 20
16.13378014021544
 30
0.0
  0
SEQEND
  5
EA
330
E7
100
AcDbEntity
  8
Default
  0
POLYLINE
  5
EB
330
1F
100
AcDbEntity
  8
Default
100
AcDb2dPolyline
 66
     1
 10
0.0
 20
0.0
 30
0.0
  0
VERTEX
  5
EC
330
EB
100
AcDbEntity
  8
Default
100
AcDbVertex
100
AcDb2dVertex
 10
30.40170545673213
 20
16.35801340396165
 30
0.0
  0
VERTEX
  5
ED
330
EB
100
AcDbEntity
  8
Default
100
AcDbVertex
100
AcDb2dVertex
 10
30.41772468928453
 20
16.16841615866167
 30
0.0
  0
SEQEND
  5
EE
330
EB
100
AcDbEntity
  8
Default
  0
ARC
  5
EF
330
1F
100
AcDbEntity
  8
Default
100
AcDbCircle
 10
32.73359745158534
 20
16.8113798384256
 30
0.0
 40
0.3471880369207945
100
AcDbArc
 50
268.1398270608906
 51
277.9349865216556
  0
LINE
  5
F0
330
1F
100
AcDbEntity
  8
Default
100
AcDbLine
 10
32.9833514426803
 20
16.49564714919001
 30
0.0
 11
32.7815265362034
 21
16.4675160051593
 31
0.0
  0
ARC
  5
F1
330
1F
100
AcDbEntity
  8
Default
100
AcDbCircle
 10
32.92897685556785
 20
16.88575378497821
 30
0.0
 40
0.393877878294322
100
AcDbArc
 50
277.9349865216539
 51
286.8527530584805
  0
POLYLINE
  5
F2
330
1F
100
AcDbEntity
  8
Default
100
AcDb2dPolyline
 66
     1
 10
0.0
 20
0.0
 30
0.0
  0
VERTEX
  5
F3
330
F2
100
AcDbEntity
  8
Default
100
AcDbVertex
100
AcDb2dVertex
 10
32.72114446832678
 20
16.61571825370589
 30
0.0
  0
VERTEX
  5
F4
330
F2
100
AcDbEntity
  8
Default
100
AcDbVertex
100
AcDb2dVertex
 10
32.72232757540358
 20
16.46437476227863
 30
0.0
  0
SEQEND
  5
F5
330
F2
100
AcDbEntity
  8
Default
  0
POLYLINE
  5
F6
330
1F
100
AcDbEntity
  8
Default
100
AcDb2dPolyline
 66
     1
 10
0.0
 20
0.0
 30
0.0
  0
VERTEX
  5
F7
330
F6
100
AcDbEntity
  8
Default
100
AcDbVertex
100
AcDb2dVertex
 10
33.03668510911122
 20
16.65483735276832
 30
0.0
  0
VERTEX
  5
F8
330
F6
100
AcDbEntity
  8
Default
100
AcDbVertex
100
AcDb2dVertex
 10
33.04316720925765
 20
16.50879178936878
 30
0.0
  0
SEQEND
  5
F9
330
F6
100
AcDbEntity
  8
Default
  0
ARC
  5
FA
330
1F
100
AcDbEntity
  8
Default
100
AcDbCircle
 10
35.35929179965184
 20
17.30333997904188
 30
0.0
 40
0.5000542761323707
100
AcDbArc
 50
269.2172210286454
 51
276.0128760705438
  0
LINE
  5
FB
330
1F
100
AcDbEntity
  8
Default
100
AcDbLine
 10
35.61068646550434
 20
16.82699914024983
 30
0.0
 11
35.41167346486229
 21
16.80603681172033
 31
0.0
  0
ARC
  5
FC
330
1F
100
AcDbEntity
  8
Default
100
AcDbCircle
 10
35.55370618815327
 20
17.367960797114
 30
0.0
 40
0.5439542868699839
100
AcDbArc
 50
276.012876070545
 51
282.4735058138342
  0
POLYLINE
  5
FD
330
1F
100
AcDbEntity
  8
Default
100
AcDb2dPolyline
 66
     1
 10
0.0
 20
0.0
 30
0.0
  0
VERTEX
  5
FE
330
FD
100
AcDbEntity
  8
Default
100
AcDbVertex
100
AcDb2dVertex
 10
35.66875403766578
 20
16.96383678047114
 30
0.0
  0
VERTEX
  5
FF
330
FD
100
AcDbEntity
  8
Default
100
AcDbVertex
100
AcDb2dVertex
 10
35.67119386337139
 20
16.83684601443885
 30
0.0
  0
SEQEND
  5
100
330
FD
100
AcDbEntity
  8
Default
  0
SPLINE
  5
101
330
1F
100
AcDbEntity
  8
Default
100
AcDbSpline
210
0.0
220
0.0
230
1.0
 70
     8
 71
     3
 72
    11
 73
     7
 74
     0
 42
0.0000000001
 43
0.0000000001
 40
0.0
 40
0.0
 40
0.0
 40
0.0
 40
1.279703727119549
 40
4.478054017686862
 40
5.949823361320465
 40
8.966592204333145
 40
8.966592204333145
 40
8.966592204333145
 40
8.966592204333145
 10
36.97719061800463
 20
17.78569497802396
 30
0.0
 10
36.5520441485195
 20
17.74944480296902
 30
0.0
 10
35.06739679487841
 20
17.59845778719958
 30
0.0
 10
33.10002569081779
 20
17.3387289067937
 30
0.0
 10
30.54925055644465
 20
17.10482372964718
 30
0.0
 10
29.04800672237538
 20
17.08478377335711
 30
0.0
 10
28.04899554040422
 20
17.2141950448062
 30
0.0
  0
ARC
  5
102
330
1F
100
AcDbEntity
  8
Default
100
AcDbCircle
 10
35.24780666100953
 20
38.06812072041698
 30
0.0
 40
20.35602031012936
100
AcDbArc
 50
274.8735452563024
 51
276.0947347867645
  0
SPLINE
  5
103
330
1F
100
AcDbEntity
  8
Default
100
AcDbSpline
210
0.0
220
0.0
230
1.0
 70
    12
 71
     2
 72
     6
 73
     3
 74
     0
 42
0.0000000001
 43
0.0000000001
 40
-0.1938206420261041
 40
-0.1938206420261041
 40
-0.1938206420261041
 40
0.0
 40
0.0
 40
0.0
 10
37.54614882756233
 20
17.71802690400941
 30
0.0
 41
1.0
 10
37.53052657270258
 20
17.83907215610425
 30
0.0
 41
0.7178366527271254
 10
37.409060215075
 20
17.82715863998616
 30
0.0
 41
1.0
  0
LINE
  5
104
330
1F
100
AcDbEntity
  8
Default
100
AcDbLine
 10
37.57106853483553
 20
17.53501976294899
 30
0.0
 11
37.54614882756233
 21
17.71802690400941
 31
0.0
  0
ARC
  5
105
330
1F
100
AcDbEntity
  8
Default
100
AcDbCircle
 10
37.81214098333517
 20
17.56784610411488
 30
0.0
 40
0.2432971313023284
100
AcDbArc
 50
187.7541584212218
 51
248.4345234521061
  0
SPLINE
  5
106
330
1F
100
AcDbEntity
  8
Default
100
AcDbSpline
210
0.0
220
0.0
230
1.0
 70
    12
 71
     2
 72
     6
 73
     3
 74
     0
 42
0.0000000001
 43
0.0000000001
 40
0.0
 40
0.0
 40
0.0
 40
1.136364072058917
 40
1.136364072058917
 40
1.136364072058917
 10
22.07564988331761
 20
32.05709267714253
 30
0.0
 41
1.0
 10
21.51487378334433
 20
31.9656528263354
 30
0.0
 41
0.9999994086296703
 10
20.95429789850179
 20
31.87299346118614
 30
0.0
 41
1.0
  0
SPLINE
  5
107
330
1F
100
AcDbEntity
  8
Default
100
AcDbSpline
210
0.0
220
0.0
230
1.0
 70
    12
 71
     2
 72
     6
 73
     3
 74
     0
 42
0.0000000001
 43
0.0000000001
 40
0.0
 40
0.0
 40
0.0
 40
1.03984789255465
 40
1.03984789255465
 40
1.03984789255465
 10
23.1025989581135
 20
32.22033240638099
 30
0.0
 41
1.0
 10
22.58959593324632
 20
32.13574623350161
 30
0.0
 41
0.9999833139372739
 10
22.07564988331761
 20
32.05709267714253
 30
0.0
 41
1.0
  0
SPLINE
  5
108
330
1F
100
AcDbEntity
  8
Default
100
AcDbSpline
210
0.0
220
0.0
230
1.0
 70
    12
 71
     3
 72
    10
 73
     6
 74
     0
 42
0.0000000001
 43
0.0000000001
 40
0.0
 40
0.0
 40
0.0
 40
0.0
 40
0.4997792602654922
 40
0.4997792602654922
 40
1.0
 40
1.0
 40
1.0
 40
1.0
 10
23.32298584875308
 20
31.99678385257976
 30
0.0
 41
1.0
 10
23.30165238781886
 20
32.07557305117365
 30
0.0
 41
1.0
 10
23.2674407600026
 20
32.14049735910122
 30
0.0
 41
1.0
 10
23.19092229944769
 20
32.21107948702556
 30
0.0
 41
1.0
 10
23.14938746652307
 20
32.22791939661069
 30
0.0
 41
1.0
 10
23.1025989581135
 20
32.22033240638099
 30
0.0
 41
1.0
  0
SPLINE
  5
109
330
1F
100
AcDbEntity
  8
Default
100
AcDbSpline
210
0.0
220
0.0
230
1.0
 70
    12
 71
     3
 72
    36
 73
    32
 74
     0
 42
0.0000000001
 43
0.0000000001
 40
0.0
 40
0.0
 40
0.0
 40
0.0
 40
2.990739583321262
 40
2.990739583321262
 40
2.990739583321262
 40
4.333651030355169
 40
4.333651030355169
 40
4.333651030355169
 40
8.814443795263726
 40
9.100566613352905
 40
10.24480724454827
 40
11.67549121983906
 40
12.96398165262606
 40
14.1559140323942
 40
15.39293631914945
 40
16.62719998542071
 40
17.10106454752805
 40
17.66960510727877
 40
19.56375070971521
 40
19.56375070971521
 40
19.56375070971521
 40
21.69406019694155
 40
21.69406019694155
 40
21.69406019694155
 40
25.8288213752095
 40
25.8288213752095
 40
25.8288213752095
 40
26.0991454120005
 40
26.0991454120005
 40
26.0991454120005
 40
26.42524490160192
 40
26.42524490160192
 40
26.42524490160192
 40
26.42524490160192
 10
39.84615384089834
 20
18.31409454531545
 30
0.0
 41
1.0
 10
38.84257717918809
 20
18.33421881245071
 30
0.0
 41
0.9999981939119967
 10
37.84581903579897
 20
18.35185161698504
 30
0.0
 41
0.9999981939119967
 10
36.84902254861738
 20
18.36716420496446
 30
0.0
 41
1.0
 10
36.40146055362481
 20
18.37536658195434
 30
0.0
 41
0.9999999941358523
 10
35.95389747463445
 20
18.38350959581255
 30
0.0
 41
0.9999999941358523
 10
35.50633331952004
 20
18.39159324639588
 30
0.0
 41
1.0
 10
34.01322201344477
 20
18.41995336328083
 30
0.0
 41
1.0
 10
32.42394087856643
 20
18.44951783663493
 30
0.0
 41
1.0
 10
30.45454366579391
 20
18.4851273314238
 30
0.0
 41
1.0
 10
29.50022006207935
 20
18.53454072512294
 30
0.0
 41
1.0
 10
28.23100840631805
 20
18.768109531239
 30
0.0
 41
1.0
 10
27.01277222104399
 20
19.26727365280066
 30
0.0
 41
1.0
 10
26.06413208274542
 20
20.09471383346304
 30
0.0
 41
1.0
 10
25.46677007788897
 20
21.17692535238845
 30
0.0
 41
1.0
 10
25.188759230895
 20
22.11981274622108
 30
0.0
 41
1.0
 10
25.04265993629396
 20
22.86539262635566
 30
0.0
 41
1.0
 10
24.86533490308396
 20
23.82748930596899
 30
0.0
 41
1.0
 10
24.71181416019836
 20
24.6343883981601
 30
0.0
 41
1.0
 10
24.59600987221371
 20
25.25488712207138
 30
0.0
 41
1.0
 10
24.46560881475436
 20
25.95291623125664
 30
0.0
 41
0.9999946372837994
 10
24.33784975323606
 20
26.65143440600103
 30
0.0
 41
0.9999946372830957
 10
24.21273474306531
 20
27.35043040844182
 30
0.0
 41
0.9999999999978886
 10
23.97688802197227
 20
28.70840040444473
 30
0.0
 41
0.9999340955377237
 10
23.7220997135741
 20
30.0629461827693
 30
0.0
 41
0.9999340955802639
 10
23.44842019296348
 20
31.41379993141824
 30
0.0
 41
1.000000000125509
 10
23.43046321313135
 20
31.50210068146866
 30
0.0
 41
0.9999998892704794
 10
23.41258618602213
 20
31.59041757185895
 30
0.0
 41
0.9999998892704794
 10
23.39478911758112
 20
31.67875057321799
 30
0.0
 41
1.000000000125509
 10
23.37442133997171
 20
31.7855459540629
 30
0.0
 41
0.9996238213620874
 10
23.35047791001915
 20
31.89159694131273
 30
0.0
 41
0.9996238213620874
 10
23.32298584875308
 20
31.99678385257977
 30
0.0
 41
1.000000000125509
  0
SPLINE
  5
10A
330
1F
100
AcDbEntity
  8
Default
100
AcDbSpline
210
0.0
220
0.0
230
1.0
 70
    12
 71
     3
 72
    10
 73
     6
 74
     0
 42
0.0000000001
 43
0.0000000001
 40
0.0
 40
0.0
 40
0.0
 40
0.0
 40
0.499786126541424
 40
0.499786126541424
 40
1.0
 40
1.0
 40
1.0
 40
1.0
 10
40.14582180429348
 20
18.25374807162092
 30
0.0
 41
1.0
 10
40.13648270324886
 20
18.26419856819623
 30
0.0
 41
1.0
 10
40.11652384165076
 20
18.27541828234289
 30
0.0
 41
1.0
 10
40.03618122826659
 20
18.29755606394773
 30
0.0
 41
1.0
 10
39.96920775792124
 20
18.31078678109949
 30
0.0
 41
1.0
 10
39.84615384089834
 20
18.31409454531545
 30
0.0
 41
1.0
  0
SPLINE
  5
10B
330
1F
100
AcDbEntity
  8
Default
100
AcDbSpline
210
0.0
220
0.0
230
1.0
 70
    12
 71
     2
 72
     6
 73
     3
 74
     0
 42
0.0000000001
 43
0.0000000001
 40
0.0
 40
0.0
 40
0.0
 40
1.082344106876008
 40
1.082344106876008
 40
1.082344106876008
 10
40.91468035260421
 20
17.49320640250902
 30
0.0
 41
1.0
 10
40.50366201887863
 20
17.84659741368067
 30
0.0
 41
0.9975644276718084
 10
40.14582180429348
 20
18.25374807162092
 30
0.0
 41
1.0
  0
SPLINE
  5
10C
330
1F
100
AcDbEntity
  8
Default
100
AcDbSpline
210
0.0
220
0.0
230
1.0
 70
    12
 71
     2
 72
     6
 73
     3
 74
     0
 42
0.0000000001
 43
0.0000000001
 40
0.0
 40
0.0
 40
0.0
 40
0.3179562956467166
 40
0.3179562956467166
 40
0.3179562956467166
 10
32.72114446832678
 20
16.61571825370589
 30
0.0
 41
1.0
 10
32.87892307173195
 20
16.63521099118674
 30
0.0
 41
0.9999999103337658
 10
33.03668510911122
 20
16.65483735276832
 30
0.0
 41
1.0
  0
SPLINE
  5
10D
330
1F
100
AcDbEntity
  8
Default
100
AcDbSpline
210
0.0
220
0.0
230
1.0
 70
    24
 71
     2
 72
     6
 73
     3
 74
     0
 42
0.0000000001
 43
0.0000000001
 40
0.0
 40
0.0
 40
0.0
 40
0.0001324525173366
 40
0.0001324525173366
 40
0.0001324525173366
 10
37.80354944687623
 20
18.23375296336848
 30
0.0
 10
37.80348322148699
 20
18.233753302716
 30
0.0
 10
37.80341699609774
 20
18.23375364206351
 30
0.0
  0
SPLINE
  5
10E
330
1F
100
AcDbEntity
  8
Default
100
AcDbSpline
210
0.0
220
0.0
230
1.0
 70
    12
 71
     2
 72
     6
 73
     3
 74
     0
 42
0.0000000001
 43
0.0000000001
 40
0.0
 40
0.0
 40
0.0
 40
0.1233943312646878
 40
0.1233943312646878
 40
0.1233943312646878
 10
37.6747017724435
 20
16.9396391736778
 30
0.0
 41
1.0
 10
37.74194402796881
 20
16.94005492161215
 30
0.0
 41
0.8807474749212899
 10
37.77867674971263
 20
16.99637899220161
 30
0.0
 41
1.0
  0
SPLINE
  5
10F
330
1F
100
AcDbEntity
  8
Default
100
AcDbSpline
210
0.0
220
0.0
230
1.0
 70
    12
 71
     3
 72
    12
 73
     8
 74
     0
 42
0.0000000001
 43
0.0000000001
 40
-1.0
 40
-1.0
 40
-1.0
 40
-1.0
 40
-0.7500623819354907
 40
-0.7500623819354907
 40
-0.500067351575719
 40
-0.500067351575719
 40
0.0
 40
0.0
 40
0.0
 40
0.0
 10
27.88345834411406
 20
15.984381928711
 30
0.0
 41
1.0
 10
28.67122093221208
 20
15.96498132719052
 30
0.0
 41
1.0
 10
29.47563448903411
 20
16.02443487675443
 30
0.0
 41
1.0
 10
31.12313097975884
 20
16.20475302053907
 30
0.0
 41
1.0
 10
32.00038322326294
 20
16.3356725763378
 30
0.0
 41
1.0
 10
34.71744019322942
 20
16.72331482940009
 30
0.0
 41
1.0
 10
36.3109948411937
 20
16.93037092489524
 30
0.0
 41
1.0
 10
37.6747017724435
 20
16.9396391736778
 30
0.0
 41
1.0
  0
SPLINE
  5
110
330
1F
100
AcDbEntity
  8
Default
100
AcDbSpline
210
0.0
220
0.0
230
1.0
 70
    12
 71
     2
 72
     6
 73
     3
 74
     0
 42
0.0000000001
 43
0.0000000001
 40
0.0
 40
0.0
 40
0.0
 40
0.1214621799935524
 40
0.1214621799935524
 40
0.1214621799935524
 10
27.78047747493555
 20
16.04094550553531
 30
0.0
 41
1.0
 10
27.81705557060006
 20
15.98406240578581
 30
0.0
 41
0.876654444896587
 10
27.88345834411406
 20
15.984381928711
 30
0.0
 41
1.0
  0
SPLINE
  5
111
330
1F
100
AcDbEntity
  8
Default
100
AcDbSpline
210
0.0
220
0.0
230
1.0
 70
    12
 71
     2
 72
     6
 73
     3
 74
     0
 42
0.0000000001
 43
0.0000000001
 40
0.0
 40
0.0
 40
0.0
 40
0.2323959088994463
 40
0.2323959088994463
 40
0.2323959088994463
 10
27.66095802525653
 20
16.24167520706413
 30
0.0
 41
1.0
 10
27.71949786621937
 20
16.14129703727624
 30
0.0
 41
0.9999597117723061
 10
27.78047747493555
 20
16.04094550553531
 30
0.0
 41
1.0
  0
SPLINE
  5
112
330
1F
100
AcDbEntity
  8
Default
100
AcDbSpline
210
0.0
220
0.0
230
1.0
 70
    12
 71
     2
 72
     6
 73
     3
 74
     0
 42
0.0000000001
 43
0.0000000001
 40
0.0
 40
0.0
 40
0.0
 40
0.2914963062765733
 40
0.2914963062765733
 40
0.2914963062765733
 10
27.58716126182166
 20
16.54720099428514
 30
0.0
 41
1.0
 10
27.5892584116099
 20
16.39954839338169
 30
0.0
 41
0.9806169748653679
 10
27.66095802525653
 20
16.24167520706413
 30
0.0
 41
1.0
  0
SPLINE
  5
113
330
1F
100
AcDbEntity
  8
Default
100
AcDbSpline
210
0.0
220
0.0
230
1.0
 70
    12
 71
     3
 72
    13
 73
     9
 74
     0
 42
0.0000000001
 43
0.0000000001
 40
0.0000000047030481
 40
0.0000000047030481
 40
0.0000000047030481
 40
0.0000000047030481
 40
0.0437575797412229
 40
0.0963766106336238
 40
0.0963766106336238
 40
0.1290011607604258
 40
0.1603237438471766
 40
0.1762203004876441
 40
0.1762203004876441
 40
0.1762203004876441
 40
0.1762203004876441
 10
27.74763176144528
 20
16.63520533586267
 30
0.0
 41
1.0
 10
27.69115920763436
 20
16.63272935589278
 30
0.0
 41
1.0
 10
27.65951895173085
 20
16.62931099539394
 30
0.0
 41
1.0
 10
27.634136973905
 20
16.62006816760347
 30
0.0
 41
1.0
 10
27.61453179187872
 20
16.60801896534349
 30
0.0
 41
1.0
 10
27.60116935761268
 20
16.5970600318833
 30
0.0
 41
1.0
 10
27.58978274914317
 20
16.5768990870061
 30
0.0
 41
1.0
 10
27.58729777719257
 20
16.56336044400449
 30
0.0
 41
1.0
 10
27.58716126182166
 20
16.54720099428514
 30
0.0
 41
1.0
  0
ARC
  5
114
330
1F
100
AcDbEntity
  8
Default
100
AcDbCircle
 10
27.69795951793957
 20
16.85831166283162
 30
0.0
 40
0.2285689500095452
100
AcDbArc
 50
282.5515796615782
 51
6.872232129843739
  0
ARC
  5
115
330
1F
100
AcDbEntity
  8
Default
100
AcDbCircle
 10
17.18456014853059
 20
16.47348425030153
 30
0.0
 40
10.74823221582309
100
AcDbArc
 50
2.197737590867046
 51
3.239620511239866
  0
SPLINE
  5
116
330
1F
100
AcDbEntity
  8
Default
100
AcDbSpline
210
0.0
220
0.0
230
1.0
 70
    12
 71
     2
 72
     8
 73
     5
 74
     0
 42
0.0000000001
 43
0.0000000001
 40
0.0
 40
0.0
 40
0.0
 40
0.1076772379739193
 40
0.1076772379739193
 40
0.2153544759478387
 40
0.2153544759478387
 40
0.2153544759478387
 10
28.04875778902924
 20
17.21422640676759
 30
0.0
 41
1.0
 10
27.99139446625419
 20
17.21981015325689
 30
0.0
 41
0.9040750516459389
 10
27.95067089762865
 20
17.17902633314334
 30
0.0
 41
1.0
 10
27.90994732900315
 20
17.13824251302981
 30
0.0
 41
0.9040750516459389
 10
27.91561587700618
 20
17.08088750812013
 30
0.0
 41
1.0
  0
SPLINE
  5
117
330
1F
100
AcDbEntity
  8
Default
100
AcDbSpline
210
0.0
220
0.0
230
1.0
 70
    12
 71
     2
 72
     6
 73
     3
 74
     0
 42
0.0000000001
 43
0.0000000001
 40
0.0
 40
0.0
 40
0.0
 40
0.3184049841480918
 40
0.3184049841480918
 40
0.3184049841480918
 10
35.35205584874784
 20
16.93091760895416
 30
0.0
 41
1.0
 10
35.51035435588927
 20
16.94786386892394
 30
0.0
 41
0.9999952770600171
 10
35.66875403766578
 20
16.96383678047114
 30
0.0
 41
1.0
  0
POLYLINE
  5
118
330
1F
100
AcDbEntity
  8
Default
100
AcDb2dPolyline
 66
     1
 10
0.0
 20
0.0
 30
0.0
  0
VERTEX
  5
119
330
118
100
AcDbEntity
  8
Default
100
AcDbVertex
100
AcDb2dVertex
 10
35.35205584874784
 20
16.93091760895416
 30
0.0
  0
VERTEX
  5
11A
330
118
100
AcDbEntity
  8
Default
100
AcDbVertex
100
AcDb2dVertex
 10
35.35246023547042
 20
16.80333237029067
 30
0.0
  0
SEQEND
  5
11B
330
118
100
AcDbEntity
  8
Default
  0
SPLINE
  5
11C
330
1F
100
AcDbEntity
  8
Default
100
AcDbSpline
210
0.0
220
0.0
230
1.0
 70
    12
 71
     2
 72
     6
 73
     3
 74
     0
 42
0.0000000001
 43
0.0000000001
 40
0.0
 40
0.0
 40
0.0
 40
0.2493712427351362
 40
0.2493712427351362
 40
0.2493712427351362
 10
27.9726985575994
 20
15.98252011088186
 30
0.0
 41
1.0
 10
28.09015203717619
 20
15.90589623287199
 30
0.0
 41
0.8416625784489381
 10
28.20875694032993
 20
15.98072547510963
 30
0.0
 41
1.0
  0
SPLINE
  5
11D
330
1F
100
AcDbEntity
  8
Default
100
AcDbSpline
210
0.0
220
0.0
230
1.0
 70
    24
 71
     2
 72
     6
 73
     3
 74
     0
 42
0.0000000001
 43
0.0000000001
 40
0.0
 40
0.0
 40
0.0
 40
14.38209060067435
 40
14.38209060067435
 40
14.38209060067435
 10
23.42019651571317
 20
0.1524999999995104
 30
0.0
 10
30.61124181605035
 20
0.1524999999995096
 30
0.0
 10
37.80228711638752
 20
0.1524999999995088
 30
0.0
  0
SPLINE
  5
11E
330
1F
100
AcDbEntity
  8
Default
100
AcDbSpline
210
0.0
220
0.0
230
1.0
 70
    12
 71
     2
 72
     6
 73
     3
 74
     0
 42
0.0000000001
 43
0.0000000001
 40
0.0
 40
0.0
 40
0.0
 40
0.3136526776359063
 40
0.3136526776359063
 40
0.3136526776359063
 10
30.08911742770134
 20
16.33220989144369
 30
0.0
 41
1.0
 10
30.24547922170949
 20
16.3442905556889
 30
0.0
 41
0.9999862006071706
 10
30.40170545673213
 20
16.35801340396165
 30
0.0
 41
1.0
  0
SPLINE
  5
11F
330
1F
100
AcDbEntity
  8
Default
100
AcDbSpline
210
0.0
220
0.0
230
1.0
 70
    12
 71
     3
 72
    59
 73
    55
 74
     0
 42
0.0000000001
 43
0.0000000001
 40
0.0
 40
0.0
 40
0.0
 40
0.0
 40
0.0213292444772112
 40
0.0422339028831005
 40
0.5213050783143771
 40
1.138131412743502
 40
1.138131412743502
 40
1.138131412743502
 40
1.161781021547216
 40
1.190660427673819
 40
1.266727426220671
 40
1.487915670039002
 40
1.487915670039002
 40
1.487915670039002
 40
3.408829853382499
 40
8.2904732492629
 40
10.51377757559225
 40
11.3697014921579
 40
12.98432973188382
 40
14.32711787798274
 40
14.98821339550627
 40
15.62821414854803
 40
17.06007105052871
 40
18.11268626327257
 40
18.35675537765046
 40
18.67392838797119
 40
20.80986268708262
 40
23.63983047276914
 40
23.63983047276914
 40
23.63983047276914
 40
27.65896466783846
 40
27.65896466783846
 40
27.65896466783846
 40
27.8059439588151
 40
27.87957196899965
 40
27.96182902675386
 40
28.0483590627115
 40
28.0483590627115
 40
28.12728586872971
 40
28.12728586872971
 40
28.12728586872971
 40
29.18399970511256
 40
29.18399970511256
 40
29.18399970511256
 40
30.30326730634012
 40
30.30326730634012
 40
30.30326730634012
 40
30.4234114192628
 40
30.4234114192628
 40
30.4234114192628
 40
30.45516024418013
 40
30.45516024418013
 40
30.45516024418013
 40
30.48690906909746
 40
30.48690906909746
 40
30.48690906909746
 40
30.48690906909746
 10
40.99646975107812
 20
17.63701231956194
 30
0.0
 41
1.0
 10
40.99761436512181
 20
17.64130607477424
 30
0.0
 41
1.0
 10
41.00204027185545
 20
17.66258763779129
 30
0.0
 41
1.0
 10
40.86524898860951
 20
17.76962882046556
 30
0.0
 41
1.0
 10
40.58751395151656
 20
18.01808650307086
 30
0.0
 41
1.0
 10
40.33159865165742
 20
18.27887700075031
 30
0.0
 41
1.0
 10
40.19105053729253
 20
18.42896546056206
 30
0.0
 41
1.0
 10
40.18565243152015
 20
18.43472786575268
 30
0.0
 41
1.0
 10
40.16222735392363
 20
18.45595520491339
 30
0.0
 41
1.0
 10
40.1237268967741
 20
18.47525165631544
 30
0.0
 41
1.0
 10
40.01836301174588
 20
18.50376177446604
 30
0.0
 41
1.0
 10
39.91891462347662
 20
18.51024579673487
 30
0.0
 41
1.0
 10
39.84510696088201
 20
18.51237679180027
 30
0.0
 41
1.0
 10
39.20474125278655
 20
18.52628721271306
 30
0.0
 41
1.0
 10
36.93764245013234
 20
18.57002578825142
 30
0.0
 41
1.0
 10
33.92944624371118
 20
18.62111861783104
 30
0.0
 41
1.0
 10
31.27629809194075
 20
18.67032420429657
 30
0.0
 41
1.0
 10
29.71237905294494
 20
18.7173433665766
 30
0.0
 41
1.0
 10
28.45051192631603
 20
18.91701183256687
 30
0.0
 41
1.0
 10
27.31711400225062
 20
19.35394513125252
 30
0.0
 41
1.0
 10
26.60616583031877
 20
19.88877045398893
 30
0.0
 41
1.0
 10
25.99868928041936
 20
20.57306667641923
 30
0.0
 41
1.0
 10
25.55427099632
 20
21.53130713704019
 30
0.0
 41
1.0
 10
25.33947173337917
 20
22.41299695334867
 30
0.0
 41
1.0
 10
25.23918352219708
 20
22.943221354838
 30
0.0
 41
1.0
 10
25.07334576020234
 20
23.82625691152075
 30
0.0
 41
1.0
 10
24.74724670651524
 20
25.55707348163313
 30
0.0
 41
1.0
 10
24.44343551279003
 20
27.18425541703556
 30
0.0
 41
1.0
 10
24.27090930583758
 20
28.11166695786512
 30
0.0
 41
1.0
 10
24.02588540929093
 20
29.42878853290212
 30
0.0
 41
0.9999892345137223
 10
23.77338030124952
 20
30.7444963742255
 30
0.0
 41
0.9999892345137223
 10
23.51340213673411
 20
32.05874798913113
 30
0.0
 41
1.0
 10
23.50075174696046
 20
32.1057178183683
 30
0.0
 41
1.0
 10
23.47613798239642
 20
32.17292144508519
 30
0.0
 41
1.0
 10
23.42726649842669
 20
32.24502666494412
 30
0.0
 41
1.0
 10
23.38082097277392
 20
32.28860641831196
 30
0.0
 41
1.0
 10
23.34487101021244
 20
32.30717855793011
 30
0.0
 41
1.0
 10
23.30926503378247
 20
32.3191884437126
 30
0.0
 41
1.0
 10
23.29158650999355
 20
32.3265267269316
 30
0.0
 41
1.0
 10
23.24331513292306
 20
32.31918178874285
 30
0.0
 41
1.0
 10
22.89507898610355
 20
32.26619442586437
 30
0.0
 41
0.9999636970347625
 10
22.54741476783499
 20
32.20957582545593
 30
0.0
 41
0.9999636970347625
 10
22.20036034184346
 20
32.14933215378676
 30
0.0
 41
1.0
 10
21.83301767297027
 20
32.08411622307361
 30
0.0
 41
1.0
 10
21.46567500409709
 20
32.01890029236046
 30
0.0
 41
1.0
 10
21.09833233522389
 20
31.9536843616473
 30
0.0
 41
1.0
 10
21.05890328464541
 20
31.94643092154623
 30
0.0
 41
0.9978746378784636
 10
21.02017866387071
 20
31.93605469059881
 30
0.0
 41
0.9978746378784636
 10
20.98240538442626
 20
31.92262182854969
 30
0.0
 41
1.0
 10
20.97190460562648
 20
31.91981020316387
 30
0.0
 41
0.9481677523081955
 10
20.96330719192054
 20
31.91315767956146
 30
0.0
 41
0.9481677523081955
 10
20.95795001313857
 20
31.90369870349585
 30
0.0
 41
1.0
 10
20.9525928343566
 20
31.89423972743023
 30
0.0
 41
0.9481677523081955
 10
20.95130891435127
 20
31.88344513887246
 30
0.0
 41
0.9481677523081955
 10
20.95429789850179
 20
31.87299346118609
 30
0.0
 41
1.0
  0
SPLINE
  5
120
330
1F
100
AcDbEntity
  8
Default
100
AcDbSpline
210
0.0
220
0.0
230
1.0
 70
    12
 71
     2
 72
     6
 73
     3
 74
     0
 42
0.0000000001
 43
0.0000000001
 40
0.0
 40
0.0
 40
0.0
 40
0.1197804066303905
 40
0.1197804066303905
 40
0.1197804066303905
 10
40.9658039158078
 20
17.52105040702124
 30
0.0
 41
1.0
 10
40.98104313606661
 20
17.5791429364461
 30
0.0
 41
0.9999980136198698
 10
40.99646975107812
 20
17.63701231956194
 30
0.0
 41
1.0
  0
SPLINE
  5
121
330
1F
100
AcDbEntity
  8
Default
100
AcDbSpline
210
0.0
220
0.0
230
1.0
 70
    12
 71
     2
 72
     8
 73
     5
 74
     0
 42
0.0000000001
 43
0.0000000001
 40
0.0
 40
0.0
 40
0.0
 40
0.0324543335714889
 40
0.0324543335714889
 40
0.0649086671429778
 40
0.0649086671429778
 40
0.0649086671429778
 10
40.91468445876184
 20
17.49320490181548
 30
0.0
 41
1.0
 10
40.9310386834742
 20
17.48796542151386
 30
0.0
 41
0.9197371239895568
 10
40.94613235496551
 20
17.49614734598448
 30
0.0
 41
1.0
 10
40.96122602645683
 20
17.5043292704551
 30
0.0
 41
0.9197371239895568
 10
40.9658039158078
 20
17.52105040702124
 30
0.0
 41
1.0
  0
SPLINE
  5
122
330
1F
100
AcDbEntity
  8
Default
100
AcDbSpline
210
0.0
220
0.0
230
1.0
 70
    12
 71
     2
 72
     6
 73
     3
 74
     0
 42
0.0000000001
 43
0.0000000001
 40
0.0
 40
0.0
 40
0.0
 40
0.4752604825934983
 40
0.4752604825934983
 40
0.4752604825934983
 10
40.45447983957528
 20
17.61105171136227
 30
0.0
 41
1.0
 10
40.68762398293283
 20
17.56401581170258
 30
0.0
 41
0.9986683373178159
 10
40.91468445876184
 20
17.49320490181548
 30
0.0
 41
1.0
  0
ARC
  5
123
330
1F
100
AcDbEntity
  8
Default
100
AcDbCircle
 10
39.48823648131561
 20
12.97505335537486
 30
0.0
 40
4.735621076912604
100
AcDbArc
 50
78.2268504378206
 51
88.89187675271201
  0
ARC
  5
124
330
1F
100
AcDbEntity
  8
Default
100
AcDbCircle
 10
39.37319423465034
 20
7.027507943929542
 30
0.0
 40
10.684279004523
100
AcDbArc
 50
88.89187675271225
 51
96.76210408517696
  0
ARC
  5
125
330
1F
100
AcDbEntity
  8
Default
100
AcDbCircle
 10
47.16748039684798
 20
27.4610626607314
 30
0.0
 40
22.37201478765066
100
AcDbArc
 50
205.0790988748795
 51
209.0385828330987
  0
ARC
  5
126
330
1F
100
AcDbEntity
  8
Default
100
AcDbCircle
 10
14.39957122857827
 20
12.12602636974992
 30
0.0
 40
13.80669731360706
100
AcDbArc
 50
25.07909887487985
 51
29.76319133139227
  0
SPLINE
  5
127
330
1F
100
AcDbEntity
  8
Default
100
AcDbSpline
210
0.0
220
0.0
230
1.0
 70
     8
 71
     3
 72
    12
 73
     8
 74
     0
 42
0.0000000001
 43
0.0000000001
 40
0.0
 40
0.0
 40
0.0
 40
0.0
 40
0.1188168226676399
 40
0.2267141184591815
 40
0.4171401648895051
 40
0.5545942315951621
 40
0.6845120224772043
 40
0.6845120224772043
 40
0.6845120224772043
 40
0.6845120224772043
 10
25.94613776686693
 20
18.67866035343419
 30
0.0
 10
25.95790432967659
 20
18.71688509265898
 30
0.0
 10
25.98039330496674
 20
18.78860763763355
 30
0.0
 10
26.046424981031
 20
18.91305674827978
 30
0.0
 10
26.13404955693558
 20
19.02731748834519
 30
0.0
 10
26.28983412211723
 20
19.09021134874485
 30
0.0
 10
26.36752071491001
 20
19.01742283790814
 30
0.0
 10
26.38495180444336
 20
18.97989703976115
 30
0.0
  0
SPLINE
  5
128
330
1F
100
AcDbEntity
  8
Default
100
AcDbSpline
210
0.0
220
0.0
230
1.0
 70
    24
 71
     2
 72
     6
 73
     3
 74
     0
 42
0.0000000001
 43
0.0000000001
 40
0.0
 40
0.0
 40
0.0
 40
18.03014673108503
 40
18.03014673108503
 40
18.03014673108503
 10
20.97624298700234
 20
1.346577417779471
 30
0.0
 10
23.46119037693463
 20
10.01261888560683
 30
0.0
 10
25.94613776686693
 20
18.67866035343419
 30
0.0
  0
SPLINE
  5
129
330
1F
100
AcDbEntity
  8
Default
100
AcDbSpline
210
0.0
220
0.0
230
1.0
 70
     8
 71
     3
 72
    12
 73
     8
 74
     0
 42
0.0000000001
 43
0.0000000001
 40
0.0
 40
0.0
 40
0.0
 40
0.0
 40
0.1736210234184956
 40
0.3275051231560459
 40
0.5804333986340471
 40
0.8317491144538746
 40
1.163997324284233
 40
1.163997324284233
 40
1.163997324284233
 40
1.163997324284233
 10
21.53489393347661
 20
0.5899999999995504
 30
0.0
 10
21.47768072385963
 20
0.5893035069923646
 30
0.0
 10
21.36667645020633
 20
0.5984057311023924
 30
0.0
 10
21.18038639619805
 20
0.6400788991452923
 30
0.0
 10
20.9816885653815
 20
0.7642890284831086
 30
0.0
 10
20.90698968491525
 20
1.047378936476915
 30
0.0
 10
20.94733449037518
 20
1.239410988994602
 30
0.0
 10
20.97624298700234
 20
1.346577417779471
 30
0.0
  0
SPLINE
  5
12A
330
1F
100
AcDbEntity
  8
Default
100
AcDbSpline
210
0.0
220
0.0
230
1.0
 70
    24
 71
     2
 72
     6
 73
     3
 74
     0
 42
0.0000000001
 43
0.0000000001
 40
0.0
 40
0.0
 40
0.0
 40
18.264
 40
18.264
 40
18.264
 10
39.79889393347624
 20
0.5899999999995402
 30
0.0
 10
30.66689393347642
 20
0.5899999999995453
 30
0.0
 10
21.53489393347661
 20
0.5899999999995504
 30
0.0
  0
SPLINE
  5
12B
330
1F
100
AcDbEntity
  8
Default
100
AcDbSpline
210
0.0
220
0.0
230
1.0
 70
     8
 71
     3
 72
    12
 73
     8
 74
     0
 42
0.0000000001
 43
0.0000000001
 40
0.0
 40
0.0
 40
0.0
 40
0.0
 40
0.1977618231282116
 40
0.3823896428270525
 40
0.691982963741502
 40
0.9328812609914705
 40
1.202265274733213
 40
1.202265274733213
 40
1.202265274733213
 40
1.202265274733213
 10
40.30006550437919
 20
1.489615241568709
 30
0.0
 10
40.30980930871154
 20
1.424824495080742
 30
0.0
 10
40.32546897002744
 20
1.295518205792805
 30
0.0
 10
40.31572392514518
 20
1.067922900557766
 30
0.0
 10
40.26185850960273
 20
0.8216677948478379
 30
0.0
 10
40.06666346846755
 20
0.6139964495938677
 30
0.0
 10
39.88647071105301
 20
0.590796785508917
 30
0.0
 10
39.79889393347624
 20
0.5899999999995402
 30
0.0
  0
LINE
  5
12C
330
1F
100
AcDbEntity
  8
Default
100
AcDbLine
 10
37.73070123646433
 20
17.29306706404904
 30
0.0
 11
40.30006550437919
 21
1.489615241568709
 31
0.0
  0
ARC
  5
12D
330
1F
100
AcDbEntity
  8
Default
100
AcDbCircle
 10
28.53739023823492
 20
15.79839583348411
 30
0.0
 40
9.314022181509126
100
AcDbArc
 50
9.23448992971874
 51
13.19783950412067
  0
ARC
  5
12E
330
1F
100
AcDbEntity
  8
Default
100
AcDbCircle
 10
39.59889394322015
 20
0.2000000000000363
 30
0.0
 40
0.2
100
AcDbArc
 50
269.9999999999959
 51
359.9999567414453
  0
SPLINE
  5
12F
330
1F
100
AcDbEntity
  8
Default
100
AcDbSpline
210
0.0
220
0.0
230
1.0
 70
    12
 71
     2
 72
     6
 73
     3
 74
     0
 42
0.0000000001
 43
0.0000000001
 40
0.0082611733968436
 40
0.0082611733968436
 40
0.0082611733968436
 40
0.1482614395726959
 40
0.1482614395726959
 40
0.1482614395726959
 10
39.79889395575915
 20
0.340000115175035
 30
0.0
 41
0.9999999999999716
 10
39.79889399607049
 20
0.2699999820871113
 30
0.0
 41
0.9999999999997442
 10
39.79889394322008
 20
0.1999998489991942
 30
0.0
 41
0.9999999999999598
  0
ARC
  5
130
330
1F
100
AcDbEntity
  8
Default
100
AcDbCircle
 10
39.59889395575921
 20
0.3400000000000445
 30
0.0
 40
0.2
100
AcDbArc
 50
0.0000329952043025
 51
90.00000000000203
  0
SPLINE
  5
131
330
1F
100
AcDbEntity
  8
Default
100
AcDbSpline
210
0.0
220
0.0
230
1.0
 70
    24
 71
     2
 72
     6
 73
     3
 74
     0
 42
0.0000000001
 43
0.0000000001
 40
-1.609999999985462
 40
-1.609999999985462
 40
-1.609999999985462
 40
-0.0099999777115727
 40
-0.0099999777115727
 40
-0.0099999777115727
 10
37.99889393348529
 20
0.5400000000000131
 30
0.0
 10
38.79889394462224
 20
0.5400000000000289
 30
0.0
 10
39.59889395575918
 20
0.5400000000000446
 30
0.0
  0
ARC
  5
132
330
1F
100
AcDbEntity
  8
Default
100
AcDbCircle
 10
37.99889393348532
 20
0.3400000000000132
 30
0.0
 40
0.2
100
AcDbArc
 50
90.00000000000406
 51
180.0000000013645
  0
SPLINE
  5
133
330
1F
100
AcDbEntity
  8
Default
100
AcDbSpline
210
0.0
220
0.0
230
1.0
 70
    24
 71
     2
 72
     6
 73
     3
 74
     0
 42
0.0000000001
 43
0.0000000001
 40
0.0120000005855436
 40
0.0120000005855436
 40
0.0120000005855436
 40
0.1520000005855499
 40
0.1520000005855499
 40
0.1520000005855499
 10
37.79889393348863
 20
0.1999999999952467
 30
0.0
 10
37.79889393348697
 20
0.2699999999952498
 30
0.0
 10
37.7988939334853
 20
0.3399999999952528
 30
0.0
  0
ARC
  5
134
330
1F
100
AcDbEntity
  8
Default
100
AcDbCircle
 10
37.99889393348865
 20
0.2000000000000228
 30
0.0
 40
0.2
100
AcDbArc
 50
180.0000000013682
 51
270.000000000002
  0
SPLINE
  5
135
330
1F
100
AcDbEntity
  8
Default
100
AcDbSpline
210
0.0
220
0.0
230
1.0
 70
    24
 71
     2
 72
     6
 73
     3
 74
     0
 42
0.0000000001
 43
0.0000000001
 40
-1.61200000974376
 40
-1.61200000974376
 40
-1.61200000974376
 40
-0.0120000000122786
 40
-0.0120000000122786
 40
-0.0120000000122786
 10
39.59889394322012
 20
0.0000000000000363
 30
0.0
 10
38.79889393835438
 20
0.0000000000000295
 30
0.0
 10
37.99889393348865
 20
0.0000000000000228
 30
0.0
  0
ARC
  5
136
330
1F
100
AcDbEntity
  8
Default
100
AcDbCircle
 10
23.22389394322015
 20
0.2024999999995243
 30
0.0
 40
0.2
100
AcDbArc
 50
270.0
 51
359.9999567414452
  0
SPLINE
  5
137
330
1F
100
AcDbEntity
  8
Default
100
AcDbSpline
210
0.0
220
0.0
230
1.0
 70
    24
 71
     2
 72
     6
 73
     3
 74
     0
 42
0.0000000001
 43
0.0000000001
 40
0.0120000000122786
 40
0.0120000000122786
 40
0.0120000000122786
 40
1.612000009743781
 40
1.612000009743781
 40
1.612000009743781
 10
21.62389393348865
 20
0.0024999999995234
 30
0.0
 10
22.4238939383544
 20
0.0024999999995239
 30
0.0
 10
23.22389394322015
 20
0.0024999999995243
 30
0.0
  0
ARC
  5
138
330
1F
100
AcDbEntity
  8
Default
100
AcDbCircle
 10
21.62389393348865
 20
0.2024999999995235
 30
0.0
 40
0.2
100
AcDbArc
 50
180.000000001365
 51
270.0
  0
SPLINE
  5
139
330
1F
100
AcDbEntity
  8
Default
100
AcDbSpline
210
0.0
220
0.0
230
1.0
 70
    24
 71
     2
 72
     6
 73
     3
 74
     0
 42
0.0000000001
 43
0.0000000001
 40
-0.1520000005855499
 40
-0.1520000005855499
 40
-0.1520000005855499
 40
-0.0120000005855438
 40
-0.0120000005855438
 40
-0.0120000005855438
 10
21.4238939334853
 20
0.3424999999947647
 30
0.0
 10
21.42389393348698
 20
0.2724999999947617
 30
0.0
 10
21.42389393348866
 20
0.2024999999947586
 30
0.0
  0
ARC
  5
13A
330
1F
100
AcDbEntity
  8
Default
100
AcDbCircle
 10
21.62389393348532
 20
0.3424999999995148
 30
0.0
 40
0.2
100
AcDbArc
 50
90.0
 51
180.0000000013608
  0
SPLINE
  5
13B
330
1F
100
AcDbEntity
  8
Default
100
AcDbSpline
210
0.0
220
0.0
230
1.0
 70
    24
 71
     2
 72
     6
 73
     3
 74
     0
 42
0.0000000001
 43
0.0000000001
 40
0.0099999777115727
 40
0.0099999777115727
 40
0.0099999777115727
 40
1.609999999985448
 40
1.609999999985448
 40
1.609999999985448
 10
23.22389395575918
 20
0.5424999999995226
 30
0.0
 10
22.42389394462225
 20
0.5424999999995187
 30
0.0
 10
21.62389393348532
 20
0.5424999999995148
 30
0.0
  0
ARC
  5
13C
330
1F
100
AcDbEntity
  8
Default
100
AcDbCircle
 10
23.22389395575918
 20
0.3424999999995225
 30
0.0
 40
0.2
100
AcDbArc
 50
0.0000329951910078
 51
90.0
  0
SPLINE
  5
13D
330
1F
100
AcDbEntity
  8
Default
100
AcDbSpline
210
0.0
220
0.0
230
1.0
 70
    12
 71
     2
 72
     6
 73
     3
 74
     0
 42
0.0000000001
 43
0.0000000001
 40
-0.1482614395726964
 40
-0.1482614395726964
 40
-0.1482614395726964
 40
-0.0082611733969005
 40
-0.0082611733969005
 40
-0.0082611733969005
 10
23.42389394322009
 20
0.2024998489986821
 30
0.0
 41
0.9999999999999598
 10
23.42389399607048
 20
0.2724999820865711
 30
0.0
 41
0.9999999999997442
 10
23.42389395575915
 20
0.3425001151744666
 30
0.0
 41
0.9999999999999716
  0
SPLINE
  5
13E
330
1F
100
AcDbEntity
  8
Default
100
AcDbSpline
210
0.0
220
0.0
230
1.0
 70
    12
 71
     2
 72
     6
 73
     3
 74
     0
 42
0.0000000001
 43
0.0000000001
 40
0.0
 40
0.0
 40
0.0
 40
0.4160689291157493
 40
0.4160689291157493
 40
0.4160689291157493
 10
37.58014370728431
 20
17.99554547516681
 30
0.0
 41
1.0
 10
37.58014401390572
 20
17.75174714553477
 30
0.0
 41
0.999999999999514
 10
37.58014393378578
 20
17.54371268097684
 30
0.0
 41
1.0
  0
ARC
  5
13F
330
1F
100
AcDbEntity
  8
Default
100
AcDbCircle
 10
37.80928280400367
 20
18.00437425260144
 30
0.0
 40
0.2293091209619801
100
AcDbArc
 50
90.29035870835648
 51
182.2065269086565
  0
SPLINE
  5
140
330
1F
100
AcDbEntity
  8
Default
100
AcDbSpline
210
0.0
220
0.0
230
1.0
 70
     8
 71
     3
 72
    11
 73
     7
 74
     0
 42
0.0000000001
 43
0.0000000001
 40
0.0
 40
0.0
 40
0.0
 40
0.0
 40
0.4764271053443021
 40
0.6450021126828203
 40
0.7394405949691422
 40
1.004984940711463
 40
1.004984940711463
 40
1.004984940711463
 40
1.004984940711463
 10
38.16248370693462
 20
17.36356696240577
 30
0.0
 10
38.13527598318144
 20
17.520347090994
 30
0.0
 10
38.10159185220873
 20
17.73409675113056
 30
0.0
 10
38.04424230873896
 20
17.97253651534838
 30
0.0
 10
38.00392695945261
 20
18.14572654784725
 30
0.0
 10
37.90067506527457
 20
18.23414947206495
 30
0.0
 10
37.80812073559734
 20
18.2336804290411
 30
0.0
  0
SPLINE
  5
141
330
1F
100
AcDbEntity
  8
Default
100
AcDbSpline
210
0.0
220
0.0
230
1.0
 70
    24
 71
     2
 72
     6
 73
     3
 74
     0
 42
0.0000000001
 43
0.0000000001
 40
0.0
 40
0.0
 40
0.0
 40
16.00993477400845
 40
16.00993477400845
 40
16.00993477400845
 10
40.73193374922054
 20
1.55958131768594
 30
0.0
 10
39.44720872807758
 20
9.461574140045853
 30
0.0
 10
38.16248370693462
 20
17.36356696240577
 30
0.0
  0
SPLINE
  5
142
330
1F
100
AcDbEntity
  8
Default
100
AcDbSpline
210
0.0
220
0.0
230
1.0
 70
     8
 71
     3
 72
    12
 73
     8
 74
     0
 42
0.0000000001
 43
0.0000000001
 40
0.0
 40
0.0
 40
0.0
 40
0.0
 40
0.2407466614583662
 40
0.4644128133903074
 40
0.9070442468116664
 40
1.385994865240368
 40
1.959487967840885
 40
1.959487967840885
 40
1.959487967840885
 40
1.959487967840885
 10
39.79889393347612
 20
0.1524999999995051
 30
0.0
 10
39.87947079048469
 20
0.1520242824520756
 30
0.0
 10
40.03364868636574
 20
0.1676895180549459
 30
0.0
 10
40.32364809615332
 20
0.2637149413034515
 30
0.0
 10
40.61613193348005
 20
0.5308596703699533
 30
0.0
 10
40.77519078097389
 20
1.016642235012677
 30
0.0
 10
40.762005850839
 20
1.369508594915529
 30
0.0
 10
40.73193374922054
 20
1.55958131768594
 30
0.0
  0
SPLINE
  5
143
330
1F
100
AcDbEntity
  8
Default
100
AcDbSpline
210
0.0
220
0.0
230
1.0
 70
     8
 71
     3
 72
    12
 73
     8
 74
     0
 42
0.0000000001
 43
0.0000000001
 40
0.0
 40
0.0
 40
0.0
 40
0.0
 40
0.2697380888984812
 40
0.5090529582299931
 40
0.9404242365587651
 40
1.375686194037447
 40
1.864465877741496
 40
1.864465877741496
 40
1.864465877741496
 40
1.864465877741496
 10
20.55560772043002
 20
1.466877979229146
 30
0.0
 10
20.53048478589675
 20
1.380276295450222
 30
0.0
 10
20.49559295387864
 20
1.212844625347
 30
0.0
 10
20.48481526580973
 20
0.8997732382266495
 30
0.0
 10
20.59739565647244
 20
0.5340732446058339
 30
0.0
 10
20.95606337812985
 20
0.2315449482902048
 30
0.0
 10
21.26468913584175
 20
0.1672605462550395
 30
0.0
 10
21.4266245931009
 20
0.155901149570048
 30
0.0
  0
SPLINE
  5
144
330
1F
100
AcDbEntity
  8
Default
100
AcDbSpline
210
0.0
220
0.0
230
1.0
 70
    24
 71
     2
 72
     6
 73
     3
 74
     0
 42
0.0000000001
 43
0.0000000001
 40
0.0
 40
0.0
 40
0.0
 40
18.02954293561915
 40
18.02954293561915
 40
18.02954293561915
 10
25.52550256541302
 20
18.79896151056921
 30
0.0
 10
23.04055514292152
 20
10.13291974489918
 30
0.0
 10
20.55560772043002
 20
1.466877979229146
 30
0.0
  0
SPLINE
  5
145
330
1F
100
AcDbEntity
  8
Default
100
AcDbSpline
210
0.0
220
0.0
230
1.0
 70
     8
 71
     3
 72
    12
 73
     8
 74
     0
 42
0.0000000001
 43
0.0000000001
 40
0.0
 40
0.0
 40
0.0
 40
0.0
 40
0.2055502640362494
 40
0.4054088748967113
 40
0.8039029552925635
 40
1.224151303136076
 40
1.717383382991358
 40
1.717383382991358
 40
1.717383382991358
 40
1.717383382991358
 10
26.76855893310089
 20
19.19027354132009
 30
0.0
 10
26.73549140057874
 20
19.25092014999766
 30
0.0
 10
26.65271000447846
 20
19.35786618887252
 30
0.0
 10
26.42533409941804
 20
19.51160815045298
 30
0.0
 10
26.06329778608442
 20
19.51602443258707
 30
0.0
 10
25.70079390224994
 20
19.23953893069838
 30
0.0
 10
25.57193575341468
 20
18.9571759619307
 30
0.0
 10
25.52550256541302
 20
18.79896151056921
 30
0.0
  0
POLYLINE
  5
146
330
1F
100
AcDbEntity
  8
Default
100
AcDb2dPolyline
 66
     1
 10
0.0
 20
0.0
 30
0.0
  0
VERTEX
  5
147
330
146
100
AcDbEntity
  8
Default
100
AcDbVertex
100
AcDb2dVertex
 10
27.92240039758725
 20
16.93871092505355
 30
0.0
  0
VERTEX
  5
148
330
146
100
AcDbEntity
  8
Default
100
AcDbVertex
100
AcDb2dVertex
 10
26.76855893310089
 20
19.19027354132009
 30
0.0
  0
SEQEND
  5
149
330
146
100
AcDbEntity
  8
Default
  0
ARC
  5
14A
330
1F
100
AcDbEntity
  8
Default
100
AcDbCircle
 10
30.12613534522147
 20
16.38155963319926
 30
0.0
 40
0.2498776921528805
100
AcDbArc
 50
262.5697811526741
 51
275.7685290698404
  0
LINE
  5
14B
330
1F
100
AcDbEntity
  8
Default
100
AcDbLine
 10
30.35820616193037
 20
16.15385425263937
 30
0.0
 11
30.15125050770551
 21
16.13294730516814
 31
0.0
  0
ARC
  5
14C
330
1F
100
AcDbEntity
  8
Default
100
AcDbCircle
 10
30.33602382403983
 20
16.37343486127179
 30
0.0
 40
0.2206982097835716
100
AcDbArc
 50
275.7685290698405
 51
291.7275018220804
  0
ARC
  5
14D
330
1F
100
AcDbEntity
  8
Default
100
AcDbCircle
 10
27.52243338363336
 20
21.91594717881858
 30
0.0
 40
5.477145374410095
100
AcDbArc
 50
240.8033999382302
 51
242.8366217716687
  0
SPLINE
  5
14E
330
1F
100
AcDbEntity
  8
Default
100
AcDbSpline
210
0.0
220
0.0
230
1.0
 70
     8
 71
     3
 72
    16
 73
    12
 74
     0
 42
0.0000000001
 43
0.0000000001
 40
0.0
 40
0.0
 40
0.0
 40
0.0
 40
1.0
 40
2.0
 40
3.0
 40
4.0
 40
5.0
 40
6.0
 40
7.0
 40
8.0
 40
9.0
 40
9.0
 40
9.0
 40
9.0
 10
20.95429789850179
 20
31.87299346118609
 30
0.0
 10
21.11686431270854
 20
31.31206006205625
 30
0.0
 10
21.40538256748039
 20
30.17931795911529
 30
0.0
 10
21.70623251908124
 20
28.45220474988543
 30
0.0
 10
21.92274049390932
 20
26.71334179721175
 30
0.0
 10
22.10904318623865
 20
24.9713241757833
 30
0.0
 10
22.25488825223387
 20
23.22422110587613
 30
0.0
 10
22.31718812327505
 20
21.47584809809229
 30
0.0
 10
22.54492261543992
 20
19.72283134054983
 30
0.0
 10
23.40675750599929
 20
18.15483233610607
 30
0.0
 10
24.34164047706288
 20
17.41909743278251
 30
0.0
 10
24.85063882520869
 20
17.13466750806158
 30
0.0
  0
ARC
  5
14F
330
1F
100
AcDbEntity
  8
Default
100
AcDbCircle
 10
27.78880832492921
 20
22.61210089608225
 30
0.0
 40
6.221555101727835
100
AcDbArc
 50
247.6540022959818
 51
268.3323945358991
  0
SPLINE
  5
150
330
1F
100
AcDbEntity
  8
Default
100
AcDbSpline
210
0.0
220
0.0
230
1.0
 70
     8
 71
     3
 72
    12
 73
     8
 74
     0
 42
0.0000000001
 43
0.0000000001
 40
0.0
 40
0.0
 40
0.0
 40
0.0
 40
0.1477899108026471
 40
0.3160567471115733
 40
0.7554804820323351
 40
1.170510163754875
 40
1.602699082770829
 40
1.602699082770829
 40
1.602699082770829
 40
1.602699082770829
 10
-9.451733983067456
 20
40.79824047202697
 30
0.0
 10
-9.485095329951307
 20
40.76291274018114
 30
0.0
 10
-9.5831628551595
 20
40.70992541954503
 30
0.0
 10
-9.839070961650236
 20
40.7231444613053
 30
0.0
 10
-10.14926946678142
 20
40.89220444835562
 30
0.0
 10
-10.40612053958635
 20
41.24631354800022
 30
0.0
 10
-10.45467367869443
 20
41.53330411025153
 30
0.0
 10
-10.45475000003853
 20
41.676309177619
 30
0.0
  0
ARC
  5
151
330
1F
100
AcDbEntity
  8
Default
100
AcDbCircle
 10
-9.63022239090239
 20
40.96679399577181
 30
0.0
 40
0.2454962364237991
100
AcDbArc
 50
316.6397773714334
 51
348.1159680162873
  0
SPLINE
  5
152
330
1F
100
AcDbEntity
  8
Default
100
AcDbSpline
210
0.0
220
0.0
230
1.0
 70
    24
 71
     2
 72
     6
 73
     3
 74
     0
 42
0.0000000001
 43
0.0000000001
 40
0.0
 40
0.0
 40
0.0
 40
1.628175855224801
 40
1.628175855224801
 40
1.628175855224801
 10
-9.048073302772977
 20
42.50810885992186
 30
0.0
 10
-9.219030660843181
 20
41.71217372713407
 30
0.0
 10
-9.389988018913385
 20
40.91623859434629
 30
0.0
  0
SPLINE
  5
153
330
1F
100
AcDbEntity
  8
Default
100
AcDbSpline
210
0.0
220
0.0
230
1.0
 70
    24
 71
     2
 72
     6
 73
     3
 74
     0
 42
0.0000000001
 43
0.0000000001
 40
0.0
 40
0.0
 40
0.0
 40
0.6817784309155974
 40
0.6817784309155974
 40
0.6817784309155974
 10
-8.860187668128361
 20
43.38285785726244
 30
0.0
 10
-8.93177393994565
 20
43.04956989933007
 30
0.0
 10
-9.003360211762939
 20
42.71628194139769
 30
0.0
  0
SPLINE
  5
154
330
1F
100
AcDbEntity
  8
Default
100
AcDbSpline
210
0.0
220
0.0
230
1.0
 70
     8
 71
     3
 72
    11
 73
     7
 74
     0
 42
0.0000000001
 43
0.0000000001
 40
0.0
 40
0.0
 40
0.0
 40
0.0
 40
0.0785563540144544
 40
0.1507413233057875
 40
0.2895189453328724
 40
0.5596065631428735
 40
0.5596065631428735
 40
0.5596065631428735
 40
0.5596065631428735
 10
-10.0172500000379
 20
41.67630917761866
 30
0.0
 10
-10.01720871938507
 20
41.65016659888771
 30
0.0
 10
-10.01508997951377
 20
41.59979074391534
 30
0.0
 10
-10.0002661838323
 20
41.50444841686156
 30
0.0
 10
-9.949336965969707
 20
41.35083088496111
 30
0.0
 10
-9.853989452116252
 20
41.24598011827718
 30
0.0
 10
-9.776549517644497
 20
41.19985078366651
 30
0.0
  0
SPLINE
  5
155
330
1F
100
AcDbEntity
  8
Default
100
AcDbSpline
210
0.0
220
0.0
230
1.0
 70
    24
 71
     2
 72
     6
 73
     3
 74
     0
 42
0.0000000001
 43
0.0000000001
 40
0.0
 40
0.0
 40
0.0
 40
0.3336096049252015
 40
0.3336096049252015
 40
0.3336096049252015
 10
-8.620493924339073
 20
42.94560885992193
 30
0.0
 10
-8.787298726801673
 20
42.94560885992193
 30
0.0
 10
-8.954103529264273
 20
42.94560885992193
 30
0.0
  0
SPLINE
  5
156
330
1F
100
AcDbEntity
  8
Default
100
AcDbSpline
210
0.0
220
0.0
230
1.0
 70
    24
 71
     2
 72
     6
 73
     3
 74
     0
 42
0.0000000001
 43
0.0000000001
 40
0.0
 40
0.0
 40
0.0
 40
0.5962694764435739
 40
0.5962694764435739
 40
0.5962694764435739
 10
-9.190912559011323
 20
42.50810885992186
 30
0.0
 10
-8.89277782078954
 20
42.50810885992186
 30
0.0
 10
-8.594643082567757
 20
42.50810885992186
 30
0.0
  0
SPLINE
  5
157
330
1F
100
AcDbEntity
  8
Default
100
AcDbSpline
210
0.0
220
0.0
230
1.0
 70
    12
 71
     2
 72
     8
 73
     5
 74
     0
 42
0.0000000001
 43
0.0000000001
 40
0.0
 40
0.0
 40
0.0
 40
0.044359582403476
 40
0.044359582403476
 40
0.088719164806952
 40
0.088719164806952
 40
0.088719164806952
 10
-10.54600000003634
 20
43.61821587320051
 30
0.0
 41
1.0
 10
-10.54618861606847
 20
43.64165583193446
 30
0.0
 41
0.9212309118504963
 10
-10.52951961227522
 20
43.65813647373013
 30
0.0
 41
1.0
 10
-10.51285060848197
 20
43.67461711552581
 30
0.0
 41
0.9212309118504963
 10
-10.48941430674327
 20
43.67416214050537
 30
0.0
 41
1.0
  0
SPLINE
  5
158
330
1F
100
AcDbEntity
  8
Default
100
AcDbSpline
210
0.0
220
0.0
230
1.0
 70
    24
 71
     2
 72
     6
 73
     3
 74
     0
 42
0.0000000001
 43
0.0000000001
 40
0.0
 40
0.0
 40
0.0
 40
1.876832108369314
 40
1.876832108369314
 40
1.876832108369314
 10
-10.54600000003634
 20
41.73669257169479
 30
0.0
 10
-10.54600000003634
 20
42.67510862587945
 30
0.0
 10
-10.54600000003634
 20
43.6135246800641
 30
0.0
  0
POLYLINE
  5
159
330
1F
100
AcDbEntity
  8
Default
100
AcDb2dPolyline
 66
     1
 10
0.0
 20
0.0
 30
0.0
  0
VERTEX
  5
15A
330
159
100
AcDbEntity
  8
Default
100
AcDbVertex
100
AcDb2dVertex
 10
-10.42466642894733
 20
60.04916214050537
 30
0.0
  0
VERTEX
  5
15B
330
159
100
AcDbEntity
  8
Default
100
AcDbVertex
100
AcDb2dVertex
 10
-10.48941430674327
 20
60.04916214050536
 30
0.0
  0
SEQEND
  5
15C
330
159
100
AcDbEntity
  8
Default
  0
LINE
  5
15D
330
1F
100
AcDbEntity
  8
Default
100
AcDbLine
 10
-10.42466642894733
 20
58.0534562145173
 30
0.0
 11
-10.42466642894733
 21
60.04916214050537
 31
0.0
  0
POLYLINE
  5
15E
330
1F
100
AcDbEntity
  8
Default
100
AcDb2dPolyline
 66
     1
 10
0.0
 20
0.0
 30
0.0
  0
VERTEX
  5
15F
330
15E
100
AcDbEntity
  8
Default
100
AcDbVertex
100
AcDb2dVertex
 10
-10.48941431390649
 20
58.05345621451729
 30
0.0
  0
VERTEX
  5
160
330
15E
100
AcDbEntity
  8
Default
100
AcDbVertex
100
AcDb2dVertex
 10
-10.42466642894733
 20
58.0534562145173
 30
0.0
  0
SEQEND
  5
161
330
15E
100
AcDbEntity
  8
Default
  0
SPLINE
  5
162
330
1F
100
AcDbEntity
  8
Default
100
AcDbSpline
210
0.0
220
0.0
230
1.0
 70
    12
 71
     2
 72
     8
 73
     5
 74
     0
 42
0.0000000001
 43
0.0000000001
 40
0.0
 40
0.0
 40
0.0
 40
0.0443594898986368
 40
0.0443594898986368
 40
0.0887189797972737
 40
0.0887189797972737
 40
0.0887189797972737
 10
-10.54600000003634
 20
58.10940247460832
 30
0.0
 41
1.0
 10
-10.54618845066819
 20
58.08596258712975
 30
0.0
 41
0.9212322792887785
 10
-10.52951949847056
 20
58.06948199638542
 30
0.0
 41
1.0
 10
-10.51285054627295
 20
58.05300140564109
 30
0.0
 41
0.9212322792887785
 10
-10.48941431390649
 20
58.05345621451729
 30
0.0
 41
1.0
  0
SPLINE
  5
163
330
1F
100
AcDbEntity
  8
Default
100
AcDbSpline
210
0.0
220
0.0
230
1.0
 70
    12
 71
     2
 72
     8
 73
     5
 74
     0
 42
0.0000000001
 43
0.0000000001
 40
0.0
 40
0.0
 40
0.0
 40
0.0443595824034676
 40
0.0443595824034676
 40
0.0887191648069352
 40
0.0887191648069352
 40
0.0887191648069352
 10
-10.54600000003634
 20
59.99321587320051
 30
0.0
 41
1.0
 10
-10.54618861606846
 20
60.01665583193444
 30
0.0
 41
0.9212309118505145
 10
-10.52951961227521
 20
60.03313647373012
 30
0.0
 41
1.0
 10
-10.51285060848197
 20
60.04961711552578
 30
0.0
 41
0.9212309118505145
 10
-10.48941430674327
 20
60.04916214050536
 30
0.0
 41
1.0
  0
SPLINE
  5
164
330
1F
100
AcDbEntity
  8
Default
100
AcDbSpline
210
0.0
220
0.0
230
1.0
 70
    24
 71
     2
 72
     6
 73
     3
 74
     0
 42
0.0000000001
 43
0.0000000001
 40
0.0
 40
0.0
 40
0.0
 40
1.876832108369314
 40
1.876832108369314
 40
1.876832108369314
 10
-10.54600000003634
 20
58.11169257169479
 30
0.0
 10
-10.54600000003634
 20
59.05010862587945
 30
0.0
 10
-10.54600000003634
 20
59.9885246800641
 30
0.0
  0
SPLINE
  5
165
330
1F
100
AcDbEntity
  8
Default
100
AcDbSpline
210
0.0
220
0.0
230
1.0
 70
    24
 71
     2
 72
     6
 73
     3
 74
     0
 42
0.0000000001
 43
0.0000000001
 40
0.0
 40
0.0
 40
0.0
 40
0.0260709400593518
 40
0.0260709400593518
 40
0.0260709400593518
 10
0.0000000053056937
 20
40.50480430006831
 30
0.0
 10
-0.0000000126458914
 20
40.49176883003864
 30
0.0
 10
-0.0000000305974766
 20
40.47873336000898
 30
0.0
  0
ARC
  5
166
330
1F
100
AcDbEntity
  8
Default
100
AcDbCircle
 10
10.32395717555374
 20
60.71555824259868
 30
0.0
 40
0.3410906770636682
100
AcDbArc
 50
156.9417858273188
 51
176.6273736102739
  0
SPLINE
  5
167
330
1F
100
AcDbEntity
  8
Default
100
AcDbSpline
210
0.0
220
0.0
230
1.0
 70
     8
 71
     3
 72
    12
 73
     8
 74
     0
 42
0.0000000001
 43
0.0000000001
 40
0.0079220932400635
 40
0.0079220932400635
 40
0.0079220932400635
 40
0.0079220932400635
 40
0.4008488188003001
 40
0.649497839620818
 40
0.8322503145587989
 40
1.079070071483766
 40
1.324216382091657
 40
1.324216382091657
 40
1.324216382091657
 40
1.324216382091657
 10
10.45461504154854
 20
60.04916214050537
 30
0.0
 10
10.45425466109886
 20
60.17909234169815
 30
0.0
 10
10.45295216048009
 20
60.39744184920993
 30
0.0
 10
10.4460050415458
 20
60.66481575281624
 30
0.0
 10
10.42933012229111
 20
60.901231847388
 30
0.0
 10
10.19971182500034
 20
61.03596595614086
 30
0.0
 10
10.04155160711402
 20
60.92299822858863
 30
0.0
 10
10.01011712489081
 20
60.84915192725344
 30
0.0
  0
SPLINE
  5
168
330
1F
100
AcDbEntity
  8
Default
100
AcDbSpline
210
0.0
220
0.0
230
1.0
 70
     8
 71
     3
 72
    11
 73
     7
 74
     0
 42
0.0000000001
 43
0.0000000001
 40
0.0
 40
0.0
 40
0.0
 40
0.0
 40
0.0657230682592645
 40
0.1596459567390957
 40
0.2742977122609734
 40
0.4123637355236573
 40
0.4123637355236573
 40
0.4123637355236573
 40
0.4123637355236573
 10
9.382008802416223
 20
55.79694265605607
 30
0.0
 10
9.373984140111205
 20
55.77292501693623
 30
0.0
 10
9.340653766813531
 20
55.73118031320215
 30
0.0
 10
9.278314749036014
 20
55.66437645491548
 30
0.0
 10
9.193932610027659
 20
55.58525121038011
 30
0.0
 10
9.13014803007762
 20
55.53029504582001
 30
0.0
 10
9.094654164308182
 20
55.50096896968847
 30
0.0
  0
SPLINE
  5
169
330
1F
100
AcDbEntity
  8
Default
100
AcDbSpline
210
0.0
220
0.0
230
1.0
 70
    24
 71
     2
 72
     6
 73
     3
 74
     0
 42
0.0000000001
 43
0.0000000001
 40
0.0
 40
0.0
 40
0.0
 40
4.975170126843
 40
4.975170126843
 40
4.975170126843
 10
9.983457251106486
 20
60.73562441889513
 30
0.0
 10
9.682733026761355
 20
58.2662835374756
 30
0.0
 10
9.382008802416223
 20
55.79694265605607
 30
0.0
  0
SPLINE
  5
16A
330
1F
100
AcDbEntity
  8
Default
100
AcDbSpline
210
0.0
220
0.0
230
1.0
 70
    12
 71
     2
 72
     8
 73
     5
 74
     0
 42
0.0000000001
 43
0.0000000001
 40
0.0
 40
0.0
 40
0.0
 40
0.0443594898986335
 40
0.0443594898986335
 40
0.0887189797972671
 40
0.0887189797972671
 40
0.0887189797972671
 10
-10.54600000003634
 20
41.73440247460831
 30
0.0
 41
1.0
 10
-10.54618845066819
 20
41.71096258712975
 30
0.0
 41
0.9212322792887581
 10
-10.52951949847056
 20
41.69448199638541
 30
0.0
 41
1.0
 10
-10.51285054627295
 20
41.6780014056411
 30
0.0
 41
0.9212322792887581
 10
-10.48941431390649
 20
41.6784562145173
 30
0.0
 41
1.0
  0
SPLINE
  5
16B
330
1F
100
AcDbEntity
  8
Default
100
AcDbSpline
210
0.0
220
0.0
230
1.0
 70
    12
 71
     2
 72
     8
 73
     5
 74
     0
 42
0.0000000001
 43
0.0000000001
 40
0.0
 40
0.0
 40
0.0
 40
0.0443595239753132
 40
0.0443595239753132
 40
0.0887190479506264
 40
0.0887190479506264
 40
0.0887190479506264
 10
-9.982585690037254
 20
41.67845621462516
 30
0.0
 41
1.0
 10
-9.959149432353728
 20
41.67800134649281
 30
0.0
 41
0.9212317914759943
 10
-9.942480461362592
 20
41.69448195586637
 30
0.0
 41
1.0
 10
-9.925811490371474
 20
41.71096256523993
 30
0.0
 41
0.9212317914759943
 10
-9.926000000036339
 20
41.73440247870678
 30
0.0
 41
1.0
  0
SPLINE
  5
16C
330
1F
100
AcDbEntity
  8
Default
100
AcDbSpline
210
0.0
220
0.0
230
1.0
 70
    24
 71
     2
 72
     6
 73
     3
 74
     0
 42
0.0000000001
 43
0.0000000001
 40
0.0
 40
0.0
 40
0.0
 40
1.880368467492239
 40
1.880368467492239
 40
1.880368467492239
 10
-9.926000000036339
 20
41.73784741648652
 30
0.0
 10
-9.926000000036332
 20
42.67803165023264
 30
0.0
 10
-9.926000000036325
 20
43.61821588397876
 30
0.0
  0
SPLINE
  5
16D
330
1F
100
AcDbEntity
  8
Default
100
AcDbSpline
210
0.0
220
0.0
230
1.0
 70
    12
 71
     2
 72
     8
 73
     5
 74
     0
 42
0.0000000001
 43
0.0000000001
 40
0.0
 40
0.0
 40
0.0
 40
0.0443594873972512
 40
0.0443594873972512
 40
0.0887189747945023
 40
0.0887189747945023
 40
0.0887189747945023
 10
-9.926000000036325
 20
43.61821588397876
 30
0.0
 41
1.0
 10
-9.925811549250389
 20
43.64165577015692
 30
0.0
 41
0.9212322779809602
 10
-9.942480500519324
 20
43.65813635999278
 30
0.0
 41
1.0
 10
-9.959149451788244
 20
43.67461694982866
 30
0.0
 41
0.9212322779809602
 10
-9.9825856828529
 20
43.674162140827
 30
0.0
 41
1.0
  0
POLYLINE
  5
16E
330
1F
100
AcDbEntity
  8
Default
100
AcDb2dPolyline
 66
     1
 10
0.0
 20
0.0
 30
0.0
  0
VERTEX
  5
16F
330
16E
100
AcDbEntity
  8
Default
100
AcDbVertex
100
AcDb2dVertex
 10
10.42466642894736
 20
60.04916214050537
 30
0.0
  0
VERTEX
  5
170
330
16E
100
AcDbEntity
  8
Default
100
AcDbVertex
100
AcDb2dVertex
 10
10.4894143067433
 20
60.04916214050536
 30
0.0
  0
SEQEND
  5
171
330
16E
100
AcDbEntity
  8
Default
  0
LINE
  5
172
330
1F
100
AcDbEntity
  8
Default
100
AcDbLine
 10
10.42466642894736
 20
58.0534562145173
 30
0.0
 11
10.42466642894736
 21
60.04916214050537
 31
0.0
  0
POLYLINE
  5
173
330
1F
100
AcDbEntity
  8
Default
100
AcDb2dPolyline
 66
     1
 10
0.0
 20
0.0
 30
0.0
  0
VERTEX
  5
174
330
173
100
AcDbEntity
  8
Default
100
AcDbVertex
100
AcDb2dVertex
 10
10.48941431390652
 20
58.05345621451729
 30
0.0
  0
VERTEX
  5
175
330
173
100
AcDbEntity
  8
Default
100
AcDbVertex
100
AcDb2dVertex
 10
10.42466642894736
 20
58.0534562145173
 30
0.0
  0
SEQEND
  5
176
330
173
100
AcDbEntity
  8
Default
  0
SPLINE
  5
177
330
1F
100
AcDbEntity
  8
Default
100
AcDbSpline
210
0.0
220
0.0
230
1.0
 70
    24
 71
     2
 72
     6
 73
     3
 74
     0
 42
0.0000000001
 43
0.0000000001
 40
0.0
 40
0.0
 40
0.0
 40
1.880368467492239
 40
1.880368467492239
 40
1.880368467492239
 10
9.926000000036368
 20
41.73784741648652
 30
0.0
 10
9.92600000003636
 20
42.67803165023264
 30
0.0
 10
9.926000000036353
 20
43.61821588397876
 30
0.0
  0
SPLINE
  5
178
330
1F
100
AcDbEntity
  8
Default
100
AcDbSpline
210
0.0
220
0.0
230
1.0
 70
    24
 71
     2
 72
     6
 73
     3
 74
     0
 42
0.0000000001
 43
0.0000000001
 40
0.0
 40
0.0
 40
0.0
 40
0.6817784309155974
 40
0.6817784309155974
 40
0.6817784309155974
 10
8.86018766812839
 20
43.38285785726244
 30
0.0
 10
8.931773939945678
 20
43.04956989933007
 30
0.0
 10
9.003360211762967
 20
42.71628194139769
 30
0.0
  0
SPLINE
  5
179
330
1F
100
AcDbEntity
  8
Default
100
AcDbSpline
210
0.0
220
0.0
230
1.0
 70
    24
 71
     2
 72
     6
 73
     3
 74
     0
 42
0.0000000001
 43
0.0000000001
 40
0.0
 40
0.0
 40
0.0
 40
4.982986879168142
 40
4.982986879168142
 40
4.982986879168142
 10
-9.815355169002785
 20
55.73629384580282
 30
0.0
 10
-10.11655187704299
 20
58.20951443898819
 30
0.0
 10
-10.41774858508319
 20
60.68273503217357
 30
0.0
  0
SPLINE
  5
17A
330
1F
100
AcDbEntity
  8
Default
100
AcDbSpline
210
0.0
220
0.0
230
1.0
 70
     8
 71
     5
 72
    12
 73
     6
 74
     0
 42
0.0000000001
 43
0.0000000001
 40
0.0
 40
0.0
 40
0.0
 40
0.0
 40
0.0
 40
0.0
 40
1.0
 40
1.0
 40
1.0
 40
1.0
 40
1.0
 40
1.0
 10
-9.782612974186804
 20
55.61066645827286
 30
0.0
 10
-9.794571338461992
 20
55.63371356647802
 30
0.0
 10
-9.8053662914582
 20
55.65736432941297
 30
0.0
 10
-9.809077394398741
 20
55.68474507048219
 30
0.0
 10
-9.81221628170077
 20
55.71051945814251
 30
0.0
 10
-9.815355169002785
 20
55.73629384580282
 30
0.0
  0
SPLINE
  5
17B
330
1F
100
AcDbEntity
  8
Default
100
AcDbSpline
210
0.0
220
0.0
230
1.0
 70
    12
 71
     2
 72
    12
 73
     9
 74
     0
 42
0.0000000001
 43
0.0000000001
 40
-0.8955677087960616
 40
-0.8955677087960616
 40
-0.8955677087960616
 40
-0.5677489543793204
 40
-0.5677489543793204
 40
-0.3507723183757143
 40
-0.3507723183757143
 40
-0.175908751468701
 40
-0.175908751468701
 40
0.0
 40
0.0
 40
0.0
 10
-9.138809983760936
 20
54.99653361000105
 30
0.0
 41
1.0
 10
-9.271253090906177
 20
55.09319897416978
 30
0.0
 41
0.9994675822846129
 10
-9.397109678322778
 20
55.19829649395025
 30
0.0
 41
1.0
 10
-9.480453200564078
 20
55.26780134416873
 30
0.0
 41
0.9995318098585576
 10
-9.559389423224602
 20
55.34227375285521
 30
0.0
 41
1.0
 10
-9.623155479462934
 20
55.40217534452803
 30
0.0
 41
0.999020730002154
 10
-9.681376432966871
 20
55.46747948824196
 30
0.0
 41
1.0
 10
-9.741850086133208
 20
55.53210498697909
 30
0.0
 41
0.9906577676915688
 10
-9.782612974186804
 20
55.61066645827286
 30
0.0
 41
1.0
  0
SPLINE
  5
17C
330
1F
100
AcDbEntity
  8
Default
100
AcDbSpline
210
0.0
220
0.0
230
1.0
 70
    24
 71
     2
 72
     6
 73
     3
 74
     0
 42
0.0000000001
 43
0.0000000001
 40
0.0078530096329956
 40
0.0078530096329956
 40
0.0078530096329956
 40
14.38714708364492
 40
14.38714708364492
 40
14.38714708364492
 10
-10.45475000003684
 20
43.67416214050537
 30
0.0
 10
-10.45475000003684
 20
50.86380917751134
 30
0.0
 10
-10.45475000003684
 20
58.0534562145173
 30
0.0
  0
SPLINE
  5
17D
330
1F
100
AcDbEntity
  8
Default
100
AcDbSpline
210
0.0
220
0.0
230
1.0
 70
    24
 71
     2
 72
     6
 73
     3
 74
     0
 42
0.0000000001
 43
0.0000000001
 40
0.0
 40
0.0
 40
0.0
 40
13.71995345546828
 40
13.71995345546828
 40
13.71995345546828
 10
-10.01725000003543
 20
57.39411559629528
 30
0.0
 10
-10.01725000003543
 20
50.53413886856114
 30
0.0
 10
-10.01725000003543
 20
43.674162140827
 30
0.0
  0
SPLINE
  5
17E
330
1F
100
AcDbEntity
  8
Default
100
AcDbSpline
210
0.0
220
0.0
230
1.0
 70
    24
 71
     2
 72
     6
 73
     3
 74
     0
 42
0.0000000001
 43
0.0000000001
 40
0.0
 40
0.0
 40
0.0
 40
13.71995345546828
 40
13.71995345546828
 40
13.71995345546828
 10
10.01725000003545
 20
57.39411559629528
 30
0.0
 10
10.01725000003545
 20
50.53413886856114
 30
0.0
 10
10.01725000003545
 20
43.674162140827
 30
0.0
  0
SPLINE
  5
17F
330
1F
100
AcDbEntity
  8
Default
100
AcDbSpline
210
0.0
220
0.0
230
1.0
 70
    24
 71
     2
 72
     6
 73
     3
 74
     0
 42
0.0000000001
 43
0.0000000001
 40
0.0078530096329956
 40
0.0078530096329956
 40
0.0078530096329956
 40
14.38714708364492
 40
14.38714708364492
 40
14.38714708364492
 10
10.45475000003687
 20
43.67416214050537
 30
0.0
 10
10.45475000003687
 20
50.86380917751134
 30
0.0
 10
10.45475000003687
 20
58.0534562145173
 30
0.0
  0
POLYLINE
  5
180
330
1F
100
AcDbEntity
  8
Default
100
AcDb2dPolyline
 66
     1
 10
0.0
 20
0.0
 30
0.0
  0
VERTEX
  5
181
330
180
100
AcDbEntity
  8
Default
100
AcDbVertex
100
AcDb2dVertex
 10
10.42466642894736
 20
41.6784562145173
 30
0.0
  0
VERTEX
  5
182
330
180
100
AcDbEntity
  8
Default
100
AcDbVertex
100
AcDb2dVertex
 10
10.48941431390652
 20
41.6784562145173
 30
0.0
  0
SEQEND
  5
183
330
180
100
AcDbEntity
  8
Default
  0
LINE
  5
184
330
1F
100
AcDbEntity
  8
Default
100
AcDbLine
 10
10.42466642894736
 20
43.67416214050537
 30
0.0
 11
10.42466642894736
 21
41.6784562145173
 31
0.0
  0
POLYLINE
  5
185
330
1F
100
AcDbEntity
  8
Default
100
AcDb2dPolyline
 66
     1
 10
0.0
 20
0.0
 30
0.0
  0
VERTEX
  5
186
330
185
100
AcDbEntity
  8
Default
100
AcDbVertex
100
AcDb2dVertex
 10
10.4894143067433
 20
43.67416214050537
 30
0.0
  0
VERTEX
  5
187
330
185
100
AcDbEntity
  8
Default
100
AcDbVertex
100
AcDb2dVertex
 10
10.42466642894736
 20
43.67416214050537
 30
0.0
  0
SEQEND
  5
188
330
185
100
AcDbEntity
  8
Default
  0
POLYLINE
  5
189
330
1F
100
AcDbEntity
  8
Default
100
AcDb2dPolyline
 66
     1
 10
0.0
 20
0.0
 30
0.0
  0
VERTEX
  5
18A
330
189
100
AcDbEntity
  8
Default
100
AcDbVertex
100
AcDb2dVertex
 10
10.04733357112535
 20
41.67845621462516
 30
0.0
  0
VERTEX
  5
18B
330
189
100
AcDbEntity
  8
Default
100
AcDbVertex
100
AcDb2dVertex
 10
9.982585690037283
 20
41.67845621462516
 30
0.0
  0
SEQEND
  5
18C
330
189
100
AcDbEntity
  8
Default
  0
LINE
  5
18D
330
1F
100
AcDbEntity
  8
Default
100
AcDbLine
 10
10.04733357112535
 20
43.67416214082699
 30
0.0
 11
10.04733357112535
 21
41.67845621462516
 31
0.0
  0
POLYLINE
  5
18E
330
1F
100
AcDbEntity
  8
Default
100
AcDb2dPolyline
 66
     1
 10
0.0
 20
0.0
 30
0.0
  0
VERTEX
  5
18F
330
18E
100
AcDbEntity
  8
Default
100
AcDbVertex
100
AcDb2dVertex
 10
9.982585682852928
 20
43.674162140827
 30
0.0
  0
VERTEX
  5
190
330
18E
100
AcDbEntity
  8
Default
100
AcDbVertex
100
AcDb2dVertex
 10
10.04733357112535
 20
43.67416214082699
 30
0.0
  0
SEQEND
  5
191
330
18E
100
AcDbEntity
  8
Default
  0
SPLINE
  5
192
330
1F
100
AcDbEntity
  8
Default
100
AcDbSpline
210
0.0
220
0.0
230
1.0
 70
    24
 71
     2
 72
     6
 73
     3
 74
     0
 42
0.0000000001
 43
0.0000000001
 40
0.0
 40
0.0
 40
0.0
 40
1.876832108369314
 40
1.876832108369314
 40
1.876832108369314
 10
10.54600000003637
 20
41.73669257169479
 30
0.0
 10
10.54600000003637
 20
42.67510862587945
 30
0.0
 10
10.54600000003637
 20
43.6135246800641
 30
0.0
  0
SPLINE
  5
193
330
1F
100
AcDbEntity
  8
Default
100
AcDbSpline
210
0.0
220
0.0
230
1.0
 70
    12
 71
     3
 72
    14
 73
    10
 74
     0
 42
0.0000000001
 43
0.0000000001
 40
-2.382636799938624
 40
-2.382636799938624
 40
-2.382636799938624
 40
-2.382636799938624
 40
-1.382636799938624
 40
-0.3826367999386246
 40
-0.3826367999386246
 40
-0.3826367999386246
 40
-0.2729743886858338
 40
-0.1509122625360565
 40
0.0
 40
0.0
 40
0.0
 40
0.0
 10
0.0000000000000142
 20
60.52182702310428
 30
0.0
 41
1.0
 10
-1.282456564702599
 20
60.52202142128077
 30
0.0
 41
1.0
 10
-3.848418151443823
 20
60.15170612406406
 30
0.0
 41
1.0
 10
-6.200655949874758
 20
59.0649192276996
 30
0.0
 41
1.0
 10
-7.282456947120878
 20
58.3754143792945
 30
0.0
 41
1.0
 10
-7.314217370003931
 20
58.35612297892553
 30
0.0
 41
1.0
 10
-7.378547819528265
 20
58.31327081751446
 30
0.0
 41
1.0
 10
-7.465101683346361
 20
58.24538686235474
 30
0.0
 41
1.0
 10
-7.53459030896552
 20
58.18671042979319
 30
0.0
 41
1.0
 10
-7.568919966055049
 20
58.14953580171537
 30
0.0
 41
1.0
  0
SPLINE
  5
194
330
1F
100
AcDbEntity
  8
Default
100
AcDbSpline
210
0.0
220
0.0
230
1.0
 70
    12
 71
     3
 72
    14
 73
    10
 74
     0
 42
0.0000000001
 43
0.0000000001
 40
0.0
 40
0.0
 40
0.0
 40
0.0
 40
0.1509122625360565
 40
0.2729743886858338
 40
0.3826367999386246
 40
0.3826367999386246
 40
0.3826367999386246
 40
1.382636799938624
 40
2.382636799938624
 40
2.382636799938624
 40
2.382636799938624
 40
2.382636799938624
 10
7.568919966055077
 20
58.14953580171537
 30
0.0
 41
1.0
 10
7.534590308965548
 20
58.18671042979319
 30
0.0
 41
1.0
 10
7.46510168334639
 20
58.24538686235474
 30
0.0
 41
1.0
 10
7.378547819528293
 20
58.31327081751446
 30
0.0
 41
1.0
 10
7.314217370003959
 20
58.35612297892553
 30
0.0
 41
1.0
 10
7.282456947120906
 20
58.3754143792945
 30
0.0
 41
1.0
 10
6.200655949874786
 20
59.0649192276996
 30
0.0
 41
1.0
 10
3.848418151443852
 20
60.15170612406406
 30
0.0
 41
1.0
 10
1.282456564702628
 20
60.52202142128077
 30
0.0
 41
1.0
 10
0.0000000000000142
 20
60.52182702310428
 30
0.0
 41
1.0
  0
POLYLINE
  5
195
330
1F
100
AcDbEntity
  8
Default
100
AcDb2dPolyline
 66
     1
 10
0.0
 20
0.0
 30
0.0
  0
VERTEX
  5
196
330
195
100
AcDbEntity
  8
Default
100
AcDbVertex
100
AcDb2dVertex
 10
7.616915168195234
 20
58.0623931425617
 30
0.0
  0
VERTEX
  5
197
330
195
100
AcDbEntity
  8
Default
100
AcDbVertex
100
AcDb2dVertex
 10
7.568919966055077
 20
58.14953580171537
 30
0.0
  0
SEQEND
  5
198
330
195
100
AcDbEntity
  8
Default
  0
ARC
  5
199
330
1F
100
AcDbEntity
  8
Default
100
AcDbCircle
 10
334.2731743482901
 20
288.6859946683829
 30
0.0
 40
399.8644235766344
100
AcDbArc
 50
215.2225929887776
 51
215.4361563568463
  0
SPLINE
  5
19A
330
1F
100
AcDbEntity
  8
Default
100
AcDbSpline
210
0.0
220
0.0
230
1.0
 70
     8
 71
     3
 72
    18
 73
    14
 74
     0
 42
0.0000000001
 43
0.0000000001
 40
0.0000000000000004
 40
0.0000000000000004
 40
0.0000000000000004
 40
0.0000000000000004
 40
3.809270731539037
 40
4.741449960198119
 40
5.855096042031121
 40
7.339592750294725
 40
8.454856792675347
 40
9.327331098099943
 40
10.00594223520787
 40
10.38182066249299
 40
10.49565764506195
 40
10.61383137829946
 40
11.04446704942164
 40
11.04446704942164
 40
11.04446704942164
 40
11.04446704942164
 10
8.78967421662351
 20
45.96652922922506
 30
0.0
 10
8.864149792267469
 20
47.23409468858537
 30
0.0
 10
8.955848371898796
 20
48.81193164188272
 30
0.0
 10
9.070660975589178
 20
50.76022939872472
 30
0.0
 10
9.135013201019845
 20
51.93529110895532
 30
0.0
 10
9.1786060333895
 20
53.1723708399285
 30
0.0
 10
9.183371026359268
 20
54.33006860665537
 30
0.0
 10
9.137514888462405
 20
55.2181053947703
 30
0.0
 10
9.038438007093688
 20
55.85445157776374
 30
0.0
 10
8.901904303125505
 20
56.22222903645863
 30
0.0
 10
8.79536460871988
 20
56.40008237499352
 30
0.0
 10
8.666105195314898
 20
56.57876956372036
 30
0.0
 10
8.561968782291515
 20
56.72955827354429
 30
0.0
 10
8.478805063853642
 20
56.84642473945485
 30
0.0
  0
ARC
  5
19B
330
1F
100
AcDbEntity
  8
Default
100
AcDbCircle
 10
32002.3661865269
 20
-1833.810179796802
 30
0.0
 40
32048.7519027629
100
AcDbArc
 50
176.6374627509856
 51
176.6452245671966
  0
ARC
  5
19C
330
1F
100
AcDbEntity
  8
Default
100
AcDbCircle
 10
8.159359933635344
 20
41.65440433157664
 30
0.0
 40
0.3766012876736257
100
AcDbArc
 50
279.6757155923663
 51
356.6452245672131
  0
SPLINE
  5
19D
330
1F
100
AcDbEntity
  8
Default
100
AcDbSpline
210
0.0
220
0.0
230
1.0
 70
    12
 71
     2
 72
     6
 73
     3
 74
     0
 42
0.0000000001
 43
0.0000000001
 40
0.0
 40
0.0
 40
0.0
 40
8.275528837056001
 40
8.275528837056001
 40
8.275528837056001
 10
0.0000000000000142
 20
40.47677600545289
 30
0.0
 41
1.0
 10
4.15124875142408
 20
40.47289796868899
 30
0.0
 41
0.9951340748191598
 10
8.222655907482434
 20
41.28316027496135
 30
0.0
 41
1.0
  0
SPLINE
  5
19E
330
1F
100
AcDbEntity
  8
Default
100
AcDbSpline
210
0.0
220
0.0
230
1.0
 70
    12
 71
     2
 72
     6
 73
     3
 74
     0
 42
0.0000000001
 43
0.0000000001
 40
-8.275528837056001
 40
-8.275528837056001
 40
-8.275528837056001
 40
0.0
 40
0.0
 40
0.0
 10
-8.222655907482405
 20
41.28316027496135
 30
0.0
 41
1.0
 10
-4.15124875142405
 20
40.47289796868899
 30
0.0
 41
0.9951340748191598
 10
0.0000000000000142
 20
40.47677600545289
 30
0.0
 41
1.0
  0
ARC
  5
19F
330
1F
100
AcDbEntity
  8
Default
100
AcDbCircle
 10
-8.159359933635315
 20
41.65440433157664
 30
0.0
 40
0.3766012876736257
100
AcDbArc
 50
183.354775432787
 51
260.3242844076335
  0
ARC
  5
1A0
330
1F
100
AcDbEntity
  8
Default
100
AcDbCircle
 10
-32002.3661865269
 20
-1833.810179796802
 30
0.0
 40
32048.7519027629
100
AcDbArc
 50
3.354775432803389
 51
3.362537249014393
  0
SPLINE
  5
1A1
330
1F
100
AcDbEntity
  8
Default
100
AcDbSpline
210
0.0
220
0.0
230
1.0
 70
     8
 71
     3
 72
    18
 73
    14
 74
     0
 42
0.0000000001
 43
0.0000000001
 40
-11.04446704942164
 40
-11.04446704942164
 40
-11.04446704942164
 40
-11.04446704942164
 40
-10.61383137829946
 40
-10.49565764506195
 40
-10.38182066249299
 40
-10.00594223520787
 40
-9.327331098099943
 40
-8.454856792675347
 40
-7.339592750294725
 40
-5.855096042031121
 40
-4.741449960198119
 40
-3.809270731539037
 40
-0.0000000000000004
 40
-0.0000000000000004
 40
-0.0000000000000004
 40
-0.0000000000000004
 10
-8.478805063853613
 20
56.84642473945485
 30
0.0
 10
-8.561968782291487
 20
56.72955827354429
 30
0.0
 10
-8.66610519531487
 20
56.57876956372036
 30
0.0
 10
-8.79536460871985
 20
56.40008237499352
 30
0.0
 10
-8.901904303125477
 20
56.22222903645863
 30
0.0
 10
-9.03843800709366
 20
55.85445157776374
 30
0.0
 10
-9.137514888462377
 20
55.2181053947703
 30
0.0
 10
-9.18337102635924
 20
54.33006860665537
 30
0.0
 10
-9.178606033389471
 20
53.1723708399285
 30
0.0
 10
-9.135013201019817
 20
51.93529110895532
 30
0.0
 10
-9.07066097558915
 20
50.76022939872472
 30
0.0
 10
-8.955848371898767
 20
48.81193164188272
 30
0.0
 10
-8.86414979226744
 20
47.23409468858537
 30
0.0
 10
-8.789674216623482
 20
45.96652922922506
 30
0.0
  0
ARC
  5
1A2
330
1F
100
AcDbEntity
  8
Default
100
AcDbCircle
 10
-334.2731743482901
 20
288.6859946683829
 30
0.0
 40
399.8644235766344
100
AcDbArc
 50
324.5638436431537
 51
324.7774070112224
  0
POLYLINE
  5
1A3
330
1F
100
AcDbEntity
  8
Default
100
AcDb2dPolyline
 66
     1
 10
0.0
 20
0.0
 30
0.0
  0
VERTEX
  5
1A4
330
1A3
100
AcDbEntity
  8
Default
100
AcDbVertex
100
AcDb2dVertex
 10
-7.568919966055049
 20
58.14953580171537
 30
0.0
  0
VERTEX
  5
1A5
330
1A3
100
AcDbEntity
  8
Default
100
AcDbVertex
100
AcDb2dVertex
 10
-7.616915168195206
 20
58.0623931425617
 30
0.0
  0
SEQEND
  5
1A6
330
1A3
100
AcDbEntity
  8
Default
  0
SPLINE
  5
1A7
330
1F
100
AcDbEntity
  8
Default
100
AcDbSpline
210
0.0
220
0.0
230
1.0
 70
    24
 71
     2
 72
     6
 73
     3
 74
     0
 42
0.0000000001
 43
0.0000000001
 40
0.0
 40
0.0
 40
0.0
 40
1.876832108369314
 40
1.876832108369314
 40
1.876832108369314
 10
10.54600000003637
 20
58.11169257169479
 30
0.0
 10
10.54600000003637
 20
59.05010862587945
 30
0.0
 10
10.54600000003637
 20
59.9885246800641
 30
0.0
  0
SPLINE
  5
1A8
330
1F
100
AcDbEntity
  8
Default
100
AcDbSpline
210
0.0
220
0.0
230
1.0
 70
    12
 71
     2
 72
     8
 73
     5
 74
     0
 42
0.0000000001
 43
0.0000000001
 40
0.0
 40
0.0
 40
0.0
 40
0.044359582403476
 40
0.044359582403476
 40
0.088719164806952
 40
0.088719164806952
 40
0.088719164806952
 10
10.54600000003637
 20
43.61821587320051
 30
0.0
 41
1.0
 10
10.54618861606849
 20
43.64165583193446
 30
0.0
 41
0.9212309118504963
 10
10.52951961227525
 20
43.65813647373013
 30
0.0
 41
1.0
 10
10.51285060848199
 20
43.67461711552581
 30
0.0
 41
0.9212309118504963
 10
10.4894143067433
 20
43.67416214050537
 30
0.0
 41
1.0
  0
SPLINE
  5
1A9
330
1F
100
AcDbEntity
  8
Default
100
AcDbSpline
210
0.0
220
0.0
230
1.0
 70
    12
 71
     2
 72
     8
 73
     5
 74
     0
 42
0.0000000001
 43
0.0000000001
 40
0.0
 40
0.0
 40
0.0
 40
0.0443594898986335
 40
0.0443594898986335
 40
0.0887189797972671
 40
0.0887189797972671
 40
0.0887189797972671
 10
10.54600000003636
 20
41.73440247460831
 30
0.0
 41
1.0
 10
10.54618845066822
 20
41.71096258712975
 30
0.0
 41
0.9212322792887581
 10
10.52951949847061
 20
41.69448199638541
 30
0.0
 41
1.0
 10
10.51285054627298
 20
41.6780014056411
 30
0.0
 41
0.9212322792887581
 10
10.48941431390652
 20
41.6784562145173
 30
0.0
 41
1.0
  0
SPLINE
  5
1AA
330
1F
100
AcDbEntity
  8
Default
100
AcDbSpline
210
0.0
220
0.0
230
1.0
 70
    12
 71
     2
 72
     8
 73
     5
 74
     0
 42
0.0000000001
 43
0.0000000001
 40
0.0
 40
0.0
 40
0.0
 40
0.0443595824034676
 40
0.0443595824034676
 40
0.0887191648069352
 40
0.0887191648069352
 40
0.0887191648069352
 10
10.54600000003637
 20
59.99321587320051
 30
0.0
 41
1.0
 10
10.54618861606848
 20
60.01665583193444
 30
0.0
 41
0.9212309118505145
 10
10.52951961227525
 20
60.03313647373012
 30
0.0
 41
1.0
 10
10.51285060848199
 20
60.04961711552578
 30
0.0
 41
0.9212309118505145
 10
10.4894143067433
 20
60.04916214050536
 30
0.0
 41
1.0
  0
POLYLINE
  5
1AB
330
1F
100
AcDbEntity
  8
Default
100
AcDb2dPolyline
 66
     1
 10
0.0
 20
0.0
 30
0.0
  0
VERTEX
  5
1AC
330
1AB
100
AcDbEntity
  8
Default
100
AcDbVertex
100
AcDb2dVertex
 10
-10.42466642894733
 20
41.6784562145173
 30
0.0
  0
VERTEX
  5
1AD
330
1AB
100
AcDbEntity
  8
Default
100
AcDbVertex
100
AcDb2dVertex
 10
-10.48941431390649
 20
41.6784562145173
 30
0.0
  0
SEQEND
  5
1AE
330
1AB
100
AcDbEntity
  8
Default
  0
LINE
  5
1AF
330
1F
100
AcDbEntity
  8
Default
100
AcDbLine
 10
-10.42466642894733
 20
43.67416214050537
 30
0.0
 11
-10.42466642894733
 21
41.6784562145173
 31
0.0
  0
POLYLINE
  5
1B0
330
1F
100
AcDbEntity
  8
Default
100
AcDb2dPolyline
 66
     1
 10
0.0
 20
0.0
 30
0.0
  0
VERTEX
  5
1B1
330
1B0
100
AcDbEntity
  8
Default
100
AcDbVertex
100
AcDb2dVertex
 10
-10.48941430674327
 20
43.67416214050537
 30
0.0
  0
VERTEX
  5
1B2
330
1B0
100
AcDbEntity
  8
Default
100
AcDbVertex
100
AcDb2dVertex
 10
-10.42466642894733
 20
43.67416214050537
 30
0.0
  0
SEQEND
  5
1B3
330
1B0
100
AcDbEntity
  8
Default
  0
SPLINE
  5
1B4
330
1F
100
AcDbEntity
  8
Default
100
AcDbSpline
210
0.0
220
0.0
230
1.0
 70
     8
 71
     3
 72
    11
 73
     7
 74
     0
 42
0.0000000001
 43
0.0000000001
 40
0.0
 40
0.0
 40
0.0
 40
0.0
 40
0.0657230682592645
 40
0.1596459567390957
 40
0.2742977122609734
 40
0.4123637355236573
 40
0.4123637355236573
 40
0.4123637355236573
 40
0.4123637355236573
 10
-9.382008802416195
 20
55.79694265605607
 30
0.0
 10
-9.373984140111176
 20
55.77292501693623
 30
0.0
 10
-9.340653766813503
 20
55.73118031320215
 30
0.0
 10
-9.278314749035985
 20
55.66437645491548
 30
0.0
 10
-9.19393261002763
 20
55.58525121038011
 30
0.0
 10
-9.130148030077592
 20
55.53029504582001
 30
0.0
 10
-9.094654164308153
 20
55.50096896968847
 30
0.0
  0
SPLINE
  5
1B5
330
1F
100
AcDbEntity
  8
Default
100
AcDbSpline
210
0.0
220
0.0
230
1.0
 70
    24
 71
     2
 72
     6
 73
     3
 74
     0
 42
0.0000000001
 43
0.0000000001
 40
0.0
 40
0.0
 40
0.0
 40
4.975170126843
 40
4.975170126843
 40
4.975170126843
 10
-9.983457251106458
 20
60.73562441889513
 30
0.0
 10
-9.682733026761326
 20
58.2662835374756
 30
0.0
 10
-9.382008802416195
 20
55.79694265605607
 30
0.0
  0
SPLINE
  5
1B6
330
1F
100
AcDbEntity
  8
Default
100
AcDbSpline
210
0.0
220
0.0
230
1.0
 70
     8
 71
     3
 72
    11
 73
     7
 74
     0
 42
0.0000000001
 43
0.0000000001
 40
0.0
 40
0.0
 40
0.0
 40
0.0
 40
0.0785563540144544
 40
0.1507413233057875
 40
0.2895189453328724
 40
0.5596065631428735
 40
0.5596065631428735
 40
0.5596065631428735
 40
0.5596065631428735
 10
10.01725000003795
 20
41.67630917761866
 30
0.0
 10
10.0172087193851
 20
41.65016659888771
 30
0.0
 10
10.0150899795138
 20
41.59979074391534
 30
0.0
 10
10.00026618383232
 20
41.50444841686156
 30
0.0
 10
9.949336965969735
 20
41.35083088496111
 30
0.0
 10
9.85398945211628
 20
41.24598011827718
 30
0.0
 10
9.776549517644511
 20
41.19985078366651
 30
0.0
  0
SPLINE
  5
1B7
330
1F
100
AcDbEntity
  8
Default
100
AcDbSpline
210
0.0
220
0.0
230
1.0
 70
    24
 71
     2
 72
     6
 73
     3
 74
     0
 42
0.0000000001
 43
0.0000000001
 40
0.0
 40
0.0
 40
0.0
 40
4.982986879168142
 40
4.982986879168142
 40
4.982986879168142
 10
9.815355169002814
 20
55.73629384580282
 30
0.0
 10
10.11655187704301
 20
58.20951443898819
 30
0.0
 10
10.4177485850832
 20
60.68273503217357
 30
0.0
  0
SPLINE
  5
1B8
330
1F
100
AcDbEntity
  8
Default
100
AcDbSpline
210
0.0
220
0.0
230
1.0
 70
     8
 71
     5
 72
    12
 73
     6
 74
     0
 42
0.0000000001
 43
0.0000000001
 40
0.0
 40
0.0
 40
0.0
 40
0.0
 40
0.0
 40
0.0
 40
1.0
 40
1.0
 40
1.0
 40
1.0
 40
1.0
 40
1.0
 10
9.782612974186819
 20
55.61066645827286
 30
0.0
 10
9.79457133846202
 20
55.63371356647802
 30
0.0
 10
9.805366291458242
 20
55.65736432941297
 30
0.0
 10
9.809077394398784
 20
55.68474507048219
 30
0.0
 10
9.812216281700799
 20
55.71051945814251
 30
0.0
 10
9.815355169002814
 20
55.73629384580282
 30
0.0
  0
SPLINE
  5
1B9
330
1F
100
AcDbEntity
  8
Default
100
AcDbSpline
210
0.0
220
0.0
230
1.0
 70
    12
 71
     2
 72
    12
 73
     9
 74
     0
 42
0.0000000001
 43
0.0000000001
 40
-0.8955677087960616
 40
-0.8955677087960616
 40
-0.8955677087960616
 40
-0.5677489543793204
 40
-0.5677489543793204
 40
-0.3507723183757143
 40
-0.3507723183757143
 40
-0.175908751468701
 40
-0.175908751468701
 40
0.0
 40
0.0
 40
0.0
 10
9.138809983760964
 20
54.99653361000105
 30
0.0
 41
1.0
 10
9.271253090906201
 20
55.09319897416978
 30
0.0
 41
0.9994675822846129
 10
9.397109678322806
 20
55.19829649395025
 30
0.0
 41
1.0
 10
9.48045320056411
 20
55.26780134416873
 30
0.0
 41
0.9995318098585576
 10
9.55938942322463
 20
55.34227375285521
 30
0.0
 41
1.0
 10
9.623155479462962
 20
55.40217534452803
 30
0.0
 41
0.999020730002154
 10
9.6813764329669
 20
55.46747948824196
 30
0.0
 41
1.0
 10
9.741850086133251
 20
55.53210498697909
 30
0.0
 41
0.9906577676915688
 10
9.782612974186819
 20
55.61066645827286
 30
0.0
 41
1.0
  0
SPLINE
  5
1BA
330
1F
100
AcDbEntity
  8
Default
100
AcDbSpline
210
0.0
220
0.0
230
1.0
 70
     8
 71
     3
 72
    12
 73
     8
 74
     0
 42
0.0000000001
 43
0.0000000001
 40
0.0
 40
0.0
 40
0.0
 40
0.0
 40
0.1477899108026471
 40
0.3160567471115733
 40
0.7554804820323351
 40
1.170510163754875
 40
1.602699082770829
 40
1.602699082770829
 40
1.602699082770829
 40
1.602699082770829
 10
9.451733983067484
 20
40.79824047202697
 30
0.0
 10
9.485095329951335
 20
40.76291274018114
 30
0.0
 10
9.583162855159529
 20
40.70992541954503
 30
0.0
 10
9.839070961650265
 20
40.7231444613053
 30
0.0
 10
10.14926946678145
 20
40.89220444835562
 30
0.0
 10
10.40612053958638
 20
41.24631354800022
 30
0.0
 10
10.45467367869446
 20
41.53330411025153
 30
0.0
 10
10.45475000003854
 20
41.676309177619
 30
0.0
  0
ARC
  5
1BB
330
1F
100
AcDbEntity
  8
Default
100
AcDbCircle
 10
9.630222390902418
 20
40.96679399577181
 30
0.0
 40
0.2454962364237991
100
AcDbArc
 50
191.8840319837126
 51
223.3602226285669
  0
SPLINE
  5
1BC
330
1F
100
AcDbEntity
  8
Default
100
AcDbSpline
210
0.0
220
0.0
230
1.0
 70
    24
 71
     2
 72
     6
 73
     3
 74
     0
 42
0.0000000001
 43
0.0000000001
 40
0.0
 40
0.0
 40
0.0
 40
1.628175855224801
 40
1.628175855224801
 40
1.628175855224801
 10
9.048073302773005
 20
42.50810885992186
 30
0.0
 10
9.219030660843202
 20
41.71217372713407
 30
0.0
 10
9.3899880189134
 20
40.91623859434629
 30
0.0
  0
ARC
  5
1BD
330
1F
100
AcDbEntity
  8
Default
100
AcDbCircle
 10
8.521023118178832
 20
42.17915456393269
 30
0.0
 40
1.249918138534545
100
AcDbArc
 50
71.3996905198031
 51
84.52164640347057
  0
SPLINE
  5
1BE
330
1F
100
AcDbEntity
  8
Default
100
AcDbSpline
210
0.0
220
0.0
230
1.0
 70
    12
 71
     2
 72
     8
 73
     5
 74
     0
 42
0.0000000001
 43
0.0000000001
 40
0.0
 40
0.0
 40
0.0
 40
0.0443594873972512
 40
0.0443594873972512
 40
0.0887189747945023
 40
0.0887189747945023
 40
0.0887189747945023
 10
9.926000000036353
 20
43.61821588397876
 30
0.0
 41
1.0
 10
9.925811549250419
 20
43.64165577015692
 30
0.0
 41
0.9212322779809602
 10
9.942480500519352
 20
43.65813635999278
 30
0.0
 41
1.0
 10
9.959149451788274
 20
43.67461694982866
 30
0.0
 41
0.9212322779809602
 10
9.982585682852928
 20
43.674162140827
 30
0.0
 41
1.0
  0
SPLINE
  5
1BF
330
1F
100
AcDbEntity
  8
Default
100
AcDbSpline
210
0.0
220
0.0
230
1.0
 70
    12
 71
     2
 72
     8
 73
     5
 74
     0
 42
0.0000000001
 43
0.0000000001
 40
0.0
 40
0.0
 40
0.0
 40
0.0443594898986368
 40
0.0443594898986368
 40
0.0887189797972737
 40
0.0887189797972737
 40
0.0887189797972737
 10
10.54600000003636
 20
58.10940247460832
 30
0.0
 41
1.0
 10
10.54618845066821
 20
58.08596258712975
 30
0.0
 41
0.9212322792887785
 10
10.52951949847061
 20
58.06948199638542
 30
0.0
 41
1.0
 10
10.51285054627297
 20
58.05300140564109
 30
0.0
 41
0.9212322792887785
 10
10.48941431390652
 20
58.05345621451729
 30
0.0
 41
1.0
  0
LINE
  5
1C0
330
1F
100
AcDbEntity
  8
Default
100
AcDbLine
 10
9.818348218586252
 20
41.0052463802335
 30
0.0
 11
9.267076707549066
 21
43.57183004935668
 31
0.0
  0
ARC
  5
1C1
330
1F
100
AcDbEntity
  8
Default
100
AcDbCircle
 10
9.609984141590147
 20
40.96049226566736
 30
0.0
 40
0.2131162109109485
100
AcDbArc
 50
347.9003007455149
 51
12.1222725763951
  0
SPLINE
  5
1C2
330
1F
100
AcDbEntity
  8
Default
100
AcDbSpline
210
0.0
220
0.0
230
1.0
 70
    24
 71
     2
 72
     6
 73
     3
 74
     0
 42
0.0000000001
 43
0.0000000001
 40
0.0
 40
0.0
 40
0.0
 40
0.3336096049252015
 40
0.3336096049252015
 40
0.3336096049252015
 10
8.620493924339101
 20
42.94560885992193
 30
0.0
 10
8.787298726801708
 20
42.94560885992193
 30
0.0
 10
8.954103529264316
 20
42.94560885992193
 30
0.0
  0
SPLINE
  5
1C3
330
1F
100
AcDbEntity
  8
Default
100
AcDbSpline
210
0.0
220
0.0
230
1.0
 70
    24
 71
     2
 72
     6
 73
     3
 74
     0
 42
0.0000000001
 43
0.0000000001
 40
0.0
 40
0.0
 40
0.0
 40
0.5962694764435739
 40
0.5962694764435739
 40
0.5962694764435739
 10
9.190912559011352
 20
42.50810885992186
 30
0.0
 10
8.892777820789561
 20
42.50810885992186
 30
0.0
 10
8.59464308256777
 20
42.50810885992186
 30
0.0
  0
ARC
  5
1C4
330
1F
100
AcDbEntity
  8
Default
100
AcDbCircle
 10
8.369450846210668
 20
41.34453230440702
 30
0.0
 40
2.534429218687659
100
AcDbArc
 50
83.04113616446362
 51
83.27903196432909
  0
SPLINE
  5
1C5
330
1F
100
AcDbEntity
  8
Default
100
AcDbSpline
210
0.0
220
0.0
230
1.0
 70
     8
 71
     3
 72
    12
 73
     8
 74
     0
 42
0.0000000001
 43
0.0000000001
 40
0.0
 40
0.0
 40
0.0
 40
0.0
 40
0.0616078873031008
 40
0.1214384796912222
 40
0.2494411968031255
 40
0.4307561194907502
 40
0.6967675036406633
 40
0.6967675036406633
 40
0.6967675036406633
 40
0.6967675036406633
 10
9.266461276986533
 20
43.57469534166376
 30
0.0
 10
9.26223315813641
 20
43.59516064128617
 30
0.0
 10
9.248249254513397
 20
43.63255863698076
 30
0.0
 10
9.201626900039486
 20
43.70352720173803
 30
0.0
 10
9.097328825414024
 20
43.77274557608328
 30
0.0
 10
8.910991540123703
 20
43.82372395388736
 30
0.0
 10
8.764892378857184
 20
43.84950427436822
 30
0.0
 10
8.676513932106374
 20
43.86029137987867
 30
0.0
  0
SPLINE
  5
1C6
330
1F
100
AcDbEntity
  8
Default
100
AcDbSpline
210
0.0
220
0.0
230
1.0
 70
    12
 71
     2
 72
     8
 73
     5
 74
     0
 42
0.0000000001
 43
0.0000000001
 40
0.0
 40
0.0
 40
0.0
 40
0.0443595239753132
 40
0.0443595239753132
 40
0.0887190479506264
 40
0.0887190479506264
 40
0.0887190479506264
 10
9.982585690037283
 20
41.67845621462516
 30
0.0
 41
1.0
 10
9.959149432353751
 20
41.67800134649281
 30
0.0
 41
0.9212317914759943
 10
9.94248046136262
 20
41.69448195586637
 30
0.0
 41
1.0
 10
9.925811490371498
 20
41.71096256523993
 30
0.0
 41
0.9212317914759943
 10
9.926000000036368
 20
41.73440247870678
 30
0.0
 41
1.0
  0
POLYLINE
  5
1C7
330
1F
100
AcDbEntity
  8
Default
100
AcDb2dPolyline
 66
     1
 10
0.0
 20
0.0
 30
0.0
  0
VERTEX
  5
1C8
330
1C7
100
AcDbEntity
  8
Default
100
AcDbVertex
100
AcDb2dVertex
 10
-10.04733357112534
 20
41.67845621462516
 30
0.0
  0
VERTEX
  5
1C9
330
1C7
100
AcDbEntity
  8
Default
100
AcDbVertex
100
AcDb2dVertex
 10
-9.982585690037254
 20
41.67845621462516
 30
0.0
  0
SEQEND
  5
1CA
330
1C7
100
AcDbEntity
  8
Default
  0
LINE
  5
1CB
330
1F
100
AcDbEntity
  8
Default
100
AcDbLine
 10
-10.04733357112532
 20
43.67416214082699
 30
0.0
 11
-10.04733357112534
 21
41.67845621462516
 31
0.0
  0
POLYLINE
  5
1CC
330
1F
100
AcDbEntity
  8
Default
100
AcDb2dPolyline
 66
     1
 10
0.0
 20
0.0
 30
0.0
  0
VERTEX
  5
1CD
330
1CC
100
AcDbEntity
  8
Default
100
AcDbVertex
100
AcDb2dVertex
 10
-9.9825856828529
 20
43.674162140827
 30
0.0
  0
VERTEX
  5
1CE
330
1CC
100
AcDbEntity
  8
Default
100
AcDbVertex
100
AcDb2dVertex
 10
-10.04733357112532
 20
43.67416214082699
 30
0.0
  0
SEQEND
  5
1CF
330
1CC
100
AcDbEntity
  8
Default
  0
SPLINE
  5
1D0
330
1F
100
AcDbEntity
  8
Default
100
AcDbSpline
210
0.0
220
0.0
230
1.0
 70
    12
 71
     2
 72
     6
 73
     3
 74
     0
 42
0.0000000001
 43
0.0000000001
 40
0.0
 40
0.0
 40
0.0
 40
0.22612415426881
 40
0.22612415426881
 40
0.22612415426881
 10
9.003360211762967
 20
42.71628194139769
 30
0.0
 41
1.0
 10
9.028541499536487
 20
42.59904410001989
 30
0.0
 41
0.9164787452922396
 10
9.190912559011352
 20
42.50810885992186
 30
0.0
 41
1.0
  0
SPLINE
  5
1D1
330
1F
100
AcDbEntity
  8
Default
100
AcDbSpline
210
0.0
220
0.0
230
1.0
 70
    12
 71
     2
 72
     6
 73
     3
 74
     0
 42
0.0000000001
 43
0.0000000001
 40
0.0
 40
0.0
 40
0.0
 40
0.22612415426881
 40
0.22612415426881
 40
0.22612415426881
 10
-9.003360211762939
 20
42.71628194139769
 30
0.0
 41
1.0
 10
-9.028541499536468
 20
42.59904410001989
 30
0.0
 41
0.9164787452922396
 10
-9.190912559011323
 20
42.50810885992186
 30
0.0
 41
1.0
  0
ARC
  5
1D2
330
1F
100
AcDbEntity
  8
Default
100
AcDbCircle
 10
-10.32395717555372
 20
60.71555824259868
 30
0.0
 40
0.3410906770636682
100
AcDbArc
 50
3.372626389726103
 51
23.05821417268118
  0
SPLINE
  5
1D3
330
1F
100
AcDbEntity
  8
Default
100
AcDbSpline
210
0.0
220
0.0
230
1.0
 70
     8
 71
     3
 72
    12
 73
     8
 74
     0
 42
0.0000000001
 43
0.0000000001
 40
0.0079220932400635
 40
0.0079220932400635
 40
0.0079220932400635
 40
0.0079220932400635
 40
0.4008488188003001
 40
0.649497839620818
 40
0.8322503145587989
 40
1.079070071483766
 40
1.324216382091657
 40
1.324216382091657
 40
1.324216382091657
 40
1.324216382091657
 10
-10.45461504154851
 20
60.04916214050537
 30
0.0
 10
-10.45425466109883
 20
60.17909234169815
 30
0.0
 10
-10.45295216048007
 20
60.39744184920993
 30
0.0
 10
-10.44600504154577
 20
60.66481575281624
 30
0.0
 10
-10.42933012229108
 20
60.901231847388
 30
0.0
 10
-10.19971182500031
 20
61.03596595614086
 30
0.0
 10
-10.04155160711399
 20
60.92299822858863
 30
0.0
 10
-10.01011712489078
 20
60.84915192725344
 30
0.0
  0
LINE
  5
1D4
330
1F
100
AcDbEntity
  8
Default
100
AcDbLine
 10
-9.818348218586223
 20
41.0052463802335
 30
0.0
 11
-9.267076707549037
 21
43.57183004935668
 31
0.0
  0
ARC
  5
1D5
330
1F
100
AcDbEntity
  8
Default
100
AcDbCircle
 10
-9.609984141590118
 20
40.96049226566736
 30
0.0
 40
0.2131162109109485
100
AcDbArc
 50
167.8777274236049
 51
192.0996992544851
  0
ARC
  5
1D6
330
1F
100
AcDbEntity
  8
Default
100
AcDbCircle
 10
-8.521023118178803
 20
42.17915456393269
 30
0.0
 40
1.249918138534545
100
AcDbArc
 50
95.47835359652944
 51
108.6003094801969
  0
ARC
  5
1D7
330
1F
100
AcDbEntity
  8
Default
100
AcDbCircle
 10
-8.36945084621064
 20
41.34453230440702
 30
0.0
 40
2.534429218687659
100
AcDbArc
 50
96.72096803567091
 51
96.95886383553639
  0
SPLINE
  5
1D8
330
1F
100
AcDbEntity
  8
Default
100
AcDbSpline
210
0.0
220
0.0
230
1.0
 70
     8
 71
     3
 72
    12
 73
     8
 74
     0
 42
0.0000000001
 43
0.0000000001
 40
0.0
 40
0.0
 40
0.0
 40
0.0
 40
0.0616078873031008
 40
0.1214384796912222
 40
0.2494411968031255
 40
0.4307561194907502
 40
0.6967675036406633
 40
0.6967675036406633
 40
0.6967675036406633
 40
0.6967675036406633
 10
-9.266461276986504
 20
43.57469534166376
 30
0.0
 10
-9.262233158136382
 20
43.59516064128617
 30
0.0
 10
-9.248249254513368
 20
43.63255863698076
 30
0.0
 10
-9.201626900039457
 20
43.70352720173803
 30
0.0
 10
-9.097328825413996
 20
43.77274557608328
 30
0.0
 10
-8.910991540123675
 20
43.82372395388736
 30
0.0
 10
-8.764892378857155
 20
43.84950427436822
 30
0.0
 10
-8.67651393210636
 20
43.86029137987867
 30
0.0
  0
SPLINE
  5
1D9
330
1F
100
AcDbEntity
  8
Default
100
AcDbSpline
210
0.0
220
0.0
230
1.0
 70
     8
 71
     3
 72
    11
 73
     7
 74
     0
 42
0.0000000001
 43
0.0000000001
 40
0.0
 40
0.0
 40
0.0
 40
0.0
 40
0.4534921181579492
 40
0.8570613039793787
 40
1.243504075710657
 40
1.643155312824442
 40
1.643155312824442
 40
1.643155312824442
 40
1.643155312824442
 10
-8.088590653278715
 20
18.20522417826893
 30
0.0
 10
-8.235778074409112
 20
18.23966876949125
 30
0.0
 10
-8.529951945852503
 20
18.23202920825867
 30
0.0
 10
-8.908124972052704
 20
18.04339322518674
 30
0.0
 10
-9.174794562742392
 20
17.74033655681118
 30
0.0
 10
-9.258852301818607
 20
17.48488866895881
 30
0.0
 10
-9.266041210767327
 20
17.35186570201127
 30
0.0
  0
SPLINE
  5
1DA
330
1F
100
AcDbEntity
  8
Default
100
AcDbSpline
210
0.0
220
0.0
230
1.0
 70
     8
 71
     3
 72
     9
 73
     5
 74
     0
 42
0.0000000001
 43
0.0000000001
 40
0.0
 40
0.0
 40
0.0
 40
0.0
 40
1.081584310814043
 40
2.024839522124213
 40
2.024839522124213
 40
2.024839522124213
 40
2.024839522124213
 10
-8.082444317381004
 20
18.20375471331804
 30
0.0
 10
-7.732099570136796
 20
18.11867197965731
 30
0.0
 10
-7.069629566501433
 20
17.98685342411455
 30
0.0
 10
-6.398864045548081
 20
17.90853517660656
 30
0.0
 10
-6.086083282032803
 20
17.87574597997506
 30
0.0
  0
SPLINE
  5
1DB
330
1F
100
AcDbEntity
  8
Default
100
AcDbSpline
210
0.0
220
0.0
230
1.0
 70
    12
 71
     2
 72
     6
 73
     3
 74
     0
 42
0.0000000001
 43
0.0000000001
 40
0.0
 40
0.0
 40
0.0
 40
0.8811416051574253
 40
0.8811416051574253
 40
0.8811416051574253
 10
-10.4494896437856
 20
0.5332730905129921
 30
0.0
 41
1.0
 10
-10.43466179415411
 20
0.973594364437665
 30
0.0
 41
0.9999997785560399
 10
-10.419247891745
 20
1.413895512525949
 30
0.0
 41
1.0
  0
SPLINE
  5
1DC
330
1F
100
AcDbEntity
  8
Default
100
AcDbSpline
210
0.0
220
0.0
230
1.0
 70
    12
 71
     2
 72
     6
 73
     3
 74
     0
 42
0.0000000001
 43
0.0000000001
 40
0.0
 40
0.0
 40
0.0
 40
0.9821602023113478
 40
0.9821602023113478
 40
0.9821602023113478
 10
-5.521584225998197
 20
17.18331705549573
 30
0.0
 41
1.0
 10
-5.994236627949591
 20
17.31723211038944
 30
0.0
 41
0.9994596511961883
 10
-6.457069025886284
 20
17.48191272982525
 30
0.0
 41
1.0
  0
SPLINE
  5
1DD
330
1F
100
AcDbEntity
  8
Default
100
AcDbSpline
210
0.0
220
0.0
230
1.0
 70
    12
 71
     2
 72
     6
 73
     3
 74
     0
 42
0.0000000001
 43
0.0000000001
 40
0.0
 40
0.0
 40
0.0
 40
1.896879750639666
 40
1.896879750639666
 40
1.896879750639666
 10
-5.435736710773966
 20
16.72172136960443
 30
0.0
 41
1.0
 10
-6.335153853971028
 20
17.0384437320298
 30
0.0
 41
0.9919753430902843
 10
-7.126372097900429
 20
17.57064476811519
 30
0.0
 41
1.0
  0
SPLINE
  5
1DE
330
1F
100
AcDbEntity
  8
Default
100
AcDbSpline
210
0.0
220
0.0
230
1.0
 70
    24
 71
     2
 72
     6
 73
     3
 74
     0
 42
0.0000000001
 43
0.0000000001
 40
0.0
 40
0.0
 40
0.0
 40
17.9977575491584
 40
17.9977575491584
 40
17.9977575491584
 10
-8.998878774614894
 20
12.61571221212949
 30
0.0
 10
-0.0000000000356906
 20
12.61571221212949
 30
0.0
 10
8.998878774543513
 20
12.61571221212949
 30
0.0
  0
SPLINE
  5
1DF
330
1F
100
AcDbEntity
  8
Default
100
AcDbSpline
210
0.0
220
0.0
230
1.0
 70
    24
 71
     2
 72
     6
 73
     3
 74
     0
 42
0.0000000001
 43
0.0000000001
 40
0.0
 40
0.0
 40
0.0
 40
18.02741471777438
 40
18.02741471777438
 40
18.02741471777438
 10
9.013471182544052
 20
12.17821221212949
 30
0.0
 10
-0.0002361763431438
 20
12.17821221212949
 30
0.0
 10
-9.01394353523034
 20
12.17821221212949
 30
0.0
  0
SPLINE
  5
1E0
330
1F
100
AcDbEntity
  8
Default
100
AcDbSpline
210
0.0
220
0.0
230
1.0
 70
    24
 71
     2
 72
     6
 73
     3
 74
     0
 42
0.0000000001
 43
0.0000000001
 40
0.0
 40
0.0
 40
0.0
 40
15.81361563265581
 40
15.81361563265581
 40
15.81361563265581
 10
-9.81836583458599
 20
1.539789735845262
 30
0.0
 10
-9.542422221272851
 20
9.441780938486259
 30
0.0
 10
-9.266478607959712
 20
17.34377214112726
 30
0.0
  0
SPLINE
  5
1E1
330
1F
100
AcDbEntity
  8
Default
100
AcDbSpline
210
0.0
220
0.0
230
1.0
 70
    12
 71
     2
 72
    18
 73
    15
 74
     0
 42
0.0000000001
 43
0.0000000001
 40
0.0
 40
0.0
 40
0.0
 40
0.3242139027855036
 40
0.3242139027855036
 40
0.515932164585932
 40
0.515932164585932
 40
0.7262946757684461
 40
0.7262946757684461
 40
0.9101505668782213
 40
0.9101505668782213
 40
1.082651277134167
 40
1.082651277134167
 40
1.207427770769314
 40
1.207427770769314
 40
1.256354410854803
 40
1.256354410854803
 40
1.256354410854803
 10
-9.81836583458599
 20
1.539789735845262
 30
0.0
 41
1.0
 10
-9.82941122729292
 20
1.376333937784989
 30
0.0
 41
0.9843113434208393
 10
-9.896544359989619
 20
1.226891838248419
 30
0.0
 41
1.0
 10
-9.934267201148847
 20
1.138653467389244
 30
0.0
 41
0.9983670127300864
 10
-9.981808676343306
 20
1.055293819037413
 30
0.0
 41
1.0
 10
-10.03385894271506
 20
0.9638149950328557
 30
0.0
 41
0.9990176519269051
 10
-10.093804405491
 20
0.8773040306225255
 30
0.0
 41
1.0
 10
-10.14610864701964
 20
0.8016713723404904
 30
0.0
 41
0.9995311995311507
 10
-10.20294390136256
 20
0.7293817704293558
 30
0.0
 41
1.0
 10
-10.25623428250427
 20
0.6615404751758215
 30
0.0
 41
0.999679299175703
 10
-10.31289122097577
 20
0.5964843656476366
 30
0.0
 41
1.0
 10
-10.35383351673962
 20
0.549398897300315
 30
0.0
 41
0.9998035906119707
 10
-10.39660962724041
 20
0.5039729434597576
 30
0.0
 41
1.0
 10
-10.41337366955942
 20
0.4861544274314659
 30
0.0
 41
0.9999015077900728
 10
-10.4306312159169
 20
0.4688134435481026
 30
0.0
 41
1.0
  0
SPLINE
  5
1E2
330
1F
100
AcDbEntity
  8
Default
100
AcDbSpline
210
0.0
220
0.0
230
1.0
 70
    12
 71
     2
 72
     6
 73
     3
 74
     0
 42
0.0000000001
 43
0.0000000001
 40
0.0
 40
0.0
 40
0.0
 40
0.0015672370115101
 40
0.0015672370115101
 40
0.0015672370115101
 10
-5.533977455662367
 20
17.0527565501352
 30
0.0
 41
1.0
 10
-5.534178102696636
 20
17.0535141099775
 30
0.0
 41
0.9998800978383098
 10
-5.534355194458442
 20
17.05427751986409
 30
0.0
 41
1.0
  0
SPLINE
  5
1E3
330
1F
100
AcDbEntity
  8
Default
100
AcDbSpline
210
0.0
220
0.0
230
1.0
 70
    24
 71
     2
 72
     6
 73
     3
 74
     0
 42
0.0000000001
 43
0.0000000001
 40
0.0
 40
0.0
 40
0.0
 40
0.1115294638954875
 40
0.1115294638954875
 40
0.1115294638954875
 10
-3.915694241926005
 20
16.40010164036653
 30
0.0
 10
-3.931801549820023
 20
16.34671381439833
 30
0.0
 10
-3.94790885771404
 20
16.29332598843013
 30
0.0
  0
SPLINE
  5
1E4
330
1F
100
AcDbEntity
  8
Default
100
AcDbSpline
210
0.0
220
0.0
230
1.0
 70
    12
 71
     2
 72
     6
 73
     3
 74
     0
 42
0.0000000001
 43
0.0000000001
 40
0.0
 40
0.0
 40
0.0
 40
0.0173380954150765
 40
0.0173380954150765
 40
0.0173380954150765
 10
-3.932233181825623
 20
16.40486421965898
 30
0.0
 41
1.0
 10
-3.923456289703455
 20
16.4042450476169
 30
0.0
 41
0.9780419435713372
 10
-3.915694241926005
 20
16.40010164036653
 30
0.0
 41
1.0
  0
ENDSEC
  0
SECTION
  2
OBJECTS
  0
DICTIONARY
  5
C
330
0
100
AcDbDictionary
281
     1
  3
ACAD_GROUP
350
D
  3
ACAD_LAYOUT
350
1A
  3
ACAD_MLEADERSTYLE
350
1E6
  3
ACAD_MLINESTYLE
350
17
  3
ACAD_PLOTSETTINGS
350
19
  3
ACAD_PLOTSTYLENAME
350
E
  3
ACAD_TABLESTYLE
350
1E5
  3
ACAD_VISUALSTYLE
350
2A
  0
DICTIONARY
  5
D
102
{ACAD_REACTORS
330
C
102
}
330
C
100
AcDbDictionary
281
     1
  0
DICTIONARY
  5
1A
102
{ACAD_REACTORS
330
C
102
}
330
C
100
AcDbDictionary
281
     1
  3
Layout1
350
1E
  3
Layout2
350
26
  3
Model
350
22
  0
DICTIONARY
  5
1E6
102
{ACAD_REACTORS
330
C
102
}
330
C
100
AcDbDictionary
281
     1
  0
DICTIONARY
  5
17
102
{ACAD_REACTORS
330
C
102
}
330
C
100
AcDbDictionary
281
     1
  3
Standard
350
18
  0
DICTIONARY
  5
19
102
{ACAD_REACTORS
330
C
102
}
330
C
100
AcDbDictionary
281
     1
  0
ACDBDICTIONARYWDFLT
  5
E
102
{ACAD_REACTORS
330
C
102
}
330
C
100
AcDbDictionary
281
     1
  3
Normal
350
F
100
AcDbDictionaryWithDefault
340
F
  0
DICTIONARY
  5
1E5
102
{ACAD_REACTORS
330
C
102
}
330
C
100
AcDbDictionary
281
     1
  0
DICTIONARY
  5
2A
102
{ACAD_REACTORS
330
C
102
}
330
C
100
AcDbDictionary
281
     1
  3
2dWireframe
350
2F
  3
3D Hidden
350
31
  3
3dWireframe
350
30
  3
Basic
350
32
  3
Brighten
350
36
  3
ColorChange
350
3A
  3
Conceptual
350
34
  3
Dim
350
35
  3
Facepattern
350
39
  3
Flat
350
2B
  3
FlatWithEdges
350
2C
  3
Gouraud
350
2D
  3
GouraudWithEdges
350
2E
  3
Linepattern
350
38
  3
Realistic
350
33
  3
Thicken
350
37
  0
LAYOUT
  5
1E
102
{ACAD_REACTORS
330
1A
102
}
330
1A
100
AcDbPlotSettings
  1

  2
none_device
  4

  6

 40
0.0
 41
0.0
 42
0.0
 43
0.0
 44
0.0
 45
0.0
 46
0.0
 47
0.0
 48
0.0
 49
0.0
140
0.0
141
0.0
142
1.0
143
1.0
 70
   688
 72
     0
 73
     0
 74
     5
  7

 75
    16
 76
     0
 77
     2
 78
   300
147
1.0
148
0.0
149
0.0
100
AcDbLayout
  1
Layout1
 70
     1
 71
     1
 10
0.0
 20
0.0
 11
12.0
 21
9.0
 12
0.0
 22
0.0
 32
0.0
 14
1.000000000000000E+20
 24
1.000000000000000E+20
 34
1.000000000000000E+20
 15
-1.000000000000000E+20
 25
-1.000000000000000E+20
 35
-1.000000000000000E+20
146
0.0
 13
0.0
 23
0.0
 33
0.0
 16
1.0
 26
0.0
 36
0.0
 17
0.0
 27
1.0
 37
0.0
 76
     0
330
1B
  0
LAYOUT
  5
26
102
{ACAD_REACTORS
330
1A
102
}
330
1A
100
AcDbPlotSettings
  1

  2
none_device
  4

  6

 40
0.0
 41
0.0
 42
0.0
 43
0.0
 44
0.0
 45
0.0
 46
0.0
 47
0.0
 48
0.0
 49
0.0
140
0.0
141
0.0
142
1.0
143
1.0
 70
   688
 72
     0
 73
     0
 74
     5
  7

 75
    16
 76
     0
 77
     2
 78
   300
147
1.0
148
0.0
149
0.0
100
AcDbLayout
  1
Layout2
 70
     1
 71
     2
 10
0.0
 20
0.0
 11
0.0
 21
0.0
 12
0.0
 22
0.0
 32
0.0
 14
0.0
 24
0.0
 34
0.0
 15
0.0
 25
0.0
 35
0.0
146
0.0
 13
0.0
 23
0.0
 33
0.0
 16
1.0
 26
0.0
 36
0.0
 17
0.0
 27
1.0
 37
0.0
 76
     0
330
23
  0
LAYOUT
  5
22
102
{ACAD_REACTORS
330
1A
102
}
330
1A
100
AcDbPlotSettings
  1

  2
none_device
  4

  6

 40
0.0
 41
0.0
 42
0.0
 43
0.0
 44
0.0
 45
0.0
 46
0.0
 47
0.0
 48
0.0
 49
0.0
140
0.0
141
0.0
142
1.0
143
1.0
 70
  1712
 72
     0
 73
     0
 74
     0
  7

 75
     0
 76
     0
 77
     2
 78
   300
147
1.0
148
0.0
149
0.0
100
AcDbLayout
  1
Model
 70
     1
 71
     0
 10
0.0
 20
0.0
 11
12.0
 21
9.0
 12
0.0
 22
0.0
 32
0.0
 14
-10.54600000003634
 24
0.0000000000000228
 34
0.0
 15
40.99812938372015
 25
60.98313826907402
 35
0.0
146
0.0
 13
0.0
 23
0.0
 33
0.0
 16
1.0
 26
0.0
 36
0.0
 17
0.0
 27
1.0
 37
0.0
 76
     0
330
1F
331
29
  0
MLINESTYLE
  5
18
102
{ACAD_REACTORS
330
17
102
}
330
17
100
AcDbMlineStyle
  2
Standard
 70
     0
  3

 62
   256
 51
90.0
 52
90.0
 71
     2
 49
0.5
 62
   256
  6
BYLAYER
 49
-0.5
 62
   256
  6
BYLAYER
  0
ACDBPLACEHOLDER
  5
F
102
{ACAD_REACTORS
330
E
102
}
330
E
  0
VISUALSTYLE
  5
2F
102
{ACAD_REACTORS
330
2A
102
}
330
2A
100
AcDbVisualStyle
  2
2dWireframe
 70
     4
 71
     0
 72
     2
 73
     0
 90
        0
 40
-0.6
 41
-30.0
 62
     5
 63
     7
421
 16777215
 74
     1
 91
        4
 64
     7
 65
   257
 75
     1
175
     1
 42
1.0
 92
        0
 66
   257
 43
1.0
 76
     1
 77
     6
 78
     2
 67
     7
 79
     5
170
     0
171
     0
290
     0
174
     0
 93
        1
 44
0.0
173
     0
291
     0
 45
0.0
1001
ACAD
1000
AcDbSavedByObjectVersion
1070
     0
  0
VISUALSTYLE
  5
31
102
{ACAD_REACTORS
330
2A
102
}
330
2A
100
AcDbVisualStyle
  2
3D Hidden
 70
     6
 71
     1
 72
     2
 73
     2
 90
        0
 40
-0.6
 41
-30.0
 62
     5
 63
     7
421
 16777215
 74
     2
 91
        2
 64
     7
 65
   257
 75
     2
175
     1
 42
40.0
 92
        0
 66
   257
 43
1.0
 76
     1
 77
     6
 78
     2
 67
     7
 79
     3
170
     0
171
     0
290
     0
174
     0
 93
        1
 44
0.0
173
     0
291
     0
 45
0.0
1001
ACAD
1000
AcDbSavedByObjectVersion
1070
     0
  0
VISUALSTYLE
  5
30
102
{ACAD_REACTORS
330
2A
102
}
330
2A
100
AcDbVisualStyle
  2
3dWireframe
 70
     5
 71
     0
 72
     2
 73
     0
 90
        0
 40
-0.6
 41
-30.0
 62
     5
 63
     7
421
 16777215
 74
     1
 91
        4
 64
     7
 65
   257
 75
     1
175
     1
 42
1.0
 92
        0
 66
   257
 43
1.0
 76
     1
 77
     6
 78
     2
 67
     7
 79
     5
170
     0
171
     0
290
     0
174
     0
 93
        1
 44
0.0
173
     0
291
     0
 45
0.0
1001
ACAD
1000
AcDbSavedByObjectVersion
1070
     0
  0
VISUALSTYLE
  5
32
102
{ACAD_REACTORS
330
2A
102
}
330
2A
100
AcDbVisualStyle
  2
Basic
 70
     7
 71
     1
 72
     0
 73
     1
 90
        0
 40
-0.6
 41
-30.0
 62
     5
 63
     7
421
 16777215
 74
     0
 91
        4
 64
     7
 65
   257
 75
     1
175
     1
 42
1.0
 92
        8
 66
     7
 43
1.0
 76
     1
 77
     6
 78
     2
 67
     7
 79
     5
170
     0
171
     0
290
     0
174
     0
 93
        1
 44
0.0
173
     0
291
     1
 45
0.0
1001
ACAD
1000
AcDbSavedByObjectVersion
1070
     0
  0
VISUALSTYLE
  5
36
102
{ACAD_REACTORS
330
2A
102
}
330
2A
100
AcDbVisualStyle
  2
Brighten
 70
    12
 71
     2
 72
     2
 73
     0
 90
        0
 40
-0.6
 41
-30.0
 62
     5
 63
     7
421
 16777215
 74
     1
 91
        4
 64
     7
 65
   257
 75
     1
175
     1
 42
1.0
 92
        8
 66
     7
 43
1.0
 76
     1
 77
     6
 78
     2
 67
     7
 79
     5
170
     0
171
     0
290
     0
174
     0
 93
        1
 44
50.0
173
     0
291
     1
 45
0.0
1001
ACAD
1000
AcDbSavedByObjectVersion
1070
     0
  0
VISUALSTYLE
  5
3A
102
{ACAD_REACTORS
330
2A
102
}
330
2A
100
AcDbVisualStyle
  2
ColorChange
 70
    16
 71
     2
 72
     2
 73
     3
 90
        0
 40
-0.6
 41
-30.0
 62
     5
 63
     8
421
  8421504
 74
     1
 91
        4
 64
     7
 65
   257
 75
     1
175
     1
 42
1.0
 92
        8
 66
     8
424
  8421504
 43
1.0
 76
     1
 77
     6
 78
     2
 67
     7
 79
     5
170
     0
171
     0
290
     0
174
     0
 93
        1
 44
0.0
173
     0
291
     1
 45
0.0
1001
ACAD
1000
AcDbSavedByObjectVersion
1070
     0
  0
VISUALSTYLE
  5
34
102
{ACAD_REACTORS
330
2A
102
}
330
2A
100
AcDbVisualStyle
  2
Conceptual
 70
     9
 71
     3
 72
     2
 73
     0
 90
        0
 40
-0.6
 41
-30.0
 62
     5
 63
     7
421
 16777215
 74
     2
 91
        2
 64
     7
 65
   257
 75
     1
175
     1
 42
40.0
 92
        8
 66
     7
 43
1.0
 76
     1
 77
     6
 78
     2
 67
     7
 79
     3
170
     0
171
     0
290
     0
174
     0
 93
        1
 44
0.0
173
     0
291
     0
 45
0.0
1001
ACAD
1000
AcDbSavedByObjectVersion
1070
     0
  0
VISUALSTYLE
  5
35
102
{ACAD_REACTORS
330
2A
102
}
330
2A
100
AcDbVisualStyle
  2
Dim
 70
    11
 71
     2
 72
     2
 73
     0
 90
        0
 40
-0.6
 41
-30.0
 62
     5
 63
     7
421
 16777215
 74
     1
 91
        4
 64
     7
 65
   257
 75
     1
175
     1
 42
1.0
 92
        8
 66
     7
 43
1.0
 76
     1
 77
     6
 78
     2
 67
     7
 79
     5
170
     0
171
     0
290
     0
174
     0
 93
        1
 44
-50.0
173
     0
291
     1
 45
0.0
1001
ACAD
1000
AcDbSavedByObjectVersion
1070
     0
  0
VISUALSTYLE
  5
39
102
{ACAD_REACTORS
330
2A
102
}
330
2A
100
AcDbVisualStyle
  2
Facepattern
 70
    15
 71
     2
 72
     2
 73
     0
 90
        0
 40
-0.6
 41
-30.0
 62
     5
 63
     7
421
 16777215
 74
     1
 91
        4
 64
     7
 65
   257
 75
     1
175
     1
 42
1.0
 92
        8
 66
     7
 43
1.0
 76
     1
 77
     6
 78
     2
 67
     7
 79
     5
170
     0
171
     0
290
     0
174
     0
 93
        1
 44
0.0
173
     0
291
     1
 45
0.0
1001
ACAD
1000
AcDbSavedByObjectVersion
1070
     0
  0
VISUALSTYLE
  5
2B
102
{ACAD_REACTORS
330
2A
102
}
330
2A
100
AcDbVisualStyle
  2
Flat
 70
     0
 71
     2
 72
     1
 73
     1
 90
        2
 40
-0.6
 41
30.0
 62
     5
 63
     7
421
 16777215
 74
     0
 91
        4
 64
     7
 65
   257
 75
     1
175
     1
 42
1.0
 92
        8
 66
     7
 43
1.0
 76
     1
 77
     6
 78
     2
 67
     7
 79
     5
170
     0
171
     0
290
     0
174
     0
 93
       13
 44
0.0
173
     0
291
     1
 45
0.0
1001
ACAD
1000
AcDbSavedByObjectVersion
1070
     0
  0
VISUALSTYLE
  5
2C
102
{ACAD_REACTORS
330
2A
102
}
330
2A
100
AcDbVisualStyle
  2
FlatWithEdges
 70
     1
 71
     2
 72
     1
 73
     1
 90
        2
 40
-0.6
 41
30.0
 62
     5
 63
     7
421
 16777215
 74
     1
 91
        4
 64
     7
 65
   257
 75
     1
175
     1
 42
1.0
 92
        0
 66
   257
 43
1.0
 76
     1
 77
     6
 78
     2
 67
     7
 79
     5
170
     0
171
     0
290
     0
174
     0
 93
       13
 44
0.0
173
     0
291
     1
 45
0.0
1001
ACAD
1000
AcDbSavedByObjectVersion
1070
     0
  0
VISUALSTYLE
  5
2D
102
{ACAD_REACTORS
330
2A
102
}
330
2A
100
AcDbVisualStyle
  2
Gouraud
 70
     2
 71
     2
 72
     2
 73
     1
 90
        2
 40
-0.6
 41
30.0
 62
     5
 63
     7
421
 16777215
 74
     0
 91
        4
 64
     7
 65
   257
 75
     1
175
     1
 42
1.0
 92
        0
 66
     7
 43
1.0
 76
     1
 77
     6
 78
     2
 67
     7
 79
     5
170
     0
171
     0
290
     0
174
     0
 93
       13
 44
0.0
173
     0
291
     1
 45
0.0
1001
ACAD
1000
AcDbSavedByObjectVersion
1070
     0
  0
VISUALSTYLE
  5
2E
102
{ACAD_REACTORS
330
2A
102
}
330
2A
100
AcDbVisualStyle
  2
GouraudWithEdges
 70
     3
 71
     2
 72
     2
 73
     1
 90
        2
 40
-0.6
 41
30.0
 62
     5
 63
     7
421
 16777215
 74
     1
 91
        4
 64
     7
 65
   257
 75
     1
175
     1
 42
1.0
 92
        0
 66
   257
 43
1.0
 76
     1
 77
     6
 78
     2
 67
     7
 79
     5
170
     0
171
     0
290
     0
174
     0
 93
       13
 44
0.0
173
     0
291
     1
 45
0.0
1001
ACAD
1000
AcDbSavedByObjectVersion
1070
     0
  0
VISUALSTYLE
  5
38
102
{ACAD_REACTORS
330
2A
102
}
330
2A
100
AcDbVisualStyle
  2
Linepattern
 70
    14
 71
     2
 72
     2
 73
     0
 90
        0
 40
-0.6
 41
-30.0
 62
     5
 63
     7
421
 16777215
 74
     1
 91
        4
 64
     7
 65
   257
 75
     7
175
     7
 42
1.0
 92
        8
 66
     7
 43
1.0
 76
     1
 77
     6
 78
     2
 67
     7
 79
     5
170
     0
171
     0
290
     0
174
     0
 93
        1
 44
0.0
173
     0
291
     1
 45
0.0
1001
ACAD
1000
AcDbSavedByObjectVersion
1070
     0
  0
VISUALSTYLE
  5
33
102
{ACAD_REACTORS
330
2A
102
}
330
2A
100
AcDbVisualStyle
  2
Realistic
 70
     8
 71
     2
 72
     2
 73
     0
 90
        0
 40
-0.6
 41
-30.0
 62
     5
 63
     7
421
 16777215
 74
     1
 91
        0
 64
     7
 65
   257
 75
     1
175
     1
 42
1.0
 92
        8
 66
     8
424
  7895160
 43
1.0
 76
     1
 77
     6
 78
     2
 67
     7
 79
     5
170
     0
171
     0
290
     0
174
     0
 93
       13
 44
0.0
173
     0
291
     0
 45
0.0
1001
ACAD
1000
AcDbSavedByObjectVersion
1070
     0
  0
VISUALSTYLE
  5
37
102
{ACAD_REACTORS
330
2A
102
}
330
2A
100
AcDbVisualStyle
  2
Thicken
 70
    13
 71
     2
 72
     2
 73
     0
 90
        0
 40
-0.6
 41
-30.0
 62
     5
 63
     7
421
 16777215
 74
     1
 91
        4
 64
     7
 65
   257
 75
     1
175
     1
 42
1.0
 92
       12
 66
     7
 43
1.0
 76
     1
 77
     6
 78
     2
 67
     7
 79
     5
170
     0
171
     0
290
     0
174
     0
 93
        1
 44
0.0
173
     0
291
     1
 45
0.0
1001
ACAD
1000
AcDbSavedByObjectVersion
1070
     0
  0
ENDSEC
  0
EOF
