  0
SECTION
  2
HEADER
  9
$ACADVER
  1
AC1021
  9
$ACADMAINTVER
 70
    25
  9
$DWGCODEPAGE
  3
ANSI_1252
  9
$INSBASE
 10
0.0
 20
0.0
 30
0.0
  9
$EXTMIN
 10
1.000000000000000E+20
 20
1.000000000000000E+20
 30
1.000000000000000E+20
  9
$EXTMAX
 10
-1.000000000000000E+20
 20
-1.000000000000000E+20
 30
-1.000000000000000E+20
  9
$LIMMIN
 10
0.0
 20
0.0
  9
$LIMMAX
 10
12.0
 20
9.0
  9
$ORTHOMODE
 70
     0
  9
$REGENMODE
 70
     1
  9
$FILLMODE
 70
     1
  9
$QTEXTMODE
 70
     0
  9
$MIRRTEXT
 70
     1
  9
$LTSCALE
 40
1.0
  9
$ATTMODE
 70
     1
  9
$TEXTSIZE
 40
0.2
  9
$TRACEWID
 40
0.05
  9
$TEXTSTYLE
  7
Standard
  9
$CLAYER
  8
0
  9
$CELTYPE
  6
ByLayer
  9
$CECOLOR
 62
   256
  9
$CELTSCALE
 40
1.0
  9
$DISPSILH
 70
     0
  9
$DIMSCALE
 40
1.0
  9
$DIMASZ
 40
0.18
  9
$DIMEXO
 40
0.0625
  9
$DIMDLI
 40
0.38
  9
$DIMRND
 40
0.0
  9
$DIMDLE
 40
0.0
  9
$DIMEXE
 40
0.18
  9
$DIMTP
 40
0.0
  9
$DIMTM
 40
0.0
  9
$DIMTXT
 40
0.18
  9
$DIMCEN
 40
0.09
  9
$DIMTSZ
 40
0.0
  9
$DIMTOL
 70
     0
  9
$DIMLIM
 70
     0
  9
$DIMTIH
 70
     1
  9
$DIMTOH
 70
     1
  9
$DIMSE1
 70
     0
  9
$DIMSE2
 70
     0
  9
$DIMTAD
 70
     0
  9
$DIMZIN
 70
     0
  9
$DIMBLK
  1

  9
$DIMASO
 70
     1
  9
$DIMSHO
 70
     1
  9
$DIMPOST
  1

  9
$DIMAPOST
  1

  9
$DIMALT
 70
     0
  9
$DIMALTD
 70
     2
  9
$DIMALTF
 40
25.4
  9
$DIMLFAC
 40
1.0
  9
$DIMTOFL
 70
     0
  9
$DIMTVP
 40
0.0
  9
$DIMTIX
 70
     0
  9
$DIMSOXD
 70
     0
  9
$DIMSAH
 70
     0
  9
$DIMBLK1
  1

  9
$DIMBLK2
  1

  9
$DIMSTYLE
  2
STANDARD_ACAD
  9
$DIMCLRD
 70
     0
  9
$DIMCLRE
 70
     0
  9
$DIMCLRT
 70
     0
  9
$DIMTFAC
 40
1.0
  9
$DIMGAP
 40
0.09
  9
$DIMJUST
 70
     0
  9
$DIMSD1
 70
     0
  9
$DIMSD2
 70
     0
  9
$DIMTOLJ
 70
     1
  9
$DIMTZIN
 70
     0
  9
$DIMALTZ
 70
     0
  9
$DIMALTTZ
 70
     0
  9
$DIMUPT
 70
     0
  9
$DIMDEC
 70
     4
  9
$DIMTDEC
 70
     4
  9
$DIMALTU
 70
     2
  9
$DIMALTTD
 70
     2
  9
$DIMTXSTY
  7
Standard
  9
$DIMAUNIT
 70
     0
  9
$DIMADEC
 70
     0
  9
$DIMALTRND
 40
0.0
  9
$DIMAZIN
 70
     0
  9
$DIMDSEP
 70
    46
  9
$DIMATFIT
 70
     3
  9
$DIMFRAC
 70
     0
  9
$DIMLDRBLK
  1

  9
$DIMLUNIT
 70
     2
  9
$DIMLWD
 70
    -2
  9
$DIMLWE
 70
    -2
  9
$DIMTMOVE
 70
     2
  9
$DIMFXL
 40
1.0
  9
$DIMFXLON
 70
     0
  9
$DIMJOGANG
 40
0.7853981633974483
  9
$DIMTFILL
 70
     0
  9
$DIMTFILLCLR
 70
     0
  9
$DIMARCSYM
 70
     0
  9
$DIMLTYPE
  6

  9
$DIMLTEX1
  6

  9
$DIMLTEX2
  6

  9
$LUNITS
 70
     2
  9
$LUPREC
 70
     3
  9
$SKETCHINC
 40
0.1
  9
$FILLETRAD
 40
0.5
  9
$AUNITS
 70
     0
  9
$AUPREC
 70
     0
  9
$MENU
  1
.
  9
$ELEVATION
 40
0.0
  9
$PELEVATION
 40
0.0
  9
$THICKNESS
 40
0.0
  9
$LIMCHECK
 70
     0
  9
$CHAMFERA
 40
0.0
  9
$CHAMFERB
 40
0.0
  9
$CHAMFERC
 40
0.0
  9
$CHAMFERD
 40
0.0
  9
$SKPOLY
 70
     0
  9
$TDCREATE
 40
2458422.681929479
  9
$TDUCREATE
 40
2458422.848596146
  9
$TDUPDATE
 40
2458422.681939074
  9
$TDUUPDATE
 40
2458422.848605741
  9
$TDINDWG
 40
0.0000000116
  9
$TDUSRTIMER
 40
0.0000000116
  9
$USRTIMER
 70
     1
  9
$ANGBASE
 50
0.0
  9
$ANGDIR
 70
     0
  9
$PDMODE
 70
     0
  9
$PDSIZE
 40
0.0
  9
$PLINEWID
 40
0.0
  9
$SPLFRAME
 70
     0
  9
$SPLINETYPE
 70
     6
  9
$SPLINESEGS
 70
     8
  9
$HANDSEED
  5
279
  9
$SURFTAB1
 70
     6
  9
$SURFTAB2
 70
     6
  9
$SURFTYPE
 70
     6
  9
$SURFU
 70
     6
  9
$SURFV
 70
     6
  9
$UCSBASE
  2

  9
$UCSNAME
  2

  9
$UCSORG
 10
0.0
 20
0.0
 30
0.0
  9
$UCSXDIR
 10
1.0
 20
0.0
 30
0.0
  9
$UCSYDIR
 10
0.0
 20
1.0
 30
0.0
  9
$UCSORTHOREF
  2

  9
$UCSORTHOVIEW
 70
     0
  9
$UCSORGTOP
 10
0.0
 20
0.0
 30
0.0
  9
$UCSORGBOTTOM
 10
0.0
 20
0.0
 30
0.0
  9
$UCSORGLEFT
 10
0.0
 20
0.0
 30
0.0
  9
$UCSORGRIGHT
 10
0.0
 20
0.0
 30
0.0
  9
$UCSORGFRONT
 10
0.0
 20
0.0
 30
0.0
  9
$UCSORGBACK
 10
0.0
 20
0.0
 30
0.0
  9
$PUCSBASE
  2

  9
$PUCSNAME
  2

  9
$PUCSORG
 10
0.0
 20
0.0
 30
0.0
  9
$PUCSXDIR
 10
1.0
 20
0.0
 30
0.0
  9
$PUCSYDIR
 10
0.0
 20
1.0
 30
0.0
  9
$PUCSORTHOREF
  2

  9
$PUCSORTHOVIEW
 70
     0
  9
$PUCSORGTOP
 10
0.0
 20
0.0
 30
0.0
  9
$PUCSORGBOTTOM
 10
0.0
 20
0.0
 30
0.0
  9
$PUCSORGLEFT
 10
0.0
 20
0.0
 30
0.0
  9
$PUCSORGRIGHT
 10
0.0
 20
0.0
 30
0.0
  9
$PUCSORGFRONT
 10
0.0
 20
0.0
 30
0.0
  9
$PUCSORGBACK
 10
0.0
 20
0.0
 30
0.0
  9
$USERI1
 70
     0
  9
$USERI2
 70
     0
  9
$USERI3
 70
     0
  9
$USERI4
 70
     0
  9
$USERI5
 70
     0
  9
$USERR1
 40
0.0
  9
$USERR2
 40
0.0
  9
$USERR3
 40
0.0
  9
$USERR4
 40
0.0
  9
$USERR5
 40
0.0
  9
$WORLDVIEW
 70
     1
  9
$SHADEDGE
 70
     3
  9
$SHADEDIF
 70
    70
  9
$TILEMODE
 70
     1
  9
$MAXACTVP
 70
    64
  9
$PINSBASE
 10
0.0
 20
0.0
 30
0.0
  9
$PLIMCHECK
 70
     0
  9
$PEXTMIN
 10
1.000000000000000E+20
 20
1.000000000000000E+20
 30
1.000000000000000E+20
  9
$PEXTMAX
 10
-1.000000000000000E+20
 20
-1.000000000000000E+20
 30
-1.000000000000000E+20
  9
$PLIMMIN
 10
0.0
 20
0.0
  9
$PLIMMAX
 10
12.0
 20
9.0
  9
$UNITMODE
 70
     0
  9
$VISRETAIN
 70
     1
  9
$PLINEGEN
 70
     0
  9
$PSLTSCALE
 70
     1
  9
$TREEDEPTH
 70
  3020
  9
$CMLSTYLE
  2
Standard
  9
$CMLJUST
 70
     0
  9
$CMLSCALE
 40
1.0
  9
$PROXYGRAPHICS
 70
     1
  9
$MEASUREMENT
 70
     0
  9
$CELWEIGHT
370
    -1
  9
$ENDCAPS
280
     0
  9
$JOINSTYLE
280
     0
  9
$LWDISPLAY
290
     0
  9
$INSUNITS
 70
     1
  9
$HYPERLINKBASE
  1

  9
$STYLESHEET
  1

  9
$XEDIT
290
     1
  9
$CEPSNTYPE
380
     0
  9
$PSTYLEMODE
290
     1
  9
$FINGERPRINTGUID
  2
{471bfe82-b63b-4029-bb24-8749154860cb}
  9
$VERSIONGUID
  2
{FAEB1C32-E019-11D5-929B-00C0DF256EC4}
  9
$EXTNAMES
290
     1
  9
$PSVPSCALE
 40
0.0
  9
$OLESTARTUP
290
     0
  9
$SORTENTS
280
   127
  9
$INDEXCTL
280
     0
  9
$HIDETEXT
280
     1
  9
$XCLIPFRAME
290
     0
  9
$HALOGAP
280
     0
  9
$OBSCOLOR
 70
   257
  9
$OBSLTYPE
280
     0
  9
$INTERSECTIONDISPLAY
280
     0
  9
$INTERSECTIONCOLOR
 70
   257
  9
$DIMASSOC
280
     2
  9
$PROJECTNAME
  1

  9
$CAMERADISPLAY
290
     0
  9
$LENSLENGTH
 40
50.0
  9
$CAMERAHEIGHT
 40
0.0
  9
$STEPSPERSEC
 40
2.0
  9
$STEPSIZE
 40
6.0
  9
$3DDWFPREC
 40
2.0
  9
$PSOLWIDTH
 40
0.25
  9
$PSOLHEIGHT
 40
4.0
  9
$LOFTANG1
 40
1.570796326794897
  9
$LOFTANG2
 40
1.570796326794897
  9
$LOFTMAG1
 40
0.0
  9
$LOFTMAG2
 40
0.0
  9
$LOFTPARAM
 70
     7
  9
$LOFTNORMALS
280
     1
  9
$LATITUDE
 40
37.795
  9
$LONGITUDE
 40
-122.394
  9
$NORTHDIRECTION
 40
0.0
  9
$TIMEZONE
 70
 -8000
  9
$LIGHTGLYPHDISPLAY
280
     1
  9
$TILEMODELIGHTSYNCH
280
     1
  9
$CMATERIAL
347
44
  9
$SOLIDHIST
280
     0
  9
$SHOWHIST
280
     1
  9
$DWFFRAME
280
     2
  9
$DGNFRAME
280
     2
  9
$REALWORLDSCALE
290
     1
  9
$INTERFERECOLOR
 62
   256
  9
$CSHADOW
280
     0
  9
$SHADOWPLANELOCATION
 40
0.0
  0
ENDSEC
  0
SECTION
  2
CLASSES
  0
CLASS
  1
ACDBDICTIONARYWDFLT
  2
AcDbDictionaryWithDefault
  3
ObjectDBX Classes
 90
        0
 91
        3
280
     0
281
     0
  0
CLASS
  1
VISUALSTYLE
  2
AcDbVisualStyle
  3
ObjectDBX Classes
 90
     4095
 91
        3
280
     0
281
     0
  0
CLASS
  1
MATERIAL
  2
AcDbMaterial
  3
ObjectDBX Classes
 90
     1153
 91
        3
280
     0
281
     0
  0
CLASS
  1
SCALE
  2
AcDbScale
  3
ObjectDBX Classes
 90
     1153
 91
        3
280
     0
281
     0
  0
CLASS
  1
TABLESTYLE
  2
AcDbTableStyle
  3
ObjectDBX Classes
 90
     4095
 91
        3
280
     0
281
     0
  0
CLASS
  1
MLEADERSTYLE
  2
AcDbMLeaderStyle
  3
ACDB_MLEADERSTYLE_CLASS
 90
     4095
 91
        3
280
     0
281
     0
  0
CLASS
  1
SUN
  2
AcDbSun
  3
SCENEOE
 90
     1153
 91
        3
280
     0
281
     0
  0
CLASS
  1
DICTIONARYVAR
  2
AcDbDictionaryVar
  3
ObjectDBX Classes
 90
        0
 91
        3
280
     0
281
     0
  0
CLASS
  1
CELLSTYLEMAP
  2
AcDbCellStyleMap
  3
ObjectDBX Classes
 90
     1152
 91
        3
280
     0
281
     0
  0
ENDSEC
  0
SECTION
  2
TABLES
  0
TABLE
  2
VPORT
  5
8
330
0
100
AcDbSymbolTable
 70
     1
  0
VPORT
  5
29
330
8
100
AcDbSymbolTableRecord
100
AcDbViewportTableRecord
  2
*Active
 70
     0
 10
0.0
 20
0.0
 11
1.0
 21
1.0
 12
10.42990654205607
 22
4.5
 13
0.0
 23
0.0
 14
0.5
 24
0.5
 15
0.5
 25
0.5
 16
0.0
 26
0.0
 36
1.0
 17
0.0
 27
0.0
 37
0.0
 40
9.0
 41
1.972972972850329
 42
50.0
 43
0.0
 44
0.0
 50
0.0
 51
0.0
 71
     0
 72
   100
 73
     1
 74
     3
 75
     0
 76
     0
 77
     0
 78
     0
281
     0
 65
     1
110
0.0
120
0.0
130
0.0
111
1.0
121
0.0
131
0.0
112
0.0
122
1.0
132
0.0
 79
     0
146
0.0
348
2F
 60
     3
 61
     5
292
     1
282
     1
141
0.0
142
0.0
 63
   250
361
6D
  0
ENDTAB
  0
TABLE
  2
LTYPE
  5
5
330
0
100
AcDbSymbolTable
 70
     1
  0
LTYPE
  5
14
330
5
100
AcDbSymbolTableRecord
100
AcDbLinetypeTableRecord
  2
ByBlock
 70
     0
  3

 72
    65
 73
     0
 40
0.0
  0
LTYPE
  5
15
330
5
100
AcDbSymbolTableRecord
100
AcDbLinetypeTableRecord
  2
ByLayer
 70
     0
  3

 72
    65
 73
     0
 40
0.0
  0
LTYPE
  5
16
330
5
100
AcDbSymbolTableRecord
100
AcDbLinetypeTableRecord
  2
Continuous
 70
     0
  3
Solid line
 72
    65
 73
     0
 40
0.0
  0
ENDTAB
  0
TABLE
  2
LAYER
  5
2
330
0
100
AcDbSymbolTable
 70
     2
  0
LAYER
  5
10
330
2
100
AcDbSymbolTableRecord
100
AcDbLayerTableRecord
  2
0
 70
     0
 62
     7
  6
Continuous
370
    -3
390
F
347
46
  0
LAYER
  5
6E
330
2
100
AcDbSymbolTableRecord
100
AcDbLayerTableRecord
  2
Default
 70
     0
 62
    18
420
        0
  6
Continuous
370
    -3
390
F
347
46
  0
ENDTAB
  0
TABLE
  2
STYLE
  5
3
330
0
100
AcDbSymbolTable
 70
     1
  0
STYLE
  5
11
330
3
100
AcDbSymbolTableRecord
100
AcDbTextStyleTableRecord
  2
Standard
 70
     0
 40
0.0
 41
1.0
 50
0.0
 71
     0
 42
0.2
  3
txt
  4

  0
ENDTAB
  0
TABLE
  2
VIEW
  5
6
330
0
100
AcDbSymbolTable
 70
     0
  0
ENDTAB
  0
TABLE
  2
UCS
  5
7
330
0
100
AcDbSymbolTable
 70
     0
  0
ENDTAB
  0
TABLE
  2
APPID
  5
9
330
0
100
AcDbSymbolTable
 70
     2
  0
APPID
  5
12
330
9
100
AcDbSymbolTableRecord
100
AcDbRegAppTableRecord
  2
ACAD
 70
     0
  0
APPID
  5
271
330
9
100
AcDbSymbolTableRecord
100
AcDbRegAppTableRecord
  2
ACAD_MLEADERVER
 70
     0
  0
ENDTAB
  0
TABLE
  2
DIMSTYLE
  5
A
330
0
100
AcDbSymbolTable
 70
     1
100
AcDbDimStyleTable
  0
DIMSTYLE
105
27
330
A
100
AcDbSymbolTableRecord
100
AcDbDimStyleTableRecord
  2
STANDARD_ACAD
 70
     0
178
     0
340
11
  0
ENDTAB
  0
TABLE
  2
BLOCK_RECORD
  5
1
330
0
100
AcDbSymbolTable
 70
     1
  0
BLOCK_RECORD
  5
1F
330
1
100
AcDbSymbolTableRecord
100
AcDbBlockTableRecord
  2
*Model_Space
340
22
 70
     0
280
     1
281
     0
  0
BLOCK_RECORD
  5
1B
330
1
100
AcDbSymbolTableRecord
100
AcDbBlockTableRecord
  2
*Paper_Space
340
1E
 70
     0
280
     1
281
     0
  0
BLOCK_RECORD
  5
23
330
1
100
AcDbSymbolTableRecord
100
AcDbBlockTableRecord
  2
*Paper_Space0
340
26
 70
     0
280
     1
281
     0
  0
ENDTAB
  0
ENDSEC
  0
SECTION
  2
BLOCKS
  0
BLOCK
  5
20
330
1F
100
AcDbEntity
  8
0
100
AcDbBlockBegin
  2
*Model_Space
 70
     0
 10
0.0
 20
0.0
 30
0.0
  3
*Model_Space
  1

  0
ENDBLK
  5
21
330
1F
100
AcDbEntity
  8
0
100
AcDbBlockEnd
  0
BLOCK
  5
1C
330
1B
100
AcDbEntity
 67
     1
  8
0
100
AcDbBlockBegin
  2
*Paper_Space
 70
     0
 10
0.0
 20
0.0
 30
0.0
  3
*Paper_Space
  1

  0
ENDBLK
  5
1D
330
1B
100
AcDbEntity
 67
     1
  8
0
100
AcDbBlockEnd
  0
BLOCK
  5
24
330
23
100
AcDbEntity
  8
0
100
AcDbBlockBegin
  2
*Paper_Space0
 70
     0
 10
0.0
 20
0.0
 30
0.0
  3
*Paper_Space0
  1

  0
ENDBLK
  5
25
330
23
100
AcDbEntity
  8
0
100
AcDbBlockEnd
  0
ENDSEC
  0
SECTION
  2
ENTITIES
  0
SPLINE
  5
6F
330
1F
100
AcDbEntity
  8
Default
100
AcDbSpline
210
0.0
220
0.0
230
1.0
 70
     8
 71
     3
 72
    15
 73
    11
 74
     0
 42
0.000000001
 43
0.0000000001
 40
11.61963575167088
 40
11.61963575167088
 40
11.61963575167088
 40
11.61963575167088
 40
12.0
 40
13.0
 40
14.0
 40
15.0
 40
16.0
 40
17.0
 40
18.0
 40
19.0
 40
19.0
 40
19.0
 40
19.0
 10
39.61188725055737
 20
19.2617335164657
 30
0.0
 10
39.45199619135461
 20
19.2585225717293
 30
0.0
 10
38.87177652240687
 20
19.24503179867836
 30
0.0
 10
37.87142733899378
 20
19.21381695155799
 30
0.0
 10
36.61066985314062
 20
19.17619607318859
 30
0.0
 10
35.34932714178382
 20
19.15451844700402
 30
0.0
 10
34.08819933090216
 20
19.17768109577566
 30
0.0
 10
32.82704861038525
 20
19.21678489224973
 30
0.0
 10
31.57040160694947
 20
19.32560838593605
 30
0.0
 10
30.73005783527775
 20
19.37200635926792
 30
0.0
 10
30.3096458770774
 20
19.34989081954691
 30
0.0
  0
SPLINE
  5
70
330
1F
100
AcDbEntity
  8
Default
100
AcDbSpline
210
0.0
220
0.0
230
1.0
 70
     8
 71
     3
 72
    13
 73
     9
 74
     0
 42
0.000000001
 43
0.0000000001
 40
0.1225006201714059
 40
0.1225006201714059
 40
0.1225006201714059
 40
0.1225006201714059
 40
1.0
 40
2.0
 40
3.0
 40
4.0
 40
5.0
 40
6.0
 40
6.0
 40
6.0
 40
6.0
 10
43.38437027689406
 20
17.93167980697892
 30
0.0
 10
43.41002592325109
 20
17.96813789209136
 30
0.0
 10
43.3995464721176
 20
18.07267180425049
 30
0.0
 10
43.35847091189513
 20
18.21326995837364
 30
0.0
 10
43.27111319477501
 20
18.3442739885505
 30
0.0
 10
43.16547346586333
 20
18.45800856808251
 30
0.0
 10
43.04300739344814
 20
18.55393365825425
 30
0.0
 10
42.9577446864821
 20
18.61241948484152
 30
0.0
 10
42.91383183421311
 20
18.63977513041905
 30
0.0
  0
SPLINE
  5
71
330
1F
100
AcDbEntity
  8
Default
100
AcDbSpline
210
0.0
220
0.0
230
1.0
 70
     8
 71
     3
 72
     8
 73
     4
 74
     0
 42
0.000000001
 43
0.0000000001
 40
6.0
 40
6.0
 40
6.0
 40
6.0
 40
7.0
 40
7.0
 40
7.0
 40
7.0
 10
42.91383183421311
 20
18.63977513041905
 30
0.0
 10
42.76644144032267
 20
18.73159242691582
 30
0.0
 10
42.53856857214055
 20
18.93059263506978
 30
0.0
 10
42.39742966736661
 20
19.03362704610791
 30
0.0
  0
SPLINE
  5
72
330
1F
100
AcDbEntity
  8
Default
100
AcDbSpline
210
0.0
220
0.0
230
1.0
 70
     8
 71
     3
 72
    10
 73
     6
 74
     0
 42
0.000000001
 43
0.0000000001
 40
7.0
 40
7.0
 40
7.0
 40
7.0
 40
8.0
 40
9.0
 40
10.0
 40
10.0
 40
10.0
 40
10.0
 10
42.39742966736661
 20
19.03362704610791
 30
0.0
 10
42.32726228656082
 20
19.08621806645484
 30
0.0
 10
42.17281141649741
 20
19.16849888730537
 30
0.0
 10
41.92300723590164
 20
19.25592881005186
 30
0.0
 10
41.74614783958344
 20
19.25774933977181
 30
0.0
 10
41.65681355124342
 20
19.2588460626943
 30
0.0
  0
SPLINE
  5
73
330
1F
100
AcDbEntity
  8
Default
100
AcDbSpline
210
0.0
220
0.0
230
1.0
 70
     8
 71
     3
 72
     9
 73
     5
 74
     0
 42
0.000000001
 43
0.0000000001
 40
10.0
 40
10.0
 40
10.0
 40
10.0
 40
11.0
 40
11.09658370142749
 40
11.09658370142749
 40
11.09658370142749
 40
11.09658370142749
 10
41.65681355124342
 20
19.2588460626943
 30
0.0
 10
41.23434116062592
 20
19.27347965969329
 30
0.0
 10
40.77321117682665
 20
19.27594678677593
 30
0.0
 10
40.3121639605761
 20
19.272086494349
 30
0.0
 10
40.27155698472777
 20
19.27169996721566
 30
0.0
  0
SPLINE
  5
74
330
1F
100
AcDbEntity
  8
Default
370
    -3
100
AcDbSpline
210
0.0
220
0.0
230
1.0
 70
     8
 71
     3
 72
    20
 73
    16
 74
     0
 42
0.000000001
 43
0.0000000001
 40
0.0
 40
0.0
 40
0.0
 40
0.0
 40
1.0
 40
2.0
 40
3.0
 40
4.0
 40
5.0
 40
6.0
 40
7.0
 40
8.0
 40
9.0
 40
10.0
 40
11.0
 40
12.0
 40
13.0
 40
13.0
 40
13.0
 40
13.0
 10
-0.0000083687752692
 20
57.39677050677542
 30
0.0
 10
0.5462391101025901
 20
57.39714630551304
 30
0.0
 10
1.638890416456164
 20
57.33235112481936
 30
0.0
 10
3.251621795874001
 20
57.01698322447166
 30
0.0
 10
4.79329541382964
 20
56.44407462723306
 30
0.0
 10
6.2052069692553
 20
55.59506558142254
 30
0.0
 10
7.408796081286155
 20
54.47272577426924
 30
0.0
 10
8.299611535641048
 20
53.05944982122914
 30
0.0
 10
8.505972972747486
 20
51.40827973016139
 30
0.0
 10
8.434971468640043
 20
49.77324093028274
 30
0.0
 10
8.321340053324676
 20
48.13779172260973
 30
0.0
 10
8.2247399839993
 20
46.5021000557699
 30
0.0
 10
8.125669873816165
 20
44.86634487079908
 30
0.0
 10
8.0263219585201
 20
43.2306666588689
 30
0.0
 10
7.956243289561826
 20
42.14043105665404
 30
0.0
 10
7.915776042623833
 20
41.59569176041289
 30
0.0
  0
SPLINE
  5
75
330
1F
100
AcDbEntity
  8
Default
370
    -3
100
AcDbSpline
210
0.0
220
0.0
230
1.0
 70
     8
 71
     3
 72
     8
 73
     4
 74
     0
 42
0.000000001
 43
0.0000000001
 40
13.0
 40
13.0
 40
13.0
 40
13.0
 40
14.0
 40
14.0
 40
14.0
 40
14.0
 10
7.915776042623833
 20
41.59569176041289
 30
0.0
 10
7.904184343520384
 20
41.43965312448759
 30
0.0
 10
7.81914016252334
 20
41.32998856658542
 30
0.0
 10
7.669184553228348
 20
41.29907190834678
 30
0.0
  0
SPLINE
  5
76
330
1F
100
AcDbEntity
  8
Default
370
    -3
100
AcDbSpline
210
0.0
220
0.0
230
1.0
 70
     8
 71
     3
 72
    11
 73
     7
 74
     0
 42
0.000000001
 43
0.0000000001
 40
14.0
 40
14.0
 40
14.0
 40
14.0
 40
15.0
 40
16.0
 40
17.0
 40
18.0
 40
18.0
 40
18.0
 40
18.0
 10
7.669184553228348
 20
41.29907190834678
 30
0.0
 10
7.039270376696038
 20
41.16920119922773
 30
0.0
 10
5.771305973164672
 20
40.9494448169814
 30
0.0
 10
3.85434365529791
 20
40.72509809483537
 30
0.0
 10
1.929384947298317
 20
40.58696517352776
 30
0.0
 10
0.6431624063955894
 20
40.55277350462702
 30
0.0
 10
-0.0000083687752692
 20
40.55384969312757
 30
0.0
  0
SPLINE
  5
77
330
1F
100
AcDbEntity
  8
Default
370
    -3
100
AcDbSpline
210
0.0
220
0.0
230
1.0
 70
     8
 71
     3
 72
    11
 73
     7
 74
     0
 42
0.000000001
 43
0.0000000001
 40
18.0
 40
18.0
 40
18.0
 40
18.0
 40
19.0
 40
20.0
 40
21.0
 40
22.0
 40
22.0
 40
22.0
 40
22.0
 10
-0.0000083687752692
 20
40.55384969312757
 30
0.0
 10
-0.6431791439461279
 20
40.55277350462702
 30
0.0
 10
-1.929401684848855
 20
40.58696517352776
 30
0.0
 10
-3.854360392848449
 20
40.72509809483537
 30
0.0
 10
-5.771322710715211
 20
40.9494448169814
 30
0.0
 10
-7.039287114246576
 20
41.16920119922773
 30
0.0
 10
-7.669201290778886
 20
41.29907190834678
 30
0.0
  0
SPLINE
  5
78
330
1F
100
AcDbEntity
  8
Default
370
    -3
100
AcDbSpline
210
0.0
220
0.0
230
1.0
 70
     8
 71
     3
 72
     8
 73
     4
 74
     0
 42
0.000000001
 43
0.0000000001
 40
22.0
 40
22.0
 40
22.0
 40
22.0
 40
23.0
 40
23.0
 40
23.0
 40
23.0
 10
-7.669201290778886
 20
41.29907190834678
 30
0.0
 10
-7.819156900073878
 20
41.32998856658542
 30
0.0
 10
-7.904201081070923
 20
41.43965312448759
 30
0.0
 10
-7.915792780174371
 20
41.59569176041289
 30
0.0
  0
SPLINE
  5
79
330
1F
100
AcDbEntity
  8
Default
370
    -3
100
AcDbSpline
210
0.0
220
0.0
230
1.0
 70
     8
 71
     3
 72
    20
 73
    16
 74
     0
 42
0.000000001
 43
0.0000000001
 40
23.0
 40
23.0
 40
23.0
 40
23.0
 40
24.0
 40
25.0
 40
26.0
 40
27.0
 40
28.0
 40
29.0
 40
30.0
 40
31.0
 40
32.0
 40
33.0
 40
34.0
 40
35.0
 40
36.0
 40
36.0
 40
36.0
 40
36.0
 10
-7.915792780174371
 20
41.59569176041289
 30
0.0
 10
-7.956260027112364
 20
42.14043105665404
 30
0.0
 10
-8.026338696070638
 20
43.2306666588689
 30
0.0
 10
-8.125686611366703
 20
44.86634487079908
 30
0.0
 10
-8.224756721549838
 20
46.5021000557699
 30
0.0
 10
-8.321356790875214
 20
48.13779172260973
 30
0.0
 10
-8.434988206190582
 20
49.77324093028274
 30
0.0
 10
-8.505989710298024
 20
51.40827973016139
 30
0.0
 10
-8.299628273191587
 20
53.05944982122914
 30
0.0
 10
-7.408812818836694
 20
54.47272577426924
 30
0.0
 10
-6.205223706805839
 20
55.59506558142254
 30
0.0
 10
-4.793312151380178
 20
56.44407462723306
 30
0.0
 10
-3.25163853342454
 20
57.01698322447166
 30
0.0
 10
-1.638907154006702
 20
57.33235112481936
 30
0.0
 10
-0.5462558476531285
 20
57.39714630551304
 30
0.0
 10
-0.0000083687752692
 20
57.39677050677542
 30
0.0
  0
SPLINE
  5
7A
330
1F
100
AcDbEntity
  8
Default
370
    -3
100
AcDbSpline
210
0.0
220
0.0
230
1.0
 70
     8
 71
     3
 72
    16
 73
    12
 74
     0
 42
0.000000001
 43
0.0000000001
 40
-9.0
 40
-9.0
 40
-9.0
 40
-9.0
 40
-8.0
 40
-7.0
 40
-6.0
 40
-5.0
 40
-4.0
 40
-3.0
 40
-2.0
 40
-1.0
 40
0.0
 40
0.0
 40
0.0
 40
0.0
 10
0.0190507009949954
 20
17.83467968558019
 30
0.0
 10
0.3329047663280988
 20
17.83466466302924
 30
0.0
 10
0.9606163819756972
 20
17.83811727148672
 30
0.0
 10
1.901973309005569
 20
17.85921451574638
 30
0.0
 10
2.842742599483685
 20
17.89897590781251
 30
0.0
 10
3.782375947188598
 20
17.96004702814152
 30
0.0
 10
4.720271455951874
 20
18.04393074368369
 30
0.0
 10
5.655806570832269
 20
18.15034472205767
 30
0.0
 10
6.588984574327327
 20
18.27737618723859
 30
0.0
 10
7.517378478795322
 20
18.43159094788619
 30
0.0
 10
8.13716867592602
 20
18.53810511018467
 30
0.0
 10
8.437669006252293
 20
18.62751727864173
 30
0.0
  0
SPLINE
  5
7B
330
1F
100
AcDbEntity
  8
Default
370
    -3
100
AcDbSpline
210
0.0
220
0.0
230
1.0
 70
     8
 71
     3
 72
     8
 73
     4
 74
     0
 42
0.000000001
 43
0.0000000001
 40
0.0
 40
0.0
 40
0.0
 40
0.0
 40
1.0
 40
1.0
 40
1.0
 40
1.0
 10
8.437669006252293
 20
18.62751727864173
 30
0.0
 10
8.488166688211678
 20
18.64254257741975
 30
0.0
 10
8.496930806082688
 20
18.70874195886226
 30
0.0
 10
8.476447945240906
 20
18.75187021443263
 30
0.0
  0
SPLINE
  5
7C
330
1F
100
AcDbEntity
  8
Default
370
    -3
100
AcDbSpline
210
0.0
220
0.0
230
1.0
 70
     8
 71
     3
 72
    12
 73
     8
 74
     0
 42
0.000000001
 43
0.0000000001
 40
1.0
 40
1.0
 40
1.0
 40
1.0
 40
2.0
 40
3.0
 40
4.0
 40
5.0
 40
6.0
 40
6.0
 40
6.0
 40
6.0
 10
8.476447945240906
 20
18.75187021443263
 30
0.0
 10
8.401069465451926
 20
18.91058546255916
 30
0.0
 10
8.126137898843282
 20
19.14124639603859
 30
0.0
 10
7.623056204798544
 20
19.29777265974787
 30
0.0
 10
7.09897347859841
 20
19.28713612101234
 30
0.0
 10
6.586005378788414
 20
19.20307762668821
 30
0.0
 10
6.247277695830206
 20
19.12902567445406
 30
0.0
 10
6.077271217889447
 20
19.09408258368824
 30
0.0
  0
SPLINE
  5
7D
330
1F
100
AcDbEntity
  8
Default
370
    -3
100
AcDbSpline
210
0.0
220
0.0
230
1.0
 70
     8
 71
     3
 72
    10
 73
     6
 74
     0
 42
0.000000001
 43
0.0000000001
 40
6.0
 40
6.0
 40
6.0
 40
6.0
 40
6.592337678120831
 40
7.592337678120831
 40
8.592337678120831
 40
8.592337678120831
 40
8.592337678120831
 40
8.592337678120831
 10
6.077271217889447
 20
19.09408258368824
 30
0.0
 10
5.617076679364843
 20
19.04941411870425
 30
0.0
 10
4.379235762925447
 20
18.94502725615659
 30
0.0
 10
2.359330592952645
 20
18.84064881515114
 30
0.0
 10
0.799111529333743
 20
18.81867539341971
 30
0.0
 10
0.0190507009949954
 20
18.81897748163608
 30
0.0
  0
SPLINE
  5
7E
330
1F
100
AcDbEntity
  8
Default
370
    -3
100
AcDbSpline
210
0.0
220
0.0
230
1.0
 70
     8
 71
     3
 72
    10
 73
     6
 74
     0
 42
0.000000001
 43
0.0000000001
 40
8.592337678120831
 40
8.592337678120831
 40
8.592337678120831
 40
8.592337678120831
 40
9.592337678120831
 40
10.59233767812083
 40
11.18467535624166
 40
11.18467535624166
 40
11.18467535624166
 40
11.18467535624166
 10
0.0190507009949954
 20
18.81897748163608
 30
0.0
 10
-0.7610101273437522
 20
18.81867539341971
 30
0.0
 10
-2.321229190962654
 20
18.84064881515114
 30
0.0
 10
-4.341134360935456
 20
18.94502725615659
 30
0.0
 10
-5.578975277374852
 20
19.04941411870425
 30
0.0
 10
-6.039169815899456
 20
19.09408258368824
 30
0.0
  0
SPLINE
  5
7F
330
1F
100
AcDbEntity
  8
Default
370
    -3
100
AcDbSpline
210
0.0
220
0.0
230
1.0
 70
     8
 71
     3
 72
    12
 73
     8
 74
     0
 42
0.000000001
 43
0.0000000001
 40
11.18467535624166
 40
11.18467535624166
 40
11.18467535624166
 40
11.18467535624166
 40
12.18467535624166
 40
13.18467535624166
 40
14.18467535624166
 40
15.18467535624166
 40
16.18467535624166
 40
16.18467535624166
 40
16.18467535624166
 40
16.18467535624166
 10
-6.039169815899456
 20
19.09408258368824
 30
0.0
 10
-6.209176293840216
 20
19.12902567445406
 30
0.0
 10
-6.547903976798423
 20
19.20307762668821
 30
0.0
 10
-7.060872076608419
 20
19.28713612101234
 30
0.0
 10
-7.584954802808554
 20
19.29777265974787
 30
0.0
 10
-8.088036496853292
 20
19.14124639603859
 30
0.0
 10
-8.362968063461935
 20
18.91058546255916
 30
0.0
 10
-8.438346543250915
 20
18.75187021443263
 30
0.0
  0
SPLINE
  5
80
330
1F
100
AcDbEntity
  8
Default
370
    -3
100
AcDbSpline
210
0.0
220
0.0
230
1.0
 70
     8
 71
     3
 72
     8
 73
     4
 74
     0
 42
0.000000001
 43
0.0000000001
 40
16.18467535624166
 40
16.18467535624166
 40
16.18467535624166
 40
16.18467535624166
 40
17.18467535624166
 40
17.18467535624166
 40
17.18467535624166
 40
17.18467535624166
 10
-8.438346543250915
 20
18.75187021443263
 30
0.0
 10
-8.458829404092697
 20
18.70874195886226
 30
0.0
 10
-8.450065286221687
 20
18.64254257741975
 30
0.0
 10
-8.399567604262302
 20
18.62751727864173
 30
0.0
  0
SPLINE
  5
81
330
1F
100
AcDbEntity
  8
Default
370
    -3
100
AcDbSpline
210
0.0
220
0.0
230
1.0
 70
     8
 71
     3
 72
    16
 73
    12
 74
     0
 42
0.000000001
 43
0.0000000001
 40
17.18467535624166
 40
17.18467535624166
 40
17.18467535624166
 40
17.18467535624166
 40
18.18467535624166
 40
19.18467535624166
 40
20.18467535624166
 40
21.18467535624166
 40
22.18467535624166
 40
23.18467535624166
 40
24.18467535624166
 40
25.18467535624166
 40
26.18467535624166
 40
26.18467535624166
 40
26.18467535624166
 40
26.18467535624166
 10
-8.399567604262302
 20
18.62751727864173
 30
0.0
 10
-8.09906727393603
 20
18.53810511018467
 30
0.0
 10
-7.479277076805332
 20
18.43159094788619
 30
0.0
 10
-6.550883172337336
 20
18.27737618723859
 30
0.0
 10
-5.617705168842278
 20
18.15034472205767
 30
0.0
 10
-4.682170053961883
 20
18.04393074368369
 30
0.0
 10
-3.744274545198607
 20
17.96004702814152
 30
0.0
 10
-2.804641197493694
 20
17.89897590781251
 30
0.0
 10
-1.863871907015579
 20
17.85921451574638
 30
0.0
 10
-0.9225149799857064
 20
17.83811727148672
 30
0.0
 10
-0.2948033643381081
 20
17.83466466302924
 30
0.0
 10
0.0190507009949954
 20
17.83467968558019
 30
0.0
  0
SPLINE
  5
82
330
1F
100
AcDbEntity
  8
Default
100
AcDbSpline
210
0.0
220
0.0
230
1.0
 70
    12
 71
     3
 72
    15
 73
    11
 74
     0
 42
0.000000001
 43
0.0000000001
 40
-2.050838399835971
 40
-2.050838399835971
 40
-2.050838399835971
 40
-2.050838399835971
 40
-1.519628510852974
 40
-1.519628510852974
 40
-1.519628510852974
 40
-1.16947431054163
 40
-0.8374859726134091
 40
-0.5330996035240916
 40
-0.3271960046718632
 40
0.0
 40
0.0
 40
0.0
 40
0.0
 10
28.5138799623649
 20
24.85224697749828
 30
0.0
 41
1.0
 10
28.53549594436686
 20
25.02829502330302
 30
0.0
 41
0.9966198721141829
 10
28.55739184107235
 20
25.20576712493083
 30
0.0
 41
0.9966198721141829
 10
28.60528960702558
 20
25.37654759549544
 30
0.0
 41
1.0
 10
28.63669192988285
 20
25.48851322411419
 30
0.0
 41
1.0
 10
28.72597953878171
 20
25.70310261053617
 30
0.0
 41
1.0
 10
28.98494575342519
 20
25.92216781164044
 30
0.0
 41
1.0
 10
29.25890244294693
 20
25.99916368026415
 30
0.0
 41
1.0
 10
29.53770690292576
 20
26.01664123606623
 30
0.0
 41
1.0
 10
29.71527670463265
 20
26.02190708309978
 30
0.0
 41
1.0
 10
29.82436987537914
 20
26.02288174003987
 30
0.0
 41
1.0
  0
SPLINE
  5
83
330
1F
100
AcDbEntity
  8
Default
100
AcDbSpline
210
0.0
220
0.0
230
1.0
 70
     8
 71
     3
 72
    20
 73
    16
 74
     0
 42
0.000000001
 43
0.0000000001
 40
0.0
 40
0.0
 40
0.0
 40
0.0
 40
0.2266926952829698
 40
0.4136031786844271
 40
0.7126384846278875
 40
1.0115789811846
 40
1.436510966061653
 40
1.436510966061653
 40
1.436510966061653
 40
2.207678320463577
 40
3.126479564289864
 40
5.147443878578287
 40
7.077058682704147
 40
7.781024169261923
 40
8.229831503597758
 40
8.229831503597758
 40
8.229831503597758
 40
8.229831503597758
 10
29.13444726294341
 20
24.77791890022038
 30
0.0
 10
29.14359651996185
 20
24.85243361893743
 30
0.0
 10
29.16751443764388
 20
24.99271928918622
 30
0.0
 10
29.22864089225341
 20
25.22023102562757
 30
0.0
 10
29.36957236007358
 20
25.45307847643901
 30
0.0
 10
29.6888652425067
 20
25.60248643614311
 30
0.0
 10
29.93049973211871
 20
25.6152201264842
 30
0.0
 10
30.07225104961918
 20
25.62350929486118
 30
0.0
 10
30.32907394652648
 20
25.63576833349135
 30
0.0
 10
30.89212860561945
 20
25.65109098326673
 30
0.0
 10
32.12915419595733
 20
25.66779476306946
 30
0.0
 10
33.75218888411587
 20
25.65105384442427
 30
0.0
 10
35.30323358902691
 20
25.60435897228269
 30
0.0
 10
36.32880838055215
 20
25.5413293400386
 30
0.0
 10
36.71126251526449
 20
25.50204697395725
 30
0.0
 10
36.85901392817606
 20
25.47855577482755
 30
0.0
  0
SPLINE
  5
84
330
1F
100
AcDbEntity
  8
Default
100
AcDbSpline
210
0.0
220
0.0
230
1.0
 70
    12
 71
     2
 72
     8
 73
     5
 74
     0
 42
0.000000001
 43
0.0000000001
 40
0.0
 40
0.0
 40
0.0
 40
1.570796326794897
 40
1.570796326794897
 40
2.990926477153699
 40
2.990926477153699
 40
2.990926477153699
 10
29.13444726294341
 20
24.77791890022039
 30
0.0
 41
1.0
 10
29.13134311972179
 20
24.75200231727899
 30
0.0
 41
0.7071067811865475
 10
28.82105946943254
 20
24.78916635591794
 30
0.0
 41
1.0
 10
28.55125662430561
 20
24.82148183032934
 30
0.0
 41
0.7352002396635771
 10
28.51645622694841
 20
24.84828716677188
 30
0.0
 41
0.9492023673209261
  0
LINE
  5
85
330
1F
100
AcDbEntity
  8
Default
100
AcDbLine
 10
37.47590209481717
 20
25.98035764177716
 30
0.0
 11
37.07876688808093
 21
25.98713631747996
 31
0.0
  0
ARC
  5
86
330
1F
100
AcDbEntity
  8
Default
100
AcDbCircle
 10
37.96212673796557
 20
54.46629392832974
 30
0.0
 40
28.49008565317306
100
AcDbArc
 50
269.0221169275607
 51
269.2699982101511
  0
ARC
  5
87
330
1F
100
AcDbEntity
  8
Default
100
AcDbCircle
 10
37.59741712307164
 20
25.84281484959921
 30
0.0
 40
0.1357168276958361
100
AcDbArc
 50
36.99949641505079
 51
89.26999821015181
  0
SPLINE
  5
88
330
1F
100
AcDbEntity
  8
Default
100
AcDbSpline
210
0.0
220
0.0
230
1.0
 70
    12
 71
     2
 72
     6
 73
     3
 74
     0
 42
0.000000001
 43
0.0000000001
 40
0.0
 40
0.0
 40
0.0
 40
0.8081062947945264
 40
0.8081062947945264
 40
0.8081062947945264
 10
38.17794722569518
 20
25.10288613092637
 30
0.0
 41
1.0
 10
37.98477825840278
 20
25.62337375313894
 30
0.0
 41
0.9893751302074362
 10
37.70580611884802
 20
25.92449032275003
 30
0.0
 41
1.0
  0
SPLINE
  5
89
330
1F
100
AcDbEntity
  8
Default
100
AcDbSpline
210
0.0
220
0.0
230
1.0
 70
     8
 71
     3
 72
    12
 73
     8
 74
     0
 42
0.000000001
 43
0.0000000001
 40
0.0
 40
0.0
 40
0.0
 40
0.0
 40
0.457618939319881
 40
0.6502769942307992
 40
0.9653862454948567
 40
1.257432756706354
 40
1.567296476101912
 40
1.567296476101912
 40
1.567296476101912
 40
1.567296476101912
 10
30.07458560757271
 20
26.07627625754232
 30
0.0
 10
29.92236484007031
 20
26.06854851107655
 30
0.0
 10
29.70511941324141
 20
26.06387632413366
 30
0.0
 10
29.38455197211295
 20
26.04434343927827
 30
0.0
 10
29.11878890402136
 20
26.00422998028646
 30
0.0
 10
28.84569481522531
 20
25.85219772465892
 30
0.0
 10
28.72867475271393
 20
25.68238264853633
 30
0.0
 10
28.68415456411769
 20
25.58983279147443
 30
0.0
  0
SPLINE
  5
8A
330
1F
100
AcDbEntity
  8
Default
100
AcDbSpline
210
0.0
220
0.0
230
1.0
 70
     8
 71
     3
 72
    11
 73
     7
 74
     0
 42
0.000000001
 43
0.0000000001
 40
0.0
 40
0.0
 40
0.0
 40
0.0
 40
0.6126106210288292
 40
1.490617618468148
 40
3.315293199599778
 40
7.087028404635478
 40
7.087028404635478
 40
7.087028404635478
 40
7.087028404635478
 10
37.15803368808977
 20
26.02300102022647
 30
0.0
 10
36.95450804858297
 20
26.0401699933116
 30
0.0
 10
36.45858353721795
 20
26.06992725186467
 30
0.0
 10
35.35436637557279
 20
26.1186103543556
 30
0.0
 10
33.19657573186506
 20
26.15455697621594
 30
0.0
 10
31.33058065804274
 20
26.13475316673908
 30
0.0
 10
30.07458560757271
 20
26.07627625754232
 30
0.0
  0
ARC
  5
8B
330
1F
100
AcDbEntity
  8
Default
100
AcDbCircle
 10
36.01749960414151
 20
12.50280224864233
 30
0.0
 40
13.5682199576729
100
AcDbArc
 50
83.30581473469464
 51
85.17807105515956
  0
SPLINE
  5
8C
330
1F
100
AcDbEntity
  8
Default
100
AcDbSpline
210
0.0
220
0.0
230
1.0
 70
     8
 71
     3
 72
    11
 73
     7
 74
     0
 42
0.000000001
 43
0.0000000001
 40
-0.9765018872828437
 40
-0.9765018872828437
 40
-0.9765018872828437
 40
-0.9765018872828437
 40
-0.5211985612998934
 40
-0.2667298131992698
 40
-0.1249390286003145
 40
0.0
 40
0.0
 40
0.0
 40
0.0
 10
37.59049702763686
 20
24.89178165181601
 30
0.0
 10
37.5391010740333
 20
25.03493149466638
 30
0.0
 10
37.39833214747814
 20
25.24559121466956
 30
0.0
 10
37.14816806411562
 20
25.38669888706601
 30
0.0
 10
36.98664028674769
 20
25.44937416684398
 30
0.0
 10
36.89991885729345
 20
25.47160835451621
 30
0.0
 10
36.85901540364563
 20
25.47856430710124
 30
0.0
  0
SPLINE
  5
8D
330
1F
100
AcDbEntity
  8
Default
100
AcDbSpline
210
0.0
220
0.0
230
1.0
 70
    12
 71
     3
 72
    20
 73
    16
 74
     0
 42
0.000000001
 43
0.0000000001
 40
2.471194613760953
 40
2.471194613760953
 40
2.471194613760953
 40
2.471194613760953
 40
2.990739583321262
 40
2.990739583321262
 40
2.990739583321262
 40
4.333651030355169
 40
4.333651030355169
 40
4.333651030355169
 40
8.814443795263726
 40
9.100566613352905
 40
10.24480724454827
 40
11.67549121983906
 40
12.96398165262606
 40
14.1559140323942
 40
14.22942913355804
 40
14.22942913355804
 40
14.22942913355804
 40
14.22942913355804
 10
39.87579046359686
 20
18.52670087623698
 30
0.0
 41
0.9999992222624674
 10
39.70259552760507
 20
18.52950188173307
 30
0.0
 41
0.999999427004359
 10
39.5294354709904
 20
18.53223196880381
 30
0.0
 41
0.9999996862502032
 10
39.35627434702445
 20
18.53489203530629
 30
0.0
 41
1.0
 10
38.90871235203188
 20
18.54309441229616
 30
0.0
 41
0.9999999941358523
 10
38.46114927304151
 20
18.55123742615438
 30
0.0
 41
0.9999999941358523
 10
38.01358511792711
 20
18.55932107673771
 30
0.0
 41
1.0
 10
36.52047381185186
 20
18.58768119362266
 30
0.0
 41
1.0
 10
34.9311926769735
 20
18.61724566697675
 30
0.0
 41
1.0
 10
32.96179546420097
 20
18.65285516176563
 30
0.0
 41
1.0
 10
32.0074718604864
 20
18.70226855546477
 30
0.0
 41
1.0
 10
30.73826020472514
 20
18.93583736158083
 30
0.0
 41
1.0
 10
29.52002401945107
 20
19.43500148314249
 30
0.0
 41
1.0
 10
28.86829468627926
 20
20.00346471320341
 30
0.0
 41
1.0
 10
28.60610008386291
 20
20.3331559260763
 30
0.0
 41
1.0
 10
28.59106981428366
 20
20.35246471717137
 30
0.0
 41
1.0
  0
SPLINE
  5
8E
330
1F
100
AcDbEntity
  8
Default
100
AcDbSpline
210
0.0
220
0.0
230
1.0
 70
    12
 71
     3
 72
     8
 73
     4
 74
     0
 42
0.000000001
 43
0.0000000001
 40
0.0
 40
0.0
 40
0.0
 40
0.0
 40
1.804582600627094
 40
1.804582600627094
 40
1.804582600627094
 40
1.804582600627094
 10
42.35340563930541
 20
18.48182237565728
 30
0.0
 41
1.0
 10
41.74785786946688
 20
18.49396515014411
 30
0.0
 41
0.9999989102244127
 10
41.14479205882466
 20
18.50520084470218
 30
0.0
 41
0.9999984780086058
 10
40.54270188258649
 20
18.51556707670414
 30
0.0
 41
0.9999987033525791
  0
SPLINE
  5
8F
330
1F
100
AcDbEntity
  8
Default
100
AcDbSpline
210
0.0
220
0.0
230
1.0
 70
    12
 71
     3
 72
    10
 73
     6
 74
     0
 42
0.000000001
 43
0.0000000001
 40
0.0
 40
0.0
 40
0.0
 40
0.0
 40
0.499786126541424
 40
0.499786126541424
 40
1.0
 40
1.0
 40
1.0
 40
1.0
 10
42.65307360270054
 20
18.42147590196275
 30
0.0
 41
1.0
 10
42.64373450165593
 20
18.43192639853806
 30
0.0
 41
1.0
 10
42.62377564005781
 20
18.44314611268472
 30
0.0
 41
1.0
 10
42.54343302667365
 20
18.46528389428956
 30
0.0
 41
1.0
 10
42.47645955632831
 20
18.47851461144132
 30
0.0
 41
1.0
 10
42.35340563930541
 20
18.48182237565728
 30
0.0
 41
1.0
  0
SPLINE
  5
90
330
1F
100
AcDbEntity
  8
Default
100
AcDbSpline
210
0.0
220
0.0
230
1.0
 70
    12
 71
     2
 72
     6
 73
     3
 74
     0
 42
0.000000001
 43
0.0000000001
 40
0.0
 40
0.0
 40
0.0
 40
1.082344106876008
 40
1.082344106876008
 40
1.082344106876008
 10
43.42193215101129
 20
17.66093423285085
 30
0.0
 41
1.0
 10
43.01091381728568
 20
18.0143252440225
 30
0.0
 41
0.9975644276718084
 10
42.65307360270054
 20
18.42147590196275
 30
0.0
 41
1.0
  0
SPLINE
  5
91
330
1F
100
AcDbEntity
  8
Default
100
AcDbSpline
210
0.0
220
0.0
230
1.0
 70
    12
 71
     3
 72
    20
 73
    16
 74
     0
 42
0.000000001
 43
0.0000000001
 40
0.0
 40
0.0
 40
0.0
 40
0.0
 40
0.0213292444772112
 40
0.0422339028831005
 40
0.5213050783143771
 40
1.138131412743502
 40
1.138131412743502
 40
1.138131412743502
 40
1.161781021547216
 40
1.190660427673819
 40
1.266727426220671
 40
1.487915670039002
 40
1.487915670039002
 40
1.487915670039002
 40
3.369927671225263
 40
3.369927671225263
 40
3.369927671225263
 40
3.369927671225263
 10
43.50372154948519
 20
17.80474014990376
 30
0.0
 41
1.0
 10
43.50486616352887
 20
17.80903390511607
 30
0.0
 41
1.0
 10
43.50929207026253
 20
17.83031546813312
 30
0.0
 41
1.0
 10
43.37250078701658
 20
17.93735665080739
 30
0.0
 41
1.0
 10
43.09476574992362
 20
18.18581433341269
 30
0.0
 41
1.0
 10
42.83885045006448
 20
18.44660483109214
 30
0.0
 41
1.0
 10
42.69830233569959
 20
18.59669329090389
 30
0.0
 41
1.0
 10
42.69290422992722
 20
18.60245569609451
 30
0.0
 41
1.0
 10
42.66947915233069
 20
18.62368303525522
 30
0.0
 41
1.0
 10
42.63097869518117
 20
18.64297948665727
 30
0.0
 41
1.0
 10
42.52561481015294
 20
18.67148960480787
 30
0.0
 41
1.0
 10
42.42616642188369
 20
18.6779736270767
 30
0.0
 41
1.0
 10
42.35235875928907
 20
18.6801046221421
 30
0.0
 41
1.0
 10
41.72496168021389
 20
18.69373333045527
 30
0.0
 41
1.0
 10
41.09773708733293
 20
18.70586509300784
 30
0.0
 41
1.0
 10
40.47050845022248
 20
18.71757423875184
 30
0.0
 41
1.0
  0
SPLINE
  5
92
330
1F
100
AcDbEntity
  8
Default
100
AcDbSpline
210
0.0
220
0.0
230
1.0
 70
    12
 71
     2
 72
     6
 73
     3
 74
     0
 42
0.000000001
 43
0.0000000001
 40
0.0
 40
0.0
 40
0.0
 40
0.1197804066303905
 40
0.1197804066303905
 40
0.1197804066303905
 10
43.47305571421488
 20
17.68877823736307
 30
0.0
 41
1.0
 10
43.48829493447368
 20
17.74687076678793
 30
0.0
 41
0.9999980136198698
 10
43.50372154948519
 20
17.80474014990376
 30
0.0
 41
1.0
  0
SPLINE
  5
93
330
1F
100
AcDbEntity
  8
Default
100
AcDbSpline
210
0.0
220
0.0
230
1.0
 70
    12
 71
     2
 72
     8
 73
     5
 74
     0
 42
0.000000001
 43
0.0000000001
 40
0.0
 40
0.0
 40
0.0
 40
0.0324543335714889
 40
0.0324543335714889
 40
0.0649086671429778
 40
0.0649086671429778
 40
0.0649086671429778
 10
43.42193625716891
 20
17.66093273215731
 30
0.0
 41
1.0
 10
43.43829048188128
 20
17.65569325185569
 30
0.0
 41
0.9197371239895568
 10
43.45338415337258
 20
17.66387517632631
 30
0.0
 41
1.0
 10
43.4684778248639
 20
17.67205710079692
 30
0.0
 41
0.9197371239895568
 10
43.47305571421488
 20
17.68877823736307
 30
0.0
 41
1.0
  0
SPLINE
  5
94
330
1F
100
AcDbEntity
  8
Default
100
AcDbSpline
210
0.0
220
0.0
230
1.0
 70
    12
 71
     2
 72
     6
 73
     3
 74
     0
 42
0.000000001
 43
0.0000000001
 40
0.0
 40
0.0
 40
0.0
 40
0.4752604825934983
 40
0.4752604825934983
 40
0.4752604825934983
 10
42.96173163798235
 20
17.7787795417041
 30
0.0
 41
1.0
 10
43.19487578133989
 20
17.73174364204441
 30
0.0
 41
0.9986683373178159
 10
43.42193625716891
 20
17.66093273215731
 30
0.0
 41
1.0
  0
ARC
  5
95
330
1F
100
AcDbEntity
  8
Default
100
AcDbCircle
 10
41.99548827972268
 20
13.14278118571668
 30
0.0
 40
4.735621076912604
100
AcDbArc
 50
78.22685043782138
 51
88.89187675271288
  0
ARC
  5
96
330
1F
100
AcDbEntity
  8
Default
100
AcDbCircle
 10
41.88044603305754
 20
7.195235774268401
 30
0.0
 40
10.68427900452597
100
AcDbArc
 50
88.89187675271286
 51
96.43290909272196
  0
SPLINE
  5
97
330
1F
100
AcDbEntity
  8
Default
100
AcDbSpline
210
0.0
220
0.0
230
1.0
 70
    12
 71
     3
 72
    15
 73
    11
 74
     0
 42
0.000000001
 43
0.0000000001
 40
4.037713153796105
 40
4.037713153796105
 40
4.037713153796105
 40
4.037713153796105
 40
8.2904732492629
 40
10.51377757559225
 40
11.3697014921579
 40
12.98432973188382
 40
14.32711787798274
 40
14.98821339550627
 40
15.62821414854803
 40
15.749056104108
 40
15.749056104108
 40
15.749056104108
 40
15.749056104108
 10
39.802836047552
 20
18.72989611749302
 30
0.0
 41
1.0
 10
38.38548416911697
 20
18.75577618133612
 30
0.0
 41
1.0
 10
36.22710785628424
 20
18.79273353152496
 30
0.0
 41
1.0
 10
33.78354989034781
 20
18.83805203463839
 30
0.0
 41
1.0
 10
32.21963085135201
 20
18.88507119691843
 30
0.0
 41
1.0
 10
30.95776372472309
 20
19.0847396629087
 30
0.0
 41
1.0
 10
29.82436580065769
 20
19.52167296159435
 30
0.0
 41
1.0
 10
29.11341762872584
 20
20.05649828433076
 30
0.0
 41
1.0
 10
28.79735142735294
 20
20.4125332747731
 30
0.0
 41
1.0
 10
28.65059602034263
 20
20.61876926119651
 30
0.0
 41
1.0
 10
28.62783541232697
 20
20.65189648426875
 30
0.0
 41
1.0
  0
SPLINE
  5
98
330
1F
100
AcDbEntity
  8
Default
100
AcDbSpline
210
0.0
220
0.0
230
1.0
 70
    12
 71
     3
 72
    39
 73
    35
 74
     0
 42
0.000000001
 43
0.0000000001
 40
16.87526889675736
 40
16.87526889675736
 40
16.87526889675736
 40
16.87526889675736
 40
17.06007105052871
 40
18.11268626327257
 40
18.35675537765046
 40
18.67392838797119
 40
20.80986268708262
 40
23.63983047276914
 40
23.63983047276914
 40
23.63983047276914
 40
27.65896466783846
 40
27.65896466783846
 40
27.65896466783846
 40
27.8059439588151
 40
27.87957196899965
 40
27.96182902675386
 40
28.0483590627115
 40
28.0483590627115
 40
28.12728586872971
 40
28.12728586872971
 40
28.12728586872971
 40
29.18399970511256
 40
29.18399970511256
 40
29.18399970511256
 40
30.30326730634012
 40
30.30326730634012
 40
30.30326730634012
 40
30.4234114192628
 40
30.4234114192628
 40
30.4234114192628
 40
30.45516024418013
 40
30.45516024418013
 40
30.45516024418013
 40
30.48690906909746
 40
30.48690906909746
 40
30.48690906909746
 40
30.48690906909746
 10
28.12123373451475
 20
21.65440007425101
 30
0.0
 41
1.0
 10
28.09990878946576
 20
21.71228575939547
 30
0.0
 41
1.0
 10
27.96335076129573
 20
22.1020032128855
 30
0.0
 41
1.0
 10
27.84672353178624
 20
22.5807247836905
 30
0.0
 41
1.0
 10
27.74643532060415
 20
23.11094918517983
 30
0.0
 41
1.0
 10
27.58059755860941
 20
23.99398474186258
 30
0.0
 41
1.0
 10
27.25449850492231
 20
25.72480131197496
 30
0.0
 41
1.0
 10
26.9506873111971
 20
27.35198324737739
 30
0.0
 41
1.0
 10
26.77816110424465
 20
28.27939478820695
 30
0.0
 41
1.0
 10
26.533137207698
 20
29.59651636324395
 30
0.0
 41
0.9999892345137223
 10
26.28063209965658
 20
30.91222420456733
 30
0.0
 41
0.9999892345137223
 10
26.02065393514118
 20
32.22647581947297
 30
0.0
 41
1.0
 10
26.00800354536753
 20
32.27344564871013
 30
0.0
 41
1.0
 10
25.98338978080349
 20
32.34064927542702
 30
0.0
 41
1.0
 10
25.93451829683376
 20
32.41275449528595
 30
0.0
 41
1.0
 10
25.88807277118099
 20
32.45633424865379
 30
0.0
 41
1.0
 10
25.85212280861951
 20
32.47490638827194
 30
0.0
 41
1.0
 10
25.81651683218954
 20
32.48691627405443
 30
0.0
 41
1.0
 10
25.79883830840062
 20
32.49425455727343
 30
0.0
 41
1.0
 10
25.75056693133013
 20
32.48690961908468
 30
0.0
 41
1.0
 10
25.40233078451062
 20
32.43392225620621
 30
0.0
 41
0.9999636970347625
 10
25.05466656624206
 20
32.37730365579776
 30
0.0
 41
0.9999636970347625
 10
24.70761214025053
 20
32.31705998412859
 30
0.0
 41
1.0
 10
24.34026947137734
 20
32.25184405341544
 30
0.0
 41
1.0
 10
23.97292680250416
 20
32.18662812270228
 30
0.0
 41
1.0
 10
23.60558413363096
 20
32.12141219198913
 30
0.0
 41
1.0
 10
23.56615508305248
 20
32.11415875188806
 30
0.0
 41
0.9978746378784636
 10
23.52743046227777
 20
32.10378252094063
 30
0.0
 41
0.9978746378784636
 10
23.48965718283333
 20
32.09034965889152
 30
0.0
 41
1.0
 10
23.47915640403355
 20
32.0875380335057
 30
0.0
 41
0.9481677523081955
 10
23.47055899032761
 20
32.08088550990329
 30
0.0
 41
0.9481677523081955
 10
23.46520181154564
 20
32.07142653383768
 30
0.0
 41
1.0
 10
23.45984463276367
 20
32.06196755777206
 30
0.0
 41
0.9481677523081955
 10
23.45856071275834
 20
32.05117296921429
 30
0.0
 41
0.9481677523081955
 10
23.46154969690886
 20
32.04072129152792
 30
0.0
 41
1.0
  0
SPLINE
  5
99
330
1F
100
AcDbEntity
  8
Default
100
AcDbSpline
210
0.0
220
0.0
230
1.0
 70
    12
 71
     2
 72
     6
 73
     3
 74
     0
 42
0.000000001
 43
0.0000000001
 40
0.0
 40
0.0
 40
0.0
 40
1.136364072058917
 40
1.136364072058917
 40
1.136364072058917
 10
24.58290168172468
 20
32.22482050748437
 30
0.0
 41
1.0
 10
24.02212558175139
 20
32.13338065667723
 30
0.0
 41
0.9999994086296703
 10
23.46154969690886
 20
32.04072129152797
 30
0.0
 41
1.0
  0
SPLINE
  5
9A
330
1F
100
AcDbEntity
  8
Default
100
AcDbSpline
210
0.0
220
0.0
230
1.0
 70
    12
 71
     2
 72
     6
 73
     3
 74
     0
 42
0.000000001
 43
0.0000000001
 40
0.0
 40
0.0
 40
0.0
 40
1.03984789255465
 40
1.03984789255465
 40
1.03984789255465
 10
25.60985075652057
 20
32.38806023672282
 30
0.0
 41
1.0
 10
25.09684773165339
 20
32.30347406384345
 30
0.0
 41
0.9999833139372739
 10
24.58290168172468
 20
32.22482050748437
 30
0.0
 41
1.0
  0
SPLINE
  5
9B
330
1F
100
AcDbEntity
  8
Default
100
AcDbSpline
210
0.0
220
0.0
230
1.0
 70
    12
 71
     3
 72
    10
 73
     6
 74
     0
 42
0.000000001
 43
0.0000000001
 40
0.0
 40
0.0
 40
0.0
 40
0.0
 40
0.4997792602654922
 40
0.4997792602654922
 40
1.0
 40
1.0
 40
1.0
 40
1.0
 10
25.83023764716015
 20
32.16451168292159
 30
0.0
 41
1.0
 10
25.80890418622593
 20
32.24330088151548
 30
0.0
 41
1.0
 10
25.77469255840967
 20
32.30822518944305
 30
0.0
 41
1.0
 10
25.69817409785476
 20
32.37880731736738
 30
0.0
 41
1.0
 10
25.65663926493013
 20
32.39564722695252
 30
0.0
 41
1.0
 10
25.60985075652057
 20
32.38806023672282
 30
0.0
 41
1.0
  0
SPLINE
  5
9C
330
1F
100
AcDbEntity
  8
Default
100
AcDbSpline
210
0.0
220
0.0
230
1.0
 70
    12
 71
     3
 72
    24
 73
    20
 74
     0
 42
0.000000001
 43
0.0000000001
 40
15.2575700389569
 40
15.2575700389569
 40
15.2575700389569
 40
15.2575700389569
 40
15.39293631914945
 40
16.62719998542071
 40
17.10106454752805
 40
17.66960510727877
 40
19.56375070971521
 40
19.56375070971521
 40
19.56375070971521
 40
21.69406019694155
 40
21.69406019694155
 40
21.69406019694155
 40
25.8288213752095
 40
25.8288213752095
 40
25.8288213752095
 40
26.0991454120005
 40
26.0991454120005
 40
26.0991454120005
 40
26.42524490160192
 40
26.42524490160192
 40
26.42524490160192
 40
26.42524490160192
 10
28.06990592828242
 20
21.23636863890711
 30
0.0
 41
1.0
 10
28.05144625208256
 20
21.2776278927174
 30
0.0
 41
1.0
 10
27.87002979918259
 20
21.69734740178304
 30
0.0
 41
1.0
 10
27.69601102930207
 20
22.2875405765629
 30
0.0
 41
1.0
 10
27.54991173470103
 20
23.03312045669749
 30
0.0
 41
1.0
 10
27.37258670149103
 20
23.99521713631082
 30
0.0
 41
1.0
 10
27.21906595860543
 20
24.80211622850193
 30
0.0
 41
1.0
 10
27.10326167062077
 20
25.42261495241321
 30
0.0
 41
1.0
 10
26.97286061316143
 20
26.12064406159847
 30
0.0
 41
0.9999946372837994
 10
26.84510155164313
 20
26.81916223634286
 30
0.0
 41
0.9999946372830957
 10
26.71998654147239
 20
27.51815823878364
 30
0.0
 41
0.9999999999978886
 10
26.48413982037933
 20
28.87612823478656
 30
0.0
 41
0.9999340955377237
 10
26.22935151198117
 20
30.23067401311113
 30
0.0
 41
0.9999340955802639
 10
25.95567199137054
 20
31.58152776176007
 30
0.0
 41
1.000000000125509
 10
25.93771501153842
 20
31.66982851181049
 30
0.0
 41
0.9999998892704794
 10
25.9198379844292
 20
31.75814540220078
 30
0.0
 41
0.9999998892704794
 10
25.90204091598817
 20
31.84647840355982
 30
0.0
 41
1.000000000125509
 10
25.88167313837878
 20
31.95327378440473
 30
0.0
 41
0.9996238213620874
 10
25.85772970842623
 20
32.05932477165456
 30
0.0
 41
0.9996238213620874
 10
25.83023764716014
 20
32.16451168292159
 30
0.0
 41
1.000000000125509
  0
SPLINE
  5
9D
330
1F
100
AcDbEntity
  8
Default
100
AcDbSpline
210
0.0
220
0.0
230
1.0
 70
    12
 71
     2
 72
     8
 73
     5
 74
     0
 42
0.000000001
 43
0.0000000001
 40
0.0
 40
0.0
 40
0.0
 40
1.570796326794897
 40
1.570796326794897
 40
3.141592653589793
 40
3.141592653589793
 40
3.141592653589793
 10
37.59049702763686
 20
24.89178165181601
 30
0.0
 41
1.0
 10
37.60972814568893
 20
24.83826633013177
 30
0.0
 41
0.7071067811865475
 10
37.90345324471809
 20
24.94381856968695
 30
0.0
 41
1.0
 10
38.19717834374725
 20
25.04937080924213
 30
0.0
 41
0.7071067811865475
 10
38.17794722569518
 20
25.10288613092637
 30
0.0
 41
1.0
  0
LINE
  5
9E
330
1F
100
AcDbEntity
  8
Default
100
AcDbLine
 10
40.18225165513046
 20
16.91383109089897
 30
0.0
 11
41.9297712341757
 21
0.2782726027252478
 31
0.0
  0
ARC
  5
9F
330
1F
100
AcDbEntity
  8
Default
100
AcDbCircle
 10
-70.79354761499431
 20
5.256129177097026
 30
0.0
 40
111.5864240736932
100
AcDbArc
 50
5.996770325260292
 51
6.387773531141725
  0
SPLINE
  5
A0
330
1F
100
AcDbEntity
  8
Default
100
AcDbSpline
210
0.0
220
0.0
230
1.0
 70
    12
 71
     2
 72
     6
 73
     3
 74
     0
 42
0.000000001
 43
0.0000000001
 40
0.0
 40
0.0
 40
0.0
 40
0.7525312139452678
 40
0.7525312139452678
 40
0.7525312139452678
 10
39.91974229227749
 20
18.40428467559306
 30
0.0
 41
1.0
 10
40.04795525883077
 20
18.0448418261539
 30
0.0
 41
0.9948005597197574
 10
40.10011257942612
 20
17.67088516497288
 30
0.0
 41
1.0
  0
SPLINE
  5
A1
330
1F
100
AcDbEntity
  8
Default
100
AcDbSpline
210
0.0
220
0.0
230
1.0
 70
    24
 71
     2
 72
     6
 73
     3
 74
     0
 42
0.000000001
 43
0.0000000001
 40
0.0
 40
0.0
 40
0.0
 40
6.888918798089308
 40
6.888918798089308
 40
6.888918798089308
 10
37.59049702763686
 20
24.89178165181601
 30
0.0
 10
38.75511965995717
 20
21.64803316370454
 30
0.0
 10
39.91974229227749
 20
18.40428467559306
 30
0.0
  0
LINE
  5
A2
330
1F
100
AcDbEntity
  8
Default
100
AcDbLine
 10
28.44951279172741
 20
19.19957528615682
 30
0.0
 11
29.13444726294341
 21
24.77791890022039
 31
0.0
  0
ARC
  5
A3
330
1F
100
AcDbEntity
  8
Default
100
AcDbCircle
 10
18.40154684146969
 20
20.43331037332218
 30
0.0
 40
10.12342442076008
100
AcDbArc
 50
351.7056330651263
 51
353.0000000000246
  0
SPLINE
  5
A4
330
1F
100
AcDbEntity
  8
Default
100
AcDbSpline
210
0.0
220
0.0
230
1.0
 70
    12
 71
     2
 72
     6
 73
     3
 74
     0
 42
0.000000001
 43
0.0000000001
 40
0.0
 40
0.0
 40
0.0
 40
0.227974790403558
 40
0.227974790403558
 40
0.227974790403558
 10
28.31837896534687
 20
18.77059285242369
 30
0.0
 41
1.0
 10
28.39223977515751
 20
18.86005288276952
 30
0.0
 41
0.9740413184733597
 10
28.41908000735322
 20
18.97291615487802
 30
0.0
 41
1.0
  0
SPLINE
  5
A5
330
1F
100
AcDbEntity
  8
Default
100
AcDbSpline
210
0.0
220
0.0
230
1.0
 70
    12
 71
     2
 72
     6
 73
     3
 74
     0
 42
0.000000001
 43
0.0000000001
 40
0.0
 40
0.0
 40
0.0
 40
0.1770232195530522
 40
0.1770232195530522
 40
0.1770232195530522
 10
28.34611552379682
 20
18.5987205248586
 30
0.0
 41
1.0
 10
28.36037070143893
 20
18.68919637063303
 30
0.0
 41
0.9503412833434857
 10
28.31837896534687
 20
18.77059285242369
 30
0.0
 41
1.0
  0
ARC
  5
A6
330
1F
100
AcDbEntity
  8
Default
100
AcDbCircle
 10
4.623577867306267
 20
24.4011525711267
 30
0.0
 40
24.42185518168452
100
AcDbArc
 50
344.9624694641122
 51
346.2555512562422
  0
ARC
  5
A7
330
1F
100
AcDbEntity
  8
Default
100
AcDbCircle
 10
29.45071966408998
 20
17.73130675691095
 30
0.0
 40
1.285610912487735
100
AcDbArc
 50
164.9624694641301
 51
165.0000000002308
  0
LINE
  5
A8
330
1F
100
AcDbEntity
  8
Default
100
AcDbLine
 10
23.43190959435424
 20
0.2360209072589963
 30
0.0
 11
28.20891488115768
 21
18.0640473456494
 31
0.0
  0
SPLINE
  5
A9
330
1F
100
AcDbEntity
  8
Default
100
AcDbSpline
210
0.0
220
0.0
230
1.0
 70
    24
 71
     2
 72
     6
 73
     3
 74
     0
 42
0.000000001
 43
0.0000000001
 40
0.0
 40
0.0
 40
0.0
 40
18.45713274992135
 40
18.45713274992135
 40
18.45713274992135
 10
27.60542840523539
 20
18.22616888500662
 30
0.0
 10
25.21677897293397
 20
9.312090624938392
 30
0.0
 10
22.82812954063255
 20
0.3980123648701697
 30
0.0
  0
ARC
  5
AA
330
1F
100
AcDbEntity
  8
Default
100
AcDbCircle
 10
29.43699490402828
 20
17.76366051247779
 30
0.0
 40
1.889060569214162
100
AcDbArc
 50
164.8621433391867
 51
165.8279099109674
  0
ARC
  5
AB
330
1F
100
AcDbEntity
  8
Default
100
AcDbCircle
 10
18.56244512857436
 20
20.70554877101096
 30
0.0
 40
9.376397226389182
100
AcDbArc
 50
344.8621433391867
 51
351.2259478101418
  0
SPLINE
  5
AC
330
1F
100
AcDbEntity
  8
Default
100
AcDbSpline
210
0.0
220
0.0
230
1.0
 70
    24
 71
     2
 72
     6
 73
     3
 74
     0
 42
0.000000001
 43
0.0000000001
 40
0.0
 40
0.0
 40
0.0
 40
5.618839662276288
 40
5.618839662276288
 40
5.618839662276288
 10
28.5138799623649
 20
24.85224697749828
 30
0.0
 10
28.17149781219451
 20
22.06376813575732
 30
0.0
 10
27.82911566202412
 20
19.27528929401637
 30
0.0
  0
SPLINE
  5
AD
330
1F
100
AcDbEntity
  8
Default
100
AcDbSpline
210
0.0
220
0.0
230
1.0
 70
     8
 71
     5
 72
    12
 73
     6
 74
     0
 42
0.000000001
 43
0.0000000001
 40
0.0
 40
0.0
 40
0.0
 40
0.0
 40
0.0
 40
0.0
 40
1.0
 40
1.0
 40
1.0
 40
1.0
 40
1.0
 40
1.0
 10
40.80283417562558
 20
16.98346407488398
 30
0.0
 10
40.76632888176144
 20
17.31301936007173
 30
0.0
 10
40.71547844925265
 20
17.64098561444954
 30
0.0
 10
40.73150013862414
 20
17.99065217713785
 30
0.0
 10
40.61945675735515
 20
18.30271884179318
 30
0.0
 10
40.50741337608615
 20
18.61478550644851
 30
0.0
  0
SPLINE
  5
AE
330
1F
100
AcDbEntity
  8
Default
100
AcDbSpline
210
0.0
220
0.0
230
1.0
 70
     8
 71
     3
 72
     8
 73
     4
 74
     0
 42
0.000000001
 43
0.0000000001
 40
0.0
 40
0.0
 40
0.0
 40
0.0
 40
0.0792342879261519
 40
0.0792342879261519
 40
0.0792342879261519
 40
0.0792342879261519
 10
40.81125924998189
 20
16.90416782932154
 30
0.0
 10
40.80857032094309
 20
16.93067358219953
 30
0.0
 10
40.8057547030725
 20
16.95709871375986
 30
0.0
 10
40.80283417562558
 20
16.98346407488398
 30
0.0
  0
SPLINE
  5
AF
330
1F
100
AcDbEntity
  8
Default
100
AcDbSpline
210
0.0
220
0.0
230
1.0
 70
    24
 71
     2
 72
     6
 73
     3
 74
     0
 42
0.000000001
 43
0.0000000001
 40
0.0
 40
0.0
 40
0.0
 40
16.64725632581119
 40
16.64725632581119
 40
16.64725632581119
 10
42.55145858007215
 20
0.3472771798569929
 30
0.0
 10
41.68135891502702
 20
8.625722504589268
 30
0.0
 10
40.81125924998189
 20
16.90416782932154
 30
0.0
  0
SPLINE
  5
B0
330
1F
100
AcDbEntity
  8
Default
100
AcDbSpline
210
0.0
220
0.0
230
1.0
 70
     8
 71
     3
 72
    16
 73
    12
 74
     0
 42
0.000000001
 43
0.0000000001
 40
0.0
 40
0.0
 40
0.0
 40
0.0
 40
1.0
 40
2.0
 40
3.0
 40
4.0
 40
5.0
 40
6.0
 40
7.0
 40
8.0
 40
9.0
 40
9.0
 40
9.0
 40
9.0
 10
23.46154969690886
 20
32.04072129152792
 30
0.0
 10
23.62411611111561
 20
31.47978789239808
 30
0.0
 10
23.91263436588746
 20
30.34704578945712
 30
0.0
 10
24.21348431748831
 20
28.61993258022726
 30
0.0
 10
24.42999229231638
 20
26.88106962755358
 30
0.0
 10
24.61629498464572
 20
25.13905200612513
 30
0.0
 10
24.76214005064094
 20
23.39194893621796
 30
0.0
 10
24.82443992168211
 20
21.64357592843411
 30
0.0
 10
25.05217441384698
 20
19.89055917089166
 30
0.0
 10
25.91400930440636
 20
18.3225601664479
 30
0.0
 10
26.84889227546994
 20
17.58682526312434
 30
0.0
 10
27.35789062361576
 20
17.30239533840341
 30
0.0
  0
SPLINE
  5
B1
330
1F
100
AcDbEntity
  8
Default
100
AcDbSpline
210
0.0
220
0.0
230
1.0
 70
    12
 71
     2
 72
     6
 73
     3
 74
     0
 42
0.000000001
 43
0.0000000001
 40
0.0
 40
0.0
 40
0.0
 40
0.0493556684224416
 40
0.0493556684224416
 40
0.0493556684224416
 10
35.51613372405174
 20
16.46915902710987
 30
0.0
 41
1.0
 10
35.51375316400556
 20
16.44459267256654
 30
0.0
 41
0.9997816609613368
 10
35.5103482444712
 20
16.42014723608759
 30
0.0
 41
1.0
  0
SPLINE
  5
B2
330
1F
100
AcDbEntity
  8
Default
100
AcDbSpline
210
0.0
220
0.0
230
1.0
 70
    12
 71
     2
 72
     6
 73
     3
 74
     0
 42
0.000000001
 43
0.0000000001
 40
0.0
 40
0.0
 40
0.0
 40
0.0803114375025241
 40
0.0803114375025241
 40
0.0803114375025241
 10
32.88699599976204
 20
16.14748988666461
 30
0.0
 41
1.0
 10
32.88835500669123
 20
16.10734739610983
 30
0.0
 41
0.9996351925177726
 10
32.88754441112012
 20
16.06719008814984
 30
0.0
 41
1.0
  0
SPLINE
  5
B3
330
1F
100
AcDbEntity
  8
Default
100
AcDbSpline
210
0.0
220
0.0
230
1.0
 70
    12
 71
     3
 72
    12
 73
     8
 74
     0
 42
0.000000001
 43
0.0000000001
 40
0.0
 40
0.0
 40
0.0
 40
0.0
 40
0.5000923912246765
 40
0.5000923912246765
 40
0.7499538313486022
 40
0.7499538313486022
 40
0.9978803374167774
 40
0.9978803374167774
 40
0.9978803374167774
 40
0.9978803374167774
 10
30.20182604782056
 20
15.81982029185706
 30
0.0
 41
1.0
 10
31.84809424294724
 20
15.83614151937455
 30
0.0
 41
1.0
 10
33.64697920341652
 20
16.14462992916663
 30
0.0
 41
1.0
 10
36.41234710921934
 20
16.52413242550474
 30
0.0
 41
1.0
 10
37.27599361742864
 20
16.63122220284347
 30
0.0
 41
1.0
 10
38.83323349315322
 20
16.76176516341655
 30
0.0
 41
1.0
 10
39.51827346149395
 20
16.78891914710768
 30
0.0
 41
1.0
 10
40.19827164901687
 20
16.75712262489272
 30
0.0
 41
1.0
  0
SPLINE
  5
B4
330
1F
100
AcDbEntity
  8
Default
100
AcDbSpline
210
0.0
220
0.0
230
1.0
 70
    12
 71
     2
 72
     6
 73
     3
 74
     0
 42
0.000000001
 43
0.0000000001
 40
0.0
 40
0.0
 40
0.0
 40
0.0386071186616564
 40
0.0386071186616564
 40
0.0386071186616564
 10
38.15206347371179
 20
16.75848804310434
 30
0.0
 41
1.0
 10
38.14878707031428
 20
16.73945598008708
 30
0.0
 41
0.9993427218135228
 10
38.14414032802435
 20
16.72071132676922
 30
0.0
 41
1.0
  0
SPLINE
  5
B5
330
1F
100
AcDbEntity
  8
Default
100
AcDbSpline
210
0.0
220
0.0
230
1.0
 70
    12
 71
     2
 72
     6
 73
     3
 74
     0
 42
0.000000001
 43
0.0000000001
 40
0.0
 40
0.0
 40
0.0
 40
0.3445086105441869
 40
0.3445086105441869
 40
0.3445086105441869
 10
32.52969881689
 20
16.21545290539216
 30
0.0
 41
1.0
 10
32.70119130305788
 20
16.23164884062989
 30
0.0
 41
0.9999889935142514
 10
32.87252426511623
 20
16.24945325700829
 30
0.0
 41
1.0
  0
SPLINE
  5
B6
330
1F
100
AcDbEntity
  8
Default
100
AcDbSpline
210
0.0
220
0.0
230
1.0
 70
    12
 71
     2
 72
     6
 73
     3
 74
     0
 42
0.000000001
 43
0.0000000001
 40
0.0
 40
0.0
 40
0.0
 40
0.1030253619859047
 40
0.1030253619859047
 40
0.1030253619859047
 10
32.87252426511623
 20
16.24945325700829
 30
0.0
 41
1.0
 10
32.88222653475208
 20
16.19882163009445
 30
0.0
 41
0.9988318248813274
 10
32.88699599976204
 20
16.14748988666461
 30
0.0
 41
1.0
  0
SPLINE
  5
B7
330
1F
100
AcDbEntity
  8
Default
100
AcDbSpline
210
0.0
220
0.0
230
1.0
 70
    12
 71
     2
 72
     6
 73
     3
 74
     0
 42
0.000000001
 43
0.0000000001
 40
0.0
 40
0.0
 40
0.0
 40
0.3452869146421289
 40
0.3452869146421289
 40
0.3452869146421289
 10
35.16096136478041
 20
16.52134817489605
 30
0.0
 41
1.0
 10
35.33225281257112
 20
16.54291212723592
 30
0.0
 41
0.9999999805998954
 10
35.50355274230424
 20
16.56440859671747
 30
0.0
 41
1.0
  0
SPLINE
  5
B8
330
1F
100
AcDbEntity
  8
Default
100
AcDbSpline
210
0.0
220
0.0
230
1.0
 70
    12
 71
     2
 72
     6
 73
     3
 74
     0
 42
0.000000001
 43
0.0000000001
 40
0.0
 40
0.0
 40
0.0
 40
0.0961494044018356
 40
0.0961494044018356
 40
0.0961494044018356
 10
35.50355274230424
 20
16.56440859671753
 30
0.0
 41
1.0
 10
35.51305293562572
 20
16.51720776351869
 30
0.0
 41
0.9977366220019549
 10
35.51613372405174
 20
16.46915902710987
 30
0.0
 41
1.0
  0
SPLINE
  5
B9
330
1F
100
AcDbEntity
  8
Default
100
AcDbSpline
210
0.0
220
0.0
230
1.0
 70
    12
 71
     2
 72
     6
 73
     3
 74
     0
 42
0.000000001
 43
0.0000000001
 40
0.0
 40
0.0
 40
0.0
 40
0.34871336792383
 40
0.34871336792383
 40
0.34871336792383
 10
37.7923158193158
 20
16.82334877153651
 30
0.0
 41
1.0
 10
37.96586358511254
 20
16.84014131835445
 30
0.0
 41
0.9999861007087908
 10
38.13957877439614
 20
16.85510292434553
 30
0.0
 41
1.0
  0
SPLINE
  5
BA
330
1F
100
AcDbEntity
  8
Default
100
AcDbSpline
210
0.0
220
0.0
230
1.0
 70
    12
 71
     2
 72
     6
 73
     3
 74
     0
 42
0.000000001
 43
0.0000000001
 40
0.0
 40
0.0
 40
0.0
 40
0.0975165444674373
 40
0.0975165444674373
 40
0.0975165444674373
 10
38.13957877439614
 20
16.85510292434553
 30
0.0
 41
1.0
 10
38.14958728910876
 20
16.80728215242109
 30
0.0
 41
0.996974714520229
 10
38.15206347371179
 20
16.75848804310434
 30
0.0
 41
1.0
  0
SPLINE
  5
BB
330
1F
100
AcDbEntity
  8
Default
100
AcDbSpline
210
0.0
220
0.0
230
1.0
 70
    24
 71
     2
 72
     6
 73
     3
 74
     0
 42
0.000000001
 43
0.0000000001
 40
0.0
 40
0.0
 40
0.0
 40
0.1352682287944049
 40
0.1352682287944049
 40
0.1352682287944049
 10
38.14414032802435
 20
16.72071132676922
 30
0.0
 10
38.13025764616174
 20
16.78690531875184
 30
0.0
 10
38.11637496429913
 20
16.85309931073446
 30
0.0
  0
SPLINE
  5
BC
330
1F
100
AcDbEntity
  8
Default
100
AcDbSpline
210
0.0
220
0.0
230
1.0
 70
    24
 71
     2
 72
     6
 73
     3
 74
     0
 42
0.000000001
 43
0.0000000001
 40
0.0
 40
0.0
 40
0.0
 40
0.1838267805805533
 40
0.1838267805805533
 40
0.1838267805805533
 10
32.88754441112012
 20
16.06719008814984
 30
0.0
 10
32.86867812791845
 20
16.15714638127493
 30
0.0
 10
32.84981184471678
 20
16.24710267440002
 30
0.0
  0
SPLINE
  5
BD
330
1F
100
AcDbEntity
  8
Default
100
AcDbSpline
210
0.0
220
0.0
230
1.0
 70
    24
 71
     2
 72
     6
 73
     3
 74
     0
 42
0.000000001
 43
0.0000000001
 40
0.0
 40
0.0
 40
0.0
 40
0.1444700679384147
 40
0.1444700679384147
 40
0.1444700679384147
 10
35.5103482444712
 20
16.42014723608759
 30
0.0
 10
35.49552117081362
 20
16.49084418099531
 30
0.0
 10
35.48069409715605
 20
16.56154112590303
 30
0.0
  0
SPLINE
  5
BE
330
1F
100
AcDbEntity
  8
Default
100
AcDbSpline
210
0.0
220
0.0
230
1.0
 70
    12
 71
     2
 72
     6
 73
     3
 74
     0
 42
0.000000001
 43
0.0000000001
 40
0.0
 40
0.0
 40
0.0
 40
0.0883807088191059
 40
0.0883807088191059
 40
0.0883807088191059
 10
39.94645368962318
 20
17.73470122481542
 30
0.0
 41
1.0
 10
39.99040571358795
 20
17.73928466204062
 30
0.0
 41
0.9999996602720717
 10
40.03435012165579
 20
17.74394055153302
 30
0.0
 41
1.0
  0
ARC
  5
BF
330
1F
100
AcDbEntity
  8
Default
100
AcDbCircle
 10
21.41702233146395
 20
-6.076233446502786
 30
0.0
 40
6.626057535121478
100
AcDbArc
 50
72.29246914784378
 51
77.70753085215975
  0
ARC
  5
C0
330
1F
100
AcDbEntity
  8
Default
100
AcDbCircle
 10
23.13005777363699
 20
0.3169018588539796
 30
0.0
 40
0.3130000000000004
100
AcDbArc
 50
165.0000000000023
 51
345.0000000000009
  0
ARC
  5
C1
330
1F
100
AcDbEntity
  8
Default
100
AcDbCircle
 10
42.68706500780868
 20
-3.816143434957918
 30
0.0
 40
4.163860774476061
100
AcDbArc
 50
91.85686020991261
 51
100.4788747243007
  0
ARC
  5
C2
330
1F
100
AcDbEntity
  8
Default
100
AcDbCircle
 10
42.24095805592469
 20
0.3119017415983629
 30
0.0
 40
0.3129986533702349
100
AcDbArc
 50
186.1678674671067
 51
6.167867467106189
  0
SPLINE
  5
C3
330
1F
100
AcDbEntity
  8
Default
100
AcDbSpline
210
0.0
220
0.0
230
1.0
 70
    12
 71
     2
 72
     6
 73
     3
 74
     0
 42
0.000000001
 43
0.0000000001
 40
0.0
 40
0.0
 40
0.0
 40
1.90272112062679
 40
1.90272112062679
 40
1.90272112062679
 10
27.93063230180826
 20
17.02548262065525
 30
0.0
 41
1.0
 10
28.81747324779881
 20
16.66093064405217
 30
0.0
 41
0.9883314745276515
 10
29.77292327579636
 20
16.58030650914139
 30
0.0
 41
1.0
  0
SPLINE
  5
C4
330
1F
100
AcDbEntity
  8
Default
100
AcDbSpline
210
0.0
220
0.0
230
1.0
 70
    12
 71
     2
 72
     6
 73
     3
 74
     0
 42
0.000000001
 43
0.0000000001
 40
0.0
 40
0.0
 40
0.0
 40
0.1186826334809769
 40
0.1186826334809769
 40
0.1186826334809769
 10
30.09923209542455
 20
15.8694694898639
 30
0.0
 41
0.9999999704501452
 10
30.13726454257415
 20
15.81723537537222
 30
0.0
 41
0.8819876428313956
 10
30.20182604782056
 20
15.81982029185706
 30
0.0
 41
1.0
  0
SPLINE
  5
C5
330
1F
100
AcDbEntity
  8
Default
100
AcDbSpline
210
0.0
220
0.0
230
1.0
 70
    12
 71
     3
 72
    14
 73
    10
 74
     0
 42
0.000000001
 43
0.0000000001
 40
-0.3056027183356503
 40
-0.3056027183356503
 40
-0.3056027183356503
 40
-0.3056027183356503
 40
-0.2062393081546245
 40
-0.1208043058249814
 40
-0.0532418690462874
 40
0.0000000084914336
 40
0.0000000084914336
 40
0.0000000084914336
 40
0.2080413483919661
 40
0.2080413483919661
 40
0.2080413483919661
 40
0.2080413483919661
 10
29.89694527836261
 20
16.35503630609403
 30
0.0
 41
1.0
 10
29.89643375386881
 20
16.32192393103597
 30
0.0
 41
1.0
 10
29.90596178435015
 20
16.2552714758624
 30
0.0
 41
1.0
 10
29.92092157575277
 20
16.17243249312189
 30
0.0
 41
1.0
 10
29.94026996459252
 20
16.1062957606531
 30
0.0
 41
1.0
 10
29.96927976409201
 20
16.05413350929112
 30
0.0
 41
1.0
 10
29.97936900977498
 20
16.03950635618278
 30
0.0
 41
1.0
 10
30.01874444282259
 20
15.98242077159184
 30
0.0
 41
0.99996530826571
 10
30.05870019073409
 20
15.92573984971667
 30
0.0
 41
0.9999653082633301
 10
30.09923209542455
 20
15.8694694898639
 30
0.0
 41
0.9999999999928604
  0
SPLINE
  5
C6
330
1F
100
AcDbEntity
  8
Default
100
AcDbSpline
210
0.0
220
0.0
230
1.0
 70
    12
 71
     3
 72
    13
 73
     9
 74
     0
 42
0.000000001
 43
0.0000000001
 40
0.0017897730988345
 40
0.0017897730988345
 40
0.0017897730988345
 40
0.0017897730988345
 40
0.056827820050712
 40
0.0948058267223934
 40
0.0948058267223934
 40
0.1277625648166471
 40
0.1442543741449534
 40
0.1839260472662313
 40
0.1839260472662313
 40
0.1839260472662313
 40
0.1839260472662313
 10
30.0190150632958
 20
16.43010963504654
 30
0.0
 41
1.0
 10
30.00056450249848
 20
16.43060730463242
 30
0.0
 41
1.0
 10
29.97003432387478
 20
16.42787442296778
 30
0.0
 41
1.0
 10
29.94556624403867
 20
16.41931989180209
 30
0.0
 41
1.0
 10
29.92848917701795
 20
16.4103326067033
 30
0.0
 41
1.0
 10
29.91757783046116
 20
16.40255897144606
 30
0.0
 41
1.0
 10
29.90202266306275
 20
16.38277015830565
 30
0.0
 41
1.0
 10
29.89712149797964
 20
16.366443482334
 30
0.0
 41
1.0
 10
29.89694527836261
 20
16.35503630609403
 30
0.0
 41
1.0
  0
SPLINE
  5
C7
330
1F
100
AcDbEntity
  8
Default
100
AcDbSpline
210
0.0
220
0.0
230
1.0
 70
    12
 71
     2
 72
     6
 73
     3
 74
     0
 42
0.000000001
 43
0.0000000001
 40
0.0
 40
0.0
 40
0.0
 40
0.0366460543725269
 40
0.0366460543725269
 40
0.0366460543725269
 10
30.05577786979305
 20
16.42911177065658
 30
0.0
 41
1.0
 10
30.03746166599928
 20
16.42961177986129
 30
0.0
 41
0.9999999880475364
 10
30.0190150632958
 20
16.43010963504654
 30
0.0
 41
1.0
  0
ARC
  5
C8
330
1F
100
AcDbEntity
  8
Default
100
AcDbCircle
 10
30.01955656308357
 20
16.76246760347939
 30
0.0
 40
0.3353179004120339
100
AcDbArc
 50
276.2012357005883
 51
3.708186950511096
  0
LINE
  5
C9
330
1F
100
AcDbEntity
  8
Default
100
AcDbLine
 10
30.32943934948487
 20
17.14799987030581
 30
0.0
 11
30.35417243761779
 21
16.78415425482146
 31
0.0
  0
SPLINE
  5
CA
330
1F
100
AcDbEntity
  8
Default
100
AcDbSpline
210
0.0
220
0.0
230
1.0
 70
    12
 71
     2
 72
     8
 73
     5
 74
     0
 42
0.000000001
 43
0.0000000001
 40
0.0
 40
0.0
 40
0.0
 40
0.1089413388740386
 40
0.1089413388740386
 40
0.2178826777480772
 40
0.2178826777480772
 40
0.2178826777480772
 10
30.46368383954598
 20
17.28308776584207
 30
0.0
 41
1.0
 10
30.40548063026194
 20
17.28959357114454
 30
0.0
 41
0.9010994502832596
 10
30.36416882712049
 20
17.24825471452938
 30
0.0
 41
1.0
 10
30.32285702397907
 20
17.20691585791421
 30
0.0
 41
0.9010994502832596
 10
30.32943934948487
 20
17.14799987030581
 30
0.0
 41
1.0
  0
SPLINE
  5
CB
330
1F
100
AcDbEntity
  8
Default
100
AcDbSpline
210
0.0
220
0.0
230
1.0
 70
     8
 71
     3
 72
    11
 73
     7
 74
     0
 42
0.000000001
 43
0.0000000001
 40
0.0
 40
0.0
 40
0.0
 40
0.0
 40
1.279400275604543
 40
4.509988620172255
 40
5.981477435535067
 40
8.9862209192608
 40
8.9862209192608
 40
8.9862209192608
 40
8.9862209192608
 10
39.41135953566223
 20
17.85410054575928
 30
0.0
 10
38.98632329737316
 20
17.81773869498037
 30
0.0
 10
37.49109193567134
 20
17.66567090259599
 30
0.0
 10
35.51338068931851
 20
17.40347785557593
 30
0.0
 10
32.95579210190697
 20
17.17036662683791
 30
0.0
 10
31.4586317666067
 20
17.15263784246236
 30
0.0
 10
30.46368383954598
 20
17.28308776584207
 30
0.0
  0
ARC
  5
CC
330
1F
100
AcDbEntity
  8
Default
100
AcDbCircle
 10
37.62894610791614
 20
38.68885681302729
 30
0.0
 40
20.91086000966659
100
AcDbArc
 50
274.8897481760373
 51
275.9627895583474
  0
SPLINE
  5
CD
330
1F
100
AcDbEntity
  8
Default
100
AcDbSpline
210
0.0
220
0.0
230
1.0
 70
    12
 71
     2
 72
     6
 73
     3
 74
     0
 42
0.000000001
 43
0.0000000001
 40
-0.1887487941263943
 40
-0.1887487941263943
 40
-0.1887487941263943
 40
0.0
 40
0.0
 40
0.0
 10
39.93821550165669
 20
17.78252210959437
 30
0.0
 41
1.0
 10
39.9182815658966
 20
17.89817755705694
 30
0.0
 41
0.7305167774868642
 10
39.8012196577511
 20
17.89113352492287
 30
0.0
 41
1.0
  0
LINE
  5
CE
330
1F
100
AcDbEntity
  8
Default
100
AcDbLine
 10
40.00522427480649
 20
17.39374140237079
 30
0.0
 11
39.93821550165669
 21
17.78252210959437
 31
0.0
  0
ARC
  5
CF
330
1F
100
AcDbEntity
  8
Default
100
AcDbCircle
 10
40.33330296475248
 20
17.45031935430256
 30
0.0
 40
0.33292144935625
100
AcDbArc
 50
189.7845542337152
 51
236.6936036941895
  0
ARC
  5
D0
330
1F
100
AcDbEntity
  8
Default
100
AcDbCircle
 10
30.43374585389705
 20
16.0311270618152
 30
0.0
 40
0.3079524195066076
100
AcDbArc
 50
223.3070485099987
 51
319.6683196383844
  0
POLYLINE
  5
D1
330
1F
100
AcDbEntity
  8
Default
100
AcDb2dPolyline
 66
     1
 10
0.0
 20
0.0
 30
0.0
  0
VERTEX
  5
D2
330
D1
100
AcDbEntity
  8
Default
100
AcDbVertex
100
AcDb2dVertex
 10
32.52969881689
 20
16.21545290539216
 30
0.0
  0
VERTEX
  5
D3
330
D1
100
AcDbEntity
  8
Default
100
AcDbVertex
100
AcDb2dVertex
 10
32.53229894800339
 20
16.02560382876978
 30
0.0
  0
SEQEND
  5
D4
330
D1
100
AcDbEntity
  8
Default
  0
ARC
  5
D5
330
1F
100
AcDbEntity
  8
Default
100
AcDbCircle
 10
32.56598082101058
 20
16.24065181688514
 30
0.0
 40
0.2176697171444255
100
AcDbArc
 50
261.0983729049312
 51
276.7689380778314
  0
LINE
  5
D6
330
1F
100
AcDbEntity
  8
Default
100
AcDbLine
 10
32.82804042905333
 20
16.05255882876716
 30
0.0
 11
32.59163659973422
 21
16.02449935499812
 31
0.0
  0
ARC
  5
D7
330
1F
100
AcDbEntity
  8
Default
100
AcDbCircle
 10
32.79859834158682
 20
16.30061131462347
 30
0.0
 40
0.2497936593548327
100
AcDbArc
 50
276.7689380778336
 51
290.8595375067116
  0
POLYLINE
  5
D8
330
1F
100
AcDbEntity
  8
Default
100
AcDb2dPolyline
 66
     1
 10
0.0
 20
0.0
 30
0.0
  0
VERTEX
  5
D9
330
D8
100
AcDbEntity
  8
Default
100
AcDbVertex
100
AcDb2dVertex
 10
35.16096136478041
 20
16.52134817489605
 30
0.0
  0
VERTEX
  5
DA
330
D8
100
AcDbEntity
  8
Default
100
AcDbVertex
100
AcDb2dVertex
 10
35.16215808202928
 20
16.37293483264951
 30
0.0
  0
SEQEND
  5
DB
330
D8
100
AcDbEntity
  8
Default
  0
ARC
  5
DC
330
1F
100
AcDbEntity
  8
Default
100
AcDbCircle
 10
35.1694778345786
 20
16.7568654115889
 30
0.0
 40
0.384000349247385
100
AcDbArc
 50
268.9077709668633
 51
277.7630007554155
  0
LINE
  5
DD
330
1F
100
AcDbEntity
  8
Default
100
AcDbLine
 10
35.45040494582827
 20
16.40761068133773
 30
0.0
 11
35.22134697367217
 21
16.37638432055834
 31
0.0
  0
ARC
  5
DE
330
1F
100
AcDbEntity
  8
Default
100
AcDbCircle
 10
35.39183734197347
 20
16.83722771765521
 30
0.0
 40
0.433590777249134
100
AcDbArc
 50
277.7630007554158
 51
285.8621791818984
  0
POLYLINE
  5
DF
330
1F
100
AcDbEntity
  8
Default
100
AcDb2dPolyline
 66
     1
 10
0.0
 20
0.0
 30
0.0
  0
VERTEX
  5
E0
330
DF
100
AcDbEntity
  8
Default
100
AcDbVertex
100
AcDb2dVertex
 10
37.79299779874196
 20
16.69024746245794
 30
0.0
  0
VERTEX
  5
E1
330
DF
100
AcDbEntity
  8
Default
100
AcDbVertex
100
AcDb2dVertex
 10
37.79231623611712
 20
16.82333287120875
 30
0.0
  0
SEQEND
  5
E2
330
DF
100
AcDbEntity
  8
Default
  0
ARC
  5
E3
330
1F
100
AcDbEntity
  8
Default
100
AcDbCircle
 10
37.80730937317374
 20
17.2092765670034
 30
0.0
 40
0.5192263788830309
100
AcDbArc
 50
268.4205411910058
 51
274.9644718855895
  0
LINE
  5
E4
330
1F
100
AcDbEntity
  8
Default
100
AcDbLine
 10
38.08337894625527
 20
16.71207547279749
 30
0.0
 11
37.85224218713802
 21
16.69199803975021
 31
0.0
  0
ARC
  5
E5
330
1F
100
AcDbEntity
  8
Default
100
AcDbCircle
 10
38.03466155836497
 20
17.27292302353268
 30
0.0
 40
0.5629594648360736
100
AcDbArc
 50
274.9644718855907
 51
281.213768550722
  0
SPLINE
  5
E6
330
1F
100
AcDbEntity
  8
Default
100
AcDbSpline
210
0.0
220
0.0
230
1.0
 70
     8
 71
     3
 72
    12
 73
     8
 74
     0
 42
0.000000001
 43
0.0000000001
 40
0.0
 40
0.0
 40
0.0
 40
0.0
 40
0.1704395902891993
 40
0.3317341920933467
 40
0.6673523267609037
 40
0.8269696832426905
 40
2.763164734185133
 40
2.763164734185133
 40
2.763164734185133
 40
2.763164734185133
 10
28.32605724284038
 20
18.51139966754015
 30
0.0
 10
28.38176963846176
 20
18.50474626316288
 30
0.0
 10
28.49295726280843
 20
18.48482070934885
 30
0.0
 10
28.69416331280564
 20
18.39159342924282
 30
0.0
 10
28.85969012933091
 20
18.23833749486491
 30
0.0
 10
29.25820364256918
 20
17.53278013057671
 30
0.0
 10
29.58224513817747
 20
16.91344545351945
 30
0.0
 10
29.89975053779137
 20
16.35160115351837
 30
0.0
  0
SPLINE
  5
E7
330
1F
100
AcDbEntity
  8
Default
100
AcDbSpline
210
0.0
220
0.0
230
1.0
 70
     8
 71
     3
 72
    10
 73
     6
 74
     0
 42
0.000000001
 43
0.0000000001
 40
0.0
 40
0.0
 40
0.0
 40
0.0
 40
4.811842255087142
 40
5.98940585440675
 40
6.8039070961739
 40
6.8039070961739
 40
6.8039070961739
 40
6.8039070961739
 10
36.87813580885062
 20
25.99096006802307
 30
0.0
 10
35.2742604351788
 20
26.00581477786625
 30
0.0
 10
33.27780982217896
 20
26.01655897147252
 30
0.0
 10
31.00987753701453
 20
26.02849918328078
 30
0.0
 10
30.34584507083508
 20
26.02657961874293
 30
0.0
 10
30.07435250817292
 20
26.025169509791
 30
0.0
  0
SPLINE
  5
E8
330
1F
100
AcDbEntity
  8
Default
100
AcDbSpline
210
0.0
220
0.0
230
1.0
 70
    24
 71
     2
 72
     6
 73
     3
 74
     0
 42
0.000000001
 43
0.0000000001
 40
0.0
 40
0.0
 40
0.0
 40
6.893610248568406
 40
6.893610248568406
 40
6.893610248568406
 10
38.17794722569518
 20
25.10288613092637
 30
0.0
 10
39.34268030089066
 20
21.85883581868744
 30
0.0
 10
40.50741337608615
 20
18.61478550644851
 30
0.0
  0
SPLINE
  5
E9
330
1F
100
AcDbEntity
  8
Default
100
AcDbSpline
210
0.0
220
0.0
230
1.0
 70
    12
 71
     2
 72
     6
 73
     3
 74
     0
 42
0.000000001
 43
0.0000000001
 40
0.0
 40
0.0
 40
0.0
 40
0.2499938283131729
 40
0.2499938283131729
 40
0.2499938283131729
 10
30.07435250817291
 20
26.025169509791
 30
0.0
 41
1.0
 10
29.94935641283081
 20
26.0245478161489
 30
0.0
 41
0.9999912730238645
 10
29.82436987537914
 20
26.02288174003987
 30
0.0
 41
1.0
  0
SPLINE
  5
EA
330
1F
100
AcDbEntity
  8
Default
100
AcDbSpline
210
0.0
220
0.0
230
1.0
 70
     8
 71
     3
 72
    12
 73
     8
 74
     0
 42
0.000000001
 43
0.0000000001
 40
0.0
 40
0.0
 40
0.0
 40
0.0
 40
1.770360519663842
 40
1.929393986859341
 40
2.082780300689106
 40
2.598834778637109
 40
3.118619838948622
 40
3.118619838948622
 40
3.118619838948622
 40
3.118619838948622
 10
30.35161204829853
 20
16.82541124719884
 30
0.0
 10
30.06125582278884
 20
17.33921024670471
 30
0.0
 10
29.7643378937949
 20
17.90987450732782
 30
0.0
 10
29.42153271550298
 20
18.51367576531225
 30
0.0
 10
29.2511062219975
 20
18.73204654608351
 30
0.0
 10
28.9486410052649
 20
18.99697875901291
 30
0.0
 10
28.61093218231594
 20
19.10325480235811
 30
0.0
 10
28.44018053080752
 20
19.12701228626453
 30
0.0
  0
SPLINE
  5
EB
330
1F
100
AcDbEntity
  8
Default
100
AcDbSpline
210
0.0
220
0.0
230
1.0
 70
    12
 71
     2
 72
     6
 73
     3
 74
     0
 42
0.000000001
 43
0.0000000001
 40
0.0
 40
0.0
 40
0.0
 40
0.2006336264541916
 40
0.2006336264541916
 40
0.2006336264541916
 10
37.078759258297
 20
25.98713639874983
 30
0.0
 41
1.0
 10
36.97846694497722
 20
25.98936875511852
 30
0.0
 41
0.9999948941909668
 10
36.87816241276941
 20
25.99096008932631
 30
0.0
 41
1.0
  0
ARC
  5
EC
330
1F
100
AcDbEntity
  8
Default
100
AcDbCircle
 10
-11.28585502615979
 20
47.47920039925729
 30
0.0
 40
0.9948046696005497
100
AcDbArc
 50
223.5814261926659
 51
233.6444596163642
  0
SPLINE
  5
ED
330
1F
100
AcDbEntity
  8
Default
100
AcDbSpline
210
0.0
220
0.0
230
1.0
 70
     8
 71
     3
 72
    11
 73
     7
 74
     0
 42
0.000000001
 43
0.0000000001
 40
0.0
 40
0.0
 40
0.0
 40
0.0
 40
0.2317749199931395
 40
0.5199321926586257
 40
0.7183389003009919
 40
1.292722331432713
 40
1.292722331432713
 40
1.292722331432713
 40
1.292722331432713
 10
-10.85384812713717
 20
45.88622981636459
 30
0.0
 10
-10.90818816059162
 20
45.94365566922165
 30
0.0
 10
-11.03784438440493
 20
46.05869090746462
 30
0.0
 10
-11.22240411603589
 20
46.21141076157694
 30
0.0
 10
-11.50771441429457
 20
46.42050170184718
 30
0.0
 10
-11.72134886257136
 20
46.56451387542997
 30
0.0
 10
-11.87556940199291
 20
46.67803045124699
 30
0.0
  0
ARC
  5
EE
330
1F
100
AcDbEntity
  8
Default
100
AcDbCircle
 10
-9.281379762511307
 20
43.68874714256867
 30
0.0
 40
0.4048387334148292
100
AcDbArc
 50
287.4270134388168
 51
348.3727679885102
  0
ARC
  5
EF
330
1F
100
AcDbEntity
  8
Default
100
AcDbCircle
 10
-9.235988462444652
 20
43.67940716160016
 30
0.0
 40
0.3584964701313583
100
AcDbArc
 50
348.3727679885103
 51
38.05571129635822
  0
LINE
  5
F0
330
1F
100
AcDbEntity
  8
Default
100
AcDbLine
 10
9.681083212303093
 20
60.85414928760797
 30
0.0
 11
9.241119690734948
 21
56.03700138060295
 31
0.0
  0
ARC
  5
F1
330
1F
100
AcDbEntity
  8
Default
100
AcDbCircle
 10
9.992287990256074
 20
60.82572682854443
 30
0.0
 40
0.3124999999999707
100
AcDbArc
 50
354.7816302291374
 51
174.7816302291347
  0
LINE
  5
F2
330
1F
100
AcDbEntity
  8
Default
100
AcDbLine
 10
9.860970889591329
 20
55.95214508490587
 30
0.0
 11
10.30349276820905
 21
60.79730436948091
 31
0.0
  0
ARC
  5
F3
330
1F
100
AcDbEntity
  8
Default
100
AcDbCircle
 10
9.67442853052863
 20
55.85228433867529
 30
0.0
 40
0.4133193414486049
100
AcDbArc
 50
138.7671154202086
 51
215.3625347890171
  0
LINE
  5
F4
330
1F
100
AcDbEntity
  8
Default
100
AcDbLine
 10
9.79117667395063
 20
54.97361493111931
 30
0.0
 11
9.337363958882705
 21
55.61307657844026
 31
0.0
  0
ARC
  5
F5
330
1F
100
AcDbEntity
  8
Default
100
AcDbCircle
 10
0.1826233256287821
 20
67.88282035022453
 30
0.0
 40
14.9132750014052
100
AcDbArc
 50
306.2960255769792
 51
306.4236213077089
  0
LINE
  5
F6
330
1F
100
AcDbEntity
  8
Default
100
AcDbLine
 10
9.322245037217627
 20
56.09837779927667
 30
0.0
 11
9.037390340690422
 21
55.88286733462846
 31
0.0
  0
ARC
  5
F7
330
1F
100
AcDbEntity
  8
Default
100
AcDbCircle
 10
9.505867425604421
 20
55.85567172092031
 30
0.0
 40
0.3043409633749497
100
AcDbArc
 50
117.8701835917259
 51
127.1097935318805
  0
SPLINE
  5
F8
330
1F
100
AcDbEntity
  8
Default
100
AcDbSpline
210
0.0
220
0.0
230
1.0
 70
     8
 71
     3
 72
    14
 73
    10
 74
     0
 42
0.000000001
 43
0.0000000001
 40
0.0
 40
0.0
 40
0.0
 40
0.0
 40
0.1469991665265698
 40
0.2836427344887621
 40
0.5458793294352903
 40
0.7445225358434565
 40
1.177094598512961
 40
1.384695059976812
 40
1.843762460206271
 40
1.843762460206271
 40
1.843762460206271
 40
1.843762460206271
 10
11.5508440194201
 20
54.15454317337225
 30
0.0
 10
11.53314544095255
 20
54.20023793413338
 30
0.0
 10
11.49476777443118
 20
54.28676745852655
 30
0.0
 10
11.40445939591217
 20
54.44505608934134
 30
0.0
 10
11.27226104723916
 20
54.59654177186812
 30
0.0
 10
11.031882678239
 20
54.77345381193336
 30
0.0
 10
10.78849434277012
 20
54.91181268696145
 30
0.0
 10
10.48698222641463
 20
55.12022262563647
 30
0.0
 10
10.31285896691448
 20
55.25890025279966
 30
0.0
 10
10.20229482345317
 20
55.36482542811923
 30
0.0
  0
ARC
  5
F9
330
1F
100
AcDbEntity
  8
Default
100
AcDbCircle
 10
9.14261133697687
 20
53.2471689390804
 30
0.0
 40
2.573502021340657
100
AcDbArc
 50
14.23271520609386
 51
20.64541241824428
  0
ARC
  5
FA
330
1F
100
AcDbEntity
  8
Default
100
AcDbCircle
 10
-7.893130022794026
 20
48.92611214653452
 30
0.0
 40
20.1487122755998
100
AcDbArc
 50
354.7771507792427
 51
14.23271520609374
  0
SPLINE
  5
FB
330
1F
100
AcDbEntity
  8
Default
100
AcDbSpline
210
0.0
220
0.0
230
1.0
 70
    12
 71
     2
 72
     6
 73
     3
 74
     0
 42
0.000000001
 43
0.0000000001
 40
0.0
 40
0.0
 40
0.0
 40
0.3510269869102733
 40
0.3510269869102733
 40
0.3510269869102733
 10
12.00648995098145
 20
46.79339723105652
 30
0.0
 41
1.0
 10
12.15393398015413
 20
46.9068003251897
 30
0.0
 41
0.9174599268749598
 10
12.17192833925407
 20
47.09198039213142
 30
0.0
 41
1.0
  0
ARC
  5
FC
330
1F
100
AcDbEntity
  8
Default
100
AcDbCircle
 10
10.07531794947286
 20
49.36487468785097
 30
0.0
 40
3.215885820456428
100
AcDbArc
 50
285.2998831445826
 51
306.9064415228148
  0
ARC
  5
FD
330
1F
100
AcDbEntity
  8
Default
100
AcDbCircle
 10
10.83137330079609
 20
46.60117963949116
 30
0.0
 40
0.3506406277036155
100
AcDbArc
 50
174.9704560934788
 51
285.2998831445826
  0
ARC
  5
FE
330
1F
100
AcDbEntity
  8
Default
100
AcDbCircle
 10
-20.06841945737973
 20
47.68549172173579
 30
0.0
 40
30.56866368655757
100
AcDbArc
 50
358.0248673679453
 51
358.8889347736576
  0
ARC
  5
FF
330
1F
100
AcDbEntity
  8
Default
100
AcDbCircle
 10
-154.6725578985062
 20
50.29602826943636
 30
0.0
 40
165.1981143522452
100
AcDbArc
 50
358.8889347736576
 51
1.243148674834829
  0
SPLINE
  5
100
330
1F
100
AcDbEntity
  8
Default
100
AcDbSpline
210
0.0
220
0.0
230
1.0
 70
    12
 71
     2
 72
     6
 73
     3
 74
     0
 42
0.000000001
 43
0.0000000001
 40
-0.2350747510263788
 40
-0.2350747510263788
 40
-0.2350747510263788
 40
0.0
 40
0.0
 40
0.0
 10
10.44539445393873
 20
54.11062402031276
 30
0.0
 41
1.0
 10
10.48306013940873
 20
53.99838861013751
 30
0.0
 41
0.9892691824022548
 10
10.48667352848128
 20
53.88005672695066
 30
0.0
 41
1.0
  0
ARC
  5
101
330
1F
100
AcDbEntity
  8
Default
100
AcDbCircle
 10
9.191753924886811
 20
53.64366567407232
 30
0.0
 40
1.337783492649384
100
AcDbArc
 50
20.42944922856557
 51
32.77466431874753
  0
SPLINE
  5
102
330
1F
100
AcDbEntity
  8
Default
100
AcDbSpline
210
0.0
220
0.0
230
1.0
 70
     8
 71
     3
 72
    11
 73
     7
 74
     0
 42
0.000000001
 43
0.0000000001
 40
0.0
 40
0.0
 40
0.0
 40
0.0
 40
0.1134653239335361
 40
0.3934665868286391
 40
0.5317535483744763
 40
0.7770320245400293
 40
0.7770320245400293
 40
0.7770320245400293
 40
0.7770320245400293
 10
9.79117667395063
 20
54.97361493111931
 30
0.0
 10
9.813110012801488
 20
54.94270894605736
 30
0.0
 10
9.915911498844395
 20
54.82356099056408
 30
0.0
 10
10.04323910043432
 20
54.70012848523049
 30
0.0
 10
10.19291044988573
 20
54.53718095353015
 30
0.0
 10
10.27226368388109
 20
54.43667402710496
 30
0.0
 10
10.31657039225264
 20
54.3678566626574
 30
0.0
  0
ARC
  5
103
330
1F
100
AcDbEntity
  8
Default
100
AcDbCircle
 10
9.580631882928586
 20
55.81858891433505
 30
0.0
 40
0.3058118265647268
100
AcDbArc
 50
35.47131566605012
 51
53.70229647076393
  0
LINE
  5
104
330
1F
100
AcDbEntity
  8
Default
100
AcDbLine
 10
10.30341153209514
 20
55.33120886499049
 30
0.0
 11
9.829686911301124
 21
55.99605008222597
 31
0.0
  0
ARC
  5
105
330
1F
100
AcDbEntity
  8
Default
100
AcDbCircle
 10
10.67909019137001
 20
55.59889417960654
 30
0.0
 40
0.4612915376371581
100
AcDbArc
 50
215.4713156660495
 51
229.5784956178753
  0
ARC
  5
106
330
1F
100
AcDbEntity
  8
Default
100
AcDbCircle
 10
15.11637542395438
 20
60.80872373178784
 30
0.0
 40
7.304669665294053
100
AcDbArc
 50
229.5784956178757
 51
234.1629170240717
  0
SPLINE
  5
107
330
1F
100
AcDbEntity
  8
Default
100
AcDbSpline
210
0.0
220
0.0
230
1.0
 70
    12
 71
     2
 72
     8
 73
     5
 74
     0
 42
0.000000001
 43
0.0000000001
 40
0.0953838645241069
 40
0.0953838645241069
 40
0.0953838645241069
 40
1.570796326794897
 40
1.570796326794897
 40
3.141592653589793
 40
3.141592653589793
 40
3.141592653589793
 10
10.28996368567788
 20
55.35008202924907
 30
0.0
 41
0.96658911958032
 10
10.13873771118408
 20
55.54074821176261
 30
0.0
 41
0.7248922105428385
 10
9.896985242588642
 20
55.38662392993527
 30
0.0
 41
1.0
 10
9.633129969514124
 20
55.21840846266316
 30
0.0
 41
0.7071067811865475
 10
9.775700985946088
 20
54.99477793044628
 30
0.0
 41
1.0
  0
ARC
  5
108
330
1F
100
AcDbEntity
  8
Default
100
AcDbCircle
 10
8.928002239552143
 20
46.92966979528396
 30
0.0
 40
1.565657928458636
100
AcDbArc
 50
332.1809883741463
 51
354.2700149189121
  0
ARC
  5
109
330
1F
100
AcDbEntity
  8
Default
100
AcDbCircle
 10
11.28585804414908
 20
47.47920039925729
 30
0.0
 40
0.9948046696005497
100
AcDbArc
 50
306.3555403836358
 51
316.4185738073342
  0
SPLINE
  5
10A
330
1F
100
AcDbEntity
  8
Default
100
AcDbSpline
210
0.0
220
0.0
230
1.0
 70
     8
 71
     3
 72
    11
 73
     7
 74
     0
 42
0.000000001
 43
0.0000000001
 40
0.0
 40
0.0
 40
0.0
 40
0.0
 40
0.2317749199931395
 40
0.5199321926586257
 40
0.7183389003009919
 40
1.292722331432713
 40
1.292722331432713
 40
1.292722331432713
 40
1.292722331432713
 10
10.85385114512646
 20
45.88622981636459
 30
0.0
 10
10.90819117858091
 20
45.94365566922165
 30
0.0
 10
11.03784740239422
 20
46.05869090746462
 30
0.0
 10
11.22240713402518
 20
46.21141076157694
 30
0.0
 10
11.50771743228385
 20
46.42050170184718
 30
0.0
 10
11.72135188056065
 20
46.56451387542997
 30
0.0
 10
11.87557241998219
 20
46.67803045124699
 30
0.0
  0
SPLINE
  5
10B
330
1F
100
AcDbEntity
  8
Default
100
AcDbSpline
210
0.0
220
0.0
230
1.0
 70
    12
 71
     2
 72
     8
 73
     5
 74
     0
 42
0.000000001
 43
0.0000000001
 40
0.0
 40
0.0
 40
0.0
 40
1.570796326794897
 40
1.570796326794897
 40
3.141592653589793
 40
3.141592653589793
 40
3.141592653589793
 10
10.85385114512646
 20
45.88622981636459
 30
0.0
 41
1.0
 10
10.72854198407467
 20
45.66943166655685
 30
0.0
 41
0.7071067811865475
 10
10.45797195562385
 20
45.82582093141451
 30
0.0
 41
1.0
 10
10.18740192717303
 20
45.98221019627216
 30
0.0
 41
0.7071067811865475
 10
10.31271108822482
 20
46.19900834607989
 30
0.0
 41
1.0
  0
ARC
  5
10C
330
1F
100
AcDbEntity
  8
Default
100
AcDbCircle
 10
9.281382780500593
 20
43.68874714256867
 30
0.0
 40
0.4048387334148292
100
AcDbArc
 50
191.6272320114898
 51
252.5729865611832
  0
ARC
  5
10D
330
1F
100
AcDbEntity
  8
Default
100
AcDbCircle
 10
9.235991480433938
 20
43.67940716160016
 30
0.0
 40
0.3584964701313583
100
AcDbArc
 50
141.9442887036418
 51
191.6272320114897
  0
LINE
  5
10E
330
1F
100
AcDbEntity
  8
Default
100
AcDbLine
 10
9.491724593893139
 20
43.58233410551956
 30
0.0
 11
10.85385114512646
 21
45.88622981636459
 31
0.0
  0
ARC
  5
10F
330
1F
100
AcDbEntity
  8
Default
100
AcDbCircle
 10
10.33207376710918
 20
43.08549654652924
 30
0.0
 40
0.9762347529914879
100
AcDbArc
 50
149.4072521151611
 51
155.3752666512079
  0
SPLINE
  5
110
330
1F
100
AcDbEntity
  8
Default
100
AcDbSpline
210
0.0
220
0.0
230
1.0
 70
     8
 71
     3
 72
     8
 73
     4
 74
     0
 42
0.000000001
 43
0.0000000001
 40
0.0
 40
0.0
 40
0.0
 40
0.0
 40
0.0077244675502834
 40
0.0077244675502834
 40
0.0077244675502834
 40
0.0077244675502834
 10
9.46973414753424
 20
43.53193439427925
 30
0.0
 10
9.468935493867392
 20
43.5344447913953
 30
0.0
 10
9.468066245623916
 20
43.53704327624106
 30
0.0
 10
9.467133104697439
 20
43.53971422782962
 30
0.0
  0
SPLINE
  5
111
330
1F
100
AcDbEntity
  8
Default
100
AcDbSpline
210
0.0
220
0.0
230
1.0
 70
    24
 71
     2
 72
     6
 73
     3
 74
     0
 42
0.000000001
 43
0.0000000001
 40
0.0
 40
0.0
 40
0.0
 40
1.810830870569882
 40
1.810830870569882
 40
1.810830870569882
 10
10.04116620764455
 20
41.81362881872673
 30
0.0
 10
9.755450177589395
 20
42.67278160650299
 30
0.0
 10
9.46973414753424
 20
43.53193439427925
 30
0.0
  0
ARC
  5
112
330
1F
100
AcDbEntity
  8
Default
100
AcDbCircle
 10
9.744371353686006
 20
41.71501149210344
 30
0.0
 40
0.3127499999146248
100
AcDbArc
 50
198.3803306832697
 51
18.3803253786681
  0
SPLINE
  5
113
330
1F
100
AcDbEntity
  8
Default
100
AcDbSpline
210
0.0
220
0.0
230
1.0
 70
    24
 71
     2
 72
     6
 73
     3
 74
     0
 42
0.000000001
 43
0.0000000001
 40
0.0
 40
0.0
 40
0.0
 40
1.686982970028102
 40
1.686982970028102
 40
1.686982970028102
 10
8.915668361105531
 20
43.21732676104426
 30
0.0
 10
9.181622434981634
 20
42.41686044952316
 30
0.0
 10
9.447576508857736
 20
41.61639413800204
 30
0.0
  0
ARC
  5
114
330
1F
100
AcDbEntity
  8
Default
100
AcDbCircle
 10
9.086007050749473
 20
43.65123744578906
 30
0.0
 40
0.3565382358934175
100
AcDbArc
 50
270.0169162027775
 51
282.0003028921794
  0
LINE
  5
115
330
1F
100
AcDbEntity
  8
Default
100
AcDbLine
 10
8.639184299154408
 20
43.29465468832731
 30
0.0
 11
9.086112316321561
 21
43.29469922543512
 31
0.0
  0
SPLINE
  5
116
330
1F
100
AcDbEntity
  8
Default
100
AcDbSpline
210
0.0
220
0.0
230
1.0
 70
    12
 71
     2
 72
     6
 73
     3
 74
     0
 42
0.000000001
 43
0.0000000001
 40
0.0
 40
0.0
 40
0.0
 40
0.4187814763590693
 40
0.4187814763590693
 40
0.4187814763590693
 10
9.129755696029932
 20
55.17969401011008
 30
0.0
 41
1.0
 10
9.301336768233728
 20
55.29974081494379
 30
0.0
 41
0.9998833817827627
 10
9.469171612818812
 20
55.42497166031536
 30
0.0
 41
1.0
  0
SPLINE
  5
117
330
1F
100
AcDbEntity
  8
Default
100
AcDbSpline
210
0.0
220
0.0
230
1.0
 70
    24
 71
     2
 72
     6
 73
     3
 74
     0
 42
0.000000001
 43
0.0000000001
 40
0.0
 40
0.0
 40
0.0
 40
2.67030310165544
 40
2.67030310165544
 40
2.67030310165544
 10
10.31271108822483
 20
46.19900834607989
 30
0.0
 10
9.63320911868044
 20
45.04970127785879
 30
0.0
 10
8.95370714913605
 20
43.9003942096377
 30
0.0
  0
SPLINE
  5
118
330
1F
100
AcDbEntity
  8
Default
100
AcDbSpline
210
0.0
220
0.0
230
1.0
 70
    12
 71
     2
 72
     6
 73
     3
 74
     0
 42
0.000000001
 43
0.0000000001
 40
0.0
 40
0.0
 40
0.0
 40
0.287630529039659
 40
0.287630529039659
 40
0.287630529039659
 10
8.965086002657372
 20
43.91964035956275
 30
0.0
 41
1.0
 10
8.82127073927719
 20
43.91966199694532
 30
0.0
 41
0.9999999949095821
 10
8.677455474458895
 20
43.9196546123709
 30
0.0
 41
1.0
  0
SPLINE
  5
119
330
1F
100
AcDbEntity
  8
Default
100
AcDbSpline
210
0.0
220
0.0
230
1.0
 70
    12
 71
     2
 72
     8
 73
     5
 74
     0
 42
0.000000001
 43
0.0000000001
 40
0.0953838645241069
 40
0.0953838645241069
 40
0.0953838645241069
 40
1.570796326794897
 40
1.570796326794897
 40
3.141592653589793
 40
3.141592653589793
 40
3.141592653589793
 10
-10.28996066768859
 20
55.35008202924907
 30
0.0
 41
0.96658911958032
 10
-10.13873469319479
 20
55.54074821176261
 30
0.0
 41
0.7248922105428385
 10
-9.896982224599356
 20
55.38662392993527
 30
0.0
 41
1.0
 10
-9.633126951524833
 20
55.21840846266316
 30
0.0
 41
0.7071067811865475
 10
-9.775697967956802
 20
54.99477793044628
 30
0.0
 41
1.0
  0
SPLINE
  5
11A
330
1F
100
AcDbEntity
  8
Default
100
AcDbSpline
210
0.0
220
0.0
230
1.0
 70
    12
 71
     3
 72
    14
 73
    10
 74
     0
 42
0.000000001
 43
0.0000000001
 40
-2.382636799938624
 40
-2.382636799938624
 40
-2.382636799938624
 40
-2.382636799938624
 40
-1.382636799938624
 40
-0.3826367999386246
 40
-0.3826367999386246
 40
-0.3826367999386246
 40
-0.2729743886858338
 40
-0.1509122625360565
 40
0.0
 40
0.0
 40
0.0
 40
0.0
 10
0.0
 20
60.49577537812605
 30
0.0
 41
1.0
 10
-1.282456564702613
 20
60.49596977630256
 30
0.0
 41
1.0
 10
-3.848418151443838
 20
60.12565447908585
 30
0.0
 41
1.0
 10
-6.200655949874772
 20
59.03886758272138
 30
0.0
 41
1.0
 10
-7.282456947120892
 20
58.34936273431629
 30
0.0
 41
1.0
 10
-7.314217370003945
 20
58.33007133394732
 30
0.0
 41
1.0
 10
-7.378547819528279
 20
58.28721917253624
 30
0.0
 41
1.0
 10
-7.465101683346376
 20
58.21933521737652
 30
0.0
 41
1.0
 10
-7.534590308965534
 20
58.16065878481497
 30
0.0
 41
1.0
 10
-7.568919966055063
 20
58.12348415673715
 30
0.0
 41
1.0
  0
SPLINE
  5
11B
330
1F
100
AcDbEntity
  8
Default
100
AcDbSpline
210
0.0
220
0.0
230
1.0
 70
    12
 71
     3
 72
    14
 73
    10
 74
     0
 42
0.000000001
 43
0.0000000001
 40
0.0
 40
0.0
 40
0.0
 40
0.0
 40
0.1509122625360565
 40
0.2729743886858338
 40
0.3826367999386246
 40
0.3826367999386246
 40
0.3826367999386246
 40
1.382636799938624
 40
2.382636799938624
 40
2.382636799938624
 40
2.382636799938624
 40
2.382636799938624
 10
7.568919966055063
 20
58.12348415673715
 30
0.0
 41
1.0
 10
7.534590308965534
 20
58.16065878481497
 30
0.0
 41
1.0
 10
7.465101683346376
 20
58.21933521737652
 30
0.0
 41
1.0
 10
7.378547819528279
 20
58.28721917253624
 30
0.0
 41
1.0
 10
7.314217370003945
 20
58.33007133394732
 30
0.0
 41
1.0
 10
7.282456947120892
 20
58.34936273431629
 30
0.0
 41
1.0
 10
6.200655949874772
 20
59.03886758272138
 30
0.0
 41
1.0
 10
3.848418151443838
 20
60.12565447908585
 30
0.0
 41
1.0
 10
1.282456564702613
 20
60.49596977630256
 30
0.0
 41
1.0
 10
0.0
 20
60.49577537812605
 30
0.0
 41
1.0
  0
POLYLINE
  5
11C
330
1F
100
AcDbEntity
  8
Default
100
AcDb2dPolyline
 66
     1
 10
0.0
 20
0.0
 30
0.0
  0
VERTEX
  5
11D
330
11C
100
AcDbEntity
  8
Default
100
AcDbVertex
100
AcDb2dVertex
 10
7.61691516819522
 20
58.03634149758348
 30
0.0
  0
VERTEX
  5
11E
330
11C
100
AcDbEntity
  8
Default
100
AcDbVertex
100
AcDb2dVertex
 10
7.568919966055063
 20
58.12348415673715
 30
0.0
  0
SEQEND
  5
11F
330
11C
100
AcDbEntity
  8
Default
  0
ARC
  5
120
330
1F
100
AcDbEntity
  8
Default
100
AcDbCircle
 10
334.2731743482901
 20
288.6599430234047
 30
0.0
 40
399.8644235766344
100
AcDbArc
 50
215.2225929887776
 51
215.4361563568463
  0
SPLINE
  5
121
330
1F
100
AcDbEntity
  8
Default
100
AcDbSpline
210
0.0
220
0.0
230
1.0
 70
     8
 71
     3
 72
    18
 73
    14
 74
     0
 42
0.000000001
 43
0.0000000001
 40
0.0000000000000004
 40
0.0000000000000004
 40
0.0000000000000004
 40
0.0000000000000004
 40
3.809270731539037
 40
4.741449960198119
 40
5.855096042031121
 40
7.339592750294725
 40
8.454856792675347
 40
9.327331098099943
 40
10.00594223520787
 40
10.38182066249299
 40
10.49565764506195
 40
10.61383137829946
 40
11.04446704942164
 40
11.04446704942164
 40
11.04446704942164
 40
11.04446704942164
 10
8.789674216623496
 20
45.94047758424684
 30
0.0
 10
8.864149792267455
 20
47.20804304360716
 30
0.0
 10
8.955848371898782
 20
48.78587999690451
 30
0.0
 10
9.070660975589163
 20
50.7341777537465
 30
0.0
 10
9.13501320101983
 20
51.9092394639771
 30
0.0
 10
9.178606033389485
 20
53.14631919495028
 30
0.0
 10
9.183371026359254
 20
54.30401696167715
 30
0.0
 10
9.137514888462391
 20
55.19205374979209
 30
0.0
 10
9.038438007093674
 20
55.82839993278552
 30
0.0
 10
8.901904303125491
 20
56.19617739148041
 30
0.0
 10
8.795364608719865
 20
56.3740307300153
 30
0.0
 10
8.666105195314884
 20
56.55271791874215
 30
0.0
 10
8.561968782291501
 20
56.70350662856607
 30
0.0
 10
8.478805063853628
 20
56.82037309447664
 30
0.0
  0
ARC
  5
122
330
1F
100
AcDbEntity
  8
Default
100
AcDbCircle
 10
32002.3661865269
 20
-1833.83623144178
 30
0.0
 40
32048.7519027629
100
AcDbArc
 50
176.6374627510116
 51
176.6452245672226
  0
ARC
  5
123
330
1F
100
AcDbEntity
  8
Default
100
AcDbCircle
 10
8.15935993363533
 20
41.62835268659843
 30
0.0
 40
0.3766012876736257
100
AcDbArc
 50
279.6757155923663
 51
356.6452245672131
  0
SPLINE
  5
124
330
1F
100
AcDbEntity
  8
Default
100
AcDbSpline
210
0.0
220
0.0
230
1.0
 70
    12
 71
     2
 72
     6
 73
     3
 74
     0
 42
0.000000001
 43
0.0000000001
 40
0.0
 40
0.0
 40
0.0
 40
8.275528837056001
 40
8.275528837056001
 40
8.275528837056001
 10
0.0
 20
40.45072436047467
 30
0.0
 41
1.0
 10
4.151248751424062
 20
40.44684632371077
 30
0.0
 41
0.9951340748191598
 10
8.22265590748242
 20
41.25710862998313
 30
0.0
 41
1.0
  0
SPLINE
  5
125
330
1F
100
AcDbEntity
  8
Default
100
AcDbSpline
210
0.0
220
0.0
230
1.0
 70
    12
 71
     2
 72
     6
 73
     3
 74
     0
 42
0.000000001
 43
0.0000000001
 40
-8.275528837056001
 40
-8.275528837056001
 40
-8.275528837056001
 40
0.0
 40
0.0
 40
0.0
 10
-8.22265590748242
 20
41.25710862998313
 30
0.0
 41
1.0
 10
-4.151248751424068
 20
40.44684632371077
 30
0.0
 41
0.9951340748191598
 10
0.0
 20
40.45072436047467
 30
0.0
 41
1.0
  0
ARC
  5
126
330
1F
100
AcDbEntity
  8
Default
100
AcDbCircle
 10
-8.15935993363533
 20
41.62835268659843
 30
0.0
 40
0.3766012876736257
100
AcDbArc
 50
183.3547754327869
 51
260.3242844076335
  0
ARC
  5
127
330
1F
100
AcDbEntity
  8
Default
100
AcDbCircle
 10
-32002.3661865269
 20
-1833.83623144178
 30
0.0
 40
32048.7519027629
100
AcDbArc
 50
3.354775432777381
 51
3.362537248988382
  0
SPLINE
  5
128
330
1F
100
AcDbEntity
  8
Default
100
AcDbSpline
210
0.0
220
0.0
230
1.0
 70
     8
 71
     3
 72
    18
 73
    14
 74
     0
 42
0.000000001
 43
0.0000000001
 40
-11.04446704942164
 40
-11.04446704942164
 40
-11.04446704942164
 40
-11.04446704942164
 40
-10.61383137829946
 40
-10.49565764506195
 40
-10.38182066249299
 40
-10.00594223520787
 40
-9.327331098099943
 40
-8.454856792675347
 40
-7.339592750294725
 40
-5.855096042031121
 40
-4.741449960198119
 40
-3.809270731539037
 40
-0.0000000000000004
 40
-0.0000000000000004
 40
-0.0000000000000004
 40
-0.0000000000000004
 10
-8.478805063853628
 20
56.82037309447664
 30
0.0
 10
-8.561968782291501
 20
56.70350662856607
 30
0.0
 10
-8.666105195314884
 20
56.55271791874215
 30
0.0
 10
-8.795364608719865
 20
56.3740307300153
 30
0.0
 10
-8.901904303125491
 20
56.19617739148041
 30
0.0
 10
-9.038438007093674
 20
55.82839993278552
 30
0.0
 10
-9.137514888462391
 20
55.19205374979209
 30
0.0
 10
-9.183371026359254
 20
54.30401696167715
 30
0.0
 10
-9.178606033389485
 20
53.14631919495028
 30
0.0
 10
-9.13501320101983
 20
51.9092394639771
 30
0.0
 10
-9.070660975589163
 20
50.7341777537465
 30
0.0
 10
-8.955848371898782
 20
48.78587999690451
 30
0.0
 10
-8.864149792267455
 20
47.20804304360716
 30
0.0
 10
-8.789674216623496
 20
45.94047758424684
 30
0.0
  0
ARC
  5
129
330
1F
100
AcDbEntity
  8
Default
100
AcDbCircle
 10
-334.2731743482901
 20
288.6599430234047
 30
0.0
 40
399.8644235766344
100
AcDbArc
 50
324.5638436431537
 51
324.7774070112224
  0
POLYLINE
  5
12A
330
1F
100
AcDbEntity
  8
Default
100
AcDb2dPolyline
 66
     1
 10
0.0
 20
0.0
 30
0.0
  0
VERTEX
  5
12B
330
12A
100
AcDbEntity
  8
Default
100
AcDbVertex
100
AcDb2dVertex
 10
-7.568919966055063
 20
58.12348415673715
 30
0.0
  0
VERTEX
  5
12C
330
12A
100
AcDbEntity
  8
Default
100
AcDbVertex
100
AcDb2dVertex
 10
-7.61691516819522
 20
58.03634149758348
 30
0.0
  0
SEQEND
  5
12D
330
12A
100
AcDbEntity
  8
Default
  0
SPLINE
  5
12E
330
1F
100
AcDbEntity
  8
Default
100
AcDbSpline
210
0.0
220
0.0
230
1.0
 70
    24
 71
     2
 72
     6
 73
     3
 74
     0
 42
0.000000001
 43
0.0000000001
 40
0.0
 40
0.0
 40
0.0
 40
2.67030310165544
 40
2.67030310165544
 40
2.67030310165544
 10
-10.31270807023554
 20
46.19900834607989
 30
0.0
 10
-9.633206100691154
 20
45.04970127785879
 30
0.0
 10
-8.953704131146765
 20
43.9003942096377
 30
0.0
  0
SPLINE
  5
12F
330
1F
100
AcDbEntity
  8
Default
100
AcDbSpline
210
0.0
220
0.0
230
1.0
 70
    12
 71
     2
 72
     6
 73
     3
 74
     0
 42
0.000000001
 43
0.0000000001
 40
0.0
 40
0.0
 40
0.0
 40
0.287630529039659
 40
0.287630529039659
 40
0.287630529039659
 10
-8.965082984668086
 20
43.91964035956275
 30
0.0
 41
1.0
 10
-8.821267721287903
 20
43.91966199694532
 30
0.0
 41
0.9999999949095821
 10
-8.67745245646961
 20
43.9196546123709
 30
0.0
 41
1.0
  0
SPLINE
  5
130
330
1F
100
AcDbEntity
  8
Default
100
AcDbSpline
210
0.0
220
0.0
230
1.0
 70
    12
 71
     2
 72
     6
 73
     3
 74
     0
 42
0.000000001
 43
0.0000000001
 40
0.0
 40
0.0
 40
0.0
 40
0.4187814763590693
 40
0.4187814763590693
 40
0.4187814763590693
 10
-9.129752678040646
 20
55.17969401011008
 30
0.0
 41
1.0
 10
-9.301333750244437
 20
55.29974081494379
 30
0.0
 41
0.9998833817827627
 10
-9.469168594829526
 20
55.42497166031536
 30
0.0
 41
1.0
  0
SPLINE
  5
131
330
1F
100
AcDbEntity
  8
Default
100
AcDbSpline
210
0.0
220
0.0
230
1.0
 70
     8
 71
     3
 72
     8
 73
     4
 74
     0
 42
0.000000001
 43
0.0000000001
 40
0.0
 40
0.0
 40
0.0
 40
0.0
 40
0.0077244675502834
 40
0.0077244675502834
 40
0.0077244675502834
 40
0.0077244675502834
 10
-9.469731129544954
 20
43.53193439427925
 30
0.0
 10
-9.468932475878105
 20
43.5344447913953
 30
0.0
 10
-9.46806322763463
 20
43.53704327624106
 30
0.0
 10
-9.467130086708153
 20
43.53971422782962
 30
0.0
  0
SPLINE
  5
132
330
1F
100
AcDbEntity
  8
Default
100
AcDbSpline
210
0.0
220
0.0
230
1.0
 70
    24
 71
     2
 72
     6
 73
     3
 74
     0
 42
0.000000001
 43
0.0000000001
 40
0.0
 40
0.0
 40
0.0
 40
1.810830870569882
 40
1.810830870569882
 40
1.810830870569882
 10
-10.04116318965526
 20
41.81362881872673
 30
0.0
 10
-9.75544715960011
 20
42.67278160650299
 30
0.0
 10
-9.469731129544954
 20
43.53193439427925
 30
0.0
  0
ARC
  5
133
330
1F
100
AcDbEntity
  8
Default
100
AcDbCircle
 10
-9.74436833569672
 20
41.71501149210344
 30
0.0
 40
0.3127499999146248
100
AcDbArc
 50
161.6196746213318
 51
341.6196693167303
  0
SPLINE
  5
134
330
1F
100
AcDbEntity
  8
Default
100
AcDbSpline
210
0.0
220
0.0
230
1.0
 70
    24
 71
     2
 72
     6
 73
     3
 74
     0
 42
0.000000001
 43
0.0000000001
 40
0.0
 40
0.0
 40
0.0
 40
1.686982970028102
 40
1.686982970028102
 40
1.686982970028102
 10
-8.915665343116245
 20
43.21732676104426
 30
0.0
 10
-9.181619416992348
 20
42.41686044952316
 30
0.0
 10
-9.44757349086845
 20
41.61639413800204
 30
0.0
  0
SPLINE
  5
135
330
1F
100
AcDbEntity
  8
Default
100
AcDbSpline
210
0.0
220
0.0
230
1.0
 70
     8
 71
     3
 72
    14
 73
    10
 74
     0
 42
0.000000001
 43
0.0000000001
 40
0.0
 40
0.0
 40
0.0
 40
0.0
 40
0.1469991665265698
 40
0.2836427344887621
 40
0.5458793294352903
 40
0.7445225358434565
 40
1.177094598512961
 40
1.384695059976812
 40
1.843762460206271
 40
1.843762460206271
 40
1.843762460206271
 40
1.843762460206271
 10
-11.55084100143081
 20
54.15454317337225
 30
0.0
 10
-11.53314242296327
 20
54.20023793413338
 30
0.0
 10
-11.4947647564419
 20
54.28676745852655
 30
0.0
 10
-11.40445637792288
 20
54.44505608934134
 30
0.0
 10
-11.27225802924987
 20
54.59654177186812
 30
0.0
 10
-11.03187966024971
 20
54.77345381193336
 30
0.0
 10
-10.78849132478084
 20
54.91181268696145
 30
0.0
 10
-10.48697920842534
 20
55.12022262563647
 30
0.0
 10
-10.31285594892519
 20
55.25890025279966
 30
0.0
 10
-10.20229180546389
 20
55.36482542811923
 30
0.0
  0
ARC
  5
136
330
1F
100
AcDbEntity
  8
Default
100
AcDbCircle
 10
-9.142608318987584
 20
53.2471689390804
 30
0.0
 40
2.573502021340657
100
AcDbArc
 50
159.3545875817556
 51
165.7672847939063
  0
ARC
  5
137
330
1F
100
AcDbEntity
  8
Default
100
AcDbCircle
 10
7.893133040783319
 20
48.92611214653452
 30
0.0
 40
20.1487122755998
100
AcDbArc
 50
165.7672847939061
 51
185.2228492207572
  0
SPLINE
  5
138
330
1F
100
AcDbEntity
  8
Default
100
AcDbSpline
210
0.0
220
0.0
230
1.0
 70
    12
 71
     2
 72
     6
 73
     3
 74
     0
 42
0.000000001
 43
0.0000000001
 40
0.0
 40
0.0
 40
0.0
 40
0.3510269869102733
 40
0.3510269869102733
 40
0.3510269869102733
 10
-12.00648693299216
 20
46.79339723105652
 30
0.0
 41
1.0
 10
-12.15393096216485
 20
46.9068003251897
 30
0.0
 41
0.9174599268749598
 10
-12.17192532126478
 20
47.09198039213142
 30
0.0
 41
1.0
  0
ARC
  5
139
330
1F
100
AcDbEntity
  8
Default
100
AcDbCircle
 10
-10.07531493148358
 20
49.36487468785097
 30
0.0
 40
3.215885820456428
100
AcDbArc
 50
233.0935584771853
 51
254.7001168554173
  0
ARC
  5
13A
330
1F
100
AcDbEntity
  8
Default
100
AcDbCircle
 10
-10.8313702828068
 20
46.60117963949116
 30
0.0
 40
0.3506406277036155
100
AcDbArc
 50
254.7001168554174
 51
5.029543906521165
  0
ARC
  5
13B
330
1F
100
AcDbEntity
  8
Default
100
AcDbCircle
 10
20.06842247536902
 20
47.68549172173579
 30
0.0
 40
30.56866368655757
100
AcDbArc
 50
181.1110652263424
 51
181.9751326320547
  0
ARC
  5
13C
330
1F
100
AcDbEntity
  8
Default
100
AcDbCircle
 10
154.6725609164955
 20
50.29602826943636
 30
0.0
 40
165.1981143522452
100
AcDbArc
 50
178.7568513251652
 51
181.1110652263424
  0
SPLINE
  5
13D
330
1F
100
AcDbEntity
  8
Default
100
AcDbSpline
210
0.0
220
0.0
230
1.0
 70
    12
 71
     2
 72
     6
 73
     3
 74
     0
 42
0.000000001
 43
0.0000000001
 40
-0.2350747510263788
 40
-0.2350747510263788
 40
-0.2350747510263788
 40
0.0
 40
0.0
 40
0.0
 10
-10.44539143594945
 20
54.11062402031276
 30
0.0
 41
1.0
 10
-10.48305712141944
 20
53.99838861013751
 30
0.0
 41
0.9892691824022548
 10
-10.48667051049199
 20
53.88005672695066
 30
0.0
 41
1.0
  0
ARC
  5
13E
330
1F
100
AcDbEntity
  8
Default
100
AcDbCircle
 10
-9.191750906897525
 20
53.64366567407232
 30
0.0
 40
1.337783492649384
100
AcDbArc
 50
147.2253356812525
 51
159.5705507714341
  0
SPLINE
  5
13F
330
1F
100
AcDbEntity
  8
Default
100
AcDbSpline
210
0.0
220
0.0
230
1.0
 70
     8
 71
     3
 72
    11
 73
     7
 74
     0
 42
0.000000001
 43
0.0000000001
 40
0.0
 40
0.0
 40
0.0
 40
0.0
 40
0.1134653239335361
 40
0.3934665868286391
 40
0.5317535483744763
 40
0.7770320245400293
 40
0.7770320245400293
 40
0.7770320245400293
 40
0.7770320245400293
 10
-9.791173655961344
 20
54.97361493111931
 30
0.0
 10
-9.813106994812202
 20
54.94270894605736
 30
0.0
 10
-9.915908480855109
 20
54.82356099056408
 30
0.0
 10
-10.04323608244503
 20
54.70012848523049
 30
0.0
 10
-10.19290743189644
 20
54.53718095353015
 30
0.0
 10
-10.27226066589181
 20
54.43667402710496
 30
0.0
 10
-10.31656737426336
 20
54.3678566626574
 30
0.0
  0
SPLINE
  5
140
330
1F
100
AcDbEntity
  8
Default
100
AcDbSpline
210
0.0
220
0.0
230
1.0
 70
    12
 71
     2
 72
     8
 73
     5
 74
     0
 42
0.000000001
 43
0.0000000001
 40
0.0
 40
0.0
 40
0.0
 40
1.570796326794897
 40
1.570796326794897
 40
3.141592653589793
 40
3.141592653589793
 40
3.141592653589793
 10
-10.85384812713717
 20
45.88622981636459
 30
0.0
 41
1.0
 10
-10.72853896608538
 20
45.66943166655685
 30
0.0
 41
0.7071067811865475
 10
-10.45796893763456
 20
45.82582093141451
 30
0.0
 41
1.0
 10
-10.18739890918374
 20
45.98221019627216
 30
0.0
 41
0.7071067811865475
 10
-10.31270807023553
 20
46.19900834607989
 30
0.0
 41
1.0
  0
ARC
  5
141
330
1F
100
AcDbEntity
  8
Default
100
AcDbCircle
 10
-0.1826203076394961
 20
67.88282035022453
 30
0.0
 40
14.9132750014052
100
AcDbArc
 50
233.576378692291
 51
233.7039744230209
  0
LINE
  5
142
330
1F
100
AcDbEntity
  8
Default
100
AcDbLine
 10
-9.32224201922834
 20
56.09837779927667
 30
0.0
 11
-9.037387322701136
 21
55.88286733462846
 31
0.0
  0
ARC
  5
143
330
1F
100
AcDbEntity
  8
Default
100
AcDbCircle
 10
-9.505864407615135
 20
55.85567172092031
 30
0.0
 40
0.3043409633749497
100
AcDbArc
 50
52.89020646811945
 51
62.12981640827409
  0
ARC
  5
144
330
1F
100
AcDbEntity
  8
Default
100
AcDbCircle
 10
-8.927999221562857
 20
46.92966979528396
 30
0.0
 40
1.565657928458636
100
AcDbArc
 50
185.7299850810879
 51
207.8190116258537
  0
ARC
  5
145
330
1F
100
AcDbEntity
  8
Default
100
AcDbCircle
 10
-9.674425512539344
 20
55.85228433867529
 30
0.0
 40
0.4133193414486049
100
AcDbArc
 50
324.6374652109821
 51
41.23288457979033
  0
LINE
  5
146
330
1F
100
AcDbEntity
  8
Default
100
AcDbLine
 10
-9.791173655961344
 20
54.97361493111931
 30
0.0
 11
-9.337360940893419
 21
55.61307657844026
 31
0.0
  0
LINE
  5
147
330
1F
100
AcDbEntity
  8
Default
100
AcDbLine
 10
-9.491721575903853
 20
43.58233410551956
 30
0.0
 11
-10.85384812713717
 21
45.88622981636459
 31
0.0
  0
ARC
  5
148
330
1F
100
AcDbEntity
  8
Default
100
AcDbCircle
 10
-10.33207074911989
 20
43.08549654652924
 30
0.0
 40
0.9762347529914879
100
AcDbArc
 50
24.6247333487921
 51
30.59274788483889
  0
ARC
  5
149
330
1F
100
AcDbEntity
  8
Default
100
AcDbCircle
 10
-9.5806288649393
 20
55.81858891433505
 30
0.0
 40
0.3058118265647268
100
AcDbArc
 50
126.2977035292361
 51
144.5286843339499
  0
LINE
  5
14A
330
1F
100
AcDbEntity
  8
Default
100
AcDbLine
 10
-10.30340851410585
 20
55.33120886499049
 30
0.0
 11
-9.829683893311838
 21
55.99605008222597
 31
0.0
  0
ARC
  5
14B
330
1F
100
AcDbEntity
  8
Default
100
AcDbCircle
 10
-10.67908717338072
 20
55.59889417960654
 30
0.0
 40
0.4612915376371581
100
AcDbArc
 50
310.4215043821246
 51
324.5286843339503
  0
ARC
  5
14C
330
1F
100
AcDbEntity
  8
Default
100
AcDbCircle
 10
-15.11637240596509
 20
60.80872373178784
 30
0.0
 40
7.304669665294053
100
AcDbArc
 50
305.8370829759282
 51
310.4215043821242
  0
ARC
  5
14D
330
1F
100
AcDbEntity
  8
Default
100
AcDbCircle
 10
-9.086004032760187
 20
43.65123744578906
 30
0.0
 40
0.3565382358934175
100
AcDbArc
 50
257.9996971078206
 51
269.9830837972225
  0
LINE
  5
14E
330
1F
100
AcDbEntity
  8
Default
100
AcDbLine
 10
-8.639181281165122
 20
43.29465468832731
 30
0.0
 11
-9.086109298332275
 21
43.29469922543512
 31
0.0
  0
LINE
  5
14F
330
1F
100
AcDbEntity
  8
Default
100
AcDbLine
 10
-9.681080194313807
 20
60.85414928760797
 30
0.0
 11
-9.241116672745662
 21
56.03700138060295
 31
0.0
  0
ARC
  5
150
330
1F
100
AcDbEntity
  8
Default
100
AcDbCircle
 10
-9.992284972266788
 20
60.82572682854443
 30
0.0
 40
0.3124999999999707
100
AcDbArc
 50
5.218369770865218
 51
185.2183697708626
  0
LINE
  5
151
330
1F
100
AcDbEntity
  8
Default
100
AcDbLine
 10
-9.860967871602043
 20
55.95214508490587
 30
0.0
 11
-10.30348975021977
 21
60.79730436948091
 31
0.0
  0
ARC
  5
152
330
1F
100
AcDbEntity
  8
Default
100
AcDbCircle
 10
-0.1042163109297576
 20
54.05600993204408
 30
0.0
 40
36.75474893937953
100
AcDbArc
 50
256.192494733264
 51
257.9682023894924
  0
SPLINE
  5
153
330
1F
100
AcDbEntity
  8
Default
100
AcDbSpline
210
0.0
220
0.0
230
1.0
 70
     8
 71
     3
 72
    11
 73
     7
 74
     0
 42
0.000000001
 43
0.0000000001
 40
-5.973955573554649
 40
-5.973955573554649
 40
-5.973955573554649
 40
-5.973955573554649
 40
-5.316125352502183
 40
-4.316123671288857
 40
-3.316121990075531
 40
-2.388849842199948
 40
-2.388849842199948
 40
-2.388849842199948
 40
-2.388849842199948
 10
-3.075907013506665
 20
17.64431295689218
 30
0.0
 10
-3.36419585324424
 20
17.65635352043585
 30
0.0
 10
-4.090509853429012
 20
17.69175409786394
 30
0.0
 10
-5.25352100640913
 20
17.77302440238194
 30
0.0
 10
-6.531658315758776
 20
17.89787599059311
 30
0.0
 10
-7.368041894711297
 20
18.02388680552343
 30
0.0
 10
-7.765909280954659
 20
18.1086869381146
 30
0.0
  0
SPLINE
  5
154
330
1F
100
AcDbEntity
  8
Default
100
AcDbSpline
210
0.0
220
0.0
230
1.0
 70
     8
 71
     3
 72
    11
 73
     7
 74
     0
 42
0.000000001
 43
0.0000000001
 40
2.388849842199948
 40
2.388849842199948
 40
2.388849842199948
 40
2.388849842199948
 40
3.316121990075531
 40
4.316123671288857
 40
5.316125352502183
 40
5.973955573554626
 40
5.973955573554626
 40
5.973955573554626
 40
5.973955573554626
 10
7.786081762296007
 20
18.1086869381146
 30
0.0
 10
7.388214376052645
 20
18.02388680552343
 30
0.0
 10
6.551830797100124
 20
17.89787599059311
 30
0.0
 10
5.273693487750478
 20
17.77302440238194
 30
0.0
 10
4.110682334770367
 20
17.69175409786394
 30
0.0
 10
3.384368334585609
 20
17.65635352043585
 30
0.0
 10
3.096079494848055
 20
17.64431295689218
 30
0.0
  0
ARC
  5
155
330
1F
100
AcDbEntity
  8
Default
100
AcDbCircle
 10
0.1243887922711053
 20
54.05600993204408
 30
0.0
 40
36.75474893937953
100
AcDbArc
 50
282.0317976105076
 51
283.8075052667359
  0
SPLINE
  5
156
330
1F
100
AcDbEntity
  8
Default
100
AcDbSpline
210
0.0
220
0.0
230
1.0
 70
     8
 71
     3
 72
     8
 73
     4
 74
     0
 42
0.000000001
 43
0.0000000001
 40
8.725271761066452
 40
8.725271761066452
 40
8.725271761066452
 40
8.725271761066452
 40
8.734236464915913
 40
8.734236464915913
 40
8.734236464915913
 40
8.734236464915913
 10
0.0100862406706739
 20
18.03470705206411
 30
0.0
 10
0.0130743954075854
 20
18.03471065185658
 30
0.0
 10
0.0160625489150164
 20
18.03471443524183
 30
0.0
 10
0.0190507011610066
 20
18.03471840213323
 30
0.0
  0
SPLINE
  5
157
330
1F
100
AcDbEntity
  8
Default
100
AcDbSpline
210
0.0
220
0.0
230
1.0
 70
     8
 71
     3
 72
     8
 73
     4
 74
     0
 42
0.000000001
 43
0.0000000001
 40
-8.734236464915913
 40
-8.734236464915913
 40
-8.734236464915913
 40
-8.734236464915913
 40
-8.725271761066452
 40
-8.725271761066452
 40
-8.725271761066452
 40
-8.725271761066452
 10
0.0011217801803411
 20
18.03471840213323
 30
0.0
 10
0.0041099324263314
 20
18.03471443524183
 30
0.0
 10
0.0070980859337624
 20
18.03471065185658
 30
0.0
 10
0.0100862406706739
 20
18.03470705206411
 30
0.0
  0
ARC
  5
158
330
1F
100
AcDbEntity
  8
Default
100
AcDbCircle
 10
-5.569309256035467
 20
28.88530571151932
 30
0.0
 40
10.90527057606768
100
AcDbArc
 50
252.2137250292606
 51
253.3208065539642
  0
ARC
  5
159
330
1F
100
AcDbEntity
  8
Default
100
AcDbCircle
 10
-7.010143807883253
 20
24.07641003530521
 30
0.0
 40
5.885162825181336
100
AcDbArc
 50
253.3208065539642
 51
257.9575618665136
  0
SPLINE
  5
15A
330
1F
100
AcDbEntity
  8
Default
100
AcDbSpline
210
0.0
220
0.0
230
1.0
 70
     8
 71
     3
 72
    11
 73
     7
 74
     0
 42
0.000000001
 43
0.0000000001
 40
0.0
 40
0.0
 40
0.0
 40
0.0
 40
1.117145790588472
 40
2.244382141007875
 40
4.386439640998885
 40
8.289804655665163
 40
8.289804655665163
 40
8.289804655665163
 40
8.289804655665163
 10
0.0011217801803411
 20
17.55841309536799
 30
0.0
 10
-0.3712814208239195
 20
17.5578598936421
 30
0.0
 10
-1.119363346304056
 20
17.56387823776181
 30
0.0
 10
-2.581048956995346
 20
17.60709251761238
 30
0.0
 10
-4.967420142978028
 20
17.76270057719055
 30
0.0
 10
-6.965268713489991
 20
18.04924688561776
 30
0.0
 10
-8.238001422568146
 20
18.32076001493768
 30
0.0
  0
SPLINE
  5
15B
330
1F
100
AcDbEntity
  8
Default
100
AcDbSpline
210
0.0
220
0.0
230
1.0
 70
     8
 71
     3
 72
     8
 73
     4
 74
     0
 42
0.000000001
 43
0.0000000001
 40
-0.0089639569409605
 40
-0.0089639569409605
 40
-0.0089639569409605
 40
-0.0089639569409605
 40
0.0
 40
0.0
 40
0.0
 40
0.0
 10
0.0100862406706739
 20
17.5584004644229
 30
0.0
 10
0.0070980900012358
 20
17.55840444609718
 30
0.0
 10
0.0041099365038946
 20
17.55840865648769
 30
0.0
 10
0.0011217801803411
 20
17.55841309536799
 30
0.0
  0
SPLINE
  5
15C
330
1F
100
AcDbEntity
  8
Default
100
AcDbSpline
210
0.0
220
0.0
230
1.0
 70
     8
 71
     3
 72
     8
 73
     4
 74
     0
 42
0.000000001
 43
0.0000000001
 40
0.0
 40
0.0
 40
0.0
 40
0.0
 40
0.0089639569409605
 40
0.0089639569409605
 40
0.0089639569409605
 40
0.0089639569409605
 10
0.0190507011610066
 20
17.55841309536799
 30
0.0
 10
0.0160625448374532
 20
17.55840865648769
 30
0.0
 10
0.0130743913401119
 20
17.55840444609718
 30
0.0
 10
0.0100862406706739
 20
17.5584004644229
 30
0.0
  0
SPLINE
  5
15D
330
1F
100
AcDbEntity
  8
Default
100
AcDbSpline
210
0.0
220
0.0
230
1.0
 70
     8
 71
     3
 72
    11
 73
     7
 74
     0
 42
0.000000001
 43
0.0000000001
 40
-8.289804655665163
 40
-8.289804655665163
 40
-8.289804655665163
 40
-8.289804655665163
 40
-4.386439640998885
 40
-2.244382141007875
 40
-1.117145790588472
 40
0.0
 40
0.0
 40
0.0
 40
0.0
 10
8.258173903909494
 20
18.32076001493768
 30
0.0
 10
6.985441194831338
 20
18.04924688561776
 30
0.0
 10
4.987592624319376
 20
17.76270057719055
 30
0.0
 10
2.601221438336694
 20
17.60709251761238
 30
0.0
 10
1.139535827645403
 20
17.56387823776181
 30
0.0
 10
0.3914539021652672
 20
17.5578598936421
 30
0.0
 10
0.0190507011610066
 20
17.55841309536799
 30
0.0
  0
ARC
  5
15E
330
1F
100
AcDbEntity
  8
Default
100
AcDbCircle
 10
7.030316289224601
 20
24.07641003530521
 30
0.0
 40
5.885162825181336
100
AcDbArc
 50
282.0424381334864
 51
286.6791934460358
  0
ARC
  5
15F
330
1F
100
AcDbEntity
  8
Default
100
AcDbCircle
 10
5.589481737376815
 20
28.88530571151932
 30
0.0
 40
10.90527057606768
100
AcDbArc
 50
286.6791934460358
 51
287.7862749707394
  0
SPLINE
  5
160
330
1F
100
AcDbEntity
  8
Default
100
AcDbSpline
210
0.0
220
0.0
230
1.0
 70
     8
 71
     3
 72
    11
 73
     7
 74
     0
 42
0.000000001
 43
0.0000000001
 40
-3.922906212066565
 40
-3.922906212066565
 40
-3.922906212066565
 40
-3.922906212066565
 40
-1.810554185318841
 40
-0.8713107482652187
 40
-0.4227618085603584
 40
0.0
 40
0.0
 40
0.0
 40
0.0
 10
0.0149560313730603
 20
16.35057063065053
 30
0.0
 10
0.718943060452716
 20
16.35075236785881
 30
0.0
 10
1.73680904954827
 20
16.38521097192189
 30
0.0
 10
2.896229406394184
 20
16.52054893724203
 30
0.0
 10
3.491623115427359
 20
16.61967600273241
 30
0.0
 10
3.776454766569401
 20
16.67670371822532
 30
0.0
 10
3.914067297408309
 20
16.70705237183441
 30
0.0
  0
SPLINE
  5
161
330
1F
100
AcDbEntity
  8
Default
100
AcDbSpline
210
0.0
220
0.0
230
1.0
 70
     8
 71
     3
 72
     8
 73
     4
 74
     0
 42
0.000000001
 43
0.0000000001
 40
3.918035529331768
 40
3.918035529331768
 40
3.918035529331768
 40
3.918035529331768
 40
3.922906212066565
 40
3.922906212066565
 40
3.922906212066565
 40
3.922906212066565
 10
0.0100862406706739
 20
16.35057226556359
 30
0.0
 10
0.0117095073552491
 20
16.35057159460621
 30
0.0
 10
0.013332770938888
 20
16.35057104970203
 30
0.0
 10
0.0149560313730603
 20
16.35057063065053
 30
0.0
  0
SPLINE
  5
162
330
1F
100
AcDbEntity
  8
Default
100
AcDbSpline
210
0.0
220
0.0
230
1.0
 70
     8
 71
     3
 72
     8
 73
     4
 74
     0
 42
0.000000001
 43
0.0000000001
 40
-3.922906212066565
 40
-3.922906212066565
 40
-3.922906212066565
 40
-3.922906212066565
 40
-3.918035529331768
 40
-3.918035529331768
 40
-3.918035529331768
 40
-3.918035529331768
 10
0.0052164499682874
 20
16.35057063065053
 30
0.0
 10
0.0068397104024598
 20
16.35057104970203
 30
0.0
 10
0.0084629739860986
 20
16.35057159460621
 30
0.0
 10
0.0100862406706739
 20
16.35057226556359
 30
0.0
  0
SPLINE
  5
163
330
1F
100
AcDbEntity
  8
Default
100
AcDbSpline
210
0.0
220
0.0
230
1.0
 70
     8
 71
     3
 72
    11
 73
     7
 74
     0
 42
0.000000001
 43
0.0000000001
 40
0.0
 40
0.0
 40
0.0
 40
0.0
 40
0.4227618085603584
 40
0.8713107482652187
 40
1.810554185318841
 40
3.922906212066565
 40
3.922906212066565
 40
3.922906212066565
 40
3.922906212066565
 10
-3.893894816066961
 20
16.70705237183441
 30
0.0
 10
-3.756282285228053
 20
16.67670371822532
 30
0.0
 10
-3.471450634086011
 20
16.61967600273241
 30
0.0
 10
-2.876056925052836
 20
16.52054893724203
 30
0.0
 10
-1.716636568206923
 20
16.38521097192189
 30
0.0
 10
-0.6987705791113683
 20
16.35075236785881
 30
0.0
 10
0.0052164499682874
 20
16.35057063065053
 30
0.0
  0
SPLINE
  5
164
330
1F
100
AcDbEntity
  8
Default
100
AcDbSpline
210
0.0
220
0.0
230
1.0
 70
     8
 71
     3
 72
    11
 73
     7
 74
     0
 42
0.000000001
 43
0.0000000001
 40
0.0
 40
0.0
 40
0.0
 40
0.0
 40
0.5718741373387862
 40
1.126572318068338
 40
2.15587852467404
 40
4.009012688354398
 40
4.009012688354398
 40
4.009012688354398
 40
4.009012688354398
 10
0.0052164499682874
 20
15.72557063064755
 30
0.0
 10
-0.1854263840665169
 20
15.72553986573256
 30
0.0
 10
-0.5609022033767417
 20
15.72903645982177
 30
0.0
 10
-1.279318700111077
 20
15.75063730103654
 30
0.0
 10
-2.422917499037254
 20
15.82290616136228
 30
0.0
 10
-3.376046238919145
 20
15.95604955002145
 30
0.0
 10
-3.980077049299439
 20
16.0861554312141
 30
0.0
  0
SPLINE
  5
165
330
1F
100
AcDbEntity
  8
Default
100
AcDbSpline
210
0.0
220
0.0
230
1.0
 70
     8
 71
     3
 72
     8
 73
     4
 74
     0
 42
0.000000001
 43
0.0000000001
 40
-0.0048693370588119
 40
-0.0048693370588119
 40
-0.0048693370588119
 40
-0.0048693370588119
 40
0.0
 40
0.0
 40
0.0
 40
0.0
 10
0.0100862406706739
 20
15.72557023765417
 30
0.0
 10
0.0084629801830687
 20
15.72557023765417
 30
0.0
 10
0.0068397166211298
 20
15.72557036869351
 30
0.0
 10
0.0052164499682874
 20
15.72557063064755
 30
0.0
  0
SPLINE
  5
166
330
1F
100
AcDbEntity
  8
Default
100
AcDbSpline
210
0.0
220
0.0
230
1.0
 70
     8
 71
     3
 72
     8
 73
     4
 74
     0
 42
0.000000001
 43
0.0000000001
 40
0.0
 40
0.0
 40
0.0
 40
0.0
 40
0.0048693370588119
 40
0.0048693370588119
 40
0.0048693370588119
 40
0.0048693370588119
 10
0.0149560313730603
 20
15.72557063064755
 30
0.0
 10
0.0133327647202179
 20
15.72557036869351
 30
0.0
 10
0.0117095011582791
 20
15.72557023765417
 30
0.0
 10
0.0100862406706739
 20
15.72557023765417
 30
0.0
  0
SPLINE
  5
167
330
1F
100
AcDbEntity
  8
Default
100
AcDbSpline
210
0.0
220
0.0
230
1.0
 70
     8
 71
     3
 72
    11
 73
     7
 74
     0
 42
0.000000001
 43
0.0000000001
 40
-4.009012688354398
 40
-4.009012688354398
 40
-4.009012688354398
 40
-4.009012688354398
 40
-2.15587852467404
 40
-1.126572318068338
 40
-0.5718741373387862
 40
0.0
 40
0.0
 40
0.0
 40
0.0
 10
4.000249530640787
 20
16.0861554312141
 30
0.0
 10
3.396218720260492
 20
15.95604955002145
 30
0.0
 10
2.443089980378602
 20
15.82290616136228
 30
0.0
 10
1.299491181452424
 20
15.75063730103654
 30
0.0
 10
0.5810746847180894
 20
15.72903645982177
 30
0.0
 10
0.2055988654078647
 20
15.72553986573256
 30
0.0
 10
0.0149560313730603
 20
15.72557063064755
 30
0.0
  0
SPLINE
  5
168
330
1F
100
AcDbEntity
  8
Default
100
AcDbSpline
210
0.0
220
0.0
230
1.0
 70
    12
 71
     2
 72
     6
 73
     3
 74
     0
 42
0.000000001
 43
0.0000000001
 40
0.0
 40
0.0
 40
0.0
 40
3.894196445260582
 40
3.894196445260582
 40
3.894196445260582
 10
0.0052164499682958
 20
16.55053505338113
 30
0.0
 41
0.9999999977424644
 10
-1.946244186420736
 20
16.54696757188502
 30
0.0
 41
0.9966471802277466
 10
-3.87215894254274
 20
16.861711427189
 30
0.0
 41
1.0
  0
SPLINE
  5
169
330
1F
100
AcDbEntity
  8
Default
100
AcDbSpline
210
0.0
220
0.0
230
1.0
 70
    12
 71
     2
 72
     6
 73
     3
 74
     0
 42
0.000000001
 43
0.0000000001
 40
-0.0048752289753195
 40
-0.0048752289753195
 40
-0.0048752289753195
 40
0.0
 40
0.0
 40
0.0
 10
0.0100862406706732
 20
16.55052664969891
 30
0.0
 41
0.999991613322358
 10
0.0076513448890836
 20
16.55053060212937
 30
0.0
 41
0.999995800277512
 10
0.0052164499682958
 20
16.55053505338113
 30
0.0
 41
0.9999999977424644
  0
SPLINE
  5
16A
330
1F
100
AcDbEntity
  8
Default
100
AcDbSpline
210
0.0
220
0.0
230
1.0
 70
    12
 71
     2
 72
     6
 73
     3
 74
     0
 42
0.000000001
 43
0.0000000001
 40
0.0
 40
0.0
 40
0.0
 40
0.0048752289753195
 40
0.0048752289753195
 40
0.0048752289753195
 10
0.0149560313730577
 20
16.55053505338113
 30
0.0
 41
0.9999999977424644
 10
0.0125211364522584
 20
16.55053060212937
 30
0.0
 41
0.999995800277512
 10
0.0100862406706732
 20
16.55052664969891
 30
0.0
 41
0.999991613322358
  0
SPLINE
  5
16B
330
1F
100
AcDbEntity
  8
Default
100
AcDbSpline
210
0.0
220
0.0
230
1.0
 70
    12
 71
     2
 72
     6
 73
     3
 74
     0
 42
0.000000001
 43
0.0000000001
 40
-3.894196445260582
 40
-3.894196445260582
 40
-3.894196445260582
 40
0.0
 40
0.0
 40
0.0
 10
3.892331423884087
 20
16.861711427189
 30
0.0
 41
1.0
 10
1.96641666776208
 20
16.54696757188502
 30
0.0
 41
0.9966471802277466
 10
0.0149560313730577
 20
16.55053505338113
 30
0.0
 41
0.9999999977424644
  0
ARC
  5
16C
330
1F
100
AcDbEntity
  8
Default
100
AcDbCircle
 10
-3.530969383636332
 20
37.60457887931758
 30
0.0
 40
20.57570486308352
100
AcDbArc
 50
255.1094967881834
 51
257.5023654706723
  0
SPLINE
  5
16D
330
1F
100
AcDbEntity
  8
Default
100
AcDbSpline
210
0.0
220
0.0
230
1.0
 70
     8
 71
     3
 72
    13
 73
     9
 74
     0
 42
0.000000001
 43
0.0000000001
 40
-7.222457226751036
 40
-7.222457226751036
 40
-7.222457226751036
 40
-7.222457226751036
 40
-6.222465322676751
 40
-5.222463703491607
 40
-4.222462084306464
 40
-3.222460465121321
 40
-2.222458845936178
 40
-1.230679922258964
 40
-1.230679922258964
 40
-1.230679922258964
 40
-1.230679922258964
 10
0.0052164499682874
 20
16.95742538289063
 30
0.0
 10
-0.4408424573771583
 20
16.95742992692691
 30
0.0
 10
-1.332971978825157
 20
16.9646859177168
 30
0.0
 10
-2.670763451207733
 20
16.99902620359632
 30
0.0
 10
-4.00772000886559
 20
17.0588926661568
 30
0.0
 10
-5.342642374817359
 20
17.15334114068534
 30
0.0
 10
-6.671077375069373
 20
17.28381881384322
 30
0.0
 10
-7.549573125430769
 20
17.42022771099794
 30
0.0
 10
-7.983537659664975
 20
17.51641653528964
 30
0.0
  0
SPLINE
  5
16E
330
1F
100
AcDbEntity
  8
Default
100
AcDbSpline
210
0.0
220
0.0
230
1.0
 70
     8
 71
     3
 72
     8
 73
     4
 74
     0
 42
0.000000001
 43
0.0000000001
 40
5.996360905810348
 40
5.996360905810348
 40
5.996360905810348
 40
5.996360905810348
 40
6.0
 40
6.0
 40
6.0
 40
6.0
 10
0.0100862406706739
 20
16.95742557647114
 30
0.0
 10
0.0084629770566806
 20
16.95742546394919
 30
0.0
 10
0.0068397134880769
 20
16.95742539942694
 30
0.0
 10
0.0052164499682874
 20
16.95742538289063
 30
0.0
  0
SPLINE
  5
16F
330
1F
100
AcDbEntity
  8
Default
100
AcDbSpline
210
0.0
220
0.0
230
1.0
 70
     8
 71
     3
 72
     8
 73
     4
 74
     0
 42
0.000000001
 43
0.0000000001
 40
-6.0
 40
-6.0
 40
-6.0
 40
-6.0
 40
-5.996360905810348
 40
-5.996360905810348
 40
-5.996360905810348
 40
-5.996360905810348
 10
0.0149560313730603
 20
16.95742538289063
 30
0.0
 10
0.0133327678532709
 20
16.95742539942694
 30
0.0
 10
0.0117095042846671
 20
16.95742546394919
 30
0.0
 10
0.0100862406706739
 20
16.95742557647114
 30
0.0
  0
SPLINE
  5
170
330
1F
100
AcDbEntity
  8
Default
100
AcDbSpline
210
0.0
220
0.0
230
1.0
 70
     8
 71
     3
 72
    13
 73
     9
 74
     0
 42
0.000000001
 43
0.0000000001
 40
1.230679922258964
 40
1.230679922258964
 40
1.230679922258964
 40
1.230679922258964
 40
2.222458845936178
 40
3.222460465121321
 40
4.222462084306464
 40
5.222463703491607
 40
6.222465322676751
 40
7.222457226751036
 40
7.222457226751036
 40
7.222457226751036
 40
7.222457226751036
 10
8.003710141006323
 20
17.51641653528964
 30
0.0
 10
7.569745606772116
 20
17.42022771099794
 30
0.0
 10
6.691249856410721
 20
17.28381881384322
 30
0.0
 10
5.362814856158707
 20
17.15334114068534
 30
0.0
 10
4.027892490206938
 20
17.0588926661568
 30
0.0
 10
2.690935932549081
 20
16.99902620359632
 30
0.0
 10
1.353144460166504
 20
16.9646859177168
 30
0.0
 10
0.4610149387185061
 20
16.95742992692691
 30
0.0
 10
0.0149560313730603
 20
16.95742538289063
 30
0.0
  0
ARC
  5
171
330
1F
100
AcDbEntity
  8
Default
100
AcDbCircle
 10
3.55114186497768
 20
37.60457887931758
 30
0.0
 40
20.57570486308352
100
AcDbArc
 50
282.4976345293277
 51
284.8905032118166
  0
SPLINE
  5
172
330
1F
100
AcDbEntity
  8
Default
100
AcDbSpline
210
0.0
220
0.0
230
1.0
 70
     8
 71
     3
 72
    12
 73
     8
 74
     0
 42
0.000000001
 43
0.0000000001
 40
-7.107196983414992
 40
-7.107196983414992
 40
-7.107196983414992
 40
-7.107196983414992
 40
-4.690458462965164
 40
-4.21509045905279
 40
-3.064069455414916
 40
-1.917925925034485
 40
-1.438377676483099
 40
-1.438377676483099
 40
-1.438377676483099
 40
-1.438377676483099
 10
8.491878794511393
 20
25.33334571881657
 30
0.0
 10
8.597389441556942
 20
24.53469663932217
 30
0.0
 10
8.724034224850982
 20
23.57903986413721
 30
0.0
 10
8.900430623784757
 20
22.24289433516187
 30
0.0
 10
9.015967575288528
 20
21.32601431822967
 30
0.0
 10
9.11903144214476
 20
20.40604719171419
 30
0.0
 10
9.164785428845008
 20
19.86612249010361
 30
0.0
 10
9.175576976356353
 20
19.70664241782882
 30
0.0
  0
SPLINE
  5
173
330
1F
100
AcDbEntity
  8
Default
100
AcDbSpline
210
0.0
220
0.0
230
1.0
 70
    12
 71
     2
 72
     6
 73
     3
 74
     0
 42
0.000000001
 43
0.0000000001
 40
-6.481588670327722
 40
-6.481588670327722
 40
-6.481588670327722
 40
0.0
 40
0.0
 40
0.0
 10
7.64189127588881
 20
31.75895902667269
 30
0.0
 41
1.0
 10
8.064691552491853
 20
28.54586221632916
 30
0.0
 41
0.9999997669392705
 10
8.491878794511393
 20
25.33334571881657
 30
0.0
 41
1.0
  0
SPLINE
  5
174
330
1F
100
AcDbEntity
  8
Default
100
AcDbSpline
210
0.0
220
0.0
230
1.0
 70
    12
 71
     2
 72
     6
 73
     3
 74
     0
 42
0.000000001
 43
0.0000000001
 40
-0.3221193712202933
 40
-0.3221193712202933
 40
-0.3221193712202933
 40
0.0
 40
0.0
 40
0.0
 10
7.600492351121147
 20
32.07840674223226
 30
0.0
 41
1.0
 10
7.620832156378516
 20
31.91863627457677
 30
0.0
 41
0.9999974648356978
 10
7.64189127588881
 20
31.75895902667269
 30
0.0
 41
1.0
  0
SPLINE
  5
175
330
1F
100
AcDbEntity
  8
Default
100
AcDbSpline
210
0.0
220
0.0
230
1.0
 70
     8
 71
     3
 72
     9
 73
     5
 74
     0
 42
0.000000001
 43
0.0000000001
 40
-2.0
 40
-2.0
 40
-2.0
 40
-2.0
 40
-1.0
 40
0.0
 40
0.0
 40
0.0
 40
0.0
 10
7.255827533059232
 20
32.38802557393358
 30
0.0
 10
7.333569452561363
 20
32.39561396778429
 30
0.0
 10
7.503315009026664
 20
32.34830386969664
 30
0.0
 10
7.590656397145551
 20
32.15566878808939
 30
0.0
 10
7.600492351121147
 20
32.07840674223226
 30
0.0
  0
SPLINE
  5
176
330
1F
100
AcDbEntity
  8
Default
100
AcDbSpline
210
0.0
220
0.0
230
1.0
 70
     8
 71
     3
 72
     9
 73
     5
 74
     0
 42
0.000000001
 43
0.0000000001
 40
-2.0
 40
-2.0
 40
-2.0
 40
-2.0
 40
-1.0
 40
0.0
 40
0.0
 40
0.0
 40
0.0
 10
0.0190507011610066
 20
32.02210836847988
 30
0.0
 10
1.227201446237672
 20
32.02163421685839
 30
0.0
 10
3.643788417480863
 20
32.08043024418264
 30
0.0
 10
6.05340130246131
 20
32.27065667086772
 30
0.0
 10
7.255827533059232
 20
32.38802557393358
 30
0.0
  0
SPLINE
  5
177
330
1F
100
AcDbEntity
  8
Default
100
AcDbSpline
210
0.0
220
0.0
230
1.0
 70
     8
 71
     3
 72
     8
 73
     4
 74
     0
 42
0.000000001
 43
0.0000000001
 40
1.997526672358333
 40
1.997526672358333
 40
1.997526672358333
 40
1.997526672358333
 40
2.0
 40
2.0
 40
2.0
 40
2.0
 10
0.0100862406706739
 20
32.02210539854355
 30
0.0
 10
0.0130743950216186
 20
32.02210620575374
 30
0.0
 10
0.0160625485279127
 20
32.02210719574757
 30
0.0
 10
0.0190507011610066
 20
32.02210836847988
 30
0.0
  0
SPLINE
  5
178
330
1F
100
AcDbEntity
  8
Default
100
AcDbSpline
210
0.0
220
0.0
230
1.0
 70
     8
 71
     3
 72
     8
 73
     4
 74
     0
 42
0.000000001
 43
0.0000000001
 40
-2.0
 40
-2.0
 40
-2.0
 40
-2.0
 40
-1.997526672358333
 40
-1.997526672358333
 40
-1.997526672358333
 40
-1.997526672358333
 10
0.0011217801803411
 20
32.02210836847988
 30
0.0
 10
0.0041099328134351
 20
32.02210719574757
 30
0.0
 10
0.0070980863197292
 20
32.02210620575374
 30
0.0
 10
0.0100862406706739
 20
32.02210539854355
 30
0.0
  0
SPLINE
  5
179
330
1F
100
AcDbEntity
  8
Default
100
AcDbSpline
210
0.0
220
0.0
230
1.0
 70
     8
 71
     3
 72
     9
 73
     5
 74
     0
 42
0.000000001
 43
0.0000000001
 40
0.0
 40
0.0
 40
0.0
 40
0.0
 40
1.0
 40
2.0
 40
2.0
 40
2.0
 40
2.0
 10
-7.235655051717885
 20
32.38802557393358
 30
0.0
 10
-6.033228821119963
 20
32.27065667086772
 30
0.0
 10
-3.623615936139515
 20
32.08043024418264
 30
0.0
 10
-1.207028964896324
 20
32.02163421685839
 30
0.0
 10
0.0011217801803411
 20
32.02210836847988
 30
0.0
  0
SPLINE
  5
17A
330
1F
100
AcDbEntity
  8
Default
100
AcDbSpline
210
0.0
220
0.0
230
1.0
 70
     8
 71
     3
 72
     9
 73
     5
 74
     0
 42
0.000000001
 43
0.0000000001
 40
0.0
 40
0.0
 40
0.0
 40
0.0
 40
1.0
 40
2.0
 40
2.0
 40
2.0
 40
2.0
 10
-7.5803198697798
 20
32.07840674223226
 30
0.0
 10
-7.570483915804203
 20
32.15566878808939
 30
0.0
 10
-7.483142527685317
 20
32.34830386969664
 30
0.0
 10
-7.313396971220016
 20
32.39561396778429
 30
0.0
 10
-7.235655051717885
 20
32.38802557393358
 30
0.0
  0
SPLINE
  5
17B
330
1F
100
AcDbEntity
  8
Default
100
AcDbSpline
210
0.0
220
0.0
230
1.0
 70
    12
 71
     2
 72
     6
 73
     3
 74
     0
 42
0.000000001
 43
0.0000000001
 40
0.0
 40
0.0
 40
0.0
 40
0.3221193712202933
 40
0.3221193712202933
 40
0.3221193712202933
 10
-7.621718794547462
 20
31.75895902667269
 30
0.0
 41
1.0
 10
-7.60065967503717
 20
31.91863627457677
 30
0.0
 41
0.9999974648356978
 10
-7.5803198697798
 20
32.07840674223226
 30
0.0
 41
1.0
  0
SPLINE
  5
17C
330
1F
100
AcDbEntity
  8
Default
100
AcDbSpline
210
0.0
220
0.0
230
1.0
 70
    12
 71
     2
 72
     6
 73
     3
 74
     0
 42
0.000000001
 43
0.0000000001
 40
0.0
 40
0.0
 40
0.0
 40
6.481588670327722
 40
6.481588670327722
 40
6.481588670327722
 10
-8.471706313170046
 20
25.33334571881657
 30
0.0
 41
1.0
 10
-8.044519071150502
 20
28.54586221632916
 30
0.0
 41
0.9999997669392705
 10
-7.621718794547462
 20
31.75895902667269
 30
0.0
 41
1.0
  0
SPLINE
  5
17D
330
1F
100
AcDbEntity
  8
Default
100
AcDbSpline
210
0.0
220
0.0
230
1.0
 70
     8
 71
     3
 72
    12
 73
     8
 74
     0
 42
0.000000001
 43
0.0000000001
 40
1.438377676483099
 40
1.438377676483099
 40
1.438377676483099
 40
1.438377676483099
 40
1.917925925034485
 40
3.064069455414916
 40
4.21509045905279
 40
4.690458462965164
 40
7.107196983414992
 40
7.107196983414992
 40
7.107196983414992
 40
7.107196983414992
 10
-9.155404495015006
 20
19.70664241782882
 30
0.0
 10
-9.14461294750366
 20
19.86612249010361
 30
0.0
 10
-9.098858960803412
 20
20.40604719171419
 30
0.0
 10
-8.99579509394718
 20
21.32601431822967
 30
0.0
 10
-8.88025814244341
 20
22.24289433516187
 30
0.0
 10
-8.703861743509634
 20
23.57903986413721
 30
0.0
 10
-8.577216960215594
 20
24.53469663932217
 30
0.0
 10
-8.471706313170046
 20
25.33334571881657
 30
0.0
  0
SPLINE
  5
17E
330
1F
100
AcDbEntity
  8
Default
100
AcDbSpline
210
0.0
220
0.0
230
1.0
 70
     8
 71
     3
 72
    12
 73
     8
 74
     0
 42
0.000000001
 43
0.0000000001
 40
0.0
 40
0.0
 40
0.0
 40
0.0
 40
0.1143499834053041
 40
0.2521911721077188
 40
0.4054342416030434
 40
0.4870405797229443
 40
0.5030819316038041
 40
0.5030819316038041
 40
0.5030819316038041
 40
0.5030819316038041
 10
-8.469982857458547
 20
18.57876316015447
 30
0.0
 10
-8.50552994068326
 20
18.5925506730894
 30
0.0
 10
-8.585353890817714
 20
18.61899074144701
 30
0.0
 10
-8.714836474806475
 20
18.65768694996283
 30
0.0
 10
-8.83367834588796
 20
18.69392155048936
 30
0.0
 10
-8.912851931607847
 20
18.72087309423991
 30
0.0
 10
-8.943673515954131
 20
18.73130086766625
 30
0.0
 10
-8.948733006818912
 20
18.73302777441351
 30
0.0
  0
SPLINE
  5
17F
330
1F
100
AcDbEntity
  8
Default
100
AcDbSpline
210
0.0
220
0.0
230
1.0
 70
     8
 71
     3
 72
    13
 73
     9
 74
     0
 42
0.000000001
 43
0.0000000001
 40
0.0
 40
0.0
 40
0.0
 40
0.0
 40
0.9999988183748261
 40
1.999999054699861
 40
2.999999291024896
 40
3.99999952734993
 40
4.999999763674965
 40
6.0
 40
6.0
 40
6.0
 40
6.0
 10
0.0011217801803411
 20
17.75259354456287
 30
0.0
 10
-0.472700226833922
 20
17.75243170586376
 30
0.0
 10
-1.420363118079052
 20
17.76386163695886
 30
0.0
 10
-2.84085025067597
 20
17.82081852620391
 30
0.0
 10
-4.258847071239217
 20
17.92310283998885
 30
0.0
 10
-5.67212659717589
 20
18.07823066862052
 30
0.0
 10
-7.07786413923057
 20
18.29076750487942
 30
0.0
 10
-8.008555771732489
 20
18.4709932192189
 30
0.0
 10
-8.469982857458547
 20
18.57876316015447
 30
0.0
  0
SPLINE
  5
180
330
1F
100
AcDbEntity
  8
Default
100
AcDbSpline
210
0.0
220
0.0
230
1.0
 70
     8
 71
     3
 72
     8
 73
     4
 74
     0
 42
0.000000001
 43
0.0000000001
 40
-0.0063064812829188
 40
-0.0063064812829188
 40
-0.0063064812829188
 40
-0.0063064812829188
 40
0.0
 40
0.0
 40
0.0
 40
0.0
 10
0.0100862406706739
 20
17.75259118404409
 30
0.0
 10
0.0070980868414665
 20
17.75259173702593
 30
0.0
 10
0.004109933329886
 20
17.75259252392894
 30
0.0
 10
0.0011217801803411
 20
17.75259354456287
 30
0.0
  0
SPLINE
  5
181
330
1F
100
AcDbEntity
  8
Default
100
AcDbSpline
210
0.0
220
0.0
230
1.0
 70
     8
 71
     3
 72
     8
 73
     4
 74
     0
 42
0.000000001
 43
0.0000000001
 40
0.0
 40
0.0
 40
0.0
 40
0.0
 40
0.0063064812829188
 40
0.0063064812829188
 40
0.0063064812829188
 40
0.0063064812829188
 10
0.0190507011610066
 20
17.75259354456287
 30
0.0
 10
0.0160625480114618
 20
17.75259252392894
 30
0.0
 10
0.0130743944998812
 20
17.75259173702593
 30
0.0
 10
0.0100862406706739
 20
17.75259118404409
 30
0.0
  0
SPLINE
  5
182
330
1F
100
AcDbEntity
  8
Default
100
AcDbSpline
210
0.0
220
0.0
230
1.0
 70
     8
 71
     3
 72
    13
 73
     9
 74
     0
 42
0.000000001
 43
0.0000000001
 40
-6.0
 40
-6.0
 40
-6.0
 40
-6.0
 40
-4.999999763674965
 40
-3.99999952734993
 40
-2.999999291024896
 40
-1.999999054699861
 40
-0.9999988183748261
 40
0.0
 40
0.0
 40
0.0
 40
0.0
 10
8.490155338799894
 20
18.57876316015447
 30
0.0
 10
8.028728253073837
 20
18.4709932192189
 30
0.0
 10
7.098036620571918
 20
18.29076750487942
 30
0.0
 10
5.692299078517237
 20
18.07823066862052
 30
0.0
 10
4.279019552580564
 20
17.92310283998885
 30
0.0
 10
2.861022732017318
 20
17.82081852620391
 30
0.0
 10
1.4405355994204
 20
17.76386163695886
 30
0.0
 10
0.4928727081752697
 20
17.75243170586376
 30
0.0
 10
0.0190507011610066
 20
17.75259354456287
 30
0.0
  0
SPLINE
  5
183
330
1F
100
AcDbEntity
  8
Default
100
AcDbSpline
210
0.0
220
0.0
230
1.0
 70
     8
 71
     3
 72
    12
 73
     8
 74
     0
 42
0.000000001
 43
0.0000000001
 40
-0.5030819316038041
 40
-0.5030819316038041
 40
-0.5030819316038041
 40
-0.5030819316038041
 40
-0.4870405797229443
 40
-0.4054342416030434
 40
-0.2521911721077188
 40
-0.1143499834053041
 40
0.0
 40
0.0
 40
0.0
 40
0.0
 10
8.96890548816026
 20
18.73302777441351
 30
0.0
 10
8.96384599729548
 20
18.73130086766625
 30
0.0
 10
8.933024412949194
 20
18.72087309423991
 30
0.0
 10
8.853850827229309
 20
18.69392155048936
 30
0.0
 10
8.735008956147823
 20
18.65768694996283
 30
0.0
 10
8.605526372159062
 20
18.61899074144701
 30
0.0
 10
8.525702422024608
 20
18.5925506730894
 30
0.0
 10
8.490155338799894
 20
18.57876316015447
 30
0.0
  0
ARC
  5
184
330
1F
100
AcDbEntity
  8
Default
100
AcDbCircle
 10
10.28344622463551
 20
27.12325108642639
 30
0.0
 40
2.353801611526019
100
AcDbArc
 50
262.9222308795589
 51
269.1936337601091
  0
ARC
  5
185
330
1F
100
AcDbEntity
  8
Default
100
AcDbCircle
 10
10.17860002671199
 20
26.27882439645194
 30
0.0
 40
1.502890828917044
100
AcDbArc
 50
255.4516951652928
 51
262.922230879559
  0
ARC
  5
186
330
1F
100
AcDbEntity
  8
Default
100
AcDbCircle
 10
9.817131663288635
 20
24.88597529726879
 30
0.0
 40
0.0639022984376421
100
AcDbArc
 50
223.6084328209458
 51
255.4516951652861
  0
ARC
  5
187
330
1F
100
AcDbEntity
  8
Default
100
AcDbCircle
 10
10.61564942019127
 20
25.30073734823764
 30
0.0
 40
0.7354863071975444
100
AcDbArc
 50
93.65933568834633
 51
147.9304215371449
  0
SPLINE
  5
188
330
1F
100
AcDbEntity
  8
Default
100
AcDbSpline
210
0.0
220
0.0
230
1.0
 70
     8
 71
     3
 72
    10
 73
     6
 74
     0
 42
0.000000001
 43
0.0000000001
 40
0.0
 40
0.0
 40
0.0
 40
0.0
 40
0.5
 40
0.5
 40
1.0
 40
1.0
 40
1.0
 40
1.0
 10
9.77111749728175
 20
24.8418778513236
 30
0.0
 10
9.784385603650435
 20
24.99353303401833
 30
0.0
 10
9.803842016454183
 20
25.14430799128716
 30
0.0
 10
9.871033028560333
 20
25.43487981158653
 30
0.0
 10
9.91912070745633
 20
25.57429507305909
 30
0.0
 10
9.992395417405248
 20
25.69124286175349
 30
0.0
  0
ARC
  5
189
330
1F
100
AcDbEntity
  8
Default
100
AcDbCircle
 10
7.270347862871787
 20
26.31617284815799
 30
0.0
 40
3.256001412851308
100
AcDbArc
 50
349.5126419037043
 51
353.5471134275429
  0
ARC
  5
18A
330
1F
100
AcDbEntity
  8
Default
100
AcDbCircle
 10
10.60963288592249
 20
25.93849060457771
 30
0.0
 40
0.1045741840199478
100
AcDbArc
 50
113.0385682416684
 51
173.5471134275435
  0
ARC
  5
18B
330
1F
100
AcDbEntity
  8
Default
100
AcDbCircle
 10
10.81438953093786
 20
25.31447734514056
 30
0.0
 40
0.7609960427293031
100
AcDbArc
 50
105.8521704814199
 51
108.8349112250722
  0
ARC
  5
18C
330
1F
100
AcDbEntity
  8
Default
100
AcDbCircle
 10
11.33982424028815
 20
23.23511814438412
 30
0.0
 40
2.905475431119625
100
AcDbArc
 50
72.60665771471761
 51
104.6188347018748
  0
SPLINE
  5
18D
330
1F
100
AcDbEntity
  8
Default
100
AcDbSpline
210
0.0
220
0.0
230
1.0
 70
    12
 71
     2
 72
     6
 73
     3
 74
     0
 42
0.000000001
 43
0.0000000001
 40
0.0
 40
0.0
 40
0.0
 40
0.1073900742411466
 40
0.1073900742411466
 40
0.1073900742411466
 10
12.27499507588064
 20
25.91744581401214
 30
0.0
 41
1.0
 10
12.2691797098473
 20
25.97640409635152
 30
0.0
 41
0.865241143951794
 10
12.20835774484384
 20
26.00774091575133
 30
0.0
 41
1.0
  0
ARC
  5
18E
330
1F
100
AcDbEntity
  8
Default
100
AcDbCircle
 10
12.08106740617339
 20
25.93055013613716
 30
0.0
 40
0.1943699162330441
100
AcDbArc
 50
280.3137129265502
 51
356.1342149605122
  0
ARC
  5
18F
330
1F
100
AcDbEntity
  8
Default
100
AcDbCircle
 10
12.5555799169102
 20
24.28522364046242
 30
0.0
 40
1.519126744526567
100
AcDbArc
 50
106.8250995181373
 51
110.0353492196262
  0
SPLINE
  5
190
330
1F
100
AcDbEntity
  8
Default
100
AcDbSpline
210
0.0
220
0.0
230
1.0
 70
     8
 71
     3
 72
    13
 73
     9
 74
     0
 42
0.000000001
 43
0.0000000001
 40
0.0
 40
0.0
 40
0.0
 40
0.0
 40
0.1215524254212188
 40
0.2682851584007822
 40
0.5989396312704103
 40
0.8352338861430512
 40
1.016787265075951
 40
1.399920461272727
 40
1.399920461272727
 40
1.399920461272727
 40
1.399920461272727
 10
10.92614184254244
 20
24.94357949288699
 30
0.0
 10
10.93663883287844
 20
24.98281597106653
 30
0.0
 10
10.97370862281093
 20
25.06466244409767
 30
0.0
 10
11.09043705997236
 20
25.2279960578042
 30
0.0
 10
11.27114005986101
 20
25.38522249692917
 30
0.0
 10
11.48714871701182
 20
25.51248529208695
 30
0.0
 10
11.74136938185268
 20
25.59676883772303
 30
0.0
 10
11.91603021852842
 20
25.6659156200366
 30
0.0
 10
12.03512735065016
 20
25.71241500541991
 30
0.0
  0
LINE
  5
191
330
1F
100
AcDbEntity
  8
Default
100
AcDbLine
 10
10.3584419075634
 20
25.27807136335876
 30
0.0
 11
10.31292866115407
 21
25.06462510183327
 31
0.0
  0
ARC
  5
192
330
1F
100
AcDbEntity
  8
Default
100
AcDbCircle
 10
16.05939243578881
 20
24.06245500960254
 30
0.0
 40
5.82911314393477
100
AcDbArc
 50
163.4435318637235
 51
167.9630621258869
  0
SPLINE
  5
193
330
1F
100
AcDbEntity
  8
Default
100
AcDbSpline
210
0.0
220
0.0
230
1.0
 70
    12
 71
     2
 72
     8
 73
     5
 74
     0
 42
0.000000001
 43
0.0000000001
 40
0.0
 40
0.0
 40
0.0
 40
1.570796326794897
 40
1.570796326794897
 40
3.141592653589793
 40
3.141592653589793
 40
3.141592653589793
 10
10.31292866115407
 20
25.06462510183327
 30
0.0
 41
1.0
 10
10.33442277511749
 20
25.16742171789379
 30
0.0
 41
0.7071067811865475
 10
10.64030905886104
 20
25.10346285529117
 30
0.0
 41
1.0
 10
10.94619534260458
 20
25.03950399268856
 30
0.0
 41
0.7071067811865475
 10
10.92470122864117
 20
24.93670737662804
 30
0.0
 41
1.0
  0
SPLINE
  5
194
330
1F
100
AcDbEntity
  8
Default
100
AcDbSpline
210
0.0
220
0.0
230
1.0
 70
    24
 71
     2
 72
     6
 73
     3
 74
     0
 42
0.000000001
 43
0.0000000001
 40
0.0
 40
0.0
 40
0.0
 40
1.580120758892414
 40
1.580120758892414
 40
1.580120758892414
 10
9.905402490627282
 20
19.20863155887188
 30
0.0
 10
9.97432727730503
 20
19.99644738789709
 30
0.0
 10
10.04325206398278
 20
20.7842632169223
 30
0.0
  0
SPLINE
  5
195
330
1F
100
AcDbEntity
  8
Default
100
AcDbSpline
210
0.0
220
0.0
230
1.0
 70
    12
 71
     2
 72
     6
 73
     3
 74
     0
 42
0.000000001
 43
0.0000000001
 40
0.0
 40
0.0
 40
0.0
 40
0.7845548068872384
 40
0.7845548068872384
 40
0.7845548068872384
 10
9.880821768327024
 20
18.42333877278221
 30
0.0
 41
0.9999999999770188
 10
9.871223875064523
 20
18.81590397431221
 30
0.0
 41
0.9984532324039012
 10
9.905402490627282
 20
19.20863155887188
 30
0.0
 41
1.0
  0
ARC
  5
196
330
1F
100
AcDbEntity
  8
Default
100
AcDbCircle
 10
25.49732361681814
 20
18.44778037324145
 30
0.0
 40
15.61652097542085
100
AcDbArc
 50
180.0896743343024
 51
181.4018937363882
  0
LINE
  5
197
330
1F
100
AcDbEntity
  8
Default
100
AcDbLine
 10
10.31964400912094
 20
0.3247338139145919
 30
0.0
 11
9.885476951839422
 21
18.06571874869336
 31
0.0
  0
SPLINE
  5
198
330
1F
100
AcDbEntity
  8
Default
100
AcDbSpline
210
0.0
220
0.0
230
1.0
 70
    24
 71
     2
 72
     6
 73
     3
 74
     0
 42
0.000000001
 43
0.0000000001
 40
0.0
 40
0.0
 40
0.0
 40
6.615086013029089
 40
6.615086013029089
 40
6.615086013029089
 10
9.551107042379698
 20
18.46580311437521
 30
0.0
 10
10.23790413551043
 20
21.70125524550162
 30
0.0
 10
10.92470122864115
 20
24.93670737662804
 30
0.0
  0
SPLINE
  5
199
330
1F
100
AcDbEntity
  8
Default
100
AcDbSpline
210
0.0
220
0.0
230
1.0
 70
    12
 71
     2
 72
     6
 73
     3
 74
     0
 42
0.000000001
 43
0.0000000001
 40
0.0
 40
0.0
 40
0.0
 40
0.857612335746838
 40
0.857612335746838
 40
0.857612335746838
 10
9.464973314031681
 20
17.58764437370501
 30
0.0
 41
1.0
 10
9.44932961047307
 20
18.03542992325737
 30
0.0
 41
0.9926609123800593
 10
9.551107042379698
 20
18.46580311437521
 30
0.0
 41
1.0
  0
LINE
  5
19A
330
1F
100
AcDbEntity
  8
Default
100
AcDbLine
 10
10.06792682199236
 20
0.3286962668761078
 30
0.0
 11
9.464973314031681
 21
17.58764437370501
 31
0.0
  0
SPLINE
  5
19B
330
1F
100
AcDbEntity
  8
Default
100
AcDbSpline
210
0.0
220
0.0
230
1.0
 70
    12
 71
     2
 72
     6
 73
     3
 74
     0
 42
0.000000001
 43
0.0000000001
 40
0.4982893859750203
 40
0.4982893859750203
 40
0.4982893859750203
 40
0.9977042369899497
 40
0.9977042369899497
 40
0.9977042369899497
 10
8.465493041621945
 20
18.26023435030424
 30
0.0
 41
0.9999563209598255
 10
8.691318611065782
 20
18.36681309137816
 30
0.0
 41
0.999950903605179
 10
8.9159044562854
 20
18.47598000024033
 30
0.0
 41
0.9999785036443274
  0
SPLINE
  5
19C
330
1F
100
AcDbEntity
  8
Default
100
AcDbSpline
210
0.0
220
0.0
230
1.0
 70
     8
 71
     3
 72
    13
 73
     9
 74
     0
 42
0.000000001
 43
0.0000000001
 40
-11.91967701549755
 40
-11.91967701549755
 40
-11.91967701549755
 40
-11.91967701549755
 40
-8.329327274556412
 40
-4.522153002375717
 40
-3.809294555456245
 40
-2.42112832591297
 40
-1.528295460971046
 40
-1.33574264862247
 40
-1.33574264862247
 40
-1.33574264862247
 40
-1.33574264862247
 10
7.83102149844936
 20
30.00032584311353
 30
0.0
 10
7.988235449829119
 20
28.81391295313195
 30
0.0
 10
8.301914822587719
 20
26.36809657121227
 30
0.0
 10
8.659907464165883
 20
23.68840876106659
 30
0.0
 10
8.915081204167933
 20
21.73569377086168
 30
0.0
 10
9.032477718758997
 20
20.74443244317676
 30
0.0
 10
9.110991613389388
 20
19.92382627498757
 30
0.0
 10
9.12904704059838
 20
19.56219263955959
 30
0.0
 10
9.131293466428815
 20
19.49802596036001
 30
0.0
  0
ARC
  5
19D
330
1F
100
AcDbEntity
  8
Default
100
AcDbCircle
 10
63.87809637796292
 20
37.42723613673216
 30
0.0
 40
56.53701087835524
100
AcDbArc
 50
185.4100560170278
 51
187.5484017682242
  0
SPLINE
  5
19E
330
1F
100
AcDbEntity
  8
Default
100
AcDbSpline
210
0.0
220
0.0
230
1.0
 70
     8
 71
     3
 72
     8
 73
     4
 74
     0
 42
0.000000001
 43
0.0000000001
 40
-0.1251496809192857
 40
-0.1251496809192857
 40
-0.1251496809192857
 40
-0.1251496809192857
 40
0.0
 40
0.0
 40
0.0
 40
0.0
 10
8.927985253696292
 20
18.53857830237465
 30
0.0
 10
8.888569892504478
 20
18.52556177960609
 30
0.0
 10
8.849351996304463
 20
18.51234078079736
 30
0.0
 10
8.80869679265777
 20
18.5011423970385
 30
0.0
  0
SPLINE
  5
19F
330
1F
100
AcDbEntity
  8
Default
100
AcDbSpline
210
0.0
220
0.0
230
1.0
 70
     8
 71
     3
 72
    15
 73
    11
 74
     0
 42
0.000000001
 43
0.0000000001
 40
-1.0
 40
-1.0
 40
-1.0
 40
-1.0
 40
-0.5000111345053615
 40
-0.5000111345053615
 40
0.0
 40
0.0
 40
0.0
 40
0.5448713905517074
 40
0.5448713905517074
 40
0.9557761775598442
 40
0.9557761775598442
 40
0.9557761775598442
 40
0.9557761775598442
 10
8.89630165207906
 20
18.3633620283545
 30
0.0
 10
8.910415259928797
 20
18.36480902906981
 30
0.0
 10
8.952515155792199
 20
18.34797837527774
 30
0.0
 10
9.054826242472856
 20
18.26147018502972
 30
0.0
 10
9.120003755522688
 20
18.19460562731228
 30
0.0
 10
9.179185054036878
 20
18.12463620477324
 30
0.0
 10
9.086116257227857
 20
18.04848123627631
 30
0.0
 10
8.992530067546824
 20
17.95158840854144
 30
0.0
 10
8.876446888051248
 20
17.79886308957301
 30
0.0
 10
8.837030045344491
 20
17.73208454768028
 30
0.0
 10
8.838534499184803
 20
17.71983322481017
 30
0.0
  0
ARC
  5
1A0
330
1F
100
AcDbEntity
  8
Default
100
AcDbCircle
 10
13.69697995866397
 20
17.58574885815208
 30
0.0
 40
4.863249371129066
100
AcDbArc
 50
168.015579993477
 51
170.7991516097465
  0
LINE
  5
1A1
330
1F
100
AcDbEntity
  8
Default
100
AcDbLine
 10
10.31292866115407
 20
25.06462510183327
 30
0.0
 11
8.939729482698155
 21
18.5955816931848
 31
0.0
  0
LINE
  5
1A2
330
1F
100
AcDbEntity
  8
Default
100
AcDbLine
 10
9.446564502810702
 20
0.3081572913477295
 30
0.0
 11
8.838534499184803
 21
17.71983322481017
 31
0.0
  0
POLYLINE
  5
1A3
330
1F
100
AcDbEntity
  8
Default
100
AcDb2dPolyline
 66
     1
 10
0.0
 20
0.0
 30
0.0
  0
VERTEX
  5
1A4
330
1A3
100
AcDbEntity
  8
Default
100
AcDbVertex
100
AcDb2dVertex
 10
5.356780320997927
 20
17.78343909776126
 30
0.0
  0
VERTEX
  5
1A5
330
1A3
100
AcDbEntity
  8
Default
100
AcDbVertex
100
AcDb2dVertex
 10
5.356780320997927
 20
17.79079571113898
 30
0.0
  0
SEQEND
  5
1A6
330
1A3
100
AcDbEntity
  8
Default
  0
SPLINE
  5
1A7
330
1F
100
AcDbEntity
  8
Default
100
AcDbSpline
210
0.0
220
0.0
230
1.0
 70
    12
 71
     2
 72
     6
 73
     3
 74
     0
 42
0.000000001
 43
0.0000000001
 40
0.0
 40
0.0
 40
0.0
 40
1.950461626167058
 40
1.950461626167058
 40
1.950461626167058
 10
5.407923649772357
 20
16.48845850733777
 30
0.0
 41
1.0
 10
6.329570575079289
 20
16.82076667410762
 30
0.0
 41
0.9931328539509889
 10
7.148767231259569
 20
17.35814792716049
 30
0.0
 41
1.0
  0
SPLINE
  5
1A8
330
1F
100
AcDbEntity
  8
Default
100
AcDbSpline
210
0.0
220
0.0
230
1.0
 70
    12
 71
     2
 72
     6
 73
     3
 74
     0
 42
0.000000001
 43
0.0000000001
 40
0.0
 40
0.0
 40
0.0
 40
0.2685493329288811
 40
0.2685493329288811
 40
0.2685493329288811
 10
5.182181279832605
 20
16.56459517046469
 30
0.0
 41
1.0
 10
5.070937897012056
 20
16.48396405721745
 30
0.0
 41
0.9663145264801982
 10
4.934326157478125
 20
16.46934560085703
 30
0.0
 41
1.0
  0
SPLINE
  5
1A9
330
1F
100
AcDbEntity
  8
Default
100
AcDbSpline
210
0.0
220
0.0
230
1.0
 70
    12
 71
     2
 72
     6
 73
     3
 74
     0
 42
0.000000001
 43
0.0000000001
 40
0.0
 40
0.0
 40
0.0
 40
0.0433830346394287
 40
0.0433830346394287
 40
0.0433830346394287
 10
5.187462157481463
 20
16.52153474864323
 30
0.0
 41
1.0
 10
5.184830242905772
 20
16.54306600495743
 30
0.0
 41
0.9999999216235457
 10
5.182181279832605
 20
16.56459517046469
 30
0.0
 41
1.0
  0
SPLINE
  5
1AA
330
1F
100
AcDbEntity
  8
Default
100
AcDbSpline
210
0.0
220
0.0
230
1.0
 70
    12
 71
     2
 72
     6
 73
     3
 74
     0
 42
0.000000001
 43
0.0000000001
 40
0.0
 40
0.0
 40
0.0
 40
0.2673757701681636
 40
0.2673757701681636
 40
0.2673757701681636
 10
4.941663170062128
 20
16.42442920449744
 30
0.0
 41
1.0
 10
5.077677133784767
 20
16.43978589618082
 30
0.0
 41
0.96540295015036
 10
5.187462157481463
 20
16.52153474864323
 30
0.0
 41
1.0
  0
SPLINE
  5
1AB
330
1F
100
AcDbEntity
  8
Default
100
AcDbSpline
210
0.0
220
0.0
230
1.0
 70
    12
 71
     2
 72
     6
 73
     3
 74
     0
 42
0.000000001
 43
0.0000000001
 40
0.0
 40
0.0
 40
0.0
 40
0.5500319223454894
 40
0.5500319223454894
 40
0.5500319223454894
 10
4.394047290193527
 20
16.37312140639667
 30
0.0
 41
1.0
 10
4.668211748927896
 20
16.39497012643684
 30
0.0
 41
0.9999034471246364
 10
4.941663170062128
 20
16.42442920449744
 30
0.0
 41
1.0
  0
SPLINE
  5
1AC
330
1F
100
AcDbEntity
  8
Default
100
AcDbSpline
210
0.0
220
0.0
230
1.0
 70
    12
 71
     2
 72
     6
 73
     3
 74
     0
 42
0.000000001
 43
0.0000000001
 40
0.0
 40
0.0
 40
0.0
 40
0.0609623479842182
 40
0.0609623479842182
 40
0.0609623479842182
 10
4.333614741776245
 20
16.37657089430549
 30
0.0
 41
1.0
 10
4.363470097370735
 20
16.36852311568601
 30
0.0
 41
0.9787990801203377
 10
4.394047290193527
 20
16.37312140639667
 30
0.0
 41
1.0
  0
SPLINE
  5
1AD
330
1F
100
AcDbEntity
  8
Default
100
AcDbSpline
210
0.0
220
0.0
230
1.0
 70
    12
 71
     2
 72
     6
 73
     3
 74
     0
 42
0.000000001
 43
0.0000000001
 40
0.0
 40
0.0
 40
0.0
 40
0.0314878321421101
 40
0.0314878321421101
 40
0.0314878321421101
 10
4.331311691760135
 20
16.4096200411586
 30
0.0
 41
1.0
 10
4.331596121882541
 20
16.39218486536274
 30
0.0
 41
0.999999923751877
 10
4.333614741776245
 20
16.37657089430549
 30
0.0
 41
1.0
  0
SPLINE
  5
1AE
330
1F
100
AcDbEntity
  8
Default
100
AcDbSpline
210
0.0
220
0.0
230
1.0
 70
    12
 71
     2
 72
     6
 73
     3
 74
     0
 42
0.000000001
 43
0.0000000001
 40
0.0
 40
0.0
 40
0.0
 40
0.0556651977850032
 40
0.0556651977850032
 40
0.0556651977850032
 10
4.387905267072654
 20
16.42033380983474
 30
0.0
 41
1.0
 10
4.360013596237766
 20
16.4187758066183
 30
0.0
 41
0.994502455536999
 10
4.331311691760135
 20
16.4096200411586
 30
0.0
 41
1.0
  0
SPLINE
  5
1AF
330
1F
100
AcDbEntity
  8
Default
100
AcDbSpline
210
0.0
220
0.0
230
1.0
 70
    12
 71
     2
 72
     6
 73
     3
 74
     0
 42
0.000000001
 43
0.0000000001
 40
0.0
 40
0.0
 40
0.0
 40
0.5486298575330966
 40
0.5486298575330966
 40
0.5486298575330966
 10
4.934326157478125
 20
16.46934560085703
 30
0.0
 41
1.0
 10
4.661432609073846
 20
16.44130669773332
 30
0.0
 41
0.9999163992662642
 10
4.387905267072654
 20
16.42033380983474
 30
0.0
 41
1.0
  0
SPLINE
  5
1B0
330
1F
100
AcDbEntity
  8
Default
100
AcDbSpline
210
0.0
220
0.0
230
1.0
 70
     8
 71
     3
 72
    12
 73
     8
 74
     0
 42
0.000000001
 43
0.0000000001
 40
0.0
 40
0.0
 40
0.0
 40
0.0
 40
0.1314998467573677
 40
0.8179331223926242
 40
0.9244197278151636
 40
0.9535125333836083
 40
0.9664940845669292
 40
0.9664940845669292
 40
0.9664940845669292
 40
0.9664940845669292
 10
3.873418531710968
 20
17.05602377628327
 30
0.0
 10
3.876635253982812
 20
17.01438081498326
 30
0.0
 10
3.938417880616981
 20
16.56958197153733
 30
0.0
 10
3.985939796695419
 20
16.27806254305002
 30
0.0
 10
4.022747180012203
 20
16.00644058203428
 30
0.0
 10
4.027404427785001
 20
15.95716323926215
 30
0.0
 10
4.0279459605851
 20
15.9430989301624
 30
0.0
 10
4.027063198976833
 20
15.93884835796116
 30
0.0
  0
POLYLINE
  5
1B1
330
1F
100
AcDbEntity
  8
Default
100
AcDb2dPolyline
 66
     1
 10
0.0
 20
0.0
 30
0.0
  0
VERTEX
  5
1B2
330
1B1
100
AcDbEntity
  8
Default
100
AcDbVertex
100
AcDb2dVertex
 10
3.913538516137692
 20
16.85961503244477
 30
0.0
  0
VERTEX
  5
1B3
330
1B1
100
AcDbEntity
  8
Default
100
AcDbVertex
100
AcDb2dVertex
 10
3.873418531710968
 20
17.05602377628327
 30
0.0
  0
SEQEND
  5
1B4
330
1B1
100
AcDbEntity
  8
Default
  0
SPLINE
  5
1B5
330
1F
100
AcDbEntity
  8
Default
100
AcDbSpline
210
0.0
220
0.0
230
1.0
 70
    12
 71
     2
 72
     6
 73
     3
 74
     0
 42
0.000000001
 43
0.0000000001
 40
-0.1976412617261341
 40
-0.1976412617261341
 40
-0.1976412617261341
 40
0.0
 40
0.0
 40
0.0
 10
4.065440347781845
 20
16.7563301600476
 30
0.0
 41
1.0
 10
3.949584367447929
 20
16.74928392059127
 30
0.0
 41
0.7912883703176437
 10
3.913538516137692
 20
16.85961503244477
 30
0.0
 41
1.0
  0
SPLINE
  5
1B6
330
1F
100
AcDbEntity
  8
Default
100
AcDbSpline
210
0.0
220
0.0
230
1.0
 70
    12
 71
     2
 72
     6
 73
     3
 74
     0
 42
0.000000001
 43
0.0000000001
 40
-0.7907644686086126
 40
-0.7907644686086126
 40
-0.7907644686086126
 40
0.0
 40
0.0
 40
0.0
 10
4.854322754094312
 20
16.81076020571367
 30
0.0
 41
1.0
 10
4.460073462271226
 20
16.78076371441524
 30
0.0
 41
0.9999751379154269
 10
4.065440347781845
 20
16.7563301600476
 30
0.0
 41
1.0
  0
SPLINE
  5
1B7
330
1F
100
AcDbEntity
  8
Default
100
AcDbSpline
210
0.0
220
0.0
230
1.0
 70
    12
 71
     2
 72
     6
 73
     3
 74
     0
 42
0.000000001
 43
0.0000000001
 40
-0.4857429286577369
 40
-0.4857429286577369
 40
-0.4857429286577369
 40
0.0
 40
0.0
 40
0.0
 10
5.249607197209485
 20
17.05953453064623
 30
0.0
 41
1.0
 10
5.117431479992437
 20
16.83097849286654
 30
0.0
 41
0.8847262971728665
 10
4.854322754094312
 20
16.81076020571367
 30
0.0
 41
1.0
  0
SPLINE
  5
1B8
330
1F
100
AcDbEntity
  8
Default
100
AcDbSpline
210
0.0
220
0.0
230
1.0
 70
    12
 71
     2
 72
     6
 73
     3
 74
     0
 42
0.000000001
 43
0.0000000001
 40
-0.1030086613417345
 40
-0.1030086613417345
 40
-0.1030086613417345
 40
0.0
 40
0.0
 40
0.0
 10
5.291969430251243
 20
17.1534448726199
 30
0.0
 41
1.0
 10
5.274820134298043
 20
17.10474742471106
 30
0.0
 41
0.9963857408822986
 10
5.249607197209485
 20
17.05953453064623
 30
0.0
 41
1.0
  0
SPLINE
  5
1B9
330
1F
100
AcDbEntity
  8
Default
100
AcDbSpline
210
0.0
220
0.0
230
1.0
 70
    12
 71
     2
 72
     6
 73
     3
 74
     0
 42
0.000000001
 43
0.0000000001
 40
0.0
 40
0.0
 40
0.0
 40
0.255138279393215
 40
0.255138279393215
 40
0.255138279393215
 10
5.217672468291283
 20
16.24963983075545
 30
0.0
 41
1.0
 10
5.115096074211233
 20
16.16935346819521
 30
0.0
 41
0.9692933544879403
 10
4.986651829617813
 20
16.14767646041176
 30
0.0
 41
1.0
  0
SPLINE
  5
1BA
330
1F
100
AcDbEntity
  8
Default
100
AcDbSpline
210
0.0
220
0.0
230
1.0
 70
    12
 71
     2
 72
     6
 73
     3
 74
     0
 42
0.000000001
 43
0.0000000001
 40
0.0
 40
0.0
 40
0.0
 40
0.0340967881267165
 40
0.0340967881267165
 40
0.0340967881267165
 10
5.220234420423054
 20
16.21563947913932
 30
0.0
 41
1.0
 10
5.219004181466839
 20
16.23264347802685
 30
0.0
 41
0.9999955463947131
 10
5.217672468291283
 20
16.24963983075545
 30
0.0
 41
1.0
  0
SPLINE
  5
1BB
330
1F
100
AcDbEntity
  8
Default
100
AcDbSpline
210
0.0
220
0.0
230
1.0
 70
    12
 71
     2
 72
     6
 73
     3
 74
     0
 42
0.000000001
 43
0.0000000001
 40
0.0
 40
0.0
 40
0.0
 40
0.2524827425738361
 40
0.2524827425738361
 40
0.2524827425738361
 10
4.99288384530422
 20
16.11194099467138
 30
0.0
 41
1.0
 10
5.119739215914906
 20
16.13489396636492
 30
0.0
 41
0.9691771351868905
 10
5.220234420423054
 20
16.21563947913932
 30
0.0
 41
1.0
  0
SPLINE
  5
1BC
330
1F
100
AcDbEntity
  8
Default
100
AcDbSpline
210
0.0
220
0.0
230
1.0
 70
    12
 71
     2
 72
     6
 73
     3
 74
     0
 42
0.000000001
 43
0.0000000001
 40
0.0
 40
0.0
 40
0.0
 40
0.5596462079793444
 40
0.5596462079793444
 40
0.5596462079793444
 10
4.439946448597425
 20
16.02579040251694
 30
0.0
 41
1.0
 10
4.717281200297811
 20
16.06330713804195
 30
0.0
 41
0.9997979442994098
 10
4.99288384530422
 20
16.11194099467138
 30
0.0
 41
1.0
  0
SPLINE
  5
1BD
330
1F
100
AcDbEntity
  8
Default
100
AcDbSpline
210
0.0
220
0.0
230
1.0
 70
    12
 71
     2
 72
     6
 73
     3
 74
     0
 42
0.000000001
 43
0.0000000001
 40
0.0
 40
0.0
 40
0.0
 40
0.0605286278463647
 40
0.0605286278463647
 40
0.0605286278463647
 10
4.379753860286144
 20
16.02468592874529
 30
0.0
 41
1.0
 10
4.409950578813561
 20
16.01976514940951
 30
0.0
 41
0.9838643704755842
 10
4.439946448597425
 20
16.02579040251694
 30
0.0
 41
1.0
  0
SPLINE
  5
1BE
330
1F
100
AcDbEntity
  8
Default
100
AcDbSpline
210
0.0
220
0.0
230
1.0
 70
    12
 71
     2
 72
     6
 73
     3
 74
     0
 42
0.000000001
 43
0.0000000001
 40
0.0
 40
0.0
 40
0.0
 40
0.0283372933773131
 40
0.0283372933773131
 40
0.0283372933773131
 10
4.377453778404231
 20
16.05438314719917
 30
0.0
 41
1.0
 10
4.377793716531222
 20
16.03871834230278
 30
0.0
 41
0.9999990854309546
 10
4.379753860286144
 20
16.02468592874529
 30
0.0
 41
1.0
  0
SPLINE
  5
1BF
330
1F
100
AcDbEntity
  8
Default
100
AcDbSpline
210
0.0
220
0.0
230
1.0
 70
    12
 71
     2
 72
     6
 73
     3
 74
     0
 42
0.000000001
 43
0.0000000001
 40
0.0
 40
0.0
 40
0.0
 40
0.0561738830643892
 40
0.0561738830643892
 40
0.0561738830643892
 10
4.434029082668417
 20
16.06737666189699
 30
0.0
 41
1.0
 10
4.405996624828227
 20
16.06447410838944
 30
0.0
 41
0.9949308899116455
 10
4.377453778404231
 20
16.05438314719917
 30
0.0
 41
1.0
  0
SPLINE
  5
1C0
330
1F
100
AcDbEntity
  8
Default
100
AcDbSpline
210
0.0
220
0.0
230
1.0
 70
    12
 71
     2
 72
     6
 73
     3
 74
     0
 42
0.000000001
 43
0.0000000001
 40
0.0
 40
0.0
 40
0.0
 40
0.5584599709629063
 40
0.5584599709629063
 40
0.5584599709629063
 10
4.986651829617813
 20
16.14767646041176
 30
0.0
 41
1.0
 10
4.711103941083452
 20
16.10227226222957
 30
0.0
 41
0.9998192475167311
 10
4.434029082668417
 20
16.06737666189699
 30
0.0
 41
1.0
  0
SPLINE
  5
1C1
330
1F
100
AcDbEntity
  8
Default
100
AcDbSpline
210
0.0
220
0.0
230
1.0
 70
    12
 71
     2
 72
     6
 73
     3
 74
     0
 42
0.000000001
 43
0.0000000001
 40
0.0
 40
0.0
 40
0.0
 40
0.2797647164684515
 40
0.2797647164684515
 40
0.2797647164684515
 10
5.14406608261001
 20
16.85458701584048
 30
0.0
 41
1.0
 10
5.026922014464306
 20
16.770313829021
 30
0.0
 41
0.9633487021761659
 10
4.883969127909893
 20
16.7586746168515
 30
0.0
 41
1.0
  0
SPLINE
  5
1C2
330
1F
100
AcDbEntity
  8
Default
100
AcDbSpline
210
0.0
220
0.0
230
1.0
 70
    12
 71
     2
 72
     6
 73
     3
 74
     0
 42
0.000000001
 43
0.0000000001
 40
0.0
 40
0.0
 40
0.0
 40
0.0315606653918514
 40
0.0315606653918514
 40
0.0315606653918514
 10
5.147145143161737
 20
16.82353534528367
 30
0.0
 41
1.0
 10
5.145995534657986
 20
16.83908930761325
 30
0.0
 41
0.9999996186824177
 10
5.144066082610003
 20
16.85458701584048
 30
0.0
 41
0.9999999911101315
  0
SPLINE
  5
1C3
330
1F
100
AcDbEntity
  8
Default
100
AcDbSpline
210
0.0
220
0.0
230
1.0
 70
    12
 71
     2
 72
     6
 73
     3
 74
     0
 42
0.000000001
 43
0.0000000001
 40
0.0
 40
0.0
 40
0.0
 40
0.2775120725341504
 40
0.2775120725341504
 40
0.2775120725341504
 10
4.890275597577869
 20
16.72827264023265
 30
0.0
 41
1.0
 10
5.032275791346902
 20
16.73932573770886
 30
0.0
 41
0.9617558144384456
 10
5.147145143161737
 20
16.82353534528367
 30
0.0
 41
1.0
  0
SPLINE
  5
1C4
330
1F
100
AcDbEntity
  8
Default
100
AcDbSpline
210
0.0
220
0.0
230
1.0
 70
    12
 71
     2
 72
     6
 73
     3
 74
     0
 42
0.000000001
 43
0.0000000001
 40
0.0
 40
0.0
 40
0.0
 40
0.5418730968609387
 40
0.5418730968609387
 40
0.5418730968609387
 10
4.349729878125629
 20
16.6904340362051
 30
0.0
 41
1.0
 10
4.620138212056423
 20
16.70741801308444
 30
0.0
 41
0.999974363643424
 10
4.890275597577869
 20
16.72827264023265
 30
0.0
 41
1.0
  0
SPLINE
  5
1C5
330
1F
100
AcDbEntity
  8
Default
100
AcDbSpline
210
0.0
220
0.0
230
1.0
 70
    12
 71
     2
 72
     6
 73
     3
 74
     0
 42
0.000000001
 43
0.0000000001
 40
0.0
 40
0.0
 40
0.0
 40
0.0605645191202352
 40
0.0605645191202352
 40
0.0605645191202352
 10
4.289386849734797
 20
16.69218461349737
 30
0.0
 41
1.0
 10
4.319435506993416
 20
16.68707440208642
 30
0.0
 41
0.9902925121170654
 10
4.349729878125629
 20
16.6904340362051
 30
0.0
 41
1.0
  0
SPLINE
  5
1C6
330
1F
100
AcDbEntity
  8
Default
100
AcDbSpline
210
0.0
220
0.0
230
1.0
 70
    12
 71
     2
 72
     6
 73
     3
 74
     0
 42
0.000000001
 43
0.0000000001
 40
0.0
 40
0.0
 40
0.0
 40
0.0203768763467583
 40
0.0203768763467583
 40
0.0203768763467583
 10
4.285906966426808
 20
16.71226204654465
 30
0.0
 41
1.0
 10
4.287702103706678
 20
16.70223289669901
 30
0.0
 41
0.9999848848277485
 10
4.289386849734797
 20
16.69218461349737
 30
0.0
 41
1.0
  0
SPLINE
  5
1C7
330
1F
100
AcDbEntity
  8
Default
100
AcDbSpline
210
0.0
220
0.0
230
1.0
 70
    12
 71
     2
 72
     6
 73
     3
 74
     0
 42
0.000000001
 43
0.0000000001
 40
0.0
 40
0.0
 40
0.0
 40
0.059343123790252
 40
0.059343123790252
 40
0.059343123790252
 10
4.344445247146552
 20
16.72089790051638
 30
0.0
 41
1.0
 10
4.314604346850683
 20
16.72045565782843
 30
0.0
 41
0.9913467129098419
 10
4.285906966426808
 20
16.71226204654465
 30
0.0
 41
1.0
  0
SPLINE
  5
1C8
330
1F
100
AcDbEntity
  8
Default
100
AcDbSpline
210
0.0
220
0.0
230
1.0
 70
    12
 71
     2
 72
     6
 73
     3
 74
     0
 42
0.000000001
 43
0.0000000001
 40
0.0
 40
0.0
 40
0.0
 40
0.540848380615198
 40
0.540848380615198
 40
0.540848380615198
 10
4.883969127909893
 20
16.7586746168515
 30
0.0
 41
1.0
 10
4.614326226096625
 20
16.73808615987693
 30
0.0
 41
0.9999801416098341
 10
4.344445247146552
 20
16.72089790051638
 30
0.0
 41
1.0
  0
SPLINE
  5
1C9
330
1F
100
AcDbEntity
  8
Default
100
AcDbSpline
210
0.0
220
0.0
230
1.0
 70
    12
 71
     2
 72
     6
 73
     3
 74
     0
 42
0.000000001
 43
0.0000000001
 40
0.0
 40
0.0
 40
0.0
 40
0.4726868759032517
 40
0.4726868759032517
 40
0.4726868759032517
 10
10.01458868265144
 20
0.0229842965620591
 30
0.0
 41
1.0
 10
10.30915797274395
 20
0.0298642956914073
 30
0.0
 41
0.7282303322561501
 10
10.32015013264277
 20
0.3242332268955446
 30
0.0
 41
1.0
  0
SPLINE
  5
1CA
330
1F
100
AcDbEntity
  8
Default
100
AcDbSpline
210
0.0
220
0.0
230
1.0
 70
    12
 71
     2
 72
     6
 73
     3
 74
     0
 42
0.000000001
 43
0.0000000001
 40
0.012437000183899
 40
0.012437000183899
 40
0.012437000183899
 40
0.1295677382289931
 40
0.1295677382289931
 40
0.1295677382289931
 10
9.899571300568251
 20
0.0420725534740292
 30
0.0
 41
0.9963247001003321
 10
9.955248403310607
 20
0.0216844949356332
 30
0.0
 41
0.980855500190082
 10
10.01458868265144
 20
0.0229842965620591
 30
0.0
 41
1.0
  0
POLYLINE
  5
1CB
330
1F
100
AcDbEntity
  8
Default
100
AcDb2dPolyline
 66
     1
 10
0.0
 20
0.0
 30
0.0
  0
VERTEX
  5
1CC
330
1CB
100
AcDbEntity
  8
Default
100
AcDbVertex
100
AcDb2dVertex
 10
3.939535911423377
 20
16.40398804049277
 30
0.0
  0
VERTEX
  5
1CD
330
1CB
100
AcDbEntity
  8
Default
100
AcDbVertex
100
AcDb2dVertex
 10
3.964461721202923
 20
16.40949192151389
 30
0.0
  0
SEQEND
  5
1CE
330
1CB
100
AcDbEntity
  8
Default
  0
POLYLINE
  5
1CF
330
1F
100
AcDbEntity
  8
Default
100
AcDb2dPolyline
 66
     1
 10
0.0
 20
0.0
 30
0.0
  0
VERTEX
  5
1D0
330
1CF
100
AcDbEntity
  8
Default
100
AcDbVertex
100
AcDb2dVertex
 10
4.027063198976833
 20
15.93884835796116
 30
0.0
  0
VERTEX
  5
1D1
330
1CF
100
AcDbEntity
  8
Default
100
AcDbVertex
100
AcDb2dVertex
 10
3.939535911423377
 20
16.40398804049277
 30
0.0
  0
SEQEND
  5
1D2
330
1CF
100
AcDbEntity
  8
Default
  0
SPLINE
  5
1D3
330
1F
100
AcDbEntity
  8
Default
100
AcDbSpline
210
0.0
220
0.0
230
1.0
 70
    12
 71
     2
 72
     6
 73
     3
 74
     0
 42
0.000000001
 43
0.0000000001
 40
-0.2350272866052569
 40
-0.2350272866052569
 40
-0.2350272866052569
 40
0.0
 40
0.0
 40
0.0
 10
4.202290981103744
 20
15.82000686560422
 30
0.0
 41
1.0
 10
4.055518195694545
 20
15.79219981243673
 30
0.0
 41
0.7086665120110662
 10
4.027063198976833
 20
15.93884835796116
 30
0.0
 41
1.0
  0
POLYLINE
  5
1D4
330
1F
100
AcDbEntity
  8
Default
100
AcDb2dPolyline
 66
     1
 10
0.0
 20
0.0
 30
0.0
  0
VERTEX
  5
1D5
330
1D4
100
AcDbEntity
  8
Default
100
AcDbVertex
100
AcDb2dVertex
 10
5.017271557049952
 20
16.00010158206856
 30
0.0
  0
VERTEX
  5
1D6
330
1D4
100
AcDbEntity
  8
Default
100
AcDbVertex
100
AcDb2dVertex
 10
4.202290981103744
 20
15.82000686560422
 30
0.0
  0
SEQEND
  5
1D7
330
1D4
100
AcDbEntity
  8
Default
  0
SPLINE
  5
1D8
330
1F
100
AcDbEntity
  8
Default
100
AcDbSpline
210
0.0
220
0.0
230
1.0
 70
    12
 71
     2
 72
     6
 73
     3
 74
     0
 42
0.000000001
 43
0.0000000001
 40
-0.5883891816124054
 40
-0.5883891816124054
 40
-0.5883891816124054
 40
0.0
 40
0.0
 40
0.0
 10
5.393683010923752
 20
16.41094340649066
 30
0.0
 41
1.0
 10
5.339227464969612
 20
16.08351358506071
 30
0.0
 41
0.8385194730581287
 10
5.017271557049952
 20
16.00010158206856
 30
0.0
 41
1.0
  0
SPLINE
  5
1D9
330
1F
100
AcDbEntity
  8
Default
100
AcDbSpline
210
0.0
220
0.0
230
1.0
 70
    12
 71
     2
 72
     6
 73
     3
 74
     0
 42
0.000000001
 43
0.0000000001
 40
-0.712645957621635
 40
-0.712645957621635
 40
-0.712645957621635
 40
0.0
 40
0.0
 40
0.0
 10
5.539695953740505
 20
17.12133267554248
 30
0.0
 41
1.0
 10
5.45969517230389
 20
16.77401752681432
 30
0.0
 41
0.9997284738377231
 10
5.393683010923752
 20
16.41094340649066
 30
0.0
 41
1.0
  0
SPLINE
  5
1DA
330
1F
100
AcDbEntity
  8
Default
100
AcDbSpline
210
0.0
220
0.0
230
1.0
 70
    12
 71
     2
 72
     6
 73
     3
 74
     0
 42
0.000000001
 43
0.0000000001
 40
0.0
 40
0.0
 40
0.0
 40
0.0535969945834471
 40
0.0535969945834471
 40
0.0535969945834471
 10
5.531205237067695
 20
17.17427597817044
 30
0.0
 41
1.0
 10
5.534612151506229
 20
17.14768613177349
 30
0.0
 41
0.9995120403986335
 10
5.539695953740505
 20
17.12133267554248
 30
0.0
 41
1.0
  0
SPLINE
  5
1DB
330
1F
100
AcDbEntity
  8
Default
100
AcDbSpline
210
0.0
220
0.0
230
1.0
 70
    12
 71
     2
 72
     6
 73
     3
 74
     0
 42
0.000000001
 43
0.0000000001
 40
0.0
 40
0.0
 40
0.0
 40
0.0601763261136819
 40
0.0601763261136819
 40
0.0601763261136819
 10
4.285273812849539
 20
16.77052102884153
 30
0.0
 41
1.0
 10
4.315296959391716
 20
16.77249799678875
 30
0.0
 41
0.999999855496977
 10
4.345317962973041
 20
16.77450724404379
 30
0.0
 41
1.0
  0
ARC
  5
1DC
330
1F
100
AcDbEntity
  8
Default
100
AcDbCircle
 10
9.757245662401516
 20
0.318426779111918
 30
0.0
 40
0.3108508409247763
100
AcDbArc
 50
181.8932082972623
 51
1.893208297262637
  0
ARC
  5
1DD
330
1F
100
AcDbEntity
  8
Default
100
AcDbCircle
 10
9.814356740510107
 20
-1.409345470067517
 30
0.0
 40
1.756441534916812
100
AcDbArc
 50
81.69944438902306
 51
102.0869722055004
  0
SPLINE
  5
1DE
330
1F
100
AcDbEntity
  8
Default
100
AcDbSpline
210
0.0
220
0.0
230
1.0
 70
    12
 71
     2
 72
     6
 73
     3
 74
     0
 42
0.000000001
 43
0.0000000001
 40
-1.570796326794897
 40
-1.570796326794897
 40
-1.570796326794897
 40
-0.1927952421114859
 40
-0.1927952421114859
 40
-0.1927952421114859
 10
10.32015013264277
 20
0.3242332268955446
 30
0.0
 41
1.0
 10
10.32015013264276
 20
0.2566040834990782
 30
0.0
 41
0.7430556932578992
 10
10.05750290823583
 20
0.2379666546549938
 30
0.0
 41
0.9369267180187653
  0
SPLINE
  5
1DF
330
1F
100
AcDbEntity
  8
Default
100
AcDbSpline
210
0.0
220
0.0
230
1.0
 70
    24
 71
     2
 72
     6
 73
     3
 74
     0
 42
0.000000001
 43
0.0000000001
 40
0.0
 40
0.0
 40
0.0
 40
3.980314750651151
 40
3.980314750651151
 40
3.980314750651151
 10
9.770861903370303
 20
24.84190021289324
 30
0.0
 10
9.597408259139222
 20
22.85931598722571
 30
0.0
 10
9.42395461490814
 20
20.87673176155817
 30
0.0
  0
ARC
  5
1E0
330
1F
100
AcDbEntity
  8
Default
100
AcDbCircle
 10
-10.26327374329416
 20
27.12325108642639
 30
0.0
 40
2.353801611526019
100
AcDbArc
 50
270.8063662398909
 51
277.0777691204411
  0
ARC
  5
1E1
330
1F
100
AcDbEntity
  8
Default
100
AcDbCircle
 10
-10.15842754537064
 20
26.27882439645194
 30
0.0
 40
1.502890828917044
100
AcDbArc
 50
277.077769120441
 51
284.5483048347072
  0
ARC
  5
1E2
330
1F
100
AcDbEntity
  8
Default
100
AcDbCircle
 10
-9.796959181947287
 20
24.88597529726879
 30
0.0
 40
0.0639022984376421
100
AcDbArc
 50
284.5483048347139
 51
316.3915671790543
  0
ARC
  5
1E3
330
1F
100
AcDbEntity
  8
Default
100
AcDbCircle
 10
-10.59547693884993
 20
25.30073734823764
 30
0.0
 40
0.7354863071975444
100
AcDbArc
 50
32.06957846285513
 51
86.34066431165368
  0
SPLINE
  5
1E4
330
1F
100
AcDbEntity
  8
Default
100
AcDbSpline
210
0.0
220
0.0
230
1.0
 70
     8
 71
     3
 72
    10
 73
     6
 74
     0
 42
0.000000001
 43
0.0000000001
 40
0.0
 40
0.0
 40
0.0
 40
0.0
 40
0.5
 40
0.5
 40
1.0
 40
1.0
 40
1.0
 40
1.0
 10
-9.750945015940403
 20
24.8418778513236
 30
0.0
 10
-9.764213122309087
 20
24.99353303401833
 30
0.0
 10
-9.783669535112836
 20
25.14430799128716
 30
0.0
 10
-9.850860547218986
 20
25.43487981158653
 30
0.0
 10
-9.898948226114982
 20
25.57429507305909
 30
0.0
 10
-9.9722229360639
 20
25.69124286175349
 30
0.0
  0
ARC
  5
1E5
330
1F
100
AcDbEntity
  8
Default
100
AcDbCircle
 10
-7.25017538153044
 20
26.31617284815799
 30
0.0
 40
3.256001412851308
100
AcDbArc
 50
186.4528865724571
 51
190.4873580962956
  0
ARC
  5
1E6
330
1F
100
AcDbEntity
  8
Default
100
AcDbCircle
 10
-10.58946040458115
 20
25.93849060457771
 30
0.0
 40
0.1045741840199478
100
AcDbArc
 50
6.452886572456478
 51
66.96143175833163
  0
ARC
  5
1E7
330
1F
100
AcDbEntity
  8
Default
100
AcDbCircle
 10
-10.79421704959651
 20
25.31447734514056
 30
0.0
 40
0.7609960427293031
100
AcDbArc
 50
71.16508877492817
 51
74.14782951858024
  0
ARC
  5
1E8
330
1F
100
AcDbEntity
  8
Default
100
AcDbCircle
 10
-11.3196517589468
 20
23.23511814438412
 30
0.0
 40
2.905475431119625
100
AcDbArc
 50
75.38116529812515
 51
107.3933422852824
  0
SPLINE
  5
1E9
330
1F
100
AcDbEntity
  8
Default
100
AcDbSpline
210
0.0
220
0.0
230
1.0
 70
    12
 71
     2
 72
     6
 73
     3
 74
     0
 42
0.000000001
 43
0.0000000001
 40
0.0
 40
0.0
 40
0.0
 40
0.1073900742411466
 40
0.1073900742411466
 40
0.1073900742411466
 10
-12.25482259453929
 20
25.91744581401214
 30
0.0
 41
1.0
 10
-12.24900722850595
 20
25.97640409635152
 30
0.0
 41
0.865241143951794
 10
-12.18818526350249
 20
26.00774091575133
 30
0.0
 41
1.0
  0
ARC
  5
1EA
330
1F
100
AcDbEntity
  8
Default
100
AcDbCircle
 10
-12.06089492483204
 20
25.93055013613716
 30
0.0
 40
0.1943699162330441
100
AcDbArc
 50
183.8657850394877
 51
259.6862870734498
  0
ARC
  5
1EB
330
1F
100
AcDbEntity
  8
Default
100
AcDbCircle
 10
-12.53540743556886
 20
24.28522364046242
 30
0.0
 40
1.519126744526567
100
AcDbArc
 50
69.96465078037386
 51
73.17490048186274
  0
SPLINE
  5
1EC
330
1F
100
AcDbEntity
  8
Default
100
AcDbSpline
210
0.0
220
0.0
230
1.0
 70
     8
 71
     3
 72
    13
 73
     9
 74
     0
 42
0.000000001
 43
0.0000000001
 40
0.0
 40
0.0
 40
0.0
 40
0.0
 40
0.1215524254212188
 40
0.2682851584007822
 40
0.5989396312704103
 40
0.8352338861430512
 40
1.016787265075951
 40
1.399920461272727
 40
1.399920461272727
 40
1.399920461272727
 40
1.399920461272727
 10
-10.90596936120109
 20
24.94357949288699
 30
0.0
 10
-10.9164663515371
 20
24.98281597106653
 30
0.0
 10
-10.95353614146958
 20
25.06466244409767
 30
0.0
 10
-11.07026457863101
 20
25.2279960578042
 30
0.0
 10
-11.25096757851966
 20
25.38522249692917
 30
0.0
 10
-11.46697623567047
 20
25.51248529208695
 30
0.0
 10
-11.72119690051133
 20
25.59676883772303
 30
0.0
 10
-11.89585773718707
 20
25.6659156200366
 30
0.0
 10
-12.01495486930881
 20
25.71241500541991
 30
0.0
  0
LINE
  5
1ED
330
1F
100
AcDbEntity
  8
Default
100
AcDbLine
 10
-10.33826942622206
 20
25.27807136335876
 30
0.0
 11
-10.29275617981273
 21
25.06462510183327
 31
0.0
  0
ARC
  5
1EE
330
1F
100
AcDbEntity
  8
Default
100
AcDbCircle
 10
-16.03921995444746
 20
24.06245500960254
 30
0.0
 40
5.82911314393477
100
AcDbArc
 50
12.03693787411322
 51
16.5564681362766
  0
SPLINE
  5
1EF
330
1F
100
AcDbEntity
  8
Default
100
AcDbSpline
210
0.0
220
0.0
230
1.0
 70
    12
 71
     2
 72
     8
 73
     5
 74
     0
 42
0.000000001
 43
0.0000000001
 40
0.0
 40
0.0
 40
0.0
 40
1.570796326794897
 40
1.570796326794897
 40
3.141592653589793
 40
3.141592653589793
 40
3.141592653589793
 10
-10.29275617981273
 20
25.06462510183327
 30
0.0
 41
1.0
 10
-10.31425029377614
 20
25.16742171789379
 30
0.0
 41
0.7071067811865475
 10
-10.62013657751969
 20
25.10346285529117
 30
0.0
 41
1.0
 10
-10.92602286126323
 20
25.03950399268856
 30
0.0
 41
0.7071067811865475
 10
-10.90452874729982
 20
24.93670737662804
 30
0.0
 41
1.0
  0
SPLINE
  5
1F0
330
1F
100
AcDbEntity
  8
Default
100
AcDbSpline
210
0.0
220
0.0
230
1.0
 70
    24
 71
     2
 72
     6
 73
     3
 74
     0
 42
0.000000001
 43
0.0000000001
 40
0.0
 40
0.0
 40
0.0
 40
1.580120758892414
 40
1.580120758892414
 40
1.580120758892414
 10
-9.885230009285934
 20
19.20863155887188
 30
0.0
 10
-9.954154795963682
 20
19.99644738789709
 30
0.0
 10
-10.02307958264143
 20
20.7842632169223
 30
0.0
  0
SPLINE
  5
1F1
330
1F
100
AcDbEntity
  8
Default
100
AcDbSpline
210
0.0
220
0.0
230
1.0
 70
    12
 71
     2
 72
     6
 73
     3
 74
     0
 42
0.000000001
 43
0.0000000001
 40
0.0
 40
0.0
 40
0.0
 40
0.7845548068872384
 40
0.7845548068872384
 40
0.7845548068872384
 10
-9.860649286985678
 20
18.42333877278221
 30
0.0
 41
0.9999999999770188
 10
-9.851051393723177
 20
18.81590397431221
 30
0.0
 41
0.9984532324039012
 10
-9.885230009285934
 20
19.20863155887188
 30
0.0
 41
1.0
  0
ARC
  5
1F2
330
1F
100
AcDbEntity
  8
Default
100
AcDbCircle
 10
-25.47715113547679
 20
18.44778037324145
 30
0.0
 40
15.61652097542085
100
AcDbArc
 50
358.5981062636118
 51
359.9103256656975
  0
LINE
  5
1F3
330
1F
100
AcDbEntity
  8
Default
100
AcDbLine
 10
-10.29947152777959
 20
0.3247338139145919
 30
0.0
 11
-9.865304470498074
 21
18.06571874869336
 31
0.0
  0
SPLINE
  5
1F4
330
1F
100
AcDbEntity
  8
Default
100
AcDbSpline
210
0.0
220
0.0
230
1.0
 70
    24
 71
     2
 72
     6
 73
     3
 74
     0
 42
0.000000001
 43
0.0000000001
 40
0.0
 40
0.0
 40
0.0
 40
6.615086013029089
 40
6.615086013029089
 40
6.615086013029089
 10
-9.53093456103835
 20
18.46580311437521
 30
0.0
 10
-10.21773165416908
 20
21.70125524550162
 30
0.0
 10
-10.90452874729981
 20
24.93670737662804
 30
0.0
  0
SPLINE
  5
1F5
330
1F
100
AcDbEntity
  8
Default
100
AcDbSpline
210
0.0
220
0.0
230
1.0
 70
    12
 71
     2
 72
     6
 73
     3
 74
     0
 42
0.000000001
 43
0.0000000001
 40
0.0
 40
0.0
 40
0.0
 40
0.857612335746838
 40
0.857612335746838
 40
0.857612335746838
 10
-9.444800832690333
 20
17.58764437370501
 30
0.0
 41
1.0
 10
-9.429157129131726
 20
18.03542992325737
 30
0.0
 41
0.9926609123800593
 10
-9.53093456103835
 20
18.46580311437521
 30
0.0
 41
1.0
  0
LINE
  5
1F6
330
1F
100
AcDbEntity
  8
Default
100
AcDbLine
 10
-10.04775434065101
 20
0.3286962668761078
 30
0.0
 11
-9.444800832690333
 21
17.58764437370501
 31
0.0
  0
SPLINE
  5
1F7
330
1F
100
AcDbEntity
  8
Default
100
AcDbSpline
210
0.0
220
0.0
230
1.0
 70
    12
 71
     2
 72
     6
 73
     3
 74
     0
 42
0.000000001
 43
0.0000000001
 40
0.4982893859750203
 40
0.4982893859750203
 40
0.4982893859750203
 40
0.9977042369899497
 40
0.9977042369899497
 40
0.9977042369899497
 10
-8.445320560280598
 20
18.26023435030424
 30
0.0
 41
0.9999563209598255
 10
-8.671146129724436
 20
18.36681309137816
 30
0.0
 41
0.999950903605179
 10
-8.895731974944049
 20
18.47598000024033
 30
0.0
 41
0.9999785036443274
  0
SPLINE
  5
1F8
330
1F
100
AcDbEntity
  8
Default
100
AcDbSpline
210
0.0
220
0.0
230
1.0
 70
     8
 71
     3
 72
    13
 73
     9
 74
     0
 42
0.000000001
 43
0.0000000001
 40
-11.91967701549755
 40
-11.91967701549755
 40
-11.91967701549755
 40
-11.91967701549755
 40
-8.329327274556412
 40
-4.522153002375717
 40
-3.809294555456245
 40
-2.42112832591297
 40
-1.528295460971046
 40
-1.33574264862247
 40
-1.33574264862247
 40
-1.33574264862247
 40
-1.33574264862247
 10
-7.810849017108012
 20
30.00032584311353
 30
0.0
 10
-7.968062968487772
 20
28.81391295313195
 30
0.0
 10
-8.281742341246371
 20
26.36809657121227
 30
0.0
 10
-8.639734982824535
 20
23.68840876106659
 30
0.0
 10
-8.894908722826585
 20
21.73569377086168
 30
0.0
 10
-9.01230523741765
 20
20.74443244317676
 30
0.0
 10
-9.09081913204804
 20
19.92382627498757
 30
0.0
 10
-9.108874559257032
 20
19.56219263955959
 30
0.0
 10
-9.111120985087467
 20
19.49802596036001
 30
0.0
  0
ARC
  5
1F9
330
1F
100
AcDbEntity
  8
Default
100
AcDbCircle
 10
-63.85792389662157
 20
37.42723613673216
 30
0.0
 40
56.53701087835524
100
AcDbArc
 50
352.4515982317758
 51
354.5899439829723
  0
SPLINE
  5
1FA
330
1F
100
AcDbEntity
  8
Default
100
AcDbSpline
210
0.0
220
0.0
230
1.0
 70
     8
 71
     3
 72
     8
 73
     4
 74
     0
 42
0.000000001
 43
0.0000000001
 40
-0.1251496809192857
 40
-0.1251496809192857
 40
-0.1251496809192857
 40
-0.1251496809192857
 40
0.0
 40
0.0
 40
0.0
 40
0.0
 10
-8.907812772354944
 20
18.53857830237465
 30
0.0
 10
-8.86839741116313
 20
18.52556177960609
 30
0.0
 10
-8.829179514963116
 20
18.51234078079736
 30
0.0
 10
-8.788524311316422
 20
18.5011423970385
 30
0.0
  0
SPLINE
  5
1FB
330
1F
100
AcDbEntity
  8
Default
100
AcDbSpline
210
0.0
220
0.0
230
1.0
 70
     8
 71
     3
 72
    15
 73
    11
 74
     0
 42
0.000000001
 43
0.0000000001
 40
-1.0
 40
-1.0
 40
-1.0
 40
-1.0
 40
-0.5000111345053615
 40
-0.5000111345053615
 40
0.0
 40
0.0
 40
0.0
 40
0.5448713905517074
 40
0.5448713905517074
 40
0.9557761775598442
 40
0.9557761775598442
 40
0.9557761775598442
 40
0.9557761775598442
 10
-8.876129170737713
 20
18.3633620283545
 30
0.0
 10
-8.89024277858745
 20
18.36480902906981
 30
0.0
 10
-8.932342674450851
 20
18.34797837527774
 30
0.0
 10
-9.034653761131509
 20
18.26147018502972
 30
0.0
 10
-9.09983127418134
 20
18.19460562731228
 30
0.0
 10
-9.15901257269553
 20
18.12463620477324
 30
0.0
 10
-9.06594377588651
 20
18.04848123627631
 30
0.0
 10
-8.972357586205476
 20
17.95158840854144
 30
0.0
 10
-8.8562744067099
 20
17.79886308957301
 30
0.0
 10
-8.816857564003143
 20
17.73208454768028
 30
0.0
 10
-8.818362017843455
 20
17.71983322481017
 30
0.0
  0
ARC
  5
1FC
330
1F
100
AcDbEntity
  8
Default
100
AcDbCircle
 10
-13.67680747732263
 20
17.58574885815208
 30
0.0
 40
4.863249371129066
100
AcDbArc
 50
9.200848390253448
 51
11.98442000652289
  0
LINE
  5
1FD
330
1F
100
AcDbEntity
  8
Default
100
AcDbLine
 10
-10.29275617981273
 20
25.06462510183327
 30
0.0
 11
-8.919557001356807
 21
18.5955816931848
 31
0.0
  0
LINE
  5
1FE
330
1F
100
AcDbEntity
  8
Default
100
AcDbLine
 10
-9.426392021469354
 20
0.3081572913477295
 30
0.0
 11
-8.818362017843455
 21
17.71983322481017
 31
0.0
  0
POLYLINE
  5
1FF
330
1F
100
AcDbEntity
  8
Default
100
AcDb2dPolyline
 66
     1
 10
0.0
 20
0.0
 30
0.0
  0
VERTEX
  5
200
330
1FF
100
AcDbEntity
  8
Default
100
AcDbVertex
100
AcDb2dVertex
 10
-5.33660783965658
 20
17.78343909776126
 30
0.0
  0
VERTEX
  5
201
330
1FF
100
AcDbEntity
  8
Default
100
AcDbVertex
100
AcDb2dVertex
 10
-5.33660783965658
 20
17.79079571113898
 30
0.0
  0
SEQEND
  5
202
330
1FF
100
AcDbEntity
  8
Default
  0
SPLINE
  5
203
330
1F
100
AcDbEntity
  8
Default
100
AcDbSpline
210
0.0
220
0.0
230
1.0
 70
    12
 71
     2
 72
     6
 73
     3
 74
     0
 42
0.000000001
 43
0.0000000001
 40
0.0
 40
0.0
 40
0.0
 40
1.950461626167058
 40
1.950461626167058
 40
1.950461626167058
 10
-5.387751168431009
 20
16.48845850733777
 30
0.0
 41
1.0
 10
-6.309398093737937
 20
16.82076667410762
 30
0.0
 41
0.9931328539509889
 10
-7.128594749918221
 20
17.35814792716049
 30
0.0
 41
1.0
  0
SPLINE
  5
204
330
1F
100
AcDbEntity
  8
Default
100
AcDbSpline
210
0.0
220
0.0
230
1.0
 70
    12
 71
     2
 72
     6
 73
     3
 74
     0
 42
0.000000001
 43
0.0000000001
 40
0.0
 40
0.0
 40
0.0
 40
0.2685493329288811
 40
0.2685493329288811
 40
0.2685493329288811
 10
-5.162008798491257
 20
16.56459517046469
 30
0.0
 41
1.0
 10
-5.050765415670705
 20
16.48396405721745
 30
0.0
 41
0.9663145264801982
 10
-4.914153676136777
 20
16.46934560085703
 30
0.0
 41
1.0
  0
SPLINE
  5
205
330
1F
100
AcDbEntity
  8
Default
100
AcDbSpline
210
0.0
220
0.0
230
1.0
 70
    12
 71
     2
 72
     6
 73
     3
 74
     0
 42
0.000000001
 43
0.0000000001
 40
0.0
 40
0.0
 40
0.0
 40
0.0433830346394287
 40
0.0433830346394287
 40
0.0433830346394287
 10
-5.167289676140115
 20
16.52153474864323
 30
0.0
 41
1.0
 10
-5.164657761564419
 20
16.54306600495743
 30
0.0
 41
0.9999999216235457
 10
-5.162008798491257
 20
16.56459517046469
 30
0.0
 41
1.0
  0
SPLINE
  5
206
330
1F
100
AcDbEntity
  8
Default
100
AcDbSpline
210
0.0
220
0.0
230
1.0
 70
    12
 71
     2
 72
     6
 73
     3
 74
     0
 42
0.000000001
 43
0.0000000001
 40
0.0
 40
0.0
 40
0.0
 40
0.2673757701681636
 40
0.2673757701681636
 40
0.2673757701681636
 10
-4.92149068872078
 20
16.42442920449744
 30
0.0
 41
1.0
 10
-5.057504652443418
 20
16.43978589618082
 30
0.0
 41
0.96540295015036
 10
-5.167289676140115
 20
16.52153474864323
 30
0.0
 41
1.0
  0
SPLINE
  5
207
330
1F
100
AcDbEntity
  8
Default
100
AcDbSpline
210
0.0
220
0.0
230
1.0
 70
    12
 71
     2
 72
     6
 73
     3
 74
     0
 42
0.000000001
 43
0.0000000001
 40
0.0
 40
0.0
 40
0.0
 40
0.5500319223454894
 40
0.5500319223454894
 40
0.5500319223454894
 10
-4.373874808852179
 20
16.37312140639667
 30
0.0
 41
1.0
 10
-4.648039267586547
 20
16.39497012643684
 30
0.0
 41
0.9999034471246364
 10
-4.92149068872078
 20
16.42442920449744
 30
0.0
 41
1.0
  0
SPLINE
  5
208
330
1F
100
AcDbEntity
  8
Default
100
AcDbSpline
210
0.0
220
0.0
230
1.0
 70
    12
 71
     2
 72
     6
 73
     3
 74
     0
 42
0.000000001
 43
0.0000000001
 40
0.0
 40
0.0
 40
0.0
 40
0.0609623479842182
 40
0.0609623479842182
 40
0.0609623479842182
 10
-4.313442260434897
 20
16.37657089430549
 30
0.0
 41
1.0
 10
-4.343297616029384
 20
16.36852311568601
 30
0.0
 41
0.9787990801203377
 10
-4.373874808852179
 20
16.37312140639667
 30
0.0
 41
1.0
  0
SPLINE
  5
209
330
1F
100
AcDbEntity
  8
Default
100
AcDbSpline
210
0.0
220
0.0
230
1.0
 70
    12
 71
     2
 72
     6
 73
     3
 74
     0
 42
0.000000001
 43
0.0000000001
 40
0.0
 40
0.0
 40
0.0
 40
0.0314878321421101
 40
0.0314878321421101
 40
0.0314878321421101
 10
-4.311139210418787
 20
16.4096200411586
 30
0.0
 41
1.0
 10
-4.311423640541193
 20
16.39218486536274
 30
0.0
 41
0.999999923751877
 10
-4.313442260434897
 20
16.37657089430549
 30
0.0
 41
1.0
  0
SPLINE
  5
20A
330
1F
100
AcDbEntity
  8
Default
100
AcDbSpline
210
0.0
220
0.0
230
1.0
 70
    12
 71
     2
 72
     6
 73
     3
 74
     0
 42
0.000000001
 43
0.0000000001
 40
0.0
 40
0.0
 40
0.0
 40
0.0556651977850032
 40
0.0556651977850032
 40
0.0556651977850032
 10
-4.367732785731306
 20
16.42033380983474
 30
0.0
 41
1.0
 10
-4.339841114896416
 20
16.4187758066183
 30
0.0
 41
0.994502455536999
 10
-4.311139210418787
 20
16.4096200411586
 30
0.0
 41
1.0
  0
SPLINE
  5
20B
330
1F
100
AcDbEntity
  8
Default
100
AcDbSpline
210
0.0
220
0.0
230
1.0
 70
    12
 71
     2
 72
     6
 73
     3
 74
     0
 42
0.000000001
 43
0.0000000001
 40
0.0
 40
0.0
 40
0.0
 40
0.5486298575330966
 40
0.5486298575330966
 40
0.5486298575330966
 10
-4.914153676136777
 20
16.46934560085703
 30
0.0
 41
1.0
 10
-4.641260127732501
 20
16.44130669773332
 30
0.0
 41
0.9999163992662642
 10
-4.367732785731306
 20
16.42033380983474
 30
0.0
 41
1.0
  0
SPLINE
  5
20C
330
1F
100
AcDbEntity
  8
Default
100
AcDbSpline
210
0.0
220
0.0
230
1.0
 70
     8
 71
     3
 72
    12
 73
     8
 74
     0
 42
0.000000001
 43
0.0000000001
 40
0.0
 40
0.0
 40
0.0
 40
0.0
 40
0.1314998467573677
 40
0.8179331223926242
 40
0.9244197278151636
 40
0.9535125333836083
 40
0.9664940845669292
 40
0.9664940845669292
 40
0.9664940845669292
 40
0.9664940845669292
 10
-3.85324605036962
 20
17.05602377628327
 30
0.0
 10
-3.856462772641464
 20
17.01438081498326
 30
0.0
 10
-3.918245399275634
 20
16.56958197153733
 30
0.0
 10
-3.965767315354071
 20
16.27806254305002
 30
0.0
 10
-4.002574698670855
 20
16.00644058203428
 30
0.0
 10
-4.007231946443653
 20
15.95716323926215
 30
0.0
 10
-4.007773479243752
 20
15.9430989301624
 30
0.0
 10
-4.006890717635486
 20
15.93884835796116
 30
0.0
  0
POLYLINE
  5
20D
330
1F
100
AcDbEntity
  8
Default
100
AcDb2dPolyline
 66
     1
 10
0.0
 20
0.0
 30
0.0
  0
VERTEX
  5
20E
330
20D
100
AcDbEntity
  8
Default
100
AcDbVertex
100
AcDb2dVertex
 10
-3.893366034796344
 20
16.85961503244477
 30
0.0
  0
VERTEX
  5
20F
330
20D
100
AcDbEntity
  8
Default
100
AcDbVertex
100
AcDb2dVertex
 10
-3.85324605036962
 20
17.05602377628327
 30
0.0
  0
SEQEND
  5
210
330
20D
100
AcDbEntity
  8
Default
  0
SPLINE
  5
211
330
1F
100
AcDbEntity
  8
Default
100
AcDbSpline
210
0.0
220
0.0
230
1.0
 70
    12
 71
     2
 72
     6
 73
     3
 74
     0
 42
0.000000001
 43
0.0000000001
 40
-0.1976412617261341
 40
-0.1976412617261341
 40
-0.1976412617261341
 40
0.0
 40
0.0
 40
0.0
 10
-4.045267866440497
 20
16.7563301600476
 30
0.0
 41
1.0
 10
-3.929411886106584
 20
16.74928392059127
 30
0.0
 41
0.7912883703176437
 10
-3.893366034796344
 20
16.85961503244477
 30
0.0
 41
1.0
  0
SPLINE
  5
212
330
1F
100
AcDbEntity
  8
Default
100
AcDbSpline
210
0.0
220
0.0
230
1.0
 70
    12
 71
     2
 72
     6
 73
     3
 74
     0
 42
0.000000001
 43
0.0000000001
 40
-0.7907644686086126
 40
-0.7907644686086126
 40
-0.7907644686086126
 40
0.0
 40
0.0
 40
0.0
 10
-4.834150272752964
 20
16.81076020571367
 30
0.0
 41
1.0
 10
-4.439900980929878
 20
16.78076371441524
 30
0.0
 41
0.9999751379154269
 10
-4.045267866440497
 20
16.7563301600476
 30
0.0
 41
1.0
  0
SPLINE
  5
213
330
1F
100
AcDbEntity
  8
Default
100
AcDbSpline
210
0.0
220
0.0
230
1.0
 70
    12
 71
     2
 72
     6
 73
     3
 74
     0
 42
0.000000001
 43
0.0000000001
 40
-0.4857429286577369
 40
-0.4857429286577369
 40
-0.4857429286577369
 40
0.0
 40
0.0
 40
0.0
 10
-5.229434715868138
 20
17.05953453064623
 30
0.0
 41
1.0
 10
-5.097258998651085
 20
16.83097849286654
 30
0.0
 41
0.8847262971728665
 10
-4.834150272752964
 20
16.81076020571367
 30
0.0
 41
1.0
  0
SPLINE
  5
214
330
1F
100
AcDbEntity
  8
Default
100
AcDbSpline
210
0.0
220
0.0
230
1.0
 70
    12
 71
     2
 72
     6
 73
     3
 74
     0
 42
0.000000001
 43
0.0000000001
 40
-0.1030086613417345
 40
-0.1030086613417345
 40
-0.1030086613417345
 40
0.0
 40
0.0
 40
0.0
 10
-5.271796948909895
 20
17.1534448726199
 30
0.0
 41
1.0
 10
-5.254647652956691
 20
17.10474742471106
 30
0.0
 41
0.9963857408822986
 10
-5.229434715868138
 20
17.05953453064623
 30
0.0
 41
1.0
  0
SPLINE
  5
215
330
1F
100
AcDbEntity
  8
Default
100
AcDbSpline
210
0.0
220
0.0
230
1.0
 70
    12
 71
     2
 72
     6
 73
     3
 74
     0
 42
0.000000001
 43
0.0000000001
 40
0.0
 40
0.0
 40
0.0
 40
0.255138279393215
 40
0.255138279393215
 40
0.255138279393215
 10
-5.197499986949936
 20
16.24963983075545
 30
0.0
 41
1.0
 10
-5.094923592869884
 20
16.16935346819521
 30
0.0
 41
0.9692933544879403
 10
-4.966479348276465
 20
16.14767646041176
 30
0.0
 41
1.0
  0
SPLINE
  5
216
330
1F
100
AcDbEntity
  8
Default
100
AcDbSpline
210
0.0
220
0.0
230
1.0
 70
    12
 71
     2
 72
     6
 73
     3
 74
     0
 42
0.000000001
 43
0.0000000001
 40
0.0
 40
0.0
 40
0.0
 40
0.0340967881267165
 40
0.0340967881267165
 40
0.0340967881267165
 10
-5.200061939081706
 20
16.21563947913932
 30
0.0
 41
1.0
 10
-5.198831700125488
 20
16.23264347802685
 30
0.0
 41
0.9999955463947131
 10
-5.197499986949936
 20
16.24963983075545
 30
0.0
 41
1.0
  0
SPLINE
  5
217
330
1F
100
AcDbEntity
  8
Default
100
AcDbSpline
210
0.0
220
0.0
230
1.0
 70
    12
 71
     2
 72
     6
 73
     3
 74
     0
 42
0.000000001
 43
0.0000000001
 40
0.0
 40
0.0
 40
0.0
 40
0.2524827425738361
 40
0.2524827425738361
 40
0.2524827425738361
 10
-4.972711363962873
 20
16.11194099467138
 30
0.0
 41
1.0
 10
-5.099566734573559
 20
16.13489396636492
 30
0.0
 41
0.9691771351868905
 10
-5.200061939081706
 20
16.21563947913932
 30
0.0
 41
1.0
  0
SPLINE
  5
218
330
1F
100
AcDbEntity
  8
Default
100
AcDbSpline
210
0.0
220
0.0
230
1.0
 70
    12
 71
     2
 72
     6
 73
     3
 74
     0
 42
0.000000001
 43
0.0000000001
 40
0.0
 40
0.0
 40
0.0
 40
0.5596462079793444
 40
0.5596462079793444
 40
0.5596462079793444
 10
-4.419773967256077
 20
16.02579040251694
 30
0.0
 41
1.0
 10
-4.697108718956464
 20
16.06330713804195
 30
0.0
 41
0.9997979442994098
 10
-4.972711363962873
 20
16.11194099467138
 30
0.0
 41
1.0
  0
SPLINE
  5
219
330
1F
100
AcDbEntity
  8
Default
100
AcDbSpline
210
0.0
220
0.0
230
1.0
 70
    12
 71
     2
 72
     6
 73
     3
 74
     0
 42
0.000000001
 43
0.0000000001
 40
0.0
 40
0.0
 40
0.0
 40
0.0605286278463647
 40
0.0605286278463647
 40
0.0605286278463647
 10
-4.359581378944796
 20
16.02468592874529
 30
0.0
 41
1.0
 10
-4.389778097472215
 20
16.01976514940951
 30
0.0
 41
0.9838643704755842
 10
-4.419773967256077
 20
16.02579040251694
 30
0.0
 41
1.0
  0
SPLINE
  5
21A
330
1F
100
AcDbEntity
  8
Default
100
AcDbSpline
210
0.0
220
0.0
230
1.0
 70
    12
 71
     2
 72
     6
 73
     3
 74
     0
 42
0.000000001
 43
0.0000000001
 40
0.0
 40
0.0
 40
0.0
 40
0.0283372933773131
 40
0.0283372933773131
 40
0.0283372933773131
 10
-4.357281297062883
 20
16.05438314719917
 30
0.0
 41
1.0
 10
-4.357621235189874
 20
16.03871834230278
 30
0.0
 41
0.9999990854309546
 10
-4.359581378944796
 20
16.02468592874529
 30
0.0
 41
1.0
  0
SPLINE
  5
21B
330
1F
100
AcDbEntity
  8
Default
100
AcDbSpline
210
0.0
220
0.0
230
1.0
 70
    12
 71
     2
 72
     6
 73
     3
 74
     0
 42
0.000000001
 43
0.0000000001
 40
0.0
 40
0.0
 40
0.0
 40
0.0561738830643892
 40
0.0561738830643892
 40
0.0561738830643892
 10
-4.413856601327069
 20
16.06737666189699
 30
0.0
 41
1.0
 10
-4.38582414348688
 20
16.06447410838944
 30
0.0
 41
0.9949308899116455
 10
-4.357281297062883
 20
16.05438314719917
 30
0.0
 41
1.0
  0
SPLINE
  5
21C
330
1F
100
AcDbEntity
  8
Default
100
AcDbSpline
210
0.0
220
0.0
230
1.0
 70
    12
 71
     2
 72
     6
 73
     3
 74
     0
 42
0.000000001
 43
0.0000000001
 40
0.0
 40
0.0
 40
0.0
 40
0.5584599709629063
 40
0.5584599709629063
 40
0.5584599709629063
 10
-4.966479348276465
 20
16.14767646041176
 30
0.0
 41
1.0
 10
-4.690931459742104
 20
16.10227226222957
 30
0.0
 41
0.9998192475167311
 10
-4.413856601327069
 20
16.06737666189699
 30
0.0
 41
1.0
  0
SPLINE
  5
21D
330
1F
100
AcDbEntity
  8
Default
100
AcDbSpline
210
0.0
220
0.0
230
1.0
 70
    12
 71
     2
 72
     6
 73
     3
 74
     0
 42
0.000000001
 43
0.0000000001
 40
0.0
 40
0.0
 40
0.0
 40
0.2797647164684515
 40
0.2797647164684515
 40
0.2797647164684515
 10
-5.123893601268662
 20
16.85458701584048
 30
0.0
 41
1.0
 10
-5.006749533122961
 20
16.770313829021
 30
0.0
 41
0.9633487021761659
 10
-4.863796646568545
 20
16.7586746168515
 30
0.0
 41
1.0
  0
SPLINE
  5
21E
330
1F
100
AcDbEntity
  8
Default
100
AcDbSpline
210
0.0
220
0.0
230
1.0
 70
    12
 71
     2
 72
     6
 73
     3
 74
     0
 42
0.000000001
 43
0.0000000001
 40
0.0
 40
0.0
 40
0.0
 40
0.0315606653918514
 40
0.0315606653918514
 40
0.0315606653918514
 10
-5.126972661820389
 20
16.82353534528367
 30
0.0
 41
1.0
 10
-5.125823053316635
 20
16.83908930761325
 30
0.0
 41
0.9999996186824177
 10
-5.123893601268658
 20
16.85458701584048
 30
0.0
 41
0.9999999911101315
  0
SPLINE
  5
21F
330
1F
100
AcDbEntity
  8
Default
100
AcDbSpline
210
0.0
220
0.0
230
1.0
 70
    12
 71
     2
 72
     6
 73
     3
 74
     0
 42
0.000000001
 43
0.0000000001
 40
0.0
 40
0.0
 40
0.0
 40
0.2775120725341504
 40
0.2775120725341504
 40
0.2775120725341504
 10
-4.870103116236521
 20
16.72827264023265
 30
0.0
 41
1.0
 10
-5.01210331000555
 20
16.73932573770886
 30
0.0
 41
0.9617558144384456
 10
-5.126972661820389
 20
16.82353534528367
 30
0.0
 41
1.0
  0
SPLINE
  5
220
330
1F
100
AcDbEntity
  8
Default
100
AcDbSpline
210
0.0
220
0.0
230
1.0
 70
    12
 71
     2
 72
     6
 73
     3
 74
     0
 42
0.000000001
 43
0.0000000001
 40
0.0
 40
0.0
 40
0.0
 40
0.5418730968609387
 40
0.5418730968609387
 40
0.5418730968609387
 10
-4.329557396784281
 20
16.6904340362051
 30
0.0
 41
1.0
 10
-4.599965730715077
 20
16.70741801308444
 30
0.0
 41
0.999974363643424
 10
-4.870103116236521
 20
16.72827264023265
 30
0.0
 41
1.0
  0
SPLINE
  5
221
330
1F
100
AcDbEntity
  8
Default
100
AcDbSpline
210
0.0
220
0.0
230
1.0
 70
    12
 71
     2
 72
     6
 73
     3
 74
     0
 42
0.000000001
 43
0.0000000001
 40
0.0
 40
0.0
 40
0.0
 40
0.0605645191202352
 40
0.0605645191202352
 40
0.0605645191202352
 10
-4.269214368393449
 20
16.69218461349737
 30
0.0
 41
1.0
 10
-4.299263025652069
 20
16.68707440208642
 30
0.0
 41
0.9902925121170654
 10
-4.329557396784281
 20
16.6904340362051
 30
0.0
 41
1.0
  0
SPLINE
  5
222
330
1F
100
AcDbEntity
  8
Default
100
AcDbSpline
210
0.0
220
0.0
230
1.0
 70
    12
 71
     2
 72
     6
 73
     3
 74
     0
 42
0.000000001
 43
0.0000000001
 40
0.0
 40
0.0
 40
0.0
 40
0.0203768763467583
 40
0.0203768763467583
 40
0.0203768763467583
 10
-4.26573448508546
 20
16.71226204654465
 30
0.0
 41
1.0
 10
-4.267529622365332
 20
16.70223289669901
 30
0.0
 41
0.9999848848277485
 10
-4.269214368393449
 20
16.69218461349737
 30
0.0
 41
1.0
  0
SPLINE
  5
223
330
1F
100
AcDbEntity
  8
Default
100
AcDbSpline
210
0.0
220
0.0
230
1.0
 70
    12
 71
     2
 72
     6
 73
     3
 74
     0
 42
0.000000001
 43
0.0000000001
 40
0.0
 40
0.0
 40
0.0
 40
0.059343123790252
 40
0.059343123790252
 40
0.059343123790252
 10
-4.324272765805205
 20
16.72089790051638
 30
0.0
 41
1.0
 10
-4.294431865509336
 20
16.72045565782843
 30
0.0
 41
0.9913467129098419
 10
-4.26573448508546
 20
16.71226204654465
 30
0.0
 41
1.0
  0
SPLINE
  5
224
330
1F
100
AcDbEntity
  8
Default
100
AcDbSpline
210
0.0
220
0.0
230
1.0
 70
    12
 71
     2
 72
     6
 73
     3
 74
     0
 42
0.000000001
 43
0.0000000001
 40
0.0
 40
0.0
 40
0.0
 40
0.540848380615198
 40
0.540848380615198
 40
0.540848380615198
 10
-4.863796646568545
 20
16.7586746168515
 30
0.0
 41
1.0
 10
-4.594153744755275
 20
16.73808615987693
 30
0.0
 41
0.9999801416098341
 10
-4.324272765805205
 20
16.72089790051638
 30
0.0
 41
1.0
  0
SPLINE
  5
225
330
1F
100
AcDbEntity
  8
Default
100
AcDbSpline
210
0.0
220
0.0
230
1.0
 70
    12
 71
     2
 72
     6
 73
     3
 74
     0
 42
0.000000001
 43
0.0000000001
 40
0.0
 40
0.0
 40
0.0
 40
0.4726868759032517
 40
0.4726868759032517
 40
0.4726868759032517
 10
-9.994416201310088
 20
0.0229842965620591
 30
0.0
 41
1.0
 10
-10.2889854914026
 20
0.0298642956914073
 30
0.0
 41
0.7282303322561501
 10
-10.29997765130142
 20
0.3242332268955446
 30
0.0
 41
1.0
  0
SPLINE
  5
226
330
1F
100
AcDbEntity
  8
Default
100
AcDbSpline
210
0.0
220
0.0
230
1.0
 70
    12
 71
     2
 72
     6
 73
     3
 74
     0
 42
0.000000001
 43
0.0000000001
 40
0.012437000183899
 40
0.012437000183899
 40
0.012437000183899
 40
0.1295677382289931
 40
0.1295677382289931
 40
0.1295677382289931
 10
-9.879398819226903
 20
0.0420725534740292
 30
0.0
 41
0.9963247001003321
 10
-9.935075921969261
 20
0.0216844949356332
 30
0.0
 41
0.980855500190082
 10
-9.994416201310088
 20
0.0229842965620591
 30
0.0
 41
1.0
  0
POLYLINE
  5
227
330
1F
100
AcDbEntity
  8
Default
100
AcDb2dPolyline
 66
     1
 10
0.0
 20
0.0
 30
0.0
  0
VERTEX
  5
228
330
227
100
AcDbEntity
  8
Default
100
AcDbVertex
100
AcDb2dVertex
 10
-3.919363430082029
 20
16.40398804049277
 30
0.0
  0
VERTEX
  5
229
330
227
100
AcDbEntity
  8
Default
100
AcDbVertex
100
AcDb2dVertex
 10
-3.944289239861575
 20
16.40949192151389
 30
0.0
  0
SEQEND
  5
22A
330
227
100
AcDbEntity
  8
Default
  0
POLYLINE
  5
22B
330
1F
100
AcDbEntity
  8
Default
100
AcDb2dPolyline
 66
     1
 10
0.0
 20
0.0
 30
0.0
  0
VERTEX
  5
22C
330
22B
100
AcDbEntity
  8
Default
100
AcDbVertex
100
AcDb2dVertex
 10
-4.006890717635486
 20
15.93884835796116
 30
0.0
  0
VERTEX
  5
22D
330
22B
100
AcDbEntity
  8
Default
100
AcDbVertex
100
AcDb2dVertex
 10
-3.919363430082029
 20
16.40398804049277
 30
0.0
  0
SEQEND
  5
22E
330
22B
100
AcDbEntity
  8
Default
  0
SPLINE
  5
22F
330
1F
100
AcDbEntity
  8
Default
100
AcDbSpline
210
0.0
220
0.0
230
1.0
 70
    12
 71
     2
 72
     6
 73
     3
 74
     0
 42
0.000000001
 43
0.0000000001
 40
-0.2350272866052569
 40
-0.2350272866052569
 40
-0.2350272866052569
 40
0.0
 40
0.0
 40
0.0
 10
-4.182118499762396
 20
15.82000686560422
 30
0.0
 41
1.0
 10
-4.035345714353198
 20
15.79219981243673
 30
0.0
 41
0.7086665120110662
 10
-4.006890717635486
 20
15.93884835796116
 30
0.0
 41
1.0
  0
POLYLINE
  5
230
330
1F
100
AcDbEntity
  8
Default
100
AcDb2dPolyline
 66
     1
 10
0.0
 20
0.0
 30
0.0
  0
VERTEX
  5
231
330
230
100
AcDbEntity
  8
Default
100
AcDbVertex
100
AcDb2dVertex
 10
-4.997099075708604
 20
16.00010158206856
 30
0.0
  0
VERTEX
  5
232
330
230
100
AcDbEntity
  8
Default
100
AcDbVertex
100
AcDb2dVertex
 10
-4.182118499762396
 20
15.82000686560422
 30
0.0
  0
SEQEND
  5
233
330
230
100
AcDbEntity
  8
Default
  0
SPLINE
  5
234
330
1F
100
AcDbEntity
  8
Default
100
AcDbSpline
210
0.0
220
0.0
230
1.0
 70
    12
 71
     2
 72
     6
 73
     3
 74
     0
 42
0.000000001
 43
0.0000000001
 40
-0.5883891816124054
 40
-0.5883891816124054
 40
-0.5883891816124054
 40
0.0
 40
0.0
 40
0.0
 10
-5.373510529582404
 20
16.41094340649066
 30
0.0
 41
1.0
 10
-5.319054983628265
 20
16.08351358506071
 30
0.0
 41
0.8385194730581287
 10
-4.997099075708604
 20
16.00010158206856
 30
0.0
 41
1.0
  0
SPLINE
  5
235
330
1F
100
AcDbEntity
  8
Default
100
AcDbSpline
210
0.0
220
0.0
230
1.0
 70
    12
 71
     2
 72
     6
 73
     3
 74
     0
 42
0.000000001
 43
0.0000000001
 40
-0.712645957621635
 40
-0.712645957621635
 40
-0.712645957621635
 40
0.0
 40
0.0
 40
0.0
 10
-5.519523472399158
 20
17.12133267554248
 30
0.0
 41
1.0
 10
-5.439522690962541
 20
16.77401752681432
 30
0.0
 41
0.9997284738377231
 10
-5.373510529582404
 20
16.41094340649066
 30
0.0
 41
1.0
  0
SPLINE
  5
236
330
1F
100
AcDbEntity
  8
Default
100
AcDbSpline
210
0.0
220
0.0
230
1.0
 70
    12
 71
     2
 72
     6
 73
     3
 74
     0
 42
0.000000001
 43
0.0000000001
 40
0.0
 40
0.0
 40
0.0
 40
0.0535969945834471
 40
0.0535969945834471
 40
0.0535969945834471
 10
-5.511032755726347
 20
17.17427597817044
 30
0.0
 41
1.0
 10
-5.514439670164878
 20
17.14768613177349
 30
0.0
 41
0.9995120403986335
 10
-5.519523472399158
 20
17.12133267554248
 30
0.0
 41
1.0
  0
SPLINE
  5
237
330
1F
100
AcDbEntity
  8
Default
100
AcDbSpline
210
0.0
220
0.0
230
1.0
 70
    12
 71
     2
 72
     6
 73
     3
 74
     0
 42
0.000000001
 43
0.0000000001
 40
0.0
 40
0.0
 40
0.0
 40
0.0601763261136819
 40
0.0601763261136819
 40
0.0601763261136819
 10
-4.265101331508191
 20
16.77052102884153
 30
0.0
 41
1.0
 10
-4.295124478050371
 20
16.77249799678875
 30
0.0
 41
0.999999855496977
 10
-4.325145481631694
 20
16.77450724404379
 30
0.0
 41
1.0
  0
ARC
  5
238
330
1F
100
AcDbEntity
  8
Default
100
AcDbCircle
 10
-9.737073181060168
 20
0.318426779111918
 30
0.0
 40
0.3108508409247763
100
AcDbArc
 50
178.1067917027374
 51
358.1067917027376
  0
ARC
  5
239
330
1F
100
AcDbEntity
  8
Default
100
AcDbCircle
 10
-9.794184259168759
 20
-1.409345470067517
 30
0.0
 40
1.756441534916812
100
AcDbArc
 50
77.91302779449965
 51
98.30055561097689
  0
SPLINE
  5
23A
330
1F
100
AcDbEntity
  8
Default
100
AcDbSpline
210
0.0
220
0.0
230
1.0
 70
    12
 71
     2
 72
     6
 73
     3
 74
     0
 42
0.000000001
 43
0.0000000001
 40
-1.570796326794897
 40
-1.570796326794897
 40
-1.570796326794897
 40
-0.1927952421114859
 40
-0.1927952421114859
 40
-0.1927952421114859
 10
-10.29997765130142
 20
0.3242332268955446
 30
0.0
 41
1.0
 10
-10.29997765130141
 20
0.2566040834990782
 30
0.0
 41
0.7430556932578992
 10
-10.03733042689449
 20
0.2379666546549938
 30
0.0
 41
0.9369267180187653
  0
SPLINE
  5
23B
330
1F
100
AcDbEntity
  8
Default
100
AcDbSpline
210
0.0
220
0.0
230
1.0
 70
    24
 71
     2
 72
     6
 73
     3
 74
     0
 42
0.000000001
 43
0.0000000001
 40
0.0
 40
0.0
 40
0.0
 40
3.980314750651151
 40
3.980314750651151
 40
3.980314750651151
 10
-9.750689422028955
 20
24.84190021289324
 30
0.0
 10
-9.577235777797874
 20
22.85931598722571
 30
0.0
 10
-9.403782133566793
 20
20.87673176155817
 30
0.0
  0
ENDSEC
  0
SECTION
  2
OBJECTS
  0
DICTIONARY
  5
C
330
0
100
AcDbDictionary
281
     1
  3
ACAD_DETAILVIEWSTYLE
350
277
  3
ACAD_GROUP
350
D
  3
ACAD_LAYOUT
350
1A
  3
ACAD_MATERIAL
350
43
  3
ACAD_MLEADERSTYLE
350
6B
  3
ACAD_MLINESTYLE
350
17
  3
ACAD_PLOTSETTINGS
350
19
  3
ACAD_PLOTSTYLENAME
350
E
  3
ACAD_SCALELIST
350
47
  3
ACAD_SECTIONVIEWSTYLE
350
278
  3
ACAD_TABLESTYLE
350
69
  3
ACAD_VISUALSTYLE
350
2A
  3
ACDB_RECOMPOSE_DATA
350
274
  3
AcDbVariableDictionary
350
23C
  0
SUN
  5
6D
330
29
100
AcDbSun
 90
        1
290
     0
 63
     7
421
 16777215
 40
1.0
291
     1
 91
  2455826
 92
 54000000
292
     0
 70
     2
 71
   256
280
     1
  0
DICTIONARY
  5
277
102
{ACAD_REACTORS
330
C
102
}
330
C
100
AcDbDictionary
281
     1
  0
DICTIONARY
  5
D
102
{ACAD_REACTORS
330
C
102
}
330
C
100
AcDbDictionary
281
     1
  0
DICTIONARY
  5
1A
102
{ACAD_REACTORS
330
C
102
}
330
C
100
AcDbDictionary
281
     1
  3
Layout1
350
1E
  3
Layout2
350
26
  3
Model
350
22
  0
DICTIONARY
  5
43
102
{ACAD_REACTORS
330
C
102
}
330
C
100
AcDbDictionary
281
     1
  3
ByBlock
350
45
  3
ByLayer
350
44
  3
Global
350
46
  0
DICTIONARY
  5
6B
102
{ACAD_REACTORS
330
C
102
}
330
C
100
AcDbDictionary
281
     1
  3
Standard
350
6C
  0
DICTIONARY
  5
17
102
{ACAD_REACTORS
330
C
102
}
330
C
100
AcDbDictionary
281
     1
  3
Standard
350
18
  0
DICTIONARY
  5
19
102
{ACAD_REACTORS
330
C
102
}
330
C
100
AcDbDictionary
281
     1
  0
ACDBDICTIONARYWDFLT
  5
E
102
{ACAD_REACTORS
330
C
102
}
330
C
100
AcDbDictionary
281
     1
  3
Normal
350
F
100
AcDbDictionaryWithDefault
340
F
  0
DICTIONARY
  5
47
102
{ACAD_REACTORS
330
C
102
}
330
C
100
AcDbDictionary
281
     1
  3
A0
350
48
  3
A1
350
49
  3
A2
350
4A
  3
A3
350
4B
  3
A4
350
4C
  3
A5
350
4D
  3
A6
350
4E
  3
A7
350
4F
  3
A8
350
50
  3
A9
350
51
  3
B0
350
52
  3
B1
350
53
  3
B2
350
54
  3
B3
350
55
  3
B4
350
56
  3
B5
350
57
  3
B6
350
58
  3
B7
350
59
  3
B8
350
5A
  3
B9
350
5B
  3
C0
350
5C
  3
C1
350
5D
  3
C2
350
5E
  3
C3
350
5F
  3
C4
350
60
  3
C5
350
61
  3
C6
350
62
  3
C7
350
63
  3
C8
350
64
  3
C9
350
65
  3
D0
350
66
  3
D1
350
67
  3
D2
350
68
  0
DICTIONARY
  5
278
102
{ACAD_REACTORS
330
C
102
}
330
C
100
AcDbDictionary
281
     1
  0
DICTIONARY
  5
69
102
{ACAD_REACTORS
330
C
102
}
330
C
100
AcDbDictionary
281
     1
  3
Standard
350
6A
  0
DICTIONARY
  5
2A
102
{ACAD_REACTORS
330
C
102
}
330
C
100
AcDbDictionary
281
     1
  3
2dWireframe
350
2F
  3
Basic
350
32
  3
Brighten
350
36
  3
ColorChange
350
3A
  3
Conceptual
350
34
  3
Dim
350
35
  3
EdgeColorOff
350
3D
  3
Facepattern
350
39
  3
Flat
350
2B
  3
FlatWithEdges
350
2C
  3
Gouraud
350
2D
  3
GouraudWithEdges
350
2E
  3
Hidden
350
31
  3
JitterOff
350
3B
  3
Linepattern
350
38
  3
OverhangOff
350
3C
  3
Realistic
350
33
  3
Shaded
350
42
  3
Shaded with edges
350
41
  3
Shades of Gray
350
3E
  3
Sketchy
350
3F
  3
Thicken
350
37
  3
Wireframe
350
30
  3
X-Ray
350
40
  0
XRECORD
  5
274
102
{ACAD_REACTORS
330
C
102
}
330
C
100
AcDbXrecord
280
     1
 90
        1
330
6A
  0
DICTIONARY
  5
23C
102
{ACAD_REACTORS
330
C
102
}
330
C
100
AcDbDictionary
281
     1
  3
CANNOSCALE
350
23D
  3
CMLEADERSTYLE
350
276
  3
CTABLESTYLE
350
275
  3
XCLIPFRAME
350
23E
  0
LAYOUT
  5
1E
102
{ACAD_REACTORS
330
1A
102
}
330
1A
100
AcDbPlotSettings
  1

  2
none_device
  4

  6

 40
0.0
 41
0.0
 42
0.0
 43
0.0
 44
0.0
 45
0.0
 46
0.0
 47
0.0
 48
0.0
 49
0.0
140
0.0
141
0.0
142
1.0
143
1.0
 70
   688
 72
     0
 73
     0
 74
     5
  7

 75
    16
 76
     0
 77
     2
 78
   300
147
1.0
148
0.0
149
0.0
100
AcDbLayout
  1
Layout1
 70
     1
 71
     1
 10
0.0
 20
0.0
 11
12.0
 21
9.0
 12
0.0
 22
0.0
 32
0.0
 14
1.000000000000000E+20
 24
1.000000000000000E+20
 34
1.000000000000000E+20
 15
-1.000000000000000E+20
 25
-1.000000000000000E+20
 35
-1.000000000000000E+20
146
0.0
 13
0.0
 23
0.0
 33
0.0
 16
1.0
 26
0.0
 36
0.0
 17
0.0
 27
1.0
 37
0.0
 76
     0
330
1B
  0
LAYOUT
  5
26
102
{ACAD_REACTORS
330
1A
102
}
330
1A
100
AcDbPlotSettings
  1

  2
none_device
  4

  6

 40
0.0
 41
0.0
 42
0.0
 43
0.0
 44
0.0
 45
0.0
 46
0.0
 47
0.0
 48
0.0
 49
0.0
140
0.0
141
0.0
142
1.0
143
1.0
 70
   688
 72
     0
 73
     0
 74
     5
  7

 75
    16
 76
     0
 77
     2
 78
   300
147
1.0
148
0.0
149
0.0
100
AcDbLayout
  1
Layout2
 70
     1
 71
     2
 10
0.0
 20
0.0
 11
0.0
 21
0.0
 12
0.0
 22
0.0
 32
0.0
 14
0.0
 24
0.0
 34
0.0
 15
0.0
 25
0.0
 35
0.0
146
0.0
 13
0.0
 23
0.0
 33
0.0
 16
1.0
 26
0.0
 36
0.0
 17
0.0
 27
1.0
 37
0.0
 76
     0
330
23
  0
LAYOUT
  5
22
102
{ACAD_REACTORS
330
1A
102
}
330
1A
100
AcDbPlotSettings
  1

  2
none_device
  4
Letter_(8.50_x_11.00_Inches)
  6

 40
6.35
 41
6.35
 42
6.35000508
 43
6.35000508
 44
215.9
 45
279.4
 46
0.0
 47
0.0
 48
0.0
 49
0.0
140
0.0
141
0.0
142
1.0
143
1.0
 70
  1712
 72
     0
 73
     0
 74
     0
  7

 75
     0
 76
     0
 77
     2
 78
   300
147
1.0
148
0.0
149
0.0
100
AcDbLayout
  1
Model
 70
     1
 71
     0
 10
0.0
 20
0.0
 11
12.0
 21
9.0
 12
0.0
 22
0.0
 32
0.0
 14
1.000000000000000E+20
 24
1.000000000000000E+20
 34
1.000000000000000E+20
 15
-1.000000000000000E+20
 25
-1.000000000000000E+20
 35
-1.000000000000000E+20
146
0.0
 13
0.0
 23
0.0
 33
0.0
 16
1.0
 26
0.0
 36
0.0
 17
0.0
 27
1.0
 37
0.0
 76
     0
330
1F
331
29
  0
MATERIAL
  5
45
102
{ACAD_REACTORS
330
43
102
}
330
43
100
AcDbMaterial
  1
ByBlock
 72
     1
 94
      127
  0
MATERIAL
  5
44
102
{ACAD_REACTORS
330
43
102
}
330
43
100
AcDbMaterial
  1
ByLayer
 72
     1
 94
      127
  0
MATERIAL
  5
46
102
{ACAD_REACTORS
330
43
102
}
330
43
100
AcDbMaterial
  1
Global
 72
     1
 94
      127
  0
MLEADERSTYLE
  5
6C
102
{ACAD_REACTORS
330
6B
102
}
102
{ACAD_XDICTIONARY
360
272
102
}
330
6B
100
AcDbMLeaderStyle
170
     2
171
     1
172
     0
 90
        2
 40
0.0
 41
0.0
173
     1
 91
-1056964608
340
14
 92
       -2
290
     1
 42
0.09
291
     1
 43
0.36
  3
Standard
341
0
 44
0.18
300

342
11
174
     1
178
     6
175
     1
176
     0
 93
-1056964608
 45
0.18
292
     0
297
     0
 46
0.18
343
0
 94
-1056964608
 47
1.0
 49
1.0
140
1.0
293
     1
141
0.0
294
     1
177
     0
142
1.0
295
     0
296
     0
143
0.125
1001
ACAD_MLEADERVER
1070
     2
  0
MLINESTYLE
  5
18
102
{ACAD_REACTORS
330
17
102
}
330
17
100
AcDbMlineStyle
  2
Standard
 70
     0
  3

 62
   256
 51
90.0
 52
90.0
 71
     2
 49
0.5
 62
   256
  6
BYLAYER
 49
-0.5
 62
   256
  6
BYLAYER
  0
ACDBPLACEHOLDER
  5
F
102
{ACAD_REACTORS
330
E
102
}
330
E
  0
SCALE
  5
48
102
{ACAD_REACTORS
330
47
102
}
330
47
100
AcDbScale
 70
     0
300
1:1
140
1.0
141
1.0
290
     1
  0
SCALE
  5
49
102
{ACAD_REACTORS
330
47
102
}
330
47
100
AcDbScale
 70
     0
300
1:2
140
1.0
141
2.0
290
     0
  0
SCALE
  5
4A
102
{ACAD_REACTORS
330
47
102
}
330
47
100
AcDbScale
 70
     0
300
1:4
140
1.0
141
4.0
290
     0
  0
SCALE
  5
4B
102
{ACAD_REACTORS
330
47
102
}
330
47
100
AcDbScale
 70
     0
300
1:5
140
1.0
141
5.0
290
     0
  0
SCALE
  5
4C
102
{ACAD_REACTORS
330
47
102
}
330
47
100
AcDbScale
 70
     0
300
1:8
140
1.0
141
8.0
290
     0
  0
SCALE
  5
4D
102
{ACAD_REACTORS
330
47
102
}
330
47
100
AcDbScale
 70
     0
300
1:10
140
1.0
141
10.0
290
     0
  0
SCALE
  5
4E
102
{ACAD_REACTORS
330
47
102
}
330
47
100
AcDbScale
 70
     0
300
1:16
140
1.0
141
16.0
290
     0
  0
SCALE
  5
4F
102
{ACAD_REACTORS
330
47
102
}
330
47
100
AcDbScale
 70
     0
300
1:20
140
1.0
141
20.0
290
     0
  0
SCALE
  5
50
102
{ACAD_REACTORS
330
47
102
}
330
47
100
AcDbScale
 70
     0
300
1:30
140
1.0
141
30.0
290
     0
  0
SCALE
  5
51
102
{ACAD_REACTORS
330
47
102
}
330
47
100
AcDbScale
 70
     0
300
1:40
140
1.0
141
40.0
290
     0
  0
SCALE
  5
52
102
{ACAD_REACTORS
330
47
102
}
330
47
100
AcDbScale
 70
     0
300
1:50
140
1.0
141
50.0
290
     0
  0
SCALE
  5
53
102
{ACAD_REACTORS
330
47
102
}
330
47
100
AcDbScale
 70
     0
300
1:100
140
1.0
141
100.0
290
     0
  0
SCALE
  5
54
102
{ACAD_REACTORS
330
47
102
}
330
47
100
AcDbScale
 70
     0
300
2:1
140
2.0
141
1.0
290
     0
  0
SCALE
  5
55
102
{ACAD_REACTORS
330
47
102
}
330
47
100
AcDbScale
 70
     0
300
4:1
140
4.0
141
1.0
290
     0
  0
SCALE
  5
56
102
{ACAD_REACTORS
330
47
102
}
330
47
100
AcDbScale
 70
     0
300
8:1
140
8.0
141
1.0
290
     0
  0
SCALE
  5
57
102
{ACAD_REACTORS
330
47
102
}
330
47
100
AcDbScale
 70
     0
300
10:1
140
10.0
141
1.0
290
     0
  0
SCALE
  5
58
102
{ACAD_REACTORS
330
47
102
}
330
47
100
AcDbScale
 70
     0
300
100:1
140
100.0
141
1.0
290
     0
  0
SCALE
  5
59
102
{ACAD_REACTORS
330
47
102
}
330
47
100
AcDbScale
 70
     0
300
1/128" = 1'-0"
140
0.0078125
141
12.0
290
     0
  0
SCALE
  5
5A
102
{ACAD_REACTORS
330
47
102
}
330
47
100
AcDbScale
 70
     0
300
1/64" = 1'-0"
140
0.015625
141
12.0
290
     0
  0
SCALE
  5
5B
102
{ACAD_REACTORS
330
47
102
}
330
47
100
AcDbScale
 70
     0
300
1/32" = 1'-0"
140
0.03125
141
12.0
290
     0
  0
SCALE
  5
5C
102
{ACAD_REACTORS
330
47
102
}
330
47
100
AcDbScale
 70
     0
300
1/16" = 1'-0"
140
0.0625
141
12.0
290
     0
  0
SCALE
  5
5D
102
{ACAD_REACTORS
330
47
102
}
330
47
100
AcDbScale
 70
     0
300
3/32" = 1'-0"
140
0.09375
141
12.0
290
     0
  0
SCALE
  5
5E
102
{ACAD_REACTORS
330
47
102
}
330
47
100
AcDbScale
 70
     0
300
1/8" = 1'-0"
140
0.125
141
12.0
290
     0
  0
SCALE
  5
5F
102
{ACAD_REACTORS
330
47
102
}
330
47
100
AcDbScale
 70
     0
300
3/16" = 1'-0"
140
0.1875
141
12.0
290
     0
  0
SCALE
  5
60
102
{ACAD_REACTORS
330
47
102
}
330
47
100
AcDbScale
 70
     0
300
1/4" = 1'-0"
140
0.25
141
12.0
290
     0
  0
SCALE
  5
61
102
{ACAD_REACTORS
330
47
102
}
330
47
100
AcDbScale
 70
     0
300
3/8" = 1'-0"
140
0.375
141
12.0
290
     0
  0
SCALE
  5
62
102
{ACAD_REACTORS
330
47
102
}
330
47
100
AcDbScale
 70
     0
300
1/2" = 1'-0"
140
0.5
141
12.0
290
     0
  0
SCALE
  5
63
102
{ACAD_REACTORS
330
47
102
}
330
47
100
AcDbScale
 70
     0
300
3/4" = 1'-0"
140
0.75
141
12.0
290
     0
  0
SCALE
  5
64
102
{ACAD_REACTORS
330
47
102
}
330
47
100
AcDbScale
 70
     0
300
1" = 1'-0"
140
1.0
141
12.0
290
     0
  0
SCALE
  5
65
102
{ACAD_REACTORS
330
47
102
}
330
47
100
AcDbScale
 70
     0
300
1-1/2" = 1'-0"
140
1.5
141
12.0
290
     0
  0
SCALE
  5
66
102
{ACAD_REACTORS
330
47
102
}
330
47
100
AcDbScale
 70
     0
300
3" = 1'-0"
140
3.0
141
12.0
290
     0
  0
SCALE
  5
67
102
{ACAD_REACTORS
330
47
102
}
330
47
100
AcDbScale
 70
     0
300
6" = 1'-0"
140
6.0
141
12.0
290
     0
  0
SCALE
  5
68
102
{ACAD_REACTORS
330
47
102
}
330
47
100
AcDbScale
 70
     0
300
1'-0" = 1'-0"
140
12.0
141
12.0
290
     0
  0
TABLESTYLE
  5
6A
102
{ACAD_REACTORS
330
69
102
}
102
{ACAD_XDICTIONARY
360
26F
102
}
330
69
100
AcDbTableStyle
  3
Standard
 70
     0
 71
     0
 40
0.06
 41
0.06
280
     0
281
     0
  7
Standard
140
0.18
170
     2
 62
     0
 63
   257
283
     0
 90
        4
 91
        0
  1

274
    -2
284
     1
 64
     0
275
    -2
285
     1
 65
     0
276
    -2
286
     1
 66
     0
277
    -2
287
     1
 67
     0
278
    -2
288
     1
 68
     0
279
    -2
289
     1
 69
     0
  7
Standard
140
0.25
170
     5
 62
     0
 63
   257
283
     0
 90
        4
 91
        0
  1

274
    -2
284
     1
 64
     0
275
    -2
285
     1
 65
     0
276
    -2
286
     1
 66
     0
277
    -2
287
     1
 67
     0
278
    -2
288
     1
 68
     0
279
    -2
289
     1
 69
     0
  7
Standard
140
0.18
170
     5
 62
     0
 63
   257
283
     0
 90
        4
 91
        0
  1

274
    -2
284
     1
 64
     0
275
    -2
285
     1
 65
     0
276
    -2
286
     1
 66
     0
277
    -2
287
     1
 67
     0
278
    -2
288
     1
 68
     0
279
    -2
289
     1
 69
     0
  0
VISUALSTYLE
  5
2F
102
{ACAD_REACTORS
330
2A
102
}
102
{ACAD_XDICTIONARY
360
247
102
}
330
2A
100
AcDbVisualStyle
  2
2dWireframe
 70
     4
 71
     0
 72
     2
 73
     0
 90
        0
 40
0.6
 41
30.0
 62
     5
 63
     7
421
 16777215
 74
     1
 91
        4
 64
     7
 65
   257
 75
     1
175
     1
 42
1.0
 92
        0
 66
   257
 43
1.0
 76
     1
 77
     6
 78
     2
 67
     7
 79
     5
170
     0
171
     0
290
     0
174
     0
 93
        1
 44
0.0
173
     0
291
     0
 45
0.0
  0
VISUALSTYLE
  5
32
102
{ACAD_REACTORS
330
2A
102
}
102
{ACAD_XDICTIONARY
360
24D
102
}
330
2A
100
AcDbVisualStyle
  2
Basic
 70
     7
 71
     1
 72
     0
 73
     1
 90
        0
 40
0.6
 41
30.0
 62
     5
 63
     7
421
 16777215
 74
     0
 91
        4
 64
     7
 65
   257
 75
     1
175
     1
 42
1.0
 92
        8
 66
     7
 43
1.0
 76
     1
 77
     6
 78
     2
 67
     7
 79
     5
170
     0
171
     0
290
     0
174
     0
 93
        1
 44
0.0
173
     0
291
     1
 45
0.0
  0
VISUALSTYLE
  5
36
102
{ACAD_REACTORS
330
2A
102
}
102
{ACAD_XDICTIONARY
360
255
102
}
330
2A
100
AcDbVisualStyle
  2
Brighten
 70
    12
 71
     2
 72
     2
 73
     0
 90
        0
 40
0.6
 41
30.0
 62
     5
 63
     7
421
 16777215
 74
     1
 91
        4
 64
     7
 65
   257
 75
     1
175
     1
 42
1.0
 92
        8
 66
     7
 43
1.0
 76
     1
 77
     6
 78
     2
 67
     7
 79
     5
170
     0
171
     0
290
     0
174
     0
 93
        1
 44
50.0
173
     0
291
     1
 45
0.0
  0
VISUALSTYLE
  5
3A
102
{ACAD_REACTORS
330
2A
102
}
102
{ACAD_XDICTIONARY
360
25D
102
}
330
2A
100
AcDbVisualStyle
  2
ColorChange
 70
    16
 71
     2
 72
     2
 73
     3
 90
        0
 40
0.6
 41
30.0
 62
     5
 63
     8
421
  8421504
 74
     1
 91
        4
 64
     7
 65
   257
 75
     1
175
     1
 42
1.0
 92
        8
 66
     8
424
  8421504
 43
1.0
 76
     1
 77
     6
 78
     2
 67
     7
 79
     5
170
     0
171
     0
290
     0
174
     0
 93
        1
 44
0.0
173
     0
291
     1
 45
0.0
  0
VISUALSTYLE
  5
34
102
{ACAD_REACTORS
330
2A
102
}
102
{ACAD_XDICTIONARY
360
251
102
}
330
2A
100
AcDbVisualStyle
  2
Conceptual
 70
     9
 71
     3
 72
     2
 73
     0
 90
        0
 40
0.6
 41
30.0
 62
     5
 63
     7
421
 16777215
 74
     2
 91
        2
 64
     7
 65
   257
 75
     1
175
     1
 42
179.0
 92
        8
 66
     7
 43
1.0
 76
     1
 77
     6
 78
     2
 67
     7
 79
     3
170
     0
171
     0
290
     0
174
     0
 93
        1
 44
0.0
173
     0
291
     0
 45
0.0
  0
VISUALSTYLE
  5
35
102
{ACAD_REACTORS
330
2A
102
}
102
{ACAD_XDICTIONARY
360
253
102
}
330
2A
100
AcDbVisualStyle
  2
Dim
 70
    11
 71
     2
 72
     2
 73
     0
 90
        0
 40
0.6
 41
30.0
 62
     5
 63
     7
421
 16777215
 74
     1
 91
        4
 64
     7
 65
   257
 75
     1
175
     1
 42
1.0
 92
        8
 66
     7
 43
1.0
 76
     1
 77
     6
 78
     2
 67
     7
 79
     5
170
     0
171
     0
290
     0
174
     0
 93
        1
 44
-50.0
173
     0
291
     1
 45
0.0
  0
VISUALSTYLE
  5
3D
102
{ACAD_REACTORS
330
2A
102
}
102
{ACAD_XDICTIONARY
360
263
102
}
330
2A
100
AcDbVisualStyle
  2
EdgeColorOff
 70
    22
 71
     2
 72
     2
 73
     0
 90
        0
 40
0.6
 41
30.0
 62
     5
 63
     7
421
 16777215
 74
     1
 91
        4
 64
     7
 65
   257
 75
     1
175
     1
 42
1.0
 92
        8
 66
     7
 43
1.0
 76
     1
 77
     6
 78
     2
 67
     7
 79
     5
170
     0
171
     0
290
     0
174
     0
 93
        1
 44
0.0
173
     0
291
     1
 45
0.0
  0
VISUALSTYLE
  5
39
102
{ACAD_REACTORS
330
2A
102
}
102
{ACAD_XDICTIONARY
360
25B
102
}
330
2A
100
AcDbVisualStyle
  2
Facepattern
 70
    15
 71
     2
 72
     2
 73
     0
 90
        0
 40
0.6
 41
30.0
 62
     5
 63
     7
421
 16777215
 74
     1
 91
        4
 64
     7
 65
   257
 75
     1
175
     1
 42
1.0
 92
        8
 66
     7
 43
1.0
 76
     1
 77
     6
 78
     2
 67
     7
 79
     5
170
     0
171
     0
290
     0
174
     0
 93
        1
 44
0.0
173
     0
291
     1
 45
0.0
  0
VISUALSTYLE
  5
2B
102
{ACAD_REACTORS
330
2A
102
}
102
{ACAD_XDICTIONARY
360
23F
102
}
330
2A
100
AcDbVisualStyle
  2
Flat
 70
     0
 71
     2
 72
     1
 73
     1
 90
        2
 40
0.6
 41
30.0
 62
     5
 63
     7
421
 16777215
 74
     0
 91
        0
 64
     7
 65
   257
 75
     1
175
     1
 42
1.0
 92
        8
 66
     7
 43
1.0
 76
     1
 77
     6
 78
     2
 67
     7
 79
     5
170
     0
171
     0
290
     0
174
     0
 93
       13
 44
0.0
173
     0
291
     1
 45
0.0
  0
VISUALSTYLE
  5
2C
102
{ACAD_REACTORS
330
2A
102
}
102
{ACAD_XDICTIONARY
360
241
102
}
330
2A
100
AcDbVisualStyle
  2
FlatWithEdges
 70
     1
 71
     2
 72
     1
 73
     1
 90
        2
 40
0.6
 41
30.0
 62
     5
 63
     7
421
 16777215
 74
     1
 91
        0
 64
     7
 65
   257
 75
     1
175
     1
 42
1.0
 92
        0
 66
   257
 43
1.0
 76
     1
 77
     6
 78
     2
 67
     7
 79
     5
170
     0
171
     0
290
     0
174
     0
 93
       13
 44
0.0
173
     0
291
     1
 45
0.0
  0
VISUALSTYLE
  5
2D
102
{ACAD_REACTORS
330
2A
102
}
102
{ACAD_XDICTIONARY
360
243
102
}
330
2A
100
AcDbVisualStyle
  2
Gouraud
 70
     2
 71
     2
 72
     2
 73
     1
 90
        2
 40
0.6
 41
30.0
 62
     5
 63
     7
421
 16777215
 74
     0
 91
        0
 64
     7
 65
   257
 75
     1
175
     1
 42
1.0
 92
        0
 66
     7
 43
1.0
 76
     1
 77
     6
 78
     2
 67
     7
 79
     5
170
     0
171
     0
290
     0
174
     0
 93
       13
 44
0.0
173
     0
291
     1
 45
0.0
  0
VISUALSTYLE
  5
2E
102
{ACAD_REACTORS
330
2A
102
}
102
{ACAD_XDICTIONARY
360
245
102
}
330
2A
100
AcDbVisualStyle
  2
GouraudWithEdges
 70
     3
 71
     2
 72
     2
 73
     1
 90
        2
 40
0.6
 41
30.0
 62
     5
 63
     7
421
 16777215
 74
     1
 91
        0
 64
     7
 65
   257
 75
     1
175
     1
 42
1.0
 92
        0
 66
   257
 43
1.0
 76
     1
 77
     6
 78
     2
 67
     7
 79
     5
170
     0
171
     0
290
     0
174
     0
 93
       13
 44
0.0
173
     0
291
     1
 45
0.0
  0
VISUALSTYLE
  5
31
102
{ACAD_REACTORS
330
2A
102
}
102
{ACAD_XDICTIONARY
360
24B
102
}
330
2A
100
AcDbVisualStyle
  2
Hidden
 70
     6
 71
     1
 72
     2
 73
     2
 90
        0
 40
0.6
 41
30.0
 62
     5
 63
     7
421
 16777215
 74
     2
 91
        2
 64
     7
 65
   257
 75
     2
175
     1
 42
40.0
 92
        0
 66
   257
 43
1.0
 76
     1
 77
     6
 78
     2
 67
     7
 79
     3
170
     0
171
     0
290
     0
174
     0
 93
        1
 44
0.0
173
     0
291
     0
 45
0.0
  0
VISUALSTYLE
  5
3B
102
{ACAD_REACTORS
330
2A
102
}
102
{ACAD_XDICTIONARY
360
25F
102
}
330
2A
100
AcDbVisualStyle
  2
JitterOff
 70
    20
 71
     2
 72
     2
 73
     0
 90
        0
 40
0.6
 41
30.0
 62
     5
 63
     7
421
 16777215
 74
     1
 91
        4
 64
     7
 65
   257
 75
     1
175
     1
 42
1.0
 92
       10
 66
     7
 43
1.0
 76
     1
 77
     6
 78
     2
 67
     7
 79
     5
170
     0
171
     0
290
     0
174
     0
 93
        1
 44
0.0
173
     0
291
     1
 45
0.0
  0
VISUALSTYLE
  5
38
102
{ACAD_REACTORS
330
2A
102
}
102
{ACAD_XDICTIONARY
360
259
102
}
330
2A
100
AcDbVisualStyle
  2
Linepattern
 70
    14
 71
     2
 72
     2
 73
     0
 90
        0
 40
0.6
 41
30.0
 62
     5
 63
     7
421
 16777215
 74
     1
 91
        4
 64
     7
 65
   257
 75
     7
175
     7
 42
1.0
 92
        8
 66
     7
 43
1.0
 76
     1
 77
     6
 78
     2
 67
     7
 79
     5
170
     0
171
     0
290
     0
174
     0
 93
        1
 44
0.0
173
     0
291
     1
 45
0.0
  0
VISUALSTYLE
  5
3C
102
{ACAD_REACTORS
330
2A
102
}
102
{ACAD_XDICTIONARY
360
261
102
}
330
2A
100
AcDbVisualStyle
  2
OverhangOff
 70
    21
 71
     2
 72
     2
 73
     0
 90
        0
 40
0.6
 41
30.0
 62
     5
 63
     7
421
 16777215
 74
     1
 91
        4
 64
     7
 65
   257
 75
     1
175
     1
 42
1.0
 92
        9
 66
     7
 43
1.0
 76
     1
 77
     6
 78
     2
 67
     7
 79
     5
170
     0
171
     0
290
     0
174
     0
 93
        1
 44
0.0
173
     0
291
     1
 45
0.0
  0
VISUALSTYLE
  5
33
102
{ACAD_REACTORS
330
2A
102
}
102
{ACAD_XDICTIONARY
360
24F
102
}
330
2A
100
AcDbVisualStyle
  2
Realistic
 70
     8
 71
     2
 72
     3
 73
     0
 90
        2
 40
0.6
 41
30.0
 62
     5
 63
     7
421
 16777215
 74
     0
 91
        0
 64
     7
 65
   257
 75
     1
175
     1
 42
1.0
 92
        8
 66
   257
 43
1.0
 76
     1
 77
     6
 78
     2
 67
     7
 79
     3
170
     0
171
     0
290
     0
174
     0
 93
       13
 44
0.0
173
     0
291
     0
 45
0.0
  0
VISUALSTYLE
  5
42
102
{ACAD_REACTORS
330
2A
102
}
102
{ACAD_XDICTIONARY
360
26D
102
}
330
2A
100
AcDbVisualStyle
  2
Shaded
 70
    27
 71
     2
 72
     2
 73
     1
 90
        2
 40
0.6
 41
30.0
 62
     5
 63
     7
421
 16777215
 74
     0
 91
        4
 64
     7
 65
   257
 75
     1
175
     1
 42
1.0
 92
        8
 66
   257
 43
1.0
 76
     1
 77
     6
 78
     2
 67
     8
425
  7895160
 79
     3
170
     0
171
     0
290
     0
174
     0
 93
        5
 44
0.0
173
     0
291
     0
 45
0.0
  0
VISUALSTYLE
  5
41
102
{ACAD_REACTORS
330
2A
102
}
102
{ACAD_XDICTIONARY
360
26B
102
}
330
2A
100
AcDbVisualStyle
  2
Shaded with edges
 70
    26
 71
     2
 72
     2
 73
     1
 90
        2
 40
0.6
 41
30.0
 62
     5
 63
     7
421
 16777215
 74
     1
 91
       10
 64
     7
 65
   257
 75
     2
175
     1
 42
1.0
 92
        8
 66
   257
 43
1.0
 76
     1
 77
     6
 78
     2
 67
     7
 79
     3
170
     0
171
     0
290
     0
174
     0
 93
        5
 44
0.0
173
     0
291
     0
 45
0.0
  0
VISUALSTYLE
  5
3E
102
{ACAD_REACTORS
330
2A
102
}
102
{ACAD_XDICTIONARY
360
265
102
}
330
2A
100
AcDbVisualStyle
  2
Shades of Gray
 70
    23
 71
     2
 72
     2
 73
     3
 90
        0
 40
0.6
 41
30.0
 62
     5
 63
     7
421
 16777215
 74
     2
 91
        2
 64
     7
 65
     7
 75
     1
175
     1
 42
40.0
 92
        8
 66
     7
 43
1.0
 76
     1
 77
     6
 78
     2
 67
     7
 79
     3
170
     0
171
     0
290
     0
174
     0
 93
        1
 44
0.0
173
     0
291
     0
 45
0.0
  0
VISUALSTYLE
  5
3F
102
{ACAD_REACTORS
330
2A
102
}
102
{ACAD_XDICTIONARY
360
267
102
}
330
2A
100
AcDbVisualStyle
  2
Sketchy
 70
    24
 71
     1
 72
     2
 73
     2
 90
        0
 40
0.6
 41
30.0
 62
     5
 63
     7
421
 16777215
 74
     2
 91
        2
 64
     7
 65
     7
 75
     1
175
     1
 42
40.0
 92
       11
 66
     7
 43
1.0
 76
     1
 77
     6
 78
     2
 67
     7
 79
     6
170
     0
171
     0
290
     0
174
     0
 93
        1
 44
0.0
173
     0
291
     0
 45
0.0
  0
VISUALSTYLE
  5
37
102
{ACAD_REACTORS
330
2A
102
}
102
{ACAD_XDICTIONARY
360
257
102
}
330
2A
100
AcDbVisualStyle
  2
Thicken
 70
    13
 71
     2
 72
     2
 73
     0
 90
        0
 40
0.6
 41
30.0
 62
     5
 63
     7
421
 16777215
 74
     1
 91
        4
 64
     7
 65
   257
 75
     1
175
     1
 42
1.0
 92
       12
 66
     7
 43
1.0
 76
     1
 77
     6
 78
     2
 67
     7
 79
     5
170
     0
171
     0
290
     0
174
     0
 93
        1
 44
0.0
173
     0
291
     1
 45
0.0
  0
VISUALSTYLE
  5
30
102
{ACAD_REACTORS
330
2A
102
}
102
{ACAD_XDICTIONARY
360
249
102
}
330
2A
100
AcDbVisualStyle
  2
Wireframe
 70
     5
 71
     0
 72
     2
 73
     0
 90
        0
 40
0.6
 41
30.0
 62
     5
 63
     7
421
 16777215
 74
     1
 91
        4
 64
     7
 65
   257
 75
     1
175
     1
 42
1.0
 92
        0
 66
   257
 43
1.0
 76
     1
 77
     6
 78
     2
 67
     7
 79
     3
170
     0
171
     0
290
     0
174
     0
 93
        1
 44
0.0
173
     0
291
     0
 45
0.0
  0
VISUALSTYLE
  5
40
102
{ACAD_REACTORS
330
2A
102
}
102
{ACAD_XDICTIONARY
360
269
102
}
330
2A
100
AcDbVisualStyle
  2
X-Ray
 70
    25
 71
     2
 72
     2
 73
     1
 90
        1
 40
0.5
 41
30.0
 62
     5
 63
     7
421
 16777215
 74
     1
 91
        0
 64
     7
 65
   257
 75
     1
175
     1
 42
1.0
 92
        8
 66
     7
 43
1.0
 76
     1
 77
     6
 78
     2
 67
     7
 79
     3
170
     0
171
     0
290
     0
174
     0
 93
       13
 44
0.0
173
     0
291
     0
 45
0.0
  0
DICTIONARYVAR
  5
23D
102
{ACAD_REACTORS
330
23C
102
}
330
23C
100
DictionaryVariables
280
     0
  1
1:1
  0
DICTIONARYVAR
  5
276
102
{ACAD_REACTORS
330
23C
102
}
330
23C
100
DictionaryVariables
280
     0
  1
Standard
  0
DICTIONARYVAR
  5
275
102
{ACAD_REACTORS
330
23C
102
}
330
23C
100
DictionaryVariables
280
     0
  1
Standard
  0
DICTIONARYVAR
  5
23E
102
{ACAD_REACTORS
330
23C
102
}
330
23C
100
DictionaryVariables
280
     0
  1
2
  0
DICTIONARY
  5
272
330
6C
100
AcDbDictionary
280
     1
281
     1
  3
ACAD_XREC_ROUNDTRIP
360
273
  0
DICTIONARY
  5
26F
330
6A
100
AcDbDictionary
280
     1
281
     1
  3
ACAD_ROUNDTRIP_2008_TABLESTYLE_CELLSTYLEMAP
360
270
  0
DICTIONARY
  5
247
330
2F
100
AcDbDictionary
280
     1
281
     1
  3
ACAD_XREC_ROUNDTRIP
360
248
  0
DICTIONARY
  5
24D
330
32
100
AcDbDictionary
280
     1
281
     1
  3
ACAD_XREC_ROUNDTRIP
360
24E
  0
DICTIONARY
  5
255
330
36
100
AcDbDictionary
280
     1
281
     1
  3
ACAD_XREC_ROUNDTRIP
360
256
  0
DICTIONARY
  5
25D
330
3A
100
AcDbDictionary
280
     1
281
     1
  3
ACAD_XREC_ROUNDTRIP
360
25E
  0
DICTIONARY
  5
251
330
34
100
AcDbDictionary
280
     1
281
     1
  3
ACAD_XREC_ROUNDTRIP
360
252
  0
DICTIONARY
  5
253
330
35
100
AcDbDictionary
280
     1
281
     1
  3
ACAD_XREC_ROUNDTRIP
360
254
  0
DICTIONARY
  5
263
330
3D
100
AcDbDictionary
280
     1
281
     1
  3
ACAD_XREC_ROUNDTRIP
360
264
  0
DICTIONARY
  5
25B
330
39
100
AcDbDictionary
280
     1
281
     1
  3
ACAD_XREC_ROUNDTRIP
360
25C
  0
DICTIONARY
  5
23F
330
2B
100
AcDbDictionary
280
     1
281
     1
  3
ACAD_XREC_ROUNDTRIP
360
240
  0
DICTIONARY
  5
241
330
2C
100
AcDbDictionary
280
     1
281
     1
  3
ACAD_XREC_ROUNDTRIP
360
242
  0
DICTIONARY
  5
243
330
2D
100
AcDbDictionary
280
     1
281
     1
  3
ACAD_XREC_ROUNDTRIP
360
244
  0
DICTIONARY
  5
245
330
2E
100
AcDbDictionary
280
     1
281
     1
  3
ACAD_XREC_ROUNDTRIP
360
246
  0
DICTIONARY
  5
24B
330
31
100
AcDbDictionary
280
     1
281
     1
  3
ACAD_XREC_ROUNDTRIP
360
24C
  0
DICTIONARY
  5
25F
330
3B
100
AcDbDictionary
280
     1
281
     1
  3
ACAD_XREC_ROUNDTRIP
360
260
  0
DICTIONARY
  5
259
330
38
100
AcDbDictionary
280
     1
281
     1
  3
ACAD_XREC_ROUNDTRIP
360
25A
  0
DICTIONARY
  5
261
330
3C
100
AcDbDictionary
280
     1
281
     1
  3
ACAD_XREC_ROUNDTRIP
360
262
  0
DICTIONARY
  5
24F
330
33
100
AcDbDictionary
280
     1
281
     1
  3
ACAD_XREC_ROUNDTRIP
360
250
  0
DICTIONARY
  5
26D
330
42
100
AcDbDictionary
280
     1
281
     1
  3
ACAD_XREC_ROUNDTRIP
360
26E
  0
DICTIONARY
  5
26B
330
41
100
AcDbDictionary
280
     1
281
     1
  3
ACAD_XREC_ROUNDTRIP
360
26C
  0
DICTIONARY
  5
265
330
3E
100
AcDbDictionary
280
     1
281
     1
  3
ACAD_XREC_ROUNDTRIP
360
266
  0
DICTIONARY
  5
267
330
3F
100
AcDbDictionary
280
     1
281
     1
  3
ACAD_XREC_ROUNDTRIP
360
268
  0
DICTIONARY
  5
257
330
37
100
AcDbDictionary
280
     1
281
     1
  3
ACAD_XREC_ROUNDTRIP
360
258
  0
DICTIONARY
  5
249
330
30
100
AcDbDictionary
280
     1
281
     1
  3
ACAD_XREC_ROUNDTRIP
360
24A
  0
DICTIONARY
  5
269
330
40
100
AcDbDictionary
280
     1
281
     1
  3
ACAD_XREC_ROUNDTRIP
360
26A
  0
XRECORD
  5
273
102
{ACAD_REACTORS
330
272
102
}
330
272
100
AcDbXrecord
280
     1
102
ACAD_ROUNDTRIP_2010_MLEADER_STYLE
  0
CELLSTYLEMAP
  5
270
102
{ACAD_REACTORS
330
26F
102
}
330
26F
100
AcDbCellStyleMap
 90
        3
300
CELLSTYLE
  1
TABLEFORMAT_BEGIN
 90
        5
170
     1
 91
        0
 92
    32768
 62
   257
 93
        1
300
CONTENTFORMAT
  1
CONTENTFORMAT_BEGIN
 90
        0
 91
        0
 92
        4
 93
        0
300

 40
0.0
140
1.0
 94
        5
 62
     0
340
11
144
0.25
309
CONTENTFORMAT_END
171
     1
301
MARGIN
  1
CELLMARGIN_BEGIN
 40
0.06
 40
0.06
 40
0.06
 40
0.06
 40
0.06
 40
0.06
309
CELLMARGIN_END
 94
        6
 95
        1
302
GRIDFORMAT
  1
GRIDFORMAT_BEGIN
 90
        0
 91
        1
 62
     0
 92
       -2
340
14
 93
        0
 40
0.045
309
GRIDFORMAT_END
 95
        2
302
GRIDFORMAT
  1
GRIDFORMAT_BEGIN
 90
        0
 91
        1
 62
     0
 92
       -2
340
14
 93
        0
 40
0.045
309
GRIDFORMAT_END
 95
        4
302
GRIDFORMAT
  1
GRIDFORMAT_BEGIN
 90
        0
 91
        1
 62
     0
 92
       -2
340
14
 93
        0
 40
0.045
309
GRIDFORMAT_END
 95
        8
302
GRIDFORMAT
  1
GRIDFORMAT_BEGIN
 90
        0
 91
        1
 62
     0
 92
       -2
340
14
 93
        0
 40
0.045
309
GRIDFORMAT_END
 95
       16
302
GRIDFORMAT
  1
GRIDFORMAT_BEGIN
 90
        0
 91
        1
 62
     0
 92
       -2
340
14
 93
        0
 40
0.045
309
GRIDFORMAT_END
 95
       32
302
GRIDFORMAT
  1
GRIDFORMAT_BEGIN
 90
        0
 91
        1
 62
     0
 92
       -2
340
14
 93
        0
 40
0.045
309
GRIDFORMAT_END
309
TABLEFORMAT_END
  1
CELLSTYLE_BEGIN
 90
        1
 91
        1
300
_TITLE
309
CELLSTYLE_END
300
CELLSTYLE
  1
TABLEFORMAT_BEGIN
 90
        5
170
     1
 91
        0
 92
        0
 62
   257
 93
        1
300
CONTENTFORMAT
  1
CONTENTFORMAT_BEGIN
 90
        0
 91
        0
 92
        4
 93
        0
300

 40
0.0
140
1.0
 94
        5
 62
     0
340
11
144
0.18
309
CONTENTFORMAT_END
171
     1
301
MARGIN
  1
CELLMARGIN_BEGIN
 40
0.06
 40
0.06
 40
0.06
 40
0.06
 40
0.06
 40
0.06
309
CELLMARGIN_END
 94
        6
 95
        1
302
GRIDFORMAT
  1
GRIDFORMAT_BEGIN
 90
        0
 91
        1
 62
     0
 92
       -2
340
14
 93
        0
 40
0.045
309
GRIDFORMAT_END
 95
        2
302
GRIDFORMAT
  1
GRIDFORMAT_BEGIN
 90
        0
 91
        1
 62
     0
 92
       -2
340
14
 93
        0
 40
0.045
309
GRIDFORMAT_END
 95
        4
302
GRIDFORMAT
  1
GRIDFORMAT_BEGIN
 90
        0
 91
        1
 62
     0
 92
       -2
340
14
 93
        0
 40
0.045
309
GRIDFORMAT_END
 95
        8
302
GRIDFORMAT
  1
GRIDFORMAT_BEGIN
 90
        0
 91
        1
 62
     0
 92
       -2
340
14
 93
        0
 40
0.045
309
GRIDFORMAT_END
 95
       16
302
GRIDFORMAT
  1
GRIDFORMAT_BEGIN
 90
        0
 91
        1
 62
     0
 92
       -2
340
14
 93
        0
 40
0.045
309
GRIDFORMAT_END
 95
       32
302
GRIDFORMAT
  1
GRIDFORMAT_BEGIN
 90
        0
 91
        1
 62
     0
 92
       -2
340
14
 93
        0
 40
0.045
309
GRIDFORMAT_END
309
TABLEFORMAT_END
  1
CELLSTYLE_BEGIN
 90
        2
 91
        1
300
_HEADER
309
CELLSTYLE_END
300
CELLSTYLE
  1
TABLEFORMAT_BEGIN
 90
        5
170
     1
 91
        0
 92
        0
 62
   257
 93
        1
300
CONTENTFORMAT
  1
CONTENTFORMAT_BEGIN
 90
        0
 91
        0
 92
        4
 93
        0
300

 40
0.0
140
1.0
 94
        2
 62
     0
340
11
144
0.18
309
CONTENTFORMAT_END
171
     1
301
MARGIN
  1
CELLMARGIN_BEGIN
 40
0.06
 40
0.06
 40
0.06
 40
0.06
 40
0.06
 40
0.06
309
CELLMARGIN_END
 94
        6
 95
        1
302
GRIDFORMAT
  1
GRIDFORMAT_BEGIN
 90
        0
 91
        1
 62
     0
 92
       -2
340
14
 93
        0
 40
0.045
309
GRIDFORMAT_END
 95
        2
302
GRIDFORMAT
  1
GRIDFORMAT_BEGIN
 90
        0
 91
        1
 62
     0
 92
       -2
340
14
 93
        0
 40
0.045
309
GRIDFORMAT_END
 95
        4
302
GRIDFORMAT
  1
GRIDFORMAT_BEGIN
 90
        0
 91
        1
 62
     0
 92
       -2
340
14
 93
        0
 40
0.045
309
GRIDFORMAT_END
 95
        8
302
GRIDFORMAT
  1
GRIDFORMAT_BEGIN
 90
        0
 91
        1
 62
     0
 92
       -2
340
14
 93
        0
 40
0.045
309
GRIDFORMAT_END
 95
       16
302
GRIDFORMAT
  1
GRIDFORMAT_BEGIN
 90
        0
 91
        1
 62
     0
 92
       -2
340
14
 93
        0
 40
0.045
309
GRIDFORMAT_END
 95
       32
302
GRIDFORMAT
  1
GRIDFORMAT_BEGIN
 90
        0
 91
        1
 62
     0
 92
       -2
340
14
 93
        0
 40
0.045
309
GRIDFORMAT_END
309
TABLEFORMAT_END
  1
CELLSTYLE_BEGIN
 90
        3
 91
        2
300
_DATA
309
CELLSTYLE_END
  0
XRECORD
  5
248
102
{ACAD_REACTORS
330
247
102
}
330
247
100
AcDbXrecord
280
     1
102
RTVSPropertyOp0
 70
     1
102
RTVSPropertyOp1
 70
     1
102
RTVSPropertyOp2
 70
     1
102
RTVSPropertyOp3
 70
     1
102
RTVSPropertyOp4
 70
     1
102
RTVSPropertyOp5
 70
     1
102
RTVSPropertyOp6
 70
     1
102
RTVSPropertyOp7
 70
     1
102
RTVSPropertyOp8
 70
     1
102
RTVSPropertyOp9
 70
     1
102
RTVSPropertyOp10
 70
     1
102
RTVSPropertyOp11
 70
     1
102
RTVSPropertyOp12
 70
     1
102
RTVSPropertyOp13
 70
     1
102
RTVSPropertyOp14
 70
     1
102
RTVSPropertyOp15
 70
     1
102
RTVSPropertyOp16
 70
     1
102
RTVSPropertyOp17
 70
     1
102
RTVSPropertyOp18
 70
     1
102
RTVSPropertyOp19
 70
     1
102
RTVSPropertyOp20
 70
     1
102
RTVSPropertyOp21
 70
     1
102
RTVSPropertyOp22
 70
     1
102
RTVSPropertyOp23
 70
     1
102
RTVSPropertyOp24
 70
     1
102
RTVSPropertyOp25
 70
     1
102
RTVSPropertyOp26
 70
     1
102
RTVSPropertyOp27
 70
     1
102
RTVSPropertyOp28
 70
     1
102
RTVSPropertyOp29
 70
     1
102
RTVSPropertyOp30
 70
     1
102
RTVSPropertyOp31
 70
     1
102
RTVSPropertyOp32
 70
     1
102
RTVSPropertyOp33
 70
     1
102
RTVSPropertyOp34
 70
     1
102
RTVSPropertyOp35
 70
     1
102
RTVSPropertyOp36
 70
     1
102
RTVSPropertyOp37
 70
     1
102
RTVSPropertyOp38
 70
     1
102
RTVSPropertyOp39
 70
     1
102
RTVSPropertyOp40
 70
     1
102
RTVSPropertyOp41
 70
     1
102
RTVSPropertyOp42
 70
     1
102
RTVSPropertyOp43
 70
     1
102
RTVSPropertyOp44
 70
     1
102
RTVSPropertyOp45
 70
     1
102
RTVSPropertyOp46
 70
     1
102
RTVSPropertyOp47
 70
     1
102
RTVSPropertyOp48
 70
     1
102
RTVSPropertyOp49
 70
     1
102
RTVSPropertyOp50
 70
     1
102
RTVSPropertyOp51
 70
     0
102
RTVSPropertyOp52
 70
     0
102
RTVSPropertyOp53
 70
     1
102
RTVSPropertyOp54
 70
     1
102
RTVSPropertyOp55
 70
     1
102
RTVSPropertyOp56
 70
     1
102
RTVSPropertyOp57
 70
     1
102
RTVSPost2010Prop28
280
     1
102
RTVSPost2010PropOp28
 70
     1
102
RTVSPost2010Prop29
280
     1
102
RTVSPost2010PropOp29
 70
     1
102
RTVSPost2010Prop30
280
     0
102
RTVSPost2010PropOp30
 70
     1
102
RTVSPost2010Prop31
280
     0
102
RTVSPost2010PropOp31
 70
     1
102
RTVSPost2010Prop32
280
     0
102
RTVSPost2010PropOp32
 70
     1
102
RTVSPost2010Prop33
280
     0
102
RTVSPost2010PropOp33
 70
     1
102
RTVSPost2010Prop34
280
     0
102
RTVSPost2010PropOp34
 70
     1
102
RTVSPost2010Prop35
280
     0
102
RTVSPost2010PropOp35
 70
     1
102
RTVSPost2010Prop36
280
     0
102
RTVSPost2010PropOp36
 70
     1
102
RTVSPost2010Prop37
 90
       50
102
RTVSPost2010PropOp37
 70
     1
102
RTVSPost2010Prop38
140
0.0
102
RTVSPost2010PropOp38
 70
     1
102
RTVSPost2010Prop39
140
1.0
102
RTVSPost2010PropOp39
 70
     1
102
RTVSPost2010Prop40
 90
        0
102
RTVSPost2010PropOp40
 70
     1
102
RTVSPost2010Prop41ColorIndex
 90
       18
102
RTVSPost2010Prop41ColorRGB
 90
        0
102
RTVSPost2010PropOp41
 70
     1
102
RTVSPost2010Prop42
 90
       50
102
RTVSPost2010PropOp42
 70
     1
102
RTVSPost2010Prop43
 90
        3
102
RTVSPost2010PropOp43
 70
     1
102
RTVSPost2010Prop44ColorIndex
 90
        5
102
RTVSPost2010Prop44ColorRGB
 90
      255
102
RTVSPost2010PropOp44
 70
     1
102
RTVSPost2010Prop45
280
     0
102
RTVSPost2010PropOp45
 70
     1
102
RTVSPost2010Prop46
 90
       50
102
RTVSPost2010PropOp46
 70
     1
102
RTVSPost2010Prop47
 90
       50
102
RTVSPost2010PropOp47
 70
     1
102
RTVSPost2010Prop48
 90
       50
102
RTVSPost2010PropOp48
 70
     1
102
RTVSPost2010Prop49
280
     0
102
RTVSPost2010PropOp49
 70
     1
102
RTVSPost2010Prop50
 90
       50
102
RTVSPost2010PropOp50
 70
     1
102
RTVSPost2010Prop51ColorIndex
 90
      256
102
RTVSPost2010Prop51ColorRGB
 90
-16777216
102
RTVSPost2010PropOp51
 70
     0
102
RTVSPost2010Prop52
140
1.0
102
RTVSPost2010PropOp52
 70
     0
102
RTVSPost2010Prop53
 90
        2
102
RTVSPost2010PropOp53
 70
     1
102
RTVSPost2010Prop54
  1
strokes_ogs.tif
102
RTVSPost2010PropOp54
 70
     1
102
RTVSPost2010Prop55
280
     0
102
RTVSPost2010PropOp55
 70
     1
102
RTVSPost2010Prop56
140
1.0
102
RTVSPost2010PropOp56
 70
     1
102
RTVSPost2010Prop57
140
1.0
102
RTVSPost2010PropOp57
 70
     1
  0
XRECORD
  5
24E
102
{ACAD_REACTORS
330
24D
102
}
330
24D
100
AcDbXrecord
280
     1
102
RTVSPropertyOp0
 70
     1
102
RTVSPropertyOp1
 70
     1
102
RTVSPropertyOp2
 70
     1
102
RTVSPropertyOp3
 70
     1
102
RTVSPropertyOp4
 70
     1
102
RTVSPropertyOp5
 70
     1
102
RTVSPropertyOp6
 70
     1
102
RTVSPropertyOp7
 70
     1
102
RTVSPropertyOp8
 70
     1
102
RTVSPropertyOp9
 70
     1
102
RTVSPropertyOp10
 70
     1
102
RTVSPropertyOp11
 70
     1
102
RTVSPropertyOp12
 70
     1
102
RTVSPropertyOp13
 70
     1
102
RTVSPropertyOp14
 70
     1
102
RTVSPropertyOp15
 70
     1
102
RTVSPropertyOp16
 70
     1
102
RTVSPropertyOp17
 70
     1
102
RTVSPropertyOp18
 70
     1
102
RTVSPropertyOp19
 70
     1
102
RTVSPropertyOp20
 70
     1
102
RTVSPropertyOp21
 70
     1
102
RTVSPropertyOp22
 70
     1
102
RTVSPropertyOp23
 70
     1
102
RTVSPropertyOp24
 70
     1
102
RTVSPropertyOp25
 70
     1
102
RTVSPropertyOp26
 70
     1
102
RTVSPropertyOp27
 70
     1
102
RTVSPropertyOp28
 70
     1
102
RTVSPropertyOp29
 70
     1
102
RTVSPropertyOp30
 70
     1
102
RTVSPropertyOp31
 70
     1
102
RTVSPropertyOp32
 70
     1
102
RTVSPropertyOp33
 70
     1
102
RTVSPropertyOp34
 70
     1
102
RTVSPropertyOp35
 70
     1
102
RTVSPropertyOp36
 70
     1
102
RTVSPropertyOp37
 70
     1
102
RTVSPropertyOp38
 70
     1
102
RTVSPropertyOp39
 70
     1
102
RTVSPropertyOp40
 70
     1
102
RTVSPropertyOp41
 70
     1
102
RTVSPropertyOp42
 70
     1
102
RTVSPropertyOp43
 70
     1
102
RTVSPropertyOp44
 70
     1
102
RTVSPropertyOp45
 70
     1
102
RTVSPropertyOp46
 70
     1
102
RTVSPropertyOp47
 70
     1
102
RTVSPropertyOp48
 70
     1
102
RTVSPropertyOp49
 70
     1
102
RTVSPropertyOp50
 70
     1
102
RTVSPropertyOp51
 70
     0
102
RTVSPropertyOp52
 70
     0
102
RTVSPropertyOp53
 70
     1
102
RTVSPropertyOp54
 70
     1
102
RTVSPropertyOp55
 70
     1
102
RTVSPropertyOp56
 70
     1
102
RTVSPropertyOp57
 70
     1
102
RTVSPost2010Prop28
280
     0
102
RTVSPost2010PropOp28
 70
     1
102
RTVSPost2010Prop29
280
     1
102
RTVSPost2010PropOp29
 70
     1
102
RTVSPost2010Prop30
280
     1
102
RTVSPost2010PropOp30
 70
     1
102
RTVSPost2010Prop31
280
     0
102
RTVSPost2010PropOp31
 70
     1
102
RTVSPost2010Prop32
280
     0
102
RTVSPost2010PropOp32
 70
     1
102
RTVSPost2010Prop33
280
     0
102
RTVSPost2010PropOp33
 70
     1
102
RTVSPost2010Prop34
280
     0
102
RTVSPost2010PropOp34
 70
     1
102
RTVSPost2010Prop35
280
     0
102
RTVSPost2010PropOp35
 70
     1
102
RTVSPost2010Prop36
280
     0
102
RTVSPost2010PropOp36
 70
     1
102
RTVSPost2010Prop37
 90
       50
102
RTVSPost2010PropOp37
 70
     1
102
RTVSPost2010Prop38
140
0.0
102
RTVSPost2010PropOp38
 70
     1
102
RTVSPost2010Prop39
140
1.0
102
RTVSPost2010PropOp39
 70
     1
102
RTVSPost2010Prop40
 90
        0
102
RTVSPost2010PropOp40
 70
     1
102
RTVSPost2010Prop41ColorIndex
 90
       18
102
RTVSPost2010Prop41ColorRGB
 90
        0
102
RTVSPost2010PropOp41
 70
     1
102
RTVSPost2010Prop42
 90
       50
102
RTVSPost2010PropOp42
 70
     1
102
RTVSPost2010Prop43
 90
        3
102
RTVSPost2010PropOp43
 70
     1
102
RTVSPost2010Prop44ColorIndex
 90
        5
102
RTVSPost2010Prop44ColorRGB
 90
      255
102
RTVSPost2010PropOp44
 70
     1
102
RTVSPost2010Prop45
280
     0
102
RTVSPost2010PropOp45
 70
     1
102
RTVSPost2010Prop46
 90
       50
102
RTVSPost2010PropOp46
 70
     1
102
RTVSPost2010Prop47
 90
       50
102
RTVSPost2010PropOp47
 70
     1
102
RTVSPost2010Prop48
 90
       50
102
RTVSPost2010PropOp48
 70
     1
102
RTVSPost2010Prop49
280
     0
102
RTVSPost2010PropOp49
 70
     1
102
RTVSPost2010Prop50
 90
       50
102
RTVSPost2010PropOp50
 70
     1
102
RTVSPost2010Prop51ColorIndex
 90
      256
102
RTVSPost2010Prop51ColorRGB
 90
-16777216
102
RTVSPost2010PropOp51
 70
     0
102
RTVSPost2010Prop52
140
1.0
102
RTVSPost2010PropOp52
 70
     0
102
RTVSPost2010Prop53
 90
        2
102
RTVSPost2010PropOp53
 70
     1
102
RTVSPost2010Prop54
  1
strokes_ogs.tif
102
RTVSPost2010PropOp54
 70
     1
102
RTVSPost2010Prop55
280
     0
102
RTVSPost2010PropOp55
 70
     1
102
RTVSPost2010Prop56
140
1.0
102
RTVSPost2010PropOp56
 70
     1
102
RTVSPost2010Prop57
140
1.0
102
RTVSPost2010PropOp57
 70
     1
  0
XRECORD
  5
256
102
{ACAD_REACTORS
330
255
102
}
330
255
100
AcDbXrecord
280
     1
102
RTVSPropertyOp0
 70
     1
102
RTVSPropertyOp1
 70
     1
102
RTVSPropertyOp2
 70
     1
102
RTVSPropertyOp3
 70
     1
102
RTVSPropertyOp4
 70
     1
102
RTVSPropertyOp5
 70
     1
102
RTVSPropertyOp6
 70
     1
102
RTVSPropertyOp7
 70
     1
102
RTVSPropertyOp8
 70
     1
102
RTVSPropertyOp9
 70
     1
102
RTVSPropertyOp10
 70
     1
102
RTVSPropertyOp11
 70
     1
102
RTVSPropertyOp12
 70
     1
102
RTVSPropertyOp13
 70
     1
102
RTVSPropertyOp14
 70
     1
102
RTVSPropertyOp15
 70
     1
102
RTVSPropertyOp16
 70
     1
102
RTVSPropertyOp17
 70
     1
102
RTVSPropertyOp18
 70
     1
102
RTVSPropertyOp19
 70
     1
102
RTVSPropertyOp20
 70
     1
102
RTVSPropertyOp21
 70
     1
102
RTVSPropertyOp22
 70
     1
102
RTVSPropertyOp23
 70
     1
102
RTVSPropertyOp24
 70
     1
102
RTVSPropertyOp25
 70
     1
102
RTVSPropertyOp26
 70
     1
102
RTVSPropertyOp27
 70
     1
102
RTVSPropertyOp28
 70
     1
102
RTVSPropertyOp29
 70
     1
102
RTVSPropertyOp30
 70
     1
102
RTVSPropertyOp31
 70
     1
102
RTVSPropertyOp32
 70
     1
102
RTVSPropertyOp33
 70
     1
102
RTVSPropertyOp34
 70
     1
102
RTVSPropertyOp35
 70
     1
102
RTVSPropertyOp36
 70
     1
102
RTVSPropertyOp37
 70
     1
102
RTVSPropertyOp38
 70
     1
102
RTVSPropertyOp39
 70
     1
102
RTVSPropertyOp40
 70
     1
102
RTVSPropertyOp41
 70
     1
102
RTVSPropertyOp42
 70
     1
102
RTVSPropertyOp43
 70
     1
102
RTVSPropertyOp44
 70
     1
102
RTVSPropertyOp45
 70
     1
102
RTVSPropertyOp46
 70
     1
102
RTVSPropertyOp47
 70
     1
102
RTVSPropertyOp48
 70
     1
102
RTVSPropertyOp49
 70
     1
102
RTVSPropertyOp50
 70
     1
102
RTVSPropertyOp51
 70
     0
102
RTVSPropertyOp52
 70
     0
102
RTVSPropertyOp53
 70
     1
102
RTVSPropertyOp54
 70
     1
102
RTVSPropertyOp55
 70
     1
102
RTVSPropertyOp56
 70
     1
102
RTVSPropertyOp57
 70
     1
102
RTVSPost2010Prop28
280
     0
102
RTVSPost2010PropOp28
 70
     1
102
RTVSPost2010Prop29
280
     1
102
RTVSPost2010PropOp29
 70
     1
102
RTVSPost2010Prop30
280
     1
102
RTVSPost2010PropOp30
 70
     1
102
RTVSPost2010Prop31
280
     0
102
RTVSPost2010PropOp31
 70
     1
102
RTVSPost2010Prop32
280
     0
102
RTVSPost2010PropOp32
 70
     1
102
RTVSPost2010Prop33
280
     0
102
RTVSPost2010PropOp33
 70
     1
102
RTVSPost2010Prop34
280
     0
102
RTVSPost2010PropOp34
 70
     1
102
RTVSPost2010Prop35
280
     0
102
RTVSPost2010PropOp35
 70
     1
102
RTVSPost2010Prop36
280
     0
102
RTVSPost2010PropOp36
 70
     1
102
RTVSPost2010Prop37
 90
       50
102
RTVSPost2010PropOp37
 70
     1
102
RTVSPost2010Prop38
140
0.0
102
RTVSPost2010PropOp38
 70
     1
102
RTVSPost2010Prop39
140
1.0
102
RTVSPost2010PropOp39
 70
     1
102
RTVSPost2010Prop40
 90
        0
102
RTVSPost2010PropOp40
 70
     1
102
RTVSPost2010Prop41ColorIndex
 90
       18
102
RTVSPost2010Prop41ColorRGB
 90
        0
102
RTVSPost2010PropOp41
 70
     1
102
RTVSPost2010Prop42
 90
       50
102
RTVSPost2010PropOp42
 70
     1
102
RTVSPost2010Prop43
 90
        3
102
RTVSPost2010PropOp43
 70
     1
102
RTVSPost2010Prop44ColorIndex
 90
        5
102
RTVSPost2010Prop44ColorRGB
 90
      255
102
RTVSPost2010PropOp44
 70
     1
102
RTVSPost2010Prop45
280
     0
102
RTVSPost2010PropOp45
 70
     1
102
RTVSPost2010Prop46
 90
       50
102
RTVSPost2010PropOp46
 70
     1
102
RTVSPost2010Prop47
 90
       50
102
RTVSPost2010PropOp47
 70
     1
102
RTVSPost2010Prop48
 90
       50
102
RTVSPost2010PropOp48
 70
     1
102
RTVSPost2010Prop49
280
     0
102
RTVSPost2010PropOp49
 70
     1
102
RTVSPost2010Prop50
 90
       50
102
RTVSPost2010PropOp50
 70
     1
102
RTVSPost2010Prop51ColorIndex
 90
      256
102
RTVSPost2010Prop51ColorRGB
 90
-16777216
102
RTVSPost2010PropOp51
 70
     0
102
RTVSPost2010Prop52
140
1.0
102
RTVSPost2010PropOp52
 70
     0
102
RTVSPost2010Prop53
 90
        2
102
RTVSPost2010PropOp53
 70
     1
102
RTVSPost2010Prop54
  1
strokes_ogs.tif
102
RTVSPost2010PropOp54
 70
     1
102
RTVSPost2010Prop55
280
     0
102
RTVSPost2010PropOp55
 70
     1
102
RTVSPost2010Prop56
140
1.0
102
RTVSPost2010PropOp56
 70
     1
102
RTVSPost2010Prop57
140
1.0
102
RTVSPost2010PropOp57
 70
     1
  0
XRECORD
  5
25E
102
{ACAD_REACTORS
330
25D
102
}
330
25D
100
AcDbXrecord
280
     1
102
RTVSPropertyOp0
 70
     1
102
RTVSPropertyOp1
 70
     1
102
RTVSPropertyOp2
 70
     1
102
RTVSPropertyOp3
 70
     1
102
RTVSPropertyOp4
 70
     1
102
RTVSPropertyOp5
 70
     1
102
RTVSPropertyOp6
 70
     1
102
RTVSPropertyOp7
 70
     1
102
RTVSPropertyOp8
 70
     1
102
RTVSPropertyOp9
 70
     1
102
RTVSPropertyOp10
 70
     1
102
RTVSPropertyOp11
 70
     1
102
RTVSPropertyOp12
 70
     1
102
RTVSPropertyOp13
 70
     1
102
RTVSPropertyOp14
 70
     1
102
RTVSPropertyOp15
 70
     1
102
RTVSPropertyOp16
 70
     1
102
RTVSPropertyOp17
 70
     1
102
RTVSPropertyOp18
 70
     1
102
RTVSPropertyOp19
 70
     1
102
RTVSPropertyOp20
 70
     1
102
RTVSPropertyOp21
 70
     1
102
RTVSPropertyOp22
 70
     1
102
RTVSPropertyOp23
 70
     1
102
RTVSPropertyOp24
 70
     1
102
RTVSPropertyOp25
 70
     1
102
RTVSPropertyOp26
 70
     1
102
RTVSPropertyOp27
 70
     1
102
RTVSPropertyOp28
 70
     1
102
RTVSPropertyOp29
 70
     1
102
RTVSPropertyOp30
 70
     1
102
RTVSPropertyOp31
 70
     1
102
RTVSPropertyOp32
 70
     1
102
RTVSPropertyOp33
 70
     1
102
RTVSPropertyOp34
 70
     1
102
RTVSPropertyOp35
 70
     1
102
RTVSPropertyOp36
 70
     1
102
RTVSPropertyOp37
 70
     1
102
RTVSPropertyOp38
 70
     1
102
RTVSPropertyOp39
 70
     1
102
RTVSPropertyOp40
 70
     1
102
RTVSPropertyOp41
 70
     1
102
RTVSPropertyOp42
 70
     1
102
RTVSPropertyOp43
 70
     1
102
RTVSPropertyOp44
 70
     1
102
RTVSPropertyOp45
 70
     1
102
RTVSPropertyOp46
 70
     1
102
RTVSPropertyOp47
 70
     1
102
RTVSPropertyOp48
 70
     1
102
RTVSPropertyOp49
 70
     1
102
RTVSPropertyOp50
 70
     1
102
RTVSPropertyOp51
 70
     0
102
RTVSPropertyOp52
 70
     0
102
RTVSPropertyOp53
 70
     1
102
RTVSPropertyOp54
 70
     1
102
RTVSPropertyOp55
 70
     1
102
RTVSPropertyOp56
 70
     1
102
RTVSPropertyOp57
 70
     1
102
RTVSPost2010Prop28
280
     0
102
RTVSPost2010PropOp28
 70
     1
102
RTVSPost2010Prop29
280
     1
102
RTVSPost2010PropOp29
 70
     1
102
RTVSPost2010Prop30
280
     1
102
RTVSPost2010PropOp30
 70
     1
102
RTVSPost2010Prop31
280
     0
102
RTVSPost2010PropOp31
 70
     1
102
RTVSPost2010Prop32
280
     0
102
RTVSPost2010PropOp32
 70
     1
102
RTVSPost2010Prop33
280
     0
102
RTVSPost2010PropOp33
 70
     1
102
RTVSPost2010Prop34
280
     0
102
RTVSPost2010PropOp34
 70
     1
102
RTVSPost2010Prop35
280
     0
102
RTVSPost2010PropOp35
 70
     1
102
RTVSPost2010Prop36
280
     0
102
RTVSPost2010PropOp36
 70
     1
102
RTVSPost2010Prop37
 90
       50
102
RTVSPost2010PropOp37
 70
     1
102
RTVSPost2010Prop38
140
0.0
102
RTVSPost2010PropOp38
 70
     1
102
RTVSPost2010Prop39
140
1.0
102
RTVSPost2010PropOp39
 70
     1
102
RTVSPost2010Prop40
 90
        0
102
RTVSPost2010PropOp40
 70
     1
102
RTVSPost2010Prop41ColorIndex
 90
       18
102
RTVSPost2010Prop41ColorRGB
 90
        0
102
RTVSPost2010PropOp41
 70
     1
102
RTVSPost2010Prop42
 90
       50
102
RTVSPost2010PropOp42
 70
     1
102
RTVSPost2010Prop43
 90
        3
102
RTVSPost2010PropOp43
 70
     1
102
RTVSPost2010Prop44ColorIndex
 90
        5
102
RTVSPost2010Prop44ColorRGB
 90
      255
102
RTVSPost2010PropOp44
 70
     1
102
RTVSPost2010Prop45
280
     0
102
RTVSPost2010PropOp45
 70
     1
102
RTVSPost2010Prop46
 90
       50
102
RTVSPost2010PropOp46
 70
     1
102
RTVSPost2010Prop47
 90
       50
102
RTVSPost2010PropOp47
 70
     1
102
RTVSPost2010Prop48
 90
       50
102
RTVSPost2010PropOp48
 70
     1
102
RTVSPost2010Prop49
280
     0
102
RTVSPost2010PropOp49
 70
     1
102
RTVSPost2010Prop50
 90
       50
102
RTVSPost2010PropOp50
 70
     1
102
RTVSPost2010Prop51ColorIndex
 90
      256
102
RTVSPost2010Prop51ColorRGB
 90
-16777216
102
RTVSPost2010PropOp51
 70
     0
102
RTVSPost2010Prop52
140
1.0
102
RTVSPost2010PropOp52
 70
     0
102
RTVSPost2010Prop53
 90
        2
102
RTVSPost2010PropOp53
 70
     1
102
RTVSPost2010Prop54
  1
strokes_ogs.tif
102
RTVSPost2010PropOp54
 70
     1
102
RTVSPost2010Prop55
280
     0
102
RTVSPost2010PropOp55
 70
     1
102
RTVSPost2010Prop56
140
1.0
102
RTVSPost2010PropOp56
 70
     1
102
RTVSPost2010Prop57
140
1.0
102
RTVSPost2010PropOp57
 70
     1
  0
XRECORD
  5
252
102
{ACAD_REACTORS
330
251
102
}
330
251
100
AcDbXrecord
280
     1
102
RTVSPropertyOp0
 70
     1
102
RTVSPropertyOp1
 70
     1
102
RTVSPropertyOp2
 70
     1
102
RTVSPropertyOp3
 70
     1
102
RTVSPropertyOp4
 70
     1
102
RTVSPropertyOp5
 70
     1
102
RTVSPropertyOp6
 70
     1
102
RTVSPropertyOp7
 70
     1
102
RTVSPropertyOp8
 70
     1
102
RTVSPropertyOp9
 70
     1
102
RTVSPropertyOp10
 70
     1
102
RTVSPropertyOp11
 70
     1
102
RTVSPropertyOp12
 70
     1
102
RTVSPropertyOp13
 70
     1
102
RTVSPropertyOp14
 70
     1
102
RTVSPropertyOp15
 70
     1
102
RTVSPropertyOp16
 70
     1
102
RTVSPropertyOp17
 70
     1
102
RTVSPropertyOp18
 70
     1
102
RTVSPropertyOp19
 70
     1
102
RTVSPropertyOp20
 70
     1
102
RTVSPropertyOp21
 70
     1
102
RTVSPropertyOp22
 70
     1
102
RTVSPropertyOp23
 70
     1
102
RTVSPropertyOp24
 70
     1
102
RTVSPropertyOp25
 70
     1
102
RTVSPropertyOp26
 70
     1
102
RTVSPropertyOp27
 70
     1
102
RTVSPropertyOp28
 70
     1
102
RTVSPropertyOp29
 70
     1
102
RTVSPropertyOp30
 70
     1
102
RTVSPropertyOp31
 70
     1
102
RTVSPropertyOp32
 70
     1
102
RTVSPropertyOp33
 70
     1
102
RTVSPropertyOp34
 70
     1
102
RTVSPropertyOp35
 70
     1
102
RTVSPropertyOp36
 70
     1
102
RTVSPropertyOp37
 70
     1
102
RTVSPropertyOp38
 70
     1
102
RTVSPropertyOp39
 70
     1
102
RTVSPropertyOp40
 70
     1
102
RTVSPropertyOp41
 70
     1
102
RTVSPropertyOp42
 70
     1
102
RTVSPropertyOp43
 70
     1
102
RTVSPropertyOp44
 70
     1
102
RTVSPropertyOp45
 70
     1
102
RTVSPropertyOp46
 70
     1
102
RTVSPropertyOp47
 70
     1
102
RTVSPropertyOp48
 70
     1
102
RTVSPropertyOp49
 70
     1
102
RTVSPropertyOp50
 70
     1
102
RTVSPropertyOp51
 70
     0
102
RTVSPropertyOp52
 70
     0
102
RTVSPropertyOp53
 70
     1
102
RTVSPropertyOp54
 70
     1
102
RTVSPropertyOp55
 70
     1
102
RTVSPropertyOp56
 70
     1
102
RTVSPropertyOp57
 70
     1
102
RTVSPost2010Prop28
280
     0
102
RTVSPost2010PropOp28
 70
     1
102
RTVSPost2010Prop29
280
     1
102
RTVSPost2010PropOp29
 70
     1
102
RTVSPost2010Prop30
280
     1
102
RTVSPost2010PropOp30
 70
     1
102
RTVSPost2010Prop31
280
     0
102
RTVSPost2010PropOp31
 70
     1
102
RTVSPost2010Prop32
280
     0
102
RTVSPost2010PropOp32
 70
     1
102
RTVSPost2010Prop33
280
     0
102
RTVSPost2010PropOp33
 70
     1
102
RTVSPost2010Prop34
280
     0
102
RTVSPost2010PropOp34
 70
     1
102
RTVSPost2010Prop35
280
     0
102
RTVSPost2010PropOp35
 70
     1
102
RTVSPost2010Prop36
280
     0
102
RTVSPost2010PropOp36
 70
     1
102
RTVSPost2010Prop37
 90
       50
102
RTVSPost2010PropOp37
 70
     1
102
RTVSPost2010Prop38
140
0.0
102
RTVSPost2010PropOp38
 70
     1
102
RTVSPost2010Prop39
140
1.0
102
RTVSPost2010PropOp39
 70
     1
102
RTVSPost2010Prop40
 90
        0
102
RTVSPost2010PropOp40
 70
     1
102
RTVSPost2010Prop41ColorIndex
 90
       18
102
RTVSPost2010Prop41ColorRGB
 90
        0
102
RTVSPost2010PropOp41
 70
     1
102
RTVSPost2010Prop42
 90
       50
102
RTVSPost2010PropOp42
 70
     1
102
RTVSPost2010Prop43
 90
        3
102
RTVSPost2010PropOp43
 70
     1
102
RTVSPost2010Prop44ColorIndex
 90
        5
102
RTVSPost2010Prop44ColorRGB
 90
      255
102
RTVSPost2010PropOp44
 70
     1
102
RTVSPost2010Prop45
280
     0
102
RTVSPost2010PropOp45
 70
     1
102
RTVSPost2010Prop46
 90
       50
102
RTVSPost2010PropOp46
 70
     1
102
RTVSPost2010Prop47
 90
       50
102
RTVSPost2010PropOp47
 70
     1
102
RTVSPost2010Prop48
 90
       50
102
RTVSPost2010PropOp48
 70
     1
102
RTVSPost2010Prop49
280
     0
102
RTVSPost2010PropOp49
 70
     1
102
RTVSPost2010Prop50
 90
       50
102
RTVSPost2010PropOp50
 70
     1
102
RTVSPost2010Prop51ColorIndex
 90
      256
102
RTVSPost2010Prop51ColorRGB
 90
-16777216
102
RTVSPost2010PropOp51
 70
     0
102
RTVSPost2010Prop52
140
1.0
102
RTVSPost2010PropOp52
 70
     0
102
RTVSPost2010Prop53
 90
        2
102
RTVSPost2010PropOp53
 70
     1
102
RTVSPost2010Prop54
  1
strokes_ogs.tif
102
RTVSPost2010PropOp54
 70
     1
102
RTVSPost2010Prop55
280
     0
102
RTVSPost2010PropOp55
 70
     1
102
RTVSPost2010Prop56
140
1.0
102
RTVSPost2010PropOp56
 70
     1
102
RTVSPost2010Prop57
140
1.0
102
RTVSPost2010PropOp57
 70
     1
  0
XRECORD
  5
254
102
{ACAD_REACTORS
330
253
102
}
330
253
100
AcDbXrecord
280
     1
102
RTVSPropertyOp0
 70
     1
102
RTVSPropertyOp1
 70
     1
102
RTVSPropertyOp2
 70
     1
102
RTVSPropertyOp3
 70
     1
102
RTVSPropertyOp4
 70
     1
102
RTVSPropertyOp5
 70
     1
102
RTVSPropertyOp6
 70
     1
102
RTVSPropertyOp7
 70
     1
102
RTVSPropertyOp8
 70
     1
102
RTVSPropertyOp9
 70
     1
102
RTVSPropertyOp10
 70
     1
102
RTVSPropertyOp11
 70
     1
102
RTVSPropertyOp12
 70
     1
102
RTVSPropertyOp13
 70
     1
102
RTVSPropertyOp14
 70
     1
102
RTVSPropertyOp15
 70
     1
102
RTVSPropertyOp16
 70
     1
102
RTVSPropertyOp17
 70
     1
102
RTVSPropertyOp18
 70
     1
102
RTVSPropertyOp19
 70
     1
102
RTVSPropertyOp20
 70
     1
102
RTVSPropertyOp21
 70
     1
102
RTVSPropertyOp22
 70
     1
102
RTVSPropertyOp23
 70
     1
102
RTVSPropertyOp24
 70
     1
102
RTVSPropertyOp25
 70
     1
102
RTVSPropertyOp26
 70
     1
102
RTVSPropertyOp27
 70
     1
102
RTVSPropertyOp28
 70
     1
102
RTVSPropertyOp29
 70
     1
102
RTVSPropertyOp30
 70
     1
102
RTVSPropertyOp31
 70
     1
102
RTVSPropertyOp32
 70
     1
102
RTVSPropertyOp33
 70
     1
102
RTVSPropertyOp34
 70
     1
102
RTVSPropertyOp35
 70
     1
102
RTVSPropertyOp36
 70
     1
102
RTVSPropertyOp37
 70
     1
102
RTVSPropertyOp38
 70
     1
102
RTVSPropertyOp39
 70
     1
102
RTVSPropertyOp40
 70
     1
102
RTVSPropertyOp41
 70
     1
102
RTVSPropertyOp42
 70
     1
102
RTVSPropertyOp43
 70
     1
102
RTVSPropertyOp44
 70
     1
102
RTVSPropertyOp45
 70
     1
102
RTVSPropertyOp46
 70
     1
102
RTVSPropertyOp47
 70
     1
102
RTVSPropertyOp48
 70
     1
102
RTVSPropertyOp49
 70
     1
102
RTVSPropertyOp50
 70
     1
102
RTVSPropertyOp51
 70
     0
102
RTVSPropertyOp52
 70
     0
102
RTVSPropertyOp53
 70
     1
102
RTVSPropertyOp54
 70
     1
102
RTVSPropertyOp55
 70
     1
102
RTVSPropertyOp56
 70
     1
102
RTVSPropertyOp57
 70
     1
102
RTVSPost2010Prop28
280
     0
102
RTVSPost2010PropOp28
 70
     1
102
RTVSPost2010Prop29
280
     1
102
RTVSPost2010PropOp29
 70
     1
102
RTVSPost2010Prop30
280
     1
102
RTVSPost2010PropOp30
 70
     1
102
RTVSPost2010Prop31
280
     0
102
RTVSPost2010PropOp31
 70
     1
102
RTVSPost2010Prop32
280
     0
102
RTVSPost2010PropOp32
 70
     1
102
RTVSPost2010Prop33
280
     0
102
RTVSPost2010PropOp33
 70
     1
102
RTVSPost2010Prop34
280
     0
102
RTVSPost2010PropOp34
 70
     1
102
RTVSPost2010Prop35
280
     0
102
RTVSPost2010PropOp35
 70
     1
102
RTVSPost2010Prop36
280
     0
102
RTVSPost2010PropOp36
 70
     1
102
RTVSPost2010Prop37
 90
       50
102
RTVSPost2010PropOp37
 70
     1
102
RTVSPost2010Prop38
140
0.0
102
RTVSPost2010PropOp38
 70
     1
102
RTVSPost2010Prop39
140
1.0
102
RTVSPost2010PropOp39
 70
     1
102
RTVSPost2010Prop40
 90
        0
102
RTVSPost2010PropOp40
 70
     1
102
RTVSPost2010Prop41ColorIndex
 90
       18
102
RTVSPost2010Prop41ColorRGB
 90
        0
102
RTVSPost2010PropOp41
 70
     1
102
RTVSPost2010Prop42
 90
       50
102
RTVSPost2010PropOp42
 70
     1
102
RTVSPost2010Prop43
 90
        3
102
RTVSPost2010PropOp43
 70
     1
102
RTVSPost2010Prop44ColorIndex
 90
        5
102
RTVSPost2010Prop44ColorRGB
 90
      255
102
RTVSPost2010PropOp44
 70
     1
102
RTVSPost2010Prop45
280
     0
102
RTVSPost2010PropOp45
 70
     1
102
RTVSPost2010Prop46
 90
       50
102
RTVSPost2010PropOp46
 70
     1
102
RTVSPost2010Prop47
 90
       50
102
RTVSPost2010PropOp47
 70
     1
102
RTVSPost2010Prop48
 90
       50
102
RTVSPost2010PropOp48
 70
     1
102
RTVSPost2010Prop49
280
     0
102
RTVSPost2010PropOp49
 70
     1
102
RTVSPost2010Prop50
 90
       50
102
RTVSPost2010PropOp50
 70
     1
102
RTVSPost2010Prop51ColorIndex
 90
      256
102
RTVSPost2010Prop51ColorRGB
 90
-16777216
102
RTVSPost2010PropOp51
 70
     0
102
RTVSPost2010Prop52
140
1.0
102
RTVSPost2010PropOp52
 70
     0
102
RTVSPost2010Prop53
 90
        2
102
RTVSPost2010PropOp53
 70
     1
102
RTVSPost2010Prop54
  1
strokes_ogs.tif
102
RTVSPost2010PropOp54
 70
     1
102
RTVSPost2010Prop55
280
     0
102
RTVSPost2010PropOp55
 70
     1
102
RTVSPost2010Prop56
140
1.0
102
RTVSPost2010PropOp56
 70
     1
102
RTVSPost2010Prop57
140
1.0
102
RTVSPost2010PropOp57
 70
     1
  0
XRECORD
  5
264
102
{ACAD_REACTORS
330
263
102
}
330
263
100
AcDbXrecord
280
     1
102
RTVSPropertyOp0
 70
     0
102
RTVSPropertyOp1
 70
     0
102
RTVSPropertyOp2
 70
     0
102
RTVSPropertyOp3
 70
     0
102
RTVSPropertyOp4
 70
     0
102
RTVSPropertyOp5
 70
     0
102
RTVSPropertyOp6
 70
     0
102
RTVSPropertyOp7
 70
     0
102
RTVSPropertyOp8
 70
     0
102
RTVSPropertyOp9
 70
     0
102
RTVSPropertyOp10
 70
     0
102
RTVSPropertyOp11
 70
     0
102
RTVSPropertyOp12
 70
     0
102
RTVSPropertyOp13
 70
     0
102
RTVSPropertyOp14
 70
     2
102
RTVSPropertyOp15
 70
     0
102
RTVSPropertyOp16
 70
     0
102
RTVSPropertyOp17
 70
     0
102
RTVSPropertyOp18
 70
     0
102
RTVSPropertyOp19
 70
     0
102
RTVSPropertyOp20
 70
     0
102
RTVSPropertyOp21
 70
     0
102
RTVSPropertyOp22
 70
     0
102
RTVSPropertyOp23
 70
     0
102
RTVSPropertyOp24
 70
     0
102
RTVSPropertyOp25
 70
     0
102
RTVSPropertyOp26
 70
     0
102
RTVSPropertyOp27
 70
     0
102
RTVSPropertyOp28
 70
     0
102
RTVSPropertyOp29
 70
     0
102
RTVSPropertyOp30
 70
     0
102
RTVSPropertyOp31
 70
     0
102
RTVSPropertyOp32
 70
     0
102
RTVSPropertyOp33
 70
     0
102
RTVSPropertyOp34
 70
     0
102
RTVSPropertyOp35
 70
     0
102
RTVSPropertyOp36
 70
     0
102
RTVSPropertyOp37
 70
     0
102
RTVSPropertyOp38
 70
     0
102
RTVSPropertyOp39
 70
     0
102
RTVSPropertyOp40
 70
     0
102
RTVSPropertyOp41
 70
     0
102
RTVSPropertyOp42
 70
     0
102
RTVSPropertyOp43
 70
     0
102
RTVSPropertyOp44
 70
     0
102
RTVSPropertyOp45
 70
     0
102
RTVSPropertyOp46
 70
     0
102
RTVSPropertyOp47
 70
     0
102
RTVSPropertyOp48
 70
     0
102
RTVSPropertyOp49
 70
     0
102
RTVSPropertyOp50
 70
     0
102
RTVSPropertyOp51
 70
     0
102
RTVSPropertyOp52
 70
     0
102
RTVSPropertyOp53
 70
     0
102
RTVSPropertyOp54
 70
     0
102
RTVSPropertyOp55
 70
     0
102
RTVSPropertyOp56
 70
     0
102
RTVSPropertyOp57
 70
     0
102
RTVSPost2010Prop28
280
     0
102
RTVSPost2010PropOp28
 70
     0
102
RTVSPost2010Prop29
280
     1
102
RTVSPost2010PropOp29
 70
     0
102
RTVSPost2010Prop30
280
     1
102
RTVSPost2010PropOp30
 70
     0
102
RTVSPost2010Prop31
280
     0
102
RTVSPost2010PropOp31
 70
     0
102
RTVSPost2010Prop32
280
     0
102
RTVSPost2010PropOp32
 70
     0
102
RTVSPost2010Prop33
280
     0
102
RTVSPost2010PropOp33
 70
     0
102
RTVSPost2010Prop34
280
     0
102
RTVSPost2010PropOp34
 70
     0
102
RTVSPost2010Prop35
280
     0
102
RTVSPost2010PropOp35
 70
     0
102
RTVSPost2010Prop36
280
     0
102
RTVSPost2010PropOp36
 70
     0
102
RTVSPost2010Prop37
 90
       50
102
RTVSPost2010PropOp37
 70
     0
102
RTVSPost2010Prop38
140
0.0
102
RTVSPost2010PropOp38
 70
     0
102
RTVSPost2010Prop39
140
1.0
102
RTVSPost2010PropOp39
 70
     0
102
RTVSPost2010Prop40
 90
        0
102
RTVSPost2010PropOp40
 70
     0
102
RTVSPost2010Prop41ColorIndex
 90
       18
102
RTVSPost2010Prop41ColorRGB
 90
        0
102
RTVSPost2010PropOp41
 70
     0
102
RTVSPost2010Prop42
 90
       50
102
RTVSPost2010PropOp42
 70
     0
102
RTVSPost2010Prop43
 90
        3
102
RTVSPost2010PropOp43
 70
     0
102
RTVSPost2010Prop44ColorIndex
 90
        5
102
RTVSPost2010Prop44ColorRGB
 90
      255
102
RTVSPost2010PropOp44
 70
     0
102
RTVSPost2010Prop45
280
     0
102
RTVSPost2010PropOp45
 70
     0
102
RTVSPost2010Prop46
 90
       50
102
RTVSPost2010PropOp46
 70
     0
102
RTVSPost2010Prop47
 90
       50
102
RTVSPost2010PropOp47
 70
     0
102
RTVSPost2010Prop48
 90
       50
102
RTVSPost2010PropOp48
 70
     0
102
RTVSPost2010Prop49
280
     0
102
RTVSPost2010PropOp49
 70
     0
102
RTVSPost2010Prop50
 90
       50
102
RTVSPost2010PropOp50
 70
     0
102
RTVSPost2010Prop51ColorIndex
 90
      256
102
RTVSPost2010Prop51ColorRGB
 90
-16777216
102
RTVSPost2010PropOp51
 70
     0
102
RTVSPost2010Prop52
140
1.0
102
RTVSPost2010PropOp52
 70
     0
102
RTVSPost2010Prop53
 90
        2
102
RTVSPost2010PropOp53
 70
     0
102
RTVSPost2010Prop54
  1
strokes_ogs.tif
102
RTVSPost2010PropOp54
 70
     0
102
RTVSPost2010Prop55
280
     0
102
RTVSPost2010PropOp55
 70
     0
102
RTVSPost2010Prop56
140
1.0
102
RTVSPost2010PropOp56
 70
     0
102
RTVSPost2010Prop57
140
1.0
102
RTVSPost2010PropOp57
 70
     0
  0
XRECORD
  5
25C
102
{ACAD_REACTORS
330
25B
102
}
330
25B
100
AcDbXrecord
280
     1
102
RTVSPropertyOp0
 70
     1
102
RTVSPropertyOp1
 70
     1
102
RTVSPropertyOp2
 70
     1
102
RTVSPropertyOp3
 70
     1
102
RTVSPropertyOp4
 70
     1
102
RTVSPropertyOp5
 70
     1
102
RTVSPropertyOp6
 70
     1
102
RTVSPropertyOp7
 70
     1
102
RTVSPropertyOp8
 70
     1
102
RTVSPropertyOp9
 70
     1
102
RTVSPropertyOp10
 70
     1
102
RTVSPropertyOp11
 70
     1
102
RTVSPropertyOp12
 70
     1
102
RTVSPropertyOp13
 70
     1
102
RTVSPropertyOp14
 70
     1
102
RTVSPropertyOp15
 70
     1
102
RTVSPropertyOp16
 70
     1
102
RTVSPropertyOp17
 70
     1
102
RTVSPropertyOp18
 70
     1
102
RTVSPropertyOp19
 70
     1
102
RTVSPropertyOp20
 70
     1
102
RTVSPropertyOp21
 70
     1
102
RTVSPropertyOp22
 70
     1
102
RTVSPropertyOp23
 70
     1
102
RTVSPropertyOp24
 70
     1
102
RTVSPropertyOp25
 70
     1
102
RTVSPropertyOp26
 70
     1
102
RTVSPropertyOp27
 70
     1
102
RTVSPropertyOp28
 70
     1
102
RTVSPropertyOp29
 70
     1
102
RTVSPropertyOp30
 70
     1
102
RTVSPropertyOp31
 70
     1
102
RTVSPropertyOp32
 70
     1
102
RTVSPropertyOp33
 70
     1
102
RTVSPropertyOp34
 70
     1
102
RTVSPropertyOp35
 70
     1
102
RTVSPropertyOp36
 70
     1
102
RTVSPropertyOp37
 70
     1
102
RTVSPropertyOp38
 70
     1
102
RTVSPropertyOp39
 70
     1
102
RTVSPropertyOp40
 70
     1
102
RTVSPropertyOp41
 70
     1
102
RTVSPropertyOp42
 70
     1
102
RTVSPropertyOp43
 70
     1
102
RTVSPropertyOp44
 70
     1
102
RTVSPropertyOp45
 70
     1
102
RTVSPropertyOp46
 70
     1
102
RTVSPropertyOp47
 70
     1
102
RTVSPropertyOp48
 70
     1
102
RTVSPropertyOp49
 70
     1
102
RTVSPropertyOp50
 70
     1
102
RTVSPropertyOp51
 70
     0
102
RTVSPropertyOp52
 70
     0
102
RTVSPropertyOp53
 70
     1
102
RTVSPropertyOp54
 70
     1
102
RTVSPropertyOp55
 70
     1
102
RTVSPropertyOp56
 70
     1
102
RTVSPropertyOp57
 70
     1
102
RTVSPost2010Prop28
280
     0
102
RTVSPost2010PropOp28
 70
     1
102
RTVSPost2010Prop29
280
     1
102
RTVSPost2010PropOp29
 70
     1
102
RTVSPost2010Prop30
280
     1
102
RTVSPost2010PropOp30
 70
     1
102
RTVSPost2010Prop31
280
     0
102
RTVSPost2010PropOp31
 70
     1
102
RTVSPost2010Prop32
280
     0
102
RTVSPost2010PropOp32
 70
     1
102
RTVSPost2010Prop33
280
     0
102
RTVSPost2010PropOp33
 70
     1
102
RTVSPost2010Prop34
280
     0
102
RTVSPost2010PropOp34
 70
     1
102
RTVSPost2010Prop35
280
     0
102
RTVSPost2010PropOp35
 70
     1
102
RTVSPost2010Prop36
280
     0
102
RTVSPost2010PropOp36
 70
     1
102
RTVSPost2010Prop37
 90
       50
102
RTVSPost2010PropOp37
 70
     1
102
RTVSPost2010Prop38
140
0.0
102
RTVSPost2010PropOp38
 70
     1
102
RTVSPost2010Prop39
140
1.0
102
RTVSPost2010PropOp39
 70
     1
102
RTVSPost2010Prop40
 90
        0
102
RTVSPost2010PropOp40
 70
     1
102
RTVSPost2010Prop41ColorIndex
 90
       18
102
RTVSPost2010Prop41ColorRGB
 90
        0
102
RTVSPost2010PropOp41
 70
     1
102
RTVSPost2010Prop42
 90
       50
102
RTVSPost2010PropOp42
 70
     1
102
RTVSPost2010Prop43
 90
        3
102
RTVSPost2010PropOp43
 70
     1
102
RTVSPost2010Prop44ColorIndex
 90
        5
102
RTVSPost2010Prop44ColorRGB
 90
      255
102
RTVSPost2010PropOp44
 70
     1
102
RTVSPost2010Prop45
280
     0
102
RTVSPost2010PropOp45
 70
     1
102
RTVSPost2010Prop46
 90
       50
102
RTVSPost2010PropOp46
 70
     1
102
RTVSPost2010Prop47
 90
       50
102
RTVSPost2010PropOp47
 70
     1
102
RTVSPost2010Prop48
 90
       50
102
RTVSPost2010PropOp48
 70
     1
102
RTVSPost2010Prop49
280
     0
102
RTVSPost2010PropOp49
 70
     1
102
RTVSPost2010Prop50
 90
       50
102
RTVSPost2010PropOp50
 70
     1
102
RTVSPost2010Prop51ColorIndex
 90
      256
102
RTVSPost2010Prop51ColorRGB
 90
-16777216
102
RTVSPost2010PropOp51
 70
     0
102
RTVSPost2010Prop52
140
1.0
102
RTVSPost2010PropOp52
 70
     0
102
RTVSPost2010Prop53
 90
        2
102
RTVSPost2010PropOp53
 70
     1
102
RTVSPost2010Prop54
  1
strokes_ogs.tif
102
RTVSPost2010PropOp54
 70
     1
102
RTVSPost2010Prop55
280
     0
102
RTVSPost2010PropOp55
 70
     1
102
RTVSPost2010Prop56
140
1.0
102
RTVSPost2010PropOp56
 70
     1
102
RTVSPost2010Prop57
140
1.0
102
RTVSPost2010PropOp57
 70
     1
  0
XRECORD
  5
240
102
{ACAD_REACTORS
330
23F
102
}
330
23F
100
AcDbXrecord
280
     1
102
RTVSPropertyOp0
 70
     1
102
RTVSPropertyOp1
 70
     1
102
RTVSPropertyOp2
 70
     1
102
RTVSPropertyOp3
 70
     1
102
RTVSPropertyOp4
 70
     1
102
RTVSPropertyOp5
 70
     1
102
RTVSPropertyOp6
 70
     1
102
RTVSPropertyOp7
 70
     1
102
RTVSPropertyOp8
 70
     1
102
RTVSPropertyOp9
 70
     1
102
RTVSPropertyOp10
 70
     1
102
RTVSPropertyOp11
 70
     1
102
RTVSPropertyOp12
 70
     1
102
RTVSPropertyOp13
 70
     1
102
RTVSPropertyOp14
 70
     1
102
RTVSPropertyOp15
 70
     1
102
RTVSPropertyOp16
 70
     1
102
RTVSPropertyOp17
 70
     1
102
RTVSPropertyOp18
 70
     1
102
RTVSPropertyOp19
 70
     1
102
RTVSPropertyOp20
 70
     1
102
RTVSPropertyOp21
 70
     1
102
RTVSPropertyOp22
 70
     1
102
RTVSPropertyOp23
 70
     1
102
RTVSPropertyOp24
 70
     1
102
RTVSPropertyOp25
 70
     1
102
RTVSPropertyOp26
 70
     1
102
RTVSPropertyOp27
 70
     1
102
RTVSPropertyOp28
 70
     1
102
RTVSPropertyOp29
 70
     1
102
RTVSPropertyOp30
 70
     1
102
RTVSPropertyOp31
 70
     1
102
RTVSPropertyOp32
 70
     1
102
RTVSPropertyOp33
 70
     1
102
RTVSPropertyOp34
 70
     1
102
RTVSPropertyOp35
 70
     1
102
RTVSPropertyOp36
 70
     1
102
RTVSPropertyOp37
 70
     1
102
RTVSPropertyOp38
 70
     1
102
RTVSPropertyOp39
 70
     1
102
RTVSPropertyOp40
 70
     1
102
RTVSPropertyOp41
 70
     1
102
RTVSPropertyOp42
 70
     1
102
RTVSPropertyOp43
 70
     1
102
RTVSPropertyOp44
 70
     1
102
RTVSPropertyOp45
 70
     1
102
RTVSPropertyOp46
 70
     1
102
RTVSPropertyOp47
 70
     1
102
RTVSPropertyOp48
 70
     1
102
RTVSPropertyOp49
 70
     1
102
RTVSPropertyOp50
 70
     1
102
RTVSPropertyOp51
 70
     0
102
RTVSPropertyOp52
 70
     0
102
RTVSPropertyOp53
 70
     1
102
RTVSPropertyOp54
 70
     1
102
RTVSPropertyOp55
 70
     1
102
RTVSPropertyOp56
 70
     1
102
RTVSPropertyOp57
 70
     1
102
RTVSPost2010Prop28
280
     0
102
RTVSPost2010PropOp28
 70
     1
102
RTVSPost2010Prop29
280
     1
102
RTVSPost2010PropOp29
 70
     1
102
RTVSPost2010Prop30
280
     1
102
RTVSPost2010PropOp30
 70
     1
102
RTVSPost2010Prop31
280
     0
102
RTVSPost2010PropOp31
 70
     1
102
RTVSPost2010Prop32
280
     0
102
RTVSPost2010PropOp32
 70
     1
102
RTVSPost2010Prop33
280
     0
102
RTVSPost2010PropOp33
 70
     1
102
RTVSPost2010Prop34
280
     0
102
RTVSPost2010PropOp34
 70
     1
102
RTVSPost2010Prop35
280
     0
102
RTVSPost2010PropOp35
 70
     1
102
RTVSPost2010Prop36
280
     0
102
RTVSPost2010PropOp36
 70
     1
102
RTVSPost2010Prop37
 90
       50
102
RTVSPost2010PropOp37
 70
     1
102
RTVSPost2010Prop38
140
0.0
102
RTVSPost2010PropOp38
 70
     1
102
RTVSPost2010Prop39
140
1.0
102
RTVSPost2010PropOp39
 70
     1
102
RTVSPost2010Prop40
 90
        0
102
RTVSPost2010PropOp40
 70
     1
102
RTVSPost2010Prop41ColorIndex
 90
       18
102
RTVSPost2010Prop41ColorRGB
 90
        0
102
RTVSPost2010PropOp41
 70
     1
102
RTVSPost2010Prop42
 90
       50
102
RTVSPost2010PropOp42
 70
     1
102
RTVSPost2010Prop43
 90
        3
102
RTVSPost2010PropOp43
 70
     1
102
RTVSPost2010Prop44ColorIndex
 90
        5
102
RTVSPost2010Prop44ColorRGB
 90
      255
102
RTVSPost2010PropOp44
 70
     1
102
RTVSPost2010Prop45
280
     0
102
RTVSPost2010PropOp45
 70
     1
102
RTVSPost2010Prop46
 90
       50
102
RTVSPost2010PropOp46
 70
     1
102
RTVSPost2010Prop47
 90
       50
102
RTVSPost2010PropOp47
 70
     1
102
RTVSPost2010Prop48
 90
       50
102
RTVSPost2010PropOp48
 70
     1
102
RTVSPost2010Prop49
280
     0
102
RTVSPost2010PropOp49
 70
     1
102
RTVSPost2010Prop50
 90
       50
102
RTVSPost2010PropOp50
 70
     1
102
RTVSPost2010Prop51ColorIndex
 90
      256
102
RTVSPost2010Prop51ColorRGB
 90
-16777216
102
RTVSPost2010PropOp51
 70
     0
102
RTVSPost2010Prop52
140
1.0
102
RTVSPost2010PropOp52
 70
     0
102
RTVSPost2010Prop53
 90
        2
102
RTVSPost2010PropOp53
 70
     1
102
RTVSPost2010Prop54
  1
strokes_ogs.tif
102
RTVSPost2010PropOp54
 70
     1
102
RTVSPost2010Prop55
280
     0
102
RTVSPost2010PropOp55
 70
     1
102
RTVSPost2010Prop56
140
1.0
102
RTVSPost2010PropOp56
 70
     1
102
RTVSPost2010Prop57
140
1.0
102
RTVSPost2010PropOp57
 70
     1
  0
XRECORD
  5
242
102
{ACAD_REACTORS
330
241
102
}
330
241
100
AcDbXrecord
280
     1
102
RTVSPropertyOp0
 70
     1
102
RTVSPropertyOp1
 70
     1
102
RTVSPropertyOp2
 70
     1
102
RTVSPropertyOp3
 70
     1
102
RTVSPropertyOp4
 70
     1
102
RTVSPropertyOp5
 70
     1
102
RTVSPropertyOp6
 70
     1
102
RTVSPropertyOp7
 70
     1
102
RTVSPropertyOp8
 70
     1
102
RTVSPropertyOp9
 70
     1
102
RTVSPropertyOp10
 70
     1
102
RTVSPropertyOp11
 70
     1
102
RTVSPropertyOp12
 70
     1
102
RTVSPropertyOp13
 70
     1
102
RTVSPropertyOp14
 70
     1
102
RTVSPropertyOp15
 70
     1
102
RTVSPropertyOp16
 70
     1
102
RTVSPropertyOp17
 70
     1
102
RTVSPropertyOp18
 70
     1
102
RTVSPropertyOp19
 70
     1
102
RTVSPropertyOp20
 70
     1
102
RTVSPropertyOp21
 70
     1
102
RTVSPropertyOp22
 70
     1
102
RTVSPropertyOp23
 70
     1
102
RTVSPropertyOp24
 70
     1
102
RTVSPropertyOp25
 70
     1
102
RTVSPropertyOp26
 70
     1
102
RTVSPropertyOp27
 70
     1
102
RTVSPropertyOp28
 70
     1
102
RTVSPropertyOp29
 70
     1
102
RTVSPropertyOp30
 70
     1
102
RTVSPropertyOp31
 70
     1
102
RTVSPropertyOp32
 70
     1
102
RTVSPropertyOp33
 70
     1
102
RTVSPropertyOp34
 70
     1
102
RTVSPropertyOp35
 70
     1
102
RTVSPropertyOp36
 70
     1
102
RTVSPropertyOp37
 70
     1
102
RTVSPropertyOp38
 70
     1
102
RTVSPropertyOp39
 70
     1
102
RTVSPropertyOp40
 70
     1
102
RTVSPropertyOp41
 70
     1
102
RTVSPropertyOp42
 70
     1
102
RTVSPropertyOp43
 70
     1
102
RTVSPropertyOp44
 70
     1
102
RTVSPropertyOp45
 70
     1
102
RTVSPropertyOp46
 70
     1
102
RTVSPropertyOp47
 70
     1
102
RTVSPropertyOp48
 70
     1
102
RTVSPropertyOp49
 70
     1
102
RTVSPropertyOp50
 70
     1
102
RTVSPropertyOp51
 70
     0
102
RTVSPropertyOp52
 70
     0
102
RTVSPropertyOp53
 70
     1
102
RTVSPropertyOp54
 70
     1
102
RTVSPropertyOp55
 70
     1
102
RTVSPropertyOp56
 70
     1
102
RTVSPropertyOp57
 70
     1
102
RTVSPost2010Prop28
280
     0
102
RTVSPost2010PropOp28
 70
     1
102
RTVSPost2010Prop29
280
     1
102
RTVSPost2010PropOp29
 70
     1
102
RTVSPost2010Prop30
280
     1
102
RTVSPost2010PropOp30
 70
     1
102
RTVSPost2010Prop31
280
     0
102
RTVSPost2010PropOp31
 70
     1
102
RTVSPost2010Prop32
280
     0
102
RTVSPost2010PropOp32
 70
     1
102
RTVSPost2010Prop33
280
     0
102
RTVSPost2010PropOp33
 70
     1
102
RTVSPost2010Prop34
280
     0
102
RTVSPost2010PropOp34
 70
     1
102
RTVSPost2010Prop35
280
     0
102
RTVSPost2010PropOp35
 70
     1
102
RTVSPost2010Prop36
280
     0
102
RTVSPost2010PropOp36
 70
     1
102
RTVSPost2010Prop37
 90
       50
102
RTVSPost2010PropOp37
 70
     1
102
RTVSPost2010Prop38
140
0.0
102
RTVSPost2010PropOp38
 70
     1
102
RTVSPost2010Prop39
140
1.0
102
RTVSPost2010PropOp39
 70
     1
102
RTVSPost2010Prop40
 90
        0
102
RTVSPost2010PropOp40
 70
     1
102
RTVSPost2010Prop41ColorIndex
 90
       18
102
RTVSPost2010Prop41ColorRGB
 90
        0
102
RTVSPost2010PropOp41
 70
     1
102
RTVSPost2010Prop42
 90
       50
102
RTVSPost2010PropOp42
 70
     1
102
RTVSPost2010Prop43
 90
        3
102
RTVSPost2010PropOp43
 70
     1
102
RTVSPost2010Prop44ColorIndex
 90
        5
102
RTVSPost2010Prop44ColorRGB
 90
      255
102
RTVSPost2010PropOp44
 70
     1
102
RTVSPost2010Prop45
280
     0
102
RTVSPost2010PropOp45
 70
     1
102
RTVSPost2010Prop46
 90
       50
102
RTVSPost2010PropOp46
 70
     1
102
RTVSPost2010Prop47
 90
       50
102
RTVSPost2010PropOp47
 70
     1
102
RTVSPost2010Prop48
 90
       50
102
RTVSPost2010PropOp48
 70
     1
102
RTVSPost2010Prop49
280
     0
102
RTVSPost2010PropOp49
 70
     1
102
RTVSPost2010Prop50
 90
       50
102
RTVSPost2010PropOp50
 70
     1
102
RTVSPost2010Prop51ColorIndex
 90
      256
102
RTVSPost2010Prop51ColorRGB
 90
-16777216
102
RTVSPost2010PropOp51
 70
     0
102
RTVSPost2010Prop52
140
1.0
102
RTVSPost2010PropOp52
 70
     0
102
RTVSPost2010Prop53
 90
        2
102
RTVSPost2010PropOp53
 70
     1
102
RTVSPost2010Prop54
  1
strokes_ogs.tif
102
RTVSPost2010PropOp54
 70
     1
102
RTVSPost2010Prop55
280
     0
102
RTVSPost2010PropOp55
 70
     1
102
RTVSPost2010Prop56
140
1.0
102
RTVSPost2010PropOp56
 70
     1
102
RTVSPost2010Prop57
140
1.0
102
RTVSPost2010PropOp57
 70
     1
  0
XRECORD
  5
244
102
{ACAD_REACTORS
330
243
102
}
330
243
100
AcDbXrecord
280
     1
102
RTVSPropertyOp0
 70
     1
102
RTVSPropertyOp1
 70
     1
102
RTVSPropertyOp2
 70
     1
102
RTVSPropertyOp3
 70
     1
102
RTVSPropertyOp4
 70
     1
102
RTVSPropertyOp5
 70
     1
102
RTVSPropertyOp6
 70
     1
102
RTVSPropertyOp7
 70
     1
102
RTVSPropertyOp8
 70
     1
102
RTVSPropertyOp9
 70
     1
102
RTVSPropertyOp10
 70
     1
102
RTVSPropertyOp11
 70
     1
102
RTVSPropertyOp12
 70
     1
102
RTVSPropertyOp13
 70
     1
102
RTVSPropertyOp14
 70
     1
102
RTVSPropertyOp15
 70
     1
102
RTVSPropertyOp16
 70
     1
102
RTVSPropertyOp17
 70
     1
102
RTVSPropertyOp18
 70
     1
102
RTVSPropertyOp19
 70
     1
102
RTVSPropertyOp20
 70
     1
102
RTVSPropertyOp21
 70
     1
102
RTVSPropertyOp22
 70
     1
102
RTVSPropertyOp23
 70
     1
102
RTVSPropertyOp24
 70
     1
102
RTVSPropertyOp25
 70
     1
102
RTVSPropertyOp26
 70
     1
102
RTVSPropertyOp27
 70
     1
102
RTVSPropertyOp28
 70
     1
102
RTVSPropertyOp29
 70
     1
102
RTVSPropertyOp30
 70
     1
102
RTVSPropertyOp31
 70
     1
102
RTVSPropertyOp32
 70
     1
102
RTVSPropertyOp33
 70
     1
102
RTVSPropertyOp34
 70
     1
102
RTVSPropertyOp35
 70
     1
102
RTVSPropertyOp36
 70
     1
102
RTVSPropertyOp37
 70
     1
102
RTVSPropertyOp38
 70
     1
102
RTVSPropertyOp39
 70
     1
102
RTVSPropertyOp40
 70
     1
102
RTVSPropertyOp41
 70
     1
102
RTVSPropertyOp42
 70
     1
102
RTVSPropertyOp43
 70
     1
102
RTVSPropertyOp44
 70
     1
102
RTVSPropertyOp45
 70
     1
102
RTVSPropertyOp46
 70
     1
102
RTVSPropertyOp47
 70
     1
102
RTVSPropertyOp48
 70
     1
102
RTVSPropertyOp49
 70
     1
102
RTVSPropertyOp50
 70
     1
102
RTVSPropertyOp51
 70
     0
102
RTVSPropertyOp52
 70
     0
102
RTVSPropertyOp53
 70
     1
102
RTVSPropertyOp54
 70
     1
102
RTVSPropertyOp55
 70
     1
102
RTVSPropertyOp56
 70
     1
102
RTVSPropertyOp57
 70
     1
102
RTVSPost2010Prop28
280
     0
102
RTVSPost2010PropOp28
 70
     1
102
RTVSPost2010Prop29
280
     1
102
RTVSPost2010PropOp29
 70
     1
102
RTVSPost2010Prop30
280
     1
102
RTVSPost2010PropOp30
 70
     1
102
RTVSPost2010Prop31
280
     0
102
RTVSPost2010PropOp31
 70
     1
102
RTVSPost2010Prop32
280
     0
102
RTVSPost2010PropOp32
 70
     1
102
RTVSPost2010Prop33
280
     0
102
RTVSPost2010PropOp33
 70
     1
102
RTVSPost2010Prop34
280
     0
102
RTVSPost2010PropOp34
 70
     1
102
RTVSPost2010Prop35
280
     0
102
RTVSPost2010PropOp35
 70
     1
102
RTVSPost2010Prop36
280
     0
102
RTVSPost2010PropOp36
 70
     1
102
RTVSPost2010Prop37
 90
       50
102
RTVSPost2010PropOp37
 70
     1
102
RTVSPost2010Prop38
140
0.0
102
RTVSPost2010PropOp38
 70
     1
102
RTVSPost2010Prop39
140
1.0
102
RTVSPost2010PropOp39
 70
     1
102
RTVSPost2010Prop40
 90
        0
102
RTVSPost2010PropOp40
 70
     1
102
RTVSPost2010Prop41ColorIndex
 90
       18
102
RTVSPost2010Prop41ColorRGB
 90
        0
102
RTVSPost2010PropOp41
 70
     1
102
RTVSPost2010Prop42
 90
       50
102
RTVSPost2010PropOp42
 70
     1
102
RTVSPost2010Prop43
 90
        3
102
RTVSPost2010PropOp43
 70
     1
102
RTVSPost2010Prop44ColorIndex
 90
        5
102
RTVSPost2010Prop44ColorRGB
 90
      255
102
RTVSPost2010PropOp44
 70
     1
102
RTVSPost2010Prop45
280
     0
102
RTVSPost2010PropOp45
 70
     1
102
RTVSPost2010Prop46
 90
       50
102
RTVSPost2010PropOp46
 70
     1
102
RTVSPost2010Prop47
 90
       50
102
RTVSPost2010PropOp47
 70
     1
102
RTVSPost2010Prop48
 90
       50
102
RTVSPost2010PropOp48
 70
     1
102
RTVSPost2010Prop49
280
     0
102
RTVSPost2010PropOp49
 70
     1
102
RTVSPost2010Prop50
 90
       50
102
RTVSPost2010PropOp50
 70
     1
102
RTVSPost2010Prop51ColorIndex
 90
      256
102
RTVSPost2010Prop51ColorRGB
 90
-16777216
102
RTVSPost2010PropOp51
 70
     0
102
RTVSPost2010Prop52
140
1.0
102
RTVSPost2010PropOp52
 70
     0
102
RTVSPost2010Prop53
 90
        2
102
RTVSPost2010PropOp53
 70
     1
102
RTVSPost2010Prop54
  1
strokes_ogs.tif
102
RTVSPost2010PropOp54
 70
     1
102
RTVSPost2010Prop55
280
     0
102
RTVSPost2010PropOp55
 70
     1
102
RTVSPost2010Prop56
140
1.0
102
RTVSPost2010PropOp56
 70
     1
102
RTVSPost2010Prop57
140
1.0
102
RTVSPost2010PropOp57
 70
     1
  0
XRECORD
  5
246
102
{ACAD_REACTORS
330
245
102
}
330
245
100
AcDbXrecord
280
     1
102
RTVSPropertyOp0
 70
     1
102
RTVSPropertyOp1
 70
     1
102
RTVSPropertyOp2
 70
     1
102
RTVSPropertyOp3
 70
     1
102
RTVSPropertyOp4
 70
     1
102
RTVSPropertyOp5
 70
     1
102
RTVSPropertyOp6
 70
     1
102
RTVSPropertyOp7
 70
     1
102
RTVSPropertyOp8
 70
     1
102
RTVSPropertyOp9
 70
     1
102
RTVSPropertyOp10
 70
     1
102
RTVSPropertyOp11
 70
     1
102
RTVSPropertyOp12
 70
     1
102
RTVSPropertyOp13
 70
     1
102
RTVSPropertyOp14
 70
     1
102
RTVSPropertyOp15
 70
     1
102
RTVSPropertyOp16
 70
     1
102
RTVSPropertyOp17
 70
     1
102
RTVSPropertyOp18
 70
     1
102
RTVSPropertyOp19
 70
     1
102
RTVSPropertyOp20
 70
     1
102
RTVSPropertyOp21
 70
     1
102
RTVSPropertyOp22
 70
     1
102
RTVSPropertyOp23
 70
     1
102
RTVSPropertyOp24
 70
     1
102
RTVSPropertyOp25
 70
     1
102
RTVSPropertyOp26
 70
     1
102
RTVSPropertyOp27
 70
     1
102
RTVSPropertyOp28
 70
     1
102
RTVSPropertyOp29
 70
     1
102
RTVSPropertyOp30
 70
     1
102
RTVSPropertyOp31
 70
     1
102
RTVSPropertyOp32
 70
     1
102
RTVSPropertyOp33
 70
     1
102
RTVSPropertyOp34
 70
     1
102
RTVSPropertyOp35
 70
     1
102
RTVSPropertyOp36
 70
     1
102
RTVSPropertyOp37
 70
     1
102
RTVSPropertyOp38
 70
     1
102
RTVSPropertyOp39
 70
     1
102
RTVSPropertyOp40
 70
     1
102
RTVSPropertyOp41
 70
     1
102
RTVSPropertyOp42
 70
     1
102
RTVSPropertyOp43
 70
     1
102
RTVSPropertyOp44
 70
     1
102
RTVSPropertyOp45
 70
     1
102
RTVSPropertyOp46
 70
     1
102
RTVSPropertyOp47
 70
     1
102
RTVSPropertyOp48
 70
     1
102
RTVSPropertyOp49
 70
     1
102
RTVSPropertyOp50
 70
     1
102
RTVSPropertyOp51
 70
     0
102
RTVSPropertyOp52
 70
     0
102
RTVSPropertyOp53
 70
     1
102
RTVSPropertyOp54
 70
     1
102
RTVSPropertyOp55
 70
     1
102
RTVSPropertyOp56
 70
     1
102
RTVSPropertyOp57
 70
     1
102
RTVSPost2010Prop28
280
     0
102
RTVSPost2010PropOp28
 70
     1
102
RTVSPost2010Prop29
280
     1
102
RTVSPost2010PropOp29
 70
     1
102
RTVSPost2010Prop30
280
     1
102
RTVSPost2010PropOp30
 70
     1
102
RTVSPost2010Prop31
280
     0
102
RTVSPost2010PropOp31
 70
     1
102
RTVSPost2010Prop32
280
     0
102
RTVSPost2010PropOp32
 70
     1
102
RTVSPost2010Prop33
280
     0
102
RTVSPost2010PropOp33
 70
     1
102
RTVSPost2010Prop34
280
     0
102
RTVSPost2010PropOp34
 70
     1
102
RTVSPost2010Prop35
280
     0
102
RTVSPost2010PropOp35
 70
     1
102
RTVSPost2010Prop36
280
     0
102
RTVSPost2010PropOp36
 70
     1
102
RTVSPost2010Prop37
 90
       50
102
RTVSPost2010PropOp37
 70
     1
102
RTVSPost2010Prop38
140
0.0
102
RTVSPost2010PropOp38
 70
     1
102
RTVSPost2010Prop39
140
1.0
102
RTVSPost2010PropOp39
 70
     1
102
RTVSPost2010Prop40
 90
        0
102
RTVSPost2010PropOp40
 70
     1
102
RTVSPost2010Prop41ColorIndex
 90
       18
102
RTVSPost2010Prop41ColorRGB
 90
        0
102
RTVSPost2010PropOp41
 70
     1
102
RTVSPost2010Prop42
 90
       50
102
RTVSPost2010PropOp42
 70
     1
102
RTVSPost2010Prop43
 90
        3
102
RTVSPost2010PropOp43
 70
     1
102
RTVSPost2010Prop44ColorIndex
 90
        5
102
RTVSPost2010Prop44ColorRGB
 90
      255
102
RTVSPost2010PropOp44
 70
     1
102
RTVSPost2010Prop45
280
     0
102
RTVSPost2010PropOp45
 70
     1
102
RTVSPost2010Prop46
 90
       50
102
RTVSPost2010PropOp46
 70
     1
102
RTVSPost2010Prop47
 90
       50
102
RTVSPost2010PropOp47
 70
     1
102
RTVSPost2010Prop48
 90
       50
102
RTVSPost2010PropOp48
 70
     1
102
RTVSPost2010Prop49
280
     0
102
RTVSPost2010PropOp49
 70
     1
102
RTVSPost2010Prop50
 90
       50
102
RTVSPost2010PropOp50
 70
     1
102
RTVSPost2010Prop51ColorIndex
 90
      256
102
RTVSPost2010Prop51ColorRGB
 90
-16777216
102
RTVSPost2010PropOp51
 70
     0
102
RTVSPost2010Prop52
140
1.0
102
RTVSPost2010PropOp52
 70
     0
102
RTVSPost2010Prop53
 90
        2
102
RTVSPost2010PropOp53
 70
     1
102
RTVSPost2010Prop54
  1
strokes_ogs.tif
102
RTVSPost2010PropOp54
 70
     1
102
RTVSPost2010Prop55
280
     0
102
RTVSPost2010PropOp55
 70
     1
102
RTVSPost2010Prop56
140
1.0
102
RTVSPost2010PropOp56
 70
     1
102
RTVSPost2010Prop57
140
1.0
102
RTVSPost2010PropOp57
 70
     1
  0
XRECORD
  5
24C
102
{ACAD_REACTORS
330
24B
102
}
330
24B
100
AcDbXrecord
280
     1
102
RTVSPropertyOp0
 70
     1
102
RTVSPropertyOp1
 70
     1
102
RTVSPropertyOp2
 70
     1
102
RTVSPropertyOp3
 70
     1
102
RTVSPropertyOp4
 70
     1
102
RTVSPropertyOp5
 70
     1
102
RTVSPropertyOp6
 70
     1
102
RTVSPropertyOp7
 70
     1
102
RTVSPropertyOp8
 70
     1
102
RTVSPropertyOp9
 70
     1
102
RTVSPropertyOp10
 70
     1
102
RTVSPropertyOp11
 70
     1
102
RTVSPropertyOp12
 70
     1
102
RTVSPropertyOp13
 70
     1
102
RTVSPropertyOp14
 70
     1
102
RTVSPropertyOp15
 70
     1
102
RTVSPropertyOp16
 70
     1
102
RTVSPropertyOp17
 70
     1
102
RTVSPropertyOp18
 70
     1
102
RTVSPropertyOp19
 70
     1
102
RTVSPropertyOp20
 70
     1
102
RTVSPropertyOp21
 70
     1
102
RTVSPropertyOp22
 70
     1
102
RTVSPropertyOp23
 70
     1
102
RTVSPropertyOp24
 70
     1
102
RTVSPropertyOp25
 70
     1
102
RTVSPropertyOp26
 70
     1
102
RTVSPropertyOp27
 70
     1
102
RTVSPropertyOp28
 70
     1
102
RTVSPropertyOp29
 70
     1
102
RTVSPropertyOp30
 70
     1
102
RTVSPropertyOp31
 70
     1
102
RTVSPropertyOp32
 70
     1
102
RTVSPropertyOp33
 70
     1
102
RTVSPropertyOp34
 70
     1
102
RTVSPropertyOp35
 70
     1
102
RTVSPropertyOp36
 70
     1
102
RTVSPropertyOp37
 70
     1
102
RTVSPropertyOp38
 70
     1
102
RTVSPropertyOp39
 70
     1
102
RTVSPropertyOp40
 70
     1
102
RTVSPropertyOp41
 70
     1
102
RTVSPropertyOp42
 70
     1
102
RTVSPropertyOp43
 70
     1
102
RTVSPropertyOp44
 70
     1
102
RTVSPropertyOp45
 70
     1
102
RTVSPropertyOp46
 70
     1
102
RTVSPropertyOp47
 70
     1
102
RTVSPropertyOp48
 70
     1
102
RTVSPropertyOp49
 70
     1
102
RTVSPropertyOp50
 70
     1
102
RTVSPropertyOp51
 70
     0
102
RTVSPropertyOp52
 70
     0
102
RTVSPropertyOp53
 70
     1
102
RTVSPropertyOp54
 70
     1
102
RTVSPropertyOp55
 70
     1
102
RTVSPropertyOp56
 70
     1
102
RTVSPropertyOp57
 70
     1
102
RTVSPost2010Prop28
280
     0
102
RTVSPost2010PropOp28
 70
     1
102
RTVSPost2010Prop29
280
     1
102
RTVSPost2010PropOp29
 70
     1
102
RTVSPost2010Prop30
280
     1
102
RTVSPost2010PropOp30
 70
     1
102
RTVSPost2010Prop31
280
     0
102
RTVSPost2010PropOp31
 70
     1
102
RTVSPost2010Prop32
280
     0
102
RTVSPost2010PropOp32
 70
     1
102
RTVSPost2010Prop33
280
     0
102
RTVSPost2010PropOp33
 70
     1
102
RTVSPost2010Prop34
280
     0
102
RTVSPost2010PropOp34
 70
     1
102
RTVSPost2010Prop35
280
     0
102
RTVSPost2010PropOp35
 70
     1
102
RTVSPost2010Prop36
280
     0
102
RTVSPost2010PropOp36
 70
     1
102
RTVSPost2010Prop37
 90
       50
102
RTVSPost2010PropOp37
 70
     1
102
RTVSPost2010Prop38
140
0.0
102
RTVSPost2010PropOp38
 70
     1
102
RTVSPost2010Prop39
140
1.0
102
RTVSPost2010PropOp39
 70
     1
102
RTVSPost2010Prop40
 90
        0
102
RTVSPost2010PropOp40
 70
     1
102
RTVSPost2010Prop41ColorIndex
 90
       18
102
RTVSPost2010Prop41ColorRGB
 90
        0
102
RTVSPost2010PropOp41
 70
     1
102
RTVSPost2010Prop42
 90
       50
102
RTVSPost2010PropOp42
 70
     1
102
RTVSPost2010Prop43
 90
        3
102
RTVSPost2010PropOp43
 70
     1
102
RTVSPost2010Prop44ColorIndex
 90
        5
102
RTVSPost2010Prop44ColorRGB
 90
      255
102
RTVSPost2010PropOp44
 70
     1
102
RTVSPost2010Prop45
280
     0
102
RTVSPost2010PropOp45
 70
     1
102
RTVSPost2010Prop46
 90
       50
102
RTVSPost2010PropOp46
 70
     1
102
RTVSPost2010Prop47
 90
       50
102
RTVSPost2010PropOp47
 70
     1
102
RTVSPost2010Prop48
 90
       50
102
RTVSPost2010PropOp48
 70
     1
102
RTVSPost2010Prop49
280
     0
102
RTVSPost2010PropOp49
 70
     1
102
RTVSPost2010Prop50
 90
       50
102
RTVSPost2010PropOp50
 70
     1
102
RTVSPost2010Prop51ColorIndex
 90
      256
102
RTVSPost2010Prop51ColorRGB
 90
-16777216
102
RTVSPost2010PropOp51
 70
     0
102
RTVSPost2010Prop52
140
1.0
102
RTVSPost2010PropOp52
 70
     0
102
RTVSPost2010Prop53
 90
        2
102
RTVSPost2010PropOp53
 70
     1
102
RTVSPost2010Prop54
  1
strokes_ogs.tif
102
RTVSPost2010PropOp54
 70
     1
102
RTVSPost2010Prop55
280
     0
102
RTVSPost2010PropOp55
 70
     1
102
RTVSPost2010Prop56
140
1.0
102
RTVSPost2010PropOp56
 70
     1
102
RTVSPost2010Prop57
140
1.0
102
RTVSPost2010PropOp57
 70
     1
  0
XRECORD
  5
260
102
{ACAD_REACTORS
330
25F
102
}
330
25F
100
AcDbXrecord
280
     1
102
RTVSPropertyOp0
 70
     0
102
RTVSPropertyOp1
 70
     0
102
RTVSPropertyOp2
 70
     0
102
RTVSPropertyOp3
 70
     0
102
RTVSPropertyOp4
 70
     0
102
RTVSPropertyOp5
 70
     0
102
RTVSPropertyOp6
 70
     0
102
RTVSPropertyOp7
 70
     0
102
RTVSPropertyOp8
 70
     0
102
RTVSPropertyOp9
 70
     0
102
RTVSPropertyOp10
 70
     0
102
RTVSPropertyOp11
 70
     0
102
RTVSPropertyOp12
 70
     0
102
RTVSPropertyOp13
 70
     0
102
RTVSPropertyOp14
 70
     2
102
RTVSPropertyOp15
 70
     0
102
RTVSPropertyOp16
 70
     0
102
RTVSPropertyOp17
 70
     0
102
RTVSPropertyOp18
 70
     0
102
RTVSPropertyOp19
 70
     0
102
RTVSPropertyOp20
 70
     0
102
RTVSPropertyOp21
 70
     0
102
RTVSPropertyOp22
 70
     0
102
RTVSPropertyOp23
 70
     0
102
RTVSPropertyOp24
 70
     0
102
RTVSPropertyOp25
 70
     0
102
RTVSPropertyOp26
 70
     0
102
RTVSPropertyOp27
 70
     0
102
RTVSPropertyOp28
 70
     0
102
RTVSPropertyOp29
 70
     0
102
RTVSPropertyOp30
 70
     0
102
RTVSPropertyOp31
 70
     0
102
RTVSPropertyOp32
 70
     0
102
RTVSPropertyOp33
 70
     0
102
RTVSPropertyOp34
 70
     0
102
RTVSPropertyOp35
 70
     0
102
RTVSPropertyOp36
 70
     0
102
RTVSPropertyOp37
 70
     0
102
RTVSPropertyOp38
 70
     0
102
RTVSPropertyOp39
 70
     0
102
RTVSPropertyOp40
 70
     0
102
RTVSPropertyOp41
 70
     0
102
RTVSPropertyOp42
 70
     0
102
RTVSPropertyOp43
 70
     0
102
RTVSPropertyOp44
 70
     0
102
RTVSPropertyOp45
 70
     0
102
RTVSPropertyOp46
 70
     0
102
RTVSPropertyOp47
 70
     0
102
RTVSPropertyOp48
 70
     0
102
RTVSPropertyOp49
 70
     0
102
RTVSPropertyOp50
 70
     0
102
RTVSPropertyOp51
 70
     0
102
RTVSPropertyOp52
 70
     0
102
RTVSPropertyOp53
 70
     0
102
RTVSPropertyOp54
 70
     0
102
RTVSPropertyOp55
 70
     0
102
RTVSPropertyOp56
 70
     0
102
RTVSPropertyOp57
 70
     0
102
RTVSPost2010Prop28
280
     0
102
RTVSPost2010PropOp28
 70
     0
102
RTVSPost2010Prop29
280
     1
102
RTVSPost2010PropOp29
 70
     0
102
RTVSPost2010Prop30
280
     1
102
RTVSPost2010PropOp30
 70
     0
102
RTVSPost2010Prop31
280
     0
102
RTVSPost2010PropOp31
 70
     0
102
RTVSPost2010Prop32
280
     0
102
RTVSPost2010PropOp32
 70
     0
102
RTVSPost2010Prop33
280
     0
102
RTVSPost2010PropOp33
 70
     0
102
RTVSPost2010Prop34
280
     0
102
RTVSPost2010PropOp34
 70
     0
102
RTVSPost2010Prop35
280
     0
102
RTVSPost2010PropOp35
 70
     0
102
RTVSPost2010Prop36
280
     0
102
RTVSPost2010PropOp36
 70
     0
102
RTVSPost2010Prop37
 90
       50
102
RTVSPost2010PropOp37
 70
     0
102
RTVSPost2010Prop38
140
0.0
102
RTVSPost2010PropOp38
 70
     0
102
RTVSPost2010Prop39
140
1.0
102
RTVSPost2010PropOp39
 70
     0
102
RTVSPost2010Prop40
 90
        0
102
RTVSPost2010PropOp40
 70
     0
102
RTVSPost2010Prop41ColorIndex
 90
       18
102
RTVSPost2010Prop41ColorRGB
 90
        0
102
RTVSPost2010PropOp41
 70
     0
102
RTVSPost2010Prop42
 90
       50
102
RTVSPost2010PropOp42
 70
     0
102
RTVSPost2010Prop43
 90
        3
102
RTVSPost2010PropOp43
 70
     0
102
RTVSPost2010Prop44ColorIndex
 90
        5
102
RTVSPost2010Prop44ColorRGB
 90
      255
102
RTVSPost2010PropOp44
 70
     0
102
RTVSPost2010Prop45
280
     0
102
RTVSPost2010PropOp45
 70
     0
102
RTVSPost2010Prop46
 90
       50
102
RTVSPost2010PropOp46
 70
     0
102
RTVSPost2010Prop47
 90
       50
102
RTVSPost2010PropOp47
 70
     0
102
RTVSPost2010Prop48
 90
       50
102
RTVSPost2010PropOp48
 70
     0
102
RTVSPost2010Prop49
280
     0
102
RTVSPost2010PropOp49
 70
     0
102
RTVSPost2010Prop50
 90
       50
102
RTVSPost2010PropOp50
 70
     0
102
RTVSPost2010Prop51ColorIndex
 90
      256
102
RTVSPost2010Prop51ColorRGB
 90
-16777216
102
RTVSPost2010PropOp51
 70
     0
102
RTVSPost2010Prop52
140
1.0
102
RTVSPost2010PropOp52
 70
     0
102
RTVSPost2010Prop53
 90
        2
102
RTVSPost2010PropOp53
 70
     0
102
RTVSPost2010Prop54
  1
strokes_ogs.tif
102
RTVSPost2010PropOp54
 70
     0
102
RTVSPost2010Prop55
280
     0
102
RTVSPost2010PropOp55
 70
     0
102
RTVSPost2010Prop56
140
1.0
102
RTVSPost2010PropOp56
 70
     0
102
RTVSPost2010Prop57
140
1.0
102
RTVSPost2010PropOp57
 70
     0
  0
XRECORD
  5
25A
102
{ACAD_REACTORS
330
259
102
}
330
259
100
AcDbXrecord
280
     1
102
RTVSPropertyOp0
 70
     1
102
RTVSPropertyOp1
 70
     1
102
RTVSPropertyOp2
 70
     1
102
RTVSPropertyOp3
 70
     1
102
RTVSPropertyOp4
 70
     1
102
RTVSPropertyOp5
 70
     1
102
RTVSPropertyOp6
 70
     1
102
RTVSPropertyOp7
 70
     1
102
RTVSPropertyOp8
 70
     1
102
RTVSPropertyOp9
 70
     1
102
RTVSPropertyOp10
 70
     1
102
RTVSPropertyOp11
 70
     1
102
RTVSPropertyOp12
 70
     1
102
RTVSPropertyOp13
 70
     1
102
RTVSPropertyOp14
 70
     1
102
RTVSPropertyOp15
 70
     1
102
RTVSPropertyOp16
 70
     1
102
RTVSPropertyOp17
 70
     1
102
RTVSPropertyOp18
 70
     1
102
RTVSPropertyOp19
 70
     1
102
RTVSPropertyOp20
 70
     1
102
RTVSPropertyOp21
 70
     1
102
RTVSPropertyOp22
 70
     1
102
RTVSPropertyOp23
 70
     1
102
RTVSPropertyOp24
 70
     1
102
RTVSPropertyOp25
 70
     1
102
RTVSPropertyOp26
 70
     1
102
RTVSPropertyOp27
 70
     1
102
RTVSPropertyOp28
 70
     1
102
RTVSPropertyOp29
 70
     1
102
RTVSPropertyOp30
 70
     1
102
RTVSPropertyOp31
 70
     1
102
RTVSPropertyOp32
 70
     1
102
RTVSPropertyOp33
 70
     1
102
RTVSPropertyOp34
 70
     1
102
RTVSPropertyOp35
 70
     1
102
RTVSPropertyOp36
 70
     1
102
RTVSPropertyOp37
 70
     1
102
RTVSPropertyOp38
 70
     1
102
RTVSPropertyOp39
 70
     1
102
RTVSPropertyOp40
 70
     1
102
RTVSPropertyOp41
 70
     1
102
RTVSPropertyOp42
 70
     1
102
RTVSPropertyOp43
 70
     1
102
RTVSPropertyOp44
 70
     1
102
RTVSPropertyOp45
 70
     1
102
RTVSPropertyOp46
 70
     1
102
RTVSPropertyOp47
 70
     1
102
RTVSPropertyOp48
 70
     1
102
RTVSPropertyOp49
 70
     1
102
RTVSPropertyOp50
 70
     1
102
RTVSPropertyOp51
 70
     0
102
RTVSPropertyOp52
 70
     0
102
RTVSPropertyOp53
 70
     1
102
RTVSPropertyOp54
 70
     1
102
RTVSPropertyOp55
 70
     1
102
RTVSPropertyOp56
 70
     1
102
RTVSPropertyOp57
 70
     1
102
RTVSPost2010Prop28
280
     0
102
RTVSPost2010PropOp28
 70
     1
102
RTVSPost2010Prop29
280
     1
102
RTVSPost2010PropOp29
 70
     1
102
RTVSPost2010Prop30
280
     1
102
RTVSPost2010PropOp30
 70
     1
102
RTVSPost2010Prop31
280
     0
102
RTVSPost2010PropOp31
 70
     1
102
RTVSPost2010Prop32
280
     0
102
RTVSPost2010PropOp32
 70
     1
102
RTVSPost2010Prop33
280
     0
102
RTVSPost2010PropOp33
 70
     1
102
RTVSPost2010Prop34
280
     0
102
RTVSPost2010PropOp34
 70
     1
102
RTVSPost2010Prop35
280
     0
102
RTVSPost2010PropOp35
 70
     1
102
RTVSPost2010Prop36
280
     0
102
RTVSPost2010PropOp36
 70
     1
102
RTVSPost2010Prop37
 90
       50
102
RTVSPost2010PropOp37
 70
     1
102
RTVSPost2010Prop38
140
0.0
102
RTVSPost2010PropOp38
 70
     1
102
RTVSPost2010Prop39
140
1.0
102
RTVSPost2010PropOp39
 70
     1
102
RTVSPost2010Prop40
 90
        0
102
RTVSPost2010PropOp40
 70
     1
102
RTVSPost2010Prop41ColorIndex
 90
       18
102
RTVSPost2010Prop41ColorRGB
 90
        0
102
RTVSPost2010PropOp41
 70
     1
102
RTVSPost2010Prop42
 90
       50
102
RTVSPost2010PropOp42
 70
     1
102
RTVSPost2010Prop43
 90
        3
102
RTVSPost2010PropOp43
 70
     1
102
RTVSPost2010Prop44ColorIndex
 90
        5
102
RTVSPost2010Prop44ColorRGB
 90
      255
102
RTVSPost2010PropOp44
 70
     1
102
RTVSPost2010Prop45
280
     0
102
RTVSPost2010PropOp45
 70
     1
102
RTVSPost2010Prop46
 90
       50
102
RTVSPost2010PropOp46
 70
     1
102
RTVSPost2010Prop47
 90
       50
102
RTVSPost2010PropOp47
 70
     1
102
RTVSPost2010Prop48
 90
       50
102
RTVSPost2010PropOp48
 70
     1
102
RTVSPost2010Prop49
280
     0
102
RTVSPost2010PropOp49
 70
     1
102
RTVSPost2010Prop50
 90
       50
102
RTVSPost2010PropOp50
 70
     1
102
RTVSPost2010Prop51ColorIndex
 90
      256
102
RTVSPost2010Prop51ColorRGB
 90
-16777216
102
RTVSPost2010PropOp51
 70
     0
102
RTVSPost2010Prop52
140
1.0
102
RTVSPost2010PropOp52
 70
     0
102
RTVSPost2010Prop53
 90
        2
102
RTVSPost2010PropOp53
 70
     1
102
RTVSPost2010Prop54
  1
strokes_ogs.tif
102
RTVSPost2010PropOp54
 70
     1
102
RTVSPost2010Prop55
280
     0
102
RTVSPost2010PropOp55
 70
     1
102
RTVSPost2010Prop56
140
1.0
102
RTVSPost2010PropOp56
 70
     1
102
RTVSPost2010Prop57
140
1.0
102
RTVSPost2010PropOp57
 70
     1
  0
XRECORD
  5
262
102
{ACAD_REACTORS
330
261
102
}
330
261
100
AcDbXrecord
280
     1
102
RTVSPropertyOp0
 70
     0
102
RTVSPropertyOp1
 70
     0
102
RTVSPropertyOp2
 70
     0
102
RTVSPropertyOp3
 70
     0
102
RTVSPropertyOp4
 70
     0
102
RTVSPropertyOp5
 70
     0
102
RTVSPropertyOp6
 70
     0
102
RTVSPropertyOp7
 70
     0
102
RTVSPropertyOp8
 70
     0
102
RTVSPropertyOp9
 70
     0
102
RTVSPropertyOp10
 70
     0
102
RTVSPropertyOp11
 70
     0
102
RTVSPropertyOp12
 70
     0
102
RTVSPropertyOp13
 70
     0
102
RTVSPropertyOp14
 70
     2
102
RTVSPropertyOp15
 70
     0
102
RTVSPropertyOp16
 70
     0
102
RTVSPropertyOp17
 70
     0
102
RTVSPropertyOp18
 70
     0
102
RTVSPropertyOp19
 70
     0
102
RTVSPropertyOp20
 70
     0
102
RTVSPropertyOp21
 70
     0
102
RTVSPropertyOp22
 70
     0
102
RTVSPropertyOp23
 70
     0
102
RTVSPropertyOp24
 70
     0
102
RTVSPropertyOp25
 70
     0
102
RTVSPropertyOp26
 70
     0
102
RTVSPropertyOp27
 70
     0
102
RTVSPropertyOp28
 70
     0
102
RTVSPropertyOp29
 70
     0
102
RTVSPropertyOp30
 70
     0
102
RTVSPropertyOp31
 70
     0
102
RTVSPropertyOp32
 70
     0
102
RTVSPropertyOp33
 70
     0
102
RTVSPropertyOp34
 70
     0
102
RTVSPropertyOp35
 70
     0
102
RTVSPropertyOp36
 70
     0
102
RTVSPropertyOp37
 70
     0
102
RTVSPropertyOp38
 70
     0
102
RTVSPropertyOp39
 70
     0
102
RTVSPropertyOp40
 70
     0
102
RTVSPropertyOp41
 70
     0
102
RTVSPropertyOp42
 70
     0
102
RTVSPropertyOp43
 70
     0
102
RTVSPropertyOp44
 70
     0
102
RTVSPropertyOp45
 70
     0
102
RTVSPropertyOp46
 70
     0
102
RTVSPropertyOp47
 70
     0
102
RTVSPropertyOp48
 70
     0
102
RTVSPropertyOp49
 70
     0
102
RTVSPropertyOp50
 70
     0
102
RTVSPropertyOp51
 70
     0
102
RTVSPropertyOp52
 70
     0
102
RTVSPropertyOp53
 70
     0
102
RTVSPropertyOp54
 70
     0
102
RTVSPropertyOp55
 70
     0
102
RTVSPropertyOp56
 70
     0
102
RTVSPropertyOp57
 70
     0
102
RTVSPost2010Prop28
280
     0
102
RTVSPost2010PropOp28
 70
     0
102
RTVSPost2010Prop29
280
     1
102
RTVSPost2010PropOp29
 70
     0
102
RTVSPost2010Prop30
280
     1
102
RTVSPost2010PropOp30
 70
     0
102
RTVSPost2010Prop31
280
     0
102
RTVSPost2010PropOp31
 70
     0
102
RTVSPost2010Prop32
280
     0
102
RTVSPost2010PropOp32
 70
     0
102
RTVSPost2010Prop33
280
     0
102
RTVSPost2010PropOp33
 70
     0
102
RTVSPost2010Prop34
280
     0
102
RTVSPost2010PropOp34
 70
     0
102
RTVSPost2010Prop35
280
     0
102
RTVSPost2010PropOp35
 70
     0
102
RTVSPost2010Prop36
280
     0
102
RTVSPost2010PropOp36
 70
     0
102
RTVSPost2010Prop37
 90
       50
102
RTVSPost2010PropOp37
 70
     0
102
RTVSPost2010Prop38
140
0.0
102
RTVSPost2010PropOp38
 70
     0
102
RTVSPost2010Prop39
140
1.0
102
RTVSPost2010PropOp39
 70
     0
102
RTVSPost2010Prop40
 90
        0
102
RTVSPost2010PropOp40
 70
     0
102
RTVSPost2010Prop41ColorIndex
 90
       18
102
RTVSPost2010Prop41ColorRGB
 90
        0
102
RTVSPost2010PropOp41
 70
     0
102
RTVSPost2010Prop42
 90
       50
102
RTVSPost2010PropOp42
 70
     0
102
RTVSPost2010Prop43
 90
        3
102
RTVSPost2010PropOp43
 70
     0
102
RTVSPost2010Prop44ColorIndex
 90
        5
102
RTVSPost2010Prop44ColorRGB
 90
      255
102
RTVSPost2010PropOp44
 70
     0
102
RTVSPost2010Prop45
280
     0
102
RTVSPost2010PropOp45
 70
     0
102
RTVSPost2010Prop46
 90
       50
102
RTVSPost2010PropOp46
 70
     0
102
RTVSPost2010Prop47
 90
       50
102
RTVSPost2010PropOp47
 70
     0
102
RTVSPost2010Prop48
 90
       50
102
RTVSPost2010PropOp48
 70
     0
102
RTVSPost2010Prop49
280
     0
102
RTVSPost2010PropOp49
 70
     0
102
RTVSPost2010Prop50
 90
       50
102
RTVSPost2010PropOp50
 70
     0
102
RTVSPost2010Prop51ColorIndex
 90
      256
102
RTVSPost2010Prop51ColorRGB
 90
-16777216
102
RTVSPost2010PropOp51
 70
     0
102
RTVSPost2010Prop52
140
1.0
102
RTVSPost2010PropOp52
 70
     0
102
RTVSPost2010Prop53
 90
        2
102
RTVSPost2010PropOp53
 70
     0
102
RTVSPost2010Prop54
  1
strokes_ogs.tif
102
RTVSPost2010PropOp54
 70
     0
102
RTVSPost2010Prop55
280
     0
102
RTVSPost2010PropOp55
 70
     0
102
RTVSPost2010Prop56
140
1.0
102
RTVSPost2010PropOp56
 70
     0
102
RTVSPost2010Prop57
140
1.0
102
RTVSPost2010PropOp57
 70
     0
  0
XRECORD
  5
250
102
{ACAD_REACTORS
330
24F
102
}
330
24F
100
AcDbXrecord
280
     1
102
RTVSPropertyOp0
 70
     1
102
RTVSPropertyOp1
 70
     1
102
RTVSPropertyOp2
 70
     1
102
RTVSPropertyOp3
 70
     1
102
RTVSPropertyOp4
 70
     1
102
RTVSPropertyOp5
 70
     1
102
RTVSPropertyOp6
 70
     1
102
RTVSPropertyOp7
 70
     1
102
RTVSPropertyOp8
 70
     1
102
RTVSPropertyOp9
 70
     1
102
RTVSPropertyOp10
 70
     1
102
RTVSPropertyOp11
 70
     1
102
RTVSPropertyOp12
 70
     1
102
RTVSPropertyOp13
 70
     1
102
RTVSPropertyOp14
 70
     1
102
RTVSPropertyOp15
 70
     1
102
RTVSPropertyOp16
 70
     1
102
RTVSPropertyOp17
 70
     1
102
RTVSPropertyOp18
 70
     1
102
RTVSPropertyOp19
 70
     1
102
RTVSPropertyOp20
 70
     1
102
RTVSPropertyOp21
 70
     1
102
RTVSPropertyOp22
 70
     1
102
RTVSPropertyOp23
 70
     1
102
RTVSPropertyOp24
 70
     1
102
RTVSPropertyOp25
 70
     1
102
RTVSPropertyOp26
 70
     1
102
RTVSPropertyOp27
 70
     1
102
RTVSPropertyOp28
 70
     1
102
RTVSPropertyOp29
 70
     1
102
RTVSPropertyOp30
 70
     1
102
RTVSPropertyOp31
 70
     1
102
RTVSPropertyOp32
 70
     1
102
RTVSPropertyOp33
 70
     1
102
RTVSPropertyOp34
 70
     1
102
RTVSPropertyOp35
 70
     1
102
RTVSPropertyOp36
 70
     1
102
RTVSPropertyOp37
 70
     1
102
RTVSPropertyOp38
 70
     1
102
RTVSPropertyOp39
 70
     1
102
RTVSPropertyOp40
 70
     1
102
RTVSPropertyOp41
 70
     1
102
RTVSPropertyOp42
 70
     1
102
RTVSPropertyOp43
 70
     1
102
RTVSPropertyOp44
 70
     1
102
RTVSPropertyOp45
 70
     1
102
RTVSPropertyOp46
 70
     1
102
RTVSPropertyOp47
 70
     1
102
RTVSPropertyOp48
 70
     1
102
RTVSPropertyOp49
 70
     1
102
RTVSPropertyOp50
 70
     1
102
RTVSPropertyOp51
 70
     0
102
RTVSPropertyOp52
 70
     0
102
RTVSPropertyOp53
 70
     1
102
RTVSPropertyOp54
 70
     1
102
RTVSPropertyOp55
 70
     1
102
RTVSPropertyOp56
 70
     1
102
RTVSPropertyOp57
 70
     1
102
RTVSPost2010Prop28
280
     0
102
RTVSPost2010PropOp28
 70
     1
102
RTVSPost2010Prop29
280
     1
102
RTVSPost2010PropOp29
 70
     1
102
RTVSPost2010Prop30
280
     1
102
RTVSPost2010PropOp30
 70
     1
102
RTVSPost2010Prop31
280
     0
102
RTVSPost2010PropOp31
 70
     1
102
RTVSPost2010Prop32
280
     0
102
RTVSPost2010PropOp32
 70
     1
102
RTVSPost2010Prop33
280
     0
102
RTVSPost2010PropOp33
 70
     1
102
RTVSPost2010Prop34
280
     0
102
RTVSPost2010PropOp34
 70
     1
102
RTVSPost2010Prop35
280
     0
102
RTVSPost2010PropOp35
 70
     1
102
RTVSPost2010Prop36
280
     0
102
RTVSPost2010PropOp36
 70
     1
102
RTVSPost2010Prop37
 90
       50
102
RTVSPost2010PropOp37
 70
     1
102
RTVSPost2010Prop38
140
0.0
102
RTVSPost2010PropOp38
 70
     1
102
RTVSPost2010Prop39
140
1.0
102
RTVSPost2010PropOp39
 70
     1
102
RTVSPost2010Prop40
 90
        0
102
RTVSPost2010PropOp40
 70
     1
102
RTVSPost2010Prop41ColorIndex
 90
       18
102
RTVSPost2010Prop41ColorRGB
 90
        0
102
RTVSPost2010PropOp41
 70
     1
102
RTVSPost2010Prop42
 90
       50
102
RTVSPost2010PropOp42
 70
     1
102
RTVSPost2010Prop43
 90
        3
102
RTVSPost2010PropOp43
 70
     1
102
RTVSPost2010Prop44ColorIndex
 90
        5
102
RTVSPost2010Prop44ColorRGB
 90
      255
102
RTVSPost2010PropOp44
 70
     1
102
RTVSPost2010Prop45
280
     0
102
RTVSPost2010PropOp45
 70
     1
102
RTVSPost2010Prop46
 90
       50
102
RTVSPost2010PropOp46
 70
     1
102
RTVSPost2010Prop47
 90
       50
102
RTVSPost2010PropOp47
 70
     1
102
RTVSPost2010Prop48
 90
       50
102
RTVSPost2010PropOp48
 70
     1
102
RTVSPost2010Prop49
280
     0
102
RTVSPost2010PropOp49
 70
     1
102
RTVSPost2010Prop50
 90
       50
102
RTVSPost2010PropOp50
 70
     1
102
RTVSPost2010Prop51ColorIndex
 90
      256
102
RTVSPost2010Prop51ColorRGB
 90
-16777216
102
RTVSPost2010PropOp51
 70
     0
102
RTVSPost2010Prop52
140
1.0
102
RTVSPost2010PropOp52
 70
     0
102
RTVSPost2010Prop53
 90
        2
102
RTVSPost2010PropOp53
 70
     1
102
RTVSPost2010Prop54
  1
strokes_ogs.tif
102
RTVSPost2010PropOp54
 70
     1
102
RTVSPost2010Prop55
280
     0
102
RTVSPost2010PropOp55
 70
     1
102
RTVSPost2010Prop56
140
1.0
102
RTVSPost2010PropOp56
 70
     1
102
RTVSPost2010Prop57
140
1.0
102
RTVSPost2010PropOp57
 70
     1
  0
XRECORD
  5
26E
102
{ACAD_REACTORS
330
26D
102
}
330
26D
100
AcDbXrecord
280
     1
102
RTVSPropertyOp0
 70
     1
102
RTVSPropertyOp1
 70
     1
102
RTVSPropertyOp2
 70
     1
102
RTVSPropertyOp3
 70
     1
102
RTVSPropertyOp4
 70
     1
102
RTVSPropertyOp5
 70
     1
102
RTVSPropertyOp6
 70
     1
102
RTVSPropertyOp7
 70
     1
102
RTVSPropertyOp8
 70
     1
102
RTVSPropertyOp9
 70
     1
102
RTVSPropertyOp10
 70
     1
102
RTVSPropertyOp11
 70
     1
102
RTVSPropertyOp12
 70
     1
102
RTVSPropertyOp13
 70
     1
102
RTVSPropertyOp14
 70
     1
102
RTVSPropertyOp15
 70
     1
102
RTVSPropertyOp16
 70
     1
102
RTVSPropertyOp17
 70
     1
102
RTVSPropertyOp18
 70
     1
102
RTVSPropertyOp19
 70
     1
102
RTVSPropertyOp20
 70
     1
102
RTVSPropertyOp21
 70
     1
102
RTVSPropertyOp22
 70
     1
102
RTVSPropertyOp23
 70
     1
102
RTVSPropertyOp24
 70
     1
102
RTVSPropertyOp25
 70
     1
102
RTVSPropertyOp26
 70
     1
102
RTVSPropertyOp27
 70
     1
102
RTVSPropertyOp28
 70
     1
102
RTVSPropertyOp29
 70
     1
102
RTVSPropertyOp30
 70
     1
102
RTVSPropertyOp31
 70
     1
102
RTVSPropertyOp32
 70
     1
102
RTVSPropertyOp33
 70
     1
102
RTVSPropertyOp34
 70
     1
102
RTVSPropertyOp35
 70
     1
102
RTVSPropertyOp36
 70
     1
102
RTVSPropertyOp37
 70
     1
102
RTVSPropertyOp38
 70
     1
102
RTVSPropertyOp39
 70
     1
102
RTVSPropertyOp40
 70
     1
102
RTVSPropertyOp41
 70
     1
102
RTVSPropertyOp42
 70
     1
102
RTVSPropertyOp43
 70
     1
102
RTVSPropertyOp44
 70
     1
102
RTVSPropertyOp45
 70
     1
102
RTVSPropertyOp46
 70
     1
102
RTVSPropertyOp47
 70
     1
102
RTVSPropertyOp48
 70
     1
102
RTVSPropertyOp49
 70
     1
102
RTVSPropertyOp50
 70
     1
102
RTVSPropertyOp51
 70
     0
102
RTVSPropertyOp52
 70
     0
102
RTVSPropertyOp53
 70
     1
102
RTVSPropertyOp54
 70
     1
102
RTVSPropertyOp55
 70
     1
102
RTVSPropertyOp56
 70
     1
102
RTVSPropertyOp57
 70
     1
102
RTVSPost2010Prop28
280
     0
102
RTVSPost2010PropOp28
 70
     1
102
RTVSPost2010Prop29
280
     1
102
RTVSPost2010PropOp29
 70
     1
102
RTVSPost2010Prop30
280
     1
102
RTVSPost2010PropOp30
 70
     1
102
RTVSPost2010Prop31
280
     0
102
RTVSPost2010PropOp31
 70
     1
102
RTVSPost2010Prop32
280
     0
102
RTVSPost2010PropOp32
 70
     1
102
RTVSPost2010Prop33
280
     0
102
RTVSPost2010PropOp33
 70
     1
102
RTVSPost2010Prop34
280
     0
102
RTVSPost2010PropOp34
 70
     1
102
RTVSPost2010Prop35
280
     0
102
RTVSPost2010PropOp35
 70
     1
102
RTVSPost2010Prop36
280
     0
102
RTVSPost2010PropOp36
 70
     1
102
RTVSPost2010Prop37
 90
       50
102
RTVSPost2010PropOp37
 70
     1
102
RTVSPost2010Prop38
140
0.0
102
RTVSPost2010PropOp38
 70
     1
102
RTVSPost2010Prop39
140
1.0
102
RTVSPost2010PropOp39
 70
     1
102
RTVSPost2010Prop40
 90
        0
102
RTVSPost2010PropOp40
 70
     1
102
RTVSPost2010Prop41ColorIndex
 90
       18
102
RTVSPost2010Prop41ColorRGB
 90
        0
102
RTVSPost2010PropOp41
 70
     1
102
RTVSPost2010Prop42
 90
       50
102
RTVSPost2010PropOp42
 70
     1
102
RTVSPost2010Prop43
 90
        3
102
RTVSPost2010PropOp43
 70
     1
102
RTVSPost2010Prop44ColorIndex
 90
        5
102
RTVSPost2010Prop44ColorRGB
 90
      255
102
RTVSPost2010PropOp44
 70
     1
102
RTVSPost2010Prop45
280
     0
102
RTVSPost2010PropOp45
 70
     1
102
RTVSPost2010Prop46
 90
       50
102
RTVSPost2010PropOp46
 70
     1
102
RTVSPost2010Prop47
 90
       50
102
RTVSPost2010PropOp47
 70
     1
102
RTVSPost2010Prop48
 90
       50
102
RTVSPost2010PropOp48
 70
     1
102
RTVSPost2010Prop49
280
     0
102
RTVSPost2010PropOp49
 70
     1
102
RTVSPost2010Prop50
 90
       50
102
RTVSPost2010PropOp50
 70
     1
102
RTVSPost2010Prop51ColorIndex
 90
      256
102
RTVSPost2010Prop51ColorRGB
 90
-16777216
102
RTVSPost2010PropOp51
 70
     0
102
RTVSPost2010Prop52
140
1.0
102
RTVSPost2010PropOp52
 70
     0
102
RTVSPost2010Prop53
 90
        2
102
RTVSPost2010PropOp53
 70
     1
102
RTVSPost2010Prop54
  1
strokes_ogs.tif
102
RTVSPost2010PropOp54
 70
     1
102
RTVSPost2010Prop55
280
     0
102
RTVSPost2010PropOp55
 70
     1
102
RTVSPost2010Prop56
140
1.0
102
RTVSPost2010PropOp56
 70
     1
102
RTVSPost2010Prop57
140
1.0
102
RTVSPost2010PropOp57
 70
     1
  0
XRECORD
  5
26C
102
{ACAD_REACTORS
330
26B
102
}
330
26B
100
AcDbXrecord
280
     1
102
RTVSPropertyOp0
 70
     1
102
RTVSPropertyOp1
 70
     1
102
RTVSPropertyOp2
 70
     1
102
RTVSPropertyOp3
 70
     1
102
RTVSPropertyOp4
 70
     1
102
RTVSPropertyOp5
 70
     1
102
RTVSPropertyOp6
 70
     1
102
RTVSPropertyOp7
 70
     1
102
RTVSPropertyOp8
 70
     1
102
RTVSPropertyOp9
 70
     1
102
RTVSPropertyOp10
 70
     1
102
RTVSPropertyOp11
 70
     1
102
RTVSPropertyOp12
 70
     1
102
RTVSPropertyOp13
 70
     1
102
RTVSPropertyOp14
 70
     1
102
RTVSPropertyOp15
 70
     1
102
RTVSPropertyOp16
 70
     1
102
RTVSPropertyOp17
 70
     1
102
RTVSPropertyOp18
 70
     1
102
RTVSPropertyOp19
 70
     1
102
RTVSPropertyOp20
 70
     1
102
RTVSPropertyOp21
 70
     1
102
RTVSPropertyOp22
 70
     1
102
RTVSPropertyOp23
 70
     1
102
RTVSPropertyOp24
 70
     1
102
RTVSPropertyOp25
 70
     1
102
RTVSPropertyOp26
 70
     1
102
RTVSPropertyOp27
 70
     1
102
RTVSPropertyOp28
 70
     1
102
RTVSPropertyOp29
 70
     1
102
RTVSPropertyOp30
 70
     1
102
RTVSPropertyOp31
 70
     1
102
RTVSPropertyOp32
 70
     1
102
RTVSPropertyOp33
 70
     1
102
RTVSPropertyOp34
 70
     1
102
RTVSPropertyOp35
 70
     1
102
RTVSPropertyOp36
 70
     1
102
RTVSPropertyOp37
 70
     1
102
RTVSPropertyOp38
 70
     1
102
RTVSPropertyOp39
 70
     1
102
RTVSPropertyOp40
 70
     1
102
RTVSPropertyOp41
 70
     1
102
RTVSPropertyOp42
 70
     1
102
RTVSPropertyOp43
 70
     1
102
RTVSPropertyOp44
 70
     1
102
RTVSPropertyOp45
 70
     1
102
RTVSPropertyOp46
 70
     1
102
RTVSPropertyOp47
 70
     1
102
RTVSPropertyOp48
 70
     1
102
RTVSPropertyOp49
 70
     1
102
RTVSPropertyOp50
 70
     1
102
RTVSPropertyOp51
 70
     0
102
RTVSPropertyOp52
 70
     0
102
RTVSPropertyOp53
 70
     1
102
RTVSPropertyOp54
 70
     1
102
RTVSPropertyOp55
 70
     1
102
RTVSPropertyOp56
 70
     1
102
RTVSPropertyOp57
 70
     1
102
RTVSPost2010Prop28
280
     0
102
RTVSPost2010PropOp28
 70
     1
102
RTVSPost2010Prop29
280
     1
102
RTVSPost2010PropOp29
 70
     1
102
RTVSPost2010Prop30
280
     1
102
RTVSPost2010PropOp30
 70
     1
102
RTVSPost2010Prop31
280
     0
102
RTVSPost2010PropOp31
 70
     1
102
RTVSPost2010Prop32
280
     0
102
RTVSPost2010PropOp32
 70
     1
102
RTVSPost2010Prop33
280
     0
102
RTVSPost2010PropOp33
 70
     1
102
RTVSPost2010Prop34
280
     0
102
RTVSPost2010PropOp34
 70
     1
102
RTVSPost2010Prop35
280
     0
102
RTVSPost2010PropOp35
 70
     1
102
RTVSPost2010Prop36
280
     0
102
RTVSPost2010PropOp36
 70
     1
102
RTVSPost2010Prop37
 90
       50
102
RTVSPost2010PropOp37
 70
     1
102
RTVSPost2010Prop38
140
0.0
102
RTVSPost2010PropOp38
 70
     1
102
RTVSPost2010Prop39
140
1.0
102
RTVSPost2010PropOp39
 70
     1
102
RTVSPost2010Prop40
 90
        0
102
RTVSPost2010PropOp40
 70
     1
102
RTVSPost2010Prop41ColorIndex
 90
       18
102
RTVSPost2010Prop41ColorRGB
 90
        0
102
RTVSPost2010PropOp41
 70
     1
102
RTVSPost2010Prop42
 90
       50
102
RTVSPost2010PropOp42
 70
     1
102
RTVSPost2010Prop43
 90
        3
102
RTVSPost2010PropOp43
 70
     1
102
RTVSPost2010Prop44ColorIndex
 90
        5
102
RTVSPost2010Prop44ColorRGB
 90
      255
102
RTVSPost2010PropOp44
 70
     1
102
RTVSPost2010Prop45
280
     0
102
RTVSPost2010PropOp45
 70
     1
102
RTVSPost2010Prop46
 90
       50
102
RTVSPost2010PropOp46
 70
     1
102
RTVSPost2010Prop47
 90
       50
102
RTVSPost2010PropOp47
 70
     1
102
RTVSPost2010Prop48
 90
       50
102
RTVSPost2010PropOp48
 70
     1
102
RTVSPost2010Prop49
280
     0
102
RTVSPost2010PropOp49
 70
     1
102
RTVSPost2010Prop50
 90
       50
102
RTVSPost2010PropOp50
 70
     1
102
RTVSPost2010Prop51ColorIndex
 90
      256
102
RTVSPost2010Prop51ColorRGB
 90
-16777216
102
RTVSPost2010PropOp51
 70
     0
102
RTVSPost2010Prop52
140
1.0
102
RTVSPost2010PropOp52
 70
     0
102
RTVSPost2010Prop53
 90
        2
102
RTVSPost2010PropOp53
 70
     1
102
RTVSPost2010Prop54
  1
strokes_ogs.tif
102
RTVSPost2010PropOp54
 70
     1
102
RTVSPost2010Prop55
280
     0
102
RTVSPost2010PropOp55
 70
     1
102
RTVSPost2010Prop56
140
1.0
102
RTVSPost2010PropOp56
 70
     1
102
RTVSPost2010Prop57
140
1.0
102
RTVSPost2010PropOp57
 70
     1
  0
XRECORD
  5
266
102
{ACAD_REACTORS
330
265
102
}
330
265
100
AcDbXrecord
280
     1
102
RTVSPropertyOp0
 70
     1
102
RTVSPropertyOp1
 70
     1
102
RTVSPropertyOp2
 70
     1
102
RTVSPropertyOp3
 70
     1
102
RTVSPropertyOp4
 70
     1
102
RTVSPropertyOp5
 70
     1
102
RTVSPropertyOp6
 70
     1
102
RTVSPropertyOp7
 70
     1
102
RTVSPropertyOp8
 70
     1
102
RTVSPropertyOp9
 70
     1
102
RTVSPropertyOp10
 70
     1
102
RTVSPropertyOp11
 70
     1
102
RTVSPropertyOp12
 70
     1
102
RTVSPropertyOp13
 70
     1
102
RTVSPropertyOp14
 70
     1
102
RTVSPropertyOp15
 70
     1
102
RTVSPropertyOp16
 70
     1
102
RTVSPropertyOp17
 70
     1
102
RTVSPropertyOp18
 70
     1
102
RTVSPropertyOp19
 70
     1
102
RTVSPropertyOp20
 70
     1
102
RTVSPropertyOp21
 70
     1
102
RTVSPropertyOp22
 70
     1
102
RTVSPropertyOp23
 70
     1
102
RTVSPropertyOp24
 70
     1
102
RTVSPropertyOp25
 70
     1
102
RTVSPropertyOp26
 70
     1
102
RTVSPropertyOp27
 70
     1
102
RTVSPropertyOp28
 70
     1
102
RTVSPropertyOp29
 70
     1
102
RTVSPropertyOp30
 70
     1
102
RTVSPropertyOp31
 70
     1
102
RTVSPropertyOp32
 70
     1
102
RTVSPropertyOp33
 70
     1
102
RTVSPropertyOp34
 70
     1
102
RTVSPropertyOp35
 70
     1
102
RTVSPropertyOp36
 70
     1
102
RTVSPropertyOp37
 70
     1
102
RTVSPropertyOp38
 70
     1
102
RTVSPropertyOp39
 70
     1
102
RTVSPropertyOp40
 70
     1
102
RTVSPropertyOp41
 70
     1
102
RTVSPropertyOp42
 70
     1
102
RTVSPropertyOp43
 70
     1
102
RTVSPropertyOp44
 70
     1
102
RTVSPropertyOp45
 70
     1
102
RTVSPropertyOp46
 70
     1
102
RTVSPropertyOp47
 70
     1
102
RTVSPropertyOp48
 70
     1
102
RTVSPropertyOp49
 70
     1
102
RTVSPropertyOp50
 70
     1
102
RTVSPropertyOp51
 70
     0
102
RTVSPropertyOp52
 70
     0
102
RTVSPropertyOp53
 70
     1
102
RTVSPropertyOp54
 70
     1
102
RTVSPropertyOp55
 70
     1
102
RTVSPropertyOp56
 70
     1
102
RTVSPropertyOp57
 70
     1
102
RTVSPost2010Prop28
280
     0
102
RTVSPost2010PropOp28
 70
     1
102
RTVSPost2010Prop29
280
     1
102
RTVSPost2010PropOp29
 70
     1
102
RTVSPost2010Prop30
280
     1
102
RTVSPost2010PropOp30
 70
     1
102
RTVSPost2010Prop31
280
     0
102
RTVSPost2010PropOp31
 70
     1
102
RTVSPost2010Prop32
280
     0
102
RTVSPost2010PropOp32
 70
     1
102
RTVSPost2010Prop33
280
     0
102
RTVSPost2010PropOp33
 70
     1
102
RTVSPost2010Prop34
280
     0
102
RTVSPost2010PropOp34
 70
     1
102
RTVSPost2010Prop35
280
     0
102
RTVSPost2010PropOp35
 70
     1
102
RTVSPost2010Prop36
280
     0
102
RTVSPost2010PropOp36
 70
     1
102
RTVSPost2010Prop37
 90
       50
102
RTVSPost2010PropOp37
 70
     1
102
RTVSPost2010Prop38
140
0.0
102
RTVSPost2010PropOp38
 70
     1
102
RTVSPost2010Prop39
140
1.0
102
RTVSPost2010PropOp39
 70
     1
102
RTVSPost2010Prop40
 90
        0
102
RTVSPost2010PropOp40
 70
     1
102
RTVSPost2010Prop41ColorIndex
 90
       18
102
RTVSPost2010Prop41ColorRGB
 90
        0
102
RTVSPost2010PropOp41
 70
     1
102
RTVSPost2010Prop42
 90
       50
102
RTVSPost2010PropOp42
 70
     1
102
RTVSPost2010Prop43
 90
        3
102
RTVSPost2010PropOp43
 70
     1
102
RTVSPost2010Prop44ColorIndex
 90
        5
102
RTVSPost2010Prop44ColorRGB
 90
      255
102
RTVSPost2010PropOp44
 70
     1
102
RTVSPost2010Prop45
280
     0
102
RTVSPost2010PropOp45
 70
     1
102
RTVSPost2010Prop46
 90
       50
102
RTVSPost2010PropOp46
 70
     1
102
RTVSPost2010Prop47
 90
       50
102
RTVSPost2010PropOp47
 70
     1
102
RTVSPost2010Prop48
 90
       50
102
RTVSPost2010PropOp48
 70
     1
102
RTVSPost2010Prop49
280
     0
102
RTVSPost2010PropOp49
 70
     1
102
RTVSPost2010Prop50
 90
       50
102
RTVSPost2010PropOp50
 70
     1
102
RTVSPost2010Prop51ColorIndex
 90
      256
102
RTVSPost2010Prop51ColorRGB
 90
-16777216
102
RTVSPost2010PropOp51
 70
     0
102
RTVSPost2010Prop52
140
1.0
102
RTVSPost2010PropOp52
 70
     0
102
RTVSPost2010Prop53
 90
        2
102
RTVSPost2010PropOp53
 70
     1
102
RTVSPost2010Prop54
  1
strokes_ogs.tif
102
RTVSPost2010PropOp54
 70
     1
102
RTVSPost2010Prop55
280
     0
102
RTVSPost2010PropOp55
 70
     1
102
RTVSPost2010Prop56
140
1.0
102
RTVSPost2010PropOp56
 70
     1
102
RTVSPost2010Prop57
140
1.0
102
RTVSPost2010PropOp57
 70
     1
  0
XRECORD
  5
268
102
{ACAD_REACTORS
330
267
102
}
330
267
100
AcDbXrecord
280
     1
102
RTVSPropertyOp0
 70
     1
102
RTVSPropertyOp1
 70
     1
102
RTVSPropertyOp2
 70
     1
102
RTVSPropertyOp3
 70
     1
102
RTVSPropertyOp4
 70
     1
102
RTVSPropertyOp5
 70
     1
102
RTVSPropertyOp6
 70
     1
102
RTVSPropertyOp7
 70
     1
102
RTVSPropertyOp8
 70
     1
102
RTVSPropertyOp9
 70
     1
102
RTVSPropertyOp10
 70
     1
102
RTVSPropertyOp11
 70
     1
102
RTVSPropertyOp12
 70
     1
102
RTVSPropertyOp13
 70
     1
102
RTVSPropertyOp14
 70
     1
102
RTVSPropertyOp15
 70
     1
102
RTVSPropertyOp16
 70
     1
102
RTVSPropertyOp17
 70
     1
102
RTVSPropertyOp18
 70
     1
102
RTVSPropertyOp19
 70
     1
102
RTVSPropertyOp20
 70
     1
102
RTVSPropertyOp21
 70
     1
102
RTVSPropertyOp22
 70
     1
102
RTVSPropertyOp23
 70
     1
102
RTVSPropertyOp24
 70
     1
102
RTVSPropertyOp25
 70
     1
102
RTVSPropertyOp26
 70
     1
102
RTVSPropertyOp27
 70
     1
102
RTVSPropertyOp28
 70
     1
102
RTVSPropertyOp29
 70
     1
102
RTVSPropertyOp30
 70
     1
102
RTVSPropertyOp31
 70
     1
102
RTVSPropertyOp32
 70
     1
102
RTVSPropertyOp33
 70
     1
102
RTVSPropertyOp34
 70
     1
102
RTVSPropertyOp35
 70
     1
102
RTVSPropertyOp36
 70
     1
102
RTVSPropertyOp37
 70
     1
102
RTVSPropertyOp38
 70
     1
102
RTVSPropertyOp39
 70
     1
102
RTVSPropertyOp40
 70
     1
102
RTVSPropertyOp41
 70
     1
102
RTVSPropertyOp42
 70
     1
102
RTVSPropertyOp43
 70
     1
102
RTVSPropertyOp44
 70
     1
102
RTVSPropertyOp45
 70
     1
102
RTVSPropertyOp46
 70
     1
102
RTVSPropertyOp47
 70
     1
102
RTVSPropertyOp48
 70
     1
102
RTVSPropertyOp49
 70
     1
102
RTVSPropertyOp50
 70
     1
102
RTVSPropertyOp51
 70
     0
102
RTVSPropertyOp52
 70
     0
102
RTVSPropertyOp53
 70
     1
102
RTVSPropertyOp54
 70
     1
102
RTVSPropertyOp55
 70
     1
102
RTVSPropertyOp56
 70
     1
102
RTVSPropertyOp57
 70
     1
102
RTVSPost2010Prop28
280
     0
102
RTVSPost2010PropOp28
 70
     1
102
RTVSPost2010Prop29
280
     1
102
RTVSPost2010PropOp29
 70
     1
102
RTVSPost2010Prop30
280
     1
102
RTVSPost2010PropOp30
 70
     1
102
RTVSPost2010Prop31
280
     0
102
RTVSPost2010PropOp31
 70
     1
102
RTVSPost2010Prop32
280
     0
102
RTVSPost2010PropOp32
 70
     1
102
RTVSPost2010Prop33
280
     0
102
RTVSPost2010PropOp33
 70
     1
102
RTVSPost2010Prop34
280
     0
102
RTVSPost2010PropOp34
 70
     1
102
RTVSPost2010Prop35
280
     0
102
RTVSPost2010PropOp35
 70
     1
102
RTVSPost2010Prop36
280
     0
102
RTVSPost2010PropOp36
 70
     1
102
RTVSPost2010Prop37
 90
       50
102
RTVSPost2010PropOp37
 70
     1
102
RTVSPost2010Prop38
140
0.0
102
RTVSPost2010PropOp38
 70
     1
102
RTVSPost2010Prop39
140
1.0
102
RTVSPost2010PropOp39
 70
     1
102
RTVSPost2010Prop40
 90
        0
102
RTVSPost2010PropOp40
 70
     1
102
RTVSPost2010Prop41ColorIndex
 90
       18
102
RTVSPost2010Prop41ColorRGB
 90
        0
102
RTVSPost2010PropOp41
 70
     1
102
RTVSPost2010Prop42
 90
       50
102
RTVSPost2010PropOp42
 70
     1
102
RTVSPost2010Prop43
 90
        3
102
RTVSPost2010PropOp43
 70
     1
102
RTVSPost2010Prop44ColorIndex
 90
        5
102
RTVSPost2010Prop44ColorRGB
 90
      255
102
RTVSPost2010PropOp44
 70
     1
102
RTVSPost2010Prop45
280
     0
102
RTVSPost2010PropOp45
 70
     1
102
RTVSPost2010Prop46
 90
       50
102
RTVSPost2010PropOp46
 70
     1
102
RTVSPost2010Prop47
 90
       50
102
RTVSPost2010PropOp47
 70
     1
102
RTVSPost2010Prop48
 90
       50
102
RTVSPost2010PropOp48
 70
     1
102
RTVSPost2010Prop49
280
     0
102
RTVSPost2010PropOp49
 70
     1
102
RTVSPost2010Prop50
 90
       50
102
RTVSPost2010PropOp50
 70
     1
102
RTVSPost2010Prop51ColorIndex
 90
      256
102
RTVSPost2010Prop51ColorRGB
 90
-16777216
102
RTVSPost2010PropOp51
 70
     0
102
RTVSPost2010Prop52
140
1.0
102
RTVSPost2010PropOp52
 70
     0
102
RTVSPost2010Prop53
 90
        2
102
RTVSPost2010PropOp53
 70
     1
102
RTVSPost2010Prop54
  1
strokes_ogs.tif
102
RTVSPost2010PropOp54
 70
     1
102
RTVSPost2010Prop55
280
     0
102
RTVSPost2010PropOp55
 70
     1
102
RTVSPost2010Prop56
140
1.0
102
RTVSPost2010PropOp56
 70
     1
102
RTVSPost2010Prop57
140
1.0
102
RTVSPost2010PropOp57
 70
     1
  0
XRECORD
  5
258
102
{ACAD_REACTORS
330
257
102
}
330
257
100
AcDbXrecord
280
     1
102
RTVSPropertyOp0
 70
     1
102
RTVSPropertyOp1
 70
     1
102
RTVSPropertyOp2
 70
     1
102
RTVSPropertyOp3
 70
     1
102
RTVSPropertyOp4
 70
     1
102
RTVSPropertyOp5
 70
     1
102
RTVSPropertyOp6
 70
     1
102
RTVSPropertyOp7
 70
     1
102
RTVSPropertyOp8
 70
     1
102
RTVSPropertyOp9
 70
     1
102
RTVSPropertyOp10
 70
     1
102
RTVSPropertyOp11
 70
     1
102
RTVSPropertyOp12
 70
     1
102
RTVSPropertyOp13
 70
     1
102
RTVSPropertyOp14
 70
     1
102
RTVSPropertyOp15
 70
     1
102
RTVSPropertyOp16
 70
     1
102
RTVSPropertyOp17
 70
     1
102
RTVSPropertyOp18
 70
     1
102
RTVSPropertyOp19
 70
     1
102
RTVSPropertyOp20
 70
     1
102
RTVSPropertyOp21
 70
     1
102
RTVSPropertyOp22
 70
     1
102
RTVSPropertyOp23
 70
     1
102
RTVSPropertyOp24
 70
     1
102
RTVSPropertyOp25
 70
     1
102
RTVSPropertyOp26
 70
     1
102
RTVSPropertyOp27
 70
     1
102
RTVSPropertyOp28
 70
     1
102
RTVSPropertyOp29
 70
     1
102
RTVSPropertyOp30
 70
     1
102
RTVSPropertyOp31
 70
     1
102
RTVSPropertyOp32
 70
     1
102
RTVSPropertyOp33
 70
     1
102
RTVSPropertyOp34
 70
     1
102
RTVSPropertyOp35
 70
     1
102
RTVSPropertyOp36
 70
     1
102
RTVSPropertyOp37
 70
     1
102
RTVSPropertyOp38
 70
     1
102
RTVSPropertyOp39
 70
     1
102
RTVSPropertyOp40
 70
     1
102
RTVSPropertyOp41
 70
     1
102
RTVSPropertyOp42
 70
     1
102
RTVSPropertyOp43
 70
     1
102
RTVSPropertyOp44
 70
     1
102
RTVSPropertyOp45
 70
     1
102
RTVSPropertyOp46
 70
     1
102
RTVSPropertyOp47
 70
     1
102
RTVSPropertyOp48
 70
     1
102
RTVSPropertyOp49
 70
     1
102
RTVSPropertyOp50
 70
     1
102
RTVSPropertyOp51
 70
     0
102
RTVSPropertyOp52
 70
     0
102
RTVSPropertyOp53
 70
     1
102
RTVSPropertyOp54
 70
     1
102
RTVSPropertyOp55
 70
     1
102
RTVSPropertyOp56
 70
     1
102
RTVSPropertyOp57
 70
     1
102
RTVSPost2010Prop28
280
     0
102
RTVSPost2010PropOp28
 70
     1
102
RTVSPost2010Prop29
280
     1
102
RTVSPost2010PropOp29
 70
     1
102
RTVSPost2010Prop30
280
     1
102
RTVSPost2010PropOp30
 70
     1
102
RTVSPost2010Prop31
280
     0
102
RTVSPost2010PropOp31
 70
     1
102
RTVSPost2010Prop32
280
     0
102
RTVSPost2010PropOp32
 70
     1
102
RTVSPost2010Prop33
280
     0
102
RTVSPost2010PropOp33
 70
     1
102
RTVSPost2010Prop34
280
     0
102
RTVSPost2010PropOp34
 70
     1
102
RTVSPost2010Prop35
280
     0
102
RTVSPost2010PropOp35
 70
     1
102
RTVSPost2010Prop36
280
     0
102
RTVSPost2010PropOp36
 70
     1
102
RTVSPost2010Prop37
 90
       50
102
RTVSPost2010PropOp37
 70
     1
102
RTVSPost2010Prop38
140
0.0
102
RTVSPost2010PropOp38
 70
     1
102
RTVSPost2010Prop39
140
1.0
102
RTVSPost2010PropOp39
 70
     1
102
RTVSPost2010Prop40
 90
        0
102
RTVSPost2010PropOp40
 70
     1
102
RTVSPost2010Prop41ColorIndex
 90
       18
102
RTVSPost2010Prop41ColorRGB
 90
        0
102
RTVSPost2010PropOp41
 70
     1
102
RTVSPost2010Prop42
 90
       50
102
RTVSPost2010PropOp42
 70
     1
102
RTVSPost2010Prop43
 90
        3
102
RTVSPost2010PropOp43
 70
     1
102
RTVSPost2010Prop44ColorIndex
 90
        5
102
RTVSPost2010Prop44ColorRGB
 90
      255
102
RTVSPost2010PropOp44
 70
     1
102
RTVSPost2010Prop45
280
     0
102
RTVSPost2010PropOp45
 70
     1
102
RTVSPost2010Prop46
 90
       50
102
RTVSPost2010PropOp46
 70
     1
102
RTVSPost2010Prop47
 90
       50
102
RTVSPost2010PropOp47
 70
     1
102
RTVSPost2010Prop48
 90
       50
102
RTVSPost2010PropOp48
 70
     1
102
RTVSPost2010Prop49
280
     0
102
RTVSPost2010PropOp49
 70
     1
102
RTVSPost2010Prop50
 90
       50
102
RTVSPost2010PropOp50
 70
     1
102
RTVSPost2010Prop51ColorIndex
 90
      256
102
RTVSPost2010Prop51ColorRGB
 90
-16777216
102
RTVSPost2010PropOp51
 70
     0
102
RTVSPost2010Prop52
140
1.0
102
RTVSPost2010PropOp52
 70
     0
102
RTVSPost2010Prop53
 90
        2
102
RTVSPost2010PropOp53
 70
     1
102
RTVSPost2010Prop54
  1
strokes_ogs.tif
102
RTVSPost2010PropOp54
 70
     1
102
RTVSPost2010Prop55
280
     0
102
RTVSPost2010PropOp55
 70
     1
102
RTVSPost2010Prop56
140
1.0
102
RTVSPost2010PropOp56
 70
     1
102
RTVSPost2010Prop57
140
1.0
102
RTVSPost2010PropOp57
 70
     1
  0
XRECORD
  5
24A
102
{ACAD_REACTORS
330
249
102
}
330
249
100
AcDbXrecord
280
     1
102
RTVSPropertyOp0
 70
     1
102
RTVSPropertyOp1
 70
     1
102
RTVSPropertyOp2
 70
     1
102
RTVSPropertyOp3
 70
     1
102
RTVSPropertyOp4
 70
     1
102
RTVSPropertyOp5
 70
     1
102
RTVSPropertyOp6
 70
     1
102
RTVSPropertyOp7
 70
     1
102
RTVSPropertyOp8
 70
     1
102
RTVSPropertyOp9
 70
     1
102
RTVSPropertyOp10
 70
     1
102
RTVSPropertyOp11
 70
     1
102
RTVSPropertyOp12
 70
     1
102
RTVSPropertyOp13
 70
     1
102
RTVSPropertyOp14
 70
     1
102
RTVSPropertyOp15
 70
     1
102
RTVSPropertyOp16
 70
     1
102
RTVSPropertyOp17
 70
     1
102
RTVSPropertyOp18
 70
     1
102
RTVSPropertyOp19
 70
     1
102
RTVSPropertyOp20
 70
     1
102
RTVSPropertyOp21
 70
     1
102
RTVSPropertyOp22
 70
     1
102
RTVSPropertyOp23
 70
     1
102
RTVSPropertyOp24
 70
     1
102
RTVSPropertyOp25
 70
     1
102
RTVSPropertyOp26
 70
     1
102
RTVSPropertyOp27
 70
     1
102
RTVSPropertyOp28
 70
     1
102
RTVSPropertyOp29
 70
     1
102
RTVSPropertyOp30
 70
     1
102
RTVSPropertyOp31
 70
     1
102
RTVSPropertyOp32
 70
     1
102
RTVSPropertyOp33
 70
     1
102
RTVSPropertyOp34
 70
     1
102
RTVSPropertyOp35
 70
     1
102
RTVSPropertyOp36
 70
     1
102
RTVSPropertyOp37
 70
     1
102
RTVSPropertyOp38
 70
     1
102
RTVSPropertyOp39
 70
     1
102
RTVSPropertyOp40
 70
     1
102
RTVSPropertyOp41
 70
     1
102
RTVSPropertyOp42
 70
     1
102
RTVSPropertyOp43
 70
     1
102
RTVSPropertyOp44
 70
     1
102
RTVSPropertyOp45
 70
     1
102
RTVSPropertyOp46
 70
     1
102
RTVSPropertyOp47
 70
     1
102
RTVSPropertyOp48
 70
     1
102
RTVSPropertyOp49
 70
     1
102
RTVSPropertyOp50
 70
     1
102
RTVSPropertyOp51
 70
     0
102
RTVSPropertyOp52
 70
     0
102
RTVSPropertyOp53
 70
     1
102
RTVSPropertyOp54
 70
     1
102
RTVSPropertyOp55
 70
     1
102
RTVSPropertyOp56
 70
     1
102
RTVSPropertyOp57
 70
     1
102
RTVSPost2010Prop28
280
     0
102
RTVSPost2010PropOp28
 70
     1
102
RTVSPost2010Prop29
280
     1
102
RTVSPost2010PropOp29
 70
     1
102
RTVSPost2010Prop30
280
     1
102
RTVSPost2010PropOp30
 70
     1
102
RTVSPost2010Prop31
280
     0
102
RTVSPost2010PropOp31
 70
     1
102
RTVSPost2010Prop32
280
     0
102
RTVSPost2010PropOp32
 70
     1
102
RTVSPost2010Prop33
280
     0
102
RTVSPost2010PropOp33
 70
     1
102
RTVSPost2010Prop34
280
     0
102
RTVSPost2010PropOp34
 70
     1
102
RTVSPost2010Prop35
280
     0
102
RTVSPost2010PropOp35
 70
     1
102
RTVSPost2010Prop36
280
     0
102
RTVSPost2010PropOp36
 70
     1
102
RTVSPost2010Prop37
 90
       50
102
RTVSPost2010PropOp37
 70
     1
102
RTVSPost2010Prop38
140
0.0
102
RTVSPost2010PropOp38
 70
     1
102
RTVSPost2010Prop39
140
1.0
102
RTVSPost2010PropOp39
 70
     1
102
RTVSPost2010Prop40
 90
        0
102
RTVSPost2010PropOp40
 70
     1
102
RTVSPost2010Prop41ColorIndex
 90
       18
102
RTVSPost2010Prop41ColorRGB
 90
        0
102
RTVSPost2010PropOp41
 70
     1
102
RTVSPost2010Prop42
 90
       50
102
RTVSPost2010PropOp42
 70
     1
102
RTVSPost2010Prop43
 90
        3
102
RTVSPost2010PropOp43
 70
     1
102
RTVSPost2010Prop44ColorIndex
 90
        5
102
RTVSPost2010Prop44ColorRGB
 90
      255
102
RTVSPost2010PropOp44
 70
     1
102
RTVSPost2010Prop45
280
     0
102
RTVSPost2010PropOp45
 70
     1
102
RTVSPost2010Prop46
 90
       50
102
RTVSPost2010PropOp46
 70
     1
102
RTVSPost2010Prop47
 90
       50
102
RTVSPost2010PropOp47
 70
     1
102
RTVSPost2010Prop48
 90
       50
102
RTVSPost2010PropOp48
 70
     1
102
RTVSPost2010Prop49
280
     0
102
RTVSPost2010PropOp49
 70
     1
102
RTVSPost2010Prop50
 90
       50
102
RTVSPost2010PropOp50
 70
     1
102
RTVSPost2010Prop51ColorIndex
 90
      256
102
RTVSPost2010Prop51ColorRGB
 90
-16777216
102
RTVSPost2010PropOp51
 70
     0
102
RTVSPost2010Prop52
140
1.0
102
RTVSPost2010PropOp52
 70
     0
102
RTVSPost2010Prop53
 90
        2
102
RTVSPost2010PropOp53
 70
     1
102
RTVSPost2010Prop54
  1
strokes_ogs.tif
102
RTVSPost2010PropOp54
 70
     1
102
RTVSPost2010Prop55
280
     0
102
RTVSPost2010PropOp55
 70
     1
102
RTVSPost2010Prop56
140
1.0
102
RTVSPost2010PropOp56
 70
     1
102
RTVSPost2010Prop57
140
1.0
102
RTVSPost2010PropOp57
 70
     1
  0
XRECORD
  5
26A
102
{ACAD_REACTORS
330
269
102
}
330
269
100
AcDbXrecord
280
     1
102
RTVSPropertyOp0
 70
     1
102
RTVSPropertyOp1
 70
     1
102
RTVSPropertyOp2
 70
     1
102
RTVSPropertyOp3
 70
     1
102
RTVSPropertyOp4
 70
     1
102
RTVSPropertyOp5
 70
     1
102
RTVSPropertyOp6
 70
     1
102
RTVSPropertyOp7
 70
     1
102
RTVSPropertyOp8
 70
     1
102
RTVSPropertyOp9
 70
     1
102
RTVSPropertyOp10
 70
     1
102
RTVSPropertyOp11
 70
     1
102
RTVSPropertyOp12
 70
     1
102
RTVSPropertyOp13
 70
     1
102
RTVSPropertyOp14
 70
     1
102
RTVSPropertyOp15
 70
     1
102
RTVSPropertyOp16
 70
     1
102
RTVSPropertyOp17
 70
     1
102
RTVSPropertyOp18
 70
     1
102
RTVSPropertyOp19
 70
     1
102
RTVSPropertyOp20
 70
     1
102
RTVSPropertyOp21
 70
     1
102
RTVSPropertyOp22
 70
     1
102
RTVSPropertyOp23
 70
     1
102
RTVSPropertyOp24
 70
     1
102
RTVSPropertyOp25
 70
     1
102
RTVSPropertyOp26
 70
     1
102
RTVSPropertyOp27
 70
     1
102
RTVSPropertyOp28
 70
     1
102
RTVSPropertyOp29
 70
     1
102
RTVSPropertyOp30
 70
     1
102
RTVSPropertyOp31
 70
     1
102
RTVSPropertyOp32
 70
     1
102
RTVSPropertyOp33
 70
     1
102
RTVSPropertyOp34
 70
     1
102
RTVSPropertyOp35
 70
     1
102
RTVSPropertyOp36
 70
     1
102
RTVSPropertyOp37
 70
     1
102
RTVSPropertyOp38
 70
     1
102
RTVSPropertyOp39
 70
     1
102
RTVSPropertyOp40
 70
     1
102
RTVSPropertyOp41
 70
     1
102
RTVSPropertyOp42
 70
     1
102
RTVSPropertyOp43
 70
     1
102
RTVSPropertyOp44
 70
     1
102
RTVSPropertyOp45
 70
     1
102
RTVSPropertyOp46
 70
     1
102
RTVSPropertyOp47
 70
     1
102
RTVSPropertyOp48
 70
     1
102
RTVSPropertyOp49
 70
     1
102
RTVSPropertyOp50
 70
     1
102
RTVSPropertyOp51
 70
     0
102
RTVSPropertyOp52
 70
     0
102
RTVSPropertyOp53
 70
     1
102
RTVSPropertyOp54
 70
     1
102
RTVSPropertyOp55
 70
     1
102
RTVSPropertyOp56
 70
     1
102
RTVSPropertyOp57
 70
     1
102
RTVSPost2010Prop28
280
     0
102
RTVSPost2010PropOp28
 70
     1
102
RTVSPost2010Prop29
280
     1
102
RTVSPost2010PropOp29
 70
     1
102
RTVSPost2010Prop30
280
     1
102
RTVSPost2010PropOp30
 70
     1
102
RTVSPost2010Prop31
280
     0
102
RTVSPost2010PropOp31
 70
     1
102
RTVSPost2010Prop32
280
     0
102
RTVSPost2010PropOp32
 70
     1
102
RTVSPost2010Prop33
280
     0
102
RTVSPost2010PropOp33
 70
     1
102
RTVSPost2010Prop34
280
     0
102
RTVSPost2010PropOp34
 70
     1
102
RTVSPost2010Prop35
280
     0
102
RTVSPost2010PropOp35
 70
     1
102
RTVSPost2010Prop36
280
     0
102
RTVSPost2010PropOp36
 70
     1
102
RTVSPost2010Prop37
 90
       50
102
RTVSPost2010PropOp37
 70
     1
102
RTVSPost2010Prop38
140
0.0
102
RTVSPost2010PropOp38
 70
     1
102
RTVSPost2010Prop39
140
1.0
102
RTVSPost2010PropOp39
 70
     1
102
RTVSPost2010Prop40
 90
        0
102
RTVSPost2010PropOp40
 70
     1
102
RTVSPost2010Prop41ColorIndex
 90
       18
102
RTVSPost2010Prop41ColorRGB
 90
        0
102
RTVSPost2010PropOp41
 70
     1
102
RTVSPost2010Prop42
 90
       50
102
RTVSPost2010PropOp42
 70
     1
102
RTVSPost2010Prop43
 90
        3
102
RTVSPost2010PropOp43
 70
     1
102
RTVSPost2010Prop44ColorIndex
 90
        5
102
RTVSPost2010Prop44ColorRGB
 90
      255
102
RTVSPost2010PropOp44
 70
     1
102
RTVSPost2010Prop45
280
     0
102
RTVSPost2010PropOp45
 70
     1
102
RTVSPost2010Prop46
 90
       50
102
RTVSPost2010PropOp46
 70
     1
102
RTVSPost2010Prop47
 90
       50
102
RTVSPost2010PropOp47
 70
     1
102
RTVSPost2010Prop48
 90
       50
102
RTVSPost2010PropOp48
 70
     1
102
RTVSPost2010Prop49
280
     0
102
RTVSPost2010PropOp49
 70
     1
102
RTVSPost2010Prop50
 90
       50
102
RTVSPost2010PropOp50
 70
     1
102
RTVSPost2010Prop51ColorIndex
 90
      256
102
RTVSPost2010Prop51ColorRGB
 90
-16777216
102
RTVSPost2010PropOp51
 70
     0
102
RTVSPost2010Prop52
140
1.0
102
RTVSPost2010PropOp52
 70
     0
102
RTVSPost2010Prop53
 90
        2
102
RTVSPost2010PropOp53
 70
     1
102
RTVSPost2010Prop54
  1
strokes_ogs.tif
102
RTVSPost2010PropOp54
 70
     1
102
RTVSPost2010Prop55
280
     0
102
RTVSPost2010PropOp55
 70
     1
102
RTVSPost2010Prop56
140
1.0
102
RTVSPost2010PropOp56
 70
     1
102
RTVSPost2010Prop57
140
1.0
102
RTVSPost2010PropOp57
 70
     1
  0
ENDSEC
  0
EOF
