  0
SECTION
  2
HEADER
  9
$ACADVER
  1
AC1018
  9
$ACADMAINTVER
 70
     0
  9
$DWGCODEPAGE
  3
ANSI_1252
  9
$INSBASE
 10
0.0
 20
0.0
 30
0.0
  9
$EXTMIN
 10
-10.75800019138978
 20
-0.0000000000000007
 30
0.0
  9
$EXTMAX
 10
41.68124859850179
 20
68.16189629587134
 30
0.0
  9
$LIMMIN
 10
0.0
 20
0.0
  9
$LIMMAX
 10
12.0
 20
9.0
  9
$ORTHOMODE
 70
     0
  9
$REGENMODE
 70
     1
  9
$FILLMODE
 70
     1
  9
$QTEXTMODE
 70
     0
  9
$MIRRTEXT
 70
     1
  9
$LTSCALE
 40
0.0393700787401575
  9
$ATTMODE
 70
     1
  9
$TEXTSIZE
 40
0.2
  9
$TRACEWID
 40
0.05
  9
$TEXTSTYLE
  7
Standard
  9
$CLAYER
  8
Default
  9
$CELTYPE
  6
ByLayer
  9
$CECOLOR
 62
   256
  9
$CELTSCALE
 40
1.0
  9
$DISPSILH
 70
     0
  9
$DIMSCALE
 40
1.0
  9
$DIMASZ
 40
0.18
  9
$DIMEXO
 40
0.0625
  9
$DIMDLI
 40
0.38
  9
$DIMRND
 40
0.0
  9
$DIMDLE
 40
0.0
  9
$DIMEXE
 40
0.18
  9
$DIMTP
 40
0.0
  9
$DIMTM
 40
0.0
  9
$DIMTXT
 40
0.18
  9
$DIMCEN
 40
0.09
  9
$DIMTSZ
 40
0.0
  9
$DIMTOL
 70
     0
  9
$DIMLIM
 70
     0
  9
$DIMTIH
 70
     1
  9
$DIMTOH
 70
     1
  9
$DIMSE1
 70
     0
  9
$DIMSE2
 70
     0
  9
$DIMTAD
 70
     0
  9
$DIMZIN
 70
     0
  9
$DIMBLK
  1

  9
$DIMASO
 70
     1
  9
$DIMSHO
 70
     1
  9
$DIMPOST
  1

  9
$DIMAPOST
  1

  9
$DIMALT
 70
     0
  9
$DIMALTD
 70
     2
  9
$DIMALTF
 40
25.4
  9
$DIMLFAC
 40
1.0
  9
$DIMTOFL
 70
     0
  9
$DIMTVP
 40
0.0
  9
$DIMTIX
 70
     0
  9
$DIMSOXD
 70
     0
  9
$DIMSAH
 70
     0
  9
$DIMBLK1
  1

  9
$DIMBLK2
  1

  9
$DIMSTYLE
  2
Standard
  9
$DIMCLRD
 70
     0
  9
$DIMCLRE
 70
     0
  9
$DIMCLRT
 70
     0
  9
$DIMTFAC
 40
1.0
  9
$DIMGAP
 40
0.09
  9
$DIMJUST
 70
     0
  9
$DIMSD1
 70
     0
  9
$DIMSD2
 70
     0
  9
$DIMTOLJ
 70
     1
  9
$DIMTZIN
 70
     0
  9
$DIMALTZ
 70
     0
  9
$DIMALTTZ
 70
     0
  9
$DIMUPT
 70
     0
  9
$DIMDEC
 70
     4
  9
$DIMTDEC
 70
     4
  9
$DIMALTU
 70
     2
  9
$DIMALTTD
 70
     2
  9
$DIMTXSTY
  7
Standard
  9
$DIMAUNIT
 70
     0
  9
$DIMADEC
 70
     0
  9
$DIMALTRND
 40
0.0
  9
$DIMAZIN
 70
     0
  9
$DIMDSEP
 70
    46
  9
$DIMATFIT
 70
     3
  9
$DIMFRAC
 70
     0
  9
$DIMLDRBLK
  1

  9
$DIMLUNIT
 70
     2
  9
$DIMLWD
 70
    -2
  9
$DIMLWE
 70
    -2
  9
$DIMTMOVE
 70
     2
  9
$LUNITS
 70
     2
  9
$LUPREC
 70
     3
  9
$SKETCHINC
 40
0.1
  9
$FILLETRAD
 40
0.5
  9
$AUNITS
 70
     0
  9
$AUPREC
 70
     0
  9
$MENU
  1
.
  9
$ELEVATION
 40
0.0
  9
$PELEVATION
 40
0.0
  9
$THICKNESS
 40
0.0
  9
$LIMCHECK
 70
     0
  9
$CHAMFERA
 40
0.5
  9
$CHAMFERB
 40
0.5
  9
$CHAMFERC
 40
1.0
  9
$CHAMFERD
 40
0.0
  9
$SKPOLY
 70
     0
  9
$TDCREATE
 40
2457060.674462569
  9
$TDUCREATE
 40
2457060.882795903
  9
$TDUPDATE
 40
2457060.674462581
  9
$TDUUPDATE
 40
2457060.882795915
  9
$TDINDWG
 40
0.0000000116
  9
$TDUSRTIMER
 40
0.0000000116
  9
$USRTIMER
 70
     1
  9
$ANGBASE
 50
0.0
  9
$ANGDIR
 70
     0
  9
$PDMODE
 70
     0
  9
$PDSIZE
 40
0.0
  9
$PLINEWID
 40
0.0
  9
$SPLFRAME
 70
     0
  9
$SPLINETYPE
 70
     6
  9
$SPLINESEGS
 70
     8
  9
$HANDSEED
  5
4B8
  9
$SURFTAB1
 70
     6
  9
$SURFTAB2
 70
     6
  9
$SURFTYPE
 70
     6
  9
$SURFU
 70
     6
  9
$SURFV
 70
     6
  9
$UCSBASE
  2

  9
$UCSNAME
  2

  9
$UCSORG
 10
0.0
 20
0.0
 30
0.0
  9
$UCSXDIR
 10
1.0
 20
0.0
 30
0.0
  9
$UCSYDIR
 10
0.0
 20
1.0
 30
0.0
  9
$UCSORTHOREF
  2

  9
$UCSORTHOVIEW
 70
     0
  9
$UCSORGTOP
 10
0.0
 20
0.0
 30
0.0
  9
$UCSORGBOTTOM
 10
0.0
 20
0.0
 30
0.0
  9
$UCSORGLEFT
 10
0.0
 20
0.0
 30
0.0
  9
$UCSORGRIGHT
 10
0.0
 20
0.0
 30
0.0
  9
$UCSORGFRONT
 10
0.0
 20
0.0
 30
0.0
  9
$UCSORGBACK
 10
0.0
 20
0.0
 30
0.0
  9
$PUCSBASE
  2

  9
$PUCSNAME
  2

  9
$PUCSORG
 10
0.0
 20
0.0
 30
0.0
  9
$PUCSXDIR
 10
1.0
 20
0.0
 30
0.0
  9
$PUCSYDIR
 10
0.0
 20
1.0
 30
0.0
  9
$PUCSORTHOREF
  2

  9
$PUCSORTHOVIEW
 70
     0
  9
$PUCSORGTOP
 10
0.0
 20
0.0
 30
0.0
  9
$PUCSORGBOTTOM
 10
0.0
 20
0.0
 30
0.0
  9
$PUCSORGLEFT
 10
0.0
 20
0.0
 30
0.0
  9
$PUCSORGRIGHT
 10
0.0
 20
0.0
 30
0.0
  9
$PUCSORGFRONT
 10
0.0
 20
0.0
 30
0.0
  9
$PUCSORGBACK
 10
0.0
 20
0.0
 30
0.0
  9
$USERI1
 70
     0
  9
$USERI2
 70
     0
  9
$USERI3
 70
     0
  9
$USERI4
 70
     0
  9
$USERI5
 70
     0
  9
$USERR1
 40
0.0
  9
$USERR2
 40
0.0
  9
$USERR3
 40
0.0
  9
$USERR4
 40
0.0
  9
$USERR5
 40
0.0
  9
$WORLDVIEW
 70
     1
  9
$SHADEDGE
 70
     3
  9
$SHADEDIF
 70
    70
  9
$TILEMODE
 70
     1
  9
$MAXACTVP
 70
    64
  9
$PINSBASE
 10
0.0
 20
0.0
 30
0.0
  9
$PLIMCHECK
 70
     0
  9
$PEXTMIN
 10
1.000000000000000E+20
 20
1.000000000000000E+20
 30
1.000000000000000E+20
  9
$PEXTMAX
 10
-1.000000000000000E+20
 20
-1.000000000000000E+20
 30
-1.000000000000000E+20
  9
$PLIMMIN
 10
0.0
 20
0.0
  9
$PLIMMAX
 10
12.0
 20
9.0
  9
$UNITMODE
 70
     0
  9
$VISRETAIN
 70
     1
  9
$PLINEGEN
 70
     0
  9
$PSLTSCALE
 70
     1
  9
$TREEDEPTH
 70
  3020
  9
$CMLSTYLE
  2
Standard
  9
$CMLJUST
 70
     0
  9
$CMLSCALE
 40
1.0
  9
$PROXYGRAPHICS
 70
     1
  9
$MEASUREMENT
 70
     0
  9
$CELWEIGHT
370
    -1
  9
$ENDCAPS
280
     0
  9
$JOINSTYLE
280
     0
  9
$LWDISPLAY
290
     0
  9
$INSUNITS
 70
     1
  9
$HYPERLINKBASE
  1

  9
$STYLESHEET
  1

  9
$XEDIT
290
     1
  9
$CEPSNTYPE
380
     0
  9
$PSTYLEMODE
290
     1
  9
$FINGERPRINTGUID
  2
{87B59345-7DAD-413D-9F82-10813A6E1AB0}
  9
$VERSIONGUID
  2
{FAEB1C32-E019-11D5-929B-00C0DF256EC4}
  9
$EXTNAMES
290
     1
  9
$PSVPSCALE
 40
0.0
  9
$OLESTARTUP
290
     0
  9
$SORTENTS
280
   127
  9
$INDEXCTL
280
     0
  9
$HIDETEXT
280
     1
  9
$XCLIPFRAME
290
     0
  9
$HALOGAP
280
     0
  9
$OBSCOLOR
 70
   257
  9
$OBSLTYPE
280
     0
  9
$INTERSECTIONDISPLAY
280
     0
  9
$INTERSECTIONCOLOR
 70
   257
  9
$DIMASSOC
280
     2
  9
$PROJECTNAME
  1

  0
ENDSEC
  0
SECTION
  2
CLASSES
  0
CLASS
  1
ACDBDICTIONARYWDFLT
  2
AcDbDictionaryWithDefault
  3
ObjectDBX Classes
 90
        0
 91
        4
280
     0
281
     0
  0
CLASS
  1
VISUALSTYLE
  2
AcDbVisualStyle
  3
ObjectDBX Classes
 90
     4095
 91
        4
280
     0
281
     0
  0
ENDSEC
  0
SECTION
  2
TABLES
  0
TABLE
  2
VPORT
  5
8
330
0
100
AcDbSymbolTable
 70
     1
  0
VPORT
  5
29
330
8
100
AcDbSymbolTableRecord
100
AcDbViewportTableRecord
  2
*Active
 70
     0
 10
0.0
 20
0.0
 11
1.0
 21
1.0
 12
15.46162420355601
 22
34.08094814793567
 13
0.0
 23
0.0
 14
0.5
 24
0.5
 15
0.5
 25
0.5
 16
0.0
 26
0.0
 36
1.0
 17
0.0
 27
0.0
 37
0.0
 40
69.52513422178878
 41
0.7693337720867938
 42
50.0
 43
0.0
 44
0.0
 50
0.0
 51
0.0
 71
     0
 72
   100
 73
     1
 74
     3
 75
     0
 76
     0
 77
     0
 78
     0
281
     0
 65
     1
110
0.0
120
0.0
130
0.0
111
1.0
121
0.0
131
0.0
112
0.0
122
1.0
132
0.0
 79
     0
146
0.0
  0
ENDTAB
  0
TABLE
  2
LTYPE
  5
5
330
0
100
AcDbSymbolTable
 70
     1
  0
LTYPE
  5
14
330
5
100
AcDbSymbolTableRecord
100
AcDbLinetypeTableRecord
  2
ByBlock
 70
     0
  3

 72
    65
 73
     0
 40
0.0
  0
LTYPE
  5
15
330
5
100
AcDbSymbolTableRecord
100
AcDbLinetypeTableRecord
  2
ByLayer
 70
     0
  3

 72
    65
 73
     0
 40
0.0
  0
LTYPE
  5
16
330
5
100
AcDbSymbolTableRecord
100
AcDbLinetypeTableRecord
  2
Continuous
 70
     0
  3
Solid line
 72
    65
 73
     0
 40
0.0
  0
ENDTAB
  0
TABLE
  2
LAYER
  5
2
330
0
100
AcDbSymbolTable
 70
     2
  0
LAYER
  5
10
330
2
100
AcDbSymbolTableRecord
100
AcDbLayerTableRecord
  2
0
 70
     0
 62
     7
  6
Continuous
370
    -3
390
F
  0
LAYER
  5
3B
330
2
100
AcDbSymbolTableRecord
100
AcDbLayerTableRecord
  2
Default
 70
     0
 62
     7
  6
Continuous
370
    -3
390
F
  0
ENDTAB
  0
TABLE
  2
STYLE
  5
3
330
0
100
AcDbSymbolTable
 70
     1
  0
STYLE
  5
11
330
3
100
AcDbSymbolTableRecord
100
AcDbTextStyleTableRecord
  2
Standard
 70
     0
 40
0.0
 41
1.0
 50
0.0
 71
     0
 42
0.2
  3
txt
  4

  0
ENDTAB
  0
TABLE
  2
VIEW
  5
6
330
0
100
AcDbSymbolTable
 70
     0
  0
ENDTAB
  0
TABLE
  2
UCS
  5
7
330
0
100
AcDbSymbolTable
 70
     0
  0
ENDTAB
  0
TABLE
  2
APPID
  5
9
330
0
100
AcDbSymbolTable
 70
     1
  0
APPID
  5
12
330
9
100
AcDbSymbolTableRecord
100
AcDbRegAppTableRecord
  2
ACAD
 70
     0
  0
ENDTAB
  0
TABLE
  2
DIMSTYLE
  5
A
330
0
100
AcDbSymbolTable
 70
     1
100
AcDbDimStyleTable
  0
DIMSTYLE
105
27
330
A
100
AcDbSymbolTableRecord
100
AcDbDimStyleTableRecord
  2
Standard
 70
     0
340
11
  0
ENDTAB
  0
TABLE
  2
BLOCK_RECORD
  5
1
330
0
100
AcDbSymbolTable
 70
     1
  0
BLOCK_RECORD
  5
1F
330
1
100
AcDbSymbolTableRecord
100
AcDbBlockTableRecord
  2
*Model_Space
340
22
  0
BLOCK_RECORD
  5
1B
330
1
100
AcDbSymbolTableRecord
100
AcDbBlockTableRecord
  2
*Paper_Space
340
1E
  0
BLOCK_RECORD
  5
23
330
1
100
AcDbSymbolTableRecord
100
AcDbBlockTableRecord
  2
*Paper_Space0
340
26
  0
ENDTAB
  0
ENDSEC
  0
SECTION
  2
BLOCKS
  0
BLOCK
  5
20
330
1F
100
AcDbEntity
  8
0
100
AcDbBlockBegin
  2
*Model_Space
 70
     0
 10
0.0
 20
0.0
 30
0.0
  3
*Model_Space
  1

  0
ENDBLK
  5
21
330
1F
100
AcDbEntity
  8
0
100
AcDbBlockEnd
  0
BLOCK
  5
1C
330
1B
100
AcDbEntity
 67
     1
  8
0
100
AcDbBlockBegin
  2
*Paper_Space
 70
     0
 10
0.0
 20
0.0
 30
0.0
  3
*Paper_Space
  1

  0
ENDBLK
  5
1D
330
1B
100
AcDbEntity
 67
     1
  8
0
100
AcDbBlockEnd
  0
BLOCK
  5
24
330
23
100
AcDbEntity
  8
0
100
AcDbBlockBegin
  2
*Paper_Space0
 70
     0
 10
0.0
 20
0.0
 30
0.0
  3
*Paper_Space0
  1

  0
ENDBLK
  5
25
330
23
100
AcDbEntity
  8
0
100
AcDbBlockEnd
  0
ENDSEC
  0
SECTION
  2
ENTITIES
  0
LINE
  5
3C
330
1F
100
AcDbEntity
  8
Default
  6
Continuous
100
AcDbLine
 10
41.64266887120178
 20
1.653092895404586
 30
0.0
 11
38.09048464320179
 21
23.36448114720459
 31
0.0
  0
ARC
  5
3D
330
1F
100
AcDbEntity
  8
Default
  6
Continuous
100
AcDbCircle
 10
29.69714882760686
 20
21.99125366130248
 30
0.0
 40
8.504930325486834
100
AcDbArc
 50
9.291796327673966
 51
13.12082233448688
  0
ARC
  5
3E
330
1F
100
AcDbEntity
  8
Default
  6
Continuous
100
AcDbCircle
 10
28.71879172541387
 20
21.83118537690011
 30
0.0
 40
9.058795280971294
100
AcDbArc
 50
9.291796327973223
 51
13.37207022595454
  0
LINE
  5
3F
330
1F
100
AcDbEntity
  8
Default
  6
Continuous
100
AcDbLine
 10
37.65872514850179
 20
23.29384129450458
 30
0.0
 11
41.21090937660179
 21
1.582453042804586
 31
0.0
  0
ARC
  5
40
330
1F
100
AcDbEntity
  8
Default
  6
Continuous
100
AcDbCircle
 10
26.25558249386329
 20
24.97293221910894
 30
0.0
 40
0.4918131165222543
100
AcDbArc
 50
25.93843590994271
 51
48.62953034342421
  0
LINE
  5
41
330
1F
100
AcDbEntity
  8
Default
  6
Continuous
100
AcDbLine
 10
26.58063416100179
 20
25.34201426320459
 30
0.0
 11
26.53433795440179
 21
25.38278747170459
 31
0.0
  0
POLYLINE
  5
42
330
1F
100
AcDbEntity
  8
Default
  6
Continuous
100
AcDb2dPolyline
 66
     1
 10
0.0
 20
0.0
 30
0.0
  0
VERTEX
  5
43
330
42
100
AcDbEntity
  8
Default
  6
Continuous
100
AcDbVertex
100
AcDb2dVertex
 10
26.53433795440179
 20
25.38278747170459
 30
0.0
  0
VERTEX
  5
44
330
42
100
AcDbEntity
  8
Default
  6
Continuous
100
AcDbVertex
100
AcDb2dVertex
 10
26.48004318170179
 20
25.42076265580459
 30
0.0
  0
VERTEX
  5
45
330
42
100
AcDbEntity
  8
Default
  6
Continuous
100
AcDbVertex
100
AcDb2dVertex
 10
26.42205937230179
 20
25.45173053160459
 30
0.0
  0
VERTEX
  5
46
330
42
100
AcDbEntity
  8
Default
  6
Continuous
100
AcDbVertex
100
AcDb2dVertex
 10
26.36122882870179
 20
25.47524481400459
 30
0.0
  0
VERTEX
  5
47
330
42
100
AcDbEntity
  8
Default
  6
Continuous
100
AcDbVertex
100
AcDb2dVertex
 10
26.29813927580179
 20
25.49111686720459
 30
0.0
  0
VERTEX
  5
48
330
42
100
AcDbEntity
  8
Default
  6
Continuous
100
AcDbVertex
100
AcDb2dVertex
 10
26.23344553390179
 20
25.49911471590459
 30
0.0
  0
VERTEX
  5
49
330
42
100
AcDbEntity
  8
Default
  6
Continuous
100
AcDbVertex
100
AcDb2dVertex
 10
26.16824021070179
 20
25.49909563400459
 30
0.0
  0
VERTEX
  5
4A
330
42
100
AcDbEntity
  8
Default
  6
Continuous
100
AcDbVertex
100
AcDb2dVertex
 10
26.10319082670179
 20
25.49112634830459
 30
0.0
  0
VERTEX
  5
4B
330
42
100
AcDbEntity
  8
Default
  6
Continuous
100
AcDbVertex
100
AcDb2dVertex
 10
26.03887690510179
 20
25.47535374490458
 30
0.0
  0
VERTEX
  5
4C
330
42
100
AcDbEntity
  8
Default
  6
Continuous
100
AcDbVertex
100
AcDb2dVertex
 10
25.97606738940179
 20
25.45212367200459
 30
0.0
  0
VERTEX
  5
4D
330
42
100
AcDbEntity
  8
Default
  6
Continuous
100
AcDbVertex
100
AcDb2dVertex
 10
25.91509725580179
 20
25.42175463450459
 30
0.0
  0
VERTEX
  5
4E
330
42
100
AcDbEntity
  8
Default
  6
Continuous
100
AcDbVertex
100
AcDb2dVertex
 10
25.85629255620179
 20
25.38440009940459
 30
0.0
  0
VERTEX
  5
4F
330
42
100
AcDbEntity
  8
Default
  6
Continuous
100
AcDbVertex
100
AcDb2dVertex
 10
25.80010075070179
 20
25.34029555220459
 30
0.0
  0
VERTEX
  5
50
330
42
100
AcDbEntity
  8
Default
  6
Continuous
100
AcDbVertex
100
AcDb2dVertex
 10
25.74662076970179
 20
25.28944774610459
 30
0.0
  0
VERTEX
  5
51
330
42
100
AcDbEntity
  8
Default
  6
Continuous
100
AcDbVertex
100
AcDb2dVertex
 10
25.69638226970179
 20
25.23208899780458
 30
0.0
  0
VERTEX
  5
52
330
42
100
AcDbEntity
  8
Default
  6
Continuous
100
AcDbVertex
100
AcDb2dVertex
 10
25.65026517790179
 20
25.16883276450459
 30
0.0
  0
VERTEX
  5
53
330
42
100
AcDbEntity
  8
Default
  6
Continuous
100
AcDbVertex
100
AcDb2dVertex
 10
25.60826403720179
 20
25.09980143730458
 30
0.0
  0
VERTEX
  5
54
330
42
100
AcDbEntity
  8
Default
  6
Continuous
100
AcDbVertex
100
AcDb2dVertex
 10
25.57003966560179
 20
25.02527771910459
 30
0.0
  0
VERTEX
  5
55
330
42
100
AcDbEntity
  8
Default
  6
Continuous
100
AcDbVertex
100
AcDb2dVertex
 10
25.53593394840179
 20
24.94639304260459
 30
0.0
  0
VERTEX
  5
56
330
42
100
AcDbEntity
  8
Default
  6
Continuous
100
AcDbVertex
100
AcDb2dVertex
 10
25.50625884160179
 20
24.86379528690459
 30
0.0
  0
VERTEX
  5
57
330
42
100
AcDbEntity
  8
Default
  6
Continuous
100
AcDbVertex
100
AcDb2dVertex
 10
25.48304799755179
 20
24.78408232290458
 30
0.0
  0
SEQEND
  5
58
330
42
100
AcDbEntity
  8
Default
  6
Continuous
  0
LINE
  5
59
330
1F
100
AcDbEntity
  8
Default
  6
Continuous
100
AcDbLine
 10
25.48304799755179
 20
24.78408232290458
 30
0.0
 11
19.45937778540178
 21
1.487298098404586
 31
0.0
  0
LINE
  5
5A
330
1F
100
AcDbEntity
  8
Default
  6
Continuous
100
AcDbLine
 10
19.88294764920179
 20
1.377777230504586
 30
0.0
 11
25.90661881705179
 21
24.67456523445459
 31
0.0
  0
LINE
  5
5B
330
1F
100
AcDbEntity
  8
Default
  6
Continuous
100
AcDbLine
 10
25.90661881705179
 20
24.67456523445459
 30
0.0
 11
25.90662306180179
 21
24.67458487530459
 31
0.0
  0
POLYLINE
  5
5C
330
1F
100
AcDbEntity
  8
Default
  6
Continuous
100
AcDb2dPolyline
 66
     1
 10
0.0
 20
0.0
 30
0.0
  0
VERTEX
  5
5D
330
5C
100
AcDbEntity
  8
Default
  6
Continuous
100
AcDbVertex
100
AcDb2dVertex
 10
25.90662306180179
 20
24.67458487530459
 30
0.0
  0
VERTEX
  5
5E
330
5C
100
AcDbEntity
  8
Default
  6
Continuous
100
AcDbVertex
100
AcDb2dVertex
 10
25.91253488330179
 20
24.69669628220458
 30
0.0
  0
VERTEX
  5
5F
330
5C
100
AcDbEntity
  8
Default
  6
Continuous
100
AcDbVertex
100
AcDb2dVertex
 10
25.92759183190179
 20
24.74675494790458
 30
0.0
  0
VERTEX
  5
60
330
5C
100
AcDbEntity
  8
Default
  6
Continuous
100
AcDbVertex
100
AcDb2dVertex
 10
25.94388012460179
 20
24.79236639360458
 30
0.0
  0
VERTEX
  5
61
330
5C
100
AcDbEntity
  8
Default
  6
Continuous
100
AcDbVertex
100
AcDb2dVertex
 10
25.96146719050179
 20
24.83383950120459
 30
0.0
  0
VERTEX
  5
62
330
5C
100
AcDbEntity
  8
Default
  6
Continuous
100
AcDbVertex
100
AcDb2dVertex
 10
25.98052940720179
 20
24.87184901230459
 30
0.0
  0
VERTEX
  5
63
330
5C
100
AcDbEntity
  8
Default
  6
Continuous
100
AcDbVertex
100
AcDb2dVertex
 10
26.00084062910179
 20
24.90636898190458
 30
0.0
  0
VERTEX
  5
64
330
5C
100
AcDbEntity
  8
Default
  6
Continuous
100
AcDbVertex
100
AcDb2dVertex
 10
26.02197217230179
 20
24.93740562070458
 30
0.0
  0
VERTEX
  5
65
330
5C
100
AcDbEntity
  8
Default
  6
Continuous
100
AcDbVertex
100
AcDb2dVertex
 10
26.04366700740179
 20
24.96530092600458
 30
0.0
  0
VERTEX
  5
66
330
5C
100
AcDbEntity
  8
Default
  6
Continuous
100
AcDbVertex
100
AcDb2dVertex
 10
26.06584434530179
 20
24.98996521560458
 30
0.0
  0
VERTEX
  5
67
330
5C
100
AcDbEntity
  8
Default
  6
Continuous
100
AcDbVertex
100
AcDb2dVertex
 10
26.08818194710179
 20
25.01101028230459
 30
0.0
  0
VERTEX
  5
68
330
5C
100
AcDbEntity
  8
Default
  6
Continuous
100
AcDbVertex
100
AcDb2dVertex
 10
26.11008595510179
 20
25.02813038500459
 30
0.0
  0
VERTEX
  5
69
330
5C
100
AcDbEntity
  8
Default
  6
Continuous
100
AcDbVertex
100
AcDb2dVertex
 10
26.13092310630179
 20
25.04131745260458
 30
0.0
  0
VERTEX
  5
6A
330
5C
100
AcDbEntity
  8
Default
  6
Continuous
100
AcDbVertex
100
AcDb2dVertex
 10
26.15047847880179
 20
25.05090107120458
 30
0.0
  0
VERTEX
  5
6B
330
5C
100
AcDbEntity
  8
Default
  6
Continuous
100
AcDbVertex
100
AcDb2dVertex
 10
26.16871537830179
 20
25.05726705920459
 30
0.0
  0
VERTEX
  5
6C
330
5C
100
AcDbEntity
  8
Default
  6
Continuous
100
AcDbVertex
100
AcDb2dVertex
 10
26.18529803770179
 20
25.06083862100459
 30
0.0
  0
VERTEX
  5
6D
330
5C
100
AcDbEntity
  8
Default
  6
Continuous
100
AcDbVertex
100
AcDb2dVertex
 10
26.20020960170179
 20
25.06210451090459
 30
0.0
  0
VERTEX
  5
6E
330
5C
100
AcDbEntity
  8
Default
  6
Continuous
100
AcDbVertex
100
AcDb2dVertex
 10
26.21408621290179
 20
25.06138601580459
 30
0.0
  0
VERTEX
  5
6F
330
5C
100
AcDbEntity
  8
Default
  6
Continuous
100
AcDbVertex
100
AcDb2dVertex
 10
26.22674317130179
 20
25.05885034440459
 30
0.0
  0
VERTEX
  5
70
330
5C
100
AcDbEntity
  8
Default
  6
Continuous
100
AcDbVertex
100
AcDb2dVertex
 10
26.23902538840179
 20
25.05438901320458
 30
0.0
  0
VERTEX
  5
71
330
5C
100
AcDbEntity
  8
Default
  6
Continuous
100
AcDbVertex
100
AcDb2dVertex
 10
26.25294038780179
 20
25.04680571040459
 30
0.0
  0
VERTEX
  5
72
330
5C
100
AcDbEntity
  8
Default
  6
Continuous
100
AcDbVertex
100
AcDb2dVertex
 10
26.26885026830179
 20
25.03470475190458
 30
0.0
  0
SEQEND
  5
73
330
5C
100
AcDbEntity
  8
Default
  6
Continuous
  0
LINE
  5
74
330
1F
100
AcDbEntity
  8
Default
  6
Continuous
100
AcDbLine
 10
26.26885026830179
 20
25.03470475190458
 30
0.0
 11
26.27577341670179
 21
25.02820807030459
 31
0.0
  0
ARC
  5
75
330
1F
100
AcDbEntity
  8
Default
  6
Continuous
100
AcDbCircle
 10
26.14461043490703
 20
24.88843505333048
 30
0.0
 40
0.191677395817385
100
AcDbArc
 50
27.7481329158193
 51
46.82018156783747
  0
POLYLINE
  5
76
330
1F
100
AcDbEntity
  8
Default
  6
Continuous
100
AcDb2dPolyline
 66
     1
 10
0.0
 20
0.0
 30
0.0
  0
VERTEX
  5
77
330
76
100
AcDbEntity
  8
Default
  6
Continuous
100
AcDbVertex
100
AcDb2dVertex
 10
41.21090939420179
 20
1.582452935304586
 30
0.0
  0
VERTEX
  5
78
330
76
100
AcDbEntity
  8
Default
  6
Continuous
100
AcDbVertex
100
AcDb2dVertex
 10
41.21583888560178
 20
1.551317852604585
 30
0.0
  0
VERTEX
  5
79
330
76
100
AcDbEntity
  8
Default
  6
Continuous
100
AcDbVertex
100
AcDb2dVertex
 10
41.22477138220179
 20
1.488275720604586
 30
0.0
  0
VERTEX
  5
7A
330
76
100
AcDbEntity
  8
Default
  6
Continuous
100
AcDbVertex
100
AcDb2dVertex
 10
41.23206307130179
 20
1.426482969304586
 30
0.0
  0
VERTEX
  5
7B
330
76
100
AcDbEntity
  8
Default
  6
Continuous
100
AcDbVertex
100
AcDb2dVertex
 10
41.23772828360179
 20
1.365100628304585
 30
0.0
  0
VERTEX
  5
7C
330
76
100
AcDbEntity
  8
Default
  6
Continuous
100
AcDbVertex
100
AcDb2dVertex
 10
41.24161180410179
 20
1.304351201904586
 30
0.0
  0
VERTEX
  5
7D
330
76
100
AcDbEntity
  8
Default
  6
Continuous
100
AcDbVertex
100
AcDb2dVertex
 10
41.24354525240179
 20
1.244567713204586
 30
0.0
  0
VERTEX
  5
7E
330
76
100
AcDbEntity
  8
Default
  6
Continuous
100
AcDbVertex
100
AcDb2dVertex
 10
41.24334182230179
 20
1.185309280704586
 30
0.0
  0
VERTEX
  5
7F
330
76
100
AcDbEntity
  8
Default
  6
Continuous
100
AcDbVertex
100
AcDb2dVertex
 10
41.24077821100179
 20
1.127637417704586
 30
0.0
  0
VERTEX
  5
80
330
76
100
AcDbEntity
  8
Default
  6
Continuous
100
AcDbVertex
100
AcDb2dVertex
 10
41.23564718770179
 20
1.071350417404586
 30
0.0
  0
VERTEX
  5
81
330
76
100
AcDbEntity
  8
Default
  6
Continuous
100
AcDbVertex
100
AcDb2dVertex
 10
41.22740073920178
 20
1.014743213904586
 30
0.0
  0
VERTEX
  5
82
330
76
100
AcDbEntity
  8
Default
  6
Continuous
100
AcDbVertex
100
AcDb2dVertex
 10
41.21530178560179
 20
0.9578823488045858
 30
0.0
  0
VERTEX
  5
83
330
76
100
AcDbEntity
  8
Default
  6
Continuous
100
AcDbVertex
100
AcDb2dVertex
 10
41.19907660360179
 20
0.9031006835045865
 30
0.0
  0
VERTEX
  5
84
330
76
100
AcDbEntity
  8
Default
  6
Continuous
100
AcDbVertex
100
AcDb2dVertex
 10
41.17881248180178
 20
0.8522421138045857
 30
0.0
  0
VERTEX
  5
85
330
76
100
AcDbEntity
  8
Default
  6
Continuous
100
AcDbVertex
100
AcDb2dVertex
 10
41.15411472970179
 20
0.8053862716045863
 30
0.0
  0
VERTEX
  5
86
330
76
100
AcDbEntity
  8
Default
  6
Continuous
100
AcDbVertex
100
AcDb2dVertex
 10
41.12468853630179
 20
0.763087287304586
 30
0.0
  0
VERTEX
  5
87
330
76
100
AcDbEntity
  8
Default
  6
Continuous
100
AcDbVertex
100
AcDb2dVertex
 10
41.09142921920179
 20
0.7264669847045857
 30
0.0
  0
VERTEX
  5
88
330
76
100
AcDbEntity
  8
Default
  6
Continuous
100
AcDbVertex
100
AcDb2dVertex
 10
41.05330411390179
 20
0.694359782304586
 30
0.0
  0
VERTEX
  5
89
330
76
100
AcDbEntity
  8
Default
  6
Continuous
100
AcDbVertex
100
AcDb2dVertex
 10
41.00901034640179
 20
0.6662212067045861
 30
0.0
  0
VERTEX
  5
8A
330
76
100
AcDbEntity
  8
Default
  6
Continuous
100
AcDbVertex
100
AcDb2dVertex
 10
40.96077405770178
 20
0.643066807604586
 30
0.0
  0
VERTEX
  5
8B
330
76
100
AcDbEntity
  8
Default
  6
Continuous
100
AcDbVertex
100
AcDb2dVertex
 10
40.91104800730179
 20
0.6251525924045858
 30
0.0
  0
VERTEX
  5
8C
330
76
100
AcDbEntity
  8
Default
  6
Continuous
100
AcDbVertex
100
AcDb2dVertex
 10
40.85962462590179
 20
0.6114720391045854
 30
0.0
  0
VERTEX
  5
8D
330
76
100
AcDbEntity
  8
Default
  6
Continuous
100
AcDbVertex
100
AcDb2dVertex
 10
40.80640073590179
 20
0.601362562704586
 30
0.0
  0
VERTEX
  5
8E
330
76
100
AcDbEntity
  8
Default
  6
Continuous
100
AcDbVertex
100
AcDb2dVertex
 10
40.75270895880179
 20
0.5945147219045861
 30
0.0
  0
VERTEX
  5
8F
330
76
100
AcDbEntity
  8
Default
  6
Continuous
100
AcDbVertex
100
AcDb2dVertex
 10
40.69953868970179
 20
0.5904946601045857
 30
0.0
  0
VERTEX
  5
90
330
76
100
AcDbEntity
  8
Default
  6
Continuous
100
AcDbVertex
100
AcDb2dVertex
 10
40.64556807190178
 20
0.5888227571045856
 30
0.0
  0
VERTEX
  5
91
330
76
100
AcDbEntity
  8
Default
  6
Continuous
100
AcDbVertex
100
AcDb2dVertex
 10
40.63093690390178
 20
0.5887465508045864
 30
0.0
  0
SEQEND
  5
92
330
76
100
AcDbEntity
  8
Default
  6
Continuous
  0
POLYLINE
  5
93
330
1F
100
AcDbEntity
  8
Default
  6
Continuous
100
AcDb2dPolyline
 66
     1
 10
0.0
 20
0.0
 30
0.0
  0
VERTEX
  5
94
330
93
100
AcDbEntity
  8
Default
  6
Continuous
100
AcDbVertex
100
AcDb2dVertex
 10
19.45937773100179
 20
1.487297910604585
 30
0.0
  0
VERTEX
  5
95
330
93
100
AcDbEntity
  8
Default
  6
Continuous
100
AcDbVertex
100
AcDb2dVertex
 10
19.43595273300178
 20
1.381227837804586
 30
0.0
  0
VERTEX
  5
96
330
93
100
AcDbEntity
  8
Default
  6
Continuous
100
AcDbVertex
100
AcDb2dVertex
 10
19.42167998000178
 20
1.285345935804585
 30
0.0
  0
VERTEX
  5
97
330
93
100
AcDbEntity
  8
Default
  6
Continuous
100
AcDbVertex
100
AcDb2dVertex
 10
19.41410808170178
 20
1.192132214804586
 30
0.0
  0
VERTEX
  5
98
330
93
100
AcDbEntity
  8
Default
  6
Continuous
100
AcDbVertex
100
AcDb2dVertex
 10
19.41276004140179
 20
1.101657531104586
 30
0.0
  0
VERTEX
  5
99
330
93
100
AcDbEntity
  8
Default
  6
Continuous
100
AcDbVertex
100
AcDb2dVertex
 10
19.41745249630178
 20
1.014037192604586
 30
0.0
  0
VERTEX
  5
9A
330
93
100
AcDbEntity
  8
Default
  6
Continuous
100
AcDbVertex
100
AcDb2dVertex
 10
19.42809405790179
 20
0.9294179208045854
 30
0.0
  0
VERTEX
  5
9B
330
93
100
AcDbEntity
  8
Default
  6
Continuous
100
AcDbVertex
100
AcDb2dVertex
 10
19.44462971720179
 20
0.8475534934045861
 30
0.0
  0
VERTEX
  5
9C
330
93
100
AcDbEntity
  8
Default
  6
Continuous
100
AcDbVertex
100
AcDb2dVertex
 10
19.46712236020178
 20
0.7682356863045854
 30
0.0
  0
VERTEX
  5
9D
330
93
100
AcDbEntity
  8
Default
  6
Continuous
100
AcDbVertex
100
AcDb2dVertex
 10
19.49558940920178
 20
0.6919503644045859
 30
0.0
  0
VERTEX
  5
9E
330
93
100
AcDbEntity
  8
Default
  6
Continuous
100
AcDbVertex
100
AcDb2dVertex
 10
19.53002149270178
 20
0.6192791715045853
 30
0.0
  0
VERTEX
  5
9F
330
93
100
AcDbEntity
  8
Default
  6
Continuous
100
AcDbVertex
100
AcDb2dVertex
 10
19.57054612020179
 20
0.5504466095045863
 30
0.0
  0
VERTEX
  5
A0
330
93
100
AcDbEntity
  8
Default
  6
Continuous
100
AcDbVertex
100
AcDb2dVertex
 10
19.61709917760179
 20
0.485866362004586
 30
0.0
  0
VERTEX
  5
A1
330
93
100
AcDbEntity
  8
Default
  6
Continuous
100
AcDbVertex
100
AcDb2dVertex
 10
19.66958082110179
 20
0.4259759814045854
 30
0.0
  0
VERTEX
  5
A2
330
93
100
AcDbEntity
  8
Default
  6
Continuous
100
AcDbVertex
100
AcDb2dVertex
 10
19.72807180180179
 20
0.3710238895045856
 30
0.0
  0
VERTEX
  5
A3
330
93
100
AcDbEntity
  8
Default
  6
Continuous
100
AcDbVertex
100
AcDb2dVertex
 10
19.79245170000178
 20
0.3213977188045858
 30
0.0
  0
VERTEX
  5
A4
330
93
100
AcDbEntity
  8
Default
  6
Continuous
100
AcDbVertex
100
AcDb2dVertex
 10
19.86245568100179
 20
0.2775709060045859
 30
0.0
  0
VERTEX
  5
A5
330
93
100
AcDbEntity
  8
Default
  6
Continuous
100
AcDbVertex
100
AcDb2dVertex
 10
19.93789901280179
 20
0.239927554404586
 30
0.0
  0
VERTEX
  5
A6
330
93
100
AcDbEntity
  8
Default
  6
Continuous
100
AcDbVertex
100
AcDb2dVertex
 10
20.01848040300179
 20
0.2087143353045855
 30
0.0
  0
VERTEX
  5
A7
330
93
100
AcDbEntity
  8
Default
  6
Continuous
100
AcDbVertex
100
AcDb2dVertex
 10
20.10378987510179
 20
0.1841336756045857
 30
0.0
  0
VERTEX
  5
A8
330
93
100
AcDbEntity
  8
Default
  6
Continuous
100
AcDbVertex
100
AcDb2dVertex
 10
20.19343744070179
 20
0.1663580640045854
 30
0.0
  0
VERTEX
  5
A9
330
93
100
AcDbEntity
  8
Default
  6
Continuous
100
AcDbVertex
100
AcDb2dVertex
 10
20.28730434070179
 20
0.1554206465045862
 30
0.0
  0
VERTEX
  5
AA
330
93
100
AcDbEntity
  8
Default
  6
Continuous
100
AcDbVertex
100
AcDb2dVertex
 10
20.38539254970178
 20
0.1512876189045862
 30
0.0
  0
VERTEX
  5
AB
330
93
100
AcDbEntity
  8
Default
  6
Continuous
100
AcDbVertex
100
AcDb2dVertex
 10
20.39646638380179
 20
0.1512465494045863
 30
0.0
  0
SEQEND
  5
AC
330
93
100
AcDbEntity
  8
Default
  6
Continuous
  0
POLYLINE
  5
AD
330
1F
100
AcDbEntity
  8
Default
  6
Continuous
100
AcDb2dPolyline
 66
     1
 10
0.0
 20
0.0
 30
0.0
  0
VERTEX
  5
AE
330
AD
100
AcDbEntity
  8
Default
  6
Continuous
100
AcDbVertex
100
AcDb2dVertex
 10
20.39646561200179
 20
0.5887465483045862
 30
0.0
  0
VERTEX
  5
AF
330
AD
100
AcDbEntity
  8
Default
  6
Continuous
100
AcDbVertex
100
AcDb2dVertex
 10
20.35207107210179
 20
0.589720242604586
 30
0.0
  0
VERTEX
  5
B0
330
AD
100
AcDbEntity
  8
Default
  6
Continuous
100
AcDbVertex
100
AcDb2dVertex
 10
20.29311551870179
 20
0.5943189626045857
 30
0.0
  0
VERTEX
  5
B1
330
AD
100
AcDbEntity
  8
Default
  6
Continuous
100
AcDbVertex
100
AcDb2dVertex
 10
20.23634688080179
 20
0.6029296797045856
 30
0.0
  0
VERTEX
  5
B2
330
AD
100
AcDbEntity
  8
Default
  6
Continuous
100
AcDbVertex
100
AcDb2dVertex
 10
20.18131547140179
 20
0.6160602126045855
 30
0.0
  0
VERTEX
  5
B3
330
AD
100
AcDbEntity
  8
Default
  6
Continuous
100
AcDbVertex
100
AcDb2dVertex
 10
20.12793125540179
 20
0.6344812051045858
 30
0.0
  0
VERTEX
  5
B4
330
AD
100
AcDbEntity
  8
Default
  6
Continuous
100
AcDbVertex
100
AcDb2dVertex
 10
20.07811479140179
 20
0.6582315981045852
 30
0.0
  0
VERTEX
  5
B5
330
AD
100
AcDbEntity
  8
Default
  6
Continuous
100
AcDbVertex
100
AcDb2dVertex
 10
20.03377998640179
 20
0.6865613631045857
 30
0.0
  0
VERTEX
  5
B6
330
AD
100
AcDbEntity
  8
Default
  6
Continuous
100
AcDbVertex
100
AcDb2dVertex
 10
19.99392508540178
 20
0.7202497125045859
 30
0.0
  0
VERTEX
  5
B7
330
AD
100
AcDbEntity
  8
Default
  6
Continuous
100
AcDbVertex
100
AcDb2dVertex
 10
19.95811528430179
 20
0.7598186100045865
 30
0.0
  0
VERTEX
  5
B8
330
AD
100
AcDbEntity
  8
Default
  6
Continuous
100
AcDbVertex
100
AcDb2dVertex
 10
19.92780273680179
 20
0.8040271253045859
 30
0.0
  0
VERTEX
  5
B9
330
AD
100
AcDbEntity
  8
Default
  6
Continuous
100
AcDbVertex
100
AcDb2dVertex
 10
19.90276857830179
 20
0.8526830314045863
 30
0.0
  0
VERTEX
  5
BA
330
AD
100
AcDbEntity
  8
Default
  6
Continuous
100
AcDbVertex
100
AcDb2dVertex
 10
19.88235728090179
 20
0.9061651727045863
 30
0.0
  0
VERTEX
  5
BB
330
AD
100
AcDbEntity
  8
Default
  6
Continuous
100
AcDbVertex
100
AcDb2dVertex
 10
19.86706052490179
 20
0.9625259291045865
 30
0.0
  0
VERTEX
  5
BC
330
AD
100
AcDbEntity
  8
Default
  6
Continuous
100
AcDbVertex
100
AcDb2dVertex
 10
19.85696636640179
 20
1.019556914004585
 30
0.0
  0
VERTEX
  5
BD
330
AD
100
AcDbEntity
  8
Default
  6
Continuous
100
AcDbVertex
100
AcDb2dVertex
 10
19.85146887430179
 20
1.077020467204585
 30
0.0
  0
VERTEX
  5
BE
330
AD
100
AcDbEntity
  8
Default
  6
Continuous
100
AcDbVertex
100
AcDb2dVertex
 10
19.85008171090179
 20
1.136243188604587
 30
0.0
  0
VERTEX
  5
BF
330
AD
100
AcDbEntity
  8
Default
  6
Continuous
100
AcDbVertex
100
AcDb2dVertex
 10
19.85271474610179
 20
1.197249890204586
 30
0.0
  0
VERTEX
  5
C0
330
AD
100
AcDbEntity
  8
Default
  6
Continuous
100
AcDbVertex
100
AcDb2dVertex
 10
19.85934956020179
 20
1.259129391304586
 30
0.0
  0
VERTEX
  5
C1
330
AD
100
AcDbEntity
  8
Default
  6
Continuous
100
AcDbVertex
100
AcDb2dVertex
 10
19.87016455190179
 20
1.322380346904586
 30
0.0
  0
VERTEX
  5
C2
330
AD
100
AcDbEntity
  8
Default
  6
Continuous
100
AcDbVertex
100
AcDb2dVertex
 10
19.88294767960178
 20
1.377777380004586
 30
0.0
  0
SEQEND
  5
C3
330
AD
100
AcDbEntity
  8
Default
  6
Continuous
  0
LINE
  5
C4
330
1F
100
AcDbEntity
  8
Default
  6
Continuous
100
AcDbLine
 10
40.63093690390178
 20
0.5887465508045864
 30
0.0
 11
20.39646561200179
 21
0.5887465513045864
 31
0.0
  0
LINE
  5
C5
330
1F
100
AcDbEntity
  8
Default
  6
Continuous
100
AcDbLine
 10
22.38897563570179
 20
0.1512465514045855
 30
0.0
 11
38.63093690390178
 21
0.1512465509045855
 31
0.0
  0
POLYLINE
  5
C6
330
1F
100
AcDbEntity
  8
Default
  6
Continuous
100
AcDb2dPolyline
 66
     1
 10
0.0
 20
0.0
 30
0.0
  0
VERTEX
  5
C7
330
C6
100
AcDbEntity
  8
Default
  6
Continuous
100
AcDbVertex
100
AcDb2dVertex
 10
40.63093690390178
 20
0.1512465539045857
 30
0.0
  0
VERTEX
  5
C8
330
C6
100
AcDbEntity
  8
Default
  6
Continuous
100
AcDbVertex
100
AcDb2dVertex
 10
40.73999406340179
 20
0.1545711002045858
 30
0.0
  0
VERTEX
  5
C9
330
C6
100
AcDbEntity
  8
Default
  6
Continuous
100
AcDbVertex
100
AcDb2dVertex
 10
40.83756913210179
 20
0.1638543904045857
 30
0.0
  0
VERTEX
  5
CA
330
C6
100
AcDbEntity
  8
Default
  6
Continuous
100
AcDbVertex
100
AcDb2dVertex
 10
40.93217998650179
 20
0.1795775577045857
 30
0.0
  0
VERTEX
  5
CB
330
C6
100
AcDbEntity
  8
Default
  6
Continuous
100
AcDbVertex
100
AcDb2dVertex
 10
41.02364318770179
 20
0.2021928103045862
 30
0.0
  0
VERTEX
  5
CC
330
C6
100
AcDbEntity
  8
Default
  6
Continuous
100
AcDbVertex
100
AcDb2dVertex
 10
41.11133486350179
 20
0.2320467536045863
 30
0.0
  0
VERTEX
  5
CD
330
C6
100
AcDbEntity
  8
Default
  6
Continuous
100
AcDbVertex
100
AcDb2dVertex
 10
41.19464140620179
 20
0.2694745038045863
 30
0.0
  0
VERTEX
  5
CE
330
C6
100
AcDbEntity
  8
Default
  6
Continuous
100
AcDbVertex
100
AcDb2dVertex
 10
41.27311184170179
 20
0.3148701055045855
 30
0.0
  0
VERTEX
  5
CF
330
C6
100
AcDbEntity
  8
Default
  6
Continuous
100
AcDbVertex
100
AcDb2dVertex
 10
41.34606271110179
 20
0.3681894582045864
 30
0.0
  0
VERTEX
  5
D0
330
C6
100
AcDbEntity
  8
Default
  6
Continuous
100
AcDbVertex
100
AcDb2dVertex
 10
41.41267700990178
 20
0.429079801304586
 30
0.0
  0
VERTEX
  5
D1
330
C6
100
AcDbEntity
  8
Default
  6
Continuous
100
AcDbVertex
100
AcDb2dVertex
 10
41.47205956420179
 20
0.4970689618045858
 30
0.0
  0
VERTEX
  5
D2
330
C6
100
AcDbEntity
  8
Default
  6
Continuous
100
AcDbVertex
100
AcDb2dVertex
 10
41.52374212290179
 20
0.5713662748045856
 30
0.0
  0
VERTEX
  5
D3
330
C6
100
AcDbEntity
  8
Default
  6
Continuous
100
AcDbVertex
100
AcDb2dVertex
 10
41.56765397370179
 20
0.6511316912045864
 30
0.0
  0
VERTEX
  5
D4
330
C6
100
AcDbEntity
  8
Default
  6
Continuous
100
AcDbVertex
100
AcDb2dVertex
 10
41.60375985740178
 20
0.7354790835045861
 30
0.0
  0
VERTEX
  5
D5
330
C6
100
AcDbEntity
  8
Default
  6
Continuous
100
AcDbVertex
100
AcDb2dVertex
 10
41.63232715880179
 20
0.8236505414045858
 30
0.0
  0
VERTEX
  5
D6
330
C6
100
AcDbEntity
  8
Default
  6
Continuous
100
AcDbVertex
100
AcDb2dVertex
 10
41.65387445860179
 20
0.9152235294045852
 30
0.0
  0
VERTEX
  5
D7
330
C6
100
AcDbEntity
  8
Default
  6
Continuous
100
AcDbVertex
100
AcDb2dVertex
 10
41.66890663520179
 20
1.009889947804586
 30
0.0
  0
VERTEX
  5
D8
330
C6
100
AcDbEntity
  8
Default
  6
Continuous
100
AcDbVertex
100
AcDb2dVertex
 10
41.67786242400179
 20
1.107262140604586
 30
0.0
  0
VERTEX
  5
D9
330
C6
100
AcDbEntity
  8
Default
  6
Continuous
100
AcDbVertex
100
AcDb2dVertex
 10
41.68124859850179
 20
1.207087905504586
 30
0.0
  0
VERTEX
  5
DA
330
C6
100
AcDbEntity
  8
Default
  6
Continuous
100
AcDbVertex
100
AcDb2dVertex
 10
41.67946078900179
 20
1.309519920704586
 30
0.0
  0
VERTEX
  5
DB
330
C6
100
AcDbEntity
  8
Default
  6
Continuous
100
AcDbVertex
100
AcDb2dVertex
 10
41.67277135000179
 20
1.414801039504586
 30
0.0
  0
VERTEX
  5
DC
330
C6
100
AcDbEntity
  8
Default
  6
Continuous
100
AcDbVertex
100
AcDb2dVertex
 10
41.66143420150179
 20
1.523019654004585
 30
0.0
  0
VERTEX
  5
DD
330
C6
100
AcDbEntity
  8
Default
  6
Continuous
100
AcDbVertex
100
AcDb2dVertex
 10
41.64572688260179
 20
1.634090253804586
 30
0.0
  0
VERTEX
  5
DE
330
C6
100
AcDbEntity
  8
Default
  6
Continuous
100
AcDbVertex
100
AcDb2dVertex
 10
41.64266883220179
 20
1.653093133604585
 30
0.0
  0
SEQEND
  5
DF
330
C6
100
AcDbEntity
  8
Default
  6
Continuous
  0
SPLINE
  5
E0
330
1F
100
AcDbEntity
  8
Default
100
AcDbSpline
210
0.0
220
0.0
230
1.0
 70
    12
 71
     2
 72
     6
 73
     3
 74
     0
 42
0.0000000001
 43
0.0000000001
 40
-0.1482614395726964
 40
-0.1482614395726964
 40
-0.1482614395726964
 40
-0.0082611733969005
 40
-0.0082611733969005
 40
-0.0082611733969005
 10
40.63125501140006
 20
0.2011356906607535
 30
0.0
 41
0.9999999999999598
 10
40.63125506425045
 20
0.2711358237486423
 30
0.0
 41
0.9999999999997442
 10
40.63125502393912
 20
0.3411359568365375
 30
0.0
 41
0.9999999999999716
  0
ARC
  5
E1
330
1F
100
AcDbEntity
  8
Default
100
AcDbCircle
 10
40.43125502393915
 20
0.3411358416615942
 30
0.0
 40
0.2
100
AcDbArc
 50
0.0000329951910078
 51
90.0
  0
SPLINE
  5
E2
330
1F
100
AcDbEntity
  8
Default
100
AcDbSpline
210
0.0
220
0.0
230
1.0
 70
    24
 71
     2
 72
     6
 73
     3
 74
     0
 42
0.0000000001
 43
0.0000000001
 40
0.0099999777115727
 40
0.0099999777115727
 40
0.0099999777115727
 40
1.609999999985448
 40
1.609999999985448
 40
1.609999999985448
 10
40.43125502393915
 20
0.5411358416615935
 30
0.0
 10
39.63125501280222
 20
0.5411358416615899
 30
0.0
 10
38.83125500166529
 20
0.5411358416615863
 30
0.0
  0
ARC
  5
E3
330
1F
100
AcDbEntity
  8
Default
100
AcDbCircle
 10
38.83125500166529
 20
0.3411358416615853
 30
0.0
 40
0.2
100
AcDbArc
 50
90.0
 51
180.0000000013608
  0
SPLINE
  5
E4
330
1F
100
AcDbEntity
  8
Default
100
AcDbSpline
210
0.0
220
0.0
230
1.0
 70
    24
 71
     2
 72
     6
 73
     3
 74
     0
 42
0.0000000001
 43
0.0000000001
 40
-0.1520000005855499
 40
-0.1520000005855499
 40
-0.1520000005855499
 40
-0.0120000005855438
 40
-0.0120000005855438
 40
-0.0120000005855438
 10
38.63125500166527
 20
0.3411358416568353
 30
0.0
 10
38.63125500166695
 20
0.2711358416568332
 30
0.0
 10
38.63125500166861
 20
0.2011358416568294
 30
0.0
  0
ARC
  5
E5
330
1F
100
AcDbEntity
  8
Default
100
AcDbCircle
 10
38.83125500166862
 20
0.2011358416615936
 30
0.0
 40
0.2
100
AcDbArc
 50
180.000000001365
 51
270.0
  0
SPLINE
  5
E6
330
1F
100
AcDbEntity
  8
Default
100
AcDbSpline
210
0.0
220
0.0
230
1.0
 70
    24
 71
     2
 72
     6
 73
     3
 74
     0
 42
0.0000000001
 43
0.0000000001
 40
0.0120000000122786
 40
0.0120000000122786
 40
0.0120000000122786
 40
1.612000009743781
 40
1.612000009743781
 40
1.612000009743781
 10
38.83125500166862
 20
0.0011358416615943
 30
0.0
 10
39.63125500653437
 20
0.0011358416615943
 30
0.0
 10
40.43125501140012
 20
0.0011358416615943
 30
0.0
  0
ARC
  5
E7
330
1F
100
AcDbEntity
  8
Default
100
AcDbCircle
 10
40.43125501140012
 20
0.2011358416615918
 30
0.0
 40
0.199999999999997
100
AcDbArc
 50
270.0
 51
359.9999567414461
  0
SPLINE
  5
E8
330
1F
100
AcDbEntity
  8
Default
100
AcDbSpline
210
0.0
220
0.0
230
1.0
 70
    12
 71
     2
 72
     6
 73
     3
 74
     0
 42
0.0000000001
 43
0.0000000001
 40
-0.1482614395726964
 40
-0.1482614395726964
 40
-0.1482614395726964
 40
-0.0082611733969005
 40
-0.0082611733969005
 40
-0.0082611733969005
 10
22.40225090831707
 20
0.1999998489991591
 30
0.0
 41
0.9999999999999598
 10
22.40225096116746
 20
0.2699999820870468
 30
0.0
 41
0.9999999999997442
 10
22.40225092085613
 20
0.3400001151749432
 30
0.0
 41
0.9999999999999716
  0
ARC
  5
E9
330
1F
100
AcDbEntity
  8
Default
100
AcDbCircle
 10
22.20225092085616
 20
0.3399999999999999
 30
0.0
 40
0.2
100
AcDbArc
 50
0.0000329951910078
 51
90.0
  0
SPLINE
  5
EA
330
1F
100
AcDbEntity
  8
Default
100
AcDbSpline
210
0.0
220
0.0
230
1.0
 70
    24
 71
     2
 72
     6
 73
     3
 74
     0
 42
0.0000000001
 43
0.0000000001
 40
0.0099999777115727
 40
0.0099999777115727
 40
0.0099999777115727
 40
1.609999999985448
 40
1.609999999985448
 40
1.609999999985448
 10
22.20225092085616
 20
0.5399999999999991
 30
0.0
 10
21.40225090971923
 20
0.5399999999999956
 30
0.0
 10
20.6022508985823
 20
0.539999999999992
 30
0.0
  0
ARC
  5
EB
330
1F
100
AcDbEntity
  8
Default
100
AcDbCircle
 10
20.6022508985823
 20
0.339999999999991
 30
0.0
 40
0.2
100
AcDbArc
 50
90.0
 51
180.0000000013608
  0
SPLINE
  5
EC
330
1F
100
AcDbEntity
  8
Default
100
AcDbSpline
210
0.0
220
0.0
230
1.0
 70
    24
 71
     2
 72
     6
 73
     3
 74
     0
 42
0.0000000001
 43
0.0000000001
 40
-0.1520000005855499
 40
-0.1520000005855499
 40
-0.1520000005855499
 40
-0.0120000005855438
 40
-0.0120000005855438
 40
-0.0120000005855438
 10
20.40225089858228
 20
0.339999999995241
 30
0.0
 10
20.40225089858396
 20
0.2699999999952389
 30
0.0
 10
20.40225089858563
 20
0.1999999999952351
 30
0.0
  0
ARC
  5
ED
330
1F
100
AcDbEntity
  8
Default
100
AcDbCircle
 10
20.60225089858563
 20
0.1999999999999993
 30
0.0
 40
0.2
100
AcDbArc
 50
180.000000001365
 51
270.0
  0
SPLINE
  5
EE
330
1F
100
AcDbEntity
  8
Default
100
AcDbSpline
210
0.0
220
0.0
230
1.0
 70
    24
 71
     2
 72
     6
 73
     3
 74
     0
 42
0.0000000001
 43
0.0000000001
 40
0.0120000000122786
 40
0.0120000000122786
 40
0.0120000000122786
 40
1.612000009743781
 40
1.612000009743781
 40
1.612000009743781
 10
20.60225089858563
 20
0.0
 30
0.0
 10
21.40225090345138
 20
0.0
 30
0.0
 10
22.20225090831713
 20
0.0
 30
0.0
  0
ARC
  5
EF
330
1F
100
AcDbEntity
  8
Default
100
AcDbCircle
 10
22.20225090831713
 20
0.1999999999999975
 30
0.0
 40
0.199999999999997
100
AcDbArc
 50
270.0
 51
359.9999567414461
  0
SPLINE
  5
F0
330
1F
100
AcDbEntity
  8
Default
  6
Continuous
100
AcDbSpline
210
0.0
220
0.0
230
1.0
 70
     8
 71
     3
 72
    11
 73
     7
 74
     0
 42
0.0000000001
 43
0.0000000001
 40
0.0
 40
0.0
 40
0.0
 40
0.0
 40
1.0
 40
2.0
 40
3.0
 40
4.0
 40
4.0
 40
4.0
 40
4.0
 10
9.177393672313627
 20
25.04447913082036
 30
0.0
 10
9.210119791081828
 20
25.03350599126784
 30
0.0
 10
9.2712546691285
 20
24.99863488904289
 30
0.0
 10
9.335548610126583
 20
24.91528718991336
 30
0.0
 10
9.369315188024324
 20
24.81622796850386
 30
0.0
 10
9.375449074886875
 20
24.74720848379537
 30
0.0
 10
9.377372102813638
 20
24.71278935932035
 30
0.0
  0
LINE
  5
F1
330
1F
100
AcDbEntity
  8
Default
  6
Continuous
100
AcDbLine
 10
9.377372102813638
 20
24.71278935932035
 30
0.0
 11
9.610778199539247
 21
18.02891325615268
 31
0.0
  0
SPLINE
  5
F2
330
1F
100
AcDbEntity
  8
Default
  6
Continuous
100
AcDbSpline
210
0.0
220
0.0
230
1.0
 70
     8
 71
     3
 72
    11
 73
     7
 74
     0
 42
0.0000000001
 43
0.0000000001
 40
0.0
 40
0.0
 40
0.0
 40
0.0
 40
1.0
 40
2.0
 40
3.0
 40
4.0
 40
4.0
 40
4.0
 40
4.0
 10
-9.177393672313627
 20
25.04447913082036
 30
0.0
 10
-9.210119791081828
 20
25.03350599126784
 30
0.0
 10
-9.2712546691285
 20
24.99863488904289
 30
0.0
 10
-9.335548610126583
 20
24.91528718991336
 30
0.0
 10
-9.369315188024324
 20
24.81622796850386
 30
0.0
 10
-9.375449074886875
 20
24.74720848379537
 30
0.0
 10
-9.377372102813638
 20
24.71278935932035
 30
0.0
  0
LINE
  5
F3
330
1F
100
AcDbEntity
  8
Default
  6
Continuous
100
AcDbLine
 10
-9.377372102813638
 20
24.71278935932035
 30
0.0
 11
-9.610778199539247
 21
18.02891325615268
 31
0.0
  0
SPLINE
  5
F4
330
1F
100
AcDbEntity
  8
Default
  6
Continuous
100
AcDbSpline
210
0.0
220
0.0
230
1.0
 70
     8
 71
     3
 72
    20
 73
    16
 74
     0
 42
0.0000000001
 43
0.0000000001
 40
0.0
 40
0.0
 40
0.0
 40
0.0
 40
0.1249818288006854
 40
0.2499654919013708
 40
0.3124583160017135
 40
0.3749505078020562
 40
0.437441442302399
 40
0.4999307024027416
 40
0.5624187303030842
 40
0.624909187603427
 40
0.6874103023037696
 40
0.7499354359041126
 40
0.8124806946044556
 40
0.8750160626047985
 40
1.0
 40
1.0
 40
1.0
 40
1.0
 10
2.169910837286373
 20
23.63439089452035
 30
0.0
 10
2.417620826386376
 20
23.64137123152035
 30
0.0
 10
2.912975795186377
 20
23.65793979162035
 30
0.0
 10
3.531884027386376
 20
23.68603138602035
 30
0.0
 10
4.026762854786377
 20
23.71330199872035
 30
0.0
 10
4.397778860486376
 20
23.73619722292035
 30
0.0
 10
4.768622756186375
 20
23.76162324632035
 30
0.0
 10
5.139278141986374
 20
23.78956176042035
 30
0.0
 10
5.509685322386375
 20
23.82063553252035
 30
0.0
 10
5.879760263586377
 20
23.85572565462035
 30
0.0
 10
6.249421317886373
 20
23.89566592862035
 30
0.0
 10
6.618541722186372
 20
23.94123807802035
 30
0.0
 10
6.986865609786378
 20
23.99346215692035
 30
0.0
 10
7.476106289075645
 20
24.07404384701859
 30
0.0
 10
7.840572245765058
 20
24.14910582071596
 30
0.0
 10
8.081385117686374
 20
24.20758826827035
 30
0.0
  0
POLYLINE
  5
F5
330
1F
100
AcDbEntity
  8
Default
  6
Continuous
100
AcDb2dPolyline
 66
     1
 10
0.0
 20
0.0
 30
0.0
  0
VERTEX
  5
F6
330
F5
100
AcDbEntity
  8
Default
  6
Continuous
100
AcDbVertex
100
AcDb2dVertex
 10
8.081385117686374
 20
24.20758826827035
 30
0.0
  0
VERTEX
  5
F7
330
F5
100
AcDbEntity
  8
Default
  6
Continuous
100
AcDbVertex
100
AcDb2dVertex
 10
8.143901326586374
 20
24.22044853272035
 30
0.0
  0
VERTEX
  5
F8
330
F5
100
AcDbEntity
  8
Default
  6
Continuous
100
AcDbVertex
100
AcDb2dVertex
 10
8.231349167386377
 20
24.23092483682035
 30
0.0
  0
VERTEX
  5
F9
330
F5
100
AcDbEntity
  8
Default
  6
Continuous
100
AcDbVertex
100
AcDb2dVertex
 10
8.321762649586375
 20
24.23294946342035
 30
0.0
  0
VERTEX
  5
FA
330
F5
100
AcDbEntity
  8
Default
  6
Continuous
100
AcDbVertex
100
AcDb2dVertex
 10
8.413937986186376
 20
24.22605141192035
 30
0.0
  0
VERTEX
  5
FB
330
F5
100
AcDbEntity
  8
Default
  6
Continuous
100
AcDbVertex
100
AcDb2dVertex
 10
8.505732336486375
 20
24.21019619692035
 30
0.0
  0
VERTEX
  5
FC
330
F5
100
AcDbEntity
  8
Default
  6
Continuous
100
AcDbVertex
100
AcDb2dVertex
 10
8.596349624286376
 20
24.18547593802035
 30
0.0
  0
VERTEX
  5
FD
330
F5
100
AcDbEntity
  8
Default
  6
Continuous
100
AcDbVertex
100
AcDb2dVertex
 10
8.685165170786377
 20
24.15199611882035
 30
0.0
  0
VERTEX
  5
FE
330
F5
100
AcDbEntity
  8
Default
  6
Continuous
100
AcDbVertex
100
AcDb2dVertex
 10
8.770439050986376
 20
24.11052818272035
 30
0.0
  0
VERTEX
  5
FF
330
F5
100
AcDbEntity
  8
Default
  6
Continuous
100
AcDbVertex
100
AcDb2dVertex
 10
8.851660376286375
 20
24.06160635082035
 30
0.0
  0
VERTEX
  5
100
330
F5
100
AcDbEntity
  8
Default
  6
Continuous
100
AcDbVertex
100
AcDb2dVertex
 10
8.928352642086374
 20
24.00572898962035
 30
0.0
  0
VERTEX
  5
101
330
F5
100
AcDbEntity
  8
Default
  6
Continuous
100
AcDbVertex
100
AcDb2dVertex
 10
8.999092685486374
 20
23.94400734742035
 30
0.0
  0
VERTEX
  5
102
330
F5
100
AcDbEntity
  8
Default
  6
Continuous
100
AcDbVertex
100
AcDb2dVertex
 10
9.063513982286374
 20
23.87683443822035
 30
0.0
  0
VERTEX
  5
103
330
F5
100
AcDbEntity
  8
Default
  6
Continuous
100
AcDbVertex
100
AcDb2dVertex
 10
9.121169444186371
 20
23.80468199352035
 30
0.0
  0
VERTEX
  5
104
330
F5
100
AcDbEntity
  8
Default
  6
Continuous
100
AcDbVertex
100
AcDb2dVertex
 10
9.170989846386377
 20
23.72911985142035
 30
0.0
  0
VERTEX
  5
105
330
F5
100
AcDbEntity
  8
Default
  6
Continuous
100
AcDbVertex
100
AcDb2dVertex
 10
9.212801409186376
 20
23.65070639382035
 30
0.0
  0
VERTEX
  5
106
330
F5
100
AcDbEntity
  8
Default
  6
Continuous
100
AcDbVertex
100
AcDb2dVertex
 10
9.246298827586372
 20
23.56998671632035
 30
0.0
  0
VERTEX
  5
107
330
F5
100
AcDbEntity
  8
Default
  6
Continuous
100
AcDbVertex
100
AcDb2dVertex
 10
9.270886829586374
 20
23.48890141272035
 30
0.0
  0
SEQEND
  5
108
330
F5
100
AcDbEntity
  8
Default
  6
Continuous
  0
LINE
  5
109
330
1F
100
AcDbEntity
  8
Default
  6
Continuous
100
AcDbLine
 10
9.270886829586374
 20
23.48890141272035
 30
0.0
 11
9.286659247786375
 21
23.40876189042035
 31
0.0
  0
ARC
  5
10A
330
1F
100
AcDbEntity
  8
Default
  6
Continuous
100
AcDbCircle
 10
8.934903384561634
 20
23.33953212188849
 30
0.0
 40
0.3585037631098975
100
AcDbArc
 50
0.5427468690594323
 51
11.13419067423725
  0
LINE
  5
10B
330
1F
100
AcDbEntity
  8
Default
100
AcDbLine
 10
9.293391063086375
 20
23.34292807682035
 30
0.0
 11
10.66467537522244
 21
0.3835062190830412
 31
0.0
  0
ARC
  5
10C
330
1F
100
AcDbEntity
  8
Default
100
AcDbCircle
 10
10.4463144789755
 20
0.3704646894609036
 30
0.0
 40
0.2187500000106266
100
AcDbArc
 50
183.4175339132096
 51
3.417910699904902
  0
LINE
  5
10D
330
1F
100
AcDbEntity
  8
Default
100
AcDbLine
 10
10.22795349697
 20
0.3574245958170756
 30
0.0
 11
9.792124529186374
 21
7.654511742220352
 31
0.0
  0
LINE
  5
10E
330
1F
100
AcDbEntity
  8
Default
  6
Continuous
100
AcDbLine
 10
9.766350446086378
 20
8.086047378520352
 30
0.0
 11
8.856669514936375
 21
23.31684095897035
 31
0.0
  0
POLYLINE
  5
10F
330
1F
100
AcDbEntity
  8
Default
  6
Continuous
100
AcDb2dPolyline
 66
     1
 10
0.0
 20
0.0
 30
0.0
  0
VERTEX
  5
110
330
10F
100
AcDbEntity
  8
Default
  6
Continuous
100
AcDbVertex
100
AcDb2dVertex
 10
8.856669514936375
 20
23.31684095897035
 30
0.0
  0
VERTEX
  5
111
330
10F
100
AcDbEntity
  8
Default
  6
Continuous
100
AcDbVertex
100
AcDb2dVertex
 10
8.852520283786376
 20
23.35350249382035
 30
0.0
  0
VERTEX
  5
112
330
10F
100
AcDbEntity
  8
Default
  6
Continuous
100
AcDbVertex
100
AcDb2dVertex
 10
8.843560861386372
 20
23.39376706852035
 30
0.0
  0
VERTEX
  5
113
330
10F
100
AcDbEntity
  8
Default
  6
Continuous
100
AcDbVertex
100
AcDb2dVertex
 10
8.829910134986378
 20
23.43449656742035
 30
0.0
  0
VERTEX
  5
114
330
10F
100
AcDbEntity
  8
Default
  6
Continuous
100
AcDbVertex
100
AcDb2dVertex
 10
8.811612983486377
 20
23.47528492662035
 30
0.0
  0
VERTEX
  5
115
330
10F
100
AcDbEntity
  8
Default
  6
Continuous
100
AcDbVertex
100
AcDb2dVertex
 10
8.788935990586374
 20
23.51538771962035
 30
0.0
  0
VERTEX
  5
116
330
10F
100
AcDbEntity
  8
Default
  6
Continuous
100
AcDbVertex
100
AcDb2dVertex
 10
8.762263728286378
 20
23.55408885682035
 30
0.0
  0
VERTEX
  5
117
330
10F
100
AcDbEntity
  8
Default
  6
Continuous
100
AcDbVertex
100
AcDb2dVertex
 10
8.731895074886374
 20
23.59112164962035
 30
0.0
  0
VERTEX
  5
118
330
10F
100
AcDbEntity
  8
Default
  6
Continuous
100
AcDbVertex
100
AcDb2dVertex
 10
8.697938609486371
 20
23.62638666522035
 30
0.0
  0
VERTEX
  5
119
330
10F
100
AcDbEntity
  8
Default
  6
Continuous
100
AcDbVertex
100
AcDb2dVertex
 10
8.660747692886375
 20
23.65939521462035
 30
0.0
  0
VERTEX
  5
11A
330
10F
100
AcDbEntity
  8
Default
  6
Continuous
100
AcDbVertex
100
AcDb2dVertex
 10
8.620683074886372
 20
23.68965050742035
 30
0.0
  0
VERTEX
  5
11B
330
10F
100
AcDbEntity
  8
Default
  6
Continuous
100
AcDbVertex
100
AcDb2dVertex
 10
8.577695469086372
 20
23.71693476012035
 30
0.0
  0
VERTEX
  5
11C
330
10F
100
AcDbEntity
  8
Default
  6
Continuous
100
AcDbVertex
100
AcDb2dVertex
 10
8.532088203886374
 20
23.74087229432035
 30
0.0
  0
VERTEX
  5
11D
330
10F
100
AcDbEntity
  8
Default
  6
Continuous
100
AcDbVertex
100
AcDb2dVertex
 10
8.484357780486377
 20
23.76103012422035
 30
0.0
  0
VERTEX
  5
11E
330
10F
100
AcDbEntity
  8
Default
  6
Continuous
100
AcDbVertex
100
AcDb2dVertex
 10
8.434742103486371
 20
23.77706573772035
 30
0.0
  0
VERTEX
  5
11F
330
10F
100
AcDbEntity
  8
Default
  6
Continuous
100
AcDbVertex
100
AcDb2dVertex
 10
8.383237544586372
 20
23.78857568242035
 30
0.0
  0
VERTEX
  5
120
330
10F
100
AcDbEntity
  8
Default
  6
Continuous
100
AcDbVertex
100
AcDb2dVertex
 10
8.330706849286372
 20
23.79489139102035
 30
0.0
  0
VERTEX
  5
121
330
10F
100
AcDbEntity
  8
Default
  6
Continuous
100
AcDbVertex
100
AcDb2dVertex
 10
8.278540630586377
 20
23.79561821852035
 30
0.0
  0
VERTEX
  5
122
330
10F
100
AcDbEntity
  8
Default
  6
Continuous
100
AcDbVertex
100
AcDb2dVertex
 10
8.227275392386375
 20
23.79078934892035
 30
0.0
  0
VERTEX
  5
123
330
10F
100
AcDbEntity
  8
Default
  6
Continuous
100
AcDbVertex
100
AcDb2dVertex
 10
8.184632817336375
 20
23.78244575417035
 30
0.0
  0
SEQEND
  5
124
330
10F
100
AcDbEntity
  8
Default
  6
Continuous
  0
SPLINE
  5
125
330
1F
100
AcDbEntity
  8
Default
  6
Continuous
100
AcDbSpline
210
0.0
220
0.0
230
1.0
 70
     8
 71
     3
 72
    18
 73
    14
 74
     0
 42
0.0000000001
 43
0.0000000001
 40
-1.0
 40
-1.0
 40
-1.0
 40
-1.0
 40
-0.8750081791
 40
-0.7499789443
 40
-0.6249436351
 40
-0.5624383698
 40
-0.4999437434999999
 40
-0.3749621818999999
 40
-0.3124677566999999
 40
-0.2499711677999999
 40
-0.1874745831999999
 40
-0.1249804684999999
 40
0.0000000000000001
 40
0.0000000000000001
 40
0.0000000000000001
 40
0.0000000000000001
 10
8.184632817336375
 20
23.78244575417035
 30
0.0
 10
8.051791485586378
 20
23.75018465632035
 30
0.0
 10
7.784971438686377
 20
23.69009263512035
 30
0.0
 10
7.382131751886376
 20
23.61245622312035
 30
0.0
 10
7.044681492786374
 20
23.55745425802035
 30
0.0
 10
6.773947956586376
 20
23.51888184152035
 30
0.0
 10
6.502817284186378
 20
23.48366066902035
 30
0.0
 10
6.231152884386375
 20
23.45281788922035
 30
0.0
 10
5.959162773086376
 20
23.42514838712035
 30
0.0
 10
5.755034185486373
 20
23.40567814742035
 30
0.0
 10
5.550816643586373
 20
23.38717700262035
 30
0.0
 10
5.278456868986375
 20
23.36344410412035
 30
0.0
 10
5.074091382086372
 20
23.34679723492035
 30
0.0
 10
4.937807204986377
 20
23.33626982022035
 30
0.0
  0
ARC
  5
126
330
1F
100
AcDbEntity
  8
Default
  6
Continuous
100
AcDbCircle
 10
1.365881125282767
 20
69.57715804459615
 30
0.0
 40
46.37864163273956
100
AcDbArc
 50
273.0371332219661
 51
274.4171011840556
  0
SPLINE
  5
127
330
1F
100
AcDbEntity
  8
Default
  6
Continuous
100
AcDbSpline
210
0.0
220
0.0
230
1.0
 70
     8
 71
     3
 72
    11
 73
     7
 74
     0
 42
0.0000000001
 43
0.0000000001
 40
-1.0
 40
-1.0
 40
-1.0
 40
-1.0
 40
-0.749999645
 40
-0.499998972
 40
-0.2499992496
 40
0.0
 40
0.0
 40
0.0
 40
0.0
 10
3.823167837086372
 20
23.26365956182034
 30
0.0
 10
3.504892834986379
 20
23.24654246752035
 30
0.0
 10
2.868045158386366
 20
23.21769053142036
 30
0.0
 10
1.912276733886387
 20
23.18796026492036
 30
0.0
 10
0.9562079583863863
 20
23.17054043592035
 30
0.0
 10
0.3187335334863803
 20
23.16673492392036
 30
0.0
 10
-0.0000000128136151
 20
23.16673499092035
 30
0.0
  0
ARC
  5
128
330
1F
100
AcDbEntity
  8
Default
  6
Continuous
100
AcDbCircle
 10
9.005960717633398
 20
24.69981940840236
 30
0.0
 40
0.8091377359350247
100
AcDbArc
 50
1.999998651707802
 51
78.21805936045959
  0
LINE
  5
129
330
1F
100
AcDbEntity
  8
Default
  6
Continuous
100
AcDbLine
 10
9.814605549386371
 20
24.72805788912035
 30
0.0
 11
10.65940032144532
 21
0.5362845023119815
 31
0.0
  0
ARC
  5
12A
330
1F
100
AcDbEntity
  8
Default
100
AcDbCircle
 10
10.21289896591819
 20
0.4967366777676121
 30
0.0
 40
0.0450000000000031
100
AcDbArc
 50
84.94623189529702
 51
151.8554186914944
  0
ARC
  5
12B
330
1F
100
AcDbEntity
  8
Default
100
AcDbCircle
 10
10.3669217874172
 20
0.3896314204389224
 30
0.0
 40
0.2323563925989962
100
AcDbArc
 50
146.4746880561438
 51
179.9999999997297
  0
LINE
  5
12C
330
1F
100
AcDbEntity
  8
Default
100
AcDbLine
 10
10.1345653948182
 20
0.3896314204400184
 30
0.0
 11
10.13456539481726
 21
0.1908472409774351
 31
0.0
  0
ARC
  5
12D
330
1F
100
AcDbEntity
  8
Default
100
AcDbCircle
 10
10.32321417317109
 20
0.1902158427019343
 30
0.0
 40
0.188649834980513
100
AcDbArc
 50
179.8082345318599
 51
266.1832990629745
  0
LINE
  5
12E
330
1F
100
AcDbEntity
  8
Default
100
AcDbLine
 10
10.31065674537396
 20
0.0019844126874595
 30
0.0
 11
10.57673393753061
 21
0.0018801750462316
 31
0.0
  0
ARC
  5
12F
330
1F
100
AcDbEntity
  8
Default
100
AcDbCircle
 10
10.56526178194511
 20
0.1908358513888242
 30
0.0
 40
0.1893036132139703
100
AcDbArc
 50
273.4743610434411
 51
0.0034361639831619
  0
LINE
  5
130
330
1F
100
AcDbEntity
  8
Default
100
AcDbLine
 10
10.75456539481864
 20
0.1908472043761247
 30
0.0
 11
10.75455440491531
 21
0.374096630312529
 31
0.0
  0
SPLINE
  5
131
330
1F
100
AcDbEntity
  8
Default
100
AcDbSpline
210
0.0
220
0.0
230
1.0
 70
    12
 71
     2
 72
     6
 73
     3
 74
     0
 42
0.0000000001
 43
0.0000000001
 40
-0.1497768937663166
 40
-0.1497768937663166
 40
-0.1497768937663166
 40
0.0
 40
0.0
 40
0.0
 10
10.75455440491531
 20
0.374096630312529
 30
0.0
 41
1.0
 10
10.75393999442126
 20
0.4504744136498269
 30
0.0
 41
0.9709588602062039
 10
10.71685128913136
 20
0.5196776723326586
 30
0.0
 41
1.0
  0
ARC
  5
132
330
1F
100
AcDbEntity
  8
Default
100
AcDbCircle
 10
10.68359517937314
 20
0.4992149941024273
 30
0.0
 40
0.0390472795032539
100
AcDbArc
 50
31.60422799340262
 51
91.3362754975331
  0
POLYLINE
  5
133
330
1F
100
AcDbEntity
  8
Default
100
AcDb2dPolyline
 66
     1
 10
0.0
 20
0.0
 30
0.0
  0
VERTEX
  5
134
330
133
100
AcDbEntity
  8
Default
100
AcDbVertex
100
AcDb2dVertex
 10
10.68268458537848
 20
0.5382516545023917
 30
0.0
  0
VERTEX
  5
135
330
133
100
AcDbEntity
  8
Default
100
AcDbVertex
100
AcDb2dVertex
 10
10.65866100981819
 20
0.5362220421676147
 30
0.0
  0
SEQEND
  5
136
330
133
100
AcDbEntity
  8
Default
  0
SPLINE
  5
137
330
1F
100
AcDbEntity
  8
Default
  6
Continuous
100
AcDbSpline
210
0.0
220
0.0
230
1.0
 70
     8
 71
     3
 72
    20
 73
    16
 74
     0
 42
0.0000000001
 43
0.0000000001
 40
0.0
 40
0.0
 40
0.0
 40
0.0
 40
0.1249818288006854
 40
0.2499654919013708
 40
0.3124583160017135
 40
0.3749505078020562
 40
0.437441442302399
 40
0.4999307024027416
 40
0.5624187303030842
 40
0.624909187603427
 40
0.6874103023037696
 40
0.7499354359041126
 40
0.8124806946044556
 40
0.8750160626047985
 40
1.0
 40
1.0
 40
1.0
 40
1.0
 10
-2.169910837286373
 20
23.63439089452035
 30
0.0
 10
-2.417620826386376
 20
23.64137123152035
 30
0.0
 10
-2.912975795186377
 20
23.65793979162035
 30
0.0
 10
-3.531884027386376
 20
23.68603138602035
 30
0.0
 10
-4.026762854786377
 20
23.71330199872035
 30
0.0
 10
-4.397778860486376
 20
23.73619722292035
 30
0.0
 10
-4.768622756186375
 20
23.76162324632035
 30
0.0
 10
-5.139278141986374
 20
23.78956176042035
 30
0.0
 10
-5.509685322386375
 20
23.82063553252035
 30
0.0
 10
-5.879760263586377
 20
23.85572565462035
 30
0.0
 10
-6.249421317886373
 20
23.89566592862035
 30
0.0
 10
-6.618541722186372
 20
23.94123807802035
 30
0.0
 10
-6.986865609786378
 20
23.99346215692035
 30
0.0
 10
-7.476106289075645
 20
24.07404384701859
 30
0.0
 10
-7.840572245765058
 20
24.14910582071596
 30
0.0
 10
-8.081385117686374
 20
24.20758826827035
 30
0.0
  0
POLYLINE
  5
138
330
1F
100
AcDbEntity
  8
Default
  6
Continuous
100
AcDb2dPolyline
 66
     1
 10
0.0
 20
0.0
 30
0.0
  0
VERTEX
  5
139
330
138
100
AcDbEntity
  8
Default
  6
Continuous
100
AcDbVertex
100
AcDb2dVertex
 10
-8.081385117686374
 20
24.20758826827035
 30
0.0
  0
VERTEX
  5
13A
330
138
100
AcDbEntity
  8
Default
  6
Continuous
100
AcDbVertex
100
AcDb2dVertex
 10
-8.143901326586374
 20
24.22044853272035
 30
0.0
  0
VERTEX
  5
13B
330
138
100
AcDbEntity
  8
Default
  6
Continuous
100
AcDbVertex
100
AcDb2dVertex
 10
-8.231349167386377
 20
24.23092483682035
 30
0.0
  0
VERTEX
  5
13C
330
138
100
AcDbEntity
  8
Default
  6
Continuous
100
AcDbVertex
100
AcDb2dVertex
 10
-8.321762649586375
 20
24.23294946342035
 30
0.0
  0
VERTEX
  5
13D
330
138
100
AcDbEntity
  8
Default
  6
Continuous
100
AcDbVertex
100
AcDb2dVertex
 10
-8.413937986186376
 20
24.22605141192035
 30
0.0
  0
VERTEX
  5
13E
330
138
100
AcDbEntity
  8
Default
  6
Continuous
100
AcDbVertex
100
AcDb2dVertex
 10
-8.505732336486375
 20
24.21019619692035
 30
0.0
  0
VERTEX
  5
13F
330
138
100
AcDbEntity
  8
Default
  6
Continuous
100
AcDbVertex
100
AcDb2dVertex
 10
-8.596349624286376
 20
24.18547593802035
 30
0.0
  0
VERTEX
  5
140
330
138
100
AcDbEntity
  8
Default
  6
Continuous
100
AcDbVertex
100
AcDb2dVertex
 10
-8.685165170786377
 20
24.15199611882035
 30
0.0
  0
VERTEX
  5
141
330
138
100
AcDbEntity
  8
Default
  6
Continuous
100
AcDbVertex
100
AcDb2dVertex
 10
-8.770439050986376
 20
24.11052818272035
 30
0.0
  0
VERTEX
  5
142
330
138
100
AcDbEntity
  8
Default
  6
Continuous
100
AcDbVertex
100
AcDb2dVertex
 10
-8.851660376286375
 20
24.06160635082035
 30
0.0
  0
VERTEX
  5
143
330
138
100
AcDbEntity
  8
Default
  6
Continuous
100
AcDbVertex
100
AcDb2dVertex
 10
-8.928352642086374
 20
24.00572898962035
 30
0.0
  0
VERTEX
  5
144
330
138
100
AcDbEntity
  8
Default
  6
Continuous
100
AcDbVertex
100
AcDb2dVertex
 10
-8.999092685486374
 20
23.94400734742035
 30
0.0
  0
VERTEX
  5
145
330
138
100
AcDbEntity
  8
Default
  6
Continuous
100
AcDbVertex
100
AcDb2dVertex
 10
-9.063513982286374
 20
23.87683443822035
 30
0.0
  0
VERTEX
  5
146
330
138
100
AcDbEntity
  8
Default
  6
Continuous
100
AcDbVertex
100
AcDb2dVertex
 10
-9.121169444186371
 20
23.80468199352035
 30
0.0
  0
VERTEX
  5
147
330
138
100
AcDbEntity
  8
Default
  6
Continuous
100
AcDbVertex
100
AcDb2dVertex
 10
-9.170989846386377
 20
23.72911985142035
 30
0.0
  0
VERTEX
  5
148
330
138
100
AcDbEntity
  8
Default
  6
Continuous
100
AcDbVertex
100
AcDb2dVertex
 10
-9.212801409186376
 20
23.65070639382035
 30
0.0
  0
VERTEX
  5
149
330
138
100
AcDbEntity
  8
Default
  6
Continuous
100
AcDbVertex
100
AcDb2dVertex
 10
-9.246298827586372
 20
23.56998671632035
 30
0.0
  0
VERTEX
  5
14A
330
138
100
AcDbEntity
  8
Default
  6
Continuous
100
AcDbVertex
100
AcDb2dVertex
 10
-9.270886829586374
 20
23.48890141272035
 30
0.0
  0
SEQEND
  5
14B
330
138
100
AcDbEntity
  8
Default
  6
Continuous
  0
LINE
  5
14C
330
1F
100
AcDbEntity
  8
Default
  6
Continuous
100
AcDbLine
 10
-9.270886829586374
 20
23.48890141272035
 30
0.0
 11
-9.286659247786375
 21
23.40876189042035
 31
0.0
  0
ARC
  5
14D
330
1F
100
AcDbEntity
  8
Default
  6
Continuous
100
AcDbCircle
 10
-8.934903384561634
 20
23.33953212188849
 30
0.0
 40
0.3585037631098975
100
AcDbArc
 50
168.8658093257628
 51
179.4572531309406
  0
LINE
  5
14E
330
1F
100
AcDbEntity
  8
Default
100
AcDbLine
 10
-9.293391063086375
 20
23.34292807682035
 30
0.0
 11
-10.66467537522244
 21
0.3835062190830412
 31
0.0
  0
ARC
  5
14F
330
1F
100
AcDbEntity
  8
Default
100
AcDbCircle
 10
-10.4463144789755
 20
0.3704646894609036
 30
0.0
 40
0.2187500000106266
100
AcDbArc
 50
176.5820893000951
 51
356.5824660867905
  0
LINE
  5
150
330
1F
100
AcDbEntity
  8
Default
100
AcDbLine
 10
-10.22795349697
 20
0.3574245958170756
 30
0.0
 11
-9.792124529186374
 21
7.654511742220352
 31
0.0
  0
LINE
  5
151
330
1F
100
AcDbEntity
  8
Default
  6
Continuous
100
AcDbLine
 10
-9.766350446086378
 20
8.086047378520352
 30
0.0
 11
-8.856669514936375
 21
23.31684095897035
 31
0.0
  0
POLYLINE
  5
152
330
1F
100
AcDbEntity
  8
Default
  6
Continuous
100
AcDb2dPolyline
 66
     1
 10
0.0
 20
0.0
 30
0.0
  0
VERTEX
  5
153
330
152
100
AcDbEntity
  8
Default
  6
Continuous
100
AcDbVertex
100
AcDb2dVertex
 10
-8.856669514936375
 20
23.31684095897035
 30
0.0
  0
VERTEX
  5
154
330
152
100
AcDbEntity
  8
Default
  6
Continuous
100
AcDbVertex
100
AcDb2dVertex
 10
-8.852520283786376
 20
23.35350249382035
 30
0.0
  0
VERTEX
  5
155
330
152
100
AcDbEntity
  8
Default
  6
Continuous
100
AcDbVertex
100
AcDb2dVertex
 10
-8.843560861386372
 20
23.39376706852035
 30
0.0
  0
VERTEX
  5
156
330
152
100
AcDbEntity
  8
Default
  6
Continuous
100
AcDbVertex
100
AcDb2dVertex
 10
-8.829910134986378
 20
23.43449656742035
 30
0.0
  0
VERTEX
  5
157
330
152
100
AcDbEntity
  8
Default
  6
Continuous
100
AcDbVertex
100
AcDb2dVertex
 10
-8.811612983486377
 20
23.47528492662035
 30
0.0
  0
VERTEX
  5
158
330
152
100
AcDbEntity
  8
Default
  6
Continuous
100
AcDbVertex
100
AcDb2dVertex
 10
-8.788935990586374
 20
23.51538771962035
 30
0.0
  0
VERTEX
  5
159
330
152
100
AcDbEntity
  8
Default
  6
Continuous
100
AcDbVertex
100
AcDb2dVertex
 10
-8.762263728286378
 20
23.55408885682035
 30
0.0
  0
VERTEX
  5
15A
330
152
100
AcDbEntity
  8
Default
  6
Continuous
100
AcDbVertex
100
AcDb2dVertex
 10
-8.731895074886374
 20
23.59112164962035
 30
0.0
  0
VERTEX
  5
15B
330
152
100
AcDbEntity
  8
Default
  6
Continuous
100
AcDbVertex
100
AcDb2dVertex
 10
-8.697938609486371
 20
23.62638666522035
 30
0.0
  0
VERTEX
  5
15C
330
152
100
AcDbEntity
  8
Default
  6
Continuous
100
AcDbVertex
100
AcDb2dVertex
 10
-8.660747692886375
 20
23.65939521462035
 30
0.0
  0
VERTEX
  5
15D
330
152
100
AcDbEntity
  8
Default
  6
Continuous
100
AcDbVertex
100
AcDb2dVertex
 10
-8.620683074886372
 20
23.68965050742035
 30
0.0
  0
VERTEX
  5
15E
330
152
100
AcDbEntity
  8
Default
  6
Continuous
100
AcDbVertex
100
AcDb2dVertex
 10
-8.577695469086372
 20
23.71693476012035
 30
0.0
  0
VERTEX
  5
15F
330
152
100
AcDbEntity
  8
Default
  6
Continuous
100
AcDbVertex
100
AcDb2dVertex
 10
-8.532088203886374
 20
23.74087229432035
 30
0.0
  0
VERTEX
  5
160
330
152
100
AcDbEntity
  8
Default
  6
Continuous
100
AcDbVertex
100
AcDb2dVertex
 10
-8.484357780486377
 20
23.76103012422035
 30
0.0
  0
VERTEX
  5
161
330
152
100
AcDbEntity
  8
Default
  6
Continuous
100
AcDbVertex
100
AcDb2dVertex
 10
-8.434742103486371
 20
23.77706573772035
 30
0.0
  0
VERTEX
  5
162
330
152
100
AcDbEntity
  8
Default
  6
Continuous
100
AcDbVertex
100
AcDb2dVertex
 10
-8.383237544586372
 20
23.78857568242035
 30
0.0
  0
VERTEX
  5
163
330
152
100
AcDbEntity
  8
Default
  6
Continuous
100
AcDbVertex
100
AcDb2dVertex
 10
-8.330706849286372
 20
23.79489139102035
 30
0.0
  0
VERTEX
  5
164
330
152
100
AcDbEntity
  8
Default
  6
Continuous
100
AcDbVertex
100
AcDb2dVertex
 10
-8.278540630586377
 20
23.79561821852035
 30
0.0
  0
VERTEX
  5
165
330
152
100
AcDbEntity
  8
Default
  6
Continuous
100
AcDbVertex
100
AcDb2dVertex
 10
-8.227275392386375
 20
23.79078934892035
 30
0.0
  0
VERTEX
  5
166
330
152
100
AcDbEntity
  8
Default
  6
Continuous
100
AcDbVertex
100
AcDb2dVertex
 10
-8.184632817336375
 20
23.78244575417035
 30
0.0
  0
SEQEND
  5
167
330
152
100
AcDbEntity
  8
Default
  6
Continuous
  0
SPLINE
  5
168
330
1F
100
AcDbEntity
  8
Default
  6
Continuous
100
AcDbSpline
210
0.0
220
0.0
230
1.0
 70
     8
 71
     3
 72
    18
 73
    14
 74
     0
 42
0.0000000001
 43
0.0000000001
 40
-1.0
 40
-1.0
 40
-1.0
 40
-1.0
 40
-0.8750081791
 40
-0.7499789443
 40
-0.6249436351
 40
-0.5624383698
 40
-0.4999437434999999
 40
-0.3749621818999999
 40
-0.3124677566999999
 40
-0.2499711677999999
 40
-0.1874745831999999
 40
-0.1249804684999999
 40
0.0000000000000001
 40
0.0000000000000001
 40
0.0000000000000001
 40
0.0000000000000001
 10
-8.184632817336375
 20
23.78244575417035
 30
0.0
 10
-8.051791485586378
 20
23.75018465632035
 30
0.0
 10
-7.784971438686377
 20
23.69009263512035
 30
0.0
 10
-7.382131751886376
 20
23.61245622312035
 30
0.0
 10
-7.044681492786374
 20
23.55745425802035
 30
0.0
 10
-6.773947956586376
 20
23.51888184152035
 30
0.0
 10
-6.502817284186378
 20
23.48366066902035
 30
0.0
 10
-6.231152884386375
 20
23.45281788922035
 30
0.0
 10
-5.959162773086376
 20
23.42514838712035
 30
0.0
 10
-5.755034185486373
 20
23.40567814742035
 30
0.0
 10
-5.550816643586373
 20
23.38717700262035
 30
0.0
 10
-5.278456868986375
 20
23.36344410412035
 30
0.0
 10
-5.074091382086372
 20
23.34679723492035
 30
0.0
 10
-4.937807204986377
 20
23.33626982022035
 30
0.0
  0
ARC
  5
169
330
1F
100
AcDbEntity
  8
Default
  6
Continuous
100
AcDbCircle
 10
-1.365881125282767
 20
69.57715804459615
 30
0.0
 40
46.37864163273956
100
AcDbArc
 50
265.5828988159444
 51
266.9628667780339
  0
SPLINE
  5
16A
330
1F
100
AcDbEntity
  8
Default
  6
Continuous
100
AcDbSpline
210
0.0
220
0.0
230
1.0
 70
     8
 71
     3
 72
    11
 73
     7
 74
     0
 42
0.0000000001
 43
0.0000000001
 40
-1.0
 40
-1.0
 40
-1.0
 40
-1.0
 40
-0.749999645
 40
-0.499998972
 40
-0.2499992496
 40
0.0
 40
0.0
 40
0.0
 40
0.0
 10
-3.823167837086372
 20
23.26365956182034
 30
0.0
 10
-3.504892834986379
 20
23.24654246752035
 30
0.0
 10
-2.868045158386366
 20
23.21769053142036
 30
0.0
 10
-1.912276733886387
 20
23.18796026492036
 30
0.0
 10
-0.9562079583863863
 20
23.17054043592035
 30
0.0
 10
-0.3187335334863803
 20
23.16673492392036
 30
0.0
 10
0.0000000128136151
 20
23.16673499092035
 30
0.0
  0
ARC
  5
16B
330
1F
100
AcDbEntity
  8
Default
  6
Continuous
100
AcDbCircle
 10
-9.005960717633398
 20
24.69981940840236
 30
0.0
 40
0.8091377359350247
100
AcDbArc
 50
101.7819406395404
 51
178.0000013482922
  0
LINE
  5
16C
330
1F
100
AcDbEntity
  8
Default
  6
Continuous
100
AcDbLine
 10
-9.814605549386371
 20
24.72805788912035
 30
0.0
 11
-10.65940032144532
 21
0.5362845023119815
 31
0.0
  0
ARC
  5
16D
330
1F
100
AcDbEntity
  8
Default
100
AcDbCircle
 10
-10.21289896591819
 20
0.4967366777676121
 30
0.0
 40
0.0450000000000031
100
AcDbArc
 50
28.14458130850558
 51
95.053768104703
  0
ARC
  5
16E
330
1F
100
AcDbEntity
  8
Default
100
AcDbCircle
 10
-10.3669217874172
 20
0.3896314204389224
 30
0.0
 40
0.2323563925989962
100
AcDbArc
 50
0.0000000002703158
 51
33.52531194385618
  0
LINE
  5
16F
330
1F
100
AcDbEntity
  8
Default
100
AcDbLine
 10
-10.1345653948182
 20
0.3896314204400184
 30
0.0
 11
-10.13456539481726
 21
0.1908472409774351
 31
0.0
  0
ARC
  5
170
330
1F
100
AcDbEntity
  8
Default
100
AcDbCircle
 10
-10.32321417317109
 20
0.1902158427019343
 30
0.0
 40
0.188649834980513
100
AcDbArc
 50
273.8167009370255
 51
0.1917654681400946
  0
LINE
  5
171
330
1F
100
AcDbEntity
  8
Default
100
AcDbLine
 10
-10.31065674537396
 20
0.0019844126874595
 30
0.0
 11
-10.57673393753061
 21
0.0018801750462316
 31
0.0
  0
ARC
  5
172
330
1F
100
AcDbEntity
  8
Default
100
AcDbCircle
 10
-10.56526178194511
 20
0.1908358513888242
 30
0.0
 40
0.1893036132139703
100
AcDbArc
 50
179.9965638360168
 51
266.5256389565589
  0
LINE
  5
173
330
1F
100
AcDbEntity
  8
Default
100
AcDbLine
 10
-10.75456539481864
 20
0.1908472043761247
 30
0.0
 11
-10.75455440491531
 21
0.374096630312529
 31
0.0
  0
SPLINE
  5
174
330
1F
100
AcDbEntity
  8
Default
100
AcDbSpline
210
0.0
220
0.0
230
1.0
 70
    12
 71
     2
 72
     6
 73
     3
 74
     0
 42
0.0000000001
 43
0.0000000001
 40
-0.1497768937663166
 40
-0.1497768937663166
 40
-0.1497768937663166
 40
0.0
 40
0.0
 40
0.0
 10
-10.75455440491531
 20
0.374096630312529
 30
0.0
 41
1.0
 10
-10.75393999442126
 20
0.4504744136498269
 30
0.0
 41
0.9709588602062039
 10
-10.71685128913136
 20
0.5196776723326586
 30
0.0
 41
1.0
  0
ARC
  5
175
330
1F
100
AcDbEntity
  8
Default
100
AcDbCircle
 10
-10.68359517937314
 20
0.4992149941024273
 30
0.0
 40
0.0390472795032539
100
AcDbArc
 50
88.66372450246692
 51
148.3957720065974
  0
POLYLINE
  5
176
330
1F
100
AcDbEntity
  8
Default
100
AcDb2dPolyline
 66
     1
 10
0.0
 20
0.0
 30
0.0
  0
VERTEX
  5
177
330
176
100
AcDbEntity
  8
Default
100
AcDbVertex
100
AcDb2dVertex
 10
-10.68268458537848
 20
0.5382516545023917
 30
0.0
  0
VERTEX
  5
178
330
176
100
AcDbEntity
  8
Default
100
AcDbVertex
100
AcDb2dVertex
 10
-10.65866100981819
 20
0.5362220421676147
 30
0.0
  0
SEQEND
  5
179
330
176
100
AcDbEntity
  8
Default
  0
POLYLINE
  5
17A
330
1F
100
AcDbEntity
  8
Default
100
AcDb2dPolyline
 66
     1
 10
0.0
 20
0.0
 30
0.0
  0
VERTEX
  5
17B
330
17A
100
AcDbEntity
  8
Default
100
AcDbVertex
100
AcDb2dVertex
 10
9.796057474886375
 20
7.651971491320353
 30
0.0
  0
VERTEX
  5
17C
330
17A
100
AcDbEntity
  8
Default
100
AcDbVertex
100
AcDb2dVertex
 10
9.998350912886373
 20
7.906041417620353
 30
0.0
  0
VERTEX
  5
17D
330
17A
100
AcDbEntity
  8
Default
100
AcDbVertex
100
AcDb2dVertex
 10
9.77100068255
 20
8.089471491320353
 30
0.0
  0
SEQEND
  5
17E
330
17A
100
AcDbEntity
  8
Default
  0
LINE
  5
17F
330
1F
100
AcDbEntity
  8
Default
100
AcDbLine
 10
9.77100068255
 20
8.089471491320353
 30
0.0
 11
-9.771000662186374
 21
8.089471491320353
 31
0.0
  0
POLYLINE
  5
180
330
1F
100
AcDbEntity
  8
Default
100
AcDb2dPolyline
 66
     1
 10
0.0
 20
0.0
 30
0.0
  0
VERTEX
  5
181
330
180
100
AcDbEntity
  8
Default
100
AcDbVertex
100
AcDb2dVertex
 10
-9.771000662186374
 20
8.089471491320353
 30
0.0
  0
VERTEX
  5
182
330
180
100
AcDbEntity
  8
Default
100
AcDbVertex
100
AcDb2dVertex
 10
-9.998350912886373
 20
7.906041417620353
 30
0.0
  0
VERTEX
  5
183
330
180
100
AcDbEntity
  8
Default
100
AcDbVertex
100
AcDb2dVertex
 10
-9.796057474886375
 20
7.651971491320353
 30
0.0
  0
SEQEND
  5
184
330
180
100
AcDbEntity
  8
Default
  0
LINE
  5
185
330
1F
100
AcDbEntity
  8
Default
100
AcDbLine
 10
-9.796057474886375
 20
7.651971491320353
 30
0.0
 11
9.796057474886375
 21
7.651971491320353
 31
0.0
  0
ARC
  5
186
330
1F
100
AcDbEntity
  8
Default
  6
Continuous
100
AcDbCircle
 10
10.38696594296522
 20
67.92346017761966
 30
0.0
 40
0.2581654357929816
100
AcDbArc
 50
8.547752728257366
 51
31.30067820895136
  0
SPLINE
  5
187
330
1F
100
AcDbEntity
  8
Default
  6
Continuous
100
AcDbSpline
210
0.0
220
0.0
230
1.0
 70
     8
 71
     3
 72
    11
 73
     7
 74
     0
 42
0.0000000001
 43
0.0000000001
 40
0.0
 40
0.0
 40
0.0
 40
0.0
 40
1.0
 40
2.0
 40
3.0
 40
4.0
 40
4.0
 40
4.0
 40
4.0
 10
10.64226376210027
 20
67.9618322479712
 30
0.0
 10
10.6520732438254
 20
67.89656760969845
 30
0.0
 10
10.6579808099288
 20
67.76466818187485
 30
0.0
 10
10.66282294451301
 20
67.56694100247603
 30
0.0
 10
10.66472155108802
 20
67.3690970675003
 30
0.0
 10
10.66506174753649
 20
67.23721221222475
 30
0.0
 10
10.66504659836066
 20
67.17126664088178
 30
0.0
  0
LINE
  5
188
330
1F
100
AcDbEntity
  8
Default
  6
Continuous
100
AcDbLine
 10
10.66513986635643
 20
46.94472092579372
 30
0.0
 11
10.66486416200002
 21
46.84478015457121
 31
0.0
  0
POLYLINE
  5
189
330
1F
100
AcDbEntity
  8
Default
  6
Continuous
100
AcDb2dPolyline
 66
     1
 10
0.0
 20
0.0
 30
0.0
  0
VERTEX
  5
18A
330
189
100
AcDbEntity
  8
Default
  6
Continuous
100
AcDbVertex
100
AcDb2dVertex
 10
10.66486416200002
 20
46.84478015457121
 30
0.0
  0
VERTEX
  5
18B
330
189
100
AcDbEntity
  8
Default
  6
Continuous
100
AcDbVertex
100
AcDb2dVertex
 10
10.66459638630001
 20
46.79188434837121
 30
0.0
  0
VERTEX
  5
18C
330
189
100
AcDbEntity
  8
Default
  6
Continuous
100
AcDbVertex
100
AcDb2dVertex
 10
10.66419849810002
 20
46.73965714767121
 30
0.0
  0
VERTEX
  5
18D
330
189
100
AcDbEntity
  8
Default
  6
Continuous
100
AcDbVertex
100
AcDb2dVertex
 10
10.66366129980001
 20
46.68827277337121
 30
0.0
  0
VERTEX
  5
18E
330
189
100
AcDbEntity
  8
Default
  6
Continuous
100
AcDbVertex
100
AcDb2dVertex
 10
10.66297704720002
 20
46.6379512917712
 30
0.0
  0
VERTEX
  5
18F
330
189
100
AcDbEntity
  8
Default
  6
Continuous
100
AcDbVertex
100
AcDb2dVertex
 10
10.66213747950002
 20
46.5888288497712
 30
0.0
  0
VERTEX
  5
190
330
189
100
AcDbEntity
  8
Default
  6
Continuous
100
AcDbVertex
100
AcDb2dVertex
 10
10.66113392630002
 20
46.5410779685712
 30
0.0
  0
VERTEX
  5
191
330
189
100
AcDbEntity
  8
Default
  6
Continuous
100
AcDbVertex
100
AcDb2dVertex
 10
10.65995841110001
 20
46.4949227900712
 30
0.0
  0
VERTEX
  5
192
330
189
100
AcDbEntity
  8
Default
  6
Continuous
100
AcDbVertex
100
AcDb2dVertex
 10
10.65859278550001
 20
46.4502663110712
 30
0.0
  0
VERTEX
  5
193
330
189
100
AcDbEntity
  8
Default
  6
Continuous
100
AcDbVertex
100
AcDb2dVertex
 10
10.65703225600001
 20
46.4074683479712
 30
0.0
  0
VERTEX
  5
194
330
189
100
AcDbEntity
  8
Default
  6
Continuous
100
AcDbVertex
100
AcDb2dVertex
 10
10.65529914640001
 20
46.3672330178712
 30
0.0
  0
VERTEX
  5
195
330
189
100
AcDbEntity
  8
Default
  6
Continuous
100
AcDbVertex
100
AcDb2dVertex
 10
10.65339009740001
 20
46.32949284307121
 30
0.0
  0
VERTEX
  5
196
330
189
100
AcDbEntity
  8
Default
  6
Continuous
100
AcDbVertex
100
AcDb2dVertex
 10
10.65129886600001
 20
46.2942427665712
 30
0.0
  0
VERTEX
  5
197
330
189
100
AcDbEntity
  8
Default
  6
Continuous
100
AcDbVertex
100
AcDb2dVertex
 10
10.64905068980001
 20
46.2619275911712
 30
0.0
  0
VERTEX
  5
198
330
189
100
AcDbEntity
  8
Default
  6
Continuous
100
AcDbVertex
100
AcDb2dVertex
 10
10.64665244370001
 20
46.23243866897121
 30
0.0
  0
VERTEX
  5
199
330
189
100
AcDbEntity
  8
Default
  6
Continuous
100
AcDbVertex
100
AcDb2dVertex
 10
10.64409232620001
 20
46.20546335307121
 30
0.0
  0
VERTEX
  5
19A
330
189
100
AcDbEntity
  8
Default
  6
Continuous
100
AcDbVertex
100
AcDb2dVertex
 10
10.64136304250001
 20
46.18083532317121
 30
0.0
  0
VERTEX
  5
19B
330
189
100
AcDbEntity
  8
Default
  6
Continuous
100
AcDbVertex
100
AcDb2dVertex
 10
10.63846188040001
 20
46.15844805917121
 30
0.0
  0
VERTEX
  5
19C
330
189
100
AcDbEntity
  8
Default
  6
Continuous
100
AcDbVertex
100
AcDb2dVertex
 10
10.63534156380001
 20
46.1378937732712
 30
0.0
  0
SEQEND
  5
19D
330
189
100
AcDbEntity
  8
Default
  6
Continuous
  0
LINE
  5
19E
330
1F
100
AcDbEntity
  8
Default
  6
Continuous
100
AcDbLine
 10
10.63534156380001
 20
46.1378937732712
 30
0.0
 11
10.63210205180001
 21
46.1196576706712
 31
0.0
  0
ARC
  5
19F
330
1F
100
AcDbEntity
  8
Default
  6
Continuous
100
AcDbCircle
 10
10.27557313926431
 20
46.18299245858275
 30
0.0
 40
0.3621107024567041
100
AcDbArc
 50
330.0859474124026
 51
349.9268999061493
  0
POLYLINE
  5
1A0
330
1F
100
AcDbEntity
  8
Default
  6
Continuous
100
AcDb2dPolyline
 66
     1
 10
0.0
 20
0.0
 30
0.0
  0
VERTEX
  5
1A1
330
1A0
100
AcDbEntity
  8
Default
  6
Continuous
100
AcDbVertex
100
AcDb2dVertex
 10
10.58944144850001
 20
46.0024077269712
 30
0.0
  0
VERTEX
  5
1A2
330
1A0
100
AcDbEntity
  8
Default
  6
Continuous
100
AcDbVertex
100
AcDb2dVertex
 10
10.57478606400001
 20
45.98157233117121
 30
0.0
  0
VERTEX
  5
1A3
330
1A0
100
AcDbEntity
  8
Default
  6
Continuous
100
AcDbVertex
100
AcDb2dVertex
 10
10.55621158920001
 20
45.96058210197121
 30
0.0
  0
VERTEX
  5
1A4
330
1A0
100
AcDbEntity
  8
Default
  6
Continuous
100
AcDbVertex
100
AcDb2dVertex
 10
10.53355254280001
 20
45.94063366237121
 30
0.0
  0
VERTEX
  5
1A5
330
1A0
100
AcDbEntity
  8
Default
  6
Continuous
100
AcDbVertex
100
AcDb2dVertex
 10
10.50813659350001
 20
45.9236266772712
 30
0.0
  0
VERTEX
  5
1A6
330
1A0
100
AcDbEntity
  8
Default
  6
Continuous
100
AcDbVertex
100
AcDb2dVertex
 10
10.48058727830001
 20
45.9101438163712
 30
0.0
  0
VERTEX
  5
1A7
330
1A0
100
AcDbEntity
  8
Default
  6
Continuous
100
AcDbVertex
100
AcDb2dVertex
 10
10.45098900530001
 20
45.90038659277121
 30
0.0
  0
VERTEX
  5
1A8
330
1A0
100
AcDbEntity
  8
Default
  6
Continuous
100
AcDbVertex
100
AcDb2dVertex
 10
10.420612082
 20
45.8948343114712
 30
0.0
  0
VERTEX
  5
1A9
330
1A0
100
AcDbEntity
  8
Default
  6
Continuous
100
AcDbVertex
100
AcDb2dVertex
 10
10.39010805150001
 20
45.89348150907121
 30
0.0
  0
VERTEX
  5
1AA
330
1A0
100
AcDbEntity
  8
Default
  6
Continuous
100
AcDbVertex
100
AcDb2dVertex
 10
10.35995353570001
 20
45.89622706717121
 30
0.0
  0
VERTEX
  5
1AB
330
1A0
100
AcDbEntity
  8
Default
  6
Continuous
100
AcDbVertex
100
AcDb2dVertex
 10
10.33122117260001
 20
45.9027521807712
 30
0.0
  0
VERTEX
  5
1AC
330
1A0
100
AcDbEntity
  8
Default
  6
Continuous
100
AcDbVertex
100
AcDb2dVertex
 10
10.30414242290001
 20
45.91270381197121
 30
0.0
  0
VERTEX
  5
1AD
330
1A0
100
AcDbEntity
  8
Default
  6
Continuous
100
AcDbVertex
100
AcDb2dVertex
 10
10.27919784180001
 20
45.92560245217122
 30
0.0
  0
VERTEX
  5
1AE
330
1A0
100
AcDbEntity
  8
Default
  6
Continuous
100
AcDbVertex
100
AcDb2dVertex
 10
10.2574662809
 20
45.94032352557122
 30
0.0
  0
VERTEX
  5
1AF
330
1A0
100
AcDbEntity
  8
Default
  6
Continuous
100
AcDbVertex
100
AcDb2dVertex
 10
10.23895090610001
 20
45.95603627087121
 30
0.0
  0
VERTEX
  5
1B0
330
1A0
100
AcDbEntity
  8
Default
  6
Continuous
100
AcDbVertex
100
AcDb2dVertex
 10
10.22325527470001
 20
45.97225991397121
 30
0.0
  0
VERTEX
  5
1B1
330
1A0
100
AcDbEntity
  8
Default
  6
Continuous
100
AcDbVertex
100
AcDb2dVertex
 10
10.21040883440001
 20
45.98809394297122
 30
0.0
  0
VERTEX
  5
1B2
330
1A0
100
AcDbEntity
  8
Default
  6
Continuous
100
AcDbVertex
100
AcDb2dVertex
 10
10.20024193190001
 20
46.00272205027122
 30
0.0
  0
VERTEX
  5
1B3
330
1A0
100
AcDbEntity
  8
Default
  6
Continuous
100
AcDbVertex
100
AcDb2dVertex
 10
10.19205657340001
 20
46.01619774887121
 30
0.0
  0
VERTEX
  5
1B4
330
1A0
100
AcDbEntity
  8
Default
  6
Continuous
100
AcDbVertex
100
AcDb2dVertex
 10
10.18513249010001
 20
46.02904876217121
 30
0.0
  0
VERTEX
  5
1B5
330
1A0
100
AcDbEntity
  8
Default
  6
Continuous
100
AcDbVertex
100
AcDb2dVertex
 10
10.17925907550001
 20
46.04119063427122
 30
0.0
  0
VERTEX
  5
1B6
330
1A0
100
AcDbEntity
  8
Default
  6
Continuous
100
AcDbVertex
100
AcDb2dVertex
 10
10.17426343950001
 20
46.05254938037122
 30
0.0
  0
VERTEX
  5
1B7
330
1A0
100
AcDbEntity
  8
Default
  6
Continuous
100
AcDbVertex
100
AcDb2dVertex
 10
10.16971959910001
 20
46.06379880097121
 30
0.0
  0
VERTEX
  5
1B8
330
1A0
100
AcDbEntity
  8
Default
  6
Continuous
100
AcDbVertex
100
AcDb2dVertex
 10
10.16625582485001
 20
46.07300792402121
 30
0.0
  0
SEQEND
  5
1B9
330
1A0
100
AcDbEntity
  8
Default
  6
Continuous
  0
LINE
  5
1BA
330
1F
100
AcDbEntity
  8
Default
  6
Continuous
100
AcDbLine
 10
10.16625582485001
 20
46.07300792402121
 30
0.0
 11
9.845336797400021
 21
46.95210479747121
 31
0.0
  0
POLYLINE
  5
1BB
330
1F
100
AcDbEntity
  8
Default
  6
Continuous
100
AcDb2dPolyline
 66
     1
 10
0.0
 20
0.0
 30
0.0
  0
VERTEX
  5
1BC
330
1BB
100
AcDbEntity
  8
Default
  6
Continuous
100
AcDbVertex
100
AcDb2dVertex
 10
8.670777290300057
 20
50.03372902397123
 30
0.0
  0
VERTEX
  5
1BD
330
1BB
100
AcDbEntity
  8
Default
  6
Continuous
100
AcDbVertex
100
AcDb2dVertex
 10
8.676758638900052
 20
50.03299104307122
 30
0.0
  0
VERTEX
  5
1BE
330
1BB
100
AcDbEntity
  8
Default
  6
Continuous
100
AcDbVertex
100
AcDb2dVertex
 10
8.716710403900057
 20
50.02760919017123
 30
0.0
  0
VERTEX
  5
1BF
330
1BB
100
AcDbEntity
  8
Default
  6
Continuous
100
AcDbVertex
100
AcDb2dVertex
 10
8.75514603070006
 20
50.02202209267122
 30
0.0
  0
VERTEX
  5
1C0
330
1BB
100
AcDbEntity
  8
Default
  6
Continuous
100
AcDbVertex
100
AcDb2dVertex
 10
8.791987449500054
 20
50.01630439447123
 30
0.0
  0
VERTEX
  5
1C1
330
1BB
100
AcDbEntity
  8
Default
  6
Continuous
100
AcDbVertex
100
AcDb2dVertex
 10
8.827237066100059
 20
50.01047440347122
 30
0.0
  0
VERTEX
  5
1C2
330
1BB
100
AcDbEntity
  8
Default
  6
Continuous
100
AcDbVertex
100
AcDb2dVertex
 10
8.861047374800057
 20
50.00447121377123
 30
0.0
  0
VERTEX
  5
1C3
330
1BB
100
AcDbEntity
  8
Default
  6
Continuous
100
AcDbVertex
100
AcDb2dVertex
 10
8.89343412610006
 20
49.99826247057123
 30
0.0
  0
VERTEX
  5
1C4
330
1BB
100
AcDbEntity
  8
Default
  6
Continuous
100
AcDbVertex
100
AcDb2dVertex
 10
8.924374545800054
 20
49.99183500597123
 30
0.0
  0
VERTEX
  5
1C5
330
1BB
100
AcDbEntity
  8
Default
  6
Continuous
100
AcDbVertex
100
AcDb2dVertex
 10
8.953974074900058
 20
49.98515817237123
 30
0.0
  0
VERTEX
  5
1C6
330
1BB
100
AcDbEntity
  8
Default
  6
Continuous
100
AcDbVertex
100
AcDb2dVertex
 10
8.982200303600058
 20
49.97823833807122
 30
0.0
  0
VERTEX
  5
1C7
330
1BB
100
AcDbEntity
  8
Default
  6
Continuous
100
AcDbVertex
100
AcDb2dVertex
 10
9.009026049500056
 20
49.97109195537122
 30
0.0
  0
VERTEX
  5
1C8
330
1BB
100
AcDbEntity
  8
Default
  6
Continuous
100
AcDbVertex
100
AcDb2dVertex
 10
9.034617124400055
 20
49.96368855027123
 30
0.0
  0
VERTEX
  5
1C9
330
1BB
100
AcDbEntity
  8
Default
  6
Continuous
100
AcDbVertex
100
AcDb2dVertex
 10
9.059000461500053
 20
49.95600545967123
 30
0.0
  0
VERTEX
  5
1CA
330
1BB
100
AcDbEntity
  8
Default
  6
Continuous
100
AcDbVertex
100
AcDb2dVertex
 10
9.082178751700054
 20
49.94796860987122
 30
0.0
  0
VERTEX
  5
1CB
330
1BB
100
AcDbEntity
  8
Default
  6
Continuous
100
AcDbVertex
100
AcDb2dVertex
 10
9.104476369000059
 20
49.93936567327123
 30
0.0
  0
VERTEX
  5
1CC
330
1BB
100
AcDbEntity
  8
Default
  6
Continuous
100
AcDbVertex
100
AcDb2dVertex
 10
9.125942130300059
 20
49.93004986027123
 30
0.0
  0
VERTEX
  5
1CD
330
1BB
100
AcDbEntity
  8
Default
  6
Continuous
100
AcDbVertex
100
AcDb2dVertex
 10
9.146705787500059
 20
49.91980885347122
 30
0.0
  0
VERTEX
  5
1CE
330
1BB
100
AcDbEntity
  8
Default
  6
Continuous
100
AcDbVertex
100
AcDb2dVertex
 10
9.167362501900056
 20
49.90808373157122
 30
0.0
  0
VERTEX
  5
1CF
330
1BB
100
AcDbEntity
  8
Default
  6
Continuous
100
AcDbVertex
100
AcDb2dVertex
 10
9.188175070200058
 20
49.89425777117123
 30
0.0
  0
VERTEX
  5
1D0
330
1BB
100
AcDbEntity
  8
Default
  6
Continuous
100
AcDbVertex
100
AcDb2dVertex
 10
9.208661675700053
 20
49.87804426717122
 30
0.0
  0
VERTEX
  5
1D1
330
1BB
100
AcDbEntity
  8
Default
  6
Continuous
100
AcDbVertex
100
AcDb2dVertex
 10
9.228248388100052
 20
49.85925617927123
 30
0.0
  0
VERTEX
  5
1D2
330
1BB
100
AcDbEntity
  8
Default
  6
Continuous
100
AcDbVertex
100
AcDb2dVertex
 10
9.246768145600054
 20
49.83724640267123
 30
0.0
  0
VERTEX
  5
1D3
330
1BB
100
AcDbEntity
  8
Default
  6
Continuous
100
AcDbVertex
100
AcDb2dVertex
 10
9.263363847000054
 20
49.81200917757123
 30
0.0
  0
VERTEX
  5
1D4
330
1BB
100
AcDbEntity
  8
Default
  6
Continuous
100
AcDbVertex
100
AcDb2dVertex
 10
9.276718047200053
 20
49.78486533727121
 30
0.0
  0
VERTEX
  5
1D5
330
1BB
100
AcDbEntity
  8
Default
  6
Continuous
100
AcDbVertex
100
AcDb2dVertex
 10
9.280290763900052
 20
49.77574625127122
 30
0.0
  0
SEQEND
  5
1D6
330
1BB
100
AcDbEntity
  8
Default
  6
Continuous
  0
LINE
  5
1D7
330
1F
100
AcDbEntity
  8
Default
  6
Continuous
100
AcDbLine
 10
9.280290763900052
 20
49.77574625127122
 30
0.0
 11
10.57727963230001
 21
46.2228934111712
 31
0.0
  0
ARC
  5
1D8
330
1F
100
AcDbEntity
  8
Default
  6
Continuous
100
AcDbCircle
 10
10.04751054582369
 20
47.24524895947077
 30
0.0
 40
0.2944071859094108
100
AcDbArc
 50
236.4404665609651
 51
260.3878602755489
  0
ARC
  5
1D9
330
1F
100
AcDbEntity
  8
Default
  6
Continuous
100
AcDbCircle
 10
10.03633569128418
 20
47.22840365168626
 30
0.0
 40
0.2741922961413684
100
AcDbArc
 50
200.8020438014422
 51
236.440466560965
  0
LINE
  5
1DA
330
1F
100
AcDbEntity
  8
Default
  6
Continuous
100
AcDbLine
 10
9.78001716595002
 20
47.1310269150712
 30
0.0
 11
8.897753398805492
 21
49.54783034579107
 31
0.0
  0
POLYLINE
  5
1DB
330
1F
100
AcDbEntity
  8
Default
  6
Continuous
100
AcDb2dPolyline
 66
     1
 10
0.0
 20
0.0
 30
0.0
  0
VERTEX
  5
1DC
330
1DB
100
AcDbEntity
  8
Default
  6
Continuous
100
AcDbVertex
100
AcDb2dVertex
 10
8.897753398805492
 20
49.54783034579107
 30
0.0
  0
VERTEX
  5
1DD
330
1DB
100
AcDbEntity
  8
Default
  6
Continuous
100
AcDbVertex
100
AcDb2dVertex
 10
8.889225991100048
 20
49.55016926437122
 30
0.0
  0
VERTEX
  5
1DE
330
1DB
100
AcDbEntity
  8
Default
  6
Continuous
100
AcDbVertex
100
AcDb2dVertex
 10
8.87522348110005
 20
49.55376594727123
 30
0.0
  0
VERTEX
  5
1DF
330
1DB
100
AcDbEntity
  8
Default
  6
Continuous
100
AcDbVertex
100
AcDb2dVertex
 10
8.859920144300048
 20
49.55747151367123
 30
0.0
  0
VERTEX
  5
1E0
330
1DB
100
AcDbEntity
  8
Default
  6
Continuous
100
AcDbVertex
100
AcDb2dVertex
 10
8.843361621900051
 20
49.56126836667123
 30
0.0
  0
VERTEX
  5
1E1
330
1DB
100
AcDbEntity
  8
Default
  6
Continuous
100
AcDbVertex
100
AcDb2dVertex
 10
8.82575869950005
 20
49.56510243987123
 30
0.0
  0
VERTEX
  5
1E2
330
1DB
100
AcDbEntity
  8
Default
  6
Continuous
100
AcDbVertex
100
AcDb2dVertex
 10
8.80717737090005
 20
49.56895349997123
 30
0.0
  0
VERTEX
  5
1E3
330
1DB
100
AcDbEntity
  8
Default
  6
Continuous
100
AcDbVertex
100
AcDb2dVertex
 10
8.787611334900049
 20
49.57281280347122
 30
0.0
  0
VERTEX
  5
1E4
330
1DB
100
AcDbEntity
  8
Default
  6
Continuous
100
AcDbVertex
100
AcDb2dVertex
 10
8.76713306600005
 20
49.57665188077122
 30
0.0
  0
VERTEX
  5
1E5
330
1DB
100
AcDbEntity
  8
Default
  6
Continuous
100
AcDbVertex
100
AcDb2dVertex
 10
8.74580702120005
 20
49.58044130417123
 30
0.0
  0
VERTEX
  5
1E6
330
1DB
100
AcDbEntity
  8
Default
  6
Continuous
100
AcDbVertex
100
AcDb2dVertex
 10
8.72360977380005
 20
49.58416326567122
 30
0.0
  0
VERTEX
  5
1E7
330
1DB
100
AcDbEntity
  8
Default
  6
Continuous
100
AcDbVertex
100
AcDb2dVertex
 10
8.700473973900053
 20
49.58780079947122
 30
0.0
  0
VERTEX
  5
1E8
330
1DB
100
AcDbEntity
  8
Default
  6
Continuous
100
AcDbVertex
100
AcDb2dVertex
 10
8.676414463300048
 20
49.59133655547123
 30
0.0
  0
VERTEX
  5
1E9
330
1DB
100
AcDbEntity
  8
Default
  6
Continuous
100
AcDbVertex
100
AcDb2dVertex
 10
8.65147950000005
 20
49.59477151357123
 30
0.0
  0
VERTEX
  5
1EA
330
1DB
100
AcDbEntity
  8
Default
  6
Continuous
100
AcDbVertex
100
AcDb2dVertex
 10
8.644940240700054
 20
49.59561827967123
 30
0.0
  0
SEQEND
  5
1EB
330
1DB
100
AcDbEntity
  8
Default
  6
Continuous
  0
ARC
  5
1EC
330
1F
100
AcDbEntity
  8
Default
  6
Continuous
100
AcDbCircle
 10
9.965051750000022
 20
47.14670207096444
 30
0.0
 40
0.1945972734932297
100
AcDbArc
 50
269.9999999999995
 51
279.8529114755503
  0
LINE
  5
1ED
330
1F
100
AcDbEntity
  8
Default
  6
Continuous
100
AcDbLine
 10
9.96505175000002
 20
46.95210479747121
 30
0.0
 11
5.634480007500021
 21
46.95210479747126
 31
0.0
  0
LINE
  5
1EE
330
1F
100
AcDbEntity
  8
Default
  6
Continuous
100
AcDbLine
 10
8.252357823726193
 20
47.38960479747124
 30
0.0
 11
9.685625098600024
 21
47.38960479747122
 31
0.0
  0
LINE
  5
1EF
330
1F
100
AcDbEntity
  8
Default
100
AcDbLine
 10
10.26157610628902
 20
47.08770281420138
 30
0.0
 11
10.26157610628904
 21
48.94042685178181
 31
0.0
  0
POLYLINE
  5
1F0
330
1F
100
AcDbEntity
  8
Default
100
AcDb2dPolyline
 66
     1
 10
0.0
 20
0.0
 30
0.0
  0
VERTEX
  5
1F1
330
1F0
100
AcDbEntity
  8
Default
100
AcDbVertex
100
AcDb2dVertex
 10
10.26157610628904
 20
48.94042685178181
 30
0.0
  0
VERTEX
  5
1F2
330
1F0
100
AcDbEntity
  8
Default
100
AcDbVertex
100
AcDb2dVertex
 10
10.1968282284931
 20
48.94042685178179
 30
0.0
  0
SEQEND
  5
1F3
330
1F0
100
AcDbEntity
  8
Default
  0
SPLINE
  5
1F4
330
1F
100
AcDbEntity
  8
Default
100
AcDbSpline
210
0.0
220
0.0
230
1.0
 70
    12
 71
     2
 72
     8
 73
     5
 74
     0
 42
0.0000000001
 43
0.0000000001
 40
-0.0887191648069352
 40
-0.0887191648069352
 40
-0.0887191648069352
 40
-0.0443595824034676
 40
-0.0443595824034676
 40
0.0
 40
0.0
 40
0.0
 10
10.1968282284931
 20
48.94042685178179
 30
0.0
 41
1.0
 10
10.1733919267544
 20
48.9408818268022
 30
0.0
 41
0.9212309118505145
 10
10.15672292296116
 20
48.92440118500654
 30
0.0
 41
1.0
 10
10.14005391916791
 20
48.90792054321086
 30
0.0
 41
0.9212309118505145
 10
10.14024253520003
 20
48.88448058447695
 30
0.0
 41
1.0
  0
POLYLINE
  5
1F5
330
1F
100
AcDbEntity
  8
Default
100
AcDb2dPolyline
 66
     1
 10
0.0
 20
0.0
 30
0.0
  0
VERTEX
  5
1F6
330
1F5
100
AcDbEntity
  8
Default
100
AcDbVertex
100
AcDb2dVertex
 10
10.14024253520003
 20
48.88448058447695
 30
0.0
  0
VERTEX
  5
1F7
330
1F5
100
AcDbEntity
  8
Default
100
AcDbVertex
100
AcDb2dVertex
 10
10.14024253520001
 20
47.4200729163248
 30
0.0
  0
SEQEND
  5
1F8
330
1F5
100
AcDbEntity
  8
Default
  0
LINE
  5
1F9
330
1F
100
AcDbEntity
  8
Default
  6
Continuous
100
AcDbLine
 10
10.22754935280005
 20
48.94042685178179
 30
0.0
 11
10.22754935280024
 21
64.9242256051712
 31
0.0
  0
LINE
  5
1FA
330
1F
100
AcDbEntity
  8
Default
  6
Continuous
100
AcDbLine
 10
10.66504935280024
 20
65.1755607148937
 30
0.0
 11
10.66504935280005
 21
48.94042685178179
 31
0.0
  0
LINE
  5
1FB
330
1F
100
AcDbEntity
  8
Default
  6
Continuous
100
AcDbLine
 10
9.993201361500253
 20
66.45782531697122
 30
0.0
 11
10.19278691040027
 21
67.93557293767121
 31
0.0
  0
POLYLINE
  5
1FC
330
1F
100
AcDbEntity
  8
Default
  6
Continuous
100
AcDb2dPolyline
 66
     1
 10
0.0
 20
0.0
 30
0.0
  0
VERTEX
  5
1FD
330
1FC
100
AcDbEntity
  8
Default
  6
Continuous
100
AcDbVertex
100
AcDb2dVertex
 10
10.19278691040027
 20
67.93557293767121
 30
0.0
  0
VERTEX
  5
1FE
330
1FC
100
AcDbEntity
  8
Default
  6
Continuous
100
AcDbVertex
100
AcDb2dVertex
 10
10.19413316320027
 20
67.9448575290712
 30
0.0
  0
VERTEX
  5
1FF
330
1FC
100
AcDbEntity
  8
Default
  6
Continuous
100
AcDbVertex
100
AcDb2dVertex
 10
10.19553759530027
 20
67.95367012867122
 30
0.0
  0
VERTEX
  5
200
330
1FC
100
AcDbEntity
  8
Default
  6
Continuous
100
AcDbVertex
100
AcDb2dVertex
 10
10.19711792860027
 20
67.9626270357712
 30
0.0
  0
VERTEX
  5
201
330
1FC
100
AcDbEntity
  8
Default
  6
Continuous
100
AcDbVertex
100
AcDb2dVertex
 10
10.19888597330027
 20
67.9715955989712
 30
0.0
  0
VERTEX
  5
202
330
1FC
100
AcDbEntity
  8
Default
  6
Continuous
100
AcDbVertex
100
AcDb2dVertex
 10
10.20092513290028
 20
67.9807783787712
 30
0.0
  0
VERTEX
  5
203
330
1FC
100
AcDbEntity
  8
Default
  6
Continuous
100
AcDbVertex
100
AcDb2dVertex
 10
10.20358647520027
 20
67.9912650662712
 30
0.0
  0
VERTEX
  5
204
330
1FC
100
AcDbEntity
  8
Default
  6
Continuous
100
AcDbVertex
100
AcDb2dVertex
 10
10.20711100590028
 20
68.0031794236712
 30
0.0
  0
VERTEX
  5
205
330
1FC
100
AcDbEntity
  8
Default
  6
Continuous
100
AcDbVertex
100
AcDb2dVertex
 10
10.21172069180028
 20
68.01635411327122
 30
0.0
  0
VERTEX
  5
206
330
1FC
100
AcDbEntity
  8
Default
  6
Continuous
100
AcDbVertex
100
AcDb2dVertex
 10
10.21803614970027
 20
68.03141538367122
 30
0.0
  0
VERTEX
  5
207
330
1FC
100
AcDbEntity
  8
Default
  6
Continuous
100
AcDbVertex
100
AcDb2dVertex
 10
10.22683303750027
 20
68.04865158967122
 30
0.0
  0
VERTEX
  5
208
330
1FC
100
AcDbEntity
  8
Default
  6
Continuous
100
AcDbVertex
100
AcDb2dVertex
 10
10.23851208770028
 20
68.06722423497122
 30
0.0
  0
VERTEX
  5
209
330
1FC
100
AcDbEntity
  8
Default
  6
Continuous
100
AcDbVertex
100
AcDb2dVertex
 10
10.25314262560027
 20
68.08598421907122
 30
0.0
  0
VERTEX
  5
20A
330
1FC
100
AcDbEntity
  8
Default
  6
Continuous
100
AcDbVertex
100
AcDb2dVertex
 10
10.27119536470027
 20
68.10448016197121
 30
0.0
  0
VERTEX
  5
20B
330
1FC
100
AcDbEntity
  8
Default
  6
Continuous
100
AcDbVertex
100
AcDb2dVertex
 10
10.29286199040027
 20
68.12188725087121
 30
0.0
  0
VERTEX
  5
20C
330
1FC
100
AcDbEntity
  8
Default
  6
Continuous
100
AcDbVertex
100
AcDb2dVertex
 10
10.31716222790027
 20
68.1367719642712
 30
0.0
  0
VERTEX
  5
20D
330
1FC
100
AcDbEntity
  8
Default
  6
Continuous
100
AcDbVertex
100
AcDb2dVertex
 10
10.34367880840028
 20
68.14858852877121
 30
0.0
  0
VERTEX
  5
20E
330
1FC
100
AcDbEntity
  8
Default
  6
Continuous
100
AcDbVertex
100
AcDb2dVertex
 10
10.37222727010027
 20
68.1569765933712
 30
0.0
  0
VERTEX
  5
20F
330
1FC
100
AcDbEntity
  8
Default
  6
Continuous
100
AcDbVertex
100
AcDb2dVertex
 10
10.40164782860027
 20
68.16143991637121
 30
0.0
  0
VERTEX
  5
210
330
1FC
100
AcDbEntity
  8
Default
  6
Continuous
100
AcDbVertex
100
AcDb2dVertex
 10
10.43136669290027
 20
68.16189629587122
 30
0.0
  0
VERTEX
  5
211
330
1FC
100
AcDbEntity
  8
Default
  6
Continuous
100
AcDbVertex
100
AcDb2dVertex
 10
10.46088392400028
 20
68.15834310957122
 30
0.0
  0
VERTEX
  5
212
330
1FC
100
AcDbEntity
  8
Default
  6
Continuous
100
AcDbVertex
100
AcDb2dVertex
 10
10.48908399070028
 20
68.15103492457122
 30
0.0
  0
VERTEX
  5
213
330
1FC
100
AcDbEntity
  8
Default
  6
Continuous
100
AcDbVertex
100
AcDb2dVertex
 10
10.51560684410027
 20
68.14029569247121
 30
0.0
  0
VERTEX
  5
214
330
1FC
100
AcDbEntity
  8
Default
  6
Continuous
100
AcDbVertex
100
AcDb2dVertex
 10
10.54002113900028
 20
68.1265362198712
 30
0.0
  0
VERTEX
  5
215
330
1FC
100
AcDbEntity
  8
Default
  6
Continuous
100
AcDbVertex
100
AcDb2dVertex
 10
10.56140936810027
 20
68.11071480807122
 30
0.0
  0
VERTEX
  5
216
330
1FC
100
AcDbEntity
  8
Default
  6
Continuous
100
AcDbVertex
100
AcDb2dVertex
 10
10.57970350810028
 20
68.09354988837121
 30
0.0
  0
VERTEX
  5
217
330
1FC
100
AcDbEntity
  8
Default
  6
Continuous
100
AcDbVertex
100
AcDb2dVertex
 10
10.59510779400027
 20
68.07554284777122
 30
0.0
  0
VERTEX
  5
218
330
1FC
100
AcDbEntity
  8
Default
  6
Continuous
100
AcDbVertex
100
AcDb2dVertex
 10
10.60755609160028
 20
68.05758466667122
 30
0.0
  0
SEQEND
  5
219
330
1FC
100
AcDbEntity
  8
Default
  6
Continuous
  0
LINE
  5
21A
330
1F
100
AcDbEntity
  8
Default
  6
Continuous
100
AcDbLine
 10
10.62615138410027
 20
67.87556031727122
 30
0.0
 11
9.812285084908375
 21
61.8495157167898
 31
0.0
  0
POLYLINE
  5
21B
330
1F
100
AcDbEntity
  8
Default
  6
Continuous
100
AcDb2dPolyline
 66
     1
 10
0.0
 20
0.0
 30
0.0
  0
VERTEX
  5
21C
330
21B
100
AcDbEntity
  8
Default
  6
Continuous
100
AcDbVertex
100
AcDb2dVertex
 10
9.812285084908375
 20
61.8495157167898
 30
0.0
  0
VERTEX
  5
21D
330
21B
100
AcDbEntity
  8
Default
  6
Continuous
100
AcDbVertex
100
AcDb2dVertex
 10
9.810768235300202
 20
61.83984209457122
 30
0.0
  0
VERTEX
  5
21E
330
21B
100
AcDbEntity
  8
Default
  6
Continuous
100
AcDbVertex
100
AcDb2dVertex
 10
9.8023747447002
 20
61.80461912597121
 30
0.0
  0
VERTEX
  5
21F
330
21B
100
AcDbEntity
  8
Default
  6
Continuous
100
AcDbVertex
100
AcDb2dVertex
 10
9.790440956400195
 20
61.77162492847123
 30
0.0
  0
VERTEX
  5
220
330
21B
100
AcDbEntity
  8
Default
  6
Continuous
100
AcDbVertex
100
AcDb2dVertex
 10
9.775581052400197
 20
61.74035329637121
 30
0.0
  0
VERTEX
  5
221
330
21B
100
AcDbEntity
  8
Default
  6
Continuous
100
AcDbVertex
100
AcDb2dVertex
 10
9.758090402600201
 20
61.71004441287121
 30
0.0
  0
VERTEX
  5
222
330
21B
100
AcDbEntity
  8
Default
  6
Continuous
100
AcDbVertex
100
AcDb2dVertex
 10
9.7383767103002
 20
61.68043127047122
 30
0.0
  0
VERTEX
  5
223
330
21B
100
AcDbEntity
  8
Default
  6
Continuous
100
AcDbVertex
100
AcDb2dVertex
 10
9.716312920200199
 20
61.65068745097122
 30
0.0
  0
VERTEX
  5
224
330
21B
100
AcDbEntity
  8
Default
  6
Continuous
100
AcDbVertex
100
AcDb2dVertex
 10
9.691182633500194
 20
61.61967579547121
 30
0.0
  0
VERTEX
  5
225
330
21B
100
AcDbEntity
  8
Default
  6
Continuous
100
AcDbVertex
100
AcDb2dVertex
 10
9.662531726300198
 20
61.58701747717123
 30
0.0
  0
VERTEX
  5
226
330
21B
100
AcDbEntity
  8
Default
  6
Continuous
100
AcDbVertex
100
AcDb2dVertex
 10
9.630432094700193
 20
61.55310087327123
 30
0.0
  0
VERTEX
  5
227
330
21B
100
AcDbEntity
  8
Default
  6
Continuous
100
AcDbVertex
100
AcDb2dVertex
 10
9.595271892400195
 20
61.51826172697122
 30
0.0
  0
VERTEX
  5
228
330
21B
100
AcDbEntity
  8
Default
  6
Continuous
100
AcDbVertex
100
AcDb2dVertex
 10
9.557298733700195
 20
61.48251408087123
 30
0.0
  0
VERTEX
  5
229
330
21B
100
AcDbEntity
  8
Default
  6
Continuous
100
AcDbVertex
100
AcDb2dVertex
 10
9.516413937600193
 20
61.44562379137122
 30
0.0
  0
VERTEX
  5
22A
330
21B
100
AcDbEntity
  8
Default
  6
Continuous
100
AcDbVertex
100
AcDb2dVertex
 10
9.472789333400195
 20
61.40771961847122
 30
0.0
  0
VERTEX
  5
22B
330
21B
100
AcDbEntity
  8
Default
  6
Continuous
100
AcDbVertex
100
AcDb2dVertex
 10
9.426656616500198
 20
61.36897332817122
 30
0.0
  0
VERTEX
  5
22C
330
21B
100
AcDbEntity
  8
Default
  6
Continuous
100
AcDbVertex
100
AcDb2dVertex
 10
9.378151547000193
 20
61.32942900997122
 30
0.0
  0
VERTEX
  5
22D
330
21B
100
AcDbEntity
  8
Default
  6
Continuous
100
AcDbVertex
100
AcDb2dVertex
 10
9.32745947700019
 20
61.28922595457124
 30
0.0
  0
VERTEX
  5
22E
330
21B
100
AcDbEntity
  8
Default
  6
Continuous
100
AcDbVertex
100
AcDb2dVertex
 10
9.274750909900192
 20
61.24863072617123
 30
0.0
  0
VERTEX
  5
22F
330
21B
100
AcDbEntity
  8
Default
  6
Continuous
100
AcDbVertex
100
AcDb2dVertex
 10
9.220216676600193
 20
61.20788921757122
 30
0.0
  0
VERTEX
  5
230
330
21B
100
AcDbEntity
  8
Default
  6
Continuous
100
AcDbVertex
100
AcDb2dVertex
 10
9.164081715800192
 20
61.16721132527121
 30
0.0
  0
VERTEX
  5
231
330
21B
100
AcDbEntity
  8
Default
  6
Continuous
100
AcDbVertex
100
AcDb2dVertex
 10
9.139964320800194
 20
61.15024198357122
 30
0.0
  0
SEQEND
  5
232
330
21B
100
AcDbEntity
  8
Default
  6
Continuous
  0
ARC
  5
233
330
1F
100
AcDbEntity
  8
Default
  6
Continuous
100
AcDbCircle
 10
10.24530049801662
 20
66.1955895074185
 30
0.0
 40
0.2624364820926983
100
AcDbArc
 50
103.4197086292872
 51
108.2054243317244
  0
SPLINE
  5
234
330
1F
100
AcDbEntity
  8
Default
  6
Continuous
100
AcDbSpline
210
0.0
220
0.0
230
1.0
 70
     8
 71
     3
 72
    14
 73
    10
 74
     0
 42
0.0000000001
 43
0.0000000001
 40
-5.330056076705846
 40
-5.330056076705846
 40
-5.330056076705846
 40
-5.330056076705846
 40
-5.222133170105846
 40
-5.109923352005846
 40
-4.992843695705846
 40
-4.870454260905846
 40
-4.742277513705846
 40
-4.608324210205846
 40
-4.330056076705846
 40
-4.330056076705846
 40
-4.330056076705846
 40
-4.330056076705846
 10
10.16330881860025
 20
66.44488906947122
 30
0.0
 10
10.15224250940026
 20
66.4412494911712
 30
0.0
 10
10.13014008660025
 20
66.4323355167712
 30
0.0
 10
10.09813703880025
 20
66.4148364722712
 30
0.0
 10
10.06710584630026
 20
66.39281118107122
 30
0.0
 10
10.03768240630025
 20
66.3660421368712
 30
0.0
 10
10.01065407450026
 20
66.33435489427121
 30
0.0
 10
9.979189901700256
 20
66.28515019627122
 30
0.0
 10
9.964003586500251
 20
66.24198656257121
 30
0.0
 10
9.960016935800253
 20
66.21221197102122
 30
0.0
  0
LINE
  5
235
330
1F
100
AcDbEntity
  8
Default
  6
Continuous
100
AcDbLine
 10
9.960016935800253
 20
66.21221197102122
 30
0.0
 11
9.381798833045135
 21
61.93084492628664
 31
0.0
  0
LINE
  5
236
330
1F
100
AcDbEntity
  8
Default
  6
Continuous
100
AcDbLine
 10
9.381798833045135
 20
61.93084492628664
 30
0.0
 11
9.366624133200197
 21
61.91224379507122
 31
0.0
  0
POLYLINE
  5
237
330
1F
100
AcDbEntity
  8
Default
  6
Continuous
100
AcDb2dPolyline
 66
     1
 10
0.0
 20
0.0
 30
0.0
  0
VERTEX
  5
238
330
237
100
AcDbEntity
  8
Default
  6
Continuous
100
AcDbVertex
100
AcDb2dVertex
 10
9.366624133200197
 20
61.91224379507122
 30
0.0
  0
VERTEX
  5
239
330
237
100
AcDbEntity
  8
Default
  6
Continuous
100
AcDbVertex
100
AcDb2dVertex
 10
9.352469372500202
 20
61.89606009617123
 30
0.0
  0
VERTEX
  5
23A
330
237
100
AcDbEntity
  8
Default
  6
Continuous
100
AcDbVertex
100
AcDb2dVertex
 10
9.3343154963002
 20
61.87651887527122
 30
0.0
  0
VERTEX
  5
23B
330
237
100
AcDbEntity
  8
Default
  6
Continuous
100
AcDbVertex
100
AcDb2dVertex
 10
9.313015546500196
 20
61.85460439787121
 30
0.0
  0
VERTEX
  5
23C
330
237
100
AcDbEntity
  8
Default
  6
Continuous
100
AcDbVertex
100
AcDb2dVertex
 10
9.2886036955002
 20
61.83054764507122
 30
0.0
  0
VERTEX
  5
23D
330
237
100
AcDbEntity
  8
Default
  6
Continuous
100
AcDbVertex
100
AcDb2dVertex
 10
9.2608835146002
 20
61.80436050707124
 30
0.0
  0
VERTEX
  5
23E
330
237
100
AcDbEntity
  8
Default
  6
Continuous
100
AcDbVertex
100
AcDb2dVertex
 10
9.230430950400196
 20
61.77671512507123
 30
0.0
  0
VERTEX
  5
23F
330
237
100
AcDbEntity
  8
Default
  6
Continuous
100
AcDbVertex
100
AcDb2dVertex
 10
9.197545254900197
 20
61.74790463587124
 30
0.0
  0
VERTEX
  5
240
330
237
100
AcDbEntity
  8
Default
  6
Continuous
100
AcDbVertex
100
AcDb2dVertex
 10
9.162241800600198
 20
61.71795775427123
 30
0.0
  0
VERTEX
  5
241
330
237
100
AcDbEntity
  8
Default
  6
Continuous
100
AcDbVertex
100
AcDb2dVertex
 10
9.124776170200198
 20
61.68713895427123
 30
0.0
  0
VERTEX
  5
242
330
237
100
AcDbEntity
  8
Default
  6
Continuous
100
AcDbVertex
100
AcDb2dVertex
 10
9.085350291500195
 20
61.65566794207123
 30
0.0
  0
VERTEX
  5
243
330
237
100
AcDbEntity
  8
Default
  6
Continuous
100
AcDbVertex
100
AcDb2dVertex
 10
9.0818080228002
 20
61.65291513157123
 30
0.0
  0
SEQEND
  5
244
330
237
100
AcDbEntity
  8
Default
  6
Continuous
  0
LINE
  5
245
330
1F
100
AcDbEntity
  8
Default
  6
Continuous
100
AcDbLine
 10
2.081509008700257
 20
66.45782531697131
 30
0.0
 11
10.13145401440025
 21
66.45782531697121
 31
0.0
  0
ARC
  5
246
330
1F
100
AcDbEntity
  8
Default
  6
Continuous
100
AcDbCircle
 10
10.13145401440025
 20
66.25314749679453
 30
0.0
 40
0.2046778201766841
100
AcDbArc
 50
75.01012869963374
 51
89.9999999999995
  0
POLYLINE
  5
247
330
1F
100
AcDbEntity
  8
Default
100
AcDb2dPolyline
 66
     1
 10
0.0
 20
0.0
 30
0.0
  0
VERTEX
  5
248
330
247
100
AcDbEntity
  8
Default
100
AcDbVertex
100
AcDb2dVertex
 10
10.75700019138905
 20
48.88448058447693
 30
0.0
  0
VERTEX
  5
249
330
247
100
AcDbEntity
  8
Default
100
AcDbVertex
100
AcDb2dVertex
 10
10.75700019138903
 20
47.00066718588474
 30
0.0
  0
SEQEND
  5
24A
330
247
100
AcDbEntity
  8
Default
  0
SPLINE
  5
24B
330
1F
100
AcDbEntity
  8
Default
100
AcDbSpline
210
0.0
220
0.0
230
1.0
 70
    12
 71
     2
 72
     8
 73
     5
 74
     0
 42
0.0000000001
 43
0.0000000001
 40
0.0
 40
0.0
 40
0.0
 40
0.0443594898986368
 40
0.0443594898986368
 40
0.0887189797972737
 40
0.0887189797972737
 40
0.0887189797972737
 10
10.75700019138903
 20
47.00066718588474
 30
0.0
 41
1.0
 10
10.75718864202088
 20
46.97722729840617
 30
0.0
 41
0.9212322792887785
 10
10.74051968982325
 20
46.96074670766184
 30
0.0
 41
1.0
 10
10.72385073762564
 20
46.94426611691751
 30
0.0
 41
0.9212322792887785
 10
10.70041450525918
 20
46.9447209257937
 30
0.0
 41
1.0
  0
POLYLINE
  5
24C
330
1F
100
AcDbEntity
  8
Default
100
AcDb2dPolyline
 66
     1
 10
0.0
 20
0.0
 30
0.0
  0
VERTEX
  5
24D
330
24C
100
AcDbEntity
  8
Default
100
AcDbVertex
100
AcDb2dVertex
 10
10.70041450525918
 20
46.9447209257937
 30
0.0
  0
VERTEX
  5
24E
330
24C
100
AcDbEntity
  8
Default
100
AcDbVertex
100
AcDb2dVertex
 10
10.63566662030002
 20
46.94472092579372
 30
0.0
  0
SEQEND
  5
24F
330
24C
100
AcDbEntity
  8
Default
  0
LINE
  5
250
330
1F
100
AcDbEntity
  8
Default
100
AcDbLine
 10
10.63566662030002
 20
46.94472092579372
 30
0.0
 11
10.63566662030004
 21
48.94042685178179
 31
0.0
  0
POLYLINE
  5
251
330
1F
100
AcDbEntity
  8
Default
100
AcDb2dPolyline
 66
     1
 10
0.0
 20
0.0
 30
0.0
  0
VERTEX
  5
252
330
251
100
AcDbEntity
  8
Default
100
AcDbVertex
100
AcDb2dVertex
 10
10.63566662030004
 20
48.94042685178179
 30
0.0
  0
VERTEX
  5
253
330
251
100
AcDbEntity
  8
Default
100
AcDbVertex
100
AcDb2dVertex
 10
10.70041449809598
 20
48.94042685178178
 30
0.0
  0
SEQEND
  5
254
330
251
100
AcDbEntity
  8
Default
  0
SPLINE
  5
255
330
1F
100
AcDbEntity
  8
Default
100
AcDbSpline
210
0.0
220
0.0
230
1.0
 70
    12
 71
     2
 72
     8
 73
     5
 74
     0
 42
0.0000000001
 43
0.0000000001
 40
-0.0887191648069352
 40
-0.0887191648069352
 40
-0.0887191648069352
 40
-0.0443595824034676
 40
-0.0443595824034676
 40
0.0
 40
0.0
 40
0.0
 10
10.70041449809598
 20
48.94042685178178
 30
0.0
 41
1.0
 10
10.72385079983469
 20
48.94088182680219
 30
0.0
 41
0.9212309118505145
 10
10.74051980362792
 20
48.92440118500653
 30
0.0
 41
1.0
 10
10.75718880742117
 20
48.90792054321086
 30
0.0
 41
0.9212309118505145
 10
10.75700019138905
 20
48.88448058447693
 30
0.0
 41
1.0
  0
POLYLINE
  5
256
330
1F
100
AcDbEntity
  8
Default
100
AcDb2dPolyline
 66
     1
 10
0.0
 20
0.0
 30
0.0
  0
VERTEX
  5
257
330
256
100
AcDbEntity
  8
Default
100
AcDbVertex
100
AcDb2dVertex
 10
10.75800019138927
 20
67.11532037357692
 30
0.0
  0
VERTEX
  5
258
330
256
100
AcDbEntity
  8
Default
100
AcDbVertex
100
AcDb2dVertex
 10
10.75800019138925
 20
65.23150697498473
 30
0.0
  0
SEQEND
  5
259
330
256
100
AcDbEntity
  8
Default
  0
SPLINE
  5
25A
330
1F
100
AcDbEntity
  8
Default
100
AcDbSpline
210
0.0
220
0.0
230
1.0
 70
    12
 71
     2
 72
     8
 73
     5
 74
     0
 42
0.0000000001
 43
0.0000000001
 40
0.0
 40
0.0
 40
0.0
 40
0.0443594898986368
 40
0.0443594898986368
 40
0.0887189797972737
 40
0.0887189797972737
 40
0.0887189797972737
 10
10.75800019138925
 20
65.23150697498473
 30
0.0
 41
1.0
 10
10.7581886420211
 20
65.20806708750615
 30
0.0
 41
0.9212322792887785
 10
10.74151968982347
 20
65.19158649676183
 30
0.0
 41
1.0
 10
10.72485073762586
 20
65.17510590601749
 30
0.0
 41
0.9212322792887785
 10
10.7014145052594
 20
65.17556071489369
 30
0.0
 41
1.0
  0
POLYLINE
  5
25B
330
1F
100
AcDbEntity
  8
Default
100
AcDb2dPolyline
 66
     1
 10
0.0
 20
0.0
 30
0.0
  0
VERTEX
  5
25C
330
25B
100
AcDbEntity
  8
Default
100
AcDbVertex
100
AcDb2dVertex
 10
10.7014145052594
 20
65.17556071489369
 30
0.0
  0
VERTEX
  5
25D
330
25B
100
AcDbEntity
  8
Default
100
AcDbVertex
100
AcDb2dVertex
 10
10.63666662030024
 20
65.1755607148937
 30
0.0
  0
SEQEND
  5
25E
330
25B
100
AcDbEntity
  8
Default
  0
LINE
  5
25F
330
1F
100
AcDbEntity
  8
Default
100
AcDbLine
 10
10.63666662030024
 20
65.1755607148937
 30
0.0
 11
10.63666662030026
 21
67.17126664088178
 31
0.0
  0
POLYLINE
  5
260
330
1F
100
AcDbEntity
  8
Default
100
AcDb2dPolyline
 66
     1
 10
0.0
 20
0.0
 30
0.0
  0
VERTEX
  5
261
330
260
100
AcDbEntity
  8
Default
100
AcDbVertex
100
AcDb2dVertex
 10
10.63666662030026
 20
67.17126664088178
 30
0.0
  0
VERTEX
  5
262
330
260
100
AcDbEntity
  8
Default
100
AcDbVertex
100
AcDb2dVertex
 10
10.7014144980962
 20
67.17126664088177
 30
0.0
  0
SEQEND
  5
263
330
260
100
AcDbEntity
  8
Default
  0
SPLINE
  5
264
330
1F
100
AcDbEntity
  8
Default
100
AcDbSpline
210
0.0
220
0.0
230
1.0
 70
    12
 71
     2
 72
     8
 73
     5
 74
     0
 42
0.0000000001
 43
0.0000000001
 40
-0.0887191648069352
 40
-0.0887191648069352
 40
-0.0887191648069352
 40
-0.0443595824034676
 40
-0.0443595824034676
 40
0.0
 40
0.0
 40
0.0
 10
10.7014144980962
 20
67.17126664088177
 30
0.0
 41
1.0
 10
10.7248507998349
 20
67.17172161590217
 30
0.0
 41
0.9212309118505145
 10
10.74151980362814
 20
67.15524097410652
 30
0.0
 41
1.0
 10
10.75818880742139
 20
67.13876033231084
 30
0.0
 41
0.9212309118505145
 10
10.75800019138927
 20
67.11532037357692
 30
0.0
 41
1.0
  0
LINE
  5
265
330
1F
100
AcDbEntity
  8
Default
  6
Continuous
100
AcDbLine
 10
9.93411372010025
 20
66.02032531697122
 30
0.0
 11
3.963032211700253
 21
66.0203253169713
 31
0.0
  0
POLYLINE
  5
266
330
1F
100
AcDbEntity
  8
Default
100
AcDb2dPolyline
 66
     1
 10
0.0
 20
0.0
 30
0.0
  0
VERTEX
  5
267
330
266
100
AcDbEntity
  8
Default
100
AcDbVertex
100
AcDb2dVertex
 10
7.56891996605529
 20
64.24967451213374
 30
0.0
  0
VERTEX
  5
268
330
266
100
AcDbEntity
  8
Default
100
AcDbVertex
100
AcDb2dVertex
 10
7.616915168195447
 20
64.16253185298007
 30
0.0
  0
SEQEND
  5
269
330
266
100
AcDbEntity
  8
Default
  0
ARC
  5
26A
330
1F
100
AcDbEntity
  8
Default
100
AcDbCircle
 10
334.2731743482931
 20
294.7861333787973
 30
0.0
 40
399.8644235766344
100
AcDbArc
 50
215.2225929887776
 51
215.4361563568463
  0
SPLINE
  5
26B
330
1F
100
AcDbEntity
  8
Default
100
AcDbSpline
210
0.0
220
0.0
230
1.0
 70
     8
 71
     3
 72
    18
 73
    14
 74
     0
 42
0.0000000001
 43
0.0000000001
 40
-11.04446704942164
 40
-11.04446704942164
 40
-11.04446704942164
 40
-11.04446704942164
 40
-10.61383137829946
 40
-10.49565764506195
 40
-10.38182066249299
 40
-10.00594223520787
 40
-9.327331098099943
 40
-8.454856792675347
 40
-7.339592750294725
 40
-5.855096042031121
 40
-4.741449960198119
 40
-3.809270731539037
 40
-0.0000000000000004
 40
-0.0000000000000004
 40
-0.0000000000000004
 40
-0.0000000000000004
 10
8.478805063853839
 20
62.9465634498732
 30
0.0
 10
8.56196878229171
 20
62.82969698396263
 30
0.0
 10
8.666105195315092
 20
62.67890827413871
 30
0.0
 10
8.795364608720071
 20
62.50022108541187
 30
0.0
 10
8.901904303125695
 20
62.32236774687696
 30
0.0
 10
9.038438007093875
 20
61.95459028818208
 30
0.0
 10
9.137514888462583
 20
61.31824410518863
 30
0.0
 10
9.183371026359435
 20
60.43020731707369
 30
0.0
 10
9.178606033389652
 20
59.27250955034683
 30
0.0
 10
9.135013201019984
 20
58.03542981937365
 30
0.0
 10
9.070660975589302
 20
56.86036810914305
 30
0.0
 10
8.955848371898897
 20
54.91207035230106
 30
0.0
 10
8.86414979226755
 20
53.33423339900371
 30
0.0
 10
8.789674216623576
 20
52.06666793964339
 30
0.0
  0
ARC
  5
26C
330
1F
100
AcDbEntity
  8
Default
100
AcDbCircle
 10
32002.36618652688
 20
-1827.71004108677
 30
0.0
 40
32048.7519027629
100
AcDbArc
 50
176.637462750995
 51
176.645224567206
  0
ARC
  5
26D
330
1F
100
AcDbEntity
  8
Default
100
AcDbCircle
 10
8.159359933635358
 20
47.75454304199499
 30
0.0
 40
0.3766012876736257
100
AcDbArc
 50
279.6757155923652
 51
356.645224567212
  0
SPLINE
  5
26E
330
1F
100
AcDbEntity
  8
Default
100
AcDbSpline
210
0.0
220
0.0
230
1.0
 70
    12
 71
     2
 72
     6
 73
     3
 74
     0
 42
0.0000000001
 43
0.0000000001
 40
-8.275528837056001
 40
-8.275528837056001
 40
-8.275528837056001
 40
0.0
 40
0.0
 40
0.0
 10
8.222655907482443
 20
47.3832989853797
 30
0.0
 41
1.0
 10
4.151248751424078
 20
46.57303667910738
 30
0.0
 41
0.9951340748191598
 10
0.0000000000000142
 20
46.57691471587134
 30
0.0
 41
1.0
  0
SPLINE
  5
26F
330
1F
100
AcDbEntity
  8
Default
100
AcDbSpline
210
0.0
220
0.0
230
1.0
 70
    12
 71
     3
 72
    14
 73
    10
 74
     0
 42
0.0000000001
 43
0.0000000001
 40
-2.382636799938624
 40
-2.382636799938624
 40
-2.382636799938624
 40
-2.382636799938624
 40
-1.382636799938624
 40
-0.3826367999386246
 40
-0.3826367999386246
 40
-0.3826367999386246
 40
-0.2729743886858338
 40
-0.1509122625360565
 40
0.0
 40
0.0
 40
0.0
 40
0.0
 10
0.0000000000002562
 20
66.62196573352273
 30
0.0
 41
1.0
 10
1.282456564702869
 20
66.6221601316992
 30
0.0
 41
1.0
 10
3.848418151444089
 20
66.25184483448247
 30
0.0
 41
1.0
 10
6.200655949875011
 20
65.16505793811797
 30
0.0
 41
1.0
 10
7.282456947121123
 20
64.47555308971286
 30
0.0
 41
1.0
 10
7.314217370004175
 20
64.45626168934389
 30
0.0
 41
1.0
 10
7.378547819528508
 20
64.41340952793281
 30
0.0
 41
1.0
 10
7.465101683346604
 20
64.3455255727731
 30
0.0
 41
1.0
 10
7.534590308965763
 20
64.28684914021154
 30
0.0
 41
1.0
 10
7.56891996605529
 20
64.24967451213374
 30
0.0
 41
1.0
  0
ARC
  5
270
330
1F
100
AcDbEntity
  8
Default
  6
Continuous
100
AcDbCircle
 10
-10.38696594296493
 20
67.92346017761979
 30
0.0
 40
0.2581654357929816
100
AcDbArc
 50
148.6993217910482
 51
171.4522472717427
  0
SPLINE
  5
271
330
1F
100
AcDbEntity
  8
Default
  6
Continuous
100
AcDbSpline
210
0.0
220
0.0
230
1.0
 70
     8
 71
     3
 72
    11
 73
     7
 74
     0
 42
0.0000000001
 43
0.0000000001
 40
0.0
 40
0.0
 40
0.0
 40
0.0
 40
1.0
 40
2.0
 40
3.0
 40
4.0
 40
4.0
 40
4.0
 40
4.0
 10
-10.64226376209999
 20
67.96183224797133
 30
0.0
 10
-10.65207324382511
 20
67.89656760969858
 30
0.0
 10
-10.65798080992851
 20
67.76466818187498
 30
0.0
 10
-10.66282294451272
 20
67.56694100247616
 30
0.0
 10
-10.66472155108774
 20
67.36909706750043
 30
0.0
 10
-10.66506174753622
 20
67.23721221222488
 30
0.0
 10
-10.66504659836038
 20
67.17126664088191
 30
0.0
  0
LINE
  5
272
330
1F
100
AcDbEntity
  8
Default
  6
Continuous
100
AcDbLine
 10
-10.6651398663564
 20
46.94472092579385
 30
0.0
 11
-10.66486416199999
 21
46.84478015457134
 31
0.0
  0
POLYLINE
  5
273
330
1F
100
AcDbEntity
  8
Default
  6
Continuous
100
AcDb2dPolyline
 66
     1
 10
0.0
 20
0.0
 30
0.0
  0
VERTEX
  5
274
330
273
100
AcDbEntity
  8
Default
  6
Continuous
100
AcDbVertex
100
AcDb2dVertex
 10
-10.66486416199999
 20
46.84478015457134
 30
0.0
  0
VERTEX
  5
275
330
273
100
AcDbEntity
  8
Default
  6
Continuous
100
AcDbVertex
100
AcDb2dVertex
 10
-10.66459638629998
 20
46.79188434837134
 30
0.0
  0
VERTEX
  5
276
330
273
100
AcDbEntity
  8
Default
  6
Continuous
100
AcDbVertex
100
AcDb2dVertex
 10
-10.66419849809999
 20
46.73965714767134
 30
0.0
  0
VERTEX
  5
277
330
273
100
AcDbEntity
  8
Default
  6
Continuous
100
AcDbVertex
100
AcDb2dVertex
 10
-10.66366129979998
 20
46.68827277337134
 30
0.0
  0
VERTEX
  5
278
330
273
100
AcDbEntity
  8
Default
  6
Continuous
100
AcDbVertex
100
AcDb2dVertex
 10
-10.66297704719999
 20
46.63795129177133
 30
0.0
  0
VERTEX
  5
279
330
273
100
AcDbEntity
  8
Default
  6
Continuous
100
AcDbVertex
100
AcDb2dVertex
 10
-10.66213747949999
 20
46.58882884977133
 30
0.0
  0
VERTEX
  5
27A
330
273
100
AcDbEntity
  8
Default
  6
Continuous
100
AcDbVertex
100
AcDb2dVertex
 10
-10.66113392629999
 20
46.54107796857133
 30
0.0
  0
VERTEX
  5
27B
330
273
100
AcDbEntity
  8
Default
  6
Continuous
100
AcDbVertex
100
AcDb2dVertex
 10
-10.65995841109999
 20
46.49492279007133
 30
0.0
  0
VERTEX
  5
27C
330
273
100
AcDbEntity
  8
Default
  6
Continuous
100
AcDbVertex
100
AcDb2dVertex
 10
-10.65859278549998
 20
46.45026631107133
 30
0.0
  0
VERTEX
  5
27D
330
273
100
AcDbEntity
  8
Default
  6
Continuous
100
AcDbVertex
100
AcDb2dVertex
 10
-10.65703225599999
 20
46.40746834797133
 30
0.0
  0
VERTEX
  5
27E
330
273
100
AcDbEntity
  8
Default
  6
Continuous
100
AcDbVertex
100
AcDb2dVertex
 10
-10.65529914639998
 20
46.36723301787133
 30
0.0
  0
VERTEX
  5
27F
330
273
100
AcDbEntity
  8
Default
  6
Continuous
100
AcDbVertex
100
AcDb2dVertex
 10
-10.65339009739998
 20
46.32949284307134
 30
0.0
  0
VERTEX
  5
280
330
273
100
AcDbEntity
  8
Default
  6
Continuous
100
AcDbVertex
100
AcDb2dVertex
 10
-10.65129886599998
 20
46.29424276657133
 30
0.0
  0
VERTEX
  5
281
330
273
100
AcDbEntity
  8
Default
  6
Continuous
100
AcDbVertex
100
AcDb2dVertex
 10
-10.64905068979999
 20
46.26192759117133
 30
0.0
  0
VERTEX
  5
282
330
273
100
AcDbEntity
  8
Default
  6
Continuous
100
AcDbVertex
100
AcDb2dVertex
 10
-10.64665244369998
 20
46.23243866897134
 30
0.0
  0
VERTEX
  5
283
330
273
100
AcDbEntity
  8
Default
  6
Continuous
100
AcDbVertex
100
AcDb2dVertex
 10
-10.64409232619999
 20
46.20546335307134
 30
0.0
  0
VERTEX
  5
284
330
273
100
AcDbEntity
  8
Default
  6
Continuous
100
AcDbVertex
100
AcDb2dVertex
 10
-10.64136304249999
 20
46.18083532317134
 30
0.0
  0
VERTEX
  5
285
330
273
100
AcDbEntity
  8
Default
  6
Continuous
100
AcDbVertex
100
AcDb2dVertex
 10
-10.63846188039999
 20
46.15844805917133
 30
0.0
  0
VERTEX
  5
286
330
273
100
AcDbEntity
  8
Default
  6
Continuous
100
AcDbVertex
100
AcDb2dVertex
 10
-10.63534156379998
 20
46.13789377327133
 30
0.0
  0
SEQEND
  5
287
330
273
100
AcDbEntity
  8
Default
  6
Continuous
  0
LINE
  5
288
330
1F
100
AcDbEntity
  8
Default
  6
Continuous
100
AcDbLine
 10
-10.63534156379998
 20
46.13789377327133
 30
0.0
 11
-10.63210205179999
 21
46.11965767067133
 31
0.0
  0
ARC
  5
289
330
1F
100
AcDbEntity
  8
Default
  6
Continuous
100
AcDbCircle
 10
-10.27557313926429
 20
46.18299245858287
 30
0.0
 40
0.3621107024567041
100
AcDbArc
 50
190.0731000938507
 51
209.9140525875974
  0
POLYLINE
  5
28A
330
1F
100
AcDbEntity
  8
Default
  6
Continuous
100
AcDb2dPolyline
 66
     1
 10
0.0
 20
0.0
 30
0.0
  0
VERTEX
  5
28B
330
28A
100
AcDbEntity
  8
Default
  6
Continuous
100
AcDbVertex
100
AcDb2dVertex
 10
-10.58944144849999
 20
46.00240772697133
 30
0.0
  0
VERTEX
  5
28C
330
28A
100
AcDbEntity
  8
Default
  6
Continuous
100
AcDbVertex
100
AcDb2dVertex
 10
-10.57478606399999
 20
45.98157233117134
 30
0.0
  0
VERTEX
  5
28D
330
28A
100
AcDbEntity
  8
Default
  6
Continuous
100
AcDbVertex
100
AcDb2dVertex
 10
-10.55621158919999
 20
45.96058210197134
 30
0.0
  0
VERTEX
  5
28E
330
28A
100
AcDbEntity
  8
Default
  6
Continuous
100
AcDbVertex
100
AcDb2dVertex
 10
-10.53355254279999
 20
45.94063366237134
 30
0.0
  0
VERTEX
  5
28F
330
28A
100
AcDbEntity
  8
Default
  6
Continuous
100
AcDbVertex
100
AcDb2dVertex
 10
-10.50813659349998
 20
45.92362667727133
 30
0.0
  0
VERTEX
  5
290
330
28A
100
AcDbEntity
  8
Default
  6
Continuous
100
AcDbVertex
100
AcDb2dVertex
 10
-10.48058727829999
 20
45.91014381637133
 30
0.0
  0
VERTEX
  5
291
330
28A
100
AcDbEntity
  8
Default
  6
Continuous
100
AcDbVertex
100
AcDb2dVertex
 10
-10.45098900529999
 20
45.90038659277134
 30
0.0
  0
VERTEX
  5
292
330
28A
100
AcDbEntity
  8
Default
  6
Continuous
100
AcDbVertex
100
AcDb2dVertex
 10
-10.42061208199998
 20
45.89483431147133
 30
0.0
  0
VERTEX
  5
293
330
28A
100
AcDbEntity
  8
Default
  6
Continuous
100
AcDbVertex
100
AcDb2dVertex
 10
-10.39010805149999
 20
45.89348150907134
 30
0.0
  0
VERTEX
  5
294
330
28A
100
AcDbEntity
  8
Default
  6
Continuous
100
AcDbVertex
100
AcDb2dVertex
 10
-10.35995353569999
 20
45.89622706717134
 30
0.0
  0
VERTEX
  5
295
330
28A
100
AcDbEntity
  8
Default
  6
Continuous
100
AcDbVertex
100
AcDb2dVertex
 10
-10.33122117259999
 20
45.90275218077133
 30
0.0
  0
VERTEX
  5
296
330
28A
100
AcDbEntity
  8
Default
  6
Continuous
100
AcDbVertex
100
AcDb2dVertex
 10
-10.30414242289999
 20
45.91270381197134
 30
0.0
  0
VERTEX
  5
297
330
28A
100
AcDbEntity
  8
Default
  6
Continuous
100
AcDbVertex
100
AcDb2dVertex
 10
-10.27919784179998
 20
45.92560245217133
 30
0.0
  0
VERTEX
  5
298
330
28A
100
AcDbEntity
  8
Default
  6
Continuous
100
AcDbVertex
100
AcDb2dVertex
 10
-10.25746628089998
 20
45.94032352557133
 30
0.0
  0
VERTEX
  5
299
330
28A
100
AcDbEntity
  8
Default
  6
Continuous
100
AcDbVertex
100
AcDb2dVertex
 10
-10.23895090609999
 20
45.95603627087134
 30
0.0
  0
VERTEX
  5
29A
330
28A
100
AcDbEntity
  8
Default
  6
Continuous
100
AcDbVertex
100
AcDb2dVertex
 10
-10.22325527469999
 20
45.97225991397133
 30
0.0
  0
VERTEX
  5
29B
330
28A
100
AcDbEntity
  8
Default
  6
Continuous
100
AcDbVertex
100
AcDb2dVertex
 10
-10.21040883439998
 20
45.98809394297133
 30
0.0
  0
VERTEX
  5
29C
330
28A
100
AcDbEntity
  8
Default
  6
Continuous
100
AcDbVertex
100
AcDb2dVertex
 10
-10.20024193189999
 20
46.00272205027133
 30
0.0
  0
VERTEX
  5
29D
330
28A
100
AcDbEntity
  8
Default
  6
Continuous
100
AcDbVertex
100
AcDb2dVertex
 10
-10.19205657339999
 20
46.01619774887133
 30
0.0
  0
VERTEX
  5
29E
330
28A
100
AcDbEntity
  8
Default
  6
Continuous
100
AcDbVertex
100
AcDb2dVertex
 10
-10.18513249009999
 20
46.02904876217133
 30
0.0
  0
VERTEX
  5
29F
330
28A
100
AcDbEntity
  8
Default
  6
Continuous
100
AcDbVertex
100
AcDb2dVertex
 10
-10.17925907549998
 20
46.04119063427133
 30
0.0
  0
VERTEX
  5
2A0
330
28A
100
AcDbEntity
  8
Default
  6
Continuous
100
AcDbVertex
100
AcDb2dVertex
 10
-10.17426343949999
 20
46.05254938037133
 30
0.0
  0
VERTEX
  5
2A1
330
28A
100
AcDbEntity
  8
Default
  6
Continuous
100
AcDbVertex
100
AcDb2dVertex
 10
-10.16971959909998
 20
46.06379880097134
 30
0.0
  0
VERTEX
  5
2A2
330
28A
100
AcDbEntity
  8
Default
  6
Continuous
100
AcDbVertex
100
AcDb2dVertex
 10
-10.16625582484999
 20
46.07300792402134
 30
0.0
  0
SEQEND
  5
2A3
330
28A
100
AcDbEntity
  8
Default
  6
Continuous
  0
LINE
  5
2A4
330
1F
100
AcDbEntity
  8
Default
  6
Continuous
100
AcDbLine
 10
-10.16625582484999
 20
46.07300792402134
 30
0.0
 11
-9.845336797399987
 21
46.95210479747134
 31
0.0
  0
POLYLINE
  5
2A5
330
1F
100
AcDbEntity
  8
Default
  6
Continuous
100
AcDb2dPolyline
 66
     1
 10
0.0
 20
0.0
 30
0.0
  0
VERTEX
  5
2A6
330
2A5
100
AcDbEntity
  8
Default
  6
Continuous
100
AcDbVertex
100
AcDb2dVertex
 10
-8.670777290299988
 20
50.03372902397133
 30
0.0
  0
VERTEX
  5
2A7
330
2A5
100
AcDbEntity
  8
Default
  6
Continuous
100
AcDbVertex
100
AcDb2dVertex
 10
-8.676758638899983
 20
50.03299104307133
 30
0.0
  0
VERTEX
  5
2A8
330
2A5
100
AcDbEntity
  8
Default
  6
Continuous
100
AcDbVertex
100
AcDb2dVertex
 10
-8.716710403899988
 20
50.02760919017133
 30
0.0
  0
VERTEX
  5
2A9
330
2A5
100
AcDbEntity
  8
Default
  6
Continuous
100
AcDbVertex
100
AcDb2dVertex
 10
-8.75514603069999
 20
50.02202209267134
 30
0.0
  0
VERTEX
  5
2AA
330
2A5
100
AcDbEntity
  8
Default
  6
Continuous
100
AcDbVertex
100
AcDb2dVertex
 10
-8.791987449499985
 20
50.01630439447133
 30
0.0
  0
VERTEX
  5
2AB
330
2A5
100
AcDbEntity
  8
Default
  6
Continuous
100
AcDbVertex
100
AcDb2dVertex
 10
-8.82723706609999
 20
50.01047440347133
 30
0.0
  0
VERTEX
  5
2AC
330
2A5
100
AcDbEntity
  8
Default
  6
Continuous
100
AcDbVertex
100
AcDb2dVertex
 10
-8.861047374799988
 20
50.00447121377134
 30
0.0
  0
VERTEX
  5
2AD
330
2A5
100
AcDbEntity
  8
Default
  6
Continuous
100
AcDbVertex
100
AcDb2dVertex
 10
-8.89343412609999
 20
49.99826247057133
 30
0.0
  0
VERTEX
  5
2AE
330
2A5
100
AcDbEntity
  8
Default
  6
Continuous
100
AcDbVertex
100
AcDb2dVertex
 10
-8.924374545799985
 20
49.99183500597134
 30
0.0
  0
VERTEX
  5
2AF
330
2A5
100
AcDbEntity
  8
Default
  6
Continuous
100
AcDbVertex
100
AcDb2dVertex
 10
-8.953974074899989
 20
49.98515817237133
 30
0.0
  0
VERTEX
  5
2B0
330
2A5
100
AcDbEntity
  8
Default
  6
Continuous
100
AcDbVertex
100
AcDb2dVertex
 10
-8.982200303599988
 20
49.97823833807134
 30
0.0
  0
VERTEX
  5
2B1
330
2A5
100
AcDbEntity
  8
Default
  6
Continuous
100
AcDbVertex
100
AcDb2dVertex
 10
-9.009026049499987
 20
49.97109195537134
 30
0.0
  0
VERTEX
  5
2B2
330
2A5
100
AcDbEntity
  8
Default
  6
Continuous
100
AcDbVertex
100
AcDb2dVertex
 10
-9.034617124399986
 20
49.96368855027133
 30
0.0
  0
VERTEX
  5
2B3
330
2A5
100
AcDbEntity
  8
Default
  6
Continuous
100
AcDbVertex
100
AcDb2dVertex
 10
-9.059000461499984
 20
49.95600545967133
 30
0.0
  0
VERTEX
  5
2B4
330
2A5
100
AcDbEntity
  8
Default
  6
Continuous
100
AcDbVertex
100
AcDb2dVertex
 10
-9.082178751699985
 20
49.94796860987134
 30
0.0
  0
VERTEX
  5
2B5
330
2A5
100
AcDbEntity
  8
Default
  6
Continuous
100
AcDbVertex
100
AcDb2dVertex
 10
-9.10447636899999
 20
49.93936567327134
 30
0.0
  0
VERTEX
  5
2B6
330
2A5
100
AcDbEntity
  8
Default
  6
Continuous
100
AcDbVertex
100
AcDb2dVertex
 10
-9.12594213029999
 20
49.93004986027134
 30
0.0
  0
VERTEX
  5
2B7
330
2A5
100
AcDbEntity
  8
Default
  6
Continuous
100
AcDbVertex
100
AcDb2dVertex
 10
-9.14670578749999
 20
49.91980885347134
 30
0.0
  0
VERTEX
  5
2B8
330
2A5
100
AcDbEntity
  8
Default
  6
Continuous
100
AcDbVertex
100
AcDb2dVertex
 10
-9.167362501899987
 20
49.90808373157134
 30
0.0
  0
VERTEX
  5
2B9
330
2A5
100
AcDbEntity
  8
Default
  6
Continuous
100
AcDbVertex
100
AcDb2dVertex
 10
-9.18817507019999
 20
49.89425777117134
 30
0.0
  0
VERTEX
  5
2BA
330
2A5
100
AcDbEntity
  8
Default
  6
Continuous
100
AcDbVertex
100
AcDb2dVertex
 10
-9.208661675699986
 20
49.87804426717133
 30
0.0
  0
VERTEX
  5
2BB
330
2A5
100
AcDbEntity
  8
Default
  6
Continuous
100
AcDbVertex
100
AcDb2dVertex
 10
-9.228248388099985
 20
49.85925617927134
 30
0.0
  0
VERTEX
  5
2BC
330
2A5
100
AcDbEntity
  8
Default
  6
Continuous
100
AcDbVertex
100
AcDb2dVertex
 10
-9.246768145599987
 20
49.83724640267134
 30
0.0
  0
VERTEX
  5
2BD
330
2A5
100
AcDbEntity
  8
Default
  6
Continuous
100
AcDbVertex
100
AcDb2dVertex
 10
-9.263363846999987
 20
49.81200917757134
 30
0.0
  0
VERTEX
  5
2BE
330
2A5
100
AcDbEntity
  8
Default
  6
Continuous
100
AcDbVertex
100
AcDb2dVertex
 10
-9.276718047199985
 20
49.78486533727133
 30
0.0
  0
VERTEX
  5
2BF
330
2A5
100
AcDbEntity
  8
Default
  6
Continuous
100
AcDbVertex
100
AcDb2dVertex
 10
-9.280290763899984
 20
49.77574625127133
 30
0.0
  0
SEQEND
  5
2C0
330
2A5
100
AcDbEntity
  8
Default
  6
Continuous
  0
LINE
  5
2C1
330
1F
100
AcDbEntity
  8
Default
  6
Continuous
100
AcDbLine
 10
-9.280290763899984
 20
49.77574625127133
 30
0.0
 11
-10.57727963229998
 21
46.22289341117133
 31
0.0
  0
ARC
  5
2C2
330
1F
100
AcDbEntity
  8
Default
  6
Continuous
100
AcDbCircle
 10
-10.04751054582366
 20
47.2452489594709
 30
0.0
 40
0.2944071859094108
100
AcDbArc
 50
279.6121397244504
 51
303.5595334390343
  0
ARC
  5
2C3
330
1F
100
AcDbEntity
  8
Default
  6
Continuous
100
AcDbCircle
 10
-10.03633569128414
 20
47.22840365168639
 30
0.0
 40
0.2741922961413684
100
AcDbArc
 50
303.5595334390343
 51
339.1979561985563
  0
LINE
  5
2C4
330
1F
100
AcDbEntity
  8
Default
  6
Continuous
100
AcDbLine
 10
-9.780017165949985
 20
47.13102691507133
 30
0.0
 11
-8.897753398805428
 21
49.54783034579118
 31
0.0
  0
POLYLINE
  5
2C5
330
1F
100
AcDbEntity
  8
Default
  6
Continuous
100
AcDb2dPolyline
 66
     1
 10
0.0
 20
0.0
 30
0.0
  0
VERTEX
  5
2C6
330
2C5
100
AcDbEntity
  8
Default
  6
Continuous
100
AcDbVertex
100
AcDb2dVertex
 10
-8.897753398805428
 20
49.54783034579118
 30
0.0
  0
VERTEX
  5
2C7
330
2C5
100
AcDbEntity
  8
Default
  6
Continuous
100
AcDbVertex
100
AcDb2dVertex
 10
-8.889225991099984
 20
49.55016926437133
 30
0.0
  0
VERTEX
  5
2C8
330
2C5
100
AcDbEntity
  8
Default
  6
Continuous
100
AcDbVertex
100
AcDb2dVertex
 10
-8.875223481099987
 20
49.55376594727133
 30
0.0
  0
VERTEX
  5
2C9
330
2C5
100
AcDbEntity
  8
Default
  6
Continuous
100
AcDbVertex
100
AcDb2dVertex
 10
-8.859920144299984
 20
49.55747151367133
 30
0.0
  0
VERTEX
  5
2CA
330
2C5
100
AcDbEntity
  8
Default
  6
Continuous
100
AcDbVertex
100
AcDb2dVertex
 10
-8.843361621899987
 20
49.56126836667133
 30
0.0
  0
VERTEX
  5
2CB
330
2C5
100
AcDbEntity
  8
Default
  6
Continuous
100
AcDbVertex
100
AcDb2dVertex
 10
-8.825758699499985
 20
49.56510243987134
 30
0.0
  0
VERTEX
  5
2CC
330
2C5
100
AcDbEntity
  8
Default
  6
Continuous
100
AcDbVertex
100
AcDb2dVertex
 10
-8.807177370899986
 20
49.56895349997133
 30
0.0
  0
VERTEX
  5
2CD
330
2C5
100
AcDbEntity
  8
Default
  6
Continuous
100
AcDbVertex
100
AcDb2dVertex
 10
-8.787611334899985
 20
49.57281280347134
 30
0.0
  0
VERTEX
  5
2CE
330
2C5
100
AcDbEntity
  8
Default
  6
Continuous
100
AcDbVertex
100
AcDb2dVertex
 10
-8.767133065999985
 20
49.57665188077134
 30
0.0
  0
VERTEX
  5
2CF
330
2C5
100
AcDbEntity
  8
Default
  6
Continuous
100
AcDbVertex
100
AcDb2dVertex
 10
-8.745807021199987
 20
49.58044130417133
 30
0.0
  0
VERTEX
  5
2D0
330
2C5
100
AcDbEntity
  8
Default
  6
Continuous
100
AcDbVertex
100
AcDb2dVertex
 10
-8.723609773799986
 20
49.58416326567134
 30
0.0
  0
VERTEX
  5
2D1
330
2C5
100
AcDbEntity
  8
Default
  6
Continuous
100
AcDbVertex
100
AcDb2dVertex
 10
-8.700473973899989
 20
49.58780079947134
 30
0.0
  0
VERTEX
  5
2D2
330
2C5
100
AcDbEntity
  8
Default
  6
Continuous
100
AcDbVertex
100
AcDb2dVertex
 10
-8.676414463299984
 20
49.59133655547133
 30
0.0
  0
VERTEX
  5
2D3
330
2C5
100
AcDbEntity
  8
Default
  6
Continuous
100
AcDbVertex
100
AcDb2dVertex
 10
-8.651479499999986
 20
49.59477151357133
 30
0.0
  0
VERTEX
  5
2D4
330
2C5
100
AcDbEntity
  8
Default
  6
Continuous
100
AcDbVertex
100
AcDb2dVertex
 10
-8.644940240699988
 20
49.59561827967133
 30
0.0
  0
SEQEND
  5
2D5
330
2C5
100
AcDbEntity
  8
Default
  6
Continuous
  0
ARC
  5
2D6
330
1F
100
AcDbEntity
  8
Default
  6
Continuous
100
AcDbCircle
 10
-9.965051749999986
 20
47.14670207096457
 30
0.0
 40
0.1945972734932297
100
AcDbArc
 50
260.1470885244492
 51
270.0
  0
LINE
  5
2D7
330
1F
100
AcDbEntity
  8
Default
  6
Continuous
100
AcDbLine
 10
-9.965051749999986
 20
46.95210479747134
 30
0.0
 11
-5.634480007499988
 21
46.95210479747134
 31
0.0
  0
LINE
  5
2D8
330
1F
100
AcDbEntity
  8
Default
  6
Continuous
100
AcDbLine
 10
-8.252357823726154
 20
47.38960479747134
 30
0.0
 11
-9.685625098599985
 21
47.38960479747134
 31
0.0
  0
LINE
  5
2D9
330
1F
100
AcDbEntity
  8
Default
100
AcDbLine
 10
-10.26157610628898
 20
47.08770281420149
 30
0.0
 11
-10.26157610628898
 21
48.94042685178192
 31
0.0
  0
POLYLINE
  5
2DA
330
1F
100
AcDbEntity
  8
Default
100
AcDb2dPolyline
 66
     1
 10
0.0
 20
0.0
 30
0.0
  0
VERTEX
  5
2DB
330
2DA
100
AcDbEntity
  8
Default
100
AcDbVertex
100
AcDb2dVertex
 10
-10.26157610628898
 20
48.94042685178192
 30
0.0
  0
VERTEX
  5
2DC
330
2DA
100
AcDbEntity
  8
Default
100
AcDbVertex
100
AcDb2dVertex
 10
-10.19682822849304
 20
48.94042685178191
 30
0.0
  0
SEQEND
  5
2DD
330
2DA
100
AcDbEntity
  8
Default
  0
SPLINE
  5
2DE
330
1F
100
AcDbEntity
  8
Default
100
AcDbSpline
210
0.0
220
0.0
230
1.0
 70
    12
 71
     2
 72
     8
 73
     5
 74
     0
 42
0.0000000001
 43
0.0000000001
 40
-0.0887191648069352
 40
-0.0887191648069352
 40
-0.0887191648069352
 40
-0.0443595824034676
 40
-0.0443595824034676
 40
0.0
 40
0.0
 40
0.0
 10
-10.19682822849304
 20
48.94042685178191
 30
0.0
 41
1.0
 10
-10.17339192675434
 20
48.94088182680232
 30
0.0
 41
0.9212309118505145
 10
-10.1567229229611
 20
48.92440118500666
 30
0.0
 41
1.0
 10
-10.14005391916785
 20
48.90792054321098
 30
0.0
 41
0.9212309118505145
 10
-10.14024253519997
 20
48.88448058447706
 30
0.0
 41
1.0
  0
POLYLINE
  5
2DF
330
1F
100
AcDbEntity
  8
Default
100
AcDb2dPolyline
 66
     1
 10
0.0
 20
0.0
 30
0.0
  0
VERTEX
  5
2E0
330
2DF
100
AcDbEntity
  8
Default
100
AcDbVertex
100
AcDb2dVertex
 10
-10.14024253519997
 20
48.88448058447706
 30
0.0
  0
VERTEX
  5
2E1
330
2DF
100
AcDbEntity
  8
Default
100
AcDbVertex
100
AcDb2dVertex
 10
-10.14024253519997
 20
47.42007291632491
 30
0.0
  0
SEQEND
  5
2E2
330
2DF
100
AcDbEntity
  8
Default
  0
LINE
  5
2E3
330
1F
100
AcDbEntity
  8
Default
  6
Continuous
100
AcDbLine
 10
-10.22754935279999
 20
48.94042685178191
 30
0.0
 11
-10.22754935279999
 21
64.92422560517133
 31
0.0
  0
LINE
  5
2E4
330
1F
100
AcDbEntity
  8
Default
  6
Continuous
100
AcDbLine
 10
-10.66504935279999
 20
65.17556071489383
 30
0.0
 11
-10.66504935279999
 21
48.94042685178192
 31
0.0
  0
LINE
  5
2E5
330
1F
100
AcDbEntity
  8
Default
  6
Continuous
100
AcDbLine
 10
-9.993201361499985
 20
66.45782531697134
 30
0.0
 11
-10.19278691039999
 21
67.93557293767134
 31
0.0
  0
POLYLINE
  5
2E6
330
1F
100
AcDbEntity
  8
Default
  6
Continuous
100
AcDb2dPolyline
 66
     1
 10
0.0
 20
0.0
 30
0.0
  0
VERTEX
  5
2E7
330
2E6
100
AcDbEntity
  8
Default
  6
Continuous
100
AcDbVertex
100
AcDb2dVertex
 10
-10.19278691039999
 20
67.93557293767134
 30
0.0
  0
VERTEX
  5
2E8
330
2E6
100
AcDbEntity
  8
Default
  6
Continuous
100
AcDbVertex
100
AcDb2dVertex
 10
-10.19413316319999
 20
67.94485752907133
 30
0.0
  0
VERTEX
  5
2E9
330
2E6
100
AcDbEntity
  8
Default
  6
Continuous
100
AcDbVertex
100
AcDb2dVertex
 10
-10.19553759529999
 20
67.95367012867135
 30
0.0
  0
VERTEX
  5
2EA
330
2E6
100
AcDbEntity
  8
Default
  6
Continuous
100
AcDbVertex
100
AcDb2dVertex
 10
-10.19711792859999
 20
67.96262703577133
 30
0.0
  0
VERTEX
  5
2EB
330
2E6
100
AcDbEntity
  8
Default
  6
Continuous
100
AcDbVertex
100
AcDb2dVertex
 10
-10.19888597329999
 20
67.97159559897133
 30
0.0
  0
VERTEX
  5
2EC
330
2E6
100
AcDbEntity
  8
Default
  6
Continuous
100
AcDbVertex
100
AcDb2dVertex
 10
-10.20092513289999
 20
67.98077837877133
 30
0.0
  0
VERTEX
  5
2ED
330
2E6
100
AcDbEntity
  8
Default
  6
Continuous
100
AcDbVertex
100
AcDb2dVertex
 10
-10.20358647519998
 20
67.99126506627132
 30
0.0
  0
VERTEX
  5
2EE
330
2E6
100
AcDbEntity
  8
Default
  6
Continuous
100
AcDbVertex
100
AcDb2dVertex
 10
-10.20711100589999
 20
68.00317942367133
 30
0.0
  0
VERTEX
  5
2EF
330
2E6
100
AcDbEntity
  8
Default
  6
Continuous
100
AcDbVertex
100
AcDb2dVertex
 10
-10.21172069179999
 20
68.01635411327135
 30
0.0
  0
VERTEX
  5
2F0
330
2E6
100
AcDbEntity
  8
Default
  6
Continuous
100
AcDbVertex
100
AcDb2dVertex
 10
-10.21803614969998
 20
68.03141538367134
 30
0.0
  0
VERTEX
  5
2F1
330
2E6
100
AcDbEntity
  8
Default
  6
Continuous
100
AcDbVertex
100
AcDb2dVertex
 10
-10.22683303749999
 20
68.04865158967135
 30
0.0
  0
VERTEX
  5
2F2
330
2E6
100
AcDbEntity
  8
Default
  6
Continuous
100
AcDbVertex
100
AcDb2dVertex
 10
-10.23851208769999
 20
68.06722423497135
 30
0.0
  0
VERTEX
  5
2F3
330
2E6
100
AcDbEntity
  8
Default
  6
Continuous
100
AcDbVertex
100
AcDb2dVertex
 10
-10.25314262559998
 20
68.08598421907135
 30
0.0
  0
VERTEX
  5
2F4
330
2E6
100
AcDbEntity
  8
Default
  6
Continuous
100
AcDbVertex
100
AcDb2dVertex
 10
-10.27119536469998
 20
68.10448016197134
 30
0.0
  0
VERTEX
  5
2F5
330
2E6
100
AcDbEntity
  8
Default
  6
Continuous
100
AcDbVertex
100
AcDb2dVertex
 10
-10.29286199039998
 20
68.12188725087134
 30
0.0
  0
VERTEX
  5
2F6
330
2E6
100
AcDbEntity
  8
Default
  6
Continuous
100
AcDbVertex
100
AcDb2dVertex
 10
-10.31716222789998
 20
68.13677196427133
 30
0.0
  0
VERTEX
  5
2F7
330
2E6
100
AcDbEntity
  8
Default
  6
Continuous
100
AcDbVertex
100
AcDb2dVertex
 10
-10.34367880839999
 20
68.14858852877134
 30
0.0
  0
VERTEX
  5
2F8
330
2E6
100
AcDbEntity
  8
Default
  6
Continuous
100
AcDbVertex
100
AcDb2dVertex
 10
-10.37222727009998
 20
68.15697659337133
 30
0.0
  0
VERTEX
  5
2F9
330
2E6
100
AcDbEntity
  8
Default
  6
Continuous
100
AcDbVertex
100
AcDb2dVertex
 10
-10.40164782859998
 20
68.16143991637134
 30
0.0
  0
VERTEX
  5
2FA
330
2E6
100
AcDbEntity
  8
Default
  6
Continuous
100
AcDbVertex
100
AcDb2dVertex
 10
-10.43136669289999
 20
68.16189629587134
 30
0.0
  0
VERTEX
  5
2FB
330
2E6
100
AcDbEntity
  8
Default
  6
Continuous
100
AcDbVertex
100
AcDb2dVertex
 10
-10.46088392399999
 20
68.15834310957135
 30
0.0
  0
VERTEX
  5
2FC
330
2E6
100
AcDbEntity
  8
Default
  6
Continuous
100
AcDbVertex
100
AcDb2dVertex
 10
-10.48908399069999
 20
68.15103492457135
 30
0.0
  0
VERTEX
  5
2FD
330
2E6
100
AcDbEntity
  8
Default
  6
Continuous
100
AcDbVertex
100
AcDb2dVertex
 10
-10.51560684409998
 20
68.14029569247134
 30
0.0
  0
VERTEX
  5
2FE
330
2E6
100
AcDbEntity
  8
Default
  6
Continuous
100
AcDbVertex
100
AcDb2dVertex
 10
-10.54002113899999
 20
68.12653621987133
 30
0.0
  0
VERTEX
  5
2FF
330
2E6
100
AcDbEntity
  8
Default
  6
Continuous
100
AcDbVertex
100
AcDb2dVertex
 10
-10.56140936809999
 20
68.11071480807135
 30
0.0
  0
VERTEX
  5
300
330
2E6
100
AcDbEntity
  8
Default
  6
Continuous
100
AcDbVertex
100
AcDb2dVertex
 10
-10.57970350809999
 20
68.09354988837134
 30
0.0
  0
VERTEX
  5
301
330
2E6
100
AcDbEntity
  8
Default
  6
Continuous
100
AcDbVertex
100
AcDb2dVertex
 10
-10.59510779399999
 20
68.07554284777135
 30
0.0
  0
VERTEX
  5
302
330
2E6
100
AcDbEntity
  8
Default
  6
Continuous
100
AcDbVertex
100
AcDb2dVertex
 10
-10.60755609159999
 20
68.05758466667135
 30
0.0
  0
SEQEND
  5
303
330
2E6
100
AcDbEntity
  8
Default
  6
Continuous
  0
LINE
  5
304
330
1F
100
AcDbEntity
  8
Default
  6
Continuous
100
AcDbLine
 10
-10.62615138409998
 20
67.87556031727135
 30
0.0
 11
-9.812285084908162
 21
61.84951571678991
 31
0.0
  0
POLYLINE
  5
305
330
1F
100
AcDbEntity
  8
Default
  6
Continuous
100
AcDb2dPolyline
 66
     1
 10
0.0
 20
0.0
 30
0.0
  0
VERTEX
  5
306
330
305
100
AcDbEntity
  8
Default
  6
Continuous
100
AcDbVertex
100
AcDb2dVertex
 10
-9.812285084908162
 20
61.84951571678991
 30
0.0
  0
VERTEX
  5
307
330
305
100
AcDbEntity
  8
Default
  6
Continuous
100
AcDbVertex
100
AcDb2dVertex
 10
-9.810768235299989
 20
61.83984209457134
 30
0.0
  0
VERTEX
  5
308
330
305
100
AcDbEntity
  8
Default
  6
Continuous
100
AcDbVertex
100
AcDb2dVertex
 10
-9.80237474469999
 20
61.80461912597133
 30
0.0
  0
VERTEX
  5
309
330
305
100
AcDbEntity
  8
Default
  6
Continuous
100
AcDbVertex
100
AcDb2dVertex
 10
-9.790440956399983
 20
61.77162492847134
 30
0.0
  0
VERTEX
  5
30A
330
305
100
AcDbEntity
  8
Default
  6
Continuous
100
AcDbVertex
100
AcDb2dVertex
 10
-9.775581052399986
 20
61.74035329637132
 30
0.0
  0
VERTEX
  5
30B
330
305
100
AcDbEntity
  8
Default
  6
Continuous
100
AcDbVertex
100
AcDb2dVertex
 10
-9.75809040259999
 20
61.71004441287133
 30
0.0
  0
VERTEX
  5
30C
330
305
100
AcDbEntity
  8
Default
  6
Continuous
100
AcDbVertex
100
AcDb2dVertex
 10
-9.738376710299988
 20
61.68043127047133
 30
0.0
  0
VERTEX
  5
30D
330
305
100
AcDbEntity
  8
Default
  6
Continuous
100
AcDbVertex
100
AcDb2dVertex
 10
-9.71631292019999
 20
61.65068745097133
 30
0.0
  0
VERTEX
  5
30E
330
305
100
AcDbEntity
  8
Default
  6
Continuous
100
AcDbVertex
100
AcDb2dVertex
 10
-9.691182633499984
 20
61.61967579547132
 30
0.0
  0
VERTEX
  5
30F
330
305
100
AcDbEntity
  8
Default
  6
Continuous
100
AcDbVertex
100
AcDb2dVertex
 10
-9.662531726299989
 20
61.58701747717134
 30
0.0
  0
VERTEX
  5
310
330
305
100
AcDbEntity
  8
Default
  6
Continuous
100
AcDbVertex
100
AcDb2dVertex
 10
-9.630432094699984
 20
61.55310087327135
 30
0.0
  0
VERTEX
  5
311
330
305
100
AcDbEntity
  8
Default
  6
Continuous
100
AcDbVertex
100
AcDb2dVertex
 10
-9.595271892399985
 20
61.51826172697133
 30
0.0
  0
VERTEX
  5
312
330
305
100
AcDbEntity
  8
Default
  6
Continuous
100
AcDbVertex
100
AcDb2dVertex
 10
-9.557298733699987
 20
61.48251408087134
 30
0.0
  0
VERTEX
  5
313
330
305
100
AcDbEntity
  8
Default
  6
Continuous
100
AcDbVertex
100
AcDb2dVertex
 10
-9.516413937599985
 20
61.44562379137133
 30
0.0
  0
VERTEX
  5
314
330
305
100
AcDbEntity
  8
Default
  6
Continuous
100
AcDbVertex
100
AcDb2dVertex
 10
-9.472789333399987
 20
61.40771961847133
 30
0.0
  0
VERTEX
  5
315
330
305
100
AcDbEntity
  8
Default
  6
Continuous
100
AcDbVertex
100
AcDb2dVertex
 10
-9.42665661649999
 20
61.36897332817134
 30
0.0
  0
VERTEX
  5
316
330
305
100
AcDbEntity
  8
Default
  6
Continuous
100
AcDbVertex
100
AcDb2dVertex
 10
-9.378151546999987
 20
61.32942900997134
 30
0.0
  0
VERTEX
  5
317
330
305
100
AcDbEntity
  8
Default
  6
Continuous
100
AcDbVertex
100
AcDb2dVertex
 10
-9.327459476999984
 20
61.28922595457135
 30
0.0
  0
VERTEX
  5
318
330
305
100
AcDbEntity
  8
Default
  6
Continuous
100
AcDbVertex
100
AcDb2dVertex
 10
-9.274750909899986
 20
61.24863072617134
 30
0.0
  0
VERTEX
  5
319
330
305
100
AcDbEntity
  8
Default
  6
Continuous
100
AcDbVertex
100
AcDb2dVertex
 10
-9.22021667659999
 20
61.20788921757133
 30
0.0
  0
VERTEX
  5
31A
330
305
100
AcDbEntity
  8
Default
  6
Continuous
100
AcDbVertex
100
AcDb2dVertex
 10
-9.164081715799988
 20
61.16721132527132
 30
0.0
  0
VERTEX
  5
31B
330
305
100
AcDbEntity
  8
Default
  6
Continuous
100
AcDbVertex
100
AcDb2dVertex
 10
-9.13996432079999
 20
61.15024198357133
 30
0.0
  0
SEQEND
  5
31C
330
305
100
AcDbEntity
  8
Default
  6
Continuous
  0
ARC
  5
31D
330
1F
100
AcDbEntity
  8
Default
  6
Continuous
100
AcDbCircle
 10
-10.24530049801636
 20
66.19558950741863
 30
0.0
 40
0.2624364820926983
100
AcDbArc
 50
71.79457566827489
 51
76.580291370711
  0
SPLINE
  5
31E
330
1F
100
AcDbEntity
  8
Default
  6
Continuous
100
AcDbSpline
210
0.0
220
0.0
230
1.0
 70
     8
 71
     3
 72
    14
 73
    10
 74
     0
 42
0.0000000001
 43
0.0000000001
 40
-5.330056076705846
 40
-5.330056076705846
 40
-5.330056076705846
 40
-5.330056076705846
 40
-5.222133170105846
 40
-5.109923352005846
 40
-4.992843695705846
 40
-4.870454260905846
 40
-4.742277513705846
 40
-4.608324210205846
 40
-4.330056076705846
 40
-4.330056076705846
 40
-4.330056076705846
 40
-4.330056076705846
 10
-10.16330881859999
 20
66.44488906947134
 30
0.0
 10
-10.15224250939999
 20
66.44124949117133
 30
0.0
 10
-10.13014008659999
 20
66.43233551677133
 30
0.0
 10
-10.09813703879998
 20
66.41483647227133
 30
0.0
 10
-10.06710584629999
 20
66.39281118107135
 30
0.0
 10
-10.03768240629999
 20
66.36604213687133
 30
0.0
 10
-10.01065407449999
 20
66.33435489427134
 30
0.0
 10
-9.97918990169999
 20
66.28515019627133
 30
0.0
 10
-9.964003586499985
 20
66.24198656257133
 30
0.0
 10
-9.960016935799988
 20
66.21221197102133
 30
0.0
  0
LINE
  5
31F
330
1F
100
AcDbEntity
  8
Default
  6
Continuous
100
AcDbLine
 10
-9.960016935799988
 20
66.21221197102133
 30
0.0
 11
-9.381798833044922
 21
61.93084492628675
 31
0.0
  0
LINE
  5
320
330
1F
100
AcDbEntity
  8
Default
  6
Continuous
100
AcDbLine
 10
-9.381798833044922
 20
61.93084492628675
 30
0.0
 11
-9.366624133199984
 21
61.91224379507133
 31
0.0
  0
POLYLINE
  5
321
330
1F
100
AcDbEntity
  8
Default
  6
Continuous
100
AcDb2dPolyline
 66
     1
 10
0.0
 20
0.0
 30
0.0
  0
VERTEX
  5
322
330
321
100
AcDbEntity
  8
Default
  6
Continuous
100
AcDbVertex
100
AcDb2dVertex
 10
-9.366624133199984
 20
61.91224379507133
 30
0.0
  0
VERTEX
  5
323
330
321
100
AcDbEntity
  8
Default
  6
Continuous
100
AcDbVertex
100
AcDb2dVertex
 10
-9.35246937249999
 20
61.89606009617134
 30
0.0
  0
VERTEX
  5
324
330
321
100
AcDbEntity
  8
Default
  6
Continuous
100
AcDbVertex
100
AcDb2dVertex
 10
-9.334315496299986
 20
61.87651887527133
 30
0.0
  0
VERTEX
  5
325
330
321
100
AcDbEntity
  8
Default
  6
Continuous
100
AcDbVertex
100
AcDb2dVertex
 10
-9.313015546499983
 20
61.85460439787133
 30
0.0
  0
VERTEX
  5
326
330
321
100
AcDbEntity
  8
Default
  6
Continuous
100
AcDbVertex
100
AcDb2dVertex
 10
-9.288603695499987
 20
61.83054764507133
 30
0.0
  0
VERTEX
  5
327
330
321
100
AcDbEntity
  8
Default
  6
Continuous
100
AcDbVertex
100
AcDb2dVertex
 10
-9.260883514599989
 20
61.80436050707135
 30
0.0
  0
VERTEX
  5
328
330
321
100
AcDbEntity
  8
Default
  6
Continuous
100
AcDbVertex
100
AcDb2dVertex
 10
-9.230430950399985
 20
61.77671512507135
 30
0.0
  0
VERTEX
  5
329
330
321
100
AcDbEntity
  8
Default
  6
Continuous
100
AcDbVertex
100
AcDb2dVertex
 10
-9.197545254899985
 20
61.74790463587135
 30
0.0
  0
VERTEX
  5
32A
330
321
100
AcDbEntity
  8
Default
  6
Continuous
100
AcDbVertex
100
AcDb2dVertex
 10
-9.162241800599986
 20
61.71795775427134
 30
0.0
  0
VERTEX
  5
32B
330
321
100
AcDbEntity
  8
Default
  6
Continuous
100
AcDbVertex
100
AcDb2dVertex
 10
-9.124776170199986
 20
61.68713895427135
 30
0.0
  0
VERTEX
  5
32C
330
321
100
AcDbEntity
  8
Default
  6
Continuous
100
AcDbVertex
100
AcDb2dVertex
 10
-9.085350291499985
 20
61.65566794207135
 30
0.0
  0
VERTEX
  5
32D
330
321
100
AcDbEntity
  8
Default
  6
Continuous
100
AcDbVertex
100
AcDb2dVertex
 10
-9.08180802279999
 20
61.65291513157135
 30
0.0
  0
SEQEND
  5
32E
330
321
100
AcDbEntity
  8
Default
  6
Continuous
  0
LINE
  5
32F
330
1F
100
AcDbEntity
  8
Default
  6
Continuous
100
AcDbLine
 10
-2.081509008699989
 20
66.45782531697134
 30
0.0
 11
-10.13145401439998
 21
66.45782531697134
 31
0.0
  0
ARC
  5
330
330
1F
100
AcDbEntity
  8
Default
  6
Continuous
100
AcDbCircle
 10
-10.13145401439998
 20
66.25314749679465
 30
0.0
 40
0.2046778201766841
100
AcDbArc
 50
90.0
 51
104.9898713003658
  0
POLYLINE
  5
331
330
1F
100
AcDbEntity
  8
Default
100
AcDb2dPolyline
 66
     1
 10
0.0
 20
0.0
 30
0.0
  0
VERTEX
  5
332
330
331
100
AcDbEntity
  8
Default
100
AcDbVertex
100
AcDb2dVertex
 10
-10.757000191389
 20
48.88448058447706
 30
0.0
  0
VERTEX
  5
333
330
331
100
AcDbEntity
  8
Default
100
AcDbVertex
100
AcDb2dVertex
 10
-10.757000191389
 20
47.00066718588486
 30
0.0
  0
SEQEND
  5
334
330
331
100
AcDbEntity
  8
Default
  0
SPLINE
  5
335
330
1F
100
AcDbEntity
  8
Default
100
AcDbSpline
210
0.0
220
0.0
230
1.0
 70
    12
 71
     2
 72
     8
 73
     5
 74
     0
 42
0.0000000001
 43
0.0000000001
 40
0.0
 40
0.0
 40
0.0
 40
0.0443594898986368
 40
0.0443594898986368
 40
0.0887189797972737
 40
0.0887189797972737
 40
0.0887189797972737
 10
-10.757000191389
 20
47.00066718588486
 30
0.0
 41
1.0
 10
-10.75718864202085
 20
46.9772272984063
 30
0.0
 41
0.9212322792887785
 10
-10.74051968982322
 20
46.96074670766197
 30
0.0
 41
1.0
 10
-10.72385073762561
 20
46.94426611691764
 30
0.0
 41
0.9212322792887785
 10
-10.70041450525915
 20
46.94472092579383
 30
0.0
 41
1.0
  0
POLYLINE
  5
336
330
1F
100
AcDbEntity
  8
Default
100
AcDb2dPolyline
 66
     1
 10
0.0
 20
0.0
 30
0.0
  0
VERTEX
  5
337
330
336
100
AcDbEntity
  8
Default
100
AcDbVertex
100
AcDb2dVertex
 10
-10.70041450525915
 20
46.94472092579383
 30
0.0
  0
VERTEX
  5
338
330
336
100
AcDbEntity
  8
Default
100
AcDbVertex
100
AcDb2dVertex
 10
-10.63566662029999
 20
46.94472092579385
 30
0.0
  0
SEQEND
  5
339
330
336
100
AcDbEntity
  8
Default
  0
LINE
  5
33A
330
1F
100
AcDbEntity
  8
Default
100
AcDbLine
 10
-10.63566662029999
 20
46.94472092579385
 30
0.0
 11
-10.63566662029999
 21
48.94042685178192
 31
0.0
  0
POLYLINE
  5
33B
330
1F
100
AcDbEntity
  8
Default
100
AcDb2dPolyline
 66
     1
 10
0.0
 20
0.0
 30
0.0
  0
VERTEX
  5
33C
330
33B
100
AcDbEntity
  8
Default
100
AcDbVertex
100
AcDb2dVertex
 10
-10.63566662029999
 20
48.94042685178192
 30
0.0
  0
VERTEX
  5
33D
330
33B
100
AcDbEntity
  8
Default
100
AcDbVertex
100
AcDb2dVertex
 10
-10.70041449809593
 20
48.94042685178191
 30
0.0
  0
SEQEND
  5
33E
330
33B
100
AcDbEntity
  8
Default
  0
SPLINE
  5
33F
330
1F
100
AcDbEntity
  8
Default
100
AcDbSpline
210
0.0
220
0.0
230
1.0
 70
    12
 71
     2
 72
     8
 73
     5
 74
     0
 42
0.0000000001
 43
0.0000000001
 40
-0.0887191648069352
 40
-0.0887191648069352
 40
-0.0887191648069352
 40
-0.0443595824034676
 40
-0.0443595824034676
 40
0.0
 40
0.0
 40
0.0
 10
-10.70041449809593
 20
48.94042685178191
 30
0.0
 41
1.0
 10
-10.72385079983463
 20
48.94088182680232
 30
0.0
 41
0.9212309118505145
 10
-10.74051980362787
 20
48.92440118500666
 30
0.0
 41
1.0
 10
-10.75718880742112
 20
48.90792054321098
 30
0.0
 41
0.9212309118505145
 10
-10.757000191389
 20
48.88448058447706
 30
0.0
 41
1.0
  0
POLYLINE
  5
340
330
1F
100
AcDbEntity
  8
Default
100
AcDb2dPolyline
 66
     1
 10
0.0
 20
0.0
 30
0.0
  0
VERTEX
  5
341
330
340
100
AcDbEntity
  8
Default
100
AcDbVertex
100
AcDb2dVertex
 10
-10.75800019138899
 20
67.11532037357705
 30
0.0
  0
VERTEX
  5
342
330
340
100
AcDbEntity
  8
Default
100
AcDbVertex
100
AcDb2dVertex
 10
-10.75800019138899
 20
65.23150697498485
 30
0.0
  0
SEQEND
  5
343
330
340
100
AcDbEntity
  8
Default
  0
SPLINE
  5
344
330
1F
100
AcDbEntity
  8
Default
100
AcDbSpline
210
0.0
220
0.0
230
1.0
 70
    12
 71
     2
 72
     8
 73
     5
 74
     0
 42
0.0000000001
 43
0.0000000001
 40
0.0
 40
0.0
 40
0.0
 40
0.0443594898986368
 40
0.0443594898986368
 40
0.0887189797972737
 40
0.0887189797972737
 40
0.0887189797972737
 10
-10.75800019138899
 20
65.23150697498485
 30
0.0
 41
1.0
 10
-10.75818864202084
 20
65.20806708750628
 30
0.0
 41
0.9212322792887785
 10
-10.74151968982321
 20
65.19158649676196
 30
0.0
 41
1.0
 10
-10.72485073762561
 20
65.17510590601762
 30
0.0
 41
0.9212322792887785
 10
-10.70141450525914
 20
65.17556071489382
 30
0.0
 41
1.0
  0
POLYLINE
  5
345
330
1F
100
AcDbEntity
  8
Default
100
AcDb2dPolyline
 66
     1
 10
0.0
 20
0.0
 30
0.0
  0
VERTEX
  5
346
330
345
100
AcDbEntity
  8
Default
100
AcDbVertex
100
AcDb2dVertex
 10
-10.70141450525914
 20
65.17556071489382
 30
0.0
  0
VERTEX
  5
347
330
345
100
AcDbEntity
  8
Default
100
AcDbVertex
100
AcDb2dVertex
 10
-10.63666662029998
 20
65.17556071489383
 30
0.0
  0
SEQEND
  5
348
330
345
100
AcDbEntity
  8
Default
  0
LINE
  5
349
330
1F
100
AcDbEntity
  8
Default
100
AcDbLine
 10
-10.63666662029998
 20
65.17556071489383
 30
0.0
 11
-10.63666662029998
 21
67.17126664088191
 31
0.0
  0
POLYLINE
  5
34A
330
1F
100
AcDbEntity
  8
Default
100
AcDb2dPolyline
 66
     1
 10
0.0
 20
0.0
 30
0.0
  0
VERTEX
  5
34B
330
34A
100
AcDbEntity
  8
Default
100
AcDbVertex
100
AcDb2dVertex
 10
-10.63666662029998
 20
67.17126664088191
 30
0.0
  0
VERTEX
  5
34C
330
34A
100
AcDbEntity
  8
Default
100
AcDbVertex
100
AcDb2dVertex
 10
-10.70141449809593
 20
67.1712666408819
 30
0.0
  0
SEQEND
  5
34D
330
34A
100
AcDbEntity
  8
Default
  0
SPLINE
  5
34E
330
1F
100
AcDbEntity
  8
Default
100
AcDbSpline
210
0.0
220
0.0
230
1.0
 70
    12
 71
     2
 72
     8
 73
     5
 74
     0
 42
0.0000000001
 43
0.0000000001
 40
-0.0887191648069352
 40
-0.0887191648069352
 40
-0.0887191648069352
 40
-0.0443595824034676
 40
-0.0443595824034676
 40
0.0
 40
0.0
 40
0.0
 10
-10.70141449809593
 20
67.1712666408819
 30
0.0
 41
1.0
 10
-10.72485079983463
 20
67.1717216159023
 30
0.0
 41
0.9212309118505145
 10
-10.74151980362786
 20
67.15524097410665
 30
0.0
 41
1.0
 10
-10.75818880742111
 20
67.13876033231097
 30
0.0
 41
0.9212309118505145
 10
-10.75800019138899
 20
67.11532037357705
 30
0.0
 41
1.0
  0
LINE
  5
34F
330
1F
100
AcDbEntity
  8
Default
  6
Continuous
100
AcDbLine
 10
-9.934113720099987
 20
66.02032531697134
 30
0.0
 11
-3.963032211699989
 21
66.02032531697134
 31
0.0
  0
SPLINE
  5
350
330
1F
100
AcDbEntity
  8
Default
100
AcDbSpline
210
0.0
220
0.0
230
1.0
 70
    12
 71
     2
 72
     6
 73
     3
 74
     0
 42
0.0000000001
 43
0.0000000001
 40
0.0
 40
0.0
 40
0.0
 40
0.0173380954150765
 40
0.0173380954150765
 40
0.0173380954150765
 10
3.932233289051409
 20
22.40433556379106
 30
0.0
 41
1.0
 10
3.92345639692924
 20
22.40371639174898
 30
0.0
 41
0.9780419435713372
 10
3.91569434915179
 20
22.39957298449861
 30
0.0
 41
1.0
  0
SPLINE
  5
351
330
1F
100
AcDbEntity
  8
Default
100
AcDbSpline
210
0.0
220
0.0
230
1.0
 70
    24
 71
     2
 72
     6
 73
     3
 74
     0
 42
0.0000000001
 43
0.0000000001
 40
0.0
 40
0.0
 40
0.0
 40
0.1115294638954875
 40
0.1115294638954875
 40
0.1115294638954875
 10
3.91569434915179
 20
22.39957298449861
 30
0.0
 10
3.931801657045809
 20
22.34618515853041
 30
0.0
 10
3.947908964939826
 20
22.29279733256221
 30
0.0
  0
POLYLINE
  5
352
330
1F
100
AcDbEntity
  8
Default
100
AcDb2dPolyline
 66
     1
 10
0.0
 20
0.0
 30
0.0
  0
VERTEX
  5
353
330
352
100
AcDbEntity
  8
Default
100
AcDbVertex
100
AcDb2dVertex
 10
3.947908964939826
 20
22.29279733256221
 30
0.0
  0
VERTEX
  5
354
330
352
100
AcDbEntity
  8
Default
100
AcDbVertex
100
AcDb2dVertex
 10
3.811359471191209
 20
23.26187114428238
 30
0.0
  0
SEQEND
  5
355
330
352
100
AcDbEntity
  8
Default
  0
ARC
  5
356
330
1F
100
AcDbEntity
  8
Default
100
AcDbCircle
 10
2.738752178915886
 20
41.90749213804632
 30
0.0
 40
19.46728025630697
100
AcDbArc
 50
274.6168211796018
 51
276.5220669114621
  0
LINE
  5
357
330
1F
100
AcDbEntity
  8
Default
100
AcDbLine
 10
4.305703938889122
 20
22.50337755480609
 30
0.0
 11
4.306762479726173
 21
22.49511849332207
 31
0.0
  0
ARC
  5
358
330
1F
100
AcDbEntity
  8
Default
100
AcDbCircle
 10
-80.17860919839806
 20
11.66686443219723
 30
0.0
 40
85.1764586819801
100
AcDbArc
 50
7.278957263966058
 51
7.303621893190657
  0
ARC
  5
359
330
1F
100
AcDbEntity
  8
Default
100
AcDbCircle
 10
2.803599137610417
 20
40.36538814168503
 30
0.0
 40
17.97001006062006
100
AcDbArc
 50
274.8131991347315
 51
276.8817883607649
  0
SPLINE
  5
35A
330
1F
100
AcDbEntity
  8
Default
100
AcDbSpline
210
0.0
220
0.0
230
1.0
 70
    12
 71
     2
 72
     6
 73
     3
 74
     0
 42
0.0000000001
 43
0.0000000001
 40
0.0
 40
0.0
 40
0.0
 40
0.2508277888405657
 40
0.2508277888405657
 40
0.2508277888405657
 10
4.956788777130837
 20
22.52484342031936
 30
0.0
 41
1.0
 10
5.083849369481461
 20
22.54073587251628
 30
0.0
 41
0.9693972343546567
 10
5.188030015241791
 20
22.61518959783796
 30
0.0
 41
1.0
  0
SPLINE
  5
35B
330
1F
100
AcDbEntity
  8
Default
100
AcDbSpline
210
0.0
220
0.0
230
1.0
 70
    12
 71
     2
 72
     6
 73
     3
 74
     0
 42
0.0000000001
 43
0.0000000001
 40
0.0
 40
0.0
 40
0.0
 40
0.0393067456422581
 40
0.0393067456422581
 40
0.0393067456422581
 10
5.188030015241791
 20
22.61518959783796
 30
0.0
 41
1.0
 10
5.185434469993238
 20
22.63451840841797
 30
0.0
 41
0.9999997988105347
 10
5.182069149168575
 20
22.65374287582131
 30
0.0
 41
0.99999999690695
  0
SPLINE
  5
35C
330
1F
100
AcDbEntity
  8
Default
100
AcDbSpline
210
0.0
220
0.0
230
1.0
 70
    12
 71
     2
 72
     6
 73
     3
 74
     0
 42
0.0000000001
 43
0.0000000001
 40
0.0
 40
0.0
 40
0.0
 40
0.2497088885855053
 40
0.2497088885855053
 40
0.2497088885855053
 10
5.182069149168582
 20
22.65374287582131
 30
0.0
 41
1.0
 10
5.076441081715888
 20
22.58114846411698
 30
0.0
 41
0.9707367384459072
 10
4.949960141145779
 20
22.56620055952524
 30
0.0
 41
1.0
  0
ARC
  5
35D
330
1F
100
AcDbEntity
  8
Default
100
AcDbCircle
 10
2.038812432441772
 20
58.43860359884702
 30
0.0
 40
35.67530767759909
100
AcDbArc
 50
273.5708924360052
 51
274.5956222970162
  0
LINE
  5
35E
330
1F
100
AcDbEntity
  8
Default
100
AcDbLine
 10
4.260795140186884
 20
22.83255957907642
 30
0.0
 11
4.26173712500224
 21
22.82647048438188
 31
0.0
  0
ARC
  5
35F
330
1F
100
AcDbEntity
  8
Default
100
AcDbCircle
 10
-0.0847625239702143
 20
22.1540656566238
 30
0.0
 40
4.398202752364889
100
AcDbArc
 50
8.433171606975481
 51
8.793963910015744
  0
ARC
  5
360
330
1F
100
AcDbEntity
  8
Default
100
AcDbCircle
 10
2.312353345846089
 20
54.51957396410394
 30
0.0
 40
31.78058457858758
100
AcDbArc
 50
273.5241557467899
 51
274.6763573226913
  0
SPLINE
  5
361
330
1F
100
AcDbEntity
  8
Default
100
AcDbSpline
210
0.0
220
0.0
230
1.0
 70
    12
 71
     2
 72
     6
 73
     3
 74
     0
 42
0.0000000001
 43
0.0000000001
 40
0.0
 40
0.0
 40
0.0
 40
0.2586130425465446
 40
0.2586130425465446
 40
0.2586130425465446
 10
4.903336903784306
 20
22.8447833513903
 30
0.0
 41
1.0
 10
5.035039759812673
 20
22.85612979084987
 30
0.0
 41
0.9675914429885938
 10
5.144401365499474
 20
22.9303889530862
 30
0.0
 41
1.0
  0
SPLINE
  5
362
330
1F
100
AcDbEntity
  8
Default
100
AcDbSpline
210
0.0
220
0.0
230
1.0
 70
    12
 71
     2
 72
     6
 73
     3
 74
     0
 42
0.0000000001
 43
0.0000000001
 40
0.0
 40
0.0
 40
0.0
 40
0.0329597756481124
 40
0.0329597756481124
 40
0.0329597756481124
 10
5.144401365499474
 20
22.9303889530862
 30
0.0
 41
1.0
 10
5.142357532466908
 20
22.94660039378421
 30
0.0
 41
0.9999854773655392
 10
5.139761451365632
 20
22.96274917141593
 30
0.0
 41
0.9999997527681319
  0
SPLINE
  5
363
330
1F
100
AcDbEntity
  8
Default
100
AcDbSpline
210
0.0
220
0.0
230
1.0
 70
    12
 71
     2
 72
     6
 73
     3
 74
     0
 42
0.0000000001
 43
0.0000000001
 40
0.0
 40
0.0
 40
0.0
 40
0.2589603388760939
 40
0.2589603388760939
 40
0.2589603388760939
 10
5.139761451365628
 20
22.96274917141593
 30
0.0
 41
1.0
 10
5.029163157254577
 20
22.88860588614428
 30
0.0
 41
0.9675434361208503
 10
4.897216721336092
 20
22.877991922266
 30
0.0
 41
1.0
  0
ARC
  5
364
330
1F
100
AcDbEntity
  8
Default
100
AcDbCircle
 10
2.476811601585779
 20
35.85205732475629
 30
0.0
 40
13.8201255351219
100
AcDbArc
 50
277.7955228224179
 51
280.5227059225403
  0
LINE
  5
365
330
1F
100
AcDbEntity
  8
Default
100
AcDbLine
 10
4.351347910412569
 20
22.15965127492639
 30
0.0
 11
4.352318676518363
 21
22.15332559677142
 31
0.0
  0
ARC
  5
366
330
1F
100
AcDbEntity
  8
Default
100
AcDbCircle
 10
7.920946020505751
 20
22.70098268347402
 30
0.0
 40
3.610405711948466
100
AcDbArc
 50
188.7247912579286
 51
189.1519691928253
  0
ARC
  5
367
330
1F
100
AcDbEntity
  8
Default
100
AcDbCircle
 10
2.421449121331702
 20
35.32319584497364
 30
0.0
 40
13.33757906746722
100
AcDbArc
 50
278.3420676028623
 51
281.1723261685856
  0
SPLINE
  5
368
330
1F
100
AcDbEntity
  8
Default
100
AcDbSpline
210
0.0
220
0.0
230
1.0
 70
    12
 71
     2
 72
     6
 73
     3
 74
     0
 42
0.0000000001
 43
0.0000000001
 40
0.0
 40
0.0
 40
0.0
 40
0.2286703024581835
 40
0.2286703024581835
 40
0.2286703024581835
 10
5.005745480447883
 20
22.23837915885998
 30
0.0
 41
1.0
 10
5.119895902764144
 20
22.2609960349476
 30
0.0
 41
0.9739833963501032
 10
5.212337475722974
 20
22.33168123557574
 30
0.0
 41
1.0
  0
SPLINE
  5
369
330
1F
100
AcDbEntity
  8
Default
100
AcDbSpline
210
0.0
220
0.0
230
1.0
 70
    12
 71
     2
 72
     6
 73
     3
 74
     0
 42
0.0000000001
 43
0.0000000001
 40
0.0
 40
0.0
 40
0.0
 40
0.0258052011654917
 40
0.0258052011654917
 40
0.0258052011654917
 10
5.212337475722974
 20
22.33168123557574
 30
0.0
 41
1.0
 10
5.212534694823312
 20
22.3445838551038
 30
0.0
 41
0.999822609931566
 10
5.212245824398293
 20
22.3574847480937
 30
0.0
 41
1.0
  0
SPLINE
  5
36A
330
1F
100
AcDbEntity
  8
Default
100
AcDbSpline
210
0.0
220
0.0
230
1.0
 70
    12
 71
     2
 72
     6
 73
     3
 74
     0
 42
0.0000000001
 43
0.0000000001
 40
0.0
 40
0.0
 40
0.0
 40
0.2331431811534332
 40
0.2331431811534332
 40
0.2331431811534332
 10
5.212245824398293
 20
22.3574847480937
 30
0.0
 41
1.0
 10
5.117289917899432
 20
22.28636569502103
 30
0.0
 41
0.9740991827395424
 10
5.000714353577065
 20
22.2643502074749
 30
0.0
 41
1.0
  0
SPLINE
  5
36B
330
1F
100
AcDbEntity
  8
Default
100
AcDbSpline
210
0.0
220
0.0
230
1.0
 70
    12
 71
     2
 72
     6
 73
     3
 74
     0
 42
0.0000000001
 43
0.0000000001
 40
-0.3334060439454795
 40
-0.3334060439454795
 40
-0.3334060439454795
 40
0.0
 40
0.0
 40
0.0
 10
5.487174600955596
 20
23.38249570737552
 30
0.0
 41
1.0
 10
5.506005673439025
 20
23.21682136360085
 30
0.0
 41
0.999657403781152
 10
5.533439472701117
 20
23.05128558299733
 30
0.0
 41
1.0
  0
SPLINE
  5
36C
330
1F
100
AcDbEntity
  8
Default
100
AcDbSpline
210
0.0
220
0.0
230
1.0
 70
    12
 71
     2
 72
     6
 73
     3
 74
     0
 42
0.0000000001
 43
0.0000000001
 40
-0.5113006500514725
 40
-0.5113006500514725
 40
-0.5113006500514725
 40
0.0
 40
0.0
 40
0.0
 10
5.533439472701117
 20
23.05128558299733
 30
0.0
 41
1.0
 10
5.457606798470563
 20
22.80602381443531
 30
0.0
 41
0.9998280076521521
 10
5.385695196472737
 20
22.53975797857143
 30
0.0
 41
1.0
  0
SPLINE
  5
36D
330
1F
100
AcDbEntity
  8
Default
100
AcDbSpline
210
0.0
220
0.0
230
1.0
 70
    12
 71
     2
 72
     6
 73
     3
 74
     0
 42
0.0000000001
 43
0.0000000001
 40
-0.5389965836581292
 40
-0.5389965836581292
 40
-0.5389965836581292
 40
0.0
 40
0.0
 40
0.0
 10
5.385695196472737
 20
22.53975797857143
 30
0.0
 41
1.0
 10
5.309680342578458
 20
22.2515149226458
 30
0.0
 41
0.8621117229312395
 10
5.020392194540176
 20
22.17758735022156
 30
0.0
 41
1.0
  0
ARC
  5
36E
330
1F
100
AcDbEntity
  8
Default
100
AcDbCircle
 10
1.239569000423627
 20
37.2087212404704
 30
0.0
 40
15.49934224577794
100
AcDbArc
 50
280.7252028066096
 51
284.1188705224842
  0
ARC
  5
36F
330
1F
100
AcDbEntity
  8
Default
100
AcDbCircle
 10
4.100332129683094
 20
22.10497941618239
 30
0.0
 40
0.1270625587413707
100
AcDbArc
 50
189.3949197430565
 51
280.72520280661
  0
POLYLINE
  5
370
330
1F
100
AcDbEntity
  8
Default
100
AcDb2dPolyline
 66
     1
 10
0.0
 20
0.0
 30
0.0
  0
VERTEX
  5
371
330
370
100
AcDbEntity
  8
Default
100
AcDbVertex
100
AcDb2dVertex
 10
3.974973906862628
 20
22.08423791659346
 30
0.0
  0
VERTEX
  5
372
330
370
100
AcDbEntity
  8
Default
100
AcDbVertex
100
AcDb2dVertex
 10
3.91569434915179
 20
22.39957298449861
 30
0.0
  0
SEQEND
  5
373
330
370
100
AcDbEntity
  8
Default
  0
ARC
  5
374
330
1F
100
AcDbEntity
  8
Default
100
AcDbCircle
 10
4.668216867354401
 20
23.57250399123581
 30
0.0
 40
0.6744779630824255
100
AcDbArc
 50
334.0663292787139
 51
342.1128109109636
  0
ARC
  5
375
330
1F
100
AcDbEntity
  8
Default
100
AcDbCircle
 10
4.82511821373255
 20
23.49620281258654
 30
0.0
 40
0.5000076150041797
100
AcDbArc
 50
274.2389774450766
 51
334.0663292787148
  0
SPLINE
  5
376
330
1F
100
AcDbEntity
  8
Default
100
AcDbSpline
210
0.0
220
0.0
230
1.0
 70
    12
 71
     2
 72
     6
 73
     3
 74
     0
 42
0.0000000001
 43
0.0000000001
 40
-0.8819556308869502
 40
-0.8819556308869502
 40
-0.8819556308869502
 40
0.0
 40
0.0
 40
0.0
 10
4.862077095587479
 20
22.9975630066001
 30
0.0
 41
1.0
 10
4.422294184822364
 20
22.96500772872274
 30
0.0
 41
0.9999713796876327
 10
3.982069027447591
 20
22.93911051780985
 30
0.0
 41
1.0
  0
SPLINE
  5
377
330
1F
100
AcDbEntity
  8
Default
100
AcDbSpline
210
0.0
220
0.0
230
1.0
 70
    12
 71
     2
 72
     6
 73
     3
 74
     0
 42
0.0000000001
 43
0.0000000001
 40
0.0
 40
0.0
 40
0.0
 40
0.1797454813701551
 40
0.1797454813701551
 40
0.1797454813701551
 10
3.982069027447591
 20
22.93911051780985
 30
0.0
 41
1.0
 10
3.872851018561568
 20
22.93268469410911
 30
0.0
 41
0.7524925652658285
 10
3.85201153555519
 20
23.04008851444754
 30
0.0
 41
1.0
  0
SPLINE
  5
378
330
1F
100
AcDbEntity
  8
Default
100
AcDbSpline
210
0.0
220
0.0
230
1.0
 70
    24
 71
     2
 72
     6
 73
     3
 74
     0
 42
0.0000000001
 43
0.0000000001
 40
0.0
 40
0.0
 40
0.0
 40
0.1686969534964888
 40
0.1686969534964888
 40
0.1686969534964888
 10
3.85201153555519
 20
23.04008851444754
 30
0.0
 10
3.835948211609561
 20
23.1228933159603
 30
0.0
 10
3.81988488766393
 20
23.20569811747306
 30
0.0
  0
SPLINE
  5
379
330
1F
100
AcDbEntity
  8
Default
100
AcDbSpline
210
0.0
220
0.0
230
1.0
 70
    12
 71
     2
 72
     6
 73
     3
 74
     0
 42
0.0000000001
 43
0.0000000001
 40
0.0
 40
0.0
 40
0.0
 40
0.0015672370115101
 40
0.0015672370115101
 40
0.0015672370115101
 10
5.533977455662367
 20
23.15289526055365
 30
0.0
 41
1.0
 10
5.534178102696636
 20
23.15365282039594
 30
0.0
 41
0.9998800978383098
 10
5.534355194458442
 20
23.15441623028253
 30
0.0
 41
1.0
  0
SPLINE
  5
37A
330
1F
100
AcDbEntity
  8
Default
100
AcDbSpline
210
0.0
220
0.0
230
1.0
 70
    12
 71
     2
 72
     6
 73
     3
 74
     0
 42
0.0000000001
 43
0.0000000001
 40
0.0
 40
0.0
 40
0.0
 40
0.0173380954150765
 40
0.0173380954150765
 40
0.0173380954150765
 10
-3.932233289051409
 20
22.40433556379106
 30
0.0
 41
1.0
 10
-3.92345639692924
 20
22.40371639174898
 30
0.0
 41
0.9780419435713372
 10
-3.91569434915179
 20
22.39957298449861
 30
0.0
 41
1.0
  0
SPLINE
  5
37B
330
1F
100
AcDbEntity
  8
Default
100
AcDbSpline
210
0.0
220
0.0
230
1.0
 70
    24
 71
     2
 72
     6
 73
     3
 74
     0
 42
0.0000000001
 43
0.0000000001
 40
0.0
 40
0.0
 40
0.0
 40
0.1115294638954875
 40
0.1115294638954875
 40
0.1115294638954875
 10
-3.91569434915179
 20
22.39957298449861
 30
0.0
 10
-3.931801657045809
 20
22.34618515853041
 30
0.0
 10
-3.947908964939826
 20
22.29279733256221
 30
0.0
  0
POLYLINE
  5
37C
330
1F
100
AcDbEntity
  8
Default
100
AcDb2dPolyline
 66
     1
 10
0.0
 20
0.0
 30
0.0
  0
VERTEX
  5
37D
330
37C
100
AcDbEntity
  8
Default
100
AcDbVertex
100
AcDb2dVertex
 10
-3.947908964939826
 20
22.29279733256221
 30
0.0
  0
VERTEX
  5
37E
330
37C
100
AcDbEntity
  8
Default
100
AcDbVertex
100
AcDb2dVertex
 10
-3.811359471191209
 20
23.26187114428238
 30
0.0
  0
SEQEND
  5
37F
330
37C
100
AcDbEntity
  8
Default
  0
ARC
  5
380
330
1F
100
AcDbEntity
  8
Default
100
AcDbCircle
 10
-2.738752178915886
 20
41.90749213804632
 30
0.0
 40
19.46728025630697
100
AcDbArc
 50
263.4779330885379
 51
265.3831788203982
  0
LINE
  5
381
330
1F
100
AcDbEntity
  8
Default
100
AcDbLine
 10
-4.305703938889122
 20
22.50337755480609
 30
0.0
 11
-4.306762479726173
 21
22.49511849332207
 31
0.0
  0
ARC
  5
382
330
1F
100
AcDbEntity
  8
Default
100
AcDbCircle
 10
80.17860919839806
 20
11.66686443219723
 30
0.0
 40
85.1764586819801
100
AcDbArc
 50
172.6963781068094
 51
172.721042736034
  0
ARC
  5
383
330
1F
100
AcDbEntity
  8
Default
100
AcDbCircle
 10
-2.803599137610417
 20
40.36538814168503
 30
0.0
 40
17.97001006062006
100
AcDbArc
 50
263.1182116392351
 51
265.1868008652685
  0
SPLINE
  5
384
330
1F
100
AcDbEntity
  8
Default
100
AcDbSpline
210
0.0
220
0.0
230
1.0
 70
    12
 71
     2
 72
     6
 73
     3
 74
     0
 42
0.0000000001
 43
0.0000000001
 40
0.0
 40
0.0
 40
0.0
 40
0.2508277888405657
 40
0.2508277888405657
 40
0.2508277888405657
 10
-4.956788777130837
 20
22.52484342031936
 30
0.0
 41
1.0
 10
-5.083849369481461
 20
22.54073587251628
 30
0.0
 41
0.9693972343546567
 10
-5.188030015241791
 20
22.61518959783796
 30
0.0
 41
1.0
  0
SPLINE
  5
385
330
1F
100
AcDbEntity
  8
Default
100
AcDbSpline
210
0.0
220
0.0
230
1.0
 70
    12
 71
     2
 72
     6
 73
     3
 74
     0
 42
0.0000000001
 43
0.0000000001
 40
0.0
 40
0.0
 40
0.0
 40
0.0393067456422581
 40
0.0393067456422581
 40
0.0393067456422581
 10
-5.188030015241791
 20
22.61518959783796
 30
0.0
 41
1.0
 10
-5.185434469993238
 20
22.63451840841797
 30
0.0
 41
0.9999997988105347
 10
-5.182069149168575
 20
22.65374287582131
 30
0.0
 41
0.99999999690695
  0
SPLINE
  5
386
330
1F
100
AcDbEntity
  8
Default
100
AcDbSpline
210
0.0
220
0.0
230
1.0
 70
    12
 71
     2
 72
     6
 73
     3
 74
     0
 42
0.0000000001
 43
0.0000000001
 40
0.0
 40
0.0
 40
0.0
 40
0.2497088885855053
 40
0.2497088885855053
 40
0.2497088885855053
 10
-5.182069149168582
 20
22.65374287582131
 30
0.0
 41
1.0
 10
-5.076441081715888
 20
22.58114846411698
 30
0.0
 41
0.9707367384459072
 10
-4.949960141145779
 20
22.56620055952524
 30
0.0
 41
1.0
  0
ARC
  5
387
330
1F
100
AcDbEntity
  8
Default
100
AcDbCircle
 10
-2.038812432441772
 20
58.43860359884702
 30
0.0
 40
35.67530767759909
100
AcDbArc
 50
265.4043777029838
 51
266.4291075639948
  0
LINE
  5
388
330
1F
100
AcDbEntity
  8
Default
100
AcDbLine
 10
-4.260795140186884
 20
22.83255957907642
 30
0.0
 11
-4.26173712500224
 21
22.82647048438188
 31
0.0
  0
ARC
  5
389
330
1F
100
AcDbEntity
  8
Default
100
AcDbCircle
 10
0.0847625239702143
 20
22.1540656566238
 30
0.0
 40
4.398202752364889
100
AcDbArc
 50
171.2060360899843
 51
171.5668283930245
  0
ARC
  5
38A
330
1F
100
AcDbEntity
  8
Default
100
AcDbCircle
 10
-2.312353345846089
 20
54.51957396410394
 30
0.0
 40
31.78058457858758
100
AcDbArc
 50
265.3236426773087
 51
266.4758442532101
  0
SPLINE
  5
38B
330
1F
100
AcDbEntity
  8
Default
100
AcDbSpline
210
0.0
220
0.0
230
1.0
 70
    12
 71
     2
 72
     6
 73
     3
 74
     0
 42
0.0000000001
 43
0.0000000001
 40
0.0
 40
0.0
 40
0.0
 40
0.2586130425465446
 40
0.2586130425465446
 40
0.2586130425465446
 10
-4.903336903784306
 20
22.8447833513903
 30
0.0
 41
1.0
 10
-5.035039759812673
 20
22.85612979084987
 30
0.0
 41
0.9675914429885938
 10
-5.144401365499474
 20
22.9303889530862
 30
0.0
 41
1.0
  0
SPLINE
  5
38C
330
1F
100
AcDbEntity
  8
Default
100
AcDbSpline
210
0.0
220
0.0
230
1.0
 70
    12
 71
     2
 72
     6
 73
     3
 74
     0
 42
0.0000000001
 43
0.0000000001
 40
0.0
 40
0.0
 40
0.0
 40
0.0329597756481124
 40
0.0329597756481124
 40
0.0329597756481124
 10
-5.144401365499474
 20
22.9303889530862
 30
0.0
 41
1.0
 10
-5.142357532466908
 20
22.94660039378421
 30
0.0
 41
0.9999854773655392
 10
-5.139761451365632
 20
22.96274917141593
 30
0.0
 41
0.9999997527681319
  0
SPLINE
  5
38D
330
1F
100
AcDbEntity
  8
Default
100
AcDbSpline
210
0.0
220
0.0
230
1.0
 70
    12
 71
     2
 72
     6
 73
     3
 74
     0
 42
0.0000000001
 43
0.0000000001
 40
0.0
 40
0.0
 40
0.0
 40
0.2589603388760939
 40
0.2589603388760939
 40
0.2589603388760939
 10
-5.139761451365628
 20
22.96274917141593
 30
0.0
 41
1.0
 10
-5.029163157254577
 20
22.88860588614428
 30
0.0
 41
0.9675434361208503
 10
-4.897216721336092
 20
22.877991922266
 30
0.0
 41
1.0
  0
ARC
  5
38E
330
1F
100
AcDbEntity
  8
Default
100
AcDbCircle
 10
-2.476811601585779
 20
35.85205732475629
 30
0.0
 40
13.8201255351219
100
AcDbArc
 50
259.4772940774597
 51
262.2044771775821
  0
LINE
  5
38F
330
1F
100
AcDbEntity
  8
Default
100
AcDbLine
 10
-4.351347910412569
 20
22.15965127492639
 30
0.0
 11
-4.352318676518363
 21
22.15332559677142
 31
0.0
  0
ARC
  5
390
330
1F
100
AcDbEntity
  8
Default
100
AcDbCircle
 10
-7.920946020505751
 20
22.70098268347402
 30
0.0
 40
3.610405711948466
100
AcDbArc
 50
350.8480308071747
 51
351.2752087420715
  0
ARC
  5
391
330
1F
100
AcDbEntity
  8
Default
100
AcDbCircle
 10
-2.421449121331702
 20
35.32319584497364
 30
0.0
 40
13.33757906746722
100
AcDbArc
 50
258.8276738314144
 51
261.6579323971377
  0
SPLINE
  5
392
330
1F
100
AcDbEntity
  8
Default
100
AcDbSpline
210
0.0
220
0.0
230
1.0
 70
    12
 71
     2
 72
     6
 73
     3
 74
     0
 42
0.0000000001
 43
0.0000000001
 40
0.0
 40
0.0
 40
0.0
 40
0.2286703024581835
 40
0.2286703024581835
 40
0.2286703024581835
 10
-5.005745480447883
 20
22.23837915885998
 30
0.0
 41
1.0
 10
-5.119895902764144
 20
22.2609960349476
 30
0.0
 41
0.9739833963501032
 10
-5.212337475722974
 20
22.33168123557574
 30
0.0
 41
1.0
  0
SPLINE
  5
393
330
1F
100
AcDbEntity
  8
Default
100
AcDbSpline
210
0.0
220
0.0
230
1.0
 70
    12
 71
     2
 72
     6
 73
     3
 74
     0
 42
0.0000000001
 43
0.0000000001
 40
0.0
 40
0.0
 40
0.0
 40
0.0258052011654917
 40
0.0258052011654917
 40
0.0258052011654917
 10
-5.212337475722974
 20
22.33168123557574
 30
0.0
 41
1.0
 10
-5.212534694823312
 20
22.3445838551038
 30
0.0
 41
0.999822609931566
 10
-5.212245824398293
 20
22.3574847480937
 30
0.0
 41
1.0
  0
SPLINE
  5
394
330
1F
100
AcDbEntity
  8
Default
100
AcDbSpline
210
0.0
220
0.0
230
1.0
 70
    12
 71
     2
 72
     6
 73
     3
 74
     0
 42
0.0000000001
 43
0.0000000001
 40
0.0
 40
0.0
 40
0.0
 40
0.2331431811534332
 40
0.2331431811534332
 40
0.2331431811534332
 10
-5.212245824398293
 20
22.3574847480937
 30
0.0
 41
1.0
 10
-5.117289917899432
 20
22.28636569502103
 30
0.0
 41
0.9740991827395424
 10
-5.000714353577065
 20
22.2643502074749
 30
0.0
 41
1.0
  0
SPLINE
  5
395
330
1F
100
AcDbEntity
  8
Default
100
AcDbSpline
210
0.0
220
0.0
230
1.0
 70
    12
 71
     2
 72
     6
 73
     3
 74
     0
 42
0.0000000001
 43
0.0000000001
 40
-0.3334060439454795
 40
-0.3334060439454795
 40
-0.3334060439454795
 40
0.0
 40
0.0
 40
0.0
 10
-5.487174600955596
 20
23.38249570737552
 30
0.0
 41
1.0
 10
-5.506005673439025
 20
23.21682136360085
 30
0.0
 41
0.999657403781152
 10
-5.533439472701117
 20
23.05128558299733
 30
0.0
 41
1.0
  0
SPLINE
  5
396
330
1F
100
AcDbEntity
  8
Default
100
AcDbSpline
210
0.0
220
0.0
230
1.0
 70
    12
 71
     2
 72
     6
 73
     3
 74
     0
 42
0.0000000001
 43
0.0000000001
 40
-0.5113006500514725
 40
-0.5113006500514725
 40
-0.5113006500514725
 40
0.0
 40
0.0
 40
0.0
 10
-5.533439472701117
 20
23.05128558299733
 30
0.0
 41
1.0
 10
-5.457606798470563
 20
22.80602381443531
 30
0.0
 41
0.9998280076521521
 10
-5.385695196472737
 20
22.53975797857143
 30
0.0
 41
1.0
  0
SPLINE
  5
397
330
1F
100
AcDbEntity
  8
Default
100
AcDbSpline
210
0.0
220
0.0
230
1.0
 70
    12
 71
     2
 72
     6
 73
     3
 74
     0
 42
0.0000000001
 43
0.0000000001
 40
-0.5389965836581292
 40
-0.5389965836581292
 40
-0.5389965836581292
 40
0.0
 40
0.0
 40
0.0
 10
-5.385695196472737
 20
22.53975797857143
 30
0.0
 41
1.0
 10
-5.309680342578458
 20
22.2515149226458
 30
0.0
 41
0.8621117229312395
 10
-5.020392194540176
 20
22.17758735022156
 30
0.0
 41
1.0
  0
ARC
  5
398
330
1F
100
AcDbEntity
  8
Default
100
AcDbCircle
 10
-1.239569000423627
 20
37.2087212404704
 30
0.0
 40
15.49934224577794
100
AcDbArc
 50
255.8811294775157
 51
259.2747971933903
  0
ARC
  5
399
330
1F
100
AcDbEntity
  8
Default
100
AcDbCircle
 10
-4.100332129683094
 20
22.10497941618239
 30
0.0
 40
0.1270625587413707
100
AcDbArc
 50
259.27479719339
 51
350.6050802569434
  0
POLYLINE
  5
39A
330
1F
100
AcDbEntity
  8
Default
100
AcDb2dPolyline
 66
     1
 10
0.0
 20
0.0
 30
0.0
  0
VERTEX
  5
39B
330
39A
100
AcDbEntity
  8
Default
100
AcDbVertex
100
AcDb2dVertex
 10
-3.974973906862628
 20
22.08423791659346
 30
0.0
  0
VERTEX
  5
39C
330
39A
100
AcDbEntity
  8
Default
100
AcDbVertex
100
AcDb2dVertex
 10
-3.91569434915179
 20
22.39957298449861
 30
0.0
  0
SEQEND
  5
39D
330
39A
100
AcDbEntity
  8
Default
  0
ARC
  5
39E
330
1F
100
AcDbEntity
  8
Default
100
AcDbCircle
 10
-4.668216867354401
 20
23.57250399123581
 30
0.0
 40
0.6744779630824255
100
AcDbArc
 50
197.8871890890363
 51
205.9336707212861
  0
ARC
  5
39F
330
1F
100
AcDbEntity
  8
Default
100
AcDbCircle
 10
-4.82511821373255
 20
23.49620281258654
 30
0.0
 40
0.5000076150041797
100
AcDbArc
 50
205.9336707212852
 51
265.7610225549234
  0
SPLINE
  5
3A0
330
1F
100
AcDbEntity
  8
Default
100
AcDbSpline
210
0.0
220
0.0
230
1.0
 70
    12
 71
     2
 72
     6
 73
     3
 74
     0
 42
0.0000000001
 43
0.0000000001
 40
-0.8819556308869502
 40
-0.8819556308869502
 40
-0.8819556308869502
 40
0.0
 40
0.0
 40
0.0
 10
-4.862077095587479
 20
22.9975630066001
 30
0.0
 41
1.0
 10
-4.422294184822364
 20
22.96500772872274
 30
0.0
 41
0.9999713796876327
 10
-3.982069027447591
 20
22.93911051780985
 30
0.0
 41
1.0
  0
SPLINE
  5
3A1
330
1F
100
AcDbEntity
  8
Default
100
AcDbSpline
210
0.0
220
0.0
230
1.0
 70
    12
 71
     2
 72
     6
 73
     3
 74
     0
 42
0.0000000001
 43
0.0000000001
 40
0.0
 40
0.0
 40
0.0
 40
0.1797454813701551
 40
0.1797454813701551
 40
0.1797454813701551
 10
-3.982069027447591
 20
22.93911051780985
 30
0.0
 41
1.0
 10
-3.872851018561568
 20
22.93268469410911
 30
0.0
 41
0.7524925652658285
 10
-3.85201153555519
 20
23.04008851444754
 30
0.0
 41
1.0
  0
SPLINE
  5
3A2
330
1F
100
AcDbEntity
  8
Default
100
AcDbSpline
210
0.0
220
0.0
230
1.0
 70
    24
 71
     2
 72
     6
 73
     3
 74
     0
 42
0.0000000001
 43
0.0000000001
 40
0.0
 40
0.0
 40
0.0
 40
0.1686969534964888
 40
0.1686969534964888
 40
0.1686969534964888
 10
-3.85201153555519
 20
23.04008851444754
 30
0.0
 10
-3.835948211609561
 20
23.1228933159603
 30
0.0
 10
-3.81988488766393
 20
23.20569811747306
 30
0.0
  0
POLYLINE
  5
3A3
330
1F
100
AcDbEntity
  8
Default
  6
Continuous
100
AcDb2dPolyline
 66
     1
 10
0.0
 20
0.0
 30
0.0
  0
VERTEX
  5
3A4
330
3A3
100
AcDbEntity
  8
Default
  6
Continuous
100
AcDbVertex
100
AcDb2dVertex
 10
-3.932587289586365
 20
22.30260997192035
 30
0.0
  0
VERTEX
  5
3A5
330
3A3
100
AcDbEntity
  8
Default
  6
Continuous
100
AcDbVertex
100
AcDb2dVertex
 10
-3.546530847486366
 20
22.22567259832035
 30
0.0
  0
VERTEX
  5
3A6
330
3A3
100
AcDbEntity
  8
Default
  6
Continuous
100
AcDbVertex
100
AcDb2dVertex
 10
-3.004753189286362
 20
22.13902314612035
 30
0.0
  0
VERTEX
  5
3A7
330
3A3
100
AcDbEntity
  8
Default
  6
Continuous
100
AcDbVertex
100
AcDb2dVertex
 10
-2.430560419386367
 20
22.06777738642035
 30
0.0
  0
VERTEX
  5
3A8
330
3A3
100
AcDbEntity
  8
Default
  6
Continuous
100
AcDbVertex
100
AcDb2dVertex
 10
-1.82088554808638
 20
22.01215860062035
 30
0.0
  0
VERTEX
  5
3A9
330
3A3
100
AcDbEntity
  8
Default
  6
Continuous
100
AcDbVertex
100
AcDb2dVertex
 10
-1.190462115086376
 20
21.97364074042035
 30
0.0
  0
VERTEX
  5
3AA
330
3A3
100
AcDbEntity
  8
Default
  6
Continuous
100
AcDbVertex
100
AcDb2dVertex
 10
-0.5508639298863613
 20
21.95208041972035
 30
0.0
  0
VERTEX
  5
3AB
330
3A3
100
AcDbEntity
  8
Default
  6
Continuous
100
AcDbVertex
100
AcDb2dVertex
 10
0.0000054389136324
 20
21.94647986202035
 30
0.0
  0
SEQEND
  5
3AC
330
3A3
100
AcDbEntity
  8
Default
  6
Continuous
  0
POLYLINE
  5
3AD
330
1F
100
AcDbEntity
  8
Default
  6
Continuous
100
AcDb2dPolyline
 66
     1
 10
0.0
 20
0.0
 30
0.0
  0
VERTEX
  5
3AE
330
3AD
100
AcDbEntity
  8
Default
  6
Continuous
100
AcDbVertex
100
AcDb2dVertex
 10
-3.878468941486375
 20
22.79530813002036
 30
0.0
  0
VERTEX
  5
3AF
330
3AD
100
AcDbEntity
  8
Default
  6
Continuous
100
AcDbVertex
100
AcDb2dVertex
 10
-3.660190144486364
 20
22.75895090232035
 30
0.0
  0
VERTEX
  5
3B0
330
3AD
100
AcDbEntity
  8
Default
  6
Continuous
100
AcDbVertex
100
AcDb2dVertex
 10
-3.365396741486364
 20
22.71468263482036
 30
0.0
  0
VERTEX
  5
3B1
330
3AD
100
AcDbEntity
  8
Default
  6
Continuous
100
AcDbVertex
100
AcDb2dVertex
 10
-3.064217238486378
 20
22.67414035372035
 30
0.0
  0
VERTEX
  5
3B2
330
3AD
100
AcDbEntity
  8
Default
  6
Continuous
100
AcDbVertex
100
AcDb2dVertex
 10
-2.757990405186376
 20
22.63739462782036
 30
0.0
  0
VERTEX
  5
3B3
330
3AD
100
AcDbEntity
  8
Default
  6
Continuous
100
AcDbVertex
100
AcDb2dVertex
 10
-2.44529521718637
 20
22.60422037802035
 30
0.0
  0
VERTEX
  5
3B4
330
3AD
100
AcDbEntity
  8
Default
  6
Continuous
100
AcDbVertex
100
AcDb2dVertex
 10
-2.120317611786362
 20
22.57411243972036
 30
0.0
  0
VERTEX
  5
3B5
330
3AD
100
AcDbEntity
  8
Default
  6
Continuous
100
AcDbVertex
100
AcDb2dVertex
 10
-1.783915977986368
 20
22.54753095572035
 30
0.0
  0
VERTEX
  5
3B6
330
3AD
100
AcDbEntity
  8
Default
  6
Continuous
100
AcDbVertex
100
AcDb2dVertex
 10
-1.43836308878636
 20
22.52505109542036
 30
0.0
  0
VERTEX
  5
3B7
330
3AD
100
AcDbEntity
  8
Default
  6
Continuous
100
AcDbVertex
100
AcDb2dVertex
 10
-1.082204223286368
 20
22.50691138142036
 30
0.0
  0
VERTEX
  5
3B8
330
3AD
100
AcDbEntity
  8
Default
  6
Continuous
100
AcDbVertex
100
AcDb2dVertex
 10
-0.7155250309863561
 20
22.49363121522035
 30
0.0
  0
VERTEX
  5
3B9
330
3AD
100
AcDbEntity
  8
Default
  6
Continuous
100
AcDbVertex
100
AcDb2dVertex
 10
-0.3400590317863532
 20
22.48573893802035
 30
0.0
  0
VERTEX
  5
3BA
330
3AD
100
AcDbEntity
  8
Default
  6
Continuous
100
AcDbVertex
100
AcDb2dVertex
 10
-0.0000009127863621
 20
22.48347969762035
 30
0.0
  0
SEQEND
  5
3BB
330
3AD
100
AcDbEntity
  8
Default
  6
Continuous
  0
POLYLINE
  5
3BC
330
1F
100
AcDbEntity
  8
Default
  6
Continuous
100
AcDb2dPolyline
 66
     1
 10
0.0
 20
0.0
 30
0.0
  0
VERTEX
  5
3BD
330
3BC
100
AcDbEntity
  8
Default
  6
Continuous
100
AcDbVertex
100
AcDb2dVertex
 10
0.000001002813633
 20
22.48347969762035
 30
0.0
  0
VERTEX
  5
3BE
330
3BC
100
AcDbEntity
  8
Default
  6
Continuous
100
AcDbVertex
100
AcDb2dVertex
 10
0.3400591216136206
 20
22.48573893712036
 30
0.0
  0
VERTEX
  5
3BF
330
3BC
100
AcDbEntity
  8
Default
  6
Continuous
100
AcDbVertex
100
AcDb2dVertex
 10
0.7155251207136359
 20
22.49363121322035
 30
0.0
  0
VERTEX
  5
3C0
330
3BC
100
AcDbEntity
  8
Default
  6
Continuous
100
AcDbVertex
100
AcDb2dVertex
 10
1.082204313013648
 20
22.50691137832035
 30
0.0
  0
VERTEX
  5
3C1
330
3BC
100
AcDbEntity
  8
Default
  6
Continuous
100
AcDbVertex
100
AcDb2dVertex
 10
1.438363178413624
 20
22.52505109132035
 30
0.0
  0
VERTEX
  5
3C2
330
3BC
100
AcDbEntity
  8
Default
  6
Continuous
100
AcDbVertex
100
AcDb2dVertex
 10
1.783916067613632
 20
22.54753095062036
 30
0.0
  0
VERTEX
  5
3C3
330
3BC
100
AcDbEntity
  8
Default
  6
Continuous
100
AcDbVertex
100
AcDb2dVertex
 10
2.120317701413626
 20
22.57411243372036
 30
0.0
  0
VERTEX
  5
3C4
330
3BC
100
AcDbEntity
  8
Default
  6
Continuous
100
AcDbVertex
100
AcDb2dVertex
 10
2.445295306713632
 20
22.60422037112036
 30
0.0
  0
VERTEX
  5
3C5
330
3BC
100
AcDbEntity
  8
Default
  6
Continuous
100
AcDbVertex
100
AcDb2dVertex
 10
2.757990494713624
 20
22.63739462002036
 30
0.0
  0
VERTEX
  5
3C6
330
3BC
100
AcDbEntity
  8
Default
  6
Continuous
100
AcDbVertex
100
AcDb2dVertex
 10
3.064217328113642
 20
22.67414034502035
 30
0.0
  0
VERTEX
  5
3C7
330
3BC
100
AcDbEntity
  8
Default
  6
Continuous
100
AcDbVertex
100
AcDb2dVertex
 10
3.365396831113628
 20
22.71468262522036
 30
0.0
  0
VERTEX
  5
3C8
330
3BC
100
AcDbEntity
  8
Default
  6
Continuous
100
AcDbVertex
100
AcDb2dVertex
 10
3.660190234113628
 20
22.75895089192035
 30
0.0
  0
VERTEX
  5
3C9
330
3BC
100
AcDbEntity
  8
Default
  6
Continuous
100
AcDbVertex
100
AcDb2dVertex
 10
3.878468988013623
 20
22.79530811172036
 30
0.0
  0
SEQEND
  5
3CA
330
3BC
100
AcDbEntity
  8
Default
  6
Continuous
  0
POLYLINE
  5
3CB
330
1F
100
AcDbEntity
  8
Default
  6
Continuous
100
AcDb2dPolyline
 66
     1
 10
0.0
 20
0.0
 30
0.0
  0
VERTEX
  5
3CC
330
3CB
100
AcDbEntity
  8
Default
  6
Continuous
100
AcDbVertex
100
AcDb2dVertex
 10
0.0000040502136187
 20
22.38397986142035
 30
0.0
  0
VERTEX
  5
3CD
330
3CB
100
AcDbEntity
  8
Default
  6
Continuous
100
AcDbVertex
100
AcDb2dVertex
 10
-0.5243035726863639
 20
22.38913041462035
 30
0.0
  0
VERTEX
  5
3CE
330
3CB
100
AcDbEntity
  8
Default
  6
Continuous
100
AcDbVertex
100
AcDb2dVertex
 10
-1.139752640486364
 20
22.40925715432035
 30
0.0
  0
VERTEX
  5
3CF
330
3CB
100
AcDbEntity
  8
Default
  6
Continuous
100
AcDbVertex
100
AcDb2dVertex
 10
-1.746885953186364
 20
22.44534983912035
 30
0.0
  0
VERTEX
  5
3D0
330
3CB
100
AcDbEntity
  8
Default
  6
Continuous
100
AcDbVertex
100
AcDb2dVertex
 10
-2.334404082686376
 20
22.49753662452035
 30
0.0
  0
VERTEX
  5
3D1
330
3CB
100
AcDbEntity
  8
Default
  6
Continuous
100
AcDbVertex
100
AcDb2dVertex
 10
-2.88870680498637
 20
22.56454898562036
 30
0.0
  0
VERTEX
  5
3D2
330
3CB
100
AcDbEntity
  8
Default
  6
Continuous
100
AcDbVertex
100
AcDb2dVertex
 10
-3.411368751186373
 20
22.64606108882035
 30
0.0
  0
VERTEX
  5
3D3
330
3CB
100
AcDbEntity
  8
Default
  6
Continuous
100
AcDbVertex
100
AcDb2dVertex
 10
-3.887834847486374
 20
22.73869491042035
 30
0.0
  0
SEQEND
  5
3D4
330
3CB
100
AcDbEntity
  8
Default
  6
Continuous
  0
POLYLINE
  5
3D5
330
1F
100
AcDbEntity
  8
Default
  6
Continuous
100
AcDb2dPolyline
 66
     1
 10
0.0
 20
0.0
 30
0.0
  0
VERTEX
  5
3D6
330
3D5
100
AcDbEntity
  8
Default
  6
Continuous
100
AcDbVertex
100
AcDb2dVertex
 10
0.0000054387136288
 20
21.94647986182035
 30
0.0
  0
VERTEX
  5
3D7
330
3D5
100
AcDbEntity
  8
Default
  6
Continuous
100
AcDbVertex
100
AcDb2dVertex
 10
0.4397973376136406
 20
21.95002347122036
 30
0.0
  0
VERTEX
  5
3D8
330
3D5
100
AcDbEntity
  8
Default
  6
Continuous
100
AcDbVertex
100
AcDb2dVertex
 10
0.972117356113614
 20
21.96437143402035
 30
0.0
  0
VERTEX
  5
3D9
330
3D5
100
AcDbEntity
  8
Default
  6
Continuous
100
AcDbVertex
100
AcDb2dVertex
 10
1.502707933313644
 20
21.99047216512036
 30
0.0
  0
VERTEX
  5
3DA
330
3D5
100
AcDbEntity
  8
Default
  6
Continuous
100
AcDbVertex
100
AcDb2dVertex
 10
2.026273583013648
 20
22.02875675522035
 30
0.0
  0
VERTEX
  5
3DB
330
3D5
100
AcDbEntity
  8
Default
  6
Continuous
100
AcDbVertex
100
AcDb2dVertex
 10
2.535053369213614
 20
22.07930247822036
 30
0.0
  0
VERTEX
  5
3DC
330
3D5
100
AcDbEntity
  8
Default
  6
Continuous
100
AcDbVertex
100
AcDb2dVertex
 10
3.019637927313624
 20
22.14113934212035
 30
0.0
  0
VERTEX
  5
3DD
330
3D5
100
AcDbEntity
  8
Default
  6
Continuous
100
AcDbVertex
100
AcDb2dVertex
 10
3.482621745113619
 20
22.21438357012035
 30
0.0
  0
VERTEX
  5
3DE
330
3D5
100
AcDbEntity
  8
Default
  6
Continuous
100
AcDbVertex
100
AcDb2dVertex
 10
3.931765574413618
 20
22.30026958602036
 30
0.0
  0
SEQEND
  5
3DF
330
3D5
100
AcDbEntity
  8
Default
  6
Continuous
  0
POLYLINE
  5
3E0
330
1F
100
AcDbEntity
  8
Default
  6
Continuous
100
AcDb2dPolyline
 66
     1
 10
0.0
 20
0.0
 30
0.0
  0
VERTEX
  5
3E1
330
3E0
100
AcDbEntity
  8
Default
  6
Continuous
100
AcDbVertex
100
AcDb2dVertex
 10
3.887566695313637
 20
22.73962822032036
 30
0.0
  0
VERTEX
  5
3E2
330
3E0
100
AcDbEntity
  8
Default
  6
Continuous
100
AcDbVertex
100
AcDb2dVertex
 10
3.77257314911364
 20
22.71416336362035
 30
0.0
  0
VERTEX
  5
3E3
330
3E0
100
AcDbEntity
  8
Default
  6
Continuous
100
AcDbVertex
100
AcDb2dVertex
 10
3.33929644841362
 20
22.63366969902036
 30
0.0
  0
VERTEX
  5
3E4
330
3E0
100
AcDbEntity
  8
Default
  6
Continuous
100
AcDbVertex
100
AcDb2dVertex
 10
2.891770152713633
 20
22.56497227702036
 30
0.0
  0
VERTEX
  5
3E5
330
3E0
100
AcDbEntity
  8
Default
  6
Continuous
100
AcDbVertex
100
AcDb2dVertex
 10
2.42351532391362
 20
22.50708071052036
 30
0.0
  0
VERTEX
  5
3E6
330
3E0
100
AcDbEntity
  8
Default
  6
Continuous
100
AcDbVertex
100
AcDb2dVertex
 10
1.933771937013631
 20
22.45999587572036
 30
0.0
  0
VERTEX
  5
3E7
330
3E0
100
AcDbEntity
  8
Default
  6
Continuous
100
AcDbVertex
100
AcDb2dVertex
 10
1.431369420913626
 20
22.42448834542035
 30
0.0
  0
VERTEX
  5
3E8
330
3E0
100
AcDbEntity
  8
Default
  6
Continuous
100
AcDbVertex
100
AcDb2dVertex
 10
0.922962643713646
 20
22.40034742542035
 30
0.0
  0
VERTEX
  5
3E9
330
3E0
100
AcDbEntity
  8
Default
  6
Continuous
100
AcDbVertex
100
AcDb2dVertex
 10
0.4138926018136146
 20
22.38716535972036
 30
0.0
  0
VERTEX
  5
3EA
330
3E0
100
AcDbEntity
  8
Default
  6
Continuous
100
AcDbVertex
100
AcDb2dVertex
 10
0.0000040505136383
 20
22.38397986152036
 30
0.0
  0
SEQEND
  5
3EB
330
3E0
100
AcDbEntity
  8
Default
  6
Continuous
  0
POLYLINE
  5
3EC
330
1F
100
AcDbEntity
  8
Default
  6
Continuous
100
AcDb2dPolyline
 66
     1
 10
0.0
 20
0.0
 30
0.0
  0
VERTEX
  5
3ED
330
3EC
100
AcDbEntity
  8
Default
  6
Continuous
100
AcDbVertex
100
AcDb2dVertex
 10
-6.550981064486365
 20
23.49322806762035
 30
0.0
  0
VERTEX
  5
3EE
330
3EC
100
AcDbEntity
  8
Default
  6
Continuous
100
AcDbVertex
100
AcDb2dVertex
 10
-6.412499947886374
 20
23.44371508092036
 30
0.0
  0
VERTEX
  5
3EF
330
3EC
100
AcDbEntity
  8
Default
  6
Continuous
100
AcDbVertex
100
AcDb2dVertex
 10
-6.207047724186367
 20
23.37362712842036
 30
0.0
  0
VERTEX
  5
3F0
330
3EC
100
AcDbEntity
  8
Default
  6
Continuous
100
AcDbVertex
100
AcDb2dVertex
 10
-5.994659044586371
 20
23.30464335662035
 30
0.0
  0
VERTEX
  5
3F1
330
3EC
100
AcDbEntity
  8
Default
  6
Continuous
100
AcDbVertex
100
AcDb2dVertex
 10
-5.774361614186375
 20
23.23676557322035
 30
0.0
  0
VERTEX
  5
3F2
330
3EC
100
AcDbEntity
  8
Default
  6
Continuous
100
AcDbVertex
100
AcDb2dVertex
 10
-5.542708402686372
 20
23.16925949252035
 30
0.0
  0
SEQEND
  5
3F3
330
3EC
100
AcDbEntity
  8
Default
  6
Continuous
  0
POLYLINE
  5
3F4
330
1F
100
AcDbEntity
  8
Default
  6
Continuous
100
AcDb2dPolyline
 66
     1
 10
0.0
 20
0.0
 30
0.0
  0
VERTEX
  5
3F5
330
3F4
100
AcDbEntity
  8
Default
  6
Continuous
100
AcDbVertex
100
AcDb2dVertex
 10
-7.120464374786366
 20
23.57125360962035
 30
0.0
  0
VERTEX
  5
3F6
330
3F4
100
AcDbEntity
  8
Default
  6
Continuous
100
AcDbVertex
100
AcDb2dVertex
 10
-6.86673436628638
 20
23.40147248882035
 30
0.0
  0
VERTEX
  5
3F7
330
3F4
100
AcDbEntity
  8
Default
  6
Continuous
100
AcDbVertex
100
AcDb2dVertex
 10
-6.443582237186376
 20
23.16110279602036
 30
0.0
  0
VERTEX
  5
3F8
330
3F4
100
AcDbEntity
  8
Default
  6
Continuous
100
AcDbVertex
100
AcDb2dVertex
 10
-6.015640025786368
 20
22.95454934152036
 30
0.0
  0
VERTEX
  5
3F9
330
3F4
100
AcDbEntity
  8
Default
  6
Continuous
100
AcDbVertex
100
AcDb2dVertex
 10
-5.575210565286369
 20
22.77305668282035
 30
0.0
  0
VERTEX
  5
3FA
330
3F4
100
AcDbEntity
  8
Default
  6
Continuous
100
AcDbVertex
100
AcDb2dVertex
 10
-5.436683254386367
 20
22.72443957582036
 30
0.0
  0
SEQEND
  5
3FB
330
3F4
100
AcDbEntity
  8
Default
  6
Continuous
  0
POLYLINE
  5
3FC
330
1F
100
AcDbEntity
  8
Default
  6
Continuous
100
AcDb2dPolyline
 66
     1
 10
0.0
 20
0.0
 30
0.0
  0
VERTEX
  5
3FD
330
3FC
100
AcDbEntity
  8
Default
  6
Continuous
100
AcDbVertex
100
AcDb2dVertex
 10
5.436486649413638
 20
22.72375043252035
 30
0.0
  0
VERTEX
  5
3FE
330
3FC
100
AcDbEntity
  8
Default
  6
Continuous
100
AcDbVertex
100
AcDb2dVertex
 10
5.608195494513637
 20
22.78569630622036
 30
0.0
  0
VERTEX
  5
3FF
330
3FC
100
AcDbEntity
  8
Default
  6
Continuous
100
AcDbVertex
100
AcDb2dVertex
 10
5.960531226813629
 20
22.93026359472035
 30
0.0
  0
VERTEX
  5
400
330
3FC
100
AcDbEntity
  8
Default
  6
Continuous
100
AcDbVertex
100
AcDb2dVertex
 10
6.303682989113639
 20
23.08987690602035
 30
0.0
  0
VERTEX
  5
401
330
3FC
100
AcDbEntity
  8
Default
  6
Continuous
100
AcDbVertex
100
AcDb2dVertex
 10
6.649916672613614
 20
23.27338921912035
 30
0.0
  0
VERTEX
  5
402
330
3FC
100
AcDbEntity
  8
Default
  6
Continuous
100
AcDbVertex
100
AcDb2dVertex
 10
6.997175834213635
 20
23.48401298532035
 30
0.0
  0
VERTEX
  5
403
330
3FC
100
AcDbEntity
  8
Default
  6
Continuous
100
AcDbVertex
100
AcDb2dVertex
 10
7.12344492641364
 20
23.57171456862035
 30
0.0
  0
SEQEND
  5
404
330
3FC
100
AcDbEntity
  8
Default
  6
Continuous
  0
POLYLINE
  5
405
330
1F
100
AcDbEntity
  8
Default
  6
Continuous
100
AcDb2dPolyline
 66
     1
 10
0.0
 20
0.0
 30
0.0
  0
VERTEX
  5
406
330
405
100
AcDbEntity
  8
Default
  6
Continuous
100
AcDbVertex
100
AcDb2dVertex
 10
5.542708493213638
 20
23.16925947672036
 30
0.0
  0
VERTEX
  5
407
330
405
100
AcDbEntity
  8
Default
  6
Continuous
100
AcDbVertex
100
AcDb2dVertex
 10
5.774361705013632
 20
23.23676555672035
 30
0.0
  0
VERTEX
  5
408
330
405
100
AcDbEntity
  8
Default
  6
Continuous
100
AcDbVertex
100
AcDb2dVertex
 10
5.994659135613631
 20
23.30464333952035
 30
0.0
  0
VERTEX
  5
409
330
405
100
AcDbEntity
  8
Default
  6
Continuous
100
AcDbVertex
100
AcDb2dVertex
 10
6.207047815413631
 20
23.37362711072035
 30
0.0
  0
VERTEX
  5
40A
330
405
100
AcDbEntity
  8
Default
  6
Continuous
100
AcDbVertex
100
AcDb2dVertex
 10
6.412500039413629
 20
23.44371506272035
 30
0.0
  0
VERTEX
  5
40B
330
405
100
AcDbEntity
  8
Default
  6
Continuous
100
AcDbVertex
100
AcDb2dVertex
 10
6.550981263213629
 20
23.49322808742036
 30
0.0
  0
SEQEND
  5
40C
330
405
100
AcDbEntity
  8
Default
  6
Continuous
  0
POLYLINE
  5
40D
330
1F
100
AcDbEntity
  8
Default
100
AcDb2dPolyline
 66
     1
 10
0.0
 20
0.0
 30
0.0
  0
VERTEX
  5
40E
330
40D
100
AcDbEntity
  8
Default
100
AcDbVertex
100
AcDb2dVertex
 10
37.9800454764339
 20
23.92191752283701
 30
0.0
  0
VERTEX
  5
40F
330
40D
100
AcDbEntity
  8
Default
100
AcDbVertex
100
AcDb2dVertex
 10
37.9772164307339
 20
23.93638156903701
 30
0.0
  0
VERTEX
  5
410
330
40D
100
AcDbEntity
  8
Default
100
AcDbVertex
100
AcDb2dVertex
 10
37.97447335993391
 20
23.95021078073701
 30
0.0
  0
VERTEX
  5
411
330
40D
100
AcDbEntity
  8
Default
100
AcDbVertex
100
AcDb2dVertex
 10
37.9718115020339
 20
23.96337844813701
 30
0.0
  0
VERTEX
  5
412
330
40D
100
AcDbEntity
  8
Default
100
AcDbVertex
100
AcDb2dVertex
 10
37.96920333283391
 20
23.97597532253701
 30
0.0
  0
VERTEX
  5
413
330
40D
100
AcDbEntity
  8
Default
100
AcDbVertex
100
AcDb2dVertex
 10
37.96663760843391
 20
23.98801339713701
 30
0.0
  0
VERTEX
  5
414
330
40D
100
AcDbEntity
  8
Default
100
AcDbVertex
100
AcDb2dVertex
 10
37.96410470953391
 20
23.99950071653701
 30
0.0
  0
VERTEX
  5
415
330
40D
100
AcDbEntity
  8
Default
100
AcDbVertex
100
AcDb2dVertex
 10
37.96157603933391
 20
24.01053003033701
 30
0.0
  0
VERTEX
  5
416
330
40D
100
AcDbEntity
  8
Default
100
AcDbVertex
100
AcDb2dVertex
 10
37.95903547213391
 20
24.02113146383701
 30
0.0
  0
VERTEX
  5
417
330
40D
100
AcDbEntity
  8
Default
100
AcDbVertex
100
AcDb2dVertex
 10
37.9564760240339
 20
24.03129553333701
 30
0.0
  0
VERTEX
  5
418
330
40D
100
AcDbEntity
  8
Default
100
AcDbVertex
100
AcDb2dVertex
 10
37.9538703600339
 20
24.04109016903701
 30
0.0
  0
VERTEX
  5
419
330
40D
100
AcDbEntity
  8
Default
100
AcDbVertex
100
AcDb2dVertex
 10
37.95121629083391
 20
24.05048266133701
 30
0.0
  0
VERTEX
  5
41A
330
40D
100
AcDbEntity
  8
Default
100
AcDbVertex
100
AcDb2dVertex
 10
37.94847105593391
 20
24.05957893233701
 30
0.0
  0
VERTEX
  5
41B
330
40D
100
AcDbEntity
  8
Default
100
AcDbVertex
100
AcDb2dVertex
 10
37.94550309573391
 20
24.06872286013701
 30
0.0
  0
VERTEX
  5
41C
330
40D
100
AcDbEntity
  8
Default
100
AcDbVertex
100
AcDb2dVertex
 10
37.9423148328339
 20
24.07778518403701
 30
0.0
  0
VERTEX
  5
41D
330
40D
100
AcDbEntity
  8
Default
100
AcDbVertex
100
AcDb2dVertex
 10
37.93876817653391
 20
24.08701146223701
 30
0.0
  0
VERTEX
  5
41E
330
40D
100
AcDbEntity
  8
Default
100
AcDbVertex
100
AcDb2dVertex
 10
37.93437030523391
 20
24.09734477473701
 30
0.0
  0
VERTEX
  5
41F
330
40D
100
AcDbEntity
  8
Default
100
AcDbVertex
100
AcDb2dVertex
 10
37.92875112333391
 20
24.10905279413701
 30
0.0
  0
VERTEX
  5
420
330
40D
100
AcDbEntity
  8
Default
100
AcDbVertex
100
AcDb2dVertex
 10
37.9217376930339
 20
24.12180571523701
 30
0.0
  0
VERTEX
  5
421
330
40D
100
AcDbEntity
  8
Default
100
AcDbVertex
100
AcDb2dVertex
 10
37.91294937463391
 20
24.13557568393701
 30
0.0
  0
VERTEX
  5
422
330
40D
100
AcDbEntity
  8
Default
100
AcDbVertex
100
AcDb2dVertex
 10
37.90183084633391
 20
24.15038565313701
 30
0.0
  0
VERTEX
  5
423
330
40D
100
AcDbEntity
  8
Default
100
AcDbVertex
100
AcDb2dVertex
 10
37.8881761288339
 20
24.16562923933701
 30
0.0
  0
VERTEX
  5
424
330
40D
100
AcDbEntity
  8
Default
100
AcDbVertex
100
AcDb2dVertex
 10
37.8722894786339
 20
24.18030810043701
 30
0.0
  0
VERTEX
  5
425
330
40D
100
AcDbEntity
  8
Default
100
AcDbVertex
100
AcDb2dVertex
 10
37.8541379907339
 20
24.19398564343701
 30
0.0
  0
VERTEX
  5
426
330
40D
100
AcDbEntity
  8
Default
100
AcDbVertex
100
AcDb2dVertex
 10
37.8336087324339
 20
24.20629067943701
 30
0.0
  0
VERTEX
  5
427
330
40D
100
AcDbEntity
  8
Default
100
AcDbVertex
100
AcDb2dVertex
 10
37.8112583170339
 20
24.21653271083701
 30
0.0
  0
VERTEX
  5
428
330
40D
100
AcDbEntity
  8
Default
100
AcDbVertex
100
AcDb2dVertex
 10
37.78739894103391
 20
24.22434843333701
 30
0.0
  0
VERTEX
  5
429
330
40D
100
AcDbEntity
  8
Default
100
AcDbVertex
100
AcDb2dVertex
 10
37.76214921163391
 20
24.22948284223701
 30
0.0
  0
VERTEX
  5
42A
330
40D
100
AcDbEntity
  8
Default
100
AcDbVertex
100
AcDb2dVertex
 10
37.73597710003391
 20
24.23163244873701
 30
0.0
  0
VERTEX
  5
42B
330
40D
100
AcDbEntity
  8
Default
100
AcDbVertex
100
AcDb2dVertex
 10
37.73210092373391
 20
24.23168361253701
 30
0.0
  0
SEQEND
  5
42C
330
40D
100
AcDbEntity
  8
Default
  0
POLYLINE
  5
42D
330
1F
100
AcDbEntity
  8
Default
100
AcDb2dPolyline
 66
     1
 10
0.0
 20
0.0
 30
0.0
  0
VERTEX
  5
42E
330
42D
100
AcDbEntity
  8
Default
100
AcDbVertex
100
AcDb2dVertex
 10
37.73210092373391
 20
24.23168361253701
 30
0.0
  0
VERTEX
  5
42F
330
42D
100
AcDbEntity
  8
Default
100
AcDbVertex
100
AcDb2dVertex
 10
37.72604464783392
 20
24.23162645163701
 30
0.0
  0
VERTEX
  5
430
330
42D
100
AcDbEntity
  8
Default
100
AcDbVertex
100
AcDb2dVertex
 10
37.69676129463392
 20
24.22897334743701
 30
0.0
  0
VERTEX
  5
431
330
42D
100
AcDbEntity
  8
Default
100
AcDbVertex
100
AcDb2dVertex
 10
37.66854616793391
 20
24.22256057053701
 30
0.0
  0
VERTEX
  5
432
330
42D
100
AcDbEntity
  8
Default
100
AcDbVertex
100
AcDb2dVertex
 10
37.64204257203392
 20
24.21276703853701
 30
0.0
  0
VERTEX
  5
433
330
42D
100
AcDbEntity
  8
Default
100
AcDbVertex
100
AcDb2dVertex
 10
37.61757372143391
 20
24.19998734163701
 30
0.0
  0
VERTEX
  5
434
330
42D
100
AcDbEntity
  8
Default
100
AcDbVertex
100
AcDb2dVertex
 10
37.59543171133392
 20
24.18465838963701
 30
0.0
  0
VERTEX
  5
435
330
42D
100
AcDbEntity
  8
Default
100
AcDbVertex
100
AcDb2dVertex
 10
37.57600977963391
 20
24.16742132433701
 30
0.0
  0
VERTEX
  5
436
330
42D
100
AcDbEntity
  8
Default
100
AcDbVertex
100
AcDb2dVertex
 10
37.55923119663392
 20
24.14862657053701
 30
0.0
  0
VERTEX
  5
437
330
42D
100
AcDbEntity
  8
Default
100
AcDbVertex
100
AcDb2dVertex
 10
37.54520211853391
 20
24.12884524563701
 30
0.0
  0
VERTEX
  5
438
330
42D
100
AcDbEntity
  8
Default
100
AcDbVertex
100
AcDb2dVertex
 10
37.5341851284339
 20
24.10922236963701
 30
0.0
  0
VERTEX
  5
439
330
42D
100
AcDbEntity
  8
Default
100
AcDbVertex
100
AcDb2dVertex
 10
37.52582914173391
 20
24.09025597053701
 30
0.0
  0
VERTEX
  5
43A
330
42D
100
AcDbEntity
  8
Default
100
AcDbVertex
100
AcDb2dVertex
 10
37.51969820053391
 20
24.07219301823701
 30
0.0
  0
VERTEX
  5
43B
330
42D
100
AcDbEntity
  8
Default
100
AcDbVertex
100
AcDb2dVertex
 10
37.51552247763391
 20
24.05581389153701
 30
0.0
  0
VERTEX
  5
43C
330
42D
100
AcDbEntity
  8
Default
100
AcDbVertex
100
AcDb2dVertex
 10
37.51289133973391
 20
24.04172738263701
 30
0.0
  0
VERTEX
  5
43D
330
42D
100
AcDbEntity
  8
Default
100
AcDbVertex
100
AcDb2dVertex
 10
37.51126186663392
 20
24.02946478593701
 30
0.0
  0
VERTEX
  5
43E
330
42D
100
AcDbEntity
  8
Default
100
AcDbVertex
100
AcDb2dVertex
 10
37.51024951693391
 20
24.01810318643701
 30
0.0
  0
VERTEX
  5
43F
330
42D
100
AcDbEntity
  8
Default
100
AcDbVertex
100
AcDb2dVertex
 10
37.50969402343391
 20
24.00762795863701
 30
0.0
  0
VERTEX
  5
440
330
42D
100
AcDbEntity
  8
Default
100
AcDbVertex
100
AcDb2dVertex
 10
37.50946238143391
 20
23.99790522323701
 30
0.0
  0
VERTEX
  5
441
330
42D
100
AcDbEntity
  8
Default
100
AcDbVertex
100
AcDb2dVertex
 10
37.50943737163391
 20
23.99332573963701
 30
0.0
  0
SEQEND
  5
442
330
42D
100
AcDbEntity
  8
Default
  0
SPLINE
  5
443
330
1F
100
AcDbEntity
  8
Default
100
AcDbSpline
210
0.0
220
0.0
230
1.0
 70
    12
 71
     2
 72
     6
 73
     3
 74
     0
 42
0.0000000001
 43
0.0000000001
 40
0.0
 40
0.0
 40
0.0
 40
0.4160689291157493
 40
0.4160689291157493
 40
0.4160689291157493
 10
37.50943737163391
 20
23.99332573963701
 30
0.0
 41
1.0
 10
37.50943767825532
 20
23.74952741000497
 30
0.0
 41
0.999999999999514
 10
37.50943759813538
 20
23.54149294544704
 30
0.0
 41
1.0
  0
ARC
  5
444
330
1F
100
AcDbEntity
  8
Default
100
AcDbCircle
 10
27.78880832492921
 20
28.71223960650069
 30
0.0
 40
6.221555101727835
100
AcDbArc
 50
248.9436830809105
 51
267.5148780760055
  0
ARC
  5
445
330
1F
100
AcDbEntity
  8
Default
100
AcDbCircle
 10
27.5224333836333
 20
28.01608588923697
 30
0.0
 40
5.477145374410016
100
AcDbArc
 50
240.8033999382305
 51
244.2687648146867
  0
ARC
  5
446
330
1F
100
AcDbEntity
  8
Default
100
AcDbCircle
 10
39.37319423465034
 20
13.12764665434747
 30
0.0
 40
10.68427900452352
100
AcDbArc
 50
88.89187675271242
 51
97.30929530076921
  0
ARC
  5
447
330
1F
100
AcDbEntity
  8
Default
100
AcDbCircle
 10
37.74143464768477
 20
23.56562636858508
 30
0.0
 40
0.2432971313023284
100
AcDbArc
 50
187.7541584212218
 51
242.5943011728796
  0
SPLINE
  5
448
330
1F
100
AcDbEntity
  8
Default
100
AcDbSpline
210
0.0
220
0.0
230
1.0
 70
    12
 71
     2
 72
     6
 73
     3
 74
     0
 42
0.0000000001
 43
0.0000000001
 40
0.0
 40
0.0
 40
0.0
 40
0.0856544478048361
 40
0.0856544478048361
 40
0.0856544478048361
 10
37.6039954367931
 20
22.937419438148
 30
0.0
 41
1.0
 10
37.64881571956328
 20
22.93769655466994
 30
0.0
 41
0.9172205961144311
 10
37.68325576591565
 20
22.96638135462413
 30
0.0
 41
0.9493642046032725
  0
ARC
  5
449
330
1F
100
AcDbEntity
  8
Default
100
AcDbCircle
 10
30.26531748838943
 20
22.37121512574199
 30
0.0
 40
0.2206982097835716
100
AcDbArc
 50
275.7685290698405
 51
291.7275018220804
  0
LINE
  5
44A
330
1F
100
AcDbEntity
  8
Default
100
AcDbLine
 10
30.28749982627997
 20
22.15163451710957
 30
0.0
 11
30.08054417205511
 21
22.13072756963834
 31
0.0
  0
ARC
  5
44B
330
1F
100
AcDbEntity
  8
Default
100
AcDbCircle
 10
30.05542900957107
 20
22.37933989766946
 30
0.0
 40
0.2498776921528805
100
AcDbArc
 50
262.5697811526741
 51
275.7685290698404
  0
POLYLINE
  5
44C
330
1F
100
AcDbEntity
  8
Default
100
AcDb2dPolyline
 66
     1
 10
0.0
 20
0.0
 30
0.0
  0
VERTEX
  5
44D
330
44C
100
AcDbEntity
  8
Default
100
AcDbVertex
100
AcDb2dVertex
 10
27.85169406193685
 20
22.93649118952375
 30
0.0
  0
VERTEX
  5
44E
330
44C
100
AcDbEntity
  8
Default
100
AcDbVertex
100
AcDb2dVertex
 10
26.69785259745049
 20
25.18805380579029
 30
0.0
  0
SEQEND
  5
44F
330
44C
100
AcDbEntity
  8
Default
  0
ARC
  5
450
330
1F
100
AcDbEntity
  8
Default
100
AcDbCircle
 10
14.32886489292787
 20
18.12380663422012
 30
0.0
 40
13.80669731360706
100
AcDbArc
 50
25.07909887488004
 51
29.76319133139247
  0
ARC
  5
451
330
1F
100
AcDbEntity
  8
Default
100
AcDbCircle
 10
47.09677406119758
 20
33.45884292520161
 30
0.0
 40
22.37201478765066
100
AcDbArc
 50
205.0790988748798
 51
209.0385828330991
  0
SPLINE
  5
452
330
1F
100
AcDbEntity
  8
Default
100
AcDbSpline
210
0.0
220
0.0
230
1.0
 70
    12
 71
     2
 72
     6
 73
     3
 74
     0
 42
0.0000000001
 43
0.0000000001
 40
0.0
 40
0.0
 40
0.0
 40
0.3136526776359063
 40
0.3136526776359063
 40
0.3136526776359063
 10
30.01841109205094
 20
22.32999015591389
 30
0.0
 41
1.0
 10
30.17477288605909
 20
22.3420708201591
 30
0.0
 41
0.9999862006071706
 10
30.33099912108173
 20
22.35579366843185
 30
0.0
 41
1.0
  0
SPLINE
  5
453
330
1F
100
AcDbEntity
  8
Default
100
AcDbSpline
210
0.0
220
0.0
230
1.0
 70
    12
 71
     2
 72
     6
 73
     3
 74
     0
 42
0.0000000001
 43
0.0000000001
 40
0.0
 40
0.0
 40
0.0
 40
0.2493712427351362
 40
0.2493712427351362
 40
0.2493712427351362
 10
27.901992221949
 20
21.98030037535206
 30
0.0
 41
1.0
 10
28.01944570152579
 20
21.90367649734219
 30
0.0
 41
0.8416625784489381
 10
28.13805060467953
 20
21.97850573957983
 30
0.0
 41
1.0
  0
POLYLINE
  5
454
330
1F
100
AcDbEntity
  8
Default
100
AcDb2dPolyline
 66
     1
 10
0.0
 20
0.0
 30
0.0
  0
VERTEX
  5
455
330
454
100
AcDbEntity
  8
Default
100
AcDbVertex
100
AcDb2dVertex
 10
35.28134951309744
 20
22.92869787342437
 30
0.0
  0
VERTEX
  5
456
330
454
100
AcDbEntity
  8
Default
100
AcDbVertex
100
AcDb2dVertex
 10
35.28175389982002
 20
22.80111263476087
 30
0.0
  0
SEQEND
  5
457
330
454
100
AcDbEntity
  8
Default
  0
SPLINE
  5
458
330
1F
100
AcDbEntity
  8
Default
100
AcDbSpline
210
0.0
220
0.0
230
1.0
 70
    12
 71
     2
 72
     6
 73
     3
 74
     0
 42
0.0000000001
 43
0.0000000001
 40
0.0
 40
0.0
 40
0.0
 40
0.3184049841480918
 40
0.3184049841480918
 40
0.3184049841480918
 10
35.28134951309744
 20
22.92869787342437
 30
0.0
 41
1.0
 10
35.43964802023886
 20
22.94564413339414
 30
0.0
 41
0.9999952770600171
 10
35.59804770201538
 20
22.96161704494135
 30
0.0
 41
1.0
  0
SPLINE
  5
459
330
1F
100
AcDbEntity
  8
Default
100
AcDbSpline
210
0.0
220
0.0
230
1.0
 70
    12
 71
     2
 72
     8
 73
     5
 74
     0
 42
0.0000000001
 43
0.0000000001
 40
0.0
 40
0.0
 40
0.0
 40
0.1076772379739193
 40
0.1076772379739193
 40
0.2153544759478387
 40
0.2153544759478387
 40
0.2153544759478387
 10
27.97805145337884
 20
23.21200667123779
 30
0.0
 41
1.0
 10
27.92068813060379
 20
23.21759041772709
 30
0.0
 41
0.9040750516459389
 10
27.87996456197825
 20
23.17680659761355
 30
0.0
 41
1.0
 10
27.83924099335275
 20
23.13602277750001
 30
0.0
 41
0.9040750516459389
 10
27.84490954135578
 20
23.07866777259033
 30
0.0
 41
1.0
  0
ARC
  5
45A
330
1F
100
AcDbEntity
  8
Default
100
AcDbCircle
 10
17.11385381288019
 20
22.47126451477174
 30
0.0
 40
10.74823221582309
100
AcDbArc
 50
2.197737590866857
 51
3.239620511239696
  0
ARC
  5
45B
330
1F
100
AcDbEntity
  8
Default
100
AcDbCircle
 10
27.62725318228917
 20
22.85609192730182
 30
0.0
 40
0.2285689500095452
100
AcDbArc
 50
282.5515796615782
 51
6.872232129843739
  0
SPLINE
  5
45C
330
1F
100
AcDbEntity
  8
Default
100
AcDbSpline
210
0.0
220
0.0
230
1.0
 70
    12
 71
     3
 72
    13
 73
     9
 74
     0
 42
0.0000000001
 43
0.0000000001
 40
0.0000000047030481
 40
0.0000000047030481
 40
0.0000000047030481
 40
0.0000000047030481
 40
0.0437575797412229
 40
0.0963766106336238
 40
0.0963766106336238
 40
0.1290011607604258
 40
0.1603237438471766
 40
0.1762203004876441
 40
0.1762203004876441
 40
0.1762203004876441
 40
0.1762203004876441
 10
27.67692542579488
 20
22.63298560033287
 30
0.0
 41
1.0
 10
27.62045287198396
 20
22.63050962036298
 30
0.0
 41
1.0
 10
27.58881261608045
 20
22.62709125986414
 30
0.0
 41
1.0
 10
27.5634306382546
 20
22.61784843207368
 30
0.0
 41
1.0
 10
27.54382545622832
 20
22.60579922981369
 30
0.0
 41
1.0
 10
27.53046302196228
 20
22.5948402963535
 30
0.0
 41
1.0
 10
27.51907641349277
 20
22.5746793514763
 30
0.0
 41
1.0
 10
27.51659144154217
 20
22.56114070847469
 30
0.0
 41
1.0
 10
27.51645492617126
 20
22.54498125875535
 30
0.0
 41
1.0
  0
SPLINE
  5
45D
330
1F
100
AcDbEntity
  8
Default
100
AcDbSpline
210
0.0
220
0.0
230
1.0
 70
    12
 71
     2
 72
     6
 73
     3
 74
     0
 42
0.0000000001
 43
0.0000000001
 40
0.0
 40
0.0
 40
0.0
 40
0.2914963062765733
 40
0.2914963062765733
 40
0.2914963062765733
 10
27.51645492617126
 20
22.54498125875535
 30
0.0
 41
1.0
 10
27.5185520759595
 20
22.39732865785189
 30
0.0
 41
0.9806169748653679
 10
27.59025168960613
 20
22.23945547153433
 30
0.0
 41
1.0
  0
SPLINE
  5
45E
330
1F
100
AcDbEntity
  8
Default
100
AcDbSpline
210
0.0
220
0.0
230
1.0
 70
    12
 71
     2
 72
     6
 73
     3
 74
     0
 42
0.0000000001
 43
0.0000000001
 40
0.0
 40
0.0
 40
0.0
 40
0.2323959088994463
 40
0.2323959088994463
 40
0.2323959088994463
 10
27.59025168960613
 20
22.23945547153433
 30
0.0
 41
1.0
 10
27.64879153056897
 20
22.13907730174645
 30
0.0
 41
0.9999597117723061
 10
27.70977113928515
 20
22.03872577000551
 30
0.0
 41
1.0
  0
SPLINE
  5
45F
330
1F
100
AcDbEntity
  8
Default
100
AcDbSpline
210
0.0
220
0.0
230
1.0
 70
    12
 71
     2
 72
     6
 73
     3
 74
     0
 42
0.0000000001
 43
0.0000000001
 40
0.0
 40
0.0
 40
0.0
 40
0.1214621799935524
 40
0.1214621799935524
 40
0.1214621799935524
 10
27.70977113928515
 20
22.03872577000551
 30
0.0
 41
1.0
 10
27.74634923494966
 20
21.98184267025601
 30
0.0
 41
0.876654444896587
 10
27.81275200846366
 20
21.9821621931812
 30
0.0
 41
1.0
  0
SPLINE
  5
460
330
1F
100
AcDbEntity
  8
Default
100
AcDbSpline
210
0.0
220
0.0
230
1.0
 70
    12
 71
     3
 72
    12
 73
     8
 74
     0
 42
0.0000000001
 43
0.0000000001
 40
-1.0
 40
-1.0
 40
-1.0
 40
-1.0
 40
-0.7500623819354907
 40
-0.7500623819354907
 40
-0.500067351575719
 40
-0.500067351575719
 40
0.0
 40
0.0
 40
0.0
 40
0.0
 10
27.81275200846366
 20
21.9821621931812
 30
0.0
 41
1.0
 10
28.60051459656168
 20
21.96276159166072
 30
0.0
 41
1.0
 10
29.40492815338371
 20
22.02221514122463
 30
0.0
 41
1.0
 10
31.05242464410844
 20
22.20253328500927
 30
0.0
 41
1.0
 10
31.92967688761254
 20
22.333452840808
 30
0.0
 41
1.0
 10
34.64673385757902
 20
22.72109509387029
 30
0.0
 41
1.0
 10
36.2402885055433
 20
22.92815118936544
 30
0.0
 41
1.0
 10
37.6039954367931
 20
22.937419438148
 30
0.0
 41
1.0
  0
SPLINE
  5
461
330
1F
100
AcDbEntity
  8
Default
100
AcDbSpline
210
0.0
220
0.0
230
1.0
 70
    12
 71
     2
 72
     6
 73
     3
 74
     0
 42
0.0000000001
 43
0.0000000001
 40
0.0
 40
0.0
 40
0.0
 40
0.3179562956467166
 40
0.3179562956467166
 40
0.3179562956467166
 10
32.65043813267638
 20
22.61349851817609
 30
0.0
 41
1.0
 10
32.80821673608155
 20
22.63299125565694
 30
0.0
 41
0.9999999103337658
 10
32.96597877346082
 20
22.65261761723852
 30
0.0
 41
1.0
  0
LINE
  5
462
330
1F
100
AcDbEntity
  8
Default
100
AcDbLine
 10
37.50036219918513
 20
23.5328000274192
 30
0.0
 11
37.47544249191193
 21
23.71580716847961
 31
0.0
  0
SPLINE
  5
463
330
1F
100
AcDbEntity
  8
Default
100
AcDbSpline
210
0.0
220
0.0
230
1.0
 70
    12
 71
     2
 72
     6
 73
     3
 74
     0
 42
0.0000000001
 43
0.0000000001
 40
-0.1938206420261041
 40
-0.1938206420261041
 40
-0.1938206420261041
 40
0.0
 40
0.0
 40
0.0
 10
37.47544249191193
 20
23.71580716847961
 30
0.0
 41
1.0
 10
37.45982023705218
 20
23.83685242057445
 30
0.0
 41
0.7178366527271254
 10
37.3383538794246
 20
23.82493890445636
 30
0.0
 41
1.0
  0
ARC
  5
464
330
1F
100
AcDbEntity
  8
Default
100
AcDbCircle
 10
35.17710032535913
 20
44.06590098488718
 30
0.0
 40
20.35602031012936
100
AcDbArc
 50
274.8735452563024
 51
276.0947347867644
  0
SPLINE
  5
465
330
1F
100
AcDbEntity
  8
Default
100
AcDbSpline
210
0.0
220
0.0
230
1.0
 70
     8
 71
     3
 72
    11
 73
     7
 74
     0
 42
0.0000000001
 43
0.0000000001
 40
0.0
 40
0.0
 40
0.0
 40
0.0
 40
1.279703727119549
 40
4.478054017686862
 40
5.949823361320465
 40
8.966592204333145
 40
8.966592204333145
 40
8.966592204333145
 40
8.966592204333145
 10
36.90648428235423
 20
23.78347524249417
 30
0.0
 10
36.4813378128691
 20
23.74722506743922
 30
0.0
 10
34.99669045922801
 20
23.59623805166978
 30
0.0
 10
33.02931935516739
 20
23.3365091712639
 30
0.0
 10
30.47854422079425
 20
23.10260399411738
 30
0.0
 10
28.97730038672498
 20
23.08256403782731
 30
0.0
 10
27.97828920475382
 20
23.2119753092764
 30
0.0
  0
POLYLINE
  5
466
330
1F
100
AcDbEntity
  8
Default
100
AcDb2dPolyline
 66
     1
 10
0.0
 20
0.0
 30
0.0
  0
VERTEX
  5
467
330
466
100
AcDbEntity
  8
Default
100
AcDbVertex
100
AcDb2dVertex
 10
35.59804770201538
 20
22.96161704494135
 30
0.0
  0
VERTEX
  5
468
330
466
100
AcDbEntity
  8
Default
100
AcDbVertex
100
AcDb2dVertex
 10
35.60048752772099
 20
22.83462627890905
 30
0.0
  0
SEQEND
  5
469
330
466
100
AcDbEntity
  8
Default
  0
ARC
  5
46A
330
1F
100
AcDbEntity
  8
Default
100
AcDbCircle
 10
35.48299985250287
 20
23.36574106158421
 30
0.0
 40
0.5439542868699839
100
AcDbArc
 50
276.012876070545
 51
282.4735058138342
  0
LINE
  5
46B
330
1F
100
AcDbEntity
  8
Default
100
AcDbLine
 10
35.53998012985394
 20
22.82477940472003
 30
0.0
 11
35.34096712921189
 21
22.80381707619053
 31
0.0
  0
ARC
  5
46C
330
1F
100
AcDbEntity
  8
Default
100
AcDbCircle
 10
35.28858546400144
 20
23.30112024351208
 30
0.0
 40
0.5000542761323707
100
AcDbArc
 50
269.2172210286454
 51
276.0128760705438
  0
POLYLINE
  5
46D
330
1F
100
AcDbEntity
  8
Default
100
AcDb2dPolyline
 66
     1
 10
0.0
 20
0.0
 30
0.0
  0
VERTEX
  5
46E
330
46D
100
AcDbEntity
  8
Default
100
AcDbVertex
100
AcDb2dVertex
 10
32.96597877346082
 20
22.65261761723852
 30
0.0
  0
VERTEX
  5
46F
330
46D
100
AcDbEntity
  8
Default
100
AcDbVertex
100
AcDb2dVertex
 10
32.97246087360725
 20
22.50657205383898
 30
0.0
  0
SEQEND
  5
470
330
46D
100
AcDbEntity
  8
Default
  0
POLYLINE
  5
471
330
1F
100
AcDbEntity
  8
Default
100
AcDb2dPolyline
 66
     1
 10
0.0
 20
0.0
 30
0.0
  0
VERTEX
  5
472
330
471
100
AcDbEntity
  8
Default
100
AcDbVertex
100
AcDb2dVertex
 10
32.65043813267638
 20
22.61349851817609
 30
0.0
  0
VERTEX
  5
473
330
471
100
AcDbEntity
  8
Default
100
AcDbVertex
100
AcDb2dVertex
 10
32.65162123975318
 20
22.46215502674884
 30
0.0
  0
SEQEND
  5
474
330
471
100
AcDbEntity
  8
Default
  0
ARC
  5
475
330
1F
100
AcDbEntity
  8
Default
100
AcDbCircle
 10
32.85827051991745
 20
22.88353404944841
 30
0.0
 40
0.393877878294322
100
AcDbArc
 50
277.9349865216539
 51
286.8527530584805
  0
LINE
  5
476
330
1F
100
AcDbEntity
  8
Default
100
AcDbLine
 10
32.9126451070299
 20
22.49342741366021
 30
0.0
 11
32.710820200553
 21
22.4652962696295
 31
0.0
  0
ARC
  5
477
330
1F
100
AcDbEntity
  8
Default
100
AcDbCircle
 10
32.66289111593494
 20
22.80916010289581
 30
0.0
 40
0.3471880369207945
100
AcDbArc
 50
268.1398270608906
 51
277.9349865216556
  0
POLYLINE
  5
478
330
1F
100
AcDbEntity
  8
Default
100
AcDb2dPolyline
 66
     1
 10
0.0
 20
0.0
 30
0.0
  0
VERTEX
  5
479
330
478
100
AcDbEntity
  8
Default
100
AcDbVertex
100
AcDb2dVertex
 10
30.33099912108173
 20
22.35579366843185
 30
0.0
  0
VERTEX
  5
47A
330
478
100
AcDbEntity
  8
Default
100
AcDbVertex
100
AcDb2dVertex
 10
30.34701835363413
 20
22.16619642313188
 30
0.0
  0
SEQEND
  5
47B
330
478
100
AcDbEntity
  8
Default
  0
POLYLINE
  5
47C
330
1F
100
AcDbEntity
  8
Default
100
AcDb2dPolyline
 66
     1
 10
0.0
 20
0.0
 30
0.0
  0
VERTEX
  5
47D
330
47C
100
AcDbEntity
  8
Default
100
AcDbVertex
100
AcDb2dVertex
 10
30.01841109205094
 20
22.32999015591389
 30
0.0
  0
VERTEX
  5
47E
330
47C
100
AcDbEntity
  8
Default
100
AcDbVertex
100
AcDb2dVertex
 10
30.02311517519124
 20
22.13156040468564
 30
0.0
  0
SEQEND
  5
47F
330
47C
100
AcDbEntity
  8
Default
  0
SPLINE
  5
480
330
1F
100
AcDbEntity
  8
Default
100
AcDbSpline
210
0.0
220
0.0
230
1.0
 70
    12
 71
     2
 72
     6
 73
     3
 74
     0
 42
0.0000000001
 43
0.0000000001
 40
0.0
 40
0.0
 40
0.0
 40
0.0015672370115101
 40
0.0015672370115101
 40
0.0015672370115101
 10
-5.533977455662367
 20
23.15289526055365
 30
0.0
 41
1.0
 10
-5.534178102696636
 20
23.15365282039594
 30
0.0
 41
0.9998800978383098
 10
-5.534355194458442
 20
23.15441623028253
 30
0.0
 41
1.0
  0
POLYLINE
  5
481
330
1F
100
AcDbEntity
  8
Default
100
AcDb2dPolyline
 66
     1
 10
0.0
 20
0.0
 30
0.0
  0
VERTEX
  5
482
330
481
100
AcDbEntity
  8
Default
100
AcDbVertex
100
AcDb2dVertex
 10
-7.568919966055049
 20
64.24967451213382
 30
0.0
  0
VERTEX
  5
483
330
481
100
AcDbEntity
  8
Default
100
AcDbVertex
100
AcDb2dVertex
 10
-7.616915168195206
 20
64.16253185298015
 30
0.0
  0
SEQEND
  5
484
330
481
100
AcDbEntity
  8
Default
  0
ARC
  5
485
330
1F
100
AcDbEntity
  8
Default
100
AcDbCircle
 10
-334.2731743482901
 20
294.7861333788013
 30
0.0
 40
399.8644235766344
100
AcDbArc
 50
324.5638436431537
 51
324.7774070112224
  0
SPLINE
  5
486
330
1F
100
AcDbEntity
  8
Default
100
AcDbSpline
210
0.0
220
0.0
230
1.0
 70
     8
 71
     3
 72
    18
 73
    14
 74
     0
 42
0.0000000001
 43
0.0000000001
 40
-11.04446704942164
 40
-11.04446704942164
 40
-11.04446704942164
 40
-11.04446704942164
 40
-10.61383137829946
 40
-10.49565764506195
 40
-10.38182066249299
 40
-10.00594223520787
 40
-9.327331098099943
 40
-8.454856792675347
 40
-7.339592750294725
 40
-5.855096042031121
 40
-4.741449960198119
 40
-3.809270731539037
 40
-0.0000000000000004
 40
-0.0000000000000004
 40
-0.0000000000000004
 40
-0.0000000000000004
 10
-8.478805063853613
 20
62.9465634498733
 30
0.0
 10
-8.561968782291487
 20
62.82969698396273
 30
0.0
 10
-8.66610519531487
 20
62.67890827413881
 30
0.0
 10
-8.79536460871985
 20
62.50022108541197
 30
0.0
 10
-8.901904303125477
 20
62.32236774687708
 30
0.0
 10
-9.03843800709366
 20
61.95459028818219
 30
0.0
 10
-9.137514888462377
 20
61.31824410518874
 30
0.0
 10
-9.18337102635924
 20
60.43020731707381
 30
0.0
 10
-9.178606033389471
 20
59.27250955034694
 30
0.0
 10
-9.135013201019817
 20
58.03542981937376
 30
0.0
 10
-9.07066097558915
 20
56.86036810914317
 30
0.0
 10
-8.955848371898767
 20
54.91207035230117
 30
0.0
 10
-8.86414979226744
 20
53.33423339900382
 30
0.0
 10
-8.789674216623482
 20
52.06666793964351
 30
0.0
  0
ARC
  5
487
330
1F
100
AcDbEntity
  8
Default
100
AcDbCircle
 10
-32002.3661865269
 20
-1827.710041086384
 30
0.0
 40
32048.7519027629
100
AcDbArc
 50
3.354775432793974
 51
3.362537249004979
  0
ARC
  5
488
330
1F
100
AcDbEntity
  8
Default
100
AcDbCircle
 10
-8.159359933635315
 20
47.75454304199509
 30
0.0
 40
0.3766012876736257
100
AcDbArc
 50
183.354775432787
 51
260.324284407634
  0
SPLINE
  5
489
330
1F
100
AcDbEntity
  8
Default
100
AcDbSpline
210
0.0
220
0.0
230
1.0
 70
    12
 71
     2
 72
     6
 73
     3
 74
     0
 42
0.0000000001
 43
0.0000000001
 40
-8.275528837056001
 40
-8.275528837056001
 40
-8.275528837056001
 40
0.0
 40
0.0
 40
0.0
 10
-8.222655907482405
 20
47.3832989853798
 30
0.0
 41
1.0
 10
-4.15124875142405
 20
46.57303667910743
 30
0.0
 41
0.9951340748191598
 10
0.0000000000000142
 20
46.57691471587134
 30
0.0
 41
1.0
  0
SPLINE
  5
48A
330
1F
100
AcDbEntity
  8
Default
100
AcDbSpline
210
0.0
220
0.0
230
1.0
 70
    12
 71
     3
 72
    14
 73
    10
 74
     0
 42
0.0000000001
 43
0.0000000001
 40
-2.382636799938624
 40
-2.382636799938624
 40
-2.382636799938624
 40
-2.382636799938624
 40
-1.382636799938624
 40
-0.3826367999386246
 40
-0.3826367999386246
 40
-0.3826367999386246
 40
-0.2729743886858338
 40
-0.1509122625360565
 40
0.0
 40
0.0
 40
0.0
 40
0.0
 10
0.0000000000000142
 20
66.62196573352273
 30
0.0
 41
1.0
 10
-1.282456564702599
 20
66.62216013169922
 30
0.0
 41
1.0
 10
-3.848418151443823
 20
66.25184483448251
 30
0.0
 41
1.0
 10
-6.200655949874758
 20
65.16505793811804
 30
0.0
 41
1.0
 10
-7.282456947120878
 20
64.47555308971295
 30
0.0
 41
1.0
 10
-7.314217370003931
 20
64.45626168934398
 30
0.0
 41
1.0
 10
-7.378547819528265
 20
64.4134095279329
 30
0.0
 41
1.0
 10
-7.465101683346361
 20
64.34552557277318
 30
0.0
 41
1.0
 10
-7.53459030896552
 20
64.28684914021163
 30
0.0
 41
1.0
 10
-7.568919966055049
 20
64.24967451213382
 30
0.0
 41
1.0
  0
SPLINE
  5
48B
330
1F
100
AcDbEntity
  8
Default
100
AcDbSpline
210
0.0
220
0.0
230
1.0
 70
     8
 71
     3
 72
    16
 73
    12
 74
     0
 42
0.0000000001
 43
0.0000000001
 40
0.0
 40
0.0
 40
0.0
 40
0.0
 40
1.0
 40
2.0
 40
3.0
 40
4.0
 40
5.0
 40
6.0
 40
7.0
 40
8.0
 40
9.0
 40
9.0
 40
9.0
 40
9.0
 10
20.95429789850179
 20
37.97313217160453
 30
0.0
 10
21.11686431270854
 20
37.4121987724747
 30
0.0
 10
21.40538256748039
 20
36.27945666953373
 30
0.0
 10
21.70623251908124
 20
34.55234346030387
 30
0.0
 10
21.92274049390932
 20
32.81348050763019
 30
0.0
 10
22.10904318623865
 20
31.07146288620175
 30
0.0
 10
22.25488825223387
 20
29.32435981629457
 30
0.0
 10
22.31718812327505
 20
27.57598680851073
 30
0.0
 10
22.54492261543992
 20
25.82297005096828
 30
0.0
 10
23.40675750599929
 20
24.25497104652451
 30
0.0
 10
24.34164047706288
 20
23.51923614320095
 30
0.0
 10
24.85063882520869
 20
23.23480621848002
 30
0.0
  0
ARC
  5
48C
330
1F
100
AcDbEntity
  8
Default
100
AcDbCircle
 10
39.48823648131561
 20
19.0751920657933
 30
0.0
 40
4.735621076912604
100
AcDbArc
 50
78.2268504378205
 51
88.89187675271201
  0
SPLINE
  5
48D
330
1F
100
AcDbEntity
  8
Default
100
AcDbSpline
210
0.0
220
0.0
230
1.0
 70
    12
 71
     2
 72
     6
 73
     3
 74
     0
 42
0.0000000001
 43
0.0000000001
 40
0.0
 40
0.0
 40
0.0
 40
0.4752604825934983
 40
0.4752604825934983
 40
0.4752604825934983
 10
40.45447983957528
 20
23.71119042178071
 30
0.0
 41
1.0
 10
40.68762398293283
 20
23.66415452212102
 30
0.0
 41
0.9986683373178159
 10
40.91468445876184
 20
23.59334361223393
 30
0.0
 41
1.0
  0
SPLINE
  5
48E
330
1F
100
AcDbEntity
  8
Default
100
AcDbSpline
210
0.0
220
0.0
230
1.0
 70
    12
 71
     2
 72
     8
 73
     5
 74
     0
 42
0.0000000001
 43
0.0000000001
 40
0.0
 40
0.0
 40
0.0
 40
0.0324543335714889
 40
0.0324543335714889
 40
0.0649086671429778
 40
0.0649086671429778
 40
0.0649086671429778
 10
40.91468445876184
 20
23.59334361223393
 30
0.0
 41
1.0
 10
40.9310386834742
 20
23.5881041319323
 30
0.0
 41
0.9197371239895568
 10
40.94613235496551
 20
23.59628605640292
 30
0.0
 41
1.0
 10
40.96122602645683
 20
23.60446798087354
 30
0.0
 41
0.9197371239895568
 10
40.9658039158078
 20
23.62118911743968
 30
0.0
 41
1.0
  0
SPLINE
  5
48F
330
1F
100
AcDbEntity
  8
Default
100
AcDbSpline
210
0.0
220
0.0
230
1.0
 70
    12
 71
     2
 72
     6
 73
     3
 74
     0
 42
0.0000000001
 43
0.0000000001
 40
0.0
 40
0.0
 40
0.0
 40
0.1197804066303905
 40
0.1197804066303905
 40
0.1197804066303905
 10
40.9658039158078
 20
23.62118911743968
 30
0.0
 41
1.0
 10
40.98104313606661
 20
23.67928164686455
 30
0.0
 41
0.9999980136198698
 10
40.99646975107812
 20
23.73715102998039
 30
0.0
 41
1.0
  0
SPLINE
  5
490
330
1F
100
AcDbEntity
  8
Default
100
AcDbSpline
210
0.0
220
0.0
230
1.0
 70
    12
 71
     3
 72
    59
 73
    55
 74
     0
 42
0.0000000001
 43
0.0000000001
 40
0.0
 40
0.0
 40
0.0
 40
0.0
 40
0.0213292444772112
 40
0.0422339028831005
 40
0.5213050783143771
 40
1.138131412743502
 40
1.138131412743502
 40
1.138131412743502
 40
1.161781021547216
 40
1.190660427673819
 40
1.266727426220671
 40
1.487915670039002
 40
1.487915670039002
 40
1.487915670039002
 40
3.408829853382499
 40
8.2904732492629
 40
10.51377757559225
 40
11.3697014921579
 40
12.98432973188382
 40
14.32711787798274
 40
14.98821339550627
 40
15.62821414854803
 40
17.06007105052871
 40
18.11268626327257
 40
18.35675537765046
 40
18.67392838797119
 40
20.80986268708262
 40
23.63983047276914
 40
23.63983047276914
 40
23.63983047276914
 40
27.65896466783846
 40
27.65896466783846
 40
27.65896466783846
 40
27.8059439588151
 40
27.87957196899965
 40
27.96182902675386
 40
28.0483590627115
 40
28.0483590627115
 40
28.12728586872971
 40
28.12728586872971
 40
28.12728586872971
 40
29.18399970511256
 40
29.18399970511256
 40
29.18399970511256
 40
30.30326730634012
 40
30.30326730634012
 40
30.30326730634012
 40
30.4234114192628
 40
30.4234114192628
 40
30.4234114192628
 40
30.45516024418013
 40
30.45516024418013
 40
30.45516024418013
 40
30.48690906909746
 40
30.48690906909746
 40
30.48690906909746
 40
30.48690906909746
 10
40.99646975107812
 20
23.73715102998039
 30
0.0
 41
1.0
 10
40.99761436512181
 20
23.74144478519268
 30
0.0
 41
1.0
 10
41.00204027185545
 20
23.76272634820974
 30
0.0
 41
1.0
 10
40.86524898860951
 20
23.869767530884
 30
0.0
 41
1.0
 10
40.58751395151656
 20
24.11822521348931
 30
0.0
 41
1.0
 10
40.33159865165742
 20
24.37901571116875
 30
0.0
 41
1.0
 10
40.19105053729253
 20
24.52910417098051
 30
0.0
 41
1.0
 10
40.18565243152015
 20
24.53486657617112
 30
0.0
 41
1.0
 10
40.16222735392363
 20
24.55609391533183
 30
0.0
 41
1.0
 10
40.1237268967741
 20
24.57539036673388
 30
0.0
 41
1.0
 10
40.01836301174588
 20
24.60390048488448
 30
0.0
 41
1.0
 10
39.91891462347662
 20
24.61038450715332
 30
0.0
 41
1.0
 10
39.84510696088201
 20
24.61251550221872
 30
0.0
 41
1.0
 10
39.20474125278655
 20
24.6264259231315
 30
0.0
 41
1.0
 10
36.93764245013234
 20
24.67016449866987
 30
0.0
 41
1.0
 10
33.92944624371118
 20
24.72125732824948
 30
0.0
 41
1.0
 10
31.27629809194075
 20
24.77046291471502
 30
0.0
 41
1.0
 10
29.71237905294494
 20
24.81748207699505
 30
0.0
 41
1.0
 10
28.45051192631603
 20
25.01715054298532
 30
0.0
 41
1.0
 10
27.31711400225062
 20
25.45408384167096
 30
0.0
 41
1.0
 10
26.60616583031877
 20
25.98890916440737
 30
0.0
 41
1.0
 10
25.99868928041936
 20
26.67320538683768
 30
0.0
 41
1.0
 10
25.55427099632
 20
27.63144584745863
 30
0.0
 41
1.0
 10
25.33947173337917
 20
28.51313566376711
 30
0.0
 41
1.0
 10
25.23918352219708
 20
29.04336006525644
 30
0.0
 41
1.0
 10
25.07334576020234
 20
29.9263956219392
 30
0.0
 41
1.0
 10
24.74724670651524
 20
31.65721219205157
 30
0.0
 41
1.0
 10
24.44343551279003
 20
33.28439412745401
 30
0.0
 41
1.0
 10
24.27090930583758
 20
34.21180566828356
 30
0.0
 41
1.0
 10
24.02588540929093
 20
35.52892724332057
 30
0.0
 41
0.9999892345137223
 10
23.77338030124952
 20
36.84463508464393
 30
0.0
 41
0.9999892345137223
 10
23.51340213673411
 20
38.15888669954957
 30
0.0
 41
1.0
 10
23.50075174696046
 20
38.20585652878674
 30
0.0
 41
1.0
 10
23.47613798239642
 20
38.27306015550363
 30
0.0
 41
1.0
 10
23.42726649842669
 20
38.34516537536257
 30
0.0
 41
1.0
 10
23.38082097277392
 20
38.38874512873041
 30
0.0
 41
1.0
 10
23.34487101021244
 20
38.40731726834855
 30
0.0
 41
1.0
 10
23.30926503378247
 20
38.41932715413104
 30
0.0
 41
1.0
 10
23.29158650999355
 20
38.42666543735004
 30
0.0
 41
1.0
 10
23.24331513292306
 20
38.4193204991613
 30
0.0
 41
1.0
 10
22.89507898610355
 20
38.3663331362828
 30
0.0
 41
0.9999636970347625
 10
22.54741476783499
 20
38.30971453587437
 30
0.0
 41
0.9999636970347625
 10
22.20036034184346
 20
38.24947086420521
 30
0.0
 41
1.0
 10
21.83301767297027
 20
38.18425493349206
 30
0.0
 41
1.0
 10
21.46567500409709
 20
38.11903900277891
 30
0.0
 41
1.0
 10
21.09833233522389
 20
38.05382307206574
 30
0.0
 41
1.0
 10
21.05890328464541
 20
38.04656963196467
 30
0.0
 41
0.9978746378784636
 10
21.02017866387071
 20
38.03619340101725
 30
0.0
 41
0.9978746378784636
 10
20.98240538442626
 20
38.02276053896813
 30
0.0
 41
1.0
 10
20.97190460562648
 20
38.01994891358231
 30
0.0
 41
0.9481677523081955
 10
20.96330719192054
 20
38.01329638997991
 30
0.0
 41
0.9481677523081955
 10
20.95795001313857
 20
38.0038374139143
 30
0.0
 41
1.0
 10
20.9525928343566
 20
37.99437843784867
 30
0.0
 41
0.9481677523081955
 10
20.95130891435127
 20
37.9835838492909
 30
0.0
 41
0.9481677523081955
 10
20.95429789850179
 20
37.97313217160453
 30
0.0
 41
1.0
  0
SPLINE
  5
491
330
1F
100
AcDbEntity
  8
Default
100
AcDbSpline
210
0.0
220
0.0
230
1.0
 70
    12
 71
     2
 72
     6
 73
     3
 74
     0
 42
0.0000000001
 43
0.0000000001
 40
0.0
 40
0.0
 40
0.0
 40
1.082344106876008
 40
1.082344106876008
 40
1.082344106876008
 10
40.91468035260421
 20
23.59334511292746
 30
0.0
 41
1.0
 10
40.50366201887863
 20
23.94673612409911
 30
0.0
 41
0.9975644276718084
 10
40.14582180429348
 20
24.35388678203936
 30
0.0
 41
1.0
  0
SPLINE
  5
492
330
1F
100
AcDbEntity
  8
Default
100
AcDbSpline
210
0.0
220
0.0
230
1.0
 70
    12
 71
     3
 72
    10
 73
     6
 74
     0
 42
0.0000000001
 43
0.0000000001
 40
0.0
 40
0.0
 40
0.0
 40
0.0
 40
0.499786126541424
 40
0.499786126541424
 40
1.0
 40
1.0
 40
1.0
 40
1.0
 10
40.14582180429348
 20
24.35388678203936
 30
0.0
 41
1.0
 10
40.13648270324886
 20
24.36433727861467
 30
0.0
 41
1.0
 10
40.11652384165076
 20
24.37555699276134
 30
0.0
 41
1.0
 10
40.03618122826659
 20
24.39769477436618
 30
0.0
 41
1.0
 10
39.96920775792124
 20
24.41092549151793
 30
0.0
 41
1.0
 10
39.84615384089834
 20
24.41423325573389
 30
0.0
 41
1.0
  0
SPLINE
  5
493
330
1F
100
AcDbEntity
  8
Default
100
AcDbSpline
210
0.0
220
0.0
230
1.0
 70
    12
 71
     3
 72
    36
 73
    32
 74
     0
 42
0.0000000001
 43
0.0000000001
 40
0.0
 40
0.0
 40
0.0
 40
0.0
 40
2.990739583321262
 40
2.990739583321262
 40
2.990739583321262
 40
4.333651030355169
 40
4.333651030355169
 40
4.333651030355169
 40
8.814443795263726
 40
9.100566613352905
 40
10.24480724454827
 40
11.67549121983906
 40
12.96398165262606
 40
14.1559140323942
 40
15.39293631914945
 40
16.62719998542071
 40
17.10106454752805
 40
17.66960510727877
 40
19.56375070971521
 40
19.56375070971521
 40
19.56375070971521
 40
21.69406019694155
 40
21.69406019694155
 40
21.69406019694155
 40
25.8288213752095
 40
25.8288213752095
 40
25.8288213752095
 40
26.0991454120005
 40
26.0991454120005
 40
26.0991454120005
 40
26.42524490160192
 40
26.42524490160192
 40
26.42524490160192
 40
26.42524490160192
 10
39.84615384089834
 20
24.41423325573389
 30
0.0
 41
1.0
 10
38.84257717918809
 20
24.43435752286916
 30
0.0
 41
0.9999981939119967
 10
37.84581903579897
 20
24.45199032740349
 30
0.0
 41
0.9999981939119967
 10
36.84902254861738
 20
24.46730291538291
 30
0.0
 41
1.0
 10
36.40146055362481
 20
24.47550529237278
 30
0.0
 41
0.9999999941358523
 10
35.95389747463445
 20
24.483648306231
 30
0.0
 41
0.9999999941358523
 10
35.50633331952004
 20
24.49173195681432
 30
0.0
 41
1.0
 10
34.01322201344477
 20
24.52009207369927
 30
0.0
 41
1.0
 10
32.42394087856643
 20
24.54965654705337
 30
0.0
 41
1.0
 10
30.45454366579391
 20
24.58526604184224
 30
0.0
 41
1.0
 10
29.50022006207935
 20
24.63467943554138
 30
0.0
 41
1.0
 10
28.23100840631805
 20
24.86824824165744
 30
0.0
 41
1.0
 10
27.01277222104399
 20
25.36741236321911
 30
0.0
 41
1.0
 10
26.06413208274542
 20
26.19485254388148
 30
0.0
 41
1.0
 10
25.46677007788897
 20
27.2770640628069
 30
0.0
 41
1.0
 10
25.188759230895
 20
28.21995145663952
 30
0.0
 41
1.0
 10
25.04265993629396
 20
28.9655313367741
 30
0.0
 41
1.0
 10
24.86533490308396
 20
29.92762801638743
 30
0.0
 41
1.0
 10
24.71181416019836
 20
30.73452710857854
 30
0.0
 41
1.0
 10
24.59600987221371
 20
31.35502583248983
 30
0.0
 41
1.0
 10
24.46560881475436
 20
32.05305494167509
 30
0.0
 41
0.9999946372837994
 10
24.33784975323606
 20
32.75157311641948
 30
0.0
 41
0.9999946372830957
 10
24.21273474306531
 20
33.45056911886026
 30
0.0
 41
0.9999999999978886
 10
23.97688802197227
 20
34.80853911486317
 30
0.0
 41
0.9999340955377237
 10
23.7220997135741
 20
36.16308489318774
 30
0.0
 41
0.9999340955802639
 10
23.44842019296348
 20
37.51393864183668
 30
0.0
 41
1.000000000125509
 10
23.43046321313135
 20
37.60223939188711
 30
0.0
 41
0.9999998892704794
 10
23.41258618602213
 20
37.6905562822774
 30
0.0
 41
0.9999998892704794
 10
23.39478911758112
 20
37.77888928363643
 30
0.0
 41
1.000000000125509
 10
23.37442133997171
 20
37.88568466448135
 30
0.0
 41
0.9996238213620874
 10
23.35047791001915
 20
37.99173565173118
 30
0.0
 41
0.9996238213620874
 10
23.32298584875308
 20
38.09692256299821
 30
0.0
 41
1.000000000125509
  0
SPLINE
  5
494
330
1F
100
AcDbEntity
  8
Default
100
AcDbSpline
210
0.0
220
0.0
230
1.0
 70
    12
 71
     3
 72
    10
 73
     6
 74
     0
 42
0.0000000001
 43
0.0000000001
 40
0.0
 40
0.0
 40
0.0
 40
0.0
 40
0.4997792602654922
 40
0.4997792602654922
 40
1.0
 40
1.0
 40
1.0
 40
1.0
 10
23.32298584875308
 20
38.0969225629982
 30
0.0
 41
1.0
 10
23.30165238781886
 20
38.1757117615921
 30
0.0
 41
1.0
 10
23.2674407600026
 20
38.24063606951967
 30
0.0
 41
1.0
 10
23.19092229944769
 20
38.31121819744401
 30
0.0
 41
1.0
 10
23.14938746652307
 20
38.32805810702914
 30
0.0
 41
1.0
 10
23.1025989581135
 20
38.32047111679944
 30
0.0
 41
1.0
  0
SPLINE
  5
495
330
1F
100
AcDbEntity
  8
Default
100
AcDbSpline
210
0.0
220
0.0
230
1.0
 70
    12
 71
     2
 72
     6
 73
     3
 74
     0
 42
0.0000000001
 43
0.0000000001
 40
0.0
 40
0.0
 40
0.0
 40
1.03984789255465
 40
1.03984789255465
 40
1.03984789255465
 10
23.1025989581135
 20
38.32047111679944
 30
0.0
 41
1.0
 10
22.58959593324632
 20
38.23588494392006
 30
0.0
 41
0.9999833139372739
 10
22.07564988331761
 20
38.15723138756097
 30
0.0
 41
1.0
  0
SPLINE
  5
496
330
1F
100
AcDbEntity
  8
Default
100
AcDbSpline
210
0.0
220
0.0
230
1.0
 70
    12
 71
     2
 72
     6
 73
     3
 74
     0
 42
0.0000000001
 43
0.0000000001
 40
0.0
 40
0.0
 40
0.0
 40
1.136364072058917
 40
1.136364072058917
 40
1.136364072058917
 10
22.07564988331761
 20
38.15723138756097
 30
0.0
 41
1.0
 10
21.51487378334433
 20
38.06579153675384
 30
0.0
 41
0.9999994086296703
 10
20.95429789850179
 20
37.97313217160459
 30
0.0
 41
1.0
  0
SPLINE
  5
497
330
1F
100
AcDbEntity
  8
Default
100
AcDbSpline
210
0.0
220
0.0
230
1.0
 70
    12
 71
     2
 72
     6
 73
     3
 74
     0
 42
0.0000000001
 43
0.0000000001
 40
0.5367362653132891
 40
0.5367362653132891
 40
0.5367362653132891
 40
1.16046253457911
 40
1.16046253457911
 40
1.16046253457911
 10
-8.481204739606103
 20
24.31045844116267
 30
0.0
 41
0.9999556825401937
 10
-8.763123277013761
 20
24.44381545363546
 30
0.0
 41
0.9999520912270546
 10
-9.043098791492383
 20
24.58120492121641
 30
0.0
 41
1.0
  0
ARC
  5
498
330
1F
100
AcDbEntity
  8
Default
100
AcDbCircle
 10
-63.85904567088829
 20
43.46103524777263
 30
0.0
 40
56.53701087835524
100
AcDbArc
 50
352.4515982317754
 51
354.5899439829718
  0
SPLINE
  5
499
330
1F
100
AcDbEntity
  8
Default
100
AcDbSpline
210
0.0
220
0.0
230
1.0
 70
     8
 71
     3
 72
    23
 73
    19
 74
     0
 42
0.0000000001
 43
0.0000000001
 40
-11.91967701549755
 40
-11.91967701549755
 40
-11.91967701549755
 40
-11.91967701549755
 40
-8.329327274556412
 40
-4.522153002375717
 40
-3.809294555456245
 40
-2.42112832591297
 40
-1.528295460971046
 40
-0.946943201027295
 40
-0.7579104400587644
 40
-0.6748850320902328
 40
-0.6276874961547436
 40
-0.5831373980459477
 40
-0.5504869057075638
 40
-0.4870405797229443
 40
-0.4054342416030434
 40
-0.2521911721077188
 40
-0.1143499834053041
 40
0.0
 40
0.0
 40
0.0
 40
0.0
 10
-7.811970791374733
 20
36.03412495415401
 30
0.0
 10
-7.969184742754493
 20
34.84771206417241
 30
0.0
 10
-8.282864115513092
 20
32.40189568225273
 30
0.0
 10
-8.640856757091257
 20
29.72220787210707
 30
0.0
 10
-8.896030497093307
 20
27.76949288190214
 30
0.0
 10
-9.01342701168437
 20
26.77823155421722
 30
0.0
 10
-9.104281928460495
 20
25.82864033258982
 30
0.0
 10
-9.122949469351141
 20
25.27362864071971
 30
0.0
 10
-9.099785439057683
 20
24.99000658177564
 30
0.0
 10
-9.075839436260338
 20
24.88536051636804
 30
0.0
 10
-9.053827694531662
 20
24.83232478708326
 30
0.0
 10
-9.028607507819999
 20
24.79680057225623
 30
0.0
 10
-8.985029740862501
 20
24.77868682172163
 30
0.0
 10
-8.928933291426034
 20
24.7597646097839
 30
0.0
 10
-8.834800120154682
 20
24.72772066152983
 30
0.0
 10
-8.715958249073196
 20
24.69148606100329
 30
0.0
 10
-8.586475665084436
 20
24.65278985248748
 30
0.0
 10
-8.506651714949982
 20
24.62634978412986
 30
0.0
 10
-8.471104631725268
 20
24.61256227119494
 30
0.0
  0
SPLINE
  5
49A
330
1F
100
AcDbEntity
  8
Default
100
AcDbSpline
210
0.0
220
0.0
230
1.0
 70
     8
 71
     3
 72
    13
 73
     9
 74
     0
 42
0.0000000001
 43
0.0000000001
 40
-6.0
 40
-6.0
 40
-6.0
 40
-6.0
 40
-4.999999763674965
 40
-3.99999952734993
 40
-2.999999291024896
 40
-1.999999054699861
 40
-0.9999988183748261
 40
0.0
 40
0.0
 40
0.0
 40
0.0
 10
-8.471104631725268
 20
24.61256227119494
 30
0.0
 10
-8.00967754599921
 20
24.50479233025937
 30
0.0
 10
-7.078985913497291
 20
24.32456661591988
 30
0.0
 10
-5.673248371442611
 20
24.11202977966098
 30
0.0
 10
-4.259968845505938
 20
23.95690195102933
 30
0.0
 10
-2.841972024942692
 20
23.85461763724437
 30
0.0
 10
-1.421484892345774
 20
23.79766074799933
 30
0.0
 10
-0.4738220011006433
 20
23.78623081690423
 30
0.0
 10
0.0000000059136198
 20
23.78639265560333
 30
0.0
  0
SPLINE
  5
49B
330
1F
100
AcDbEntity
  8
Default
100
AcDbSpline
210
0.0
220
0.0
230
1.0
 70
     8
 71
     3
 72
    13
 73
     9
 74
     0
 42
0.0000000001
 43
0.0000000001
 40
0.0
 40
0.0
 40
0.0
 40
0.0
 40
0.9999988183748261
 40
1.999999054699861
 40
2.999999291024896
 40
3.99999952734993
 40
4.999999763674965
 40
6.0
 40
6.0
 40
6.0
 40
6.0
 10
0.0000000059136198
 20
23.78639265560333
 30
0.0
 10
0.473822012927883
 20
23.78623081690423
 30
0.0
 10
1.421484904173013
 20
23.79766074799933
 30
0.0
 10
2.841972036769931
 20
23.85461763724437
 30
0.0
 10
4.259968857333178
 20
23.95690195102933
 30
0.0
 10
5.673248383269851
 20
24.11202977966098
 30
0.0
 10
7.078985925324531
 20
24.32456661591988
 30
0.0
 10
8.00967755782645
 20
24.50479233025937
 30
0.0
 10
8.471104643552508
 20
24.61256227119494
 30
0.0
  0
SPLINE
  5
49C
330
1F
100
AcDbEntity
  8
Default
100
AcDbSpline
210
0.0
220
0.0
230
1.0
 70
     8
 71
     3
 72
    23
 73
    19
 74
     0
 42
0.0000000001
 43
0.0000000001
 40
0.0
 40
0.0
 40
0.0
 40
0.0
 40
0.1143499834053041
 40
0.2521911721077188
 40
0.4054342416030434
 40
0.4870405797229443
 40
0.5504869057075638
 40
0.5831373980459477
 40
0.6276874961547436
 40
0.6748850320902328
 40
0.7579104400587644
 40
0.946943201027295
 40
1.528295460971046
 40
2.42112832591297
 40
3.809294555456245
 40
4.522153002375717
 40
8.329327274556412
 40
11.91967701549755
 40
11.91967701549755
 40
11.91967701549755
 40
11.91967701549755
 10
8.471104643552508
 20
24.61256227119494
 30
0.0
 10
8.506651726777221
 20
24.62634978412986
 30
0.0
 10
8.586475676911675
 20
24.65278985248748
 30
0.0
 10
8.715958260900436
 20
24.69148606100329
 30
0.0
 10
8.834800131981922
 20
24.72772066152983
 30
0.0
 10
8.928933303253274
 20
24.7597646097839
 30
0.0
 10
8.98502975268974
 20
24.77868682172163
 30
0.0
 10
9.028607519647238
 20
24.79680057225623
 30
0.0
 10
9.053827706358902
 20
24.83232478708326
 30
0.0
 10
9.075839448087578
 20
24.88536051636804
 30
0.0
 10
9.099785450884923
 20
24.99000658177564
 30
0.0
 10
9.122949481178381
 20
25.27362864071971
 30
0.0
 10
9.104281940287734
 20
25.82864033258982
 30
0.0
 10
9.01342702351161
 20
26.77823155421722
 30
0.0
 10
8.896030508920546
 20
27.76949288190214
 30
0.0
 10
8.640856768918496
 20
29.72220787210707
 30
0.0
 10
8.282864127340332
 20
32.40189568225273
 30
0.0
 10
7.969184754581732
 20
34.84771206417241
 30
0.0
 10
7.811970803201973
 20
36.03412495415401
 30
0.0
  0
ARC
  5
49D
330
1F
100
AcDbEntity
  8
Default
100
AcDbCircle
 10
63.85904568271555
 20
43.46103524777263
 30
0.0
 40
56.53701087835524
100
AcDbArc
 50
185.4100560170279
 51
187.5484017682244
  0
SPLINE
  5
49E
330
1F
100
AcDbEntity
  8
Default
100
AcDbSpline
210
0.0
220
0.0
230
1.0
 70
     8
 71
     3
 72
    11
 73
     7
 74
     0
 42
0.0000000001
 43
0.0000000001
 40
0.0
 40
0.0
 40
0.0
 40
0.0
 40
0.5807161227333388
 40
1.579145115981618
 40
4.028826996229559
 40
8.734236464915913
 40
8.734236464915913
 40
8.734236464915913
 40
8.734236464915913
 10
8.70071170038969
 20
24.69262728148455
 30
0.0
 10
8.51285921176489
 20
24.64535186707925
 30
0.0
 10
7.99348248617585
 20
24.55804548120851
 30
0.0
 10
6.661035797466752
 20
24.39035977327913
 30
0.0
 10
3.953919755070956
 20
24.14014532728114
 30
0.0
 10
1.568426594036765
 20
24.06643536426283
 30
0.0
 10
0.0000000059136198
 20
24.06851751317371
 30
0.0
  0
SPLINE
  5
49F
330
1F
100
AcDbEntity
  8
Default
100
AcDbSpline
210
0.0
220
0.0
230
1.0
 70
     8
 71
     3
 72
    11
 73
     7
 74
     0
 42
0.0000000001
 43
0.0000000001
 40
-8.734236464915913
 40
-8.734236464915913
 40
-8.734236464915913
 40
-8.734236464915913
 40
-4.028826996229559
 40
-1.579145115981618
 40
-0.5807161227333388
 40
0.0
 40
0.0
 40
0.0
 40
0.0
 10
0.0000000059136198
 20
24.06851751317371
 30
0.0
 10
-1.568426582209526
 20
24.06643536426283
 30
0.0
 10
-3.953919743243716
 20
24.14014532728114
 30
0.0
 10
-6.661035785639513
 20
24.39035977327913
 30
0.0
 10
-7.99348247434861
 20
24.55804548120851
 30
0.0
 10
-8.512859199937651
 20
24.64535186707925
 30
0.0
 10
-8.70071168856245
 20
24.69262728148455
 30
0.0
  0
ARC
  5
4A0
330
1F
100
AcDbEntity
  8
Default
100
AcDbCircle
 10
-8.676763218900504
 20
24.83689719352656
 30
0.0
 40
0.4767832321942155
100
AcDbArc
 50
192.0252858064753
 51
200.7856856410668
  0
ARC
  5
4A1
330
1F
100
AcDbEntity
  8
Default
100
AcDbCircle
 10
-8.974349744311667
 20
24.72393974366647
 30
0.0
 40
0.1584797204555228
100
AcDbArc
 50
200.7856856410651
 51
243.3113223527142
  0
ARC
  5
4A2
330
1F
100
AcDbEntity
  8
Default
100
AcDbCircle
 10
-5.570431030302188
 20
34.91910482255979
 30
0.0
 40
10.90527057606768
100
AcDbArc
 50
251.4179538194732
 51
253.3208065539642
  0
ARC
  5
4A3
330
1F
100
AcDbEntity
  8
Default
100
AcDbCircle
 10
-7.011265582149974
 20
30.11020914634569
 30
0.0
 40
5.885162825181336
100
AcDbArc
 50
253.3208065539643
 51
257.9575618665137
  0
SPLINE
  5
4A4
330
1F
100
AcDbEntity
  8
Default
100
AcDbSpline
210
0.0
220
0.0
230
1.0
 70
     8
 71
     3
 72
    11
 73
     7
 74
     0
 42
0.0000000001
 43
0.0000000001
 40
-8.289804655665163
 40
-8.289804655665163
 40
-8.289804655665163
 40
-8.289804655665163
 40
-4.386439640998885
 40
-2.244382141007875
 40
-1.117145790588472
 40
0.0
 40
0.0
 40
0.0
 40
0.0
 10
-8.239123196834868
 20
24.35455912597815
 30
0.0
 10
-6.966390487756712
 20
24.08304599665823
 30
0.0
 10
-4.96854191724475
 20
23.79649968823101
 30
0.0
 10
-2.582170731262067
 20
23.64089162865286
 30
0.0
 10
-1.120485120570777
 20
23.59767734880228
 30
0.0
 10
-0.3724031950906408
 20
23.59165900468257
 30
0.0
 10
0.0000000059136198
 20
23.59221220640847
 30
0.0
  0
SPLINE
  5
4A5
330
1F
100
AcDbEntity
  8
Default
100
AcDbSpline
210
0.0
220
0.0
230
1.0
 70
     8
 71
     3
 72
    11
 73
     7
 74
     0
 42
0.0000000001
 43
0.0000000001
 40
0.0
 40
0.0
 40
0.0
 40
0.0
 40
1.117145790588472
 40
2.244382141007875
 40
4.386439640998885
 40
8.289804655665163
 40
8.289804655665163
 40
8.289804655665163
 40
8.289804655665163
 10
0.0000000059136198
 20
23.59221220640847
 30
0.0
 10
0.3724032069178804
 20
23.59165900468257
 30
0.0
 10
1.120485132398017
 20
23.59767734880228
 30
0.0
 10
2.582170743089307
 20
23.64089162865286
 30
0.0
 10
4.968541929071989
 20
23.79649968823101
 30
0.0
 10
6.966390499583952
 20
24.08304599665823
 30
0.0
 10
8.239123208662107
 20
24.35455912597815
 30
0.0
  0
ARC
  5
4A6
330
1F
100
AcDbEntity
  8
Default
100
AcDbCircle
 10
7.011265593977214
 20
30.11020914634569
 30
0.0
 40
5.885162825181336
100
AcDbArc
 50
282.0424381334863
 51
286.6791934460357
  0
ARC
  5
4A7
330
1F
100
AcDbEntity
  8
Default
100
AcDbCircle
 10
5.570431042129428
 20
34.91910482255979
 30
0.0
 40
10.90527057606768
100
AcDbArc
 50
286.679193446036
 51
288.582046180527
  0
ARC
  5
4A8
330
1F
100
AcDbEntity
  8
Default
100
AcDbCircle
 10
8.974349756138906
 20
24.72393974366647
 30
0.0
 40
0.1584797204555228
100
AcDbArc
 50
296.6886776472851
 51
339.2143143589349
  0
ARC
  5
4A9
330
1F
100
AcDbEntity
  8
Default
100
AcDbCircle
 10
8.676763230727744
 20
24.83689719352656
 30
0.0
 40
0.4767832321942155
100
AcDbArc
 50
339.2143143589327
 51
347.9747141935242
  0
SPLINE
  5
4AA
330
1F
100
AcDbEntity
  8
Default
100
AcDbSpline
210
0.0
220
0.0
230
1.0
 70
    12
 71
     2
 72
     6
 73
     3
 74
     0
 42
0.0000000001
 43
0.0000000001
 40
0.5367362653132901
 40
0.5367362653132901
 40
0.5367362653132901
 40
1.16046253457911
 40
1.16046253457911
 40
1.16046253457911
 10
8.48120475143334
 20
24.31045844116267
 30
0.0
 41
0.9999556825401937
 10
8.763123288841006
 20
24.44381545363546
 30
0.0
 41
0.9999520912270546
 10
9.043098803319623
 20
24.58120492121641
 30
0.0
 41
1.0
  0
SPLINE
  5
4AB
330
1F
100
AcDbEntity
  8
Default
100
AcDbSpline
210
0.0
220
0.0
230
1.0
 70
    12
 71
     2
 72
     6
 73
     3
 74
     0
 42
0.0000000001
 43
0.0000000001
 40
0.5367362653132891
 40
0.5367362653132891
 40
0.5367362653132891
 40
1.16046253457911
 40
1.16046253457911
 40
1.16046253457911
 10
8.48120475143334
 20
24.31045844116267
 30
0.0
 41
0.9999556825401937
 10
8.763123288841006
 20
24.44381545363546
 30
0.0
 41
0.9999520912270546
 10
9.043098803319623
 20
24.58120492121641
 30
0.0
 41
1.0
  0
SPLINE
  5
4AC
330
1F
100
AcDbEntity
  8
Default
100
AcDbSpline
210
0.0
220
0.0
230
1.0
 70
     8
 71
     3
 72
    18
 73
    14
 74
     0
 42
0.0000000001
 43
0.0000000001
 40
0.0
 40
0.0
 40
0.0
 40
0.0
 40
0.2333027194675158
 40
0.2905961816495549
 40
0.3809533486540008
 40
0.4920801357797896
 40
0.6761604746707232
 40
1.165086677208357
 40
1.917925925034485
 40
3.064069455414916
 40
4.21509045905279
 40
4.690458462965164
 40
7.107196983414992
 40
7.107196983414992
 40
7.107196983414992
 40
7.107196983414992
 10
8.789646097410383
 20
24.53494150807896
 30
0.0
 10
8.865435100639218
 20
24.55581741735331
 30
0.0
 10
8.953614467542593
 20
24.59057508825538
 30
0.0
 10
9.080593251399392
 20
24.6210915038606
 30
0.0
 10
9.135304543033612
 20
24.69263187154112
 30
0.0
 10
9.16184466321829
 20
24.8197466553111
 30
0.0
 10
9.184581266203594
 20
25.0800915167328
 30
0.0
 10
9.173728667820598
 20
25.55590553090555
 30
0.0
 10
9.110124549792317
 20
26.34930084307169
 30
0.0
 10
8.996916880041141
 20
27.35981342927014
 30
0.0
 10
8.88137992853737
 20
28.27669344620233
 30
0.0
 10
8.704983529603595
 20
29.61283897517768
 30
0.0
 10
8.578338746309555
 20
30.56849575036263
 30
0.0
 10
8.472828099264007
 20
31.36714482985704
 30
0.0
  0
SPLINE
  5
4AD
330
1F
100
AcDbEntity
  8
Default
100
AcDbSpline
210
0.0
220
0.0
230
1.0
 70
    12
 71
     2
 72
     6
 73
     3
 74
     0
 42
0.0000000001
 43
0.0000000001
 40
0.0
 40
0.0
 40
0.0
 40
6.481588670327722
 40
6.481588670327722
 40
6.481588670327722
 10
8.472828099264007
 20
31.36714482985704
 30
0.0
 41
1.0
 10
8.045640857244464
 20
34.57966132736964
 30
0.0
 41
0.9999997669392705
 10
7.622840580641423
 20
37.79275813771315
 30
0.0
 41
1.0
  0
SPLINE
  5
4AE
330
1F
100
AcDbEntity
  8
Default
100
AcDbSpline
210
0.0
220
0.0
230
1.0
 70
    12
 71
     2
 72
     6
 73
     3
 74
     0
 42
0.0000000001
 43
0.0000000001
 40
0.0
 40
0.0
 40
0.0
 40
0.3221193712202933
 40
0.3221193712202933
 40
0.3221193712202933
 10
7.622840580641423
 20
37.79275813771315
 30
0.0
 41
1.0
 10
7.60178146113112
 20
37.95243538561723
 30
0.0
 41
0.9999974648356978
 10
7.581441655873761
 20
38.11220585327273
 30
0.0
 41
1.0
  0
SPLINE
  5
4AF
330
1F
100
AcDbEntity
  8
Default
100
AcDbSpline
210
0.0
220
0.0
230
1.0
 70
     8
 71
     3
 72
     9
 73
     5
 74
     0
 42
0.0000000001
 43
0.0000000001
 40
0.0
 40
0.0
 40
0.0
 40
0.0
 40
1.0
 40
2.0
 40
2.0
 40
2.0
 40
2.0
 10
7.581441655873761
 20
38.11220585327273
 30
0.0
 10
7.571605701898164
 20
38.18946789912985
 30
0.0
 10
7.484264313779278
 20
38.3821029807371
 30
0.0
 10
7.314518757313976
 20
38.42941307882477
 30
0.0
 10
7.236776837811846
 20
38.42182468497406
 30
0.0
  0
SPLINE
  5
4B0
330
1F
100
AcDbEntity
  8
Default
100
AcDbSpline
210
0.0
220
0.0
230
1.0
 70
     8
 71
     3
 72
     9
 73
     5
 74
     0
 42
0.0000000001
 43
0.0000000001
 40
0.0
 40
0.0
 40
0.0
 40
0.0
 40
1.0
 40
2.0
 40
2.0
 40
2.0
 40
2.0
 10
7.236776837811846
 20
38.42182468497406
 30
0.0
 10
6.034350607213923
 20
38.30445578190819
 30
0.0
 10
3.624737722233476
 20
38.11422935522312
 30
0.0
 10
1.208150750990285
 20
38.05543332789885
 30
0.0
 10
0.0000000059136198
 20
38.05590747952036
 30
0.0
  0
SPLINE
  5
4B1
330
1F
100
AcDbEntity
  8
Default
100
AcDbSpline
210
0.0
220
0.0
230
1.0
 70
     8
 71
     3
 72
     9
 73
     5
 74
     0
 42
0.0000000001
 43
0.0000000001
 40
-2.0
 40
-2.0
 40
-2.0
 40
-2.0
 40
-1.0
 40
0.0
 40
0.0
 40
0.0
 40
0.0
 10
0.0000000059136198
 20
38.05590747952036
 30
0.0
 10
-1.208150739163045
 20
38.05543332789885
 30
0.0
 10
-3.624737710406237
 20
38.11422935522312
 30
0.0
 10
-6.034350595386684
 20
38.30445578190819
 30
0.0
 10
-7.236776825984606
 20
38.42182468497406
 30
0.0
  0
SPLINE
  5
4B2
330
1F
100
AcDbEntity
  8
Default
100
AcDbSpline
210
0.0
220
0.0
230
1.0
 70
     8
 71
     3
 72
     9
 73
     5
 74
     0
 42
0.0000000001
 43
0.0000000001
 40
-2.0
 40
-2.0
 40
-2.0
 40
-2.0
 40
-1.0
 40
0.0
 40
0.0
 40
0.0
 40
0.0
 10
-7.236776825984606
 20
38.42182468497406
 30
0.0
 10
-7.314518745486737
 20
38.42941307882477
 30
0.0
 10
-7.484264301952038
 20
38.3821029807371
 30
0.0
 10
-7.571605690070925
 20
38.18946789912985
 30
0.0
 10
-7.581441644046521
 20
38.11220585327273
 30
0.0
  0
SPLINE
  5
4B3
330
1F
100
AcDbEntity
  8
Default
100
AcDbSpline
210
0.0
220
0.0
230
1.0
 70
    12
 71
     2
 72
     6
 73
     3
 74
     0
 42
0.0000000001
 43
0.0000000001
 40
-0.3221193712202933
 40
-0.3221193712202933
 40
-0.3221193712202933
 40
0.0
 40
0.0
 40
0.0
 10
-7.581441644046521
 20
38.11220585327273
 30
0.0
 41
1.0
 10
-7.601781449303888
 20
37.95243538561723
 30
0.0
 41
0.9999974648356978
 10
-7.622840568814183
 20
37.79275813771315
 30
0.0
 41
1.0
  0
SPLINE
  5
4B4
330
1F
100
AcDbEntity
  8
Default
100
AcDbSpline
210
0.0
220
0.0
230
1.0
 70
    12
 71
     2
 72
     6
 73
     3
 74
     0
 42
0.0000000001
 43
0.0000000001
 40
-6.481588670327722
 40
-6.481588670327722
 40
-6.481588670327722
 40
0.0
 40
0.0
 40
0.0
 10
-7.622840568814183
 20
37.79275813771315
 30
0.0
 41
1.0
 10
-8.045640845417225
 20
34.57966132736964
 30
0.0
 41
0.9999997669392705
 10
-8.472828087436767
 20
31.36714482985704
 30
0.0
 41
1.0
  0
SPLINE
  5
4B5
330
1F
100
AcDbEntity
  8
Default
100
AcDbSpline
210
0.0
220
0.0
230
1.0
 70
     8
 71
     3
 72
    18
 73
    14
 74
     0
 42
0.0000000001
 43
0.0000000001
 40
-7.107196983414992
 40
-7.107196983414992
 40
-7.107196983414992
 40
-7.107196983414992
 40
-4.690458462965164
 40
-4.21509045905279
 40
-3.064069455414916
 40
-1.917925925034485
 40
-1.165086677208357
 40
-0.6761604746707232
 40
-0.4920801357797896
 40
-0.3809533486540008
 40
-0.2905961816495549
 40
-0.2333027194675158
 40
0.0
 40
0.0
 40
0.0
 40
0.0
 10
-8.472828087436767
 20
31.36714482985704
 30
0.0
 10
-8.578338734482315
 20
30.56849575036263
 30
0.0
 10
-8.704983517776355
 20
29.61283897517768
 30
0.0
 10
-8.88137991671013
 20
28.27669344620233
 30
0.0
 10
-8.996916868213901
 20
27.35981342927014
 30
0.0
 10
-9.110124537965078
 20
26.34930084307169
 30
0.0
 10
-9.173728655993358
 20
25.55590553090555
 30
0.0
 10
-9.184581254376354
 20
25.0800915167328
 30
0.0
 10
-9.16184465139105
 20
24.8197466553111
 30
0.0
 10
-9.135304531206373
 20
24.69263187154112
 30
0.0
 10
-9.080593239572153
 20
24.6210915038606
 30
0.0
 10
-8.953614455715353
 20
24.59057508825538
 30
0.0
 10
-8.865435088811978
 20
24.55581741735331
 30
0.0
 10
-8.789646085583144
 20
24.53494150807896
 30
0.0
  0
ENDSEC
  0
SECTION
  2
OBJECTS
  0
DICTIONARY
  5
C
330
0
100
AcDbDictionary
281
     1
  3
ACAD_GROUP
350
D
  3
ACAD_LAYOUT
350
1A
  3
ACAD_MLEADERSTYLE
350
4B7
  3
ACAD_MLINESTYLE
350
17
  3
ACAD_PLOTSETTINGS
350
19
  3
ACAD_PLOTSTYLENAME
350
E
  3
ACAD_TABLESTYLE
350
4B6
  3
ACAD_VISUALSTYLE
350
2A
  0
DICTIONARY
  5
D
102
{ACAD_REACTORS
330
C
102
}
330
C
100
AcDbDictionary
281
     1
  0
DICTIONARY
  5
1A
102
{ACAD_REACTORS
330
C
102
}
330
C
100
AcDbDictionary
281
     1
  3
Layout1
350
1E
  3
Layout2
350
26
  3
Model
350
22
  0
DICTIONARY
  5
4B7
102
{ACAD_REACTORS
330
C
102
}
330
C
100
AcDbDictionary
281
     1
  0
DICTIONARY
  5
17
102
{ACAD_REACTORS
330
C
102
}
330
C
100
AcDbDictionary
281
     1
  3
Standard
350
18
  0
DICTIONARY
  5
19
102
{ACAD_REACTORS
330
C
102
}
330
C
100
AcDbDictionary
281
     1
  0
ACDBDICTIONARYWDFLT
  5
E
102
{ACAD_REACTORS
330
C
102
}
330
C
100
AcDbDictionary
281
     1
  3
Normal
350
F
100
AcDbDictionaryWithDefault
340
F
  0
DICTIONARY
  5
4B6
102
{ACAD_REACTORS
330
C
102
}
330
C
100
AcDbDictionary
281
     1
  0
DICTIONARY
  5
2A
102
{ACAD_REACTORS
330
C
102
}
330
C
100
AcDbDictionary
281
     1
  3
2dWireframe
350
2F
  3
3D Hidden
350
31
  3
3dWireframe
350
30
  3
Basic
350
32
  3
Brighten
350
36
  3
ColorChange
350
3A
  3
Conceptual
350
34
  3
Dim
350
35
  3
Facepattern
350
39
  3
Flat
350
2B
  3
FlatWithEdges
350
2C
  3
Gouraud
350
2D
  3
GouraudWithEdges
350
2E
  3
Linepattern
350
38
  3
Realistic
350
33
  3
Thicken
350
37
  0
LAYOUT
  5
1E
102
{ACAD_REACTORS
330
1A
102
}
330
1A
100
AcDbPlotSettings
  1

  2
none_device
  4

  6

 40
0.0
 41
0.0
 42
0.0
 43
0.0
 44
0.0
 45
0.0
 46
0.0
 47
0.0
 48
0.0
 49
0.0
140
0.0
141
0.0
142
1.0
143
1.0
 70
   688
 72
     0
 73
     0
 74
     5
  7

 75
    16
 76
     0
 77
     2
 78
   300
147
1.0
148
0.0
149
0.0
100
AcDbLayout
  1
Layout1
 70
     1
 71
     1
 10
0.0
 20
0.0
 11
12.0
 21
9.0
 12
0.0
 22
0.0
 32
0.0
 14
1.000000000000000E+20
 24
1.000000000000000E+20
 34
1.000000000000000E+20
 15
-1.000000000000000E+20
 25
-1.000000000000000E+20
 35
-1.000000000000000E+20
146
0.0
 13
0.0
 23
0.0
 33
0.0
 16
1.0
 26
0.0
 36
0.0
 17
0.0
 27
1.0
 37
0.0
 76
     0
330
1B
  0
LAYOUT
  5
26
102
{ACAD_REACTORS
330
1A
102
}
330
1A
100
AcDbPlotSettings
  1

  2
none_device
  4

  6

 40
0.0
 41
0.0
 42
0.0
 43
0.0
 44
0.0
 45
0.0
 46
0.0
 47
0.0
 48
0.0
 49
0.0
140
0.0
141
0.0
142
1.0
143
1.0
 70
   688
 72
     0
 73
     0
 74
     5
  7

 75
    16
 76
     0
 77
     2
 78
   300
147
1.0
148
0.0
149
0.0
100
AcDbLayout
  1
Layout2
 70
     1
 71
     2
 10
0.0
 20
0.0
 11
0.0
 21
0.0
 12
0.0
 22
0.0
 32
0.0
 14
0.0
 24
0.0
 34
0.0
 15
0.0
 25
0.0
 35
0.0
146
0.0
 13
0.0
 23
0.0
 33
0.0
 16
1.0
 26
0.0
 36
0.0
 17
0.0
 27
1.0
 37
0.0
 76
     0
330
23
  0
LAYOUT
  5
22
102
{ACAD_REACTORS
330
1A
102
}
330
1A
100
AcDbPlotSettings
  1

  2
none_device
  4

  6

 40
0.0
 41
0.0
 42
0.0
 43
0.0
 44
0.0
 45
0.0
 46
0.0
 47
0.0
 48
0.0
 49
0.0
140
0.0
141
0.0
142
1.0
143
1.0
 70
  1712
 72
     0
 73
     0
 74
     0
  7

 75
     0
 76
     0
 77
     2
 78
   300
147
1.0
148
0.0
149
0.0
100
AcDbLayout
  1
Model
 70
     1
 71
     0
 10
0.0
 20
0.0
 11
12.0
 21
9.0
 12
0.0
 22
0.0
 32
0.0
 14
-10.75800019138978
 24
-0.0000000000000007
 34
0.0
 15
41.68124859850179
 25
68.16189629587134
 35
0.0
146
0.0
 13
0.0
 23
0.0
 33
0.0
 16
1.0
 26
0.0
 36
0.0
 17
0.0
 27
1.0
 37
0.0
 76
     0
330
1F
331
29
  0
MLINESTYLE
  5
18
102
{ACAD_REACTORS
330
17
102
}
330
17
100
AcDbMlineStyle
  2
Standard
 70
     0
  3

 62
   256
 51
90.0
 52
90.0
 71
     2
 49
0.5
 62
   256
  6
BYLAYER
 49
-0.5
 62
   256
  6
BYLAYER
  0
ACDBPLACEHOLDER
  5
F
102
{ACAD_REACTORS
330
E
102
}
330
E
  0
VISUALSTYLE
  5
2F
102
{ACAD_REACTORS
330
2A
102
}
330
2A
100
AcDbVisualStyle
  2
2dWireframe
 70
     4
 71
     0
 72
     2
 73
     0
 90
        0
 40
-0.6
 41
-30.0
 62
     5
 63
     7
421
 16777215
 74
     1
 91
        4
 64
     7
 65
   257
 75
     1
175
     1
 42
1.0
 92
        0
 66
   257
 43
1.0
 76
     1
 77
     6
 78
     2
 67
     7
 79
     5
170
     0
171
     0
290
     0
174
     0
 93
        1
 44
0.0
173
     0
291
     0
 45
0.0
1001
ACAD
1000
AcDbSavedByObjectVersion
1070
     0
  0
VISUALSTYLE
  5
31
102
{ACAD_REACTORS
330
2A
102
}
330
2A
100
AcDbVisualStyle
  2
3D Hidden
 70
     6
 71
     1
 72
     2
 73
     2
 90
        0
 40
-0.6
 41
-30.0
 62
     5
 63
     7
421
 16777215
 74
     2
 91
        2
 64
     7
 65
   257
 75
     2
175
     1
 42
40.0
 92
        0
 66
   257
 43
1.0
 76
     1
 77
     6
 78
     2
 67
     7
 79
     3
170
     0
171
     0
290
     0
174
     0
 93
        1
 44
0.0
173
     0
291
     0
 45
0.0
1001
ACAD
1000
AcDbSavedByObjectVersion
1070
     0
  0
VISUALSTYLE
  5
30
102
{ACAD_REACTORS
330
2A
102
}
330
2A
100
AcDbVisualStyle
  2
3dWireframe
 70
     5
 71
     0
 72
     2
 73
     0
 90
        0
 40
-0.6
 41
-30.0
 62
     5
 63
     7
421
 16777215
 74
     1
 91
        4
 64
     7
 65
   257
 75
     1
175
     1
 42
1.0
 92
        0
 66
   257
 43
1.0
 76
     1
 77
     6
 78
     2
 67
     7
 79
     5
170
     0
171
     0
290
     0
174
     0
 93
        1
 44
0.0
173
     0
291
     0
 45
0.0
1001
ACAD
1000
AcDbSavedByObjectVersion
1070
     0
  0
VISUALSTYLE
  5
32
102
{ACAD_REACTORS
330
2A
102
}
330
2A
100
AcDbVisualStyle
  2
Basic
 70
     7
 71
     1
 72
     0
 73
     1
 90
        0
 40
-0.6
 41
-30.0
 62
     5
 63
     7
421
 16777215
 74
     0
 91
        4
 64
     7
 65
   257
 75
     1
175
     1
 42
1.0
 92
        8
 66
     7
 43
1.0
 76
     1
 77
     6
 78
     2
 67
     7
 79
     5
170
     0
171
     0
290
     0
174
     0
 93
        1
 44
0.0
173
     0
291
     1
 45
0.0
1001
ACAD
1000
AcDbSavedByObjectVersion
1070
     0
  0
VISUALSTYLE
  5
36
102
{ACAD_REACTORS
330
2A
102
}
330
2A
100
AcDbVisualStyle
  2
Brighten
 70
    12
 71
     2
 72
     2
 73
     0
 90
        0
 40
-0.6
 41
-30.0
 62
     5
 63
     7
421
 16777215
 74
     1
 91
        4
 64
     7
 65
   257
 75
     1
175
     1
 42
1.0
 92
        8
 66
     7
 43
1.0
 76
     1
 77
     6
 78
     2
 67
     7
 79
     5
170
     0
171
     0
290
     0
174
     0
 93
        1
 44
50.0
173
     0
291
     1
 45
0.0
1001
ACAD
1000
AcDbSavedByObjectVersion
1070
     0
  0
VISUALSTYLE
  5
3A
102
{ACAD_REACTORS
330
2A
102
}
330
2A
100
AcDbVisualStyle
  2
ColorChange
 70
    16
 71
     2
 72
     2
 73
     3
 90
        0
 40
-0.6
 41
-30.0
 62
     5
 63
     8
421
  8421504
 74
     1
 91
        4
 64
     7
 65
   257
 75
     1
175
     1
 42
1.0
 92
        8
 66
     8
424
  8421504
 43
1.0
 76
     1
 77
     6
 78
     2
 67
     7
 79
     5
170
     0
171
     0
290
     0
174
     0
 93
        1
 44
0.0
173
     0
291
     1
 45
0.0
1001
ACAD
1000
AcDbSavedByObjectVersion
1070
     0
  0
VISUALSTYLE
  5
34
102
{ACAD_REACTORS
330
2A
102
}
330
2A
100
AcDbVisualStyle
  2
Conceptual
 70
     9
 71
     3
 72
     2
 73
     0
 90
        0
 40
-0.6
 41
-30.0
 62
     5
 63
     7
421
 16777215
 74
     2
 91
        2
 64
     7
 65
   257
 75
     1
175
     1
 42
40.0
 92
        8
 66
     7
 43
1.0
 76
     1
 77
     6
 78
     2
 67
     7
 79
     3
170
     0
171
     0
290
     0
174
     0
 93
        1
 44
0.0
173
     0
291
     0
 45
0.0
1001
ACAD
1000
AcDbSavedByObjectVersion
1070
     0
  0
VISUALSTYLE
  5
35
102
{ACAD_REACTORS
330
2A
102
}
330
2A
100
AcDbVisualStyle
  2
Dim
 70
    11
 71
     2
 72
     2
 73
     0
 90
        0
 40
-0.6
 41
-30.0
 62
     5
 63
     7
421
 16777215
 74
     1
 91
        4
 64
     7
 65
   257
 75
     1
175
     1
 42
1.0
 92
        8
 66
     7
 43
1.0
 76
     1
 77
     6
 78
     2
 67
     7
 79
     5
170
     0
171
     0
290
     0
174
     0
 93
        1
 44
-50.0
173
     0
291
     1
 45
0.0
1001
ACAD
1000
AcDbSavedByObjectVersion
1070
     0
  0
VISUALSTYLE
  5
39
102
{ACAD_REACTORS
330
2A
102
}
330
2A
100
AcDbVisualStyle
  2
Facepattern
 70
    15
 71
     2
 72
     2
 73
     0
 90
        0
 40
-0.6
 41
-30.0
 62
     5
 63
     7
421
 16777215
 74
     1
 91
        4
 64
     7
 65
   257
 75
     1
175
     1
 42
1.0
 92
        8
 66
     7
 43
1.0
 76
     1
 77
     6
 78
     2
 67
     7
 79
     5
170
     0
171
     0
290
     0
174
     0
 93
        1
 44
0.0
173
     0
291
     1
 45
0.0
1001
ACAD
1000
AcDbSavedByObjectVersion
1070
     0
  0
VISUALSTYLE
  5
2B
102
{ACAD_REACTORS
330
2A
102
}
330
2A
100
AcDbVisualStyle
  2
Flat
 70
     0
 71
     2
 72
     1
 73
     1
 90
        2
 40
-0.6
 41
30.0
 62
     5
 63
     7
421
 16777215
 74
     0
 91
        4
 64
     7
 65
   257
 75
     1
175
     1
 42
1.0
 92
        8
 66
     7
 43
1.0
 76
     1
 77
     6
 78
     2
 67
     7
 79
     5
170
     0
171
     0
290
     0
174
     0
 93
       13
 44
0.0
173
     0
291
     1
 45
0.0
1001
ACAD
1000
AcDbSavedByObjectVersion
1070
     0
  0
VISUALSTYLE
  5
2C
102
{ACAD_REACTORS
330
2A
102
}
330
2A
100
AcDbVisualStyle
  2
FlatWithEdges
 70
     1
 71
     2
 72
     1
 73
     1
 90
        2
 40
-0.6
 41
30.0
 62
     5
 63
     7
421
 16777215
 74
     1
 91
        4
 64
     7
 65
   257
 75
     1
175
     1
 42
1.0
 92
        0
 66
   257
 43
1.0
 76
     1
 77
     6
 78
     2
 67
     7
 79
     5
170
     0
171
     0
290
     0
174
     0
 93
       13
 44
0.0
173
     0
291
     1
 45
0.0
1001
ACAD
1000
AcDbSavedByObjectVersion
1070
     0
  0
VISUALSTYLE
  5
2D
102
{ACAD_REACTORS
330
2A
102
}
330
2A
100
AcDbVisualStyle
  2
Gouraud
 70
     2
 71
     2
 72
     2
 73
     1
 90
        2
 40
-0.6
 41
30.0
 62
     5
 63
     7
421
 16777215
 74
     0
 91
        4
 64
     7
 65
   257
 75
     1
175
     1
 42
1.0
 92
        0
 66
     7
 43
1.0
 76
     1
 77
     6
 78
     2
 67
     7
 79
     5
170
     0
171
     0
290
     0
174
     0
 93
       13
 44
0.0
173
     0
291
     1
 45
0.0
1001
ACAD
1000
AcDbSavedByObjectVersion
1070
     0
  0
VISUALSTYLE
  5
2E
102
{ACAD_REACTORS
330
2A
102
}
330
2A
100
AcDbVisualStyle
  2
GouraudWithEdges
 70
     3
 71
     2
 72
     2
 73
     1
 90
        2
 40
-0.6
 41
30.0
 62
     5
 63
     7
421
 16777215
 74
     1
 91
        4
 64
     7
 65
   257
 75
     1
175
     1
 42
1.0
 92
        0
 66
   257
 43
1.0
 76
     1
 77
     6
 78
     2
 67
     7
 79
     5
170
     0
171
     0
290
     0
174
     0
 93
       13
 44
0.0
173
     0
291
     1
 45
0.0
1001
ACAD
1000
AcDbSavedByObjectVersion
1070
     0
  0
VISUALSTYLE
  5
38
102
{ACAD_REACTORS
330
2A
102
}
330
2A
100
AcDbVisualStyle
  2
Linepattern
 70
    14
 71
     2
 72
     2
 73
     0
 90
        0
 40
-0.6
 41
-30.0
 62
     5
 63
     7
421
 16777215
 74
     1
 91
        4
 64
     7
 65
   257
 75
     7
175
     7
 42
1.0
 92
        8
 66
     7
 43
1.0
 76
     1
 77
     6
 78
     2
 67
     7
 79
     5
170
     0
171
     0
290
     0
174
     0
 93
        1
 44
0.0
173
     0
291
     1
 45
0.0
1001
ACAD
1000
AcDbSavedByObjectVersion
1070
     0
  0
VISUALSTYLE
  5
33
102
{ACAD_REACTORS
330
2A
102
}
330
2A
100
AcDbVisualStyle
  2
Realistic
 70
     8
 71
     2
 72
     2
 73
     0
 90
        0
 40
-0.6
 41
-30.0
 62
     5
 63
     7
421
 16777215
 74
     1
 91
        0
 64
     7
 65
   257
 75
     1
175
     1
 42
1.0
 92
        8
 66
     8
424
  7895160
 43
1.0
 76
     1
 77
     6
 78
     2
 67
     7
 79
     5
170
     0
171
     0
290
     0
174
     0
 93
       13
 44
0.0
173
     0
291
     0
 45
0.0
1001
ACAD
1000
AcDbSavedByObjectVersion
1070
     0
  0
VISUALSTYLE
  5
37
102
{ACAD_REACTORS
330
2A
102
}
330
2A
100
AcDbVisualStyle
  2
Thicken
 70
    13
 71
     2
 72
     2
 73
     0
 90
        0
 40
-0.6
 41
-30.0
 62
     5
 63
     7
421
 16777215
 74
     1
 91
        4
 64
     7
 65
   257
 75
     1
175
     1
 42
1.0
 92
       12
 66
     7
 43
1.0
 76
     1
 77
     6
 78
     2
 67
     7
 79
     5
170
     0
171
     0
290
     0
174
     0
 93
        1
 44
0.0
173
     0
291
     1
 45
0.0
1001
ACAD
1000
AcDbSavedByObjectVersion
1070
     0
  0
ENDSEC
  0
EOF
