  0
SECTION
  2
HEADER
  9
$ACADVER
  1
AC1018
  9
$ACADMAINTVER
 70
     0
  9
$DWGCODEPAGE
  3
ANSI_1252
  9
$INSBASE
 10
0.0
 20
0.0
 30
0.0
  9
$EXTMIN
 10
-10.8950000204545
 20
-0.0000000000000007
 30
0.0
  9
$EXTMAX
 10
41.701481243149
 20
72.19055666061932
 30
0.0
  9
$LIMMIN
 10
0.0
 20
0.0
  9
$LIMMAX
 10
12.0
 20
9.0
  9
$ORTHOMODE
 70
     0
  9
$REGENMODE
 70
     1
  9
$FILLMODE
 70
     1
  9
$QTEXTMODE
 70
     0
  9
$MIRRTEXT
 70
     1
  9
$LTSCALE
 40
0.0393700787401575
  9
$ATTMODE
 70
     1
  9
$TEXTSIZE
 40
0.2
  9
$TRACEWID
 40
0.05
  9
$TEXTSTYLE
  7
Standard
  9
$CLAYER
  8
Default
  9
$CELTYPE
  6
ByLayer
  9
$CECOLOR
 62
   256
  9
$CELTSCALE
 40
1.0
  9
$DISPSILH
 70
     0
  9
$DIMSCALE
 40
1.0
  9
$DIMASZ
 40
0.18
  9
$DIMEXO
 40
0.0625
  9
$DIMDLI
 40
0.38
  9
$DIMRND
 40
0.0
  9
$DIMDLE
 40
0.0
  9
$DIMEXE
 40
0.18
  9
$DIMTP
 40
0.0
  9
$DIMTM
 40
0.0
  9
$DIMTXT
 40
0.18
  9
$DIMCEN
 40
0.09
  9
$DIMTSZ
 40
0.0
  9
$DIMTOL
 70
     0
  9
$DIMLIM
 70
     0
  9
$DIMTIH
 70
     1
  9
$DIMTOH
 70
     1
  9
$DIMSE1
 70
     0
  9
$DIMSE2
 70
     0
  9
$DIMTAD
 70
     0
  9
$DIMZIN
 70
     0
  9
$DIMBLK
  1

  9
$DIMASO
 70
     1
  9
$DIMSHO
 70
     1
  9
$DIMPOST
  1

  9
$DIMAPOST
  1

  9
$DIMALT
 70
     0
  9
$DIMALTD
 70
     2
  9
$DIMALTF
 40
25.4
  9
$DIMLFAC
 40
1.0
  9
$DIMTOFL
 70
     0
  9
$DIMTVP
 40
0.0
  9
$DIMTIX
 70
     0
  9
$DIMSOXD
 70
     0
  9
$DIMSAH
 70
     0
  9
$DIMBLK1
  1

  9
$DIMBLK2
  1

  9
$DIMSTYLE
  2
Standard
  9
$DIMCLRD
 70
     0
  9
$DIMCLRE
 70
     0
  9
$DIMCLRT
 70
     0
  9
$DIMTFAC
 40
1.0
  9
$DIMGAP
 40
0.09
  9
$DIMJUST
 70
     0
  9
$DIMSD1
 70
     0
  9
$DIMSD2
 70
     0
  9
$DIMTOLJ
 70
     1
  9
$DIMTZIN
 70
     0
  9
$DIMALTZ
 70
     0
  9
$DIMALTTZ
 70
     0
  9
$DIMUPT
 70
     0
  9
$DIMDEC
 70
     4
  9
$DIMTDEC
 70
     4
  9
$DIMALTU
 70
     2
  9
$DIMALTTD
 70
     2
  9
$DIMTXSTY
  7
Standard
  9
$DIMAUNIT
 70
     0
  9
$DIMADEC
 70
     0
  9
$DIMALTRND
 40
0.0
  9
$DIMAZIN
 70
     0
  9
$DIMDSEP
 70
    46
  9
$DIMATFIT
 70
     3
  9
$DIMFRAC
 70
     0
  9
$DIMLDRBLK
  1

  9
$DIMLUNIT
 70
     2
  9
$DIMLWD
 70
    -2
  9
$DIMLWE
 70
    -2
  9
$DIMTMOVE
 70
     2
  9
$LUNITS
 70
     2
  9
$LUPREC
 70
     3
  9
$SKETCHINC
 40
0.1
  9
$FILLETRAD
 40
0.5
  9
$AUNITS
 70
     0
  9
$AUPREC
 70
     0
  9
$MENU
  1
.
  9
$ELEVATION
 40
0.0
  9
$PELEVATION
 40
0.0
  9
$THICKNESS
 40
0.0
  9
$LIMCHECK
 70
     0
  9
$CHAMFERA
 40
0.5
  9
$CHAMFERB
 40
0.5
  9
$CHAMFERC
 40
1.0
  9
$CHAMFERD
 40
0.0
  9
$SKPOLY
 70
     0
  9
$TDCREATE
 40
2457060.650727315
  9
$TDUCREATE
 40
2457060.859060648
  9
$TDUPDATE
 40
2457060.650727327
  9
$TDUUPDATE
 40
2457060.85906066
  9
$TDINDWG
 40
0.0000000116
  9
$TDUSRTIMER
 40
0.0000000116
  9
$USRTIMER
 70
     1
  9
$ANGBASE
 50
0.0
  9
$ANGDIR
 70
     0
  9
$PDMODE
 70
     0
  9
$PDSIZE
 40
0.0
  9
$PLINEWID
 40
0.0
  9
$SPLFRAME
 70
     0
  9
$SPLINETYPE
 70
     6
  9
$SPLINESEGS
 70
     8
  9
$HANDSEED
  5
4BD
  9
$SURFTAB1
 70
     6
  9
$SURFTAB2
 70
     6
  9
$SURFTYPE
 70
     6
  9
$SURFU
 70
     6
  9
$SURFV
 70
     6
  9
$UCSBASE
  2

  9
$UCSNAME
  2

  9
$UCSORG
 10
0.0
 20
0.0
 30
0.0
  9
$UCSXDIR
 10
1.0
 20
0.0
 30
0.0
  9
$UCSYDIR
 10
0.0
 20
1.0
 30
0.0
  9
$UCSORTHOREF
  2

  9
$UCSORTHOVIEW
 70
     0
  9
$UCSORGTOP
 10
0.0
 20
0.0
 30
0.0
  9
$UCSORGBOTTOM
 10
0.0
 20
0.0
 30
0.0
  9
$UCSORGLEFT
 10
0.0
 20
0.0
 30
0.0
  9
$UCSORGRIGHT
 10
0.0
 20
0.0
 30
0.0
  9
$UCSORGFRONT
 10
0.0
 20
0.0
 30
0.0
  9
$UCSORGBACK
 10
0.0
 20
0.0
 30
0.0
  9
$PUCSBASE
  2

  9
$PUCSNAME
  2

  9
$PUCSORG
 10
0.0
 20
0.0
 30
0.0
  9
$PUCSXDIR
 10
1.0
 20
0.0
 30
0.0
  9
$PUCSYDIR
 10
0.0
 20
1.0
 30
0.0
  9
$PUCSORTHOREF
  2

  9
$PUCSORTHOVIEW
 70
     0
  9
$PUCSORGTOP
 10
0.0
 20
0.0
 30
0.0
  9
$PUCSORGBOTTOM
 10
0.0
 20
0.0
 30
0.0
  9
$PUCSORGLEFT
 10
0.0
 20
0.0
 30
0.0
  9
$PUCSORGRIGHT
 10
0.0
 20
0.0
 30
0.0
  9
$PUCSORGFRONT
 10
0.0
 20
0.0
 30
0.0
  9
$PUCSORGBACK
 10
0.0
 20
0.0
 30
0.0
  9
$USERI1
 70
     0
  9
$USERI2
 70
     0
  9
$USERI3
 70
     0
  9
$USERI4
 70
     0
  9
$USERI5
 70
     0
  9
$USERR1
 40
0.0
  9
$USERR2
 40
0.0
  9
$USERR3
 40
0.0
  9
$USERR4
 40
0.0
  9
$USERR5
 40
0.0
  9
$WORLDVIEW
 70
     1
  9
$SHADEDGE
 70
     3
  9
$SHADEDIF
 70
    70
  9
$TILEMODE
 70
     1
  9
$MAXACTVP
 70
    64
  9
$PINSBASE
 10
0.0
 20
0.0
 30
0.0
  9
$PLIMCHECK
 70
     0
  9
$PEXTMIN
 10
1.000000000000000E+20
 20
1.000000000000000E+20
 30
1.000000000000000E+20
  9
$PEXTMAX
 10
-1.000000000000000E+20
 20
-1.000000000000000E+20
 30
-1.000000000000000E+20
  9
$PLIMMIN
 10
0.0
 20
0.0
  9
$PLIMMAX
 10
12.0
 20
9.0
  9
$UNITMODE
 70
     0
  9
$VISRETAIN
 70
     1
  9
$PLINEGEN
 70
     0
  9
$PSLTSCALE
 70
     1
  9
$TREEDEPTH
 70
  3020
  9
$CMLSTYLE
  2
Standard
  9
$CMLJUST
 70
     0
  9
$CMLSCALE
 40
1.0
  9
$PROXYGRAPHICS
 70
     1
  9
$MEASUREMENT
 70
     0
  9
$CELWEIGHT
370
    -1
  9
$ENDCAPS
280
     0
  9
$JOINSTYLE
280
     0
  9
$LWDISPLAY
290
     0
  9
$INSUNITS
 70
     1
  9
$HYPERLINKBASE
  1

  9
$STYLESHEET
  1

  9
$XEDIT
290
     1
  9
$CEPSNTYPE
380
     0
  9
$PSTYLEMODE
290
     1
  9
$FINGERPRINTGUID
  2
{52954365-55C2-4EAB-8980-E8E0C4DC1046}
  9
$VERSIONGUID
  2
{FAEB1C32-E019-11D5-929B-00C0DF256EC4}
  9
$EXTNAMES
290
     1
  9
$PSVPSCALE
 40
0.0
  9
$OLESTARTUP
290
     0
  9
$SORTENTS
280
   127
  9
$INDEXCTL
280
     0
  9
$HIDETEXT
280
     1
  9
$XCLIPFRAME
290
     0
  9
$HALOGAP
280
     0
  9
$OBSCOLOR
 70
   257
  9
$OBSLTYPE
280
     0
  9
$INTERSECTIONDISPLAY
280
     0
  9
$INTERSECTIONCOLOR
 70
   257
  9
$DIMASSOC
280
     2
  9
$PROJECTNAME
  1

  0
ENDSEC
  0
SECTION
  2
CLASSES
  0
CLASS
  1
ACDBDICTIONARYWDFLT
  2
AcDbDictionaryWithDefault
  3
ObjectDBX Classes
 90
        0
 91
        4
280
     0
281
     0
  0
CLASS
  1
VISUALSTYLE
  2
AcDbVisualStyle
  3
ObjectDBX Classes
 90
     4095
 91
        4
280
     0
281
     0
  0
ENDSEC
  0
SECTION
  2
TABLES
  0
TABLE
  2
VPORT
  5
8
330
0
100
AcDbSymbolTable
 70
     1
  0
VPORT
  5
29
330
8
100
AcDbSymbolTableRecord
100
AcDbViewportTableRecord
  2
*Active
 70
     0
 10
0.0
 20
0.0
 11
1.0
 21
1.0
 12
15.40324061134725
 22
36.09527833030966
 13
0.0
 23
0.0
 14
0.5
 24
0.5
 15
0.5
 25
0.5
 16
0.0
 26
0.0
 36
1.0
 17
0.0
 27
0.0
 37
0.0
 40
73.63436779383171
 41
0.7285784138065169
 42
50.0
 43
0.0
 44
0.0
 50
0.0
 51
0.0
 71
     0
 72
   100
 73
     1
 74
     3
 75
     0
 76
     0
 77
     0
 78
     0
281
     0
 65
     1
110
0.0
120
0.0
130
0.0
111
1.0
121
0.0
131
0.0
112
0.0
122
1.0
132
0.0
 79
     0
146
0.0
  0
ENDTAB
  0
TABLE
  2
LTYPE
  5
5
330
0
100
AcDbSymbolTable
 70
     1
  0
LTYPE
  5
14
330
5
100
AcDbSymbolTableRecord
100
AcDbLinetypeTableRecord
  2
ByBlock
 70
     0
  3

 72
    65
 73
     0
 40
0.0
  0
LTYPE
  5
15
330
5
100
AcDbSymbolTableRecord
100
AcDbLinetypeTableRecord
  2
ByLayer
 70
     0
  3

 72
    65
 73
     0
 40
0.0
  0
LTYPE
  5
16
330
5
100
AcDbSymbolTableRecord
100
AcDbLinetypeTableRecord
  2
Continuous
 70
     0
  3
Solid line
 72
    65
 73
     0
 40
0.0
  0
ENDTAB
  0
TABLE
  2
LAYER
  5
2
330
0
100
AcDbSymbolTable
 70
     2
  0
LAYER
  5
10
330
2
100
AcDbSymbolTableRecord
100
AcDbLayerTableRecord
  2
0
 70
     0
 62
     7
  6
Continuous
370
    -3
390
F
  0
LAYER
  5
3B
330
2
100
AcDbSymbolTableRecord
100
AcDbLayerTableRecord
  2
Default
 70
     0
 62
     7
  6
Continuous
370
    -3
390
F
  0
ENDTAB
  0
TABLE
  2
STYLE
  5
3
330
0
100
AcDbSymbolTable
 70
     1
  0
STYLE
  5
11
330
3
100
AcDbSymbolTableRecord
100
AcDbTextStyleTableRecord
  2
Standard
 70
     0
 40
0.0
 41
1.0
 50
0.0
 71
     0
 42
0.2
  3
txt
  4

  0
ENDTAB
  0
TABLE
  2
VIEW
  5
6
330
0
100
AcDbSymbolTable
 70
     0
  0
ENDTAB
  0
TABLE
  2
UCS
  5
7
330
0
100
AcDbSymbolTable
 70
     0
  0
ENDTAB
  0
TABLE
  2
APPID
  5
9
330
0
100
AcDbSymbolTable
 70
     1
  0
APPID
  5
12
330
9
100
AcDbSymbolTableRecord
100
AcDbRegAppTableRecord
  2
ACAD
 70
     0
  0
ENDTAB
  0
TABLE
  2
DIMSTYLE
  5
A
330
0
100
AcDbSymbolTable
 70
     1
100
AcDbDimStyleTable
  0
DIMSTYLE
105
27
330
A
100
AcDbSymbolTableRecord
100
AcDbDimStyleTableRecord
  2
Standard
 70
     0
340
11
  0
ENDTAB
  0
TABLE
  2
BLOCK_RECORD
  5
1
330
0
100
AcDbSymbolTable
 70
     1
  0
BLOCK_RECORD
  5
1F
330
1
100
AcDbSymbolTableRecord
100
AcDbBlockTableRecord
  2
*Model_Space
340
22
  0
BLOCK_RECORD
  5
1B
330
1
100
AcDbSymbolTableRecord
100
AcDbBlockTableRecord
  2
*Paper_Space
340
1E
  0
BLOCK_RECORD
  5
23
330
1
100
AcDbSymbolTableRecord
100
AcDbBlockTableRecord
  2
*Paper_Space0
340
26
  0
ENDTAB
  0
ENDSEC
  0
SECTION
  2
BLOCKS
  0
BLOCK
  5
20
330
1F
100
AcDbEntity
  8
0
100
AcDbBlockBegin
  2
*Model_Space
 70
     0
 10
0.0
 20
0.0
 30
0.0
  3
*Model_Space
  1

  0
ENDBLK
  5
21
330
1F
100
AcDbEntity
  8
0
100
AcDbBlockEnd
  0
BLOCK
  5
1C
330
1B
100
AcDbEntity
 67
     1
  8
0
100
AcDbBlockBegin
  2
*Paper_Space
 70
     0
 10
0.0
 20
0.0
 30
0.0
  3
*Paper_Space
  1

  0
ENDBLK
  5
1D
330
1B
100
AcDbEntity
 67
     1
  8
0
100
AcDbBlockEnd
  0
BLOCK
  5
24
330
23
100
AcDbEntity
  8
0
100
AcDbBlockBegin
  2
*Paper_Space0
 70
     0
 10
0.0
 20
0.0
 30
0.0
  3
*Paper_Space0
  1

  0
ENDBLK
  5
25
330
23
100
AcDbEntity
  8
0
100
AcDbBlockEnd
  0
ENDSEC
  0
SECTION
  2
ENTITIES
  0
LINE
  5
3C
330
1F
100
AcDbEntity
  8
Default
  6
Continuous
100
AcDbLine
 10
10.80482444428129
 20
50.94597080034185
 30
0.0
 11
10.80454286000002
 21
50.84178494121935
 31
0.0
  0
POLYLINE
  5
3D
330
1F
100
AcDbEntity
  8
Default
  6
Continuous
100
AcDb2dPolyline
 66
     1
 10
0.0
 20
0.0
 30
0.0
  0
VERTEX
  5
3E
330
3D
100
AcDbEntity
  8
Default
  6
Continuous
100
AcDbVertex
100
AcDb2dVertex
 10
10.80454286000002
 20
50.84178494121935
 30
0.0
  0
VERTEX
  5
3F
330
3D
100
AcDbEntity
  8
Default
  6
Continuous
100
AcDbVertex
100
AcDb2dVertex
 10
10.80426959060003
 20
50.78669284781935
 30
0.0
  0
VERTEX
  5
40
330
3D
100
AcDbEntity
  8
Default
  6
Continuous
100
AcDbVertex
100
AcDb2dVertex
 10
10.80386421880003
 20
50.73238825111935
 30
0.0
  0
VERTEX
  5
41
330
3D
100
AcDbEntity
  8
Default
  6
Continuous
100
AcDbVertex
100
AcDb2dVertex
 10
10.80331772180003
 20
50.67905035521935
 30
0.0
  0
VERTEX
  5
42
330
3D
100
AcDbEntity
  8
Default
  6
Continuous
100
AcDbVertex
100
AcDb2dVertex
 10
10.80262246830003
 20
50.62691062321935
 30
0.0
  0
VERTEX
  5
43
330
3D
100
AcDbEntity
  8
Default
  6
Continuous
100
AcDbVertex
100
AcDb2dVertex
 10
10.80176981190003
 20
50.57609526941935
 30
0.0
  0
VERTEX
  5
44
330
3D
100
AcDbEntity
  8
Default
  6
Continuous
100
AcDbVertex
100
AcDb2dVertex
 10
10.80075129210003
 20
50.52679454631935
 30
0.0
  0
VERTEX
  5
45
330
3D
100
AcDbEntity
  8
Default
  6
Continuous
100
AcDbVertex
100
AcDb2dVertex
 10
10.79956030160004
 20
50.47927657081935
 30
0.0
  0
VERTEX
  5
46
330
3D
100
AcDbEntity
  8
Default
  6
Continuous
100
AcDbVertex
100
AcDb2dVertex
 10
10.79817871990004
 20
50.43340582261935
 30
0.0
  0
VERTEX
  5
47
330
3D
100
AcDbEntity
  8
Default
  6
Continuous
100
AcDbVertex
100
AcDb2dVertex
 10
10.79660486720003
 20
50.38957033931935
 30
0.0
  0
VERTEX
  5
48
330
3D
100
AcDbEntity
  8
Default
  6
Continuous
100
AcDbVertex
100
AcDb2dVertex
 10
10.79486529900002
 20
50.34858045291935
 30
0.0
  0
VERTEX
  5
49
330
3D
100
AcDbEntity
  8
Default
  6
Continuous
100
AcDbVertex
100
AcDb2dVertex
 10
10.79295989670003
 20
50.31039458571935
 30
0.0
  0
VERTEX
  5
4A
330
3D
100
AcDbEntity
  8
Default
  6
Continuous
100
AcDbVertex
100
AcDb2dVertex
 10
10.79088103140004
 20
50.27490317031935
 30
0.0
  0
VERTEX
  5
4B
330
3D
100
AcDbEntity
  8
Default
  6
Continuous
100
AcDbVertex
100
AcDb2dVertex
 10
10.78865351270004
 20
50.24244658931935
 30
0.0
  0
VERTEX
  5
4C
330
3D
100
AcDbEntity
  8
Default
  6
Continuous
100
AcDbVertex
100
AcDb2dVertex
 10
10.78628509630004
 20
50.21289816381935
 30
0.0
  0
VERTEX
  5
4D
330
3D
100
AcDbEntity
  8
Default
  6
Continuous
100
AcDbVertex
100
AcDb2dVertex
 10
10.78376387690004
 20
50.18593803831935
 30
0.0
  0
VERTEX
  5
4E
330
3D
100
AcDbEntity
  8
Default
  6
Continuous
100
AcDbVertex
100
AcDb2dVertex
 10
10.78107790560003
 20
50.16134441661935
 30
0.0
  0
VERTEX
  5
4F
330
3D
100
AcDbEntity
  8
Default
  6
Continuous
100
AcDbVertex
100
AcDb2dVertex
 10
10.77822217760003
 20
50.13898868511935
 30
0.0
  0
SEQEND
  5
50
330
3D
100
AcDbEntity
  8
Default
  6
Continuous
  0
LINE
  5
51
330
1F
100
AcDbEntity
  8
Default
  6
Continuous
100
AcDbLine
 10
10.77822217760003
 20
50.13898868511935
 30
0.0
 11
10.77494057560003
 21
50.11718261101935
 31
0.0
  0
ARC
  5
52
330
1F
100
AcDbEntity
  8
Default
  6
Continuous
100
AcDbCircle
 10
10.39212978639882
 20
50.17479191041473
 30
0.0
 40
0.38712133977046
100
AcDbArc
 50
327.8016124190431
 51
351.4417640381718
  0
POLYLINE
  5
53
330
1F
100
AcDbEntity
  8
Default
  6
Continuous
100
AcDb2dPolyline
 66
     1
 10
0.0
 20
0.0
 30
0.0
  0
VERTEX
  5
54
330
53
100
AcDbEntity
  8
Default
  6
Continuous
100
AcDbVertex
100
AcDb2dVertex
 10
10.71971502380004
 20
49.96851335131935
 30
0.0
  0
VERTEX
  5
55
330
53
100
AcDbEntity
  8
Default
  6
Continuous
100
AcDbVertex
100
AcDb2dVertex
 10
10.70236564910003
 20
49.94744025751935
 30
0.0
  0
VERTEX
  5
56
330
53
100
AcDbEntity
  8
Default
  6
Continuous
100
AcDbVertex
100
AcDb2dVertex
 10
10.68204559870003
 20
49.92796988731935
 30
0.0
  0
VERTEX
  5
57
330
53
100
AcDbEntity
  8
Default
  6
Continuous
100
AcDbVertex
100
AcDb2dVertex
 10
10.65893757720004
 20
49.91074521901935
 30
0.0
  0
VERTEX
  5
58
330
53
100
AcDbEntity
  8
Default
  6
Continuous
100
AcDbVertex
100
AcDb2dVertex
 10
10.63292463340004
 20
49.89612959931935
 30
0.0
  0
VERTEX
  5
59
330
53
100
AcDbEntity
  8
Default
  6
Continuous
100
AcDbVertex
100
AcDb2dVertex
 10
10.60479595820003
 20
49.88492423561935
 30
0.0
  0
VERTEX
  5
5A
330
53
100
AcDbEntity
  8
Default
  6
Continuous
100
AcDbVertex
100
AcDb2dVertex
 10
10.57488275690004
 20
49.87749263101935
 30
0.0
  0
VERTEX
  5
5B
330
53
100
AcDbEntity
  8
Default
  6
Continuous
100
AcDbVertex
100
AcDb2dVertex
 10
10.54375294370003
 20
49.87420175721935
 30
0.0
  0
VERTEX
  5
5C
330
53
100
AcDbEntity
  8
Default
  6
Continuous
100
AcDbVertex
100
AcDb2dVertex
 10
10.51284595380004
 20
49.87522767431935
 30
0.0
  0
VERTEX
  5
5D
330
53
100
AcDbEntity
  8
Default
  6
Continuous
100
AcDbVertex
100
AcDb2dVertex
 10
10.48261399380003
 20
49.88042207901935
 30
0.0
  0
VERTEX
  5
5E
330
53
100
AcDbEntity
  8
Default
  6
Continuous
100
AcDbVertex
100
AcDb2dVertex
 10
10.45368826350003
 20
49.88954229651935
 30
0.0
  0
VERTEX
  5
5F
330
53
100
AcDbEntity
  8
Default
  6
Continuous
100
AcDbVertex
100
AcDb2dVertex
 10
10.42758568080004
 20
49.90169935101935
 30
0.0
  0
VERTEX
  5
60
330
53
100
AcDbEntity
  8
Default
  6
Continuous
100
AcDbVertex
100
AcDb2dVertex
 10
10.40450155510003
 20
49.91612122981935
 30
0.0
  0
VERTEX
  5
61
330
53
100
AcDbEntity
  8
Default
  6
Continuous
100
AcDbVertex
100
AcDb2dVertex
 10
10.38434827400004
 20
49.93218236091935
 30
0.0
  0
VERTEX
  5
62
330
53
100
AcDbEntity
  8
Default
  6
Continuous
100
AcDbVertex
100
AcDb2dVertex
 10
10.36765572720003
 20
49.94859969971935
 30
0.0
  0
VERTEX
  5
63
330
53
100
AcDbEntity
  8
Default
  6
Continuous
100
AcDbVertex
100
AcDb2dVertex
 10
10.35430989110003
 20
49.96434972001935
 30
0.0
  0
VERTEX
  5
64
330
53
100
AcDbEntity
  8
Default
  6
Continuous
100
AcDbVertex
100
AcDb2dVertex
 10
10.34351691620003
 20
49.97929084481935
 30
0.0
  0
VERTEX
  5
65
330
53
100
AcDbEntity
  8
Default
  6
Continuous
100
AcDbVertex
100
AcDb2dVertex
 10
10.33462205770003
 20
49.99349300231935
 30
0.0
  0
VERTEX
  5
66
330
53
100
AcDbEntity
  8
Default
  6
Continuous
100
AcDbVertex
100
AcDb2dVertex
 10
10.32738996280003
 20
50.00660712051935
 30
0.0
  0
VERTEX
  5
67
330
53
100
AcDbEntity
  8
Default
  6
Continuous
100
AcDbVertex
100
AcDb2dVertex
 10
10.32145346290004
 20
50.01863851291935
 30
0.0
  0
VERTEX
  5
68
330
53
100
AcDbEntity
  8
Default
  6
Continuous
100
AcDbVertex
100
AcDb2dVertex
 10
10.31620654750003
 20
50.03038032021935
 30
0.0
  0
VERTEX
  5
69
330
53
100
AcDbEntity
  8
Default
  6
Continuous
100
AcDbVertex
100
AcDb2dVertex
 10
10.31279731485003
 20
50.03863236556935
 30
0.0
  0
SEQEND
  5
6A
330
53
100
AcDbEntity
  8
Default
  6
Continuous
  0
LINE
  5
6B
330
1F
100
AcDbEntity
  8
Default
  6
Continuous
100
AcDbLine
 10
10.31279731485003
 20
50.03863236556935
 30
0.0
 11
9.77804854830003
 21
51.37273883291935
 31
0.0
  0
ARC
  5
6C
330
1F
100
AcDbEntity
  8
Default
  6
Continuous
100
AcDbCircle
 10
9.897321579000028
 20
51.56858139304777
 30
0.0
 40
0.1958425601284262
100
AcDbArc
 50
270.0000000000005
 51
278.4309663961401
  0
LINE
  5
6D
330
1F
100
AcDbEntity
  8
Default
  6
Continuous
100
AcDbLine
 10
9.89732157900003
 20
51.37273883291935
 30
0.0
 11
8.160061190700029
 21
51.37273883291934
 31
0.0
  0
ARC
  5
6E
330
1F
100
AcDbEntity
  8
Default
  6
Continuous
100
AcDbCircle
 10
9.957812090785216
 20
51.63879512659734
 30
0.0
 40
0.2658458247103797
100
AcDbArc
 50
201.8423497204728
 51
263.1350261079698
  0
LINE
  5
6F
330
1F
100
AcDbEntity
  8
Default
  6
Continuous
100
AcDbLine
 10
9.71105105080003
 20
51.53988611961934
 30
0.0
 11
8.901225009212103
 21
53.56026345768917
 31
0.0
  0
POLYLINE
  5
70
330
1F
100
AcDbEntity
  8
Default
  6
Continuous
100
AcDb2dPolyline
 66
     1
 10
0.0
 20
0.0
 30
0.0
  0
VERTEX
  5
71
330
70
100
AcDbEntity
  8
Default
  6
Continuous
100
AcDbVertex
100
AcDb2dVertex
 10
8.901225009212103
 20
53.56026345768917
 30
0.0
  0
VERTEX
  5
72
330
70
100
AcDbEntity
  8
Default
  6
Continuous
100
AcDbVertex
100
AcDb2dVertex
 10
8.888349033100008
 20
53.56322465741933
 30
0.0
  0
VERTEX
  5
73
330
70
100
AcDbEntity
  8
Default
  6
Continuous
100
AcDbVertex
100
AcDb2dVertex
 10
8.871839535900017
 20
53.56676921661933
 30
0.0
  0
VERTEX
  5
74
330
70
100
AcDbEntity
  8
Default
  6
Continuous
100
AcDbVertex
100
AcDb2dVertex
 10
8.853616163900009
 20
53.57044568961933
 30
0.0
  0
VERTEX
  5
75
330
70
100
AcDbEntity
  8
Default
  6
Continuous
100
AcDbVertex
100
AcDb2dVertex
 10
8.8339797696
 20
53.57418516111934
 30
0.0
  0
VERTEX
  5
76
330
70
100
AcDbEntity
  8
Default
  6
Continuous
100
AcDbVertex
100
AcDb2dVertex
 10
8.813010205900008
 20
53.57796419791934
 30
0.0
  0
VERTEX
  5
77
330
70
100
AcDbEntity
  8
Default
  6
Continuous
100
AcDbVertex
100
AcDb2dVertex
 10
8.790679016300013
 20
53.58177298411933
 30
0.0
  0
VERTEX
  5
78
330
70
100
AcDbEntity
  8
Default
  6
Continuous
100
AcDbVertex
100
AcDb2dVertex
 10
8.767099785300013
 20
53.58557051171933
 30
0.0
  0
VERTEX
  5
79
330
70
100
AcDbEntity
  8
Default
  6
Continuous
100
AcDbVertex
100
AcDb2dVertex
 10
8.742353194400005
 20
53.58931649651934
 30
0.0
  0
VERTEX
  5
7A
330
70
100
AcDbEntity
  8
Default
  6
Continuous
100
AcDbVertex
100
AcDb2dVertex
 10
8.716396077500002
 20
53.59298189241934
 30
0.0
  0
VERTEX
  5
7B
330
70
100
AcDbEntity
  8
Default
  6
Continuous
100
AcDbVertex
100
AcDb2dVertex
 10
8.689155897800015
 20
53.59653828561934
 30
0.0
  0
VERTEX
  5
7C
330
70
100
AcDbEntity
  8
Default
  6
Continuous
100
AcDbVertex
100
AcDb2dVertex
 10
8.660645617200013
 20
53.59998306231934
 30
0.0
  0
VERTEX
  5
7D
330
70
100
AcDbEntity
  8
Default
  6
Continuous
100
AcDbVertex
100
AcDb2dVertex
 10
8.64522591600001
 20
53.60171532851933
 30
0.0
  0
SEQEND
  5
7E
330
70
100
AcDbEntity
  8
Default
  6
Continuous
  0
POLYLINE
  5
7F
330
1F
100
AcDbEntity
  8
Default
  6
Continuous
100
AcDb2dPolyline
 66
     1
 10
0.0
 20
0.0
 30
0.0
  0
VERTEX
  5
80
330
7F
100
AcDbEntity
  8
Default
  6
Continuous
100
AcDbVertex
100
AcDb2dVertex
 10
8.671035364600007
 20
54.03936864311934
 30
0.0
  0
VERTEX
  5
81
330
7F
100
AcDbEntity
  8
Default
  6
Continuous
100
AcDbVertex
100
AcDb2dVertex
 10
8.67727988500001
 20
54.03869565191933
 30
0.0
  0
VERTEX
  5
82
330
7F
100
AcDbEntity
  8
Default
  6
Continuous
100
AcDbVertex
100
AcDb2dVertex
 10
8.717394523200005
 20
54.03397265351933
 30
0.0
  0
VERTEX
  5
83
330
7F
100
AcDbEntity
  8
Default
  6
Continuous
100
AcDbVertex
100
AcDb2dVertex
 10
8.755932675500011
 20
54.02908138411934
 30
0.0
  0
VERTEX
  5
84
330
7F
100
AcDbEntity
  8
Default
  6
Continuous
100
AcDbVertex
100
AcDb2dVertex
 10
8.792816341700009
 20
54.02409347741933
 30
0.0
  0
VERTEX
  5
85
330
7F
100
AcDbEntity
  8
Default
  6
Continuous
100
AcDbVertex
100
AcDb2dVertex
 10
8.82804261040001
 20
54.01901147691934
 30
0.0
  0
VERTEX
  5
86
330
7F
100
AcDbEntity
  8
Default
  6
Continuous
100
AcDbVertex
100
AcDb2dVertex
 10
8.861769038100013
 20
54.01377279011933
 30
0.0
  0
VERTEX
  5
87
330
7F
100
AcDbEntity
  8
Default
  6
Continuous
100
AcDbVertex
100
AcDb2dVertex
 10
8.893999059699999
 20
54.00834764741933
 30
0.0
  0
VERTEX
  5
88
330
7F
100
AcDbEntity
  8
Default
  6
Continuous
100
AcDbVertex
100
AcDb2dVertex
 10
8.924720737800007
 20
54.00272222981933
 30
0.0
  0
VERTEX
  5
89
330
7F
100
AcDbEntity
  8
Default
  6
Continuous
100
AcDbVertex
100
AcDb2dVertex
 10
8.954069508500018
 20
53.99686515071934
 30
0.0
  0
VERTEX
  5
8A
330
7F
100
AcDbEntity
  8
Default
  6
Continuous
100
AcDbVertex
100
AcDb2dVertex
 10
8.98200645420001
 20
53.99078599581934
 30
0.0
  0
VERTEX
  5
8B
330
7F
100
AcDbEntity
  8
Default
  6
Continuous
100
AcDbVertex
100
AcDb2dVertex
 10
9.00847829830001
 20
53.98451081111934
 30
0.0
  0
VERTEX
  5
8C
330
7F
100
AcDbEntity
  8
Default
  6
Continuous
100
AcDbVertex
100
AcDb2dVertex
 10
9.033671910600011
 20
53.97801290531934
 30
0.0
  0
VERTEX
  5
8D
330
7F
100
AcDbEntity
  8
Default
  6
Continuous
100
AcDbVertex
100
AcDb2dVertex
 10
9.057622225999998
 20
53.97124619251934
 30
0.0
  0
VERTEX
  5
8E
330
7F
100
AcDbEntity
  8
Default
  6
Continuous
100
AcDbVertex
100
AcDb2dVertex
 10
9.080351314100005
 20
53.96412210751934
 30
0.0
  0
VERTEX
  5
8F
330
7F
100
AcDbEntity
  8
Default
  6
Continuous
100
AcDbVertex
100
AcDb2dVertex
 10
9.102272478400002
 20
53.95640405391934
 30
0.0
  0
VERTEX
  5
90
330
7F
100
AcDbEntity
  8
Default
  6
Continuous
100
AcDbVertex
100
AcDb2dVertex
 10
9.12342865130001
 20
53.94793531651933
 30
0.0
  0
VERTEX
  5
91
330
7F
100
AcDbEntity
  8
Default
  6
Continuous
100
AcDbVertex
100
AcDb2dVertex
 10
9.14401228660001
 20
53.93845943051934
 30
0.0
  0
VERTEX
  5
92
330
7F
100
AcDbEntity
  8
Default
  6
Continuous
100
AcDbVertex
100
AcDb2dVertex
 10
9.164835662400002
 20
53.92726921231934
 30
0.0
  0
VERTEX
  5
93
330
7F
100
AcDbEntity
  8
Default
  6
Continuous
100
AcDbVertex
100
AcDb2dVertex
 10
9.186314164000002
 20
53.91352320351934
 30
0.0
  0
VERTEX
  5
94
330
7F
100
AcDbEntity
  8
Default
  6
Continuous
100
AcDbVertex
100
AcDb2dVertex
 10
9.20771669980001
 20
53.89687652391935
 30
0.0
  0
VERTEX
  5
95
330
7F
100
AcDbEntity
  8
Default
  6
Continuous
100
AcDbVertex
100
AcDb2dVertex
 10
9.228080927400008
 20
53.87728740851934
 30
0.0
  0
VERTEX
  5
96
330
7F
100
AcDbEntity
  8
Default
  6
Continuous
100
AcDbVertex
100
AcDb2dVertex
 10
9.247106554100007
 20
53.85414762981934
 30
0.0
  0
VERTEX
  5
97
330
7F
100
AcDbEntity
  8
Default
  6
Continuous
100
AcDbVertex
100
AcDb2dVertex
 10
9.263865878900013
 20
53.82744387521934
 30
0.0
  0
VERTEX
  5
98
330
7F
100
AcDbEntity
  8
Default
  6
Continuous
100
AcDbVertex
100
AcDb2dVertex
 10
9.275154350398415
 20
53.80327765011989
 30
0.0
  0
SEQEND
  5
99
330
7F
100
AcDbEntity
  8
Default
  6
Continuous
  0
ARC
  5
9A
330
1F
100
AcDbEntity
  8
Default
  6
Continuous
100
AcDbCircle
 10
-25431.03970950519
 20
-10143.53793132626
 30
0.0
 40
27407.94388684418
100
AcDbArc
 50
21.84234938102278
 51
21.84258752406773
  0
LINE
  5
9B
330
1F
100
AcDbEntity
  8
Default
  6
Continuous
100
AcDbLine
 10
9.317538158000012
 20
53.69753794041934
 30
0.0
 11
10.71896786220003
 21
50.20121068231935
 31
0.0
  0
LINE
  5
9C
330
1F
100
AcDbEntity
  8
Default
100
AcDbLine
 10
10.39833342860002
 20
51.00113871775449
 30
0.0
 11
10.39833342860001
 21
52.94167672632994
 31
0.0
  0
POLYLINE
  5
9D
330
1F
100
AcDbEntity
  8
Default
100
AcDb2dPolyline
 66
     1
 10
0.0
 20
0.0
 30
0.0
  0
VERTEX
  5
9E
330
9D
100
AcDbEntity
  8
Default
100
AcDbVertex
100
AcDb2dVertex
 10
10.39833342860001
 20
52.94167672632994
 30
0.0
  0
VERTEX
  5
9F
330
9D
100
AcDbEntity
  8
Default
100
AcDbVertex
100
AcDb2dVertex
 10
10.33358555080407
 20
52.94167672632992
 30
0.0
  0
SEQEND
  5
A0
330
9D
100
AcDbEntity
  8
Default
  0
SPLINE
  5
A1
330
1F
100
AcDbEntity
  8
Default
100
AcDbSpline
210
0.0
220
0.0
230
1.0
 70
    12
 71
     2
 72
     8
 73
     5
 74
     0
 42
0.0000000001
 43
0.0000000001
 40
-0.0887191648069352
 40
-0.0887191648069352
 40
-0.0887191648069352
 40
-0.0443595824034676
 40
-0.0443595824034676
 40
0.0
 40
0.0
 40
0.0
 10
10.33358555080407
 20
52.94167672632992
 30
0.0
 41
1.0
 10
10.31014924906537
 20
52.94213170135033
 30
0.0
 41
0.9212309118505145
 10
10.29348024527213
 20
52.92565105955467
 30
0.0
 41
1.0
 10
10.27681124147888
 20
52.909170417759
 30
0.0
 41
0.9212309118505145
 10
10.276999857511
 20
52.88573045902508
 30
0.0
 41
1.0
  0
POLYLINE
  5
A2
330
1F
100
AcDbEntity
  8
Default
100
AcDb2dPolyline
 66
     1
 10
0.0
 20
0.0
 30
0.0
  0
VERTEX
  5
A3
330
A2
100
AcDbEntity
  8
Default
100
AcDbVertex
100
AcDb2dVertex
 10
10.276999857511
 20
52.88573045902508
 30
0.0
  0
VERTEX
  5
A4
330
A2
100
AcDbEntity
  8
Default
100
AcDbVertex
100
AcDb2dVertex
 10
10.27699985751101
 20
51.30384521145142
 30
0.0
  0
SEQEND
  5
A5
330
A2
100
AcDbEntity
  8
Default
  0
LINE
  5
A6
330
1F
100
AcDbEntity
  8
Default
100
AcDbLine
 10
9.988427441799901
 20
69.77124034231933
 30
0.0
 11
10.33305081769989
 21
71.97765863711935
 31
0.0
  0
POLYLINE
  5
A7
330
1F
100
AcDbEntity
  8
Default
100
AcDb2dPolyline
 66
     1
 10
0.0
 20
0.0
 30
0.0
  0
VERTEX
  5
A8
330
A7
100
AcDbEntity
  8
Default
100
AcDbVertex
100
AcDb2dVertex
 10
10.33305081769989
 20
71.97765863711935
 30
0.0
  0
VERTEX
  5
A9
330
A7
100
AcDbEntity
  8
Default
100
AcDbVertex
100
AcDb2dVertex
 10
10.33465704819989
 20
71.98720451121933
 30
0.0
  0
VERTEX
  5
AA
330
A7
100
AcDbEntity
  8
Default
100
AcDbVertex
100
AcDb2dVertex
 10
10.33639800549989
 20
71.99645898131935
 30
0.0
  0
VERTEX
  5
AB
330
A7
100
AcDbEntity
  8
Default
100
AcDbVertex
100
AcDb2dVertex
 10
10.3385113335999
 20
72.00639859931933
 30
0.0
  0
VERTEX
  5
AC
330
A7
100
AcDbEntity
  8
Default
100
AcDbVertex
100
AcDb2dVertex
 10
10.3410850987999
 20
72.01695238701934
 30
0.0
  0
VERTEX
  5
AD
330
A7
100
AcDbEntity
  8
Default
100
AcDbVertex
100
AcDb2dVertex
 10
10.34428175609989
 20
72.02824743751934
 30
0.0
  0
VERTEX
  5
AE
330
A7
100
AcDbEntity
  8
Default
100
AcDbVertex
100
AcDb2dVertex
 10
10.34871346399989
 20
72.04151867271933
 30
0.0
  0
VERTEX
  5
AF
330
A7
100
AcDbEntity
  8
Default
100
AcDbVertex
100
AcDb2dVertex
 10
10.3550295784999
 20
72.05719777551933
 30
0.0
  0
VERTEX
  5
B0
330
A7
100
AcDbEntity
  8
Default
100
AcDbVertex
100
AcDb2dVertex
 10
10.36360149249988
 20
72.07457098741934
 30
0.0
  0
VERTEX
  5
B1
330
A7
100
AcDbEntity
  8
Default
100
AcDbVertex
100
AcDb2dVertex
 10
10.37484946089988
 20
72.09305125341935
 30
0.0
  0
VERTEX
  5
B2
330
A7
100
AcDbEntity
  8
Default
100
AcDbVertex
100
AcDb2dVertex
 10
10.38954389539988
 20
72.11245873551933
 30
0.0
  0
VERTEX
  5
B3
330
A7
100
AcDbEntity
  8
Default
100
AcDbVertex
100
AcDb2dVertex
 10
10.40802927029989
 20
72.13182419231934
 30
0.0
  0
VERTEX
  5
B4
330
A7
100
AcDbEntity
  8
Default
100
AcDbVertex
100
AcDb2dVertex
 10
10.42960542099989
 20
72.14947755441933
 30
0.0
  0
VERTEX
  5
B5
330
A7
100
AcDbEntity
  8
Default
100
AcDbVertex
100
AcDb2dVertex
 10
10.45410005589989
 20
72.16475028721935
 30
0.0
  0
VERTEX
  5
B6
330
A7
100
AcDbEntity
  8
Default
100
AcDbVertex
100
AcDb2dVertex
 10
10.48145250449988
 20
72.17710127671934
 30
0.0
  0
VERTEX
  5
B7
330
A7
100
AcDbEntity
  8
Default
100
AcDbVertex
100
AcDb2dVertex
 10
10.51042483959989
 20
72.18566743061935
 30
0.0
  0
VERTEX
  5
B8
330
A7
100
AcDbEntity
  8
Default
100
AcDbVertex
100
AcDb2dVertex
 10
10.54039332039989
 20
72.19019700221934
 30
0.0
  0
VERTEX
  5
B9
330
A7
100
AcDbEntity
  8
Default
100
AcDbVertex
100
AcDb2dVertex
 10
10.5709093835999
 20
72.19055666061932
 30
0.0
  0
VERTEX
  5
BA
330
A7
100
AcDbEntity
  8
Default
100
AcDbVertex
100
AcDb2dVertex
 10
10.60076964209989
 20
72.18677516771935
 30
0.0
  0
VERTEX
  5
BB
330
A7
100
AcDbEntity
  8
Default
100
AcDbVertex
100
AcDb2dVertex
 10
10.62949775369988
 20
72.17907383831933
 30
0.0
  0
VERTEX
  5
BC
330
A7
100
AcDbEntity
  8
Default
100
AcDbVertex
100
AcDb2dVertex
 10
10.65655789309989
 20
72.16775968821933
 30
0.0
  0
VERTEX
  5
BD
330
A7
100
AcDbEntity
  8
Default
100
AcDbVertex
100
AcDb2dVertex
 10
10.6808685322999
 20
72.15363770381934
 30
0.0
  0
VERTEX
  5
BE
330
A7
100
AcDbEntity
  8
Default
100
AcDbVertex
100
AcDb2dVertex
 10
10.70227688719989
 20
72.13733845161933
 30
0.0
  0
VERTEX
  5
BF
330
A7
100
AcDbEntity
  8
Default
100
AcDbVertex
100
AcDb2dVertex
 10
10.72074960689989
 20
72.11944898361934
 30
0.0
  0
VERTEX
  5
C0
330
A7
100
AcDbEntity
  8
Default
100
AcDbVertex
100
AcDb2dVertex
 10
10.73588133129989
 20
72.10113432941934
 30
0.0
  0
VERTEX
  5
C1
330
A7
100
AcDbEntity
  8
Default
100
AcDbVertex
100
AcDb2dVertex
 10
10.74792769049989
 20
72.08312643121933
 30
0.0
  0
SEQEND
  5
C2
330
A7
100
AcDbEntity
  8
Default
  0
SPLINE
  5
C3
330
1F
100
AcDbEntity
  8
Default
100
AcDbSpline
210
0.0
220
0.0
230
1.0
 70
     8
 71
     3
 72
     8
 73
     4
 74
     0
 42
0.0000000001
 43
0.0000000001
 40
-1.0
 40
-1.0
 40
-1.0
 40
-1.0
 40
0.0
 40
0.0
 40
0.0
 40
0.0
 10
10.74792769049989
 20
72.08312643121933
 30
0.0
 10
10.7931286617443
 20
72.01555626539603
 30
0.0
 10
10.79255114543913
 20
71.88952148745025
 30
0.0
 10
10.79602798149989
 20
71.79993233211933
 30
0.0
  0
POLYLINE
  5
C4
330
1F
100
AcDbEntity
  8
Default
100
AcDb2dPolyline
 66
     1
 10
0.0
 20
0.0
 30
0.0
  0
VERTEX
  5
C5
330
C4
100
AcDbEntity
  8
Default
100
AcDbVertex
100
AcDb2dVertex
 10
10.79602798149989
 20
71.79993233211933
 30
0.0
  0
VERTEX
  5
C6
330
C4
100
AcDbEntity
  8
Default
100
AcDbVertex
100
AcDb2dVertex
 10
10.79685641929989
 20
71.77858561301933
 30
0.0
  0
VERTEX
  5
C7
330
C4
100
AcDbEntity
  8
Default
100
AcDbVertex
100
AcDb2dVertex
 10
10.79765053629989
 20
71.75605428461934
 30
0.0
  0
VERTEX
  5
C8
330
C4
100
AcDbEntity
  8
Default
100
AcDbVertex
100
AcDb2dVertex
 10
10.7984096362999
 20
71.73230867131933
 30
0.0
  0
VERTEX
  5
C9
330
C4
100
AcDbEntity
  8
Default
100
AcDbVertex
100
AcDb2dVertex
 10
10.79912998429988
 20
71.70742042191934
 30
0.0
  0
VERTEX
  5
CA
330
C4
100
AcDbEntity
  8
Default
100
AcDbVertex
100
AcDb2dVertex
 10
10.79981226569989
 20
71.68132302911933
 30
0.0
  0
VERTEX
  5
CB
330
C4
100
AcDbEntity
  8
Default
100
AcDbVertex
100
AcDb2dVertex
 10
10.80045514309989
 20
71.65401205101934
 30
0.0
  0
VERTEX
  5
CC
330
C4
100
AcDbEntity
  8
Default
100
AcDbVertex
100
AcDb2dVertex
 10
10.8010529162999
 20
71.62570050471935
 30
0.0
  0
VERTEX
  5
CD
330
C4
100
AcDbEntity
  8
Default
100
AcDbVertex
100
AcDb2dVertex
 10
10.8016050793999
 20
71.59641259001934
 30
0.0
  0
VERTEX
  5
CE
330
C4
100
AcDbEntity
  8
Default
100
AcDbVertex
100
AcDb2dVertex
 10
10.80211227909989
 20
71.56612515961935
 30
0.0
  0
VERTEX
  5
CF
330
C4
100
AcDbEntity
  8
Default
100
AcDbVertex
100
AcDb2dVertex
 10
10.80257220649989
 20
71.53504103431935
 30
0.0
  0
VERTEX
  5
D0
330
C4
100
AcDbEntity
  8
Default
100
AcDbVertex
100
AcDb2dVertex
 10
10.80298511409989
 20
71.50324977261933
 30
0.0
  0
VERTEX
  5
D1
330
C4
100
AcDbEntity
  8
Default
100
AcDbVertex
100
AcDb2dVertex
 10
10.80335248059989
 20
71.47074176401934
 30
0.0
  0
VERTEX
  5
D2
330
C4
100
AcDbEntity
  8
Default
100
AcDbVertex
100
AcDb2dVertex
 10
10.80367451579989
 20
71.43759725431933
 30
0.0
  0
VERTEX
  5
D3
330
C4
100
AcDbEntity
  8
Default
100
AcDbVertex
100
AcDb2dVertex
 10
10.80395184559989
 20
71.40385711151934
 30
0.0
  0
VERTEX
  5
D4
330
C4
100
AcDbEntity
  8
Default
100
AcDbVertex
100
AcDb2dVertex
 10
10.80418518629989
 20
71.36955707021933
 30
0.0
  0
VERTEX
  5
D5
330
C4
100
AcDbEntity
  8
Default
100
AcDbVertex
100
AcDb2dVertex
 10
10.80437536669989
 20
71.33477168601932
 30
0.0
  0
VERTEX
  5
D6
330
C4
100
AcDbEntity
  8
Default
100
AcDbVertex
100
AcDb2dVertex
 10
10.8045236675999
 20
71.29953067571934
 30
0.0
  0
VERTEX
  5
D7
330
C4
100
AcDbEntity
  8
Default
100
AcDbVertex
100
AcDb2dVertex
 10
10.80463138029989
 20
71.26386302181935
 30
0.0
  0
VERTEX
  5
D8
330
C4
100
AcDbEntity
  8
Default
100
AcDbVertex
100
AcDb2dVertex
 10
10.80469972379989
 20
71.22784939651935
 30
0.0
  0
VERTEX
  5
D9
330
C4
100
AcDbEntity
  8
Default
100
AcDbVertex
100
AcDb2dVertex
 10
10.80472817565538
 20
71.17251651542992
 30
0.0
  0
SEQEND
  5
DA
330
C4
100
AcDbEntity
  8
Default
  0
POLYLINE
  5
DB
330
1F
100
AcDbEntity
  8
Default
100
AcDb2dPolyline
 66
     1
 10
0.0
 20
0.0
 30
0.0
  0
VERTEX
  5
DC
330
DB
100
AcDbEntity
  8
Default
100
AcDbVertex
100
AcDb2dVertex
 10
10.33838788067031
 20
69.17681058944184
 30
0.0
  0
VERTEX
  5
DD
330
DB
100
AcDbEntity
  8
Default
100
AcDbVertex
100
AcDb2dVertex
 10
10.3983334285999
 20
69.17681058944186
 30
0.0
  0
SEQEND
  5
DE
330
DB
100
AcDbEntity
  8
Default
  0
LINE
  5
DF
330
1F
100
AcDbEntity
  8
Default
100
AcDbLine
 10
10.3983334285999
 20
69.17681058944186
 30
0.0
 11
10.3983334285999
 21
69.56060862587728
 31
0.0
  0
LINE
  5
E0
330
1F
100
AcDbEntity
  8
Default
  6
Continuous
100
AcDbLine
 10
10.76510950189989
 20
71.90887203501934
 30
0.0
 11
9.811951509218202
 21
65.80633100171964
 31
0.0
  0
POLYLINE
  5
E1
330
1F
100
AcDbEntity
  8
Default
  6
Continuous
100
AcDb2dPolyline
 66
     1
 10
0.0
 20
0.0
 30
0.0
  0
VERTEX
  5
E2
330
E1
100
AcDbEntity
  8
Default
  6
Continuous
100
AcDbVertex
100
AcDb2dVertex
 10
9.811951509218202
 20
65.80633100171964
 30
0.0
  0
VERTEX
  5
E3
330
E1
100
AcDbEntity
  8
Default
  6
Continuous
100
AcDbVertex
100
AcDb2dVertex
 10
9.806468002399924
 20
65.78033198981935
 30
0.0
  0
VERTEX
  5
E4
330
E1
100
AcDbEntity
  8
Default
  6
Continuous
100
AcDbVertex
100
AcDb2dVertex
 10
9.797254776099933
 20
65.75141775301934
 30
0.0
  0
VERTEX
  5
E5
330
E1
100
AcDbEntity
  8
Default
  6
Continuous
100
AcDbVertex
100
AcDb2dVertex
 10
9.785684422099933
 20
65.72448382481933
 30
0.0
  0
VERTEX
  5
E6
330
E1
100
AcDbEntity
  8
Default
  6
Continuous
100
AcDbVertex
100
AcDb2dVertex
 10
9.772173523799935
 20
65.69912079361934
 30
0.0
  0
VERTEX
  5
E7
330
E1
100
AcDbEntity
  8
Default
  6
Continuous
100
AcDbVertex
100
AcDb2dVertex
 10
9.75695222469993
 20
65.67481105651935
 30
0.0
  0
VERTEX
  5
E8
330
E1
100
AcDbEntity
  8
Default
  6
Continuous
100
AcDbVertex
100
AcDb2dVertex
 10
9.740416035399932
 20
65.65145109981934
 30
0.0
  0
VERTEX
  5
E9
330
E1
100
AcDbEntity
  8
Default
  6
Continuous
100
AcDbVertex
100
AcDb2dVertex
 10
9.722399436099934
 20
65.62829552451934
 30
0.0
  0
VERTEX
  5
EA
330
E1
100
AcDbEntity
  8
Default
  6
Continuous
100
AcDbVertex
100
AcDb2dVertex
 10
9.702143900999928
 20
65.60419861751933
 30
0.0
  0
VERTEX
  5
EB
330
E1
100
AcDbEntity
  8
Default
  6
Continuous
100
AcDbVertex
100
AcDb2dVertex
 10
9.679290369399936
 20
65.57879862451932
 30
0.0
  0
VERTEX
  5
EC
330
E1
100
AcDbEntity
  8
Default
  6
Continuous
100
AcDbVertex
100
AcDb2dVertex
 10
9.65393852889993
 20
65.55236741691934
 30
0.0
  0
VERTEX
  5
ED
330
E1
100
AcDbEntity
  8
Default
  6
Continuous
100
AcDbVertex
100
AcDb2dVertex
 10
9.626036455699934
 20
65.52502640031932
 30
0.0
  0
VERTEX
  5
EE
330
E1
100
AcDbEntity
  8
Default
  6
Continuous
100
AcDbVertex
100
AcDb2dVertex
 10
9.595549044499935
 20
65.49668421731931
 30
0.0
  0
VERTEX
  5
EF
330
E1
100
AcDbEntity
  8
Default
  6
Continuous
100
AcDbVertex
100
AcDb2dVertex
 10
9.562405735399922
 20
65.46716512261932
 30
0.0
  0
VERTEX
  5
F0
330
E1
100
AcDbEntity
  8
Default
  6
Continuous
100
AcDbVertex
100
AcDb2dVertex
 10
9.526714687999943
 20
65.43650192201932
 30
0.0
  0
VERTEX
  5
F1
330
E1
100
AcDbEntity
  8
Default
  6
Continuous
100
AcDbVertex
100
AcDb2dVertex
 10
9.488554821199928
 20
65.40475796391934
 30
0.0
  0
VERTEX
  5
F2
330
E1
100
AcDbEntity
  8
Default
  6
Continuous
100
AcDbVertex
100
AcDb2dVertex
 10
9.447933664199924
 20
65.37194840451932
 30
0.0
  0
VERTEX
  5
F3
330
E1
100
AcDbEntity
  8
Default
  6
Continuous
100
AcDbVertex
100
AcDb2dVertex
 10
9.405038859299937
 20
65.33820320331932
 30
0.0
  0
VERTEX
  5
F4
330
E1
100
AcDbEntity
  8
Default
  6
Continuous
100
AcDbVertex
100
AcDb2dVertex
 10
9.36002689689994
 20
65.30360259621932
 30
0.0
  0
VERTEX
  5
F5
330
E1
100
AcDbEntity
  8
Default
  6
Continuous
100
AcDbVertex
100
AcDb2dVertex
 10
9.313030453999932
 20
65.26829655051932
 30
0.0
  0
VERTEX
  5
F6
330
E1
100
AcDbEntity
  8
Default
  6
Continuous
100
AcDbVertex
100
AcDb2dVertex
 10
9.264298416399928
 20
65.23258398541932
 30
0.0
  0
VERTEX
  5
F7
330
E1
100
AcDbEntity
  8
Default
  6
Continuous
100
AcDbVertex
100
AcDb2dVertex
 10
9.214018380599928
 20
65.19667177491934
 30
0.0
  0
VERTEX
  5
F8
330
E1
100
AcDbEntity
  8
Default
  6
Continuous
100
AcDbVertex
100
AcDb2dVertex
 10
9.162358574299933
 20
65.16070670731932
 30
0.0
  0
VERTEX
  5
F9
330
E1
100
AcDbEntity
  8
Default
  6
Continuous
100
AcDbVertex
100
AcDb2dVertex
 10
9.140378000799931
 20
65.14577547501932
 30
0.0
  0
SEQEND
  5
FA
330
E1
100
AcDbEntity
  8
Default
  6
Continuous
  0
LINE
  5
FB
330
1F
100
AcDbEntity
  8
Default
  6
Continuous
100
AcDbLine
 10
4.692082889299913
 20
69.77124034231929
 30
0.0
 11
10.1295324521999
 21
69.77124034231933
 31
0.0
  0
ARC
  5
FC
330
1F
100
AcDbEntity
  8
Default
  6
Continuous
100
AcDbCircle
 10
10.1295324521999
 20
69.56672706467309
 30
0.0
 40
0.2045132776462424
100
AcDbArc
 50
76.9640204728754
 51
90.0000000000005
  0
POLYLINE
  5
FD
330
1F
100
AcDbEntity
  8
Default
  6
Continuous
100
AcDb2dPolyline
 66
     1
 10
0.0
 20
0.0
 30
0.0
  0
VERTEX
  5
FE
330
FD
100
AcDbEntity
  8
Default
  6
Continuous
100
AcDbVertex
100
AcDb2dVertex
 10
9.08345678159992
 20
65.64322900951933
 30
0.0
  0
VERTEX
  5
FF
330
FD
100
AcDbEntity
  8
Default
  6
Continuous
100
AcDbVertex
100
AcDb2dVertex
 10
9.11674584119993
 20
65.66832675461933
 30
0.0
  0
VERTEX
  5
100
330
FD
100
AcDbEntity
  8
Default
  6
Continuous
100
AcDbVertex
100
AcDb2dVertex
 10
9.152466319799942
 20
65.69594276691933
 30
0.0
  0
VERTEX
  5
101
330
FD
100
AcDbEntity
  8
Default
  6
Continuous
100
AcDbVertex
100
AcDb2dVertex
 10
9.18639891359993
 20
65.72286834171933
 30
0.0
  0
VERTEX
  5
102
330
FD
100
AcDbEntity
  8
Default
  6
Continuous
100
AcDbVertex
100
AcDb2dVertex
 10
9.218469527099927
 20
65.74900535851933
 30
0.0
  0
VERTEX
  5
103
330
FD
100
AcDbEntity
  8
Default
  6
Continuous
100
AcDbVertex
100
AcDb2dVertex
 10
9.248470893999922
 20
65.77416414041932
 30
0.0
  0
VERTEX
  5
104
330
FD
100
AcDbEntity
  8
Default
  6
Continuous
100
AcDbVertex
100
AcDb2dVertex
 10
9.276079317599937
 20
65.79806399821933
 30
0.0
  0
VERTEX
  5
105
330
FD
100
AcDbEntity
  8
Default
  6
Continuous
100
AcDbVertex
100
AcDb2dVertex
 10
9.301389838799935
 20
65.82076038891933
 30
0.0
  0
VERTEX
  5
106
330
FD
100
AcDbEntity
  8
Default
  6
Continuous
100
AcDbVertex
100
AcDb2dVertex
 10
9.324187091799926
 20
65.84198056971931
 30
0.0
  0
VERTEX
  5
107
330
FD
100
AcDbEntity
  8
Default
  6
Continuous
100
AcDbVertex
100
AcDb2dVertex
 10
9.343777163399933
 20
65.86091065701933
 30
0.0
  0
VERTEX
  5
108
330
FD
100
AcDbEntity
  8
Default
  6
Continuous
100
AcDbVertex
100
AcDb2dVertex
 10
9.360225702799935
 20
65.87743017231932
 30
0.0
  0
VERTEX
  5
109
330
FD
100
AcDbEntity
  8
Default
  6
Continuous
100
AcDbVertex
100
AcDb2dVertex
 10
9.37353458509993
 20
65.89154158081934
 30
0.0
  0
VERTEX
  5
10A
330
FD
100
AcDbEntity
  8
Default
  6
Continuous
100
AcDbVertex
100
AcDb2dVertex
 10
9.383114439099925
 20
65.90247395531932
 30
0.0
  0
VERTEX
  5
10B
330
FD
100
AcDbEntity
  8
Default
  6
Continuous
100
AcDbVertex
100
AcDb2dVertex
 10
9.384415844813827
 20
65.9040789660083
 30
0.0
  0
SEQEND
  5
10C
330
FD
100
AcDbEntity
  8
Default
  6
Continuous
  0
LINE
  5
10D
330
1F
100
AcDbEntity
  8
Default
  6
Continuous
100
AcDbLine
 10
9.384415844813827
 20
65.9040789660083
 30
0.0
 11
9.951908745549911
 21
69.53745359186934
 31
0.0
  0
ARC
  5
10E
330
1F
100
AcDbEntity
  8
Default
  6
Continuous
100
AcDbCircle
 10
10.23790502899992
 20
69.48140124386256
 30
0.0
 40
0.2914373686820137
100
AcDbArc
 50
106.9038050341027
 51
168.9111684941589
  0
ARC
  5
10F
330
1F
100
AcDbEntity
  8
Default
  6
Continuous
100
AcDbCircle
 10
10.22666173866464
 20
69.51839843621876
 30
0.0
 40
0.2527695032146164
100
AcDbArc
 50
101.6398767184062
 51
106.9038050341031
  0
POLYLINE
  5
110
330
1F
100
AcDbEntity
  8
Default
100
AcDb2dPolyline
 66
     1
 10
0.0
 20
0.0
 30
0.0
  0
VERTEX
  5
111
330
110
100
AcDbEntity
  8
Default
100
AcDbVertex
100
AcDb2dVertex
 10
10.89375751370002
 20
52.88573045902508
 30
0.0
  0
VERTEX
  5
112
330
110
100
AcDbEntity
  8
Default
100
AcDbVertex
100
AcDb2dVertex
 10
10.89375751370003
 20
51.00191706043288
 30
0.0
  0
SEQEND
  5
113
330
110
100
AcDbEntity
  8
Default
  0
SPLINE
  5
114
330
1F
100
AcDbEntity
  8
Default
100
AcDbSpline
210
0.0
220
0.0
230
1.0
 70
    12
 71
     2
 72
     8
 73
     5
 74
     0
 42
0.0000000001
 43
0.0000000001
 40
0.0
 40
0.0
 40
0.0
 40
0.0443594898986368
 40
0.0443594898986368
 40
0.0887189797972737
 40
0.0887189797972737
 40
0.0887189797972737
 10
10.89375751370003
 20
51.00191706043288
 30
0.0
 41
1.0
 10
10.89394596433188
 20
50.97847717295431
 30
0.0
 41
0.9212322792887785
 10
10.87727701213426
 20
50.96199658220998
 30
0.0
 41
1.0
 10
10.86060805993665
 20
50.94551599146565
 30
0.0
 41
0.9212322792887785
 10
10.83717182757019
 20
50.94597080034185
 30
0.0
 41
1.0
  0
POLYLINE
  5
115
330
1F
100
AcDbEntity
  8
Default
100
AcDb2dPolyline
 66
     1
 10
0.0
 20
0.0
 30
0.0
  0
VERTEX
  5
116
330
115
100
AcDbEntity
  8
Default
100
AcDbVertex
100
AcDb2dVertex
 10
10.83717182757019
 20
50.94597080034185
 30
0.0
  0
VERTEX
  5
117
330
115
100
AcDbEntity
  8
Default
100
AcDbVertex
100
AcDb2dVertex
 10
10.77242394261103
 20
50.94597080034186
 30
0.0
  0
SEQEND
  5
118
330
115
100
AcDbEntity
  8
Default
  0
LINE
  5
119
330
1F
100
AcDbEntity
  8
Default
100
AcDbLine
 10
10.77242394261103
 20
50.94597080034186
 30
0.0
 11
10.77242394261101
 21
52.94167672632994
 31
0.0
  0
POLYLINE
  5
11A
330
1F
100
AcDbEntity
  8
Default
100
AcDb2dPolyline
 66
     1
 10
0.0
 20
0.0
 30
0.0
  0
VERTEX
  5
11B
330
11A
100
AcDbEntity
  8
Default
100
AcDbVertex
100
AcDb2dVertex
 10
10.77242394261101
 20
52.94167672632994
 30
0.0
  0
VERTEX
  5
11C
330
11A
100
AcDbEntity
  8
Default
100
AcDbVertex
100
AcDb2dVertex
 10
10.83717182040695
 20
52.94167672632992
 30
0.0
  0
SEQEND
  5
11D
330
11A
100
AcDbEntity
  8
Default
  0
SPLINE
  5
11E
330
1F
100
AcDbEntity
  8
Default
100
AcDbSpline
210
0.0
220
0.0
230
1.0
 70
    12
 71
     2
 72
     8
 73
     5
 74
     0
 42
0.0000000001
 43
0.0000000001
 40
-0.0887191648069352
 40
-0.0887191648069352
 40
-0.0887191648069352
 40
-0.0443595824034676
 40
-0.0443595824034676
 40
0.0
 40
0.0
 40
0.0
 10
10.83717182040695
 20
52.94167672632992
 30
0.0
 41
1.0
 10
10.86060812214565
 20
52.94213170135033
 30
0.0
 41
0.9212309118505145
 10
10.87727712593889
 20
52.92565105955467
 30
0.0
 41
1.0
 10
10.89394612973214
 20
52.909170417759
 30
0.0
 41
0.9212309118505145
 10
10.89375751370002
 20
52.88573045902508
 30
0.0
 41
1.0
  0
POLYLINE
  5
11F
330
1F
100
AcDbEntity
  8
Default
100
AcDb2dPolyline
 66
     1
 10
0.0
 20
0.0
 30
0.0
  0
VERTEX
  5
120
330
11F
100
AcDbEntity
  8
Default
100
AcDbVertex
100
AcDb2dVertex
 10
10.8937575136999
 20
71.11657024812506
 30
0.0
  0
VERTEX
  5
121
330
11F
100
AcDbEntity
  8
Default
100
AcDbVertex
100
AcDb2dVertex
 10
10.89375751369992
 20
69.23275684953286
 30
0.0
  0
SEQEND
  5
122
330
11F
100
AcDbEntity
  8
Default
  0
SPLINE
  5
123
330
1F
100
AcDbEntity
  8
Default
100
AcDbSpline
210
0.0
220
0.0
230
1.0
 70
    12
 71
     2
 72
     8
 73
     5
 74
     0
 42
0.0000000001
 43
0.0000000001
 40
0.0
 40
0.0
 40
0.0
 40
0.0443594898986368
 40
0.0443594898986368
 40
0.0887189797972737
 40
0.0887189797972737
 40
0.0887189797972737
 10
10.89375751369992
 20
69.23275684953286
 30
0.0
 41
1.0
 10
10.89394596433177
 20
69.20931696205429
 30
0.0
 41
0.9212322792887785
 10
10.87727701213413
 20
69.19283637130997
 30
0.0
 41
1.0
 10
10.86060805993653
 20
69.17635578056563
 30
0.0
 41
0.9212322792887785
 10
10.83717182757007
 20
69.17681058944183
 30
0.0
 41
1.0
  0
POLYLINE
  5
124
330
1F
100
AcDbEntity
  8
Default
100
AcDb2dPolyline
 66
     1
 10
0.0
 20
0.0
 30
0.0
  0
VERTEX
  5
125
330
124
100
AcDbEntity
  8
Default
100
AcDbVertex
100
AcDb2dVertex
 10
10.83717182757007
 20
69.17681058944183
 30
0.0
  0
VERTEX
  5
126
330
124
100
AcDbEntity
  8
Default
100
AcDbVertex
100
AcDb2dVertex
 10
10.7724239426109
 20
69.17681058944184
 30
0.0
  0
SEQEND
  5
127
330
124
100
AcDbEntity
  8
Default
  0
LINE
  5
128
330
1F
100
AcDbEntity
  8
Default
100
AcDbLine
 10
10.7724239426109
 20
69.17681058944184
 30
0.0
 11
10.77242394261089
 21
71.17251651542992
 31
0.0
  0
POLYLINE
  5
129
330
1F
100
AcDbEntity
  8
Default
100
AcDb2dPolyline
 66
     1
 10
0.0
 20
0.0
 30
0.0
  0
VERTEX
  5
12A
330
129
100
AcDbEntity
  8
Default
100
AcDbVertex
100
AcDb2dVertex
 10
10.77242394261089
 20
71.17251651542992
 30
0.0
  0
VERTEX
  5
12B
330
129
100
AcDbEntity
  8
Default
100
AcDbVertex
100
AcDb2dVertex
 10
10.83717182040683
 20
71.1725165154299
 30
0.0
  0
SEQEND
  5
12C
330
129
100
AcDbEntity
  8
Default
  0
SPLINE
  5
12D
330
1F
100
AcDbEntity
  8
Default
100
AcDbSpline
210
0.0
220
0.0
230
1.0
 70
    12
 71
     2
 72
     8
 73
     5
 74
     0
 42
0.0000000001
 43
0.0000000001
 40
-0.0887191648069352
 40
-0.0887191648069352
 40
-0.0887191648069352
 40
-0.0443595824034676
 40
-0.0443595824034676
 40
0.0
 40
0.0
 40
0.0
 10
10.83717182040683
 20
71.1725165154299
 30
0.0
 41
1.0
 10
10.86060812214553
 20
71.17297149045032
 30
0.0
 41
0.9212309118505145
 10
10.87727712593877
 20
71.15649084865466
 30
0.0
 41
1.0
 10
10.89394612973202
 20
71.14001020685899
 30
0.0
 41
0.9212309118505145
 10
10.8937575136999
 20
71.11657024812506
 30
0.0
 41
1.0
  0
LINE
  5
12E
330
1F
100
AcDbEntity
  8
Default
  6
Continuous
100
AcDbLine
 10
8.540150672600026
 20
51.81023883291934
 30
0.0
 11
9.602685814500012
 21
51.81023883291935
 31
0.0
  0
LINE
  5
12F
330
1F
100
AcDbEntity
  8
Default
  6
Continuous
100
AcDbLine
 10
10.8047320968999
 20
69.18517984951934
 30
0.0
 11
10.80473209690001
 21
52.93489051871935
 31
0.0
  0
LINE
  5
130
330
1F
100
AcDbEntity
  8
Default
  6
Continuous
100
AcDbLine
 10
10.36723209690001
 20
52.93489029901935
 30
0.0
 11
10.3672320968999
 21
69.18517985651933
 31
0.0
  0
LINE
  5
131
330
1F
100
AcDbEntity
  8
Default
  6
Continuous
100
AcDbLine
 10
9.92009435509991
 20
69.33374034231933
 30
0.0
 11
5.730896477599917
 21
69.3337403423193
 31
0.0
  0
POLYLINE
  5
132
330
1F
100
AcDbEntity
  8
Default
100
AcDb2dPolyline
 66
     1
 10
0.0
 20
0.0
 30
0.0
  0
VERTEX
  5
133
330
132
100
AcDbEntity
  8
Default
100
AcDbVertex
100
AcDb2dVertex
 10
7.568919966054961
 20
68.25092438668182
 30
0.0
  0
VERTEX
  5
134
330
132
100
AcDbEntity
  8
Default
100
AcDbVertex
100
AcDb2dVertex
 10
7.616915168195119
 20
68.16378172752815
 30
0.0
  0
SEQEND
  5
135
330
132
100
AcDbEntity
  8
Default
  0
ARC
  5
136
330
1F
100
AcDbEntity
  8
Default
100
AcDbCircle
 10
334.2731743482885
 20
298.7873832533515
 30
0.0
 40
399.8644235766344
100
AcDbArc
 50
215.2225929887776
 51
215.4361563568463
  0
SPLINE
  5
137
330
1F
100
AcDbEntity
  8
Default
100
AcDbSpline
210
0.0
220
0.0
230
1.0
 70
     8
 71
     3
 72
    18
 73
    14
 74
     0
 42
0.0000000001
 43
0.0000000001
 40
-11.04446704942164
 40
-11.04446704942164
 40
-11.04446704942164
 40
-11.04446704942164
 40
-10.61383137829946
 40
-10.49565764506195
 40
-10.38182066249299
 40
-10.00594223520787
 40
-9.327331098099943
 40
-8.454856792675347
 40
-7.339592750294725
 40
-5.855096042031121
 40
-4.741449960198119
 40
-3.809270731539037
 40
-0.0000000000000004
 40
-0.0000000000000004
 40
-0.0000000000000004
 40
-0.0000000000000004
 10
8.478805063853533
 20
66.94781332442129
 30
0.0
 10
8.561968782291409
 20
66.83094685851073
 30
0.0
 10
8.666105195314792
 20
66.6801581486868
 30
0.0
 10
8.795364608719774
 20
66.50147095995996
 30
0.0
 10
8.901904303125402
 20
66.32361762142507
 30
0.0
 10
9.038438007093587
 20
65.95584016273018
 30
0.0
 10
9.137514888462308
 20
65.31949397973673
 30
0.0
 10
9.183371026359177
 20
64.4314571916218
 30
0.0
 10
9.178606033389416
 20
63.27375942489495
 30
0.0
 10
9.13501320101977
 20
62.03667969392176
 30
0.0
 10
9.07066097558911
 20
60.86161798369116
 30
0.0
 10
8.95584837189874
 20
58.91332022684917
 30
0.0
 10
8.864149792267424
 20
57.33548327355182
 30
0.0
 10
8.789674216623474
 20
56.0679178141915
 30
0.0
  0
ARC
  5
138
330
1F
100
AcDbEntity
  8
Default
100
AcDbCircle
 10
32002.36618652691
 20
-1823.708791211625
 30
0.0
 40
32048.7519027629
100
AcDbArc
 50
176.637462750995
 51
176.645224567206
  0
ARC
  5
139
330
1F
100
AcDbEntity
  8
Default
100
AcDbCircle
 10
8.159359933635336
 20
51.75579291654309
 30
0.0
 40
0.3766012876736257
100
AcDbArc
 50
279.6757155923665
 51
356.6452245672131
  0
SPLINE
  5
13A
330
1F
100
AcDbEntity
  8
Default
100
AcDbSpline
210
0.0
220
0.0
230
1.0
 70
    12
 71
     2
 72
     6
 73
     3
 74
     0
 42
0.0000000001
 43
0.0000000001
 40
-8.275528837056001
 40
-8.275528837056001
 40
-8.275528837056001
 40
0.0
 40
0.0
 40
0.0
 10
8.222655907482428
 20
51.38454885992779
 30
0.0
 41
1.0
 10
4.151248751424078
 20
50.5742865536554
 30
0.0
 41
0.9951340748191598
 10
0.0000000000000142
 20
50.57816459041928
 30
0.0
 41
1.0
  0
SPLINE
  5
13B
330
1F
100
AcDbEntity
  8
Default
100
AcDbSpline
210
0.0
220
0.0
230
1.0
 70
    12
 71
     3
 72
    14
 73
    10
 74
     0
 42
0.0000000001
 43
0.0000000001
 40
-2.382636799938624
 40
-2.382636799938624
 40
-2.382636799938624
 40
-2.382636799938624
 40
-1.382636799938624
 40
-0.3826367999386246
 40
-0.3826367999386246
 40
-0.3826367999386246
 40
-0.2729743886858338
 40
-0.1509122625360565
 40
0.0
 40
0.0
 40
0.0
 40
0.0
 10
-0.0000000000001177
 20
70.62321560807067
 30
0.0
 41
1.0
 10
1.282456564702495
 20
70.62341000624717
 30
0.0
 41
1.0
 10
3.848418151443722
 20
70.25309470903048
 30
0.0
 41
1.0
 10
6.200655949874664
 20
69.16630781266602
 30
0.0
 41
1.0
 10
7.282456947120789
 20
68.47680296426093
 30
0.0
 41
1.0
 10
7.314217370003841
 20
68.45751156389196
 30
0.0
 41
1.0
 10
7.378547819528176
 20
68.41465940248088
 30
0.0
 41
1.0
 10
7.465101683346272
 20
68.34677544732116
 30
0.0
 41
1.0
 10
7.534590308965432
 20
68.28809901475961
 30
0.0
 41
1.0
 10
7.568919966054961
 20
68.25092438668182
 30
0.0
 41
1.0
  0
LINE
  5
13C
330
1F
100
AcDbEntity
  8
Default
  6
Continuous
100
AcDbLine
 10
-10.80482444428126
 20
50.94597080034178
 30
0.0
 11
-10.80454286
 21
50.84178494121928
 31
0.0
  0
POLYLINE
  5
13D
330
1F
100
AcDbEntity
  8
Default
  6
Continuous
100
AcDb2dPolyline
 66
     1
 10
0.0
 20
0.0
 30
0.0
  0
VERTEX
  5
13E
330
13D
100
AcDbEntity
  8
Default
  6
Continuous
100
AcDbVertex
100
AcDb2dVertex
 10
-10.80454286
 20
50.84178494121928
 30
0.0
  0
VERTEX
  5
13F
330
13D
100
AcDbEntity
  8
Default
  6
Continuous
100
AcDbVertex
100
AcDb2dVertex
 10
-10.8042695906
 20
50.78669284781928
 30
0.0
  0
VERTEX
  5
140
330
13D
100
AcDbEntity
  8
Default
  6
Continuous
100
AcDbVertex
100
AcDb2dVertex
 10
-10.8038642188
 20
50.73238825111928
 30
0.0
  0
VERTEX
  5
141
330
13D
100
AcDbEntity
  8
Default
  6
Continuous
100
AcDbVertex
100
AcDb2dVertex
 10
-10.8033177218
 20
50.67905035521928
 30
0.0
  0
VERTEX
  5
142
330
13D
100
AcDbEntity
  8
Default
  6
Continuous
100
AcDbVertex
100
AcDb2dVertex
 10
-10.8026224683
 20
50.62691062321928
 30
0.0
  0
VERTEX
  5
143
330
13D
100
AcDbEntity
  8
Default
  6
Continuous
100
AcDbVertex
100
AcDb2dVertex
 10
-10.8017698119
 20
50.57609526941928
 30
0.0
  0
VERTEX
  5
144
330
13D
100
AcDbEntity
  8
Default
  6
Continuous
100
AcDbVertex
100
AcDb2dVertex
 10
-10.8007512921
 20
50.52679454631928
 30
0.0
  0
VERTEX
  5
145
330
13D
100
AcDbEntity
  8
Default
  6
Continuous
100
AcDbVertex
100
AcDb2dVertex
 10
-10.79956030160001
 20
50.47927657081928
 30
0.0
  0
VERTEX
  5
146
330
13D
100
AcDbEntity
  8
Default
  6
Continuous
100
AcDbVertex
100
AcDb2dVertex
 10
-10.79817871990001
 20
50.43340582261928
 30
0.0
  0
VERTEX
  5
147
330
13D
100
AcDbEntity
  8
Default
  6
Continuous
100
AcDbVertex
100
AcDb2dVertex
 10
-10.7966048672
 20
50.38957033931928
 30
0.0
  0
VERTEX
  5
148
330
13D
100
AcDbEntity
  8
Default
  6
Continuous
100
AcDbVertex
100
AcDb2dVertex
 10
-10.79486529899999
 20
50.34858045291928
 30
0.0
  0
VERTEX
  5
149
330
13D
100
AcDbEntity
  8
Default
  6
Continuous
100
AcDbVertex
100
AcDb2dVertex
 10
-10.7929598967
 20
50.31039458571928
 30
0.0
  0
VERTEX
  5
14A
330
13D
100
AcDbEntity
  8
Default
  6
Continuous
100
AcDbVertex
100
AcDb2dVertex
 10
-10.7908810314
 20
50.27490317031928
 30
0.0
  0
VERTEX
  5
14B
330
13D
100
AcDbEntity
  8
Default
  6
Continuous
100
AcDbVertex
100
AcDb2dVertex
 10
-10.78865351270001
 20
50.24244658931928
 30
0.0
  0
VERTEX
  5
14C
330
13D
100
AcDbEntity
  8
Default
  6
Continuous
100
AcDbVertex
100
AcDb2dVertex
 10
-10.78628509630001
 20
50.21289816381928
 30
0.0
  0
VERTEX
  5
14D
330
13D
100
AcDbEntity
  8
Default
  6
Continuous
100
AcDbVertex
100
AcDb2dVertex
 10
-10.78376387690001
 20
50.18593803831928
 30
0.0
  0
VERTEX
  5
14E
330
13D
100
AcDbEntity
  8
Default
  6
Continuous
100
AcDbVertex
100
AcDb2dVertex
 10
-10.7810779056
 20
50.16134441661928
 30
0.0
  0
VERTEX
  5
14F
330
13D
100
AcDbEntity
  8
Default
  6
Continuous
100
AcDbVertex
100
AcDb2dVertex
 10
-10.7782221776
 20
50.13898868511928
 30
0.0
  0
SEQEND
  5
150
330
13D
100
AcDbEntity
  8
Default
  6
Continuous
  0
LINE
  5
151
330
1F
100
AcDbEntity
  8
Default
  6
Continuous
100
AcDbLine
 10
-10.7782221776
 20
50.13898868511928
 30
0.0
 11
-10.7749405756
 21
50.11718261101928
 31
0.0
  0
ARC
  5
152
330
1F
100
AcDbEntity
  8
Default
  6
Continuous
100
AcDbCircle
 10
-10.39212978639879
 20
50.17479191041466
 30
0.0
 40
0.38712133977046
100
AcDbArc
 50
188.5582359618282
 51
212.1983875809579
  0
POLYLINE
  5
153
330
1F
100
AcDbEntity
  8
Default
  6
Continuous
100
AcDb2dPolyline
 66
     1
 10
0.0
 20
0.0
 30
0.0
  0
VERTEX
  5
154
330
153
100
AcDbEntity
  8
Default
  6
Continuous
100
AcDbVertex
100
AcDb2dVertex
 10
-10.71971502380001
 20
49.96851335131928
 30
0.0
  0
VERTEX
  5
155
330
153
100
AcDbEntity
  8
Default
  6
Continuous
100
AcDbVertex
100
AcDb2dVertex
 10
-10.7023656491
 20
49.94744025751928
 30
0.0
  0
VERTEX
  5
156
330
153
100
AcDbEntity
  8
Default
  6
Continuous
100
AcDbVertex
100
AcDb2dVertex
 10
-10.6820455987
 20
49.92796988731928
 30
0.0
  0
VERTEX
  5
157
330
153
100
AcDbEntity
  8
Default
  6
Continuous
100
AcDbVertex
100
AcDb2dVertex
 10
-10.65893757720001
 20
49.91074521901928
 30
0.0
  0
VERTEX
  5
158
330
153
100
AcDbEntity
  8
Default
  6
Continuous
100
AcDbVertex
100
AcDb2dVertex
 10
-10.63292463340001
 20
49.89612959931928
 30
0.0
  0
VERTEX
  5
159
330
153
100
AcDbEntity
  8
Default
  6
Continuous
100
AcDbVertex
100
AcDb2dVertex
 10
-10.6047959582
 20
49.88492423561928
 30
0.0
  0
VERTEX
  5
15A
330
153
100
AcDbEntity
  8
Default
  6
Continuous
100
AcDbVertex
100
AcDb2dVertex
 10
-10.57488275690001
 20
49.87749263101928
 30
0.0
  0
VERTEX
  5
15B
330
153
100
AcDbEntity
  8
Default
  6
Continuous
100
AcDbVertex
100
AcDb2dVertex
 10
-10.5437529437
 20
49.87420175721928
 30
0.0
  0
VERTEX
  5
15C
330
153
100
AcDbEntity
  8
Default
  6
Continuous
100
AcDbVertex
100
AcDb2dVertex
 10
-10.51284595380001
 20
49.87522767431928
 30
0.0
  0
VERTEX
  5
15D
330
153
100
AcDbEntity
  8
Default
  6
Continuous
100
AcDbVertex
100
AcDb2dVertex
 10
-10.4826139938
 20
49.88042207901928
 30
0.0
  0
VERTEX
  5
15E
330
153
100
AcDbEntity
  8
Default
  6
Continuous
100
AcDbVertex
100
AcDb2dVertex
 10
-10.4536882635
 20
49.88954229651928
 30
0.0
  0
VERTEX
  5
15F
330
153
100
AcDbEntity
  8
Default
  6
Continuous
100
AcDbVertex
100
AcDb2dVertex
 10
-10.42758568080001
 20
49.90169935101928
 30
0.0
  0
VERTEX
  5
160
330
153
100
AcDbEntity
  8
Default
  6
Continuous
100
AcDbVertex
100
AcDb2dVertex
 10
-10.4045015551
 20
49.91612122981928
 30
0.0
  0
VERTEX
  5
161
330
153
100
AcDbEntity
  8
Default
  6
Continuous
100
AcDbVertex
100
AcDb2dVertex
 10
-10.384348274
 20
49.93218236091928
 30
0.0
  0
VERTEX
  5
162
330
153
100
AcDbEntity
  8
Default
  6
Continuous
100
AcDbVertex
100
AcDb2dVertex
 10
-10.3676557272
 20
49.94859969971928
 30
0.0
  0
VERTEX
  5
163
330
153
100
AcDbEntity
  8
Default
  6
Continuous
100
AcDbVertex
100
AcDb2dVertex
 10
-10.3543098911
 20
49.96434972001928
 30
0.0
  0
VERTEX
  5
164
330
153
100
AcDbEntity
  8
Default
  6
Continuous
100
AcDbVertex
100
AcDb2dVertex
 10
-10.3435169162
 20
49.97929084481928
 30
0.0
  0
VERTEX
  5
165
330
153
100
AcDbEntity
  8
Default
  6
Continuous
100
AcDbVertex
100
AcDb2dVertex
 10
-10.3346220577
 20
49.99349300231928
 30
0.0
  0
VERTEX
  5
166
330
153
100
AcDbEntity
  8
Default
  6
Continuous
100
AcDbVertex
100
AcDb2dVertex
 10
-10.3273899628
 20
50.00660712051928
 30
0.0
  0
VERTEX
  5
167
330
153
100
AcDbEntity
  8
Default
  6
Continuous
100
AcDbVertex
100
AcDb2dVertex
 10
-10.32145346290001
 20
50.01863851291928
 30
0.0
  0
VERTEX
  5
168
330
153
100
AcDbEntity
  8
Default
  6
Continuous
100
AcDbVertex
100
AcDb2dVertex
 10
-10.3162065475
 20
50.03038032021928
 30
0.0
  0
VERTEX
  5
169
330
153
100
AcDbEntity
  8
Default
  6
Continuous
100
AcDbVertex
100
AcDb2dVertex
 10
-10.31279731485
 20
50.03863236556928
 30
0.0
  0
SEQEND
  5
16A
330
153
100
AcDbEntity
  8
Default
  6
Continuous
  0
LINE
  5
16B
330
1F
100
AcDbEntity
  8
Default
  6
Continuous
100
AcDbLine
 10
-10.31279731485
 20
50.03863236556928
 30
0.0
 11
-9.778048548300006
 21
51.37273883291928
 31
0.0
  0
ARC
  5
16C
330
1F
100
AcDbEntity
  8
Default
  6
Continuous
100
AcDbCircle
 10
-9.897321579000007
 20
51.56858139304771
 30
0.0
 40
0.1958425601284262
100
AcDbArc
 50
261.5690336038604
 51
270.0
  0
LINE
  5
16D
330
1F
100
AcDbEntity
  8
Default
  6
Continuous
100
AcDbLine
 10
-9.897321579000007
 20
51.37273883291928
 30
0.0
 11
-8.160061190700006
 21
51.37273883291928
 31
0.0
  0
ARC
  5
16E
330
1F
100
AcDbEntity
  8
Default
  6
Continuous
100
AcDbCircle
 10
-9.957812090785195
 20
51.63879512659727
 30
0.0
 40
0.2658458247103797
100
AcDbArc
 50
276.8649738920305
 51
338.1576502795273
  0
LINE
  5
16F
330
1F
100
AcDbEntity
  8
Default
  6
Continuous
100
AcDbLine
 10
-9.711051050800009
 20
51.53988611961928
 30
0.0
 11
-8.901225009212094
 21
53.56026345768912
 31
0.0
  0
POLYLINE
  5
170
330
1F
100
AcDbEntity
  8
Default
  6
Continuous
100
AcDb2dPolyline
 66
     1
 10
0.0
 20
0.0
 30
0.0
  0
VERTEX
  5
171
330
170
100
AcDbEntity
  8
Default
  6
Continuous
100
AcDbVertex
100
AcDb2dVertex
 10
-8.901225009212094
 20
53.56026345768912
 30
0.0
  0
VERTEX
  5
172
330
170
100
AcDbEntity
  8
Default
  6
Continuous
100
AcDbVertex
100
AcDb2dVertex
 10
-8.888349033099999
 20
53.56322465741928
 30
0.0
  0
VERTEX
  5
173
330
170
100
AcDbEntity
  8
Default
  6
Continuous
100
AcDbVertex
100
AcDb2dVertex
 10
-8.871839535900008
 20
53.56676921661928
 30
0.0
  0
VERTEX
  5
174
330
170
100
AcDbEntity
  8
Default
  6
Continuous
100
AcDbVertex
100
AcDb2dVertex
 10
-8.8536161639
 20
53.57044568961928
 30
0.0
  0
VERTEX
  5
175
330
170
100
AcDbEntity
  8
Default
  6
Continuous
100
AcDbVertex
100
AcDb2dVertex
 10
-8.833979769599992
 20
53.57418516111928
 30
0.0
  0
VERTEX
  5
176
330
170
100
AcDbEntity
  8
Default
  6
Continuous
100
AcDbVertex
100
AcDb2dVertex
 10
-8.8130102059
 20
53.57796419791928
 30
0.0
  0
VERTEX
  5
177
330
170
100
AcDbEntity
  8
Default
  6
Continuous
100
AcDbVertex
100
AcDb2dVertex
 10
-8.790679016300004
 20
53.58177298411928
 30
0.0
  0
VERTEX
  5
178
330
170
100
AcDbEntity
  8
Default
  6
Continuous
100
AcDbVertex
100
AcDb2dVertex
 10
-8.767099785300005
 20
53.58557051171928
 30
0.0
  0
VERTEX
  5
179
330
170
100
AcDbEntity
  8
Default
  6
Continuous
100
AcDbVertex
100
AcDb2dVertex
 10
-8.742353194399996
 20
53.58931649651928
 30
0.0
  0
VERTEX
  5
17A
330
170
100
AcDbEntity
  8
Default
  6
Continuous
100
AcDbVertex
100
AcDb2dVertex
 10
-8.716396077499994
 20
53.59298189241928
 30
0.0
  0
VERTEX
  5
17B
330
170
100
AcDbEntity
  8
Default
  6
Continuous
100
AcDbVertex
100
AcDb2dVertex
 10
-8.689155897800006
 20
53.59653828561928
 30
0.0
  0
VERTEX
  5
17C
330
170
100
AcDbEntity
  8
Default
  6
Continuous
100
AcDbVertex
100
AcDb2dVertex
 10
-8.660645617200004
 20
53.59998306231928
 30
0.0
  0
VERTEX
  5
17D
330
170
100
AcDbEntity
  8
Default
  6
Continuous
100
AcDbVertex
100
AcDb2dVertex
 10
-8.645225916000001
 20
53.60171532851928
 30
0.0
  0
SEQEND
  5
17E
330
170
100
AcDbEntity
  8
Default
  6
Continuous
  0
POLYLINE
  5
17F
330
1F
100
AcDbEntity
  8
Default
  6
Continuous
100
AcDb2dPolyline
 66
     1
 10
0.0
 20
0.0
 30
0.0
  0
VERTEX
  5
180
330
17F
100
AcDbEntity
  8
Default
  6
Continuous
100
AcDbVertex
100
AcDb2dVertex
 10
-8.671035364600002
 20
54.03936864311928
 30
0.0
  0
VERTEX
  5
181
330
17F
100
AcDbEntity
  8
Default
  6
Continuous
100
AcDbVertex
100
AcDb2dVertex
 10
-8.677279885000004
 20
54.03869565191928
 30
0.0
  0
VERTEX
  5
182
330
17F
100
AcDbEntity
  8
Default
  6
Continuous
100
AcDbVertex
100
AcDb2dVertex
 10
-8.7173945232
 20
54.03397265351928
 30
0.0
  0
VERTEX
  5
183
330
17F
100
AcDbEntity
  8
Default
  6
Continuous
100
AcDbVertex
100
AcDb2dVertex
 10
-8.755932675500006
 20
54.02908138411928
 30
0.0
  0
VERTEX
  5
184
330
17F
100
AcDbEntity
  8
Default
  6
Continuous
100
AcDbVertex
100
AcDb2dVertex
 10
-8.792816341700004
 20
54.02409347741928
 30
0.0
  0
VERTEX
  5
185
330
17F
100
AcDbEntity
  8
Default
  6
Continuous
100
AcDbVertex
100
AcDb2dVertex
 10
-8.828042610400004
 20
54.01901147691928
 30
0.0
  0
VERTEX
  5
186
330
17F
100
AcDbEntity
  8
Default
  6
Continuous
100
AcDbVertex
100
AcDb2dVertex
 10
-8.861769038100007
 20
54.01377279011928
 30
0.0
  0
VERTEX
  5
187
330
17F
100
AcDbEntity
  8
Default
  6
Continuous
100
AcDbVertex
100
AcDb2dVertex
 10
-8.893999059699993
 20
54.00834764741928
 30
0.0
  0
VERTEX
  5
188
330
17F
100
AcDbEntity
  8
Default
  6
Continuous
100
AcDbVertex
100
AcDb2dVertex
 10
-8.924720737800001
 20
54.00272222981928
 30
0.0
  0
VERTEX
  5
189
330
17F
100
AcDbEntity
  8
Default
  6
Continuous
100
AcDbVertex
100
AcDb2dVertex
 10
-8.954069508500012
 20
53.99686515071928
 30
0.0
  0
VERTEX
  5
18A
330
17F
100
AcDbEntity
  8
Default
  6
Continuous
100
AcDbVertex
100
AcDb2dVertex
 10
-8.982006454200004
 20
53.99078599581928
 30
0.0
  0
VERTEX
  5
18B
330
17F
100
AcDbEntity
  8
Default
  6
Continuous
100
AcDbVertex
100
AcDb2dVertex
 10
-9.008478298300005
 20
53.98451081111928
 30
0.0
  0
VERTEX
  5
18C
330
17F
100
AcDbEntity
  8
Default
  6
Continuous
100
AcDbVertex
100
AcDb2dVertex
 10
-9.033671910600006
 20
53.97801290531928
 30
0.0
  0
VERTEX
  5
18D
330
17F
100
AcDbEntity
  8
Default
  6
Continuous
100
AcDbVertex
100
AcDb2dVertex
 10
-9.057622225999992
 20
53.97124619251928
 30
0.0
  0
VERTEX
  5
18E
330
17F
100
AcDbEntity
  8
Default
  6
Continuous
100
AcDbVertex
100
AcDb2dVertex
 10
-9.0803513141
 20
53.96412210751928
 30
0.0
  0
VERTEX
  5
18F
330
17F
100
AcDbEntity
  8
Default
  6
Continuous
100
AcDbVertex
100
AcDb2dVertex
 10
-9.102272478399996
 20
53.95640405391928
 30
0.0
  0
VERTEX
  5
190
330
17F
100
AcDbEntity
  8
Default
  6
Continuous
100
AcDbVertex
100
AcDb2dVertex
 10
-9.123428651300003
 20
53.94793531651928
 30
0.0
  0
VERTEX
  5
191
330
17F
100
AcDbEntity
  8
Default
  6
Continuous
100
AcDbVertex
100
AcDb2dVertex
 10
-9.144012286600002
 20
53.93845943051928
 30
0.0
  0
VERTEX
  5
192
330
17F
100
AcDbEntity
  8
Default
  6
Continuous
100
AcDbVertex
100
AcDb2dVertex
 10
-9.164835662399994
 20
53.92726921231928
 30
0.0
  0
VERTEX
  5
193
330
17F
100
AcDbEntity
  8
Default
  6
Continuous
100
AcDbVertex
100
AcDb2dVertex
 10
-9.186314163999995
 20
53.91352320351928
 30
0.0
  0
VERTEX
  5
194
330
17F
100
AcDbEntity
  8
Default
  6
Continuous
100
AcDbVertex
100
AcDb2dVertex
 10
-9.207716699800002
 20
53.89687652391928
 30
0.0
  0
VERTEX
  5
195
330
17F
100
AcDbEntity
  8
Default
  6
Continuous
100
AcDbVertex
100
AcDb2dVertex
 10
-9.2280809274
 20
53.87728740851928
 30
0.0
  0
VERTEX
  5
196
330
17F
100
AcDbEntity
  8
Default
  6
Continuous
100
AcDbVertex
100
AcDb2dVertex
 10
-9.2471065541
 20
53.85414762981928
 30
0.0
  0
VERTEX
  5
197
330
17F
100
AcDbEntity
  8
Default
  6
Continuous
100
AcDbVertex
100
AcDb2dVertex
 10
-9.263865878900006
 20
53.82744387521928
 30
0.0
  0
VERTEX
  5
198
330
17F
100
AcDbEntity
  8
Default
  6
Continuous
100
AcDbVertex
100
AcDb2dVertex
 10
-9.275154350398408
 20
53.80327765011982
 30
0.0
  0
SEQEND
  5
199
330
17F
100
AcDbEntity
  8
Default
  6
Continuous
  0
ARC
  5
19A
330
1F
100
AcDbEntity
  8
Default
  6
Continuous
100
AcDbCircle
 10
25431.03970950525
 20
-10143.53793132609
 30
0.0
 40
27407.94388684418
100
AcDbArc
 50
158.1574124758845
 51
158.1576506189295
  0
LINE
  5
19B
330
1F
100
AcDbEntity
  8
Default
  6
Continuous
100
AcDbLine
 10
-9.317538158000005
 20
53.69753794041928
 30
0.0
 11
-10.7189678622
 21
50.20121068231928
 31
0.0
  0
LINE
  5
19C
330
1F
100
AcDbEntity
  8
Default
100
AcDbLine
 10
-10.3983334286
 20
51.00113871775442
 30
0.0
 11
-10.3983334286
 21
52.94167672632987
 31
0.0
  0
POLYLINE
  5
19D
330
1F
100
AcDbEntity
  8
Default
100
AcDb2dPolyline
 66
     1
 10
0.0
 20
0.0
 30
0.0
  0
VERTEX
  5
19E
330
19D
100
AcDbEntity
  8
Default
100
AcDbVertex
100
AcDb2dVertex
 10
-10.3983334286
 20
52.94167672632987
 30
0.0
  0
VERTEX
  5
19F
330
19D
100
AcDbEntity
  8
Default
100
AcDbVertex
100
AcDb2dVertex
 10
-10.33358555080406
 20
52.94167672632985
 30
0.0
  0
SEQEND
  5
1A0
330
19D
100
AcDbEntity
  8
Default
  0
SPLINE
  5
1A1
330
1F
100
AcDbEntity
  8
Default
100
AcDbSpline
210
0.0
220
0.0
230
1.0
 70
    12
 71
     2
 72
     8
 73
     5
 74
     0
 42
0.0000000001
 43
0.0000000001
 40
-0.0887191648069352
 40
-0.0887191648069352
 40
-0.0887191648069352
 40
-0.0443595824034676
 40
-0.0443595824034676
 40
0.0
 40
0.0
 40
0.0
 10
-10.33358555080406
 20
52.94167672632985
 30
0.0
 41
1.0
 10
-10.31014924906535
 20
52.94213170135026
 30
0.0
 41
0.9212309118505145
 10
-10.29348024527212
 20
52.9256510595546
 30
0.0
 41
1.0
 10
-10.27681124147887
 20
52.90917041775893
 30
0.0
 41
0.9212309118505145
 10
-10.27699985751099
 20
52.88573045902501
 30
0.0
 41
1.0
  0
POLYLINE
  5
1A2
330
1F
100
AcDbEntity
  8
Default
100
AcDb2dPolyline
 66
     1
 10
0.0
 20
0.0
 30
0.0
  0
VERTEX
  5
1A3
330
1A2
100
AcDbEntity
  8
Default
100
AcDbVertex
100
AcDb2dVertex
 10
-10.27699985751099
 20
52.88573045902501
 30
0.0
  0
VERTEX
  5
1A4
330
1A2
100
AcDbEntity
  8
Default
100
AcDbVertex
100
AcDb2dVertex
 10
-10.27699985751099
 20
51.30384521145135
 30
0.0
  0
SEQEND
  5
1A5
330
1A2
100
AcDbEntity
  8
Default
  0
LINE
  5
1A6
330
1F
100
AcDbEntity
  8
Default
100
AcDbLine
 10
-9.988427441799999
 20
69.77124034231926
 30
0.0
 11
-10.3330508177
 21
71.97765863711928
 31
0.0
  0
POLYLINE
  5
1A7
330
1F
100
AcDbEntity
  8
Default
100
AcDb2dPolyline
 66
     1
 10
0.0
 20
0.0
 30
0.0
  0
VERTEX
  5
1A8
330
1A7
100
AcDbEntity
  8
Default
100
AcDbVertex
100
AcDb2dVertex
 10
-10.3330508177
 20
71.97765863711928
 30
0.0
  0
VERTEX
  5
1A9
330
1A7
100
AcDbEntity
  8
Default
100
AcDbVertex
100
AcDb2dVertex
 10
-10.3346570482
 20
71.98720451121926
 30
0.0
  0
VERTEX
  5
1AA
330
1A7
100
AcDbEntity
  8
Default
100
AcDbVertex
100
AcDb2dVertex
 10
-10.3363980055
 20
71.99645898131928
 30
0.0
  0
VERTEX
  5
1AB
330
1A7
100
AcDbEntity
  8
Default
100
AcDbVertex
100
AcDb2dVertex
 10
-10.33851133360001
 20
72.00639859931925
 30
0.0
  0
VERTEX
  5
1AC
330
1A7
100
AcDbEntity
  8
Default
100
AcDbVertex
100
AcDb2dVertex
 10
-10.34108509880001
 20
72.01695238701927
 30
0.0
  0
VERTEX
  5
1AD
330
1A7
100
AcDbEntity
  8
Default
100
AcDbVertex
100
AcDb2dVertex
 10
-10.3442817561
 20
72.02824743751927
 30
0.0
  0
VERTEX
  5
1AE
330
1A7
100
AcDbEntity
  8
Default
100
AcDbVertex
100
AcDb2dVertex
 10
-10.348713464
 20
72.04151867271926
 30
0.0
  0
VERTEX
  5
1AF
330
1A7
100
AcDbEntity
  8
Default
100
AcDbVertex
100
AcDb2dVertex
 10
-10.35502957850001
 20
72.05719777551926
 30
0.0
  0
VERTEX
  5
1B0
330
1A7
100
AcDbEntity
  8
Default
100
AcDbVertex
100
AcDb2dVertex
 10
-10.3636014925
 20
72.07457098741926
 30
0.0
  0
VERTEX
  5
1B1
330
1A7
100
AcDbEntity
  8
Default
100
AcDbVertex
100
AcDb2dVertex
 10
-10.37484946089999
 20
72.09305125341928
 30
0.0
  0
VERTEX
  5
1B2
330
1A7
100
AcDbEntity
  8
Default
100
AcDbVertex
100
AcDb2dVertex
 10
-10.3895438954
 20
72.11245873551925
 30
0.0
  0
VERTEX
  5
1B3
330
1A7
100
AcDbEntity
  8
Default
100
AcDbVertex
100
AcDb2dVertex
 10
-10.40802927030001
 20
72.13182419231927
 30
0.0
  0
VERTEX
  5
1B4
330
1A7
100
AcDbEntity
  8
Default
100
AcDbVertex
100
AcDb2dVertex
 10
-10.42960542100001
 20
72.14947755441926
 30
0.0
  0
VERTEX
  5
1B5
330
1A7
100
AcDbEntity
  8
Default
100
AcDbVertex
100
AcDb2dVertex
 10
-10.4541000559
 20
72.16475028721928
 30
0.0
  0
VERTEX
  5
1B6
330
1A7
100
AcDbEntity
  8
Default
100
AcDbVertex
100
AcDb2dVertex
 10
-10.4814525045
 20
72.17710127671927
 30
0.0
  0
VERTEX
  5
1B7
330
1A7
100
AcDbEntity
  8
Default
100
AcDbVertex
100
AcDb2dVertex
 10
-10.51042483960001
 20
72.18566743061928
 30
0.0
  0
VERTEX
  5
1B8
330
1A7
100
AcDbEntity
  8
Default
100
AcDbVertex
100
AcDb2dVertex
 10
-10.5403933204
 20
72.19019700221926
 30
0.0
  0
VERTEX
  5
1B9
330
1A7
100
AcDbEntity
  8
Default
100
AcDbVertex
100
AcDb2dVertex
 10
-10.57090938360001
 20
72.19055666061925
 30
0.0
  0
VERTEX
  5
1BA
330
1A7
100
AcDbEntity
  8
Default
100
AcDbVertex
100
AcDb2dVertex
 10
-10.6007696421
 20
72.18677516771928
 30
0.0
  0
VERTEX
  5
1BB
330
1A7
100
AcDbEntity
  8
Default
100
AcDbVertex
100
AcDb2dVertex
 10
-10.62949775369999
 20
72.17907383831925
 30
0.0
  0
VERTEX
  5
1BC
330
1A7
100
AcDbEntity
  8
Default
100
AcDbVertex
100
AcDb2dVertex
 10
-10.6565578931
 20
72.16775968821926
 30
0.0
  0
VERTEX
  5
1BD
330
1A7
100
AcDbEntity
  8
Default
100
AcDbVertex
100
AcDb2dVertex
 10
-10.68086853230001
 20
72.15363770381927
 30
0.0
  0
VERTEX
  5
1BE
330
1A7
100
AcDbEntity
  8
Default
100
AcDbVertex
100
AcDb2dVertex
 10
-10.7022768872
 20
72.13733845161926
 30
0.0
  0
VERTEX
  5
1BF
330
1A7
100
AcDbEntity
  8
Default
100
AcDbVertex
100
AcDb2dVertex
 10
-10.7207496069
 20
72.11944898361926
 30
0.0
  0
VERTEX
  5
1C0
330
1A7
100
AcDbEntity
  8
Default
100
AcDbVertex
100
AcDb2dVertex
 10
-10.73588133130001
 20
72.10113432941927
 30
0.0
  0
VERTEX
  5
1C1
330
1A7
100
AcDbEntity
  8
Default
100
AcDbVertex
100
AcDb2dVertex
 10
-10.74792769050001
 20
72.08312643121926
 30
0.0
  0
SEQEND
  5
1C2
330
1A7
100
AcDbEntity
  8
Default
  0
SPLINE
  5
1C3
330
1F
100
AcDbEntity
  8
Default
100
AcDbSpline
210
0.0
220
0.0
230
1.0
 70
     8
 71
     3
 72
     8
 73
     4
 74
     0
 42
0.0000000001
 43
0.0000000001
 40
-1.0
 40
-1.0
 40
-1.0
 40
-1.0
 40
0.0
 40
0.0
 40
0.0
 40
0.0
 10
-10.74792769050001
 20
72.08312643121926
 30
0.0
 10
-10.79312866174442
 20
72.01555626539596
 30
0.0
 10
-10.79255114543924
 20
71.88952148745018
 30
0.0
 10
-10.7960279815
 20
71.79993233211925
 30
0.0
  0
POLYLINE
  5
1C4
330
1F
100
AcDbEntity
  8
Default
100
AcDb2dPolyline
 66
     1
 10
0.0
 20
0.0
 30
0.0
  0
VERTEX
  5
1C5
330
1C4
100
AcDbEntity
  8
Default
100
AcDbVertex
100
AcDb2dVertex
 10
-10.7960279815
 20
71.79993233211925
 30
0.0
  0
VERTEX
  5
1C6
330
1C4
100
AcDbEntity
  8
Default
100
AcDbVertex
100
AcDb2dVertex
 10
-10.7968564193
 20
71.77858561301926
 30
0.0
  0
VERTEX
  5
1C7
330
1C4
100
AcDbEntity
  8
Default
100
AcDbVertex
100
AcDb2dVertex
 10
-10.7976505363
 20
71.75605428461927
 30
0.0
  0
VERTEX
  5
1C8
330
1C4
100
AcDbEntity
  8
Default
100
AcDbVertex
100
AcDb2dVertex
 10
-10.79840963630001
 20
71.73230867131926
 30
0.0
  0
VERTEX
  5
1C9
330
1C4
100
AcDbEntity
  8
Default
100
AcDbVertex
100
AcDb2dVertex
 10
-10.7991299843
 20
71.70742042191927
 30
0.0
  0
VERTEX
  5
1CA
330
1C4
100
AcDbEntity
  8
Default
100
AcDbVertex
100
AcDb2dVertex
 10
-10.7998122657
 20
71.68132302911926
 30
0.0
  0
VERTEX
  5
1CB
330
1C4
100
AcDbEntity
  8
Default
100
AcDbVertex
100
AcDb2dVertex
 10
-10.8004551431
 20
71.65401205101927
 30
0.0
  0
VERTEX
  5
1CC
330
1C4
100
AcDbEntity
  8
Default
100
AcDbVertex
100
AcDb2dVertex
 10
-10.80105291630001
 20
71.62570050471928
 30
0.0
  0
VERTEX
  5
1CD
330
1C4
100
AcDbEntity
  8
Default
100
AcDbVertex
100
AcDb2dVertex
 10
-10.80160507940001
 20
71.59641259001927
 30
0.0
  0
VERTEX
  5
1CE
330
1C4
100
AcDbEntity
  8
Default
100
AcDbVertex
100
AcDb2dVertex
 10
-10.8021122791
 20
71.56612515961928
 30
0.0
  0
VERTEX
  5
1CF
330
1C4
100
AcDbEntity
  8
Default
100
AcDbVertex
100
AcDb2dVertex
 10
-10.8025722065
 20
71.53504103431928
 30
0.0
  0
VERTEX
  5
1D0
330
1C4
100
AcDbEntity
  8
Default
100
AcDbVertex
100
AcDb2dVertex
 10
-10.8029851141
 20
71.50324977261926
 30
0.0
  0
VERTEX
  5
1D1
330
1C4
100
AcDbEntity
  8
Default
100
AcDbVertex
100
AcDb2dVertex
 10
-10.8033524806
 20
71.47074176401927
 30
0.0
  0
VERTEX
  5
1D2
330
1C4
100
AcDbEntity
  8
Default
100
AcDbVertex
100
AcDb2dVertex
 10
-10.8036745158
 20
71.43759725431926
 30
0.0
  0
VERTEX
  5
1D3
330
1C4
100
AcDbEntity
  8
Default
100
AcDbVertex
100
AcDb2dVertex
 10
-10.8039518456
 20
71.40385711151927
 30
0.0
  0
VERTEX
  5
1D4
330
1C4
100
AcDbEntity
  8
Default
100
AcDbVertex
100
AcDb2dVertex
 10
-10.8041851863
 20
71.36955707021926
 30
0.0
  0
VERTEX
  5
1D5
330
1C4
100
AcDbEntity
  8
Default
100
AcDbVertex
100
AcDb2dVertex
 10
-10.8043753667
 20
71.33477168601925
 30
0.0
  0
VERTEX
  5
1D6
330
1C4
100
AcDbEntity
  8
Default
100
AcDbVertex
100
AcDb2dVertex
 10
-10.80452366760001
 20
71.29953067571927
 30
0.0
  0
VERTEX
  5
1D7
330
1C4
100
AcDbEntity
  8
Default
100
AcDbVertex
100
AcDb2dVertex
 10
-10.80463138029999
 20
71.26386302181928
 30
0.0
  0
VERTEX
  5
1D8
330
1C4
100
AcDbEntity
  8
Default
100
AcDbVertex
100
AcDb2dVertex
 10
-10.8046997238
 20
71.22784939651928
 30
0.0
  0
VERTEX
  5
1D9
330
1C4
100
AcDbEntity
  8
Default
100
AcDbVertex
100
AcDb2dVertex
 10
-10.80472817565548
 20
71.17251651542985
 30
0.0
  0
SEQEND
  5
1DA
330
1C4
100
AcDbEntity
  8
Default
  0
POLYLINE
  5
1DB
330
1F
100
AcDbEntity
  8
Default
100
AcDb2dPolyline
 66
     1
 10
0.0
 20
0.0
 30
0.0
  0
VERTEX
  5
1DC
330
1DB
100
AcDbEntity
  8
Default
100
AcDbVertex
100
AcDb2dVertex
 10
-10.3383878806704
 20
69.17681058944177
 30
0.0
  0
VERTEX
  5
1DD
330
1DB
100
AcDbEntity
  8
Default
100
AcDbVertex
100
AcDb2dVertex
 10
-10.3983334286
 20
69.17681058944179
 30
0.0
  0
SEQEND
  5
1DE
330
1DB
100
AcDbEntity
  8
Default
  0
LINE
  5
1DF
330
1F
100
AcDbEntity
  8
Default
100
AcDbLine
 10
-10.3983334286
 20
69.17681058944179
 30
0.0
 11
-10.3983334286
 21
69.56060862587721
 31
0.0
  0
LINE
  5
1E0
330
1F
100
AcDbEntity
  8
Default
  6
Continuous
100
AcDbLine
 10
-10.7651095019
 20
71.90887203501927
 30
0.0
 11
-9.811951509218273
 21
65.80633100171957
 31
0.0
  0
POLYLINE
  5
1E1
330
1F
100
AcDbEntity
  8
Default
  6
Continuous
100
AcDb2dPolyline
 66
     1
 10
0.0
 20
0.0
 30
0.0
  0
VERTEX
  5
1E2
330
1E1
100
AcDbEntity
  8
Default
  6
Continuous
100
AcDbVertex
100
AcDb2dVertex
 10
-9.811951509218273
 20
65.80633100171957
 30
0.0
  0
VERTEX
  5
1E3
330
1E1
100
AcDbEntity
  8
Default
  6
Continuous
100
AcDbVertex
100
AcDb2dVertex
 10
-9.806468002399995
 20
65.78033198981927
 30
0.0
  0
VERTEX
  5
1E4
330
1E1
100
AcDbEntity
  8
Default
  6
Continuous
100
AcDbVertex
100
AcDb2dVertex
 10
-9.797254776100004
 20
65.75141775301927
 30
0.0
  0
VERTEX
  5
1E5
330
1E1
100
AcDbEntity
  8
Default
  6
Continuous
100
AcDbVertex
100
AcDb2dVertex
 10
-9.785684422100005
 20
65.72448382481926
 30
0.0
  0
VERTEX
  5
1E6
330
1E1
100
AcDbEntity
  8
Default
  6
Continuous
100
AcDbVertex
100
AcDb2dVertex
 10
-9.772173523800006
 20
65.69912079361927
 30
0.0
  0
VERTEX
  5
1E7
330
1E1
100
AcDbEntity
  8
Default
  6
Continuous
100
AcDbVertex
100
AcDb2dVertex
 10
-9.756952224700001
 20
65.67481105651927
 30
0.0
  0
VERTEX
  5
1E8
330
1E1
100
AcDbEntity
  8
Default
  6
Continuous
100
AcDbVertex
100
AcDb2dVertex
 10
-9.740416035400003
 20
65.65145109981927
 30
0.0
  0
VERTEX
  5
1E9
330
1E1
100
AcDbEntity
  8
Default
  6
Continuous
100
AcDbVertex
100
AcDb2dVertex
 10
-9.722399436100005
 20
65.62829552451927
 30
0.0
  0
VERTEX
  5
1EA
330
1E1
100
AcDbEntity
  8
Default
  6
Continuous
100
AcDbVertex
100
AcDb2dVertex
 10
-9.702143901
 20
65.60419861751927
 30
0.0
  0
VERTEX
  5
1EB
330
1E1
100
AcDbEntity
  8
Default
  6
Continuous
100
AcDbVertex
100
AcDb2dVertex
 10
-9.679290369400007
 20
65.57879862451927
 30
0.0
  0
VERTEX
  5
1EC
330
1E1
100
AcDbEntity
  8
Default
  6
Continuous
100
AcDbVertex
100
AcDb2dVertex
 10
-9.6539385289
 20
65.55236741691928
 30
0.0
  0
VERTEX
  5
1ED
330
1E1
100
AcDbEntity
  8
Default
  6
Continuous
100
AcDbVertex
100
AcDb2dVertex
 10
-9.626036455700003
 20
65.52502640031926
 30
0.0
  0
VERTEX
  5
1EE
330
1E1
100
AcDbEntity
  8
Default
  6
Continuous
100
AcDbVertex
100
AcDb2dVertex
 10
-9.595549044500004
 20
65.49668421731926
 30
0.0
  0
VERTEX
  5
1EF
330
1E1
100
AcDbEntity
  8
Default
  6
Continuous
100
AcDbVertex
100
AcDb2dVertex
 10
-9.562405735399992
 20
65.46716512261926
 30
0.0
  0
VERTEX
  5
1F0
330
1E1
100
AcDbEntity
  8
Default
  6
Continuous
100
AcDbVertex
100
AcDb2dVertex
 10
-9.526714688000013
 20
65.43650192201926
 30
0.0
  0
VERTEX
  5
1F1
330
1E1
100
AcDbEntity
  8
Default
  6
Continuous
100
AcDbVertex
100
AcDb2dVertex
 10
-9.488554821199997
 20
65.40475796391928
 30
0.0
  0
VERTEX
  5
1F2
330
1E1
100
AcDbEntity
  8
Default
  6
Continuous
100
AcDbVertex
100
AcDb2dVertex
 10
-9.447933664199994
 20
65.37194840451926
 30
0.0
  0
VERTEX
  5
1F3
330
1E1
100
AcDbEntity
  8
Default
  6
Continuous
100
AcDbVertex
100
AcDb2dVertex
 10
-9.405038859300006
 20
65.33820320331927
 30
0.0
  0
VERTEX
  5
1F4
330
1E1
100
AcDbEntity
  8
Default
  6
Continuous
100
AcDbVertex
100
AcDb2dVertex
 10
-9.36002689690001
 20
65.30360259621926
 30
0.0
  0
VERTEX
  5
1F5
330
1E1
100
AcDbEntity
  8
Default
  6
Continuous
100
AcDbVertex
100
AcDb2dVertex
 10
-9.313030454
 20
65.26829655051927
 30
0.0
  0
VERTEX
  5
1F6
330
1E1
100
AcDbEntity
  8
Default
  6
Continuous
100
AcDbVertex
100
AcDb2dVertex
 10
-9.264298416399996
 20
65.23258398541927
 30
0.0
  0
VERTEX
  5
1F7
330
1E1
100
AcDbEntity
  8
Default
  6
Continuous
100
AcDbVertex
100
AcDb2dVertex
 10
-9.214018380599995
 20
65.19667177491928
 30
0.0
  0
VERTEX
  5
1F8
330
1E1
100
AcDbEntity
  8
Default
  6
Continuous
100
AcDbVertex
100
AcDb2dVertex
 10
-9.1623585743
 20
65.16070670731926
 30
0.0
  0
VERTEX
  5
1F9
330
1E1
100
AcDbEntity
  8
Default
  6
Continuous
100
AcDbVertex
100
AcDb2dVertex
 10
-9.140378000799998
 20
65.14577547501926
 30
0.0
  0
SEQEND
  5
1FA
330
1E1
100
AcDbEntity
  8
Default
  6
Continuous
  0
LINE
  5
1FB
330
1F
100
AcDbEntity
  8
Default
  6
Continuous
100
AcDbLine
 10
-4.692082889300011
 20
69.77124034231926
 30
0.0
 11
-10.1295324522
 21
69.77124034231926
 31
0.0
  0
ARC
  5
1FC
330
1F
100
AcDbEntity
  8
Default
  6
Continuous
100
AcDbCircle
 10
-10.1295324522
 20
69.56672706467302
 30
0.0
 40
0.2045132776462424
100
AcDbArc
 50
90.0
 51
103.0359795271251
  0
POLYLINE
  5
1FD
330
1F
100
AcDbEntity
  8
Default
  6
Continuous
100
AcDb2dPolyline
 66
     1
 10
0.0
 20
0.0
 30
0.0
  0
VERTEX
  5
1FE
330
1FD
100
AcDbEntity
  8
Default
  6
Continuous
100
AcDbVertex
100
AcDb2dVertex
 10
-9.083456781599992
 20
65.64322900951927
 30
0.0
  0
VERTEX
  5
1FF
330
1FD
100
AcDbEntity
  8
Default
  6
Continuous
100
AcDbVertex
100
AcDb2dVertex
 10
-9.1167458412
 20
65.66832675461927
 30
0.0
  0
VERTEX
  5
200
330
1FD
100
AcDbEntity
  8
Default
  6
Continuous
100
AcDbVertex
100
AcDb2dVertex
 10
-9.152466319800013
 20
65.69594276691927
 30
0.0
  0
VERTEX
  5
201
330
1FD
100
AcDbEntity
  8
Default
  6
Continuous
100
AcDbVertex
100
AcDb2dVertex
 10
-9.186398913600001
 20
65.72286834171928
 30
0.0
  0
VERTEX
  5
202
330
1FD
100
AcDbEntity
  8
Default
  6
Continuous
100
AcDbVertex
100
AcDb2dVertex
 10
-9.218469527099998
 20
65.74900535851927
 30
0.0
  0
VERTEX
  5
203
330
1FD
100
AcDbEntity
  8
Default
  6
Continuous
100
AcDbVertex
100
AcDb2dVertex
 10
-9.248470893999993
 20
65.77416414041926
 30
0.0
  0
VERTEX
  5
204
330
1FD
100
AcDbEntity
  8
Default
  6
Continuous
100
AcDbVertex
100
AcDb2dVertex
 10
-9.276079317600008
 20
65.79806399821928
 30
0.0
  0
VERTEX
  5
205
330
1FD
100
AcDbEntity
  8
Default
  6
Continuous
100
AcDbVertex
100
AcDb2dVertex
 10
-9.301389838800006
 20
65.82076038891927
 30
0.0
  0
VERTEX
  5
206
330
1FD
100
AcDbEntity
  8
Default
  6
Continuous
100
AcDbVertex
100
AcDb2dVertex
 10
-9.324187091799999
 20
65.84198056971925
 30
0.0
  0
VERTEX
  5
207
330
1FD
100
AcDbEntity
  8
Default
  6
Continuous
100
AcDbVertex
100
AcDb2dVertex
 10
-9.343777163400006
 20
65.86091065701928
 30
0.0
  0
VERTEX
  5
208
330
1FD
100
AcDbEntity
  8
Default
  6
Continuous
100
AcDbVertex
100
AcDb2dVertex
 10
-9.360225702800008
 20
65.87743017231927
 30
0.0
  0
VERTEX
  5
209
330
1FD
100
AcDbEntity
  8
Default
  6
Continuous
100
AcDbVertex
100
AcDb2dVertex
 10
-9.373534585100003
 20
65.89154158081928
 30
0.0
  0
VERTEX
  5
20A
330
1FD
100
AcDbEntity
  8
Default
  6
Continuous
100
AcDbVertex
100
AcDb2dVertex
 10
-9.383114439099998
 20
65.90247395531927
 30
0.0
  0
VERTEX
  5
20B
330
1FD
100
AcDbEntity
  8
Default
  6
Continuous
100
AcDbVertex
100
AcDb2dVertex
 10
-9.3844158448139
 20
65.90407896600824
 30
0.0
  0
SEQEND
  5
20C
330
1FD
100
AcDbEntity
  8
Default
  6
Continuous
  0
LINE
  5
20D
330
1F
100
AcDbEntity
  8
Default
  6
Continuous
100
AcDbLine
 10
-9.3844158448139
 20
65.90407896600824
 30
0.0
 11
-9.951908745550007
 21
69.53745359186927
 31
0.0
  0
ARC
  5
20E
330
1F
100
AcDbEntity
  8
Default
  6
Continuous
100
AcDbCircle
 10
-10.23790502900001
 20
69.48140124386249
 30
0.0
 40
0.2914373686820137
100
AcDbArc
 50
11.08883150584392
 51
73.09619496589758
  0
ARC
  5
20F
330
1F
100
AcDbEntity
  8
Default
  6
Continuous
100
AcDbCircle
 10
-10.22666173866473
 20
69.51839843621869
 30
0.0
 40
0.2527695032146164
100
AcDbArc
 50
73.0961949658973
 51
78.3601232815942
  0
POLYLINE
  5
210
330
1F
100
AcDbEntity
  8
Default
100
AcDb2dPolyline
 66
     1
 10
0.0
 20
0.0
 30
0.0
  0
VERTEX
  5
211
330
210
100
AcDbEntity
  8
Default
100
AcDbVertex
100
AcDb2dVertex
 10
-10.89375751370001
 20
52.88573045902501
 30
0.0
  0
VERTEX
  5
212
330
210
100
AcDbEntity
  8
Default
100
AcDbVertex
100
AcDb2dVertex
 10
-10.89375751370001
 20
51.00191706043281
 30
0.0
  0
SEQEND
  5
213
330
210
100
AcDbEntity
  8
Default
  0
SPLINE
  5
214
330
1F
100
AcDbEntity
  8
Default
100
AcDbSpline
210
0.0
220
0.0
230
1.0
 70
    12
 71
     2
 72
     8
 73
     5
 74
     0
 42
0.0000000001
 43
0.0000000001
 40
0.0
 40
0.0
 40
0.0
 40
0.0443594898986368
 40
0.0443594898986368
 40
0.0887189797972737
 40
0.0887189797972737
 40
0.0887189797972737
 10
-10.89375751370001
 20
51.00191706043281
 30
0.0
 41
1.0
 10
-10.89394596433186
 20
50.97847717295424
 30
0.0
 41
0.9212322792887785
 10
-10.87727701213423
 20
50.96199658220991
 30
0.0
 41
1.0
 10
-10.86060805993662
 20
50.94551599146558
 30
0.0
 41
0.9212322792887785
 10
-10.83717182757016
 20
50.94597080034178
 30
0.0
 41
1.0
  0
POLYLINE
  5
215
330
1F
100
AcDbEntity
  8
Default
100
AcDb2dPolyline
 66
     1
 10
0.0
 20
0.0
 30
0.0
  0
VERTEX
  5
216
330
215
100
AcDbEntity
  8
Default
100
AcDbVertex
100
AcDb2dVertex
 10
-10.83717182757016
 20
50.94597080034178
 30
0.0
  0
VERTEX
  5
217
330
215
100
AcDbEntity
  8
Default
100
AcDbVertex
100
AcDb2dVertex
 10
-10.772423942611
 20
50.94597080034179
 30
0.0
  0
SEQEND
  5
218
330
215
100
AcDbEntity
  8
Default
  0
LINE
  5
219
330
1F
100
AcDbEntity
  8
Default
100
AcDbLine
 10
-10.772423942611
 20
50.94597080034179
 30
0.0
 11
-10.772423942611
 21
52.94167672632987
 31
0.0
  0
POLYLINE
  5
21A
330
1F
100
AcDbEntity
  8
Default
100
AcDb2dPolyline
 66
     1
 10
0.0
 20
0.0
 30
0.0
  0
VERTEX
  5
21B
330
21A
100
AcDbEntity
  8
Default
100
AcDbVertex
100
AcDb2dVertex
 10
-10.772423942611
 20
52.94167672632987
 30
0.0
  0
VERTEX
  5
21C
330
21A
100
AcDbEntity
  8
Default
100
AcDbVertex
100
AcDb2dVertex
 10
-10.83717182040694
 20
52.94167672632985
 30
0.0
  0
SEQEND
  5
21D
330
21A
100
AcDbEntity
  8
Default
  0
SPLINE
  5
21E
330
1F
100
AcDbEntity
  8
Default
100
AcDbSpline
210
0.0
220
0.0
230
1.0
 70
    12
 71
     2
 72
     8
 73
     5
 74
     0
 42
0.0000000001
 43
0.0000000001
 40
-0.0887191648069352
 40
-0.0887191648069352
 40
-0.0887191648069352
 40
-0.0443595824034676
 40
-0.0443595824034676
 40
0.0
 40
0.0
 40
0.0
 10
-10.83717182040694
 20
52.94167672632985
 30
0.0
 41
1.0
 10
-10.86060812214564
 20
52.94213170135026
 30
0.0
 41
0.9212309118505145
 10
-10.87727712593888
 20
52.9256510595546
 30
0.0
 41
1.0
 10
-10.89394612973213
 20
52.90917041775893
 30
0.0
 41
0.9212309118505145
 10
-10.89375751370001
 20
52.88573045902501
 30
0.0
 41
1.0
  0
POLYLINE
  5
21F
330
1F
100
AcDbEntity
  8
Default
100
AcDb2dPolyline
 66
     1
 10
0.0
 20
0.0
 30
0.0
  0
VERTEX
  5
220
330
21F
100
AcDbEntity
  8
Default
100
AcDbVertex
100
AcDb2dVertex
 10
-10.89375751370001
 20
71.11657024812499
 30
0.0
  0
VERTEX
  5
221
330
21F
100
AcDbEntity
  8
Default
100
AcDbVertex
100
AcDb2dVertex
 10
-10.89375751370001
 20
69.23275684953279
 30
0.0
  0
SEQEND
  5
222
330
21F
100
AcDbEntity
  8
Default
  0
SPLINE
  5
223
330
1F
100
AcDbEntity
  8
Default
100
AcDbSpline
210
0.0
220
0.0
230
1.0
 70
    12
 71
     2
 72
     8
 73
     5
 74
     0
 42
0.0000000001
 43
0.0000000001
 40
0.0
 40
0.0
 40
0.0
 40
0.0443594898986368
 40
0.0443594898986368
 40
0.0887189797972737
 40
0.0887189797972737
 40
0.0887189797972737
 10
-10.89375751370001
 20
69.23275684953279
 30
0.0
 41
1.0
 10
-10.89394596433186
 20
69.20931696205422
 30
0.0
 41
0.9212322792887785
 10
-10.87727701213423
 20
69.1928363713099
 30
0.0
 41
1.0
 10
-10.86060805993662
 20
69.17635578056557
 30
0.0
 41
0.9212322792887785
 10
-10.83717182757016
 20
69.17681058944176
 30
0.0
 41
1.0
  0
POLYLINE
  5
224
330
1F
100
AcDbEntity
  8
Default
100
AcDb2dPolyline
 66
     1
 10
0.0
 20
0.0
 30
0.0
  0
VERTEX
  5
225
330
224
100
AcDbEntity
  8
Default
100
AcDbVertex
100
AcDb2dVertex
 10
-10.83717182757016
 20
69.17681058944176
 30
0.0
  0
VERTEX
  5
226
330
224
100
AcDbEntity
  8
Default
100
AcDbVertex
100
AcDb2dVertex
 10
-10.772423942611
 20
69.17681058944177
 30
0.0
  0
SEQEND
  5
227
330
224
100
AcDbEntity
  8
Default
  0
LINE
  5
228
330
1F
100
AcDbEntity
  8
Default
100
AcDbLine
 10
-10.772423942611
 20
69.17681058944177
 30
0.0
 11
-10.772423942611
 21
71.17251651542985
 31
0.0
  0
POLYLINE
  5
229
330
1F
100
AcDbEntity
  8
Default
100
AcDb2dPolyline
 66
     1
 10
0.0
 20
0.0
 30
0.0
  0
VERTEX
  5
22A
330
229
100
AcDbEntity
  8
Default
100
AcDbVertex
100
AcDb2dVertex
 10
-10.772423942611
 20
71.17251651542985
 30
0.0
  0
VERTEX
  5
22B
330
229
100
AcDbEntity
  8
Default
100
AcDbVertex
100
AcDb2dVertex
 10
-10.83717182040694
 20
71.17251651542983
 30
0.0
  0
SEQEND
  5
22C
330
229
100
AcDbEntity
  8
Default
  0
SPLINE
  5
22D
330
1F
100
AcDbEntity
  8
Default
100
AcDbSpline
210
0.0
220
0.0
230
1.0
 70
    12
 71
     2
 72
     8
 73
     5
 74
     0
 42
0.0000000001
 43
0.0000000001
 40
-0.0887191648069352
 40
-0.0887191648069352
 40
-0.0887191648069352
 40
-0.0443595824034676
 40
-0.0443595824034676
 40
0.0
 40
0.0
 40
0.0
 10
-10.83717182040694
 20
71.17251651542983
 30
0.0
 41
1.0
 10
-10.86060812214564
 20
71.17297149045024
 30
0.0
 41
0.9212309118505145
 10
-10.87727712593888
 20
71.15649084865458
 30
0.0
 41
1.0
 10
-10.89394612973213
 20
71.14001020685892
 30
0.0
 41
0.9212309118505145
 10
-10.89375751370001
 20
71.11657024812499
 30
0.0
 41
1.0
  0
LINE
  5
22E
330
1F
100
AcDbEntity
  8
Default
  6
Continuous
100
AcDbLine
 10
-8.540150672600006
 20
51.81023883291928
 30
0.0
 11
-9.602685814499992
 21
51.81023883291928
 31
0.0
  0
LINE
  5
22F
330
1F
100
AcDbEntity
  8
Default
  6
Continuous
100
AcDbLine
 10
-10.8047320969
 20
69.18517984951927
 30
0.0
 11
-10.8047320969
 21
52.93489051871928
 31
0.0
  0
LINE
  5
230
330
1F
100
AcDbEntity
  8
Default
  6
Continuous
100
AcDbLine
 10
-10.3672320969
 20
52.93489029901928
 30
0.0
 11
-10.3672320969
 21
69.18517985651926
 31
0.0
  0
LINE
  5
231
330
1F
100
AcDbEntity
  8
Default
  6
Continuous
100
AcDbLine
 10
-9.920094355100005
 20
69.33374034231926
 30
0.0
 11
-5.730896477600012
 21
69.33374034231926
 31
0.0
  0
SPLINE
  5
232
330
1F
100
AcDbEntity
  8
Default
  6
Continuous
100
AcDbSpline
210
0.0
220
0.0
230
1.0
 70
     8
 71
     3
 72
    11
 73
     7
 74
     0
 42
0.0000000001
 43
0.0000000001
 40
0.0
 40
0.0
 40
0.0
 40
0.0
 40
1.0
 40
2.0
 40
3.0
 40
4.0
 40
4.0
 40
4.0
 40
4.0
 10
-9.177393672313627
 20
29.0457290053683
 30
0.0
 10
-9.210119791081828
 20
29.03475586581578
 30
0.0
 10
-9.2712546691285
 20
28.99988476359083
 30
0.0
 10
-9.335548610126583
 20
28.91653706446131
 30
0.0
 10
-9.369315188024324
 20
28.8174778430518
 30
0.0
 10
-9.375449074886875
 20
28.74845835834331
 30
0.0
 10
-9.377372102813638
 20
28.7140392338683
 30
0.0
  0
LINE
  5
233
330
1F
100
AcDbEntity
  8
Default
  6
Continuous
100
AcDbLine
 10
-9.377372102813638
 20
28.7140392338683
 30
0.0
 11
-9.647183220213634
 21
20.98765973796829
 31
0.0
  0
SPLINE
  5
234
330
1F
100
AcDbEntity
  8
Default
  6
Continuous
100
AcDbSpline
210
0.0
220
0.0
230
1.0
 70
     8
 71
     3
 72
    11
 73
     7
 74
     0
 42
0.0000000001
 43
0.0000000001
 40
0.0
 40
0.0
 40
0.0
 40
0.0
 40
1.0
 40
2.0
 40
3.0
 40
4.0
 40
4.0
 40
4.0
 40
4.0
 10
9.177393672313627
 20
29.0457290053683
 30
0.0
 10
9.210119791081828
 20
29.03475586581578
 30
0.0
 10
9.2712546691285
 20
28.99988476359083
 30
0.0
 10
9.335548610126583
 20
28.91653706446131
 30
0.0
 10
9.369315188024324
 20
28.8174778430518
 30
0.0
 10
9.375449074886875
 20
28.74845835834331
 30
0.0
 10
9.377372102813638
 20
28.7140392338683
 30
0.0
  0
LINE
  5
235
330
1F
100
AcDbEntity
  8
Default
  6
Continuous
100
AcDbLine
 10
9.377372102813638
 20
28.7140392338683
 30
0.0
 11
9.647183220213634
 21
20.98765973796829
 31
0.0
  0
LINE
  5
236
330
1F
100
AcDbEntity
  8
Default
100
AcDbLine
 10
-9.719121229113625
 20
11.9051081309683
 30
0.0
 11
-10.36758026586051
 21
0.359715478480314
 31
0.0
  0
ARC
  5
237
330
1F
100
AcDbEntity
  8
Default
100
AcDbCircle
 10
-10.58598543027276
 20
0.3719702449434419
 30
0.0
 40
0.218748703180177
100
AcDbArc
 50
176.7849465628249
 51
356.7884874961836
  0
POLYLINE
  5
238
330
1F
100
AcDbEntity
  8
Default
100
AcDb2dPolyline
 66
     1
 10
0.0
 20
0.0
 30
0.0
  0
VERTEX
  5
239
330
238
100
AcDbEntity
  8
Default
100
AcDbVertex
100
AcDb2dVertex
 10
-10.80438983691177
 20
0.3842385090288657
 30
0.0
  0
VERTEX
  5
23A
330
238
100
AcDbEntity
  8
Default
100
AcDbVertex
100
AcDb2dVertex
 10
-9.29039561621363
 20
27.34007466116829
 30
0.0
  0
SEQEND
  5
23B
330
238
100
AcDbEntity
  8
Default
  0
SPLINE
  5
23C
330
1F
100
AcDbEntity
  8
Default
100
AcDbSpline
210
0.0
220
0.0
230
1.0
 70
     8
 71
     3
 72
    15
 73
    11
 74
     0
 42
0.0000000001
 43
0.0000000001
 40
0.0
 40
0.0
 40
0.0
 40
0.0
 40
1.0
 40
2.0
 40
3.0
 40
4.0
 40
5.0
 40
6.0
 40
7.0
 40
8.0
 40
8.0
 40
8.0
 40
8.0
 10
-9.29039561621363
 20
27.34007466116829
 30
0.0
 10
-9.286036189201873
 20
27.41002862199256
 30
0.0
 10
-9.258584066860593
 20
27.54852404937732
 30
0.0
 10
-9.170182214779558
 20
27.74067333058412
 30
0.0
 10
-9.041350054198599
 20
27.90821197207785
 30
0.0
 10
-8.882571188077542
 20
28.0472133217075
 30
0.0
 10
-8.700037273401728
 20
28.15323577589198
 30
0.0
 10
-8.499672859202132
 20
28.22098315551735
 30
0.0
 10
-8.289152874390078
 20
28.24134935674567
 30
0.0
 10
-8.149231946725614
 20
28.22498354495886
 30
0.0
 10
-8.081012233913626
 20
28.2089517199683
 30
0.0
  0
SPLINE
  5
23D
330
1F
100
AcDbEntity
  8
Default
100
AcDbSpline
210
0.0
220
0.0
230
1.0
 70
     8
 71
     3
 72
    20
 73
    16
 74
     0
 42
0.0000000001
 43
0.0000000001
 40
-1.0
 40
-1.0
 40
-1.0
 40
-1.0
 40
-0.8750184978
 40
-0.8124815433
 40
-0.749933378
 40
-0.6874060866
 40
-0.6249044805
 40
-0.5624148286
 40
-0.4999282752
 40
-0.4374403569
 40
-0.3749501158
 40
-0.3124581005
 40
-0.2499651573
 40
-0.1249813316
 40
0.0
 40
0.0
 40
0.0
 40
0.0
 10
-8.081012233913626
 20
28.2089517199683
 30
0.0
 10
-7.840309746113633
 20
28.1500944972683
 30
0.0
 10
-7.475880294513644
 20
28.07488212516829
 30
0.0
 10
-6.986637250913617
 20
27.9944636615683
 30
0.0
 10
-6.618294302713622
 20
27.9424243201683
 30
0.0
 10
-6.24917020781362
 20
27.89696542326829
 30
0.0
 10
-5.879523496713631
 20
27.85705214306829
 30
0.0
 10
-5.509474843013635
 20
27.8219413525683
 30
0.0
 10
-5.139099172613641
 20
27.79082372176829
 30
0.0
 10
-4.768474021813631
 20
27.76284906086829
 30
0.0
 10
-4.39765573771362
 20
27.73741297026829
 30
0.0
 10
-4.026661479113642
 20
27.7145223976683
 30
0.0
 10
-3.531808844213629
 20
27.6872698571683
 30
0.0
 10
-2.912934468013617
 20
27.6591979982683
 30
0.0
 10
-2.417607687713627
 20
27.6426269043683
 30
0.0
 10
-2.169912419113615
 20
27.6356450343683
 30
0.0
  0
ARC
  5
23E
330
1F
100
AcDbEntity
  8
Default
100
AcDbCircle
 10
-10.35333359121361
 20
0.4976970815682927
 30
0.0
 40
0.0450000000000031
100
AcDbArc
 50
28.14458130850552
 51
95.053768104703
  0
ARC
  5
23F
330
1F
100
AcDbEntity
  8
Default
100
AcDbCircle
 10
-10.50735641271262
 20
0.3905918242396035
 30
0.0
 40
0.2323563925989962
100
AcDbArc
 50
0.0000000002703294
 51
33.5253119438562
  0
LINE
  5
240
330
1F
100
AcDbEntity
  8
Default
100
AcDbLine
 10
-10.27500002011362
 20
0.3905918242406998
 30
0.0
 11
-10.27500002011269
 21
0.1918076447781165
 31
0.0
  0
ARC
  5
241
330
1F
100
AcDbEntity
  8
Default
100
AcDbCircle
 10
-10.46364879846652
 20
0.1911762465026152
 30
0.0
 40
0.188649834980513
100
AcDbArc
 50
273.8167009370255
 51
0.191765468140103
  0
LINE
  5
242
330
1F
100
AcDbEntity
  8
Default
100
AcDbLine
 10
-10.45109137066938
 20
0.0029448164881409
 30
0.0
 11
-10.71716856282603
 21
0.002840578846913
 31
0.0
  0
ARC
  5
243
330
1F
100
AcDbEntity
  8
Default
100
AcDbCircle
 10
-10.70569640724053
 20
0.191796255189505
 30
0.0
 40
0.1893036132139703
100
AcDbArc
 50
179.9965638360168
 51
266.5256389565589
  0
LINE
  5
244
330
1F
100
AcDbEntity
  8
Default
100
AcDbLine
 10
-10.89500002011407
 20
0.1918076081768061
 30
0.0
 11
-10.89498903021074
 21
0.3750570341132105
 31
0.0
  0
SPLINE
  5
245
330
1F
100
AcDbEntity
  8
Default
100
AcDbSpline
210
0.0
220
0.0
230
1.0
 70
    12
 71
     2
 72
     6
 73
     3
 74
     0
 42
0.0000000001
 43
0.0000000001
 40
-0.1497768937663166
 40
-0.1497768937663166
 40
-0.1497768937663166
 40
0.0
 40
0.0
 40
0.0
 10
-10.89498903021074
 20
0.3750570341132105
 30
0.0
 41
1.0
 10
-10.89437461971668
 20
0.4514348174505075
 30
0.0
 41
0.9709588602062039
 10
-10.85728591442679
 20
0.5206380761333396
 30
0.0
 41
1.0
  0
ARC
  5
246
330
1F
100
AcDbEntity
  8
Default
100
AcDbCircle
 10
-10.82402980466856
 20
0.5001753979031087
 30
0.0
 40
0.0390472795032539
100
AcDbArc
 50
88.66372450246692
 51
148.3957720065974
  0
POLYLINE
  5
247
330
1F
100
AcDbEntity
  8
Default
100
AcDb2dPolyline
 66
     1
 10
0.0
 20
0.0
 30
0.0
  0
VERTEX
  5
248
330
247
100
AcDbEntity
  8
Default
100
AcDbVertex
100
AcDb2dVertex
 10
-10.8231192106739
 20
0.5392120583030727
 30
0.0
  0
VERTEX
  5
249
330
247
100
AcDbEntity
  8
Default
100
AcDbVertex
100
AcDb2dVertex
 10
-10.79909563511362
 20
0.5371824459682957
 30
0.0
  0
SEQEND
  5
24A
330
247
100
AcDbEntity
  8
Default
  0
LINE
  5
24B
330
1F
100
AcDbEntity
  8
Default
100
AcDbLine
 10
9.719121229113625
 20
11.9051081309683
 30
0.0
 11
10.36758026586051
 21
0.359715478480314
 31
0.0
  0
ARC
  5
24C
330
1F
100
AcDbEntity
  8
Default
100
AcDbCircle
 10
10.58598543027276
 20
0.3719702449434419
 30
0.0
 40
0.218748703180177
100
AcDbArc
 50
183.2115125038164
 51
3.215053437175134
  0
POLYLINE
  5
24D
330
1F
100
AcDbEntity
  8
Default
100
AcDb2dPolyline
 66
     1
 10
0.0
 20
0.0
 30
0.0
  0
VERTEX
  5
24E
330
24D
100
AcDbEntity
  8
Default
100
AcDbVertex
100
AcDb2dVertex
 10
10.80438983691177
 20
0.3842385090288657
 30
0.0
  0
VERTEX
  5
24F
330
24D
100
AcDbEntity
  8
Default
100
AcDbVertex
100
AcDb2dVertex
 10
9.29039561621363
 20
27.34007466116829
 30
0.0
  0
SEQEND
  5
250
330
24D
100
AcDbEntity
  8
Default
  0
SPLINE
  5
251
330
1F
100
AcDbEntity
  8
Default
100
AcDbSpline
210
0.0
220
0.0
230
1.0
 70
     8
 71
     3
 72
    15
 73
    11
 74
     0
 42
0.0000000001
 43
0.0000000001
 40
0.0
 40
0.0
 40
0.0
 40
0.0
 40
1.0
 40
2.0
 40
3.0
 40
4.0
 40
5.0
 40
6.0
 40
7.0
 40
8.0
 40
8.0
 40
8.0
 40
8.0
 10
9.29039561621363
 20
27.34007466116829
 30
0.0
 10
9.286036189201873
 20
27.41002862199256
 30
0.0
 10
9.258584066860593
 20
27.54852404937732
 30
0.0
 10
9.170182214779558
 20
27.74067333058412
 30
0.0
 10
9.041350054198599
 20
27.90821197207785
 30
0.0
 10
8.882571188077542
 20
28.0472133217075
 30
0.0
 10
8.700037273401728
 20
28.15323577589198
 30
0.0
 10
8.499672859202132
 20
28.22098315551735
 30
0.0
 10
8.289152874390078
 20
28.24134935674567
 30
0.0
 10
8.149231946725614
 20
28.22498354495886
 30
0.0
 10
8.081012233913626
 20
28.2089517199683
 30
0.0
  0
SPLINE
  5
252
330
1F
100
AcDbEntity
  8
Default
100
AcDbSpline
210
0.0
220
0.0
230
1.0
 70
     8
 71
     3
 72
    20
 73
    16
 74
     0
 42
0.0000000001
 43
0.0000000001
 40
-1.0
 40
-1.0
 40
-1.0
 40
-1.0
 40
-0.8750184978
 40
-0.8124815433
 40
-0.749933378
 40
-0.6874060866
 40
-0.6249044805
 40
-0.5624148286
 40
-0.4999282752
 40
-0.4374403569
 40
-0.3749501158
 40
-0.3124581005
 40
-0.2499651573
 40
-0.1249813316
 40
0.0
 40
0.0
 40
0.0
 40
0.0
 10
8.081012233913626
 20
28.2089517199683
 30
0.0
 10
7.840309746113633
 20
28.1500944972683
 30
0.0
 10
7.475880294513644
 20
28.07488212516829
 30
0.0
 10
6.986637250913617
 20
27.9944636615683
 30
0.0
 10
6.618294302713622
 20
27.9424243201683
 30
0.0
 10
6.24917020781362
 20
27.89696542326829
 30
0.0
 10
5.879523496713631
 20
27.85705214306829
 30
0.0
 10
5.509474843013635
 20
27.8219413525683
 30
0.0
 10
5.139099172613641
 20
27.79082372176829
 30
0.0
 10
4.768474021813631
 20
27.76284906086829
 30
0.0
 10
4.39765573771362
 20
27.73741297026829
 30
0.0
 10
4.026661479113642
 20
27.7145223976683
 30
0.0
 10
3.531808844213629
 20
27.6872698571683
 30
0.0
 10
2.912934468013617
 20
27.6591979982683
 30
0.0
 10
2.417607687713627
 20
27.6426269043683
 30
0.0
 10
2.169912419113615
 20
27.6356450343683
 30
0.0
  0
ARC
  5
253
330
1F
100
AcDbEntity
  8
Default
100
AcDbCircle
 10
10.35333359121361
 20
0.4976970815682927
 30
0.0
 40
0.0450000000000031
100
AcDbArc
 50
84.946231895297
 51
151.8554186914945
  0
ARC
  5
254
330
1F
100
AcDbEntity
  8
Default
100
AcDbCircle
 10
10.50735641271262
 20
0.3905918242396035
 30
0.0
 40
0.2323563925989962
100
AcDbArc
 50
146.4746880561438
 51
179.9999999997297
  0
LINE
  5
255
330
1F
100
AcDbEntity
  8
Default
100
AcDbLine
 10
10.27500002011362
 20
0.3905918242406998
 30
0.0
 11
10.27500002011269
 21
0.1918076447781165
 31
0.0
  0
ARC
  5
256
330
1F
100
AcDbEntity
  8
Default
100
AcDbCircle
 10
10.46364879846652
 20
0.1911762465026152
 30
0.0
 40
0.188649834980513
100
AcDbArc
 50
179.8082345318599
 51
266.1832990629745
  0
LINE
  5
257
330
1F
100
AcDbEntity
  8
Default
100
AcDbLine
 10
10.45109137066938
 20
0.0029448164881409
 30
0.0
 11
10.71716856282603
 21
0.002840578846913
 31
0.0
  0
ARC
  5
258
330
1F
100
AcDbEntity
  8
Default
100
AcDbCircle
 10
10.70569640724053
 20
0.191796255189505
 30
0.0
 40
0.1893036132139703
100
AcDbArc
 50
273.4743610434411
 51
0.0034361639831619
  0
LINE
  5
259
330
1F
100
AcDbEntity
  8
Default
100
AcDbLine
 10
10.89500002011407
 20
0.1918076081768061
 30
0.0
 11
10.89498903021074
 21
0.3750570341132105
 31
0.0
  0
SPLINE
  5
25A
330
1F
100
AcDbEntity
  8
Default
100
AcDbSpline
210
0.0
220
0.0
230
1.0
 70
    12
 71
     2
 72
     6
 73
     3
 74
     0
 42
0.0000000001
 43
0.0000000001
 40
-0.1497768937663166
 40
-0.1497768937663166
 40
-0.1497768937663166
 40
0.0
 40
0.0
 40
0.0
 10
10.89498903021074
 20
0.3750570341132105
 30
0.0
 41
1.0
 10
10.89437461971668
 20
0.4514348174505075
 30
0.0
 41
0.9709588602062039
 10
10.85728591442679
 20
0.5206380761333396
 30
0.0
 41
1.0
  0
ARC
  5
25B
330
1F
100
AcDbEntity
  8
Default
100
AcDbCircle
 10
10.82402980466856
 20
0.5001753979031087
 30
0.0
 40
0.0390472795032539
100
AcDbArc
 50
31.60422799340262
 51
91.3362754975331
  0
POLYLINE
  5
25C
330
1F
100
AcDbEntity
  8
Default
100
AcDb2dPolyline
 66
     1
 10
0.0
 20
0.0
 30
0.0
  0
VERTEX
  5
25D
330
25C
100
AcDbEntity
  8
Default
100
AcDbVertex
100
AcDb2dVertex
 10
10.8231192106739
 20
0.5392120583030727
 30
0.0
  0
VERTEX
  5
25E
330
25C
100
AcDbEntity
  8
Default
100
AcDbVertex
100
AcDb2dVertex
 10
10.79909563511362
 20
0.5371824459682957
 30
0.0
  0
SEQEND
  5
25F
330
25C
100
AcDbEntity
  8
Default
  0
LINE
  5
260
330
1F
100
AcDbEntity
  8
Default
  6
Continuous
100
AcDbLine
 10
10.79909563511362
 20
0.5371824459682957
 30
0.0
 11
9.81460558961362
 21
28.7293077636683
 31
0.0
  0
ARC
  5
261
330
1F
100
AcDbEntity
  8
Default
  6
Continuous
100
AcDbCircle
 10
9.005848335332297
 20
28.70106535707095
 30
0.0
 40
0.8092502269898196
100
AcDbArc
 50
1.999998651764804
 51
78.21196198054085
  0
ARC
  5
262
330
1F
100
AcDbEntity
  8
Default
  6
Continuous
100
AcDbCircle
 10
-9.005960717633398
 20
28.7010692829503
 30
0.0
 40
0.8091377359350247
100
AcDbArc
 50
101.7819406395404
 51
178.0000013482922
  0
LINE
  5
263
330
1F
100
AcDbEntity
  8
Default
  6
Continuous
100
AcDbLine
 10
-9.814605549386371
 20
28.7293077636683
 30
0.0
 11
-10.79909555998637
 21
0.5371834445682957
 31
0.0
  0
ARC
  5
264
330
1F
100
AcDbEntity
  8
Default
  6
Continuous
100
AcDbCircle
 10
1.174616472780368
 20
76.06500042559954
 30
0.0
 40
48.87259062999056
100
AcDbArc
 50
273.106592505294
 51
274.4161490171966
  0
SPLINE
  5
265
330
1F
100
AcDbEntity
  8
Default
  6
Continuous
100
AcDbSpline
210
0.0
220
0.0
230
1.0
 70
     8
 71
     3
 72
    16
 73
    12
 74
     0
 42
0.0000000001
 43
0.0000000001
 40
0.0
 40
0.0
 40
0.0
 40
0.0
 40
0.1249802591003578
 40
0.1874737905005368
 40
0.2499693876007157
 40
0.3749576748010735
 40
0.4999389813014313
 40
0.6249396993017894
 40
0.7499794425021473
 40
0.8750096913025053
 40
1.0
 40
1.0
 40
1.0
 40
1.0
 10
4.937808292513637
 20
27.3375081628683
 30
0.0
 10
5.074106950413636
 20
27.3480344175683
 30
0.0
 10
5.278493446113629
 20
27.3646819936683
 30
0.0
 10
5.550879377713642
 20
27.38842936886829
 30
0.0
 10
5.823189874313613
 20
27.4131226933683
 30
0.0
 10
6.163349013013629
 20
27.4464302544683
 30
0.0
 10
6.570899501213631
 20
27.4927003790683
 30
0.0
 10
6.977437120913635
 20
27.5477104401683
 30
0.0
 10
7.382430012413636
 20
27.6135562021683
 30
0.0
 10
7.785325420210563
 20
27.6911734085677
 30
0.0
 10
8.05212642740753
 20
27.75149899946692
 30
0.0
 10
8.184929343013636
 20
27.7839723318183
 30
0.0
  0
POLYLINE
  5
266
330
1F
100
AcDbEntity
  8
Default
  6
Continuous
100
AcDb2dPolyline
 66
     1
 10
0.0
 20
0.0
 30
0.0
  0
VERTEX
  5
267
330
266
100
AcDbEntity
  8
Default
  6
Continuous
100
AcDbVertex
100
AcDb2dVertex
 10
8.184929343013636
 20
27.7839723318183
 30
0.0
  0
VERTEX
  5
268
330
266
100
AcDbEntity
  8
Default
  6
Continuous
100
AcDbVertex
100
AcDb2dVertex
 10
8.225065571713628
 20
27.79198543126829
 30
0.0
  0
VERTEX
  5
269
330
266
100
AcDbEntity
  8
Default
  6
Continuous
100
AcDbVertex
100
AcDb2dVertex
 10
8.276729184113634
 20
27.7971122560683
 30
0.0
  0
VERTEX
  5
26A
330
266
100
AcDbEntity
  8
Default
  6
Continuous
100
AcDbVertex
100
AcDb2dVertex
 10
8.329260367413639
 20
27.7965219305683
 30
0.0
  0
VERTEX
  5
26B
330
266
100
AcDbEntity
  8
Default
  6
Continuous
100
AcDbVertex
100
AcDb2dVertex
 10
8.38212079611364
 20
27.79018980586829
 30
0.0
  0
VERTEX
  5
26C
330
266
100
AcDbEntity
  8
Default
  6
Continuous
100
AcDbVertex
100
AcDb2dVertex
 10
8.433884384313643
 20
27.77854001026829
 30
0.0
  0
VERTEX
  5
26D
330
266
100
AcDbEntity
  8
Default
  6
Continuous
100
AcDbVertex
100
AcDb2dVertex
 10
8.48366521321364
 20
27.7622833371683
 30
0.0
  0
VERTEX
  5
26E
330
266
100
AcDbEntity
  8
Default
  6
Continuous
100
AcDbVertex
100
AcDb2dVertex
 10
8.53148431931362
 20
27.7418455209683
 30
0.0
  0
VERTEX
  5
26F
330
266
100
AcDbEntity
  8
Default
  6
Continuous
100
AcDbVertex
100
AcDb2dVertex
 10
8.57712132311363
 20
27.7175796080683
 30
0.0
  0
VERTEX
  5
270
330
266
100
AcDbEntity
  8
Default
  6
Continuous
100
AcDbVertex
100
AcDb2dVertex
 10
8.620077523913636
 20
27.6899351839683
 30
0.0
  0
VERTEX
  5
271
330
266
100
AcDbEntity
  8
Default
  6
Continuous
100
AcDbVertex
100
AcDb2dVertex
 10
8.660053465713617
 20
27.6593054301683
 30
0.0
  0
VERTEX
  5
272
330
266
100
AcDbEntity
  8
Default
  6
Continuous
100
AcDbVertex
100
AcDb2dVertex
 10
8.697119857013632
 20
27.62590558816829
 30
0.0
  0
VERTEX
  5
273
330
266
100
AcDbEntity
  8
Default
  6
Continuous
100
AcDbVertex
100
AcDb2dVertex
 10
8.730913877113636
 20
27.5902434524683
 30
0.0
  0
VERTEX
  5
274
330
266
100
AcDbEntity
  8
Default
  6
Continuous
100
AcDbVertex
100
AcDb2dVertex
 10
8.76108120161362
 20
27.55281714516829
 30
0.0
  0
VERTEX
  5
275
330
266
100
AcDbEntity
  8
Default
  6
Continuous
100
AcDbVertex
100
AcDb2dVertex
 10
8.787524844813646
 20
27.5137077299683
 30
0.0
  0
VERTEX
  5
276
330
266
100
AcDbEntity
  8
Default
  6
Continuous
100
AcDbVertex
100
AcDb2dVertex
 10
8.809949246913646
 20
27.4731800324683
 30
0.0
  0
VERTEX
  5
277
330
266
100
AcDbEntity
  8
Default
  6
Continuous
100
AcDbVertex
100
AcDb2dVertex
 10
8.827965428813627
 20
27.4319633425683
 30
0.0
  0
VERTEX
  5
278
330
266
100
AcDbEntity
  8
Default
  6
Continuous
100
AcDbVertex
100
AcDb2dVertex
 10
8.841306137313637
 20
27.3907999017683
 30
0.0
  0
VERTEX
  5
279
330
266
100
AcDbEntity
  8
Default
  6
Continuous
100
AcDbVertex
100
AcDb2dVertex
 10
8.849922932513635
 20
27.3500904513683
 30
0.0
  0
VERTEX
  5
27A
330
266
100
AcDbEntity
  8
Default
  6
Continuous
100
AcDbVertex
100
AcDb2dVertex
 10
8.853584725663637
 20
27.3155290739183
 30
0.0
  0
SEQEND
  5
27B
330
266
100
AcDbEntity
  8
Default
  6
Continuous
  0
LINE
  5
27C
330
1F
100
AcDbEntity
  8
Default
  6
Continuous
100
AcDbLine
 10
8.853584725663637
 20
27.3155290739183
 30
0.0
 11
9.69480094761363
 21
12.3381179154683
 31
0.0
  0
LINE
  5
27D
330
1F
100
AcDbEntity
  8
Default
  6
Continuous
100
AcDbLine
 10
-9.694800907286378
 20
12.3381179154683
 30
0.0
 11
-8.853584685336365
 21
27.3155290739183
 31
0.0
  0
POLYLINE
  5
27E
330
1F
100
AcDbEntity
  8
Default
  6
Continuous
100
AcDb2dPolyline
 66
     1
 10
0.0
 20
0.0
 30
0.0
  0
VERTEX
  5
27F
330
27E
100
AcDbEntity
  8
Default
  6
Continuous
100
AcDbVertex
100
AcDb2dVertex
 10
-8.853584685336365
 20
27.3155290739183
 30
0.0
  0
VERTEX
  5
280
330
27E
100
AcDbEntity
  8
Default
  6
Continuous
100
AcDbVertex
100
AcDb2dVertex
 10
-8.849922892286372
 20
27.3500904513683
 30
0.0
  0
VERTEX
  5
281
330
27E
100
AcDbEntity
  8
Default
  6
Continuous
100
AcDbVertex
100
AcDb2dVertex
 10
-8.841306097086374
 20
27.3907999017683
 30
0.0
  0
VERTEX
  5
282
330
27E
100
AcDbEntity
  8
Default
  6
Continuous
100
AcDbVertex
100
AcDb2dVertex
 10
-8.827965388586364
 20
27.4319633425683
 30
0.0
  0
VERTEX
  5
283
330
27E
100
AcDbEntity
  8
Default
  6
Continuous
100
AcDbVertex
100
AcDb2dVertex
 10
-8.809949206586367
 20
27.4731800324683
 30
0.0
  0
VERTEX
  5
284
330
27E
100
AcDbEntity
  8
Default
  6
Continuous
100
AcDbVertex
100
AcDb2dVertex
 10
-8.787524804586369
 20
27.5137077299683
 30
0.0
  0
VERTEX
  5
285
330
27E
100
AcDbEntity
  8
Default
  6
Continuous
100
AcDbVertex
100
AcDb2dVertex
 10
-8.761081161386372
 20
27.55281714516829
 30
0.0
  0
VERTEX
  5
286
330
27E
100
AcDbEntity
  8
Default
  6
Continuous
100
AcDbVertex
100
AcDb2dVertex
 10
-8.730913836886373
 20
27.5902434524683
 30
0.0
  0
VERTEX
  5
287
330
27E
100
AcDbEntity
  8
Default
  6
Continuous
100
AcDbVertex
100
AcDb2dVertex
 10
-8.697119816786369
 20
27.62590558816829
 30
0.0
  0
VERTEX
  5
288
330
27E
100
AcDbEntity
  8
Default
  6
Continuous
100
AcDbVertex
100
AcDb2dVertex
 10
-8.660053425486367
 20
27.6593054301683
 30
0.0
  0
VERTEX
  5
289
330
27E
100
AcDbEntity
  8
Default
  6
Continuous
100
AcDbVertex
100
AcDb2dVertex
 10
-8.620077483586371
 20
27.6899351839683
 30
0.0
  0
VERTEX
  5
28A
330
27E
100
AcDbEntity
  8
Default
  6
Continuous
100
AcDbVertex
100
AcDb2dVertex
 10
-8.577121282886367
 20
27.7175796080683
 30
0.0
  0
VERTEX
  5
28B
330
27E
100
AcDbEntity
  8
Default
  6
Continuous
100
AcDbVertex
100
AcDb2dVertex
 10
-8.53148427908637
 20
27.7418455209683
 30
0.0
  0
VERTEX
  5
28C
330
27E
100
AcDbEntity
  8
Default
  6
Continuous
100
AcDbVertex
100
AcDb2dVertex
 10
-8.483665172986377
 20
27.7622833371683
 30
0.0
  0
VERTEX
  5
28D
330
27E
100
AcDbEntity
  8
Default
  6
Continuous
100
AcDbVertex
100
AcDb2dVertex
 10
-8.43388434408638
 20
27.77854001026829
 30
0.0
  0
VERTEX
  5
28E
330
27E
100
AcDbEntity
  8
Default
  6
Continuous
100
AcDbVertex
100
AcDb2dVertex
 10
-8.382120755886376
 20
27.79018980586829
 30
0.0
  0
VERTEX
  5
28F
330
27E
100
AcDbEntity
  8
Default
  6
Continuous
100
AcDbVertex
100
AcDb2dVertex
 10
-8.32926032708636
 20
27.7965219305683
 30
0.0
  0
VERTEX
  5
290
330
27E
100
AcDbEntity
  8
Default
  6
Continuous
100
AcDbVertex
100
AcDb2dVertex
 10
-8.276729143786369
 20
27.7971122560683
 30
0.0
  0
VERTEX
  5
291
330
27E
100
AcDbEntity
  8
Default
  6
Continuous
100
AcDbVertex
100
AcDb2dVertex
 10
-8.225065531486365
 20
27.79198543126829
 30
0.0
  0
VERTEX
  5
292
330
27E
100
AcDbEntity
  8
Default
  6
Continuous
100
AcDbVertex
100
AcDb2dVertex
 10
-8.184929302786365
 20
27.7839723318183
 30
0.0
  0
SEQEND
  5
293
330
27E
100
AcDbEntity
  8
Default
  6
Continuous
  0
SPLINE
  5
294
330
1F
100
AcDbEntity
  8
Default
  6
Continuous
100
AcDbSpline
210
0.0
220
0.0
230
1.0
 70
     8
 71
     3
 72
    16
 73
    12
 74
     0
 42
0.0000000001
 43
0.0000000001
 40
34.00101901141349
 40
34.00101901141349
 40
34.00101901141349
 40
34.00101901141349
 40
34.12600932011098
 40
34.25103956891134
 40
34.3760793121117
 40
34.50108003011206
 40
34.62606133661242
 40
34.75104962381278
 40
34.81354522091295
 40
34.87603875231313
 40
35.00101901141349
 40
35.00101901141349
 40
35.00101901141349
 40
35.00101901141349
 10
-8.184929302786365
 20
27.7839723318183
 30
0.0
 10
-8.052126380980265
 20
27.75149899796691
 30
0.0
 10
-7.785325361583282
 20
27.6911734045677
 30
0.0
 10
-7.382429935086378
 20
27.6135561953683
 30
0.0
 10
-6.977437024586379
 20
27.5477104316683
 30
0.0
 10
-6.570899386086367
 20
27.4927003696683
 30
0.0
 10
-6.163348878886367
 20
27.4464302445683
 30
0.0
 10
-5.823189724486369
 20
27.41312268306829
 30
0.0
 10
-5.550879215386374
 20
27.3884293580683
 30
0.0
 10
-5.278493271186363
 20
27.36468198226829
 30
0.0
 10
-5.074106765986372
 20
27.3480344059683
 30
0.0
 10
-4.937808101786374
 20
27.3375081512683
 30
0.0
  0
ARC
  5
295
330
1F
100
AcDbEntity
  8
Default
  6
Continuous
100
AcDbCircle
 10
-1.174616964593638
 20
76.06499382845811
 30
0.0
 40
48.87258401144535
100
AcDbArc
 50
265.5838511861208
 51
266.8934059876614
  0
POLYLINE
  5
296
330
1F
100
AcDbEntity
  8
Default
100
AcDb2dPolyline
 66
     1
 10
0.0
 20
0.0
 30
0.0
  0
VERTEX
  5
297
330
296
100
AcDbEntity
  8
Default
100
AcDbVertex
100
AcDb2dVertex
 10
-9.72220578381362
 20
11.9032213656683
 30
0.0
  0
VERTEX
  5
298
330
296
100
AcDbEntity
  8
Default
100
AcDbVertex
100
AcDb2dVertex
 10
-9.926035722513632
 20
12.15232686676829
 30
0.0
  0
VERTEX
  5
299
330
296
100
AcDbEntity
  8
Default
100
AcDbVertex
100
AcDb2dVertex
 10
-9.697482610613633
 20
12.3407213656683
 30
0.0
  0
SEQEND
  5
29A
330
296
100
AcDbEntity
  8
Default
  0
POLYLINE
  5
29B
330
1F
100
AcDbEntity
  8
Default
100
AcDb2dPolyline
 66
     1
 10
0.0
 20
0.0
 30
0.0
  0
VERTEX
  5
29C
330
29B
100
AcDbEntity
  8
Default
100
AcDbVertex
100
AcDb2dVertex
 10
9.72220578381362
 20
11.9032213656683
 30
0.0
  0
VERTEX
  5
29D
330
29B
100
AcDbEntity
  8
Default
100
AcDbVertex
100
AcDb2dVertex
 10
9.926035722513632
 20
12.15232686676829
 30
0.0
  0
VERTEX
  5
29E
330
29B
100
AcDbEntity
  8
Default
100
AcDbVertex
100
AcDb2dVertex
 10
9.697482610613633
 20
12.3407213656683
 30
0.0
  0
SEQEND
  5
29F
330
29B
100
AcDbEntity
  8
Default
  0
SPLINE
  5
2A0
330
1F
100
AcDbEntity
  8
Default
100
AcDbSpline
210
0.0
220
0.0
230
1.0
 70
    12
 71
     2
 72
     6
 73
     3
 74
     0
 42
0.0000000001
 43
0.0000000001
 40
0.0
 40
0.0
 40
0.0
 40
0.0173380954150765
 40
0.0173380954150765
 40
0.0173380954150765
 10
3.932233289051409
 20
26.405585438339
 30
0.0
 41
1.0
 10
3.92345639692924
 20
26.40496626629692
 30
0.0
 41
0.9780419435713372
 10
3.91569434915179
 20
26.40082285904655
 30
0.0
 41
1.0
  0
SPLINE
  5
2A1
330
1F
100
AcDbEntity
  8
Default
100
AcDbSpline
210
0.0
220
0.0
230
1.0
 70
    24
 71
     2
 72
     6
 73
     3
 74
     0
 42
0.0000000001
 43
0.0000000001
 40
0.0
 40
0.0
 40
0.0
 40
0.1115294638954875
 40
0.1115294638954875
 40
0.1115294638954875
 10
3.91569434915179
 20
26.40082285904655
 30
0.0
 10
3.931801657045809
 20
26.34743503307835
 30
0.0
 10
3.947908964939826
 20
26.29404720711015
 30
0.0
  0
POLYLINE
  5
2A2
330
1F
100
AcDbEntity
  8
Default
100
AcDb2dPolyline
 66
     1
 10
0.0
 20
0.0
 30
0.0
  0
VERTEX
  5
2A3
330
2A2
100
AcDbEntity
  8
Default
100
AcDbVertex
100
AcDb2dVertex
 10
3.947908964939826
 20
26.29404720711015
 30
0.0
  0
VERTEX
  5
2A4
330
2A2
100
AcDbEntity
  8
Default
100
AcDbVertex
100
AcDb2dVertex
 10
3.811359471191209
 20
27.26312101883032
 30
0.0
  0
SEQEND
  5
2A5
330
2A2
100
AcDbEntity
  8
Default
  0
ARC
  5
2A6
330
1F
100
AcDbEntity
  8
Default
100
AcDbCircle
 10
2.738752178915886
 20
45.90874201259426
 30
0.0
 40
19.46728025630697
100
AcDbArc
 50
274.6168211796018
 51
276.5220669114621
  0
LINE
  5
2A7
330
1F
100
AcDbEntity
  8
Default
100
AcDbLine
 10
4.305703938889122
 20
26.50462742935403
 30
0.0
 11
4.306762479726173
 21
26.49636836787001
 31
0.0
  0
ARC
  5
2A8
330
1F
100
AcDbEntity
  8
Default
100
AcDbCircle
 10
-80.17860919839806
 20
15.66811430674518
 30
0.0
 40
85.1764586819801
100
AcDbArc
 50
7.278957263966055
 51
7.303621893190655
  0
ARC
  5
2A9
330
1F
100
AcDbEntity
  8
Default
100
AcDbCircle
 10
2.803599137610417
 20
44.36663801623297
 30
0.0
 40
17.97001006062006
100
AcDbArc
 50
274.8131991347315
 51
276.8817883607649
  0
SPLINE
  5
2AA
330
1F
100
AcDbEntity
  8
Default
100
AcDbSpline
210
0.0
220
0.0
230
1.0
 70
    12
 71
     2
 72
     6
 73
     3
 74
     0
 42
0.0000000001
 43
0.0000000001
 40
0.0
 40
0.0
 40
0.0
 40
0.2508277888405657
 40
0.2508277888405657
 40
0.2508277888405657
 10
4.956788777130837
 20
26.52609329486731
 30
0.0
 41
1.0
 10
5.083849369481461
 20
26.54198574706421
 30
0.0
 41
0.9693972343546567
 10
5.188030015241791
 20
26.6164394723859
 30
0.0
 41
1.0
  0
SPLINE
  5
2AB
330
1F
100
AcDbEntity
  8
Default
100
AcDbSpline
210
0.0
220
0.0
230
1.0
 70
    12
 71
     2
 72
     6
 73
     3
 74
     0
 42
0.0000000001
 43
0.0000000001
 40
0.0
 40
0.0
 40
0.0
 40
0.0393067456422581
 40
0.0393067456422581
 40
0.0393067456422581
 10
5.188030015241791
 20
26.6164394723859
 30
0.0
 41
1.0
 10
5.185434469993238
 20
26.63576828296591
 30
0.0
 41
0.9999997988105347
 10
5.182069149168575
 20
26.65499275036925
 30
0.0
 41
0.99999999690695
  0
SPLINE
  5
2AC
330
1F
100
AcDbEntity
  8
Default
100
AcDbSpline
210
0.0
220
0.0
230
1.0
 70
    12
 71
     2
 72
     6
 73
     3
 74
     0
 42
0.0000000001
 43
0.0000000001
 40
0.0
 40
0.0
 40
0.0
 40
0.2497088885855053
 40
0.2497088885855053
 40
0.2497088885855053
 10
5.182069149168582
 20
26.65499275036925
 30
0.0
 41
1.0
 10
5.076441081715888
 20
26.58239833866492
 30
0.0
 41
0.9707367384459072
 10
4.949960141145779
 20
26.56745043407318
 30
0.0
 41
1.0
  0
ARC
  5
2AD
330
1F
100
AcDbEntity
  8
Default
100
AcDbCircle
 10
2.038812432441772
 20
62.43985347339496
 30
0.0
 40
35.67530767759909
100
AcDbArc
 50
273.5708924360052
 51
274.5956222970162
  0
LINE
  5
2AE
330
1F
100
AcDbEntity
  8
Default
100
AcDbLine
 10
4.260795140186884
 20
26.83380945362437
 30
0.0
 11
4.26173712500224
 21
26.82772035892982
 31
0.0
  0
ARC
  5
2AF
330
1F
100
AcDbEntity
  8
Default
100
AcDbCircle
 10
-0.0847625239702143
 20
26.15531553117174
 30
0.0
 40
4.398202752364889
100
AcDbArc
 50
8.433171606975481
 51
8.793963910015744
  0
ARC
  5
2B0
330
1F
100
AcDbEntity
  8
Default
100
AcDbCircle
 10
2.312353345846089
 20
58.52082383865188
 30
0.0
 40
31.78058457858758
100
AcDbArc
 50
273.5241557467899
 51
274.6763573226913
  0
SPLINE
  5
2B1
330
1F
100
AcDbEntity
  8
Default
100
AcDbSpline
210
0.0
220
0.0
230
1.0
 70
    12
 71
     2
 72
     6
 73
     3
 74
     0
 42
0.0000000001
 43
0.0000000001
 40
0.0
 40
0.0
 40
0.0
 40
0.2586130425465446
 40
0.2586130425465446
 40
0.2586130425465446
 10
4.903336903784306
 20
26.84603322593824
 30
0.0
 41
1.0
 10
5.035039759812673
 20
26.85737966539781
 30
0.0
 41
0.9675914429885938
 10
5.144401365499474
 20
26.93163882763414
 30
0.0
 41
1.0
  0
SPLINE
  5
2B2
330
1F
100
AcDbEntity
  8
Default
100
AcDbSpline
210
0.0
220
0.0
230
1.0
 70
    12
 71
     2
 72
     6
 73
     3
 74
     0
 42
0.0000000001
 43
0.0000000001
 40
0.0
 40
0.0
 40
0.0
 40
0.0329597756481124
 40
0.0329597756481124
 40
0.0329597756481124
 10
5.144401365499474
 20
26.93163882763414
 30
0.0
 41
1.0
 10
5.142357532466908
 20
26.94785026833215
 30
0.0
 41
0.9999854773655392
 10
5.139761451365632
 20
26.96399904596387
 30
0.0
 41
0.9999997527681319
  0
SPLINE
  5
2B3
330
1F
100
AcDbEntity
  8
Default
100
AcDbSpline
210
0.0
220
0.0
230
1.0
 70
    12
 71
     2
 72
     6
 73
     3
 74
     0
 42
0.0000000001
 43
0.0000000001
 40
0.0
 40
0.0
 40
0.0
 40
0.2589603388760939
 40
0.2589603388760939
 40
0.2589603388760939
 10
5.139761451365628
 20
26.96399904596387
 30
0.0
 41
1.0
 10
5.029163157254577
 20
26.88985576069222
 30
0.0
 41
0.9675434361208503
 10
4.897216721336092
 20
26.87924179681394
 30
0.0
 41
1.0
  0
ARC
  5
2B4
330
1F
100
AcDbEntity
  8
Default
100
AcDbCircle
 10
2.476811601585779
 20
39.85330719930423
 30
0.0
 40
13.8201255351219
100
AcDbArc
 50
277.795522822418
 51
280.5227059225404
  0
LINE
  5
2B5
330
1F
100
AcDbEntity
  8
Default
100
AcDbLine
 10
4.351347910412569
 20
26.16090114947433
 30
0.0
 11
4.352318676518363
 21
26.15457547131937
 31
0.0
  0
ARC
  5
2B6
330
1F
100
AcDbEntity
  8
Default
100
AcDbCircle
 10
7.920946020505751
 20
26.70223255802197
 30
0.0
 40
3.610405711948466
100
AcDbArc
 50
188.7247912579286
 51
189.1519691928252
  0
ARC
  5
2B7
330
1F
100
AcDbEntity
  8
Default
100
AcDbCircle
 10
2.421449121331702
 20
39.32444571952158
 30
0.0
 40
13.33757906746722
100
AcDbArc
 50
278.3420676028624
 51
281.1723261685857
  0
SPLINE
  5
2B8
330
1F
100
AcDbEntity
  8
Default
100
AcDbSpline
210
0.0
220
0.0
230
1.0
 70
    12
 71
     2
 72
     6
 73
     3
 74
     0
 42
0.0000000001
 43
0.0000000001
 40
0.0
 40
0.0
 40
0.0
 40
0.2286703024581835
 40
0.2286703024581835
 40
0.2286703024581835
 10
5.005745480447883
 20
26.23962903340792
 30
0.0
 41
1.0
 10
5.119895902764144
 20
26.26224590949554
 30
0.0
 41
0.9739833963501032
 10
5.212337475722974
 20
26.33293111012368
 30
0.0
 41
1.0
  0
SPLINE
  5
2B9
330
1F
100
AcDbEntity
  8
Default
100
AcDbSpline
210
0.0
220
0.0
230
1.0
 70
    12
 71
     2
 72
     6
 73
     3
 74
     0
 42
0.0000000001
 43
0.0000000001
 40
0.0
 40
0.0
 40
0.0
 40
0.0258052011654917
 40
0.0258052011654917
 40
0.0258052011654917
 10
5.212337475722974
 20
26.33293111012368
 30
0.0
 41
1.0
 10
5.212534694823312
 20
26.34583372965174
 30
0.0
 41
0.999822609931566
 10
5.212245824398293
 20
26.35873462264165
 30
0.0
 41
1.0
  0
SPLINE
  5
2BA
330
1F
100
AcDbEntity
  8
Default
100
AcDbSpline
210
0.0
220
0.0
230
1.0
 70
    12
 71
     2
 72
     6
 73
     3
 74
     0
 42
0.0000000001
 43
0.0000000001
 40
0.0
 40
0.0
 40
0.0
 40
0.2331431811534332
 40
0.2331431811534332
 40
0.2331431811534332
 10
5.212245824398293
 20
26.35873462264165
 30
0.0
 41
1.0
 10
5.117289917899432
 20
26.28761556956897
 30
0.0
 41
0.9740991827395424
 10
5.000714353577065
 20
26.26560008202284
 30
0.0
 41
1.0
  0
SPLINE
  5
2BB
330
1F
100
AcDbEntity
  8
Default
100
AcDbSpline
210
0.0
220
0.0
230
1.0
 70
    12
 71
     2
 72
     6
 73
     3
 74
     0
 42
0.0000000001
 43
0.0000000001
 40
-0.3334060439454795
 40
-0.3334060439454795
 40
-0.3334060439454795
 40
0.0
 40
0.0
 40
0.0
 10
5.487174600955596
 20
27.38374558192346
 30
0.0
 41
1.0
 10
5.506005673439025
 20
27.21807123814879
 30
0.0
 41
0.999657403781152
 10
5.533439472701117
 20
27.05253545754527
 30
0.0
 41
1.0
  0
SPLINE
  5
2BC
330
1F
100
AcDbEntity
  8
Default
100
AcDbSpline
210
0.0
220
0.0
230
1.0
 70
    12
 71
     2
 72
     6
 73
     3
 74
     0
 42
0.0000000001
 43
0.0000000001
 40
-0.5113006500514725
 40
-0.5113006500514725
 40
-0.5113006500514725
 40
0.0
 40
0.0
 40
0.0
 10
5.533439472701117
 20
27.05253545754527
 30
0.0
 41
1.0
 10
5.457606798470563
 20
26.80727368898325
 30
0.0
 41
0.9998280076521521
 10
5.385695196472737
 20
26.54100785311937
 30
0.0
 41
1.0
  0
SPLINE
  5
2BD
330
1F
100
AcDbEntity
  8
Default
100
AcDbSpline
210
0.0
220
0.0
230
1.0
 70
    12
 71
     2
 72
     6
 73
     3
 74
     0
 42
0.0000000001
 43
0.0000000001
 40
-0.5389965836581292
 40
-0.5389965836581292
 40
-0.5389965836581292
 40
0.0
 40
0.0
 40
0.0
 10
5.385695196472737
 20
26.54100785311937
 30
0.0
 41
1.0
 10
5.309680342578458
 20
26.25276479719374
 30
0.0
 41
0.8621117229312395
 10
5.020392194540176
 20
26.1788372247695
 30
0.0
 41
1.0
  0
ARC
  5
2BE
330
1F
100
AcDbEntity
  8
Default
100
AcDbCircle
 10
1.239569000423627
 20
41.20997111501833
 30
0.0
 40
15.49934224577794
100
AcDbArc
 50
280.7252028066097
 51
284.1188705224843
  0
ARC
  5
2BF
330
1F
100
AcDbEntity
  8
Default
100
AcDbCircle
 10
4.100332129683094
 20
26.10622929073033
 30
0.0
 40
0.1270625587413707
100
AcDbArc
 50
189.3949197430565
 51
280.72520280661
  0
POLYLINE
  5
2C0
330
1F
100
AcDbEntity
  8
Default
100
AcDb2dPolyline
 66
     1
 10
0.0
 20
0.0
 30
0.0
  0
VERTEX
  5
2C1
330
2C0
100
AcDbEntity
  8
Default
100
AcDbVertex
100
AcDb2dVertex
 10
3.974973906862628
 20
26.0854877911414
 30
0.0
  0
VERTEX
  5
2C2
330
2C0
100
AcDbEntity
  8
Default
100
AcDbVertex
100
AcDb2dVertex
 10
3.91569434915179
 20
26.40082285904655
 30
0.0
  0
SEQEND
  5
2C3
330
2C0
100
AcDbEntity
  8
Default
  0
ARC
  5
2C4
330
1F
100
AcDbEntity
  8
Default
100
AcDbCircle
 10
4.668216867354401
 20
27.57375386578375
 30
0.0
 40
0.6744779630824255
100
AcDbArc
 50
334.0663292787139
 51
342.1128109109636
  0
ARC
  5
2C5
330
1F
100
AcDbEntity
  8
Default
100
AcDbCircle
 10
4.82511821373255
 20
27.49745268713448
 30
0.0
 40
0.5000076150041797
100
AcDbArc
 50
274.2389774450766
 51
334.0663292787148
  0
SPLINE
  5
2C6
330
1F
100
AcDbEntity
  8
Default
100
AcDbSpline
210
0.0
220
0.0
230
1.0
 70
    12
 71
     2
 72
     6
 73
     3
 74
     0
 42
0.0000000001
 43
0.0000000001
 40
-0.8819556308869502
 40
-0.8819556308869502
 40
-0.8819556308869502
 40
0.0
 40
0.0
 40
0.0
 10
4.862077095587479
 20
26.99881288114804
 30
0.0
 41
1.0
 10
4.422294184822364
 20
26.96625760327068
 30
0.0
 41
0.9999713796876327
 10
3.982069027447591
 20
26.94036039235779
 30
0.0
 41
1.0
  0
SPLINE
  5
2C7
330
1F
100
AcDbEntity
  8
Default
100
AcDbSpline
210
0.0
220
0.0
230
1.0
 70
    12
 71
     2
 72
     6
 73
     3
 74
     0
 42
0.0000000001
 43
0.0000000001
 40
0.0
 40
0.0
 40
0.0
 40
0.1797454813701551
 40
0.1797454813701551
 40
0.1797454813701551
 10
3.982069027447591
 20
26.94036039235779
 30
0.0
 41
1.0
 10
3.872851018561568
 20
26.93393456865705
 30
0.0
 41
0.7524925652658285
 10
3.85201153555519
 20
27.04133838899548
 30
0.0
 41
1.0
  0
SPLINE
  5
2C8
330
1F
100
AcDbEntity
  8
Default
100
AcDbSpline
210
0.0
220
0.0
230
1.0
 70
    24
 71
     2
 72
     6
 73
     3
 74
     0
 42
0.0000000001
 43
0.0000000001
 40
0.0
 40
0.0
 40
0.0
 40
0.1686969534964888
 40
0.1686969534964888
 40
0.1686969534964888
 10
3.85201153555519
 20
27.04133838899548
 30
0.0
 10
3.835948211609561
 20
27.12414319050824
 30
0.0
 10
3.81988488766393
 20
27.206947992021
 30
0.0
  0
SPLINE
  5
2C9
330
1F
100
AcDbEntity
  8
Default
100
AcDbSpline
210
0.0
220
0.0
230
1.0
 70
    12
 71
     2
 72
     6
 73
     3
 74
     0
 42
0.0000000001
 43
0.0000000001
 40
0.0
 40
0.0
 40
0.0
 40
0.0015672370115101
 40
0.0015672370115101
 40
0.0015672370115101
 10
5.533977455662367
 20
27.15414513510159
 30
0.0
 41
1.0
 10
5.534178102696636
 20
27.15490269494389
 30
0.0
 41
0.9998800978383098
 10
5.534355194458442
 20
27.15566610483047
 30
0.0
 41
1.0
  0
SPLINE
  5
2CA
330
1F
100
AcDbEntity
  8
Default
100
AcDbSpline
210
0.0
220
0.0
230
1.0
 70
    12
 71
     2
 72
     6
 73
     3
 74
     0
 42
0.0000000001
 43
0.0000000001
 40
0.0
 40
0.0
 40
0.0
 40
0.0173380954150765
 40
0.0173380954150765
 40
0.0173380954150765
 10
-3.932233289051409
 20
26.405585438339
 30
0.0
 41
1.0
 10
-3.92345639692924
 20
26.40496626629692
 30
0.0
 41
0.9780419435713372
 10
-3.91569434915179
 20
26.40082285904655
 30
0.0
 41
1.0
  0
SPLINE
  5
2CB
330
1F
100
AcDbEntity
  8
Default
100
AcDbSpline
210
0.0
220
0.0
230
1.0
 70
    24
 71
     2
 72
     6
 73
     3
 74
     0
 42
0.0000000001
 43
0.0000000001
 40
0.0
 40
0.0
 40
0.0
 40
0.1115294638954875
 40
0.1115294638954875
 40
0.1115294638954875
 10
-3.91569434915179
 20
26.40082285904655
 30
0.0
 10
-3.931801657045809
 20
26.34743503307835
 30
0.0
 10
-3.947908964939826
 20
26.29404720711015
 30
0.0
  0
POLYLINE
  5
2CC
330
1F
100
AcDbEntity
  8
Default
100
AcDb2dPolyline
 66
     1
 10
0.0
 20
0.0
 30
0.0
  0
VERTEX
  5
2CD
330
2CC
100
AcDbEntity
  8
Default
100
AcDbVertex
100
AcDb2dVertex
 10
-3.947908964939826
 20
26.29404720711015
 30
0.0
  0
VERTEX
  5
2CE
330
2CC
100
AcDbEntity
  8
Default
100
AcDbVertex
100
AcDb2dVertex
 10
-3.811359471191209
 20
27.26312101883032
 30
0.0
  0
SEQEND
  5
2CF
330
2CC
100
AcDbEntity
  8
Default
  0
ARC
  5
2D0
330
1F
100
AcDbEntity
  8
Default
100
AcDbCircle
 10
-2.738752178915886
 20
45.90874201259426
 30
0.0
 40
19.46728025630697
100
AcDbArc
 50
263.477933088538
 51
265.3831788203983
  0
LINE
  5
2D1
330
1F
100
AcDbEntity
  8
Default
100
AcDbLine
 10
-4.305703938889122
 20
26.50462742935403
 30
0.0
 11
-4.306762479726173
 21
26.49636836787001
 31
0.0
  0
ARC
  5
2D2
330
1F
100
AcDbEntity
  8
Default
100
AcDbCircle
 10
80.17860919839806
 20
15.66811430674518
 30
0.0
 40
85.1764586819801
100
AcDbArc
 50
172.6963781068094
 51
172.721042736034
  0
ARC
  5
2D3
330
1F
100
AcDbEntity
  8
Default
100
AcDbCircle
 10
-2.803599137610417
 20
44.36663801623297
 30
0.0
 40
17.97001006062006
100
AcDbArc
 50
263.118211639235
 51
265.1868008652685
  0
SPLINE
  5
2D4
330
1F
100
AcDbEntity
  8
Default
100
AcDbSpline
210
0.0
220
0.0
230
1.0
 70
    12
 71
     2
 72
     6
 73
     3
 74
     0
 42
0.0000000001
 43
0.0000000001
 40
0.0
 40
0.0
 40
0.0
 40
0.2508277888405657
 40
0.2508277888405657
 40
0.2508277888405657
 10
-4.956788777130837
 20
26.52609329486731
 30
0.0
 41
1.0
 10
-5.083849369481461
 20
26.54198574706421
 30
0.0
 41
0.9693972343546567
 10
-5.188030015241791
 20
26.6164394723859
 30
0.0
 41
1.0
  0
SPLINE
  5
2D5
330
1F
100
AcDbEntity
  8
Default
100
AcDbSpline
210
0.0
220
0.0
230
1.0
 70
    12
 71
     2
 72
     6
 73
     3
 74
     0
 42
0.0000000001
 43
0.0000000001
 40
0.0
 40
0.0
 40
0.0
 40
0.0393067456422581
 40
0.0393067456422581
 40
0.0393067456422581
 10
-5.188030015241791
 20
26.6164394723859
 30
0.0
 41
1.0
 10
-5.185434469993238
 20
26.63576828296591
 30
0.0
 41
0.9999997988105347
 10
-5.182069149168575
 20
26.65499275036925
 30
0.0
 41
0.99999999690695
  0
SPLINE
  5
2D6
330
1F
100
AcDbEntity
  8
Default
100
AcDbSpline
210
0.0
220
0.0
230
1.0
 70
    12
 71
     2
 72
     6
 73
     3
 74
     0
 42
0.0000000001
 43
0.0000000001
 40
0.0
 40
0.0
 40
0.0
 40
0.2497088885855053
 40
0.2497088885855053
 40
0.2497088885855053
 10
-5.182069149168582
 20
26.65499275036925
 30
0.0
 41
1.0
 10
-5.076441081715888
 20
26.58239833866492
 30
0.0
 41
0.9707367384459072
 10
-4.949960141145779
 20
26.56745043407318
 30
0.0
 41
1.0
  0
ARC
  5
2D7
330
1F
100
AcDbEntity
  8
Default
100
AcDbCircle
 10
-2.038812432441772
 20
62.43985347339496
 30
0.0
 40
35.67530767759909
100
AcDbArc
 50
265.4043777029838
 51
266.4291075639948
  0
LINE
  5
2D8
330
1F
100
AcDbEntity
  8
Default
100
AcDbLine
 10
-4.260795140186884
 20
26.83380945362437
 30
0.0
 11
-4.26173712500224
 21
26.82772035892982
 31
0.0
  0
ARC
  5
2D9
330
1F
100
AcDbEntity
  8
Default
100
AcDbCircle
 10
0.0847625239702143
 20
26.15531553117174
 30
0.0
 40
4.398202752364889
100
AcDbArc
 50
171.2060360899843
 51
171.5668283930245
  0
ARC
  5
2DA
330
1F
100
AcDbEntity
  8
Default
100
AcDbCircle
 10
-2.312353345846089
 20
58.52082383865188
 30
0.0
 40
31.78058457858758
100
AcDbArc
 50
265.3236426773087
 51
266.4758442532101
  0
SPLINE
  5
2DB
330
1F
100
AcDbEntity
  8
Default
100
AcDbSpline
210
0.0
220
0.0
230
1.0
 70
    12
 71
     2
 72
     6
 73
     3
 74
     0
 42
0.0000000001
 43
0.0000000001
 40
0.0
 40
0.0
 40
0.0
 40
0.2586130425465446
 40
0.2586130425465446
 40
0.2586130425465446
 10
-4.903336903784306
 20
26.84603322593824
 30
0.0
 41
1.0
 10
-5.035039759812673
 20
26.85737966539781
 30
0.0
 41
0.9675914429885938
 10
-5.144401365499474
 20
26.93163882763414
 30
0.0
 41
1.0
  0
SPLINE
  5
2DC
330
1F
100
AcDbEntity
  8
Default
100
AcDbSpline
210
0.0
220
0.0
230
1.0
 70
    12
 71
     2
 72
     6
 73
     3
 74
     0
 42
0.0000000001
 43
0.0000000001
 40
0.0
 40
0.0
 40
0.0
 40
0.0329597756481124
 40
0.0329597756481124
 40
0.0329597756481124
 10
-5.144401365499474
 20
26.93163882763414
 30
0.0
 41
1.0
 10
-5.142357532466908
 20
26.94785026833215
 30
0.0
 41
0.9999854773655392
 10
-5.139761451365632
 20
26.96399904596387
 30
0.0
 41
0.9999997527681319
  0
SPLINE
  5
2DD
330
1F
100
AcDbEntity
  8
Default
100
AcDbSpline
210
0.0
220
0.0
230
1.0
 70
    12
 71
     2
 72
     6
 73
     3
 74
     0
 42
0.0000000001
 43
0.0000000001
 40
0.0
 40
0.0
 40
0.0
 40
0.2589603388760939
 40
0.2589603388760939
 40
0.2589603388760939
 10
-5.139761451365628
 20
26.96399904596387
 30
0.0
 41
1.0
 10
-5.029163157254577
 20
26.88985576069222
 30
0.0
 41
0.9675434361208503
 10
-4.897216721336092
 20
26.87924179681394
 30
0.0
 41
1.0
  0
ARC
  5
2DE
330
1F
100
AcDbEntity
  8
Default
100
AcDbCircle
 10
-2.476811601585779
 20
39.85330719930423
 30
0.0
 40
13.8201255351219
100
AcDbArc
 50
259.4772940774597
 51
262.204477177582
  0
LINE
  5
2DF
330
1F
100
AcDbEntity
  8
Default
100
AcDbLine
 10
-4.351347910412569
 20
26.16090114947433
 30
0.0
 11
-4.352318676518363
 21
26.15457547131937
 31
0.0
  0
ARC
  5
2E0
330
1F
100
AcDbEntity
  8
Default
100
AcDbCircle
 10
-7.920946020505751
 20
26.70223255802197
 30
0.0
 40
3.610405711948466
100
AcDbArc
 50
350.8480308071748
 51
351.2752087420715
  0
ARC
  5
2E1
330
1F
100
AcDbEntity
  8
Default
100
AcDbCircle
 10
-2.421449121331702
 20
39.32444571952158
 30
0.0
 40
13.33757906746722
100
AcDbArc
 50
258.8276738314143
 51
261.6579323971376
  0
SPLINE
  5
2E2
330
1F
100
AcDbEntity
  8
Default
100
AcDbSpline
210
0.0
220
0.0
230
1.0
 70
    12
 71
     2
 72
     6
 73
     3
 74
     0
 42
0.0000000001
 43
0.0000000001
 40
0.0
 40
0.0
 40
0.0
 40
0.2286703024581835
 40
0.2286703024581835
 40
0.2286703024581835
 10
-5.005745480447883
 20
26.23962903340792
 30
0.0
 41
1.0
 10
-5.119895902764144
 20
26.26224590949554
 30
0.0
 41
0.9739833963501032
 10
-5.212337475722974
 20
26.33293111012368
 30
0.0
 41
1.0
  0
SPLINE
  5
2E3
330
1F
100
AcDbEntity
  8
Default
100
AcDbSpline
210
0.0
220
0.0
230
1.0
 70
    12
 71
     2
 72
     6
 73
     3
 74
     0
 42
0.0000000001
 43
0.0000000001
 40
0.0
 40
0.0
 40
0.0
 40
0.0258052011654917
 40
0.0258052011654917
 40
0.0258052011654917
 10
-5.212337475722974
 20
26.33293111012368
 30
0.0
 41
1.0
 10
-5.212534694823312
 20
26.34583372965174
 30
0.0
 41
0.999822609931566
 10
-5.212245824398293
 20
26.35873462264165
 30
0.0
 41
1.0
  0
SPLINE
  5
2E4
330
1F
100
AcDbEntity
  8
Default
100
AcDbSpline
210
0.0
220
0.0
230
1.0
 70
    12
 71
     2
 72
     6
 73
     3
 74
     0
 42
0.0000000001
 43
0.0000000001
 40
0.0
 40
0.0
 40
0.0
 40
0.2331431811534332
 40
0.2331431811534332
 40
0.2331431811534332
 10
-5.212245824398293
 20
26.35873462264165
 30
0.0
 41
1.0
 10
-5.117289917899432
 20
26.28761556956897
 30
0.0
 41
0.9740991827395424
 10
-5.000714353577065
 20
26.26560008202284
 30
0.0
 41
1.0
  0
SPLINE
  5
2E5
330
1F
100
AcDbEntity
  8
Default
100
AcDbSpline
210
0.0
220
0.0
230
1.0
 70
    12
 71
     2
 72
     6
 73
     3
 74
     0
 42
0.0000000001
 43
0.0000000001
 40
-0.3334060439454795
 40
-0.3334060439454795
 40
-0.3334060439454795
 40
0.0
 40
0.0
 40
0.0
 10
-5.487174600955596
 20
27.38374558192346
 30
0.0
 41
1.0
 10
-5.506005673439025
 20
27.21807123814879
 30
0.0
 41
0.999657403781152
 10
-5.533439472701117
 20
27.05253545754527
 30
0.0
 41
1.0
  0
SPLINE
  5
2E6
330
1F
100
AcDbEntity
  8
Default
100
AcDbSpline
210
0.0
220
0.0
230
1.0
 70
    12
 71
     2
 72
     6
 73
     3
 74
     0
 42
0.0000000001
 43
0.0000000001
 40
-0.5113006500514725
 40
-0.5113006500514725
 40
-0.5113006500514725
 40
0.0
 40
0.0
 40
0.0
 10
-5.533439472701117
 20
27.05253545754527
 30
0.0
 41
1.0
 10
-5.457606798470563
 20
26.80727368898325
 30
0.0
 41
0.9998280076521521
 10
-5.385695196472737
 20
26.54100785311937
 30
0.0
 41
1.0
  0
SPLINE
  5
2E7
330
1F
100
AcDbEntity
  8
Default
100
AcDbSpline
210
0.0
220
0.0
230
1.0
 70
    12
 71
     2
 72
     6
 73
     3
 74
     0
 42
0.0000000001
 43
0.0000000001
 40
-0.5389965836581292
 40
-0.5389965836581292
 40
-0.5389965836581292
 40
0.0
 40
0.0
 40
0.0
 10
-5.385695196472737
 20
26.54100785311937
 30
0.0
 41
1.0
 10
-5.309680342578458
 20
26.25276479719374
 30
0.0
 41
0.8621117229312395
 10
-5.020392194540176
 20
26.1788372247695
 30
0.0
 41
1.0
  0
ARC
  5
2E8
330
1F
100
AcDbEntity
  8
Default
100
AcDbCircle
 10
-1.239569000423627
 20
41.20997111501833
 30
0.0
 40
15.49934224577794
100
AcDbArc
 50
255.8811294775157
 51
259.2747971933903
  0
ARC
  5
2E9
330
1F
100
AcDbEntity
  8
Default
100
AcDbCircle
 10
-4.100332129683094
 20
26.10622929073033
 30
0.0
 40
0.1270625587413707
100
AcDbArc
 50
259.27479719339
 51
350.6050802569434
  0
POLYLINE
  5
2EA
330
1F
100
AcDbEntity
  8
Default
100
AcDb2dPolyline
 66
     1
 10
0.0
 20
0.0
 30
0.0
  0
VERTEX
  5
2EB
330
2EA
100
AcDbEntity
  8
Default
100
AcDbVertex
100
AcDb2dVertex
 10
-3.974973906862628
 20
26.0854877911414
 30
0.0
  0
VERTEX
  5
2EC
330
2EA
100
AcDbEntity
  8
Default
100
AcDbVertex
100
AcDb2dVertex
 10
-3.91569434915179
 20
26.40082285904655
 30
0.0
  0
SEQEND
  5
2ED
330
2EA
100
AcDbEntity
  8
Default
  0
ARC
  5
2EE
330
1F
100
AcDbEntity
  8
Default
100
AcDbCircle
 10
-4.668216867354401
 20
27.57375386578375
 30
0.0
 40
0.6744779630824255
100
AcDbArc
 50
197.8871890890363
 51
205.9336707212861
  0
ARC
  5
2EF
330
1F
100
AcDbEntity
  8
Default
100
AcDbCircle
 10
-4.82511821373255
 20
27.49745268713448
 30
0.0
 40
0.5000076150041797
100
AcDbArc
 50
205.9336707212852
 51
265.7610225549234
  0
SPLINE
  5
2F0
330
1F
100
AcDbEntity
  8
Default
100
AcDbSpline
210
0.0
220
0.0
230
1.0
 70
    12
 71
     2
 72
     6
 73
     3
 74
     0
 42
0.0000000001
 43
0.0000000001
 40
-0.8819556308869502
 40
-0.8819556308869502
 40
-0.8819556308869502
 40
0.0
 40
0.0
 40
0.0
 10
-4.862077095587479
 20
26.99881288114804
 30
0.0
 41
1.0
 10
-4.422294184822364
 20
26.96625760327068
 30
0.0
 41
0.9999713796876327
 10
-3.982069027447591
 20
26.94036039235779
 30
0.0
 41
1.0
  0
SPLINE
  5
2F1
330
1F
100
AcDbEntity
  8
Default
100
AcDbSpline
210
0.0
220
0.0
230
1.0
 70
    12
 71
     2
 72
     6
 73
     3
 74
     0
 42
0.0000000001
 43
0.0000000001
 40
0.0
 40
0.0
 40
0.0
 40
0.1797454813701551
 40
0.1797454813701551
 40
0.1797454813701551
 10
-3.982069027447591
 20
26.94036039235779
 30
0.0
 41
1.0
 10
-3.872851018561568
 20
26.93393456865705
 30
0.0
 41
0.7524925652658285
 10
-3.85201153555519
 20
27.04133838899548
 30
0.0
 41
1.0
  0
SPLINE
  5
2F2
330
1F
100
AcDbEntity
  8
Default
100
AcDbSpline
210
0.0
220
0.0
230
1.0
 70
    24
 71
     2
 72
     6
 73
     3
 74
     0
 42
0.0000000001
 43
0.0000000001
 40
0.0
 40
0.0
 40
0.0
 40
0.1686969534964888
 40
0.1686969534964888
 40
0.1686969534964888
 10
-3.85201153555519
 20
27.04133838899548
 30
0.0
 10
-3.835948211609561
 20
27.12414319050824
 30
0.0
 10
-3.81988488766393
 20
27.206947992021
 30
0.0
  0
POLYLINE
  5
2F3
330
1F
100
AcDbEntity
  8
Default
  6
Continuous
100
AcDb2dPolyline
 66
     1
 10
0.0
 20
0.0
 30
0.0
  0
VERTEX
  5
2F4
330
2F3
100
AcDbEntity
  8
Default
  6
Continuous
100
AcDbVertex
100
AcDb2dVertex
 10
-3.932587289586365
 20
26.3038598464683
 30
0.0
  0
VERTEX
  5
2F5
330
2F3
100
AcDbEntity
  8
Default
  6
Continuous
100
AcDbVertex
100
AcDb2dVertex
 10
-3.546530847486366
 20
26.2269224728683
 30
0.0
  0
VERTEX
  5
2F6
330
2F3
100
AcDbEntity
  8
Default
  6
Continuous
100
AcDbVertex
100
AcDb2dVertex
 10
-3.004753189286362
 20
26.1402730206683
 30
0.0
  0
VERTEX
  5
2F7
330
2F3
100
AcDbEntity
  8
Default
  6
Continuous
100
AcDbVertex
100
AcDb2dVertex
 10
-2.430560419386367
 20
26.06902726096829
 30
0.0
  0
VERTEX
  5
2F8
330
2F3
100
AcDbEntity
  8
Default
  6
Continuous
100
AcDbVertex
100
AcDb2dVertex
 10
-1.82088554808638
 20
26.01340847516829
 30
0.0
  0
VERTEX
  5
2F9
330
2F3
100
AcDbEntity
  8
Default
  6
Continuous
100
AcDbVertex
100
AcDb2dVertex
 10
-1.190462115086376
 20
25.9748906149683
 30
0.0
  0
VERTEX
  5
2FA
330
2F3
100
AcDbEntity
  8
Default
  6
Continuous
100
AcDbVertex
100
AcDb2dVertex
 10
-0.5508639298863613
 20
25.95333029426829
 30
0.0
  0
VERTEX
  5
2FB
330
2F3
100
AcDbEntity
  8
Default
  6
Continuous
100
AcDbVertex
100
AcDb2dVertex
 10
0.0000054389136324
 20
25.9477297365683
 30
0.0
  0
SEQEND
  5
2FC
330
2F3
100
AcDbEntity
  8
Default
  6
Continuous
  0
POLYLINE
  5
2FD
330
1F
100
AcDbEntity
  8
Default
  6
Continuous
100
AcDb2dPolyline
 66
     1
 10
0.0
 20
0.0
 30
0.0
  0
VERTEX
  5
2FE
330
2FD
100
AcDbEntity
  8
Default
  6
Continuous
100
AcDbVertex
100
AcDb2dVertex
 10
-3.878468941486375
 20
26.7965580045683
 30
0.0
  0
VERTEX
  5
2FF
330
2FD
100
AcDbEntity
  8
Default
  6
Continuous
100
AcDbVertex
100
AcDb2dVertex
 10
-3.660190144486364
 20
26.7602007768683
 30
0.0
  0
VERTEX
  5
300
330
2FD
100
AcDbEntity
  8
Default
  6
Continuous
100
AcDbVertex
100
AcDb2dVertex
 10
-3.365396741486364
 20
26.7159325093683
 30
0.0
  0
VERTEX
  5
301
330
2FD
100
AcDbEntity
  8
Default
  6
Continuous
100
AcDbVertex
100
AcDb2dVertex
 10
-3.064217238486378
 20
26.6753902282683
 30
0.0
  0
VERTEX
  5
302
330
2FD
100
AcDbEntity
  8
Default
  6
Continuous
100
AcDbVertex
100
AcDb2dVertex
 10
-2.757990405186376
 20
26.6386445023683
 30
0.0
  0
VERTEX
  5
303
330
2FD
100
AcDbEntity
  8
Default
  6
Continuous
100
AcDbVertex
100
AcDb2dVertex
 10
-2.44529521718637
 20
26.6054702525683
 30
0.0
  0
VERTEX
  5
304
330
2FD
100
AcDbEntity
  8
Default
  6
Continuous
100
AcDbVertex
100
AcDb2dVertex
 10
-2.120317611786362
 20
26.5753623142683
 30
0.0
  0
VERTEX
  5
305
330
2FD
100
AcDbEntity
  8
Default
  6
Continuous
100
AcDbVertex
100
AcDb2dVertex
 10
-1.783915977986368
 20
26.5487808302683
 30
0.0
  0
VERTEX
  5
306
330
2FD
100
AcDbEntity
  8
Default
  6
Continuous
100
AcDbVertex
100
AcDb2dVertex
 10
-1.43836308878636
 20
26.5263009699683
 30
0.0
  0
VERTEX
  5
307
330
2FD
100
AcDbEntity
  8
Default
  6
Continuous
100
AcDbVertex
100
AcDb2dVertex
 10
-1.082204223286368
 20
26.5081612559683
 30
0.0
  0
VERTEX
  5
308
330
2FD
100
AcDbEntity
  8
Default
  6
Continuous
100
AcDbVertex
100
AcDb2dVertex
 10
-0.7155250309863561
 20
26.4948810897683
 30
0.0
  0
VERTEX
  5
309
330
2FD
100
AcDbEntity
  8
Default
  6
Continuous
100
AcDbVertex
100
AcDb2dVertex
 10
-0.3400590317863532
 20
26.4869888125683
 30
0.0
  0
VERTEX
  5
30A
330
2FD
100
AcDbEntity
  8
Default
  6
Continuous
100
AcDbVertex
100
AcDb2dVertex
 10
-0.0000009127863621
 20
26.48472957216829
 30
0.0
  0
SEQEND
  5
30B
330
2FD
100
AcDbEntity
  8
Default
  6
Continuous
  0
POLYLINE
  5
30C
330
1F
100
AcDbEntity
  8
Default
  6
Continuous
100
AcDb2dPolyline
 66
     1
 10
0.0
 20
0.0
 30
0.0
  0
VERTEX
  5
30D
330
30C
100
AcDbEntity
  8
Default
  6
Continuous
100
AcDbVertex
100
AcDb2dVertex
 10
0.000001002813633
 20
26.48472957216829
 30
0.0
  0
VERTEX
  5
30E
330
30C
100
AcDbEntity
  8
Default
  6
Continuous
100
AcDbVertex
100
AcDb2dVertex
 10
0.3400591216136206
 20
26.4869888116683
 30
0.0
  0
VERTEX
  5
30F
330
30C
100
AcDbEntity
  8
Default
  6
Continuous
100
AcDbVertex
100
AcDb2dVertex
 10
0.7155251207136359
 20
26.4948810877683
 30
0.0
  0
VERTEX
  5
310
330
30C
100
AcDbEntity
  8
Default
  6
Continuous
100
AcDbVertex
100
AcDb2dVertex
 10
1.082204313013648
 20
26.50816125286829
 30
0.0
  0
VERTEX
  5
311
330
30C
100
AcDbEntity
  8
Default
  6
Continuous
100
AcDbVertex
100
AcDb2dVertex
 10
1.438363178413624
 20
26.52630096586829
 30
0.0
  0
VERTEX
  5
312
330
30C
100
AcDbEntity
  8
Default
  6
Continuous
100
AcDbVertex
100
AcDb2dVertex
 10
1.783916067613632
 20
26.5487808251683
 30
0.0
  0
VERTEX
  5
313
330
30C
100
AcDbEntity
  8
Default
  6
Continuous
100
AcDbVertex
100
AcDb2dVertex
 10
2.120317701413626
 20
26.5753623082683
 30
0.0
  0
VERTEX
  5
314
330
30C
100
AcDbEntity
  8
Default
  6
Continuous
100
AcDbVertex
100
AcDb2dVertex
 10
2.445295306713632
 20
26.6054702456683
 30
0.0
  0
VERTEX
  5
315
330
30C
100
AcDbEntity
  8
Default
  6
Continuous
100
AcDbVertex
100
AcDb2dVertex
 10
2.757990494713624
 20
26.6386444945683
 30
0.0
  0
VERTEX
  5
316
330
30C
100
AcDbEntity
  8
Default
  6
Continuous
100
AcDbVertex
100
AcDb2dVertex
 10
3.064217328113642
 20
26.6753902195683
 30
0.0
  0
VERTEX
  5
317
330
30C
100
AcDbEntity
  8
Default
  6
Continuous
100
AcDbVertex
100
AcDb2dVertex
 10
3.365396831113628
 20
26.7159324997683
 30
0.0
  0
VERTEX
  5
318
330
30C
100
AcDbEntity
  8
Default
  6
Continuous
100
AcDbVertex
100
AcDb2dVertex
 10
3.660190234113628
 20
26.76020076646829
 30
0.0
  0
VERTEX
  5
319
330
30C
100
AcDbEntity
  8
Default
  6
Continuous
100
AcDbVertex
100
AcDb2dVertex
 10
3.878468988013623
 20
26.7965579862683
 30
0.0
  0
SEQEND
  5
31A
330
30C
100
AcDbEntity
  8
Default
  6
Continuous
  0
POLYLINE
  5
31B
330
1F
100
AcDbEntity
  8
Default
  6
Continuous
100
AcDb2dPolyline
 66
     1
 10
0.0
 20
0.0
 30
0.0
  0
VERTEX
  5
31C
330
31B
100
AcDbEntity
  8
Default
  6
Continuous
100
AcDbVertex
100
AcDb2dVertex
 10
0.0000040502136187
 20
26.3852297359683
 30
0.0
  0
VERTEX
  5
31D
330
31B
100
AcDbEntity
  8
Default
  6
Continuous
100
AcDbVertex
100
AcDb2dVertex
 10
-0.5243035726863639
 20
26.3903802891683
 30
0.0
  0
VERTEX
  5
31E
330
31B
100
AcDbEntity
  8
Default
  6
Continuous
100
AcDbVertex
100
AcDb2dVertex
 10
-1.139752640486364
 20
26.4105070288683
 30
0.0
  0
VERTEX
  5
31F
330
31B
100
AcDbEntity
  8
Default
  6
Continuous
100
AcDbVertex
100
AcDb2dVertex
 10
-1.746885953186364
 20
26.4465997136683
 30
0.0
  0
VERTEX
  5
320
330
31B
100
AcDbEntity
  8
Default
  6
Continuous
100
AcDbVertex
100
AcDb2dVertex
 10
-2.334404082686376
 20
26.4987864990683
 30
0.0
  0
VERTEX
  5
321
330
31B
100
AcDbEntity
  8
Default
  6
Continuous
100
AcDbVertex
100
AcDb2dVertex
 10
-2.88870680498637
 20
26.5657988601683
 30
0.0
  0
VERTEX
  5
322
330
31B
100
AcDbEntity
  8
Default
  6
Continuous
100
AcDbVertex
100
AcDb2dVertex
 10
-3.411368751186373
 20
26.64731096336829
 30
0.0
  0
VERTEX
  5
323
330
31B
100
AcDbEntity
  8
Default
  6
Continuous
100
AcDbVertex
100
AcDb2dVertex
 10
-3.887834847486374
 20
26.73994478496829
 30
0.0
  0
SEQEND
  5
324
330
31B
100
AcDbEntity
  8
Default
  6
Continuous
  0
POLYLINE
  5
325
330
1F
100
AcDbEntity
  8
Default
  6
Continuous
100
AcDb2dPolyline
 66
     1
 10
0.0
 20
0.0
 30
0.0
  0
VERTEX
  5
326
330
325
100
AcDbEntity
  8
Default
  6
Continuous
100
AcDbVertex
100
AcDb2dVertex
 10
0.0000054387136288
 20
25.9477297363683
 30
0.0
  0
VERTEX
  5
327
330
325
100
AcDbEntity
  8
Default
  6
Continuous
100
AcDbVertex
100
AcDb2dVertex
 10
0.4397973376136406
 20
25.9512733457683
 30
0.0
  0
VERTEX
  5
328
330
325
100
AcDbEntity
  8
Default
  6
Continuous
100
AcDbVertex
100
AcDb2dVertex
 10
0.972117356113614
 20
25.96562130856829
 30
0.0
  0
VERTEX
  5
329
330
325
100
AcDbEntity
  8
Default
  6
Continuous
100
AcDbVertex
100
AcDb2dVertex
 10
1.502707933313644
 20
25.9917220396683
 30
0.0
  0
VERTEX
  5
32A
330
325
100
AcDbEntity
  8
Default
  6
Continuous
100
AcDbVertex
100
AcDb2dVertex
 10
2.026273583013648
 20
26.03000662976829
 30
0.0
  0
VERTEX
  5
32B
330
325
100
AcDbEntity
  8
Default
  6
Continuous
100
AcDbVertex
100
AcDb2dVertex
 10
2.535053369213614
 20
26.0805523527683
 30
0.0
  0
VERTEX
  5
32C
330
325
100
AcDbEntity
  8
Default
  6
Continuous
100
AcDbVertex
100
AcDb2dVertex
 10
3.019637927313624
 20
26.1423892166683
 30
0.0
  0
VERTEX
  5
32D
330
325
100
AcDbEntity
  8
Default
  6
Continuous
100
AcDbVertex
100
AcDb2dVertex
 10
3.482621745113619
 20
26.2156334446683
 30
0.0
  0
VERTEX
  5
32E
330
325
100
AcDbEntity
  8
Default
  6
Continuous
100
AcDbVertex
100
AcDb2dVertex
 10
3.931765574413618
 20
26.3015194605683
 30
0.0
  0
SEQEND
  5
32F
330
325
100
AcDbEntity
  8
Default
  6
Continuous
  0
POLYLINE
  5
330
330
1F
100
AcDbEntity
  8
Default
  6
Continuous
100
AcDb2dPolyline
 66
     1
 10
0.0
 20
0.0
 30
0.0
  0
VERTEX
  5
331
330
330
100
AcDbEntity
  8
Default
  6
Continuous
100
AcDbVertex
100
AcDb2dVertex
 10
3.887566695313637
 20
26.7408780948683
 30
0.0
  0
VERTEX
  5
332
330
330
100
AcDbEntity
  8
Default
  6
Continuous
100
AcDbVertex
100
AcDb2dVertex
 10
3.77257314911364
 20
26.7154132381683
 30
0.0
  0
VERTEX
  5
333
330
330
100
AcDbEntity
  8
Default
  6
Continuous
100
AcDbVertex
100
AcDb2dVertex
 10
3.33929644841362
 20
26.6349195735683
 30
0.0
  0
VERTEX
  5
334
330
330
100
AcDbEntity
  8
Default
  6
Continuous
100
AcDbVertex
100
AcDb2dVertex
 10
2.891770152713633
 20
26.5662221515683
 30
0.0
  0
VERTEX
  5
335
330
330
100
AcDbEntity
  8
Default
  6
Continuous
100
AcDbVertex
100
AcDb2dVertex
 10
2.42351532391362
 20
26.5083305850683
 30
0.0
  0
VERTEX
  5
336
330
330
100
AcDbEntity
  8
Default
  6
Continuous
100
AcDbVertex
100
AcDb2dVertex
 10
1.933771937013631
 20
26.4612457502683
 30
0.0
  0
VERTEX
  5
337
330
330
100
AcDbEntity
  8
Default
  6
Continuous
100
AcDbVertex
100
AcDb2dVertex
 10
1.431369420913626
 20
26.4257382199683
 30
0.0
  0
VERTEX
  5
338
330
330
100
AcDbEntity
  8
Default
  6
Continuous
100
AcDbVertex
100
AcDb2dVertex
 10
0.922962643713646
 20
26.40159729996829
 30
0.0
  0
VERTEX
  5
339
330
330
100
AcDbEntity
  8
Default
  6
Continuous
100
AcDbVertex
100
AcDb2dVertex
 10
0.4138926018136146
 20
26.3884152342683
 30
0.0
  0
VERTEX
  5
33A
330
330
100
AcDbEntity
  8
Default
  6
Continuous
100
AcDbVertex
100
AcDb2dVertex
 10
0.0000040505136383
 20
26.3852297360683
 30
0.0
  0
SEQEND
  5
33B
330
330
100
AcDbEntity
  8
Default
  6
Continuous
  0
POLYLINE
  5
33C
330
1F
100
AcDbEntity
  8
Default
  6
Continuous
100
AcDb2dPolyline
 66
     1
 10
0.0
 20
0.0
 30
0.0
  0
VERTEX
  5
33D
330
33C
100
AcDbEntity
  8
Default
  6
Continuous
100
AcDbVertex
100
AcDb2dVertex
 10
-6.550981064486365
 20
27.4944779421683
 30
0.0
  0
VERTEX
  5
33E
330
33C
100
AcDbEntity
  8
Default
  6
Continuous
100
AcDbVertex
100
AcDb2dVertex
 10
-6.412499947886374
 20
27.4449649554683
 30
0.0
  0
VERTEX
  5
33F
330
33C
100
AcDbEntity
  8
Default
  6
Continuous
100
AcDbVertex
100
AcDb2dVertex
 10
-6.207047724186367
 20
27.3748770029683
 30
0.0
  0
VERTEX
  5
340
330
33C
100
AcDbEntity
  8
Default
  6
Continuous
100
AcDbVertex
100
AcDb2dVertex
 10
-5.994659044586371
 20
27.30589323116829
 30
0.0
  0
VERTEX
  5
341
330
33C
100
AcDbEntity
  8
Default
  6
Continuous
100
AcDbVertex
100
AcDb2dVertex
 10
-5.774361614186375
 20
27.23801544776829
 30
0.0
  0
VERTEX
  5
342
330
33C
100
AcDbEntity
  8
Default
  6
Continuous
100
AcDbVertex
100
AcDb2dVertex
 10
-5.542708402686372
 20
27.17050936706829
 30
0.0
  0
SEQEND
  5
343
330
33C
100
AcDbEntity
  8
Default
  6
Continuous
  0
POLYLINE
  5
344
330
1F
100
AcDbEntity
  8
Default
  6
Continuous
100
AcDb2dPolyline
 66
     1
 10
0.0
 20
0.0
 30
0.0
  0
VERTEX
  5
345
330
344
100
AcDbEntity
  8
Default
  6
Continuous
100
AcDbVertex
100
AcDb2dVertex
 10
-7.120464374786366
 20
27.57250348416829
 30
0.0
  0
VERTEX
  5
346
330
344
100
AcDbEntity
  8
Default
  6
Continuous
100
AcDbVertex
100
AcDb2dVertex
 10
-6.86673436628638
 20
27.40272236336829
 30
0.0
  0
VERTEX
  5
347
330
344
100
AcDbEntity
  8
Default
  6
Continuous
100
AcDbVertex
100
AcDb2dVertex
 10
-6.443582237186376
 20
27.1623526705683
 30
0.0
  0
VERTEX
  5
348
330
344
100
AcDbEntity
  8
Default
  6
Continuous
100
AcDbVertex
100
AcDb2dVertex
 10
-6.015640025786368
 20
26.9557992160683
 30
0.0
  0
VERTEX
  5
349
330
344
100
AcDbEntity
  8
Default
  6
Continuous
100
AcDbVertex
100
AcDb2dVertex
 10
-5.575210565286369
 20
26.77430655736829
 30
0.0
  0
VERTEX
  5
34A
330
344
100
AcDbEntity
  8
Default
  6
Continuous
100
AcDbVertex
100
AcDb2dVertex
 10
-5.436683254386367
 20
26.7256894503683
 30
0.0
  0
SEQEND
  5
34B
330
344
100
AcDbEntity
  8
Default
  6
Continuous
  0
POLYLINE
  5
34C
330
1F
100
AcDbEntity
  8
Default
  6
Continuous
100
AcDb2dPolyline
 66
     1
 10
0.0
 20
0.0
 30
0.0
  0
VERTEX
  5
34D
330
34C
100
AcDbEntity
  8
Default
  6
Continuous
100
AcDbVertex
100
AcDb2dVertex
 10
5.436486649413638
 20
26.7250003070683
 30
0.0
  0
VERTEX
  5
34E
330
34C
100
AcDbEntity
  8
Default
  6
Continuous
100
AcDbVertex
100
AcDb2dVertex
 10
5.608195494513637
 20
26.7869461807683
 30
0.0
  0
VERTEX
  5
34F
330
34C
100
AcDbEntity
  8
Default
  6
Continuous
100
AcDbVertex
100
AcDb2dVertex
 10
5.960531226813629
 20
26.9315134692683
 30
0.0
  0
VERTEX
  5
350
330
34C
100
AcDbEntity
  8
Default
  6
Continuous
100
AcDbVertex
100
AcDb2dVertex
 10
6.303682989113639
 20
27.0911267805683
 30
0.0
  0
VERTEX
  5
351
330
34C
100
AcDbEntity
  8
Default
  6
Continuous
100
AcDbVertex
100
AcDb2dVertex
 10
6.649916672613614
 20
27.27463909366829
 30
0.0
  0
VERTEX
  5
352
330
34C
100
AcDbEntity
  8
Default
  6
Continuous
100
AcDbVertex
100
AcDb2dVertex
 10
6.997175834213635
 20
27.4852628598683
 30
0.0
  0
VERTEX
  5
353
330
34C
100
AcDbEntity
  8
Default
  6
Continuous
100
AcDbVertex
100
AcDb2dVertex
 10
7.12344492641364
 20
27.5729644431683
 30
0.0
  0
SEQEND
  5
354
330
34C
100
AcDbEntity
  8
Default
  6
Continuous
  0
POLYLINE
  5
355
330
1F
100
AcDbEntity
  8
Default
  6
Continuous
100
AcDb2dPolyline
 66
     1
 10
0.0
 20
0.0
 30
0.0
  0
VERTEX
  5
356
330
355
100
AcDbEntity
  8
Default
  6
Continuous
100
AcDbVertex
100
AcDb2dVertex
 10
5.542708493213638
 20
27.1705093512683
 30
0.0
  0
VERTEX
  5
357
330
355
100
AcDbEntity
  8
Default
  6
Continuous
100
AcDbVertex
100
AcDb2dVertex
 10
5.774361705013632
 20
27.23801543126829
 30
0.0
  0
VERTEX
  5
358
330
355
100
AcDbEntity
  8
Default
  6
Continuous
100
AcDbVertex
100
AcDb2dVertex
 10
5.994659135613631
 20
27.30589321406829
 30
0.0
  0
VERTEX
  5
359
330
355
100
AcDbEntity
  8
Default
  6
Continuous
100
AcDbVertex
100
AcDb2dVertex
 10
6.207047815413631
 20
27.37487698526829
 30
0.0
  0
VERTEX
  5
35A
330
355
100
AcDbEntity
  8
Default
  6
Continuous
100
AcDbVertex
100
AcDb2dVertex
 10
6.412500039413629
 20
27.4449649372683
 30
0.0
  0
VERTEX
  5
35B
330
355
100
AcDbEntity
  8
Default
  6
Continuous
100
AcDbVertex
100
AcDb2dVertex
 10
6.550981263213629
 20
27.4944779619683
 30
0.0
  0
SEQEND
  5
35C
330
355
100
AcDbEntity
  8
Default
  6
Continuous
  0
LINE
  5
35D
330
1F
100
AcDbEntity
  8
Default
  6
Continuous
100
AcDbLine
 10
-9.69748257038637
 20
12.3407213656683
 30
0.0
 11
9.697482610613633
 21
12.3407213656683
 31
0.0
  0
LINE
  5
35E
330
1F
100
AcDbEntity
  8
Default
  6
Continuous
100
AcDbLine
 10
-9.72220574348637
 20
11.9032213656683
 30
0.0
 11
9.72220578381362
 21
11.9032213656683
 31
0.0
  0
SPLINE
  5
35F
330
1F
100
AcDbEntity
  8
Default
  6
Continuous
100
AcDbSpline
210
0.0
220
0.0
230
1.0
 70
     8
 71
     3
 72
    11
 73
     7
 74
     0
 42
0.0000000001
 43
0.0000000001
 40
0.0
 40
0.0
 40
0.0
 40
0.0
 40
0.2499992496
 40
0.499998972
 40
0.749999645
 40
1.0
 40
1.0
 40
1.0
 40
1.0
 10
0.0000000128136151
 20
27.16798486546829
 30
0.0
 10
-0.3187335334863803
 20
27.1679847984683
 30
0.0
 10
-0.9562079583863863
 20
27.1717903104683
 30
0.0
 10
-1.912276733886387
 20
27.1892101394683
 30
0.0
 10
-2.868045158386366
 20
27.2189404059683
 30
0.0
 10
-3.504892834986379
 20
27.24779234206829
 30
0.0
 10
-3.823167837086373
 20
27.2649094363683
 30
0.0
  0
SPLINE
  5
360
330
1F
100
AcDbEntity
  8
Default
  6
Continuous
100
AcDbSpline
210
0.0
220
0.0
230
1.0
 70
     8
 71
     3
 72
    11
 73
     7
 74
     0
 42
0.0000000001
 43
0.0000000001
 40
0.0
 40
0.0
 40
0.0
 40
0.0
 40
0.2499992496
 40
0.499998972
 40
0.749999645
 40
1.0
 40
1.0
 40
1.0
 40
1.0
 10
0.0000000128136151
 20
27.16798486546829
 30
0.0
 10
0.3187334387136218
 20
27.16798479836829
 30
0.0
 10
0.956207622813622
 20
27.17179030736829
 30
0.0
 10
1.912276037313632
 20
27.1892101228683
 30
0.0
 10
2.868044101113639
 20
27.2189403661683
 30
0.0
 10
3.50489153781362
 20
27.24779227836829
 30
0.0
 10
3.823166420213624
 20
27.2649093579683
 30
0.0
  0
ARC
  5
361
330
1F
100
AcDbEntity
  8
Default
  6
Continuous
100
AcDbCircle
 10
29.60259744299739
 20
26.18722664333303
 30
0.0
 40
8.110772340506186
100
AcDbArc
 50
7.976583346049678
 51
12.87549238419067
  0
LINE
  5
362
330
1F
100
AcDbEntity
  8
Default
  6
Continuous
100
AcDbLine
 10
37.63489697234901
 20
27.3127452928
 30
0.0
 11
41.23942350949901
 21
1.588927369749999
 31
0.0
  0
POLYLINE
  5
363
330
1F
100
AcDbEntity
  8
Default
  6
Continuous
100
AcDb2dPolyline
 66
     1
 10
0.0
 20
0.0
 30
0.0
  0
VERTEX
  5
364
330
363
100
AcDbEntity
  8
Default
  6
Continuous
100
AcDbVertex
100
AcDb2dVertex
 10
41.23942350949901
 20
1.588927369749999
 30
0.0
  0
VERTEX
  5
365
330
363
100
AcDbEntity
  8
Default
  6
Continuous
100
AcDbVertex
100
AcDb2dVertex
 10
41.24302442574901
 20
1.5623841975
 30
0.0
  0
VERTEX
  5
366
330
363
100
AcDbEntity
  8
Default
  6
Continuous
100
AcDbVertex
100
AcDb2dVertex
 10
41.250730125049
 20
1.498051551
 30
0.0
  0
VERTEX
  5
367
330
363
100
AcDbEntity
  8
Default
  6
Continuous
100
AcDbVertex
100
AcDb2dVertex
 10
41.25677290594901
 20
1.435021901200001
 30
0.0
  0
VERTEX
  5
368
330
363
100
AcDbEntity
  8
Default
  6
Continuous
100
AcDbVertex
100
AcDb2dVertex
 10
41.261144411849
 20
1.372468492599999
 30
0.0
  0
VERTEX
  5
369
330
363
100
AcDbEntity
  8
Default
  6
Continuous
100
AcDbVertex
100
AcDb2dVertex
 10
41.263690412149
 20
1.3106279631
 30
0.0
  0
VERTEX
  5
36A
330
363
100
AcDbEntity
  8
Default
  6
Continuous
100
AcDbVertex
100
AcDb2dVertex
 10
41.26424691414901
 20
1.249829025199999
 30
0.0
  0
VERTEX
  5
36B
330
363
100
AcDbEntity
  8
Default
  6
Continuous
100
AcDbVertex
100
AcDb2dVertex
 10
41.26261129794901
 20
1.1896207564
 30
0.0
  0
VERTEX
  5
36C
330
363
100
AcDbEntity
  8
Default
  6
Continuous
100
AcDbVertex
100
AcDb2dVertex
 10
41.258574192349
 20
1.1310246021
 30
0.0
  0
VERTEX
  5
36D
330
363
100
AcDbEntity
  8
Default
  6
Continuous
100
AcDbVertex
100
AcDb2dVertex
 10
41.251918210949
 20
1.0738979763
 30
0.0
  0
VERTEX
  5
36E
330
363
100
AcDbEntity
  8
Default
  6
Continuous
100
AcDbVertex
100
AcDb2dVertex
 10
41.24206345124901
 20
1.016657715399999
 30
0.0
  0
VERTEX
  5
36F
330
363
100
AcDbEntity
  8
Default
  6
Continuous
100
AcDbVertex
100
AcDb2dVertex
 10
41.228268988349
 20
0.9593327795000004
 30
0.0
  0
VERTEX
  5
370
330
363
100
AcDbEntity
  8
Default
  6
Continuous
100
AcDbVertex
100
AcDb2dVertex
 10
41.21031585134901
 20
0.9042099495000002
 30
0.0
  0
VERTEX
  5
371
330
363
100
AcDbEntity
  8
Default
  6
Continuous
100
AcDbVertex
100
AcDb2dVertex
 10
41.18837367914901
 20
0.8531857498999997
 30
0.0
  0
VERTEX
  5
372
330
363
100
AcDbEntity
  8
Default
  6
Continuous
100
AcDbVertex
100
AcDb2dVertex
 10
41.16205965224901
 20
0.8062848475000006
 30
0.0
  0
VERTEX
  5
373
330
363
100
AcDbEntity
  8
Default
  6
Continuous
100
AcDbVertex
100
AcDb2dVertex
 10
41.13104843244901
 20
0.763919081100001
 30
0.0
  0
VERTEX
  5
374
330
363
100
AcDbEntity
  8
Default
  6
Continuous
100
AcDbVertex
100
AcDb2dVertex
 10
41.09626876554901
 20
0.7271979919999989
 30
0.0
  0
VERTEX
  5
375
330
363
100
AcDbEntity
  8
Default
  6
Continuous
100
AcDbVertex
100
AcDb2dVertex
 10
41.05675703934901
 20
0.6950696766999993
 30
0.0
  0
VERTEX
  5
376
330
363
100
AcDbEntity
  8
Default
  6
Continuous
100
AcDbVertex
100
AcDb2dVertex
 10
41.011331492349
 20
0.6669951160000007
 30
0.0
  0
VERTEX
  5
377
330
363
100
AcDbEntity
  8
Default
  6
Continuous
100
AcDbVertex
100
AcDb2dVertex
 10
40.96217338234901
 20
0.6439187222000005
 30
0.0
  0
VERTEX
  5
378
330
363
100
AcDbEntity
  8
Default
  6
Continuous
100
AcDbVertex
100
AcDb2dVertex
 10
40.911587721049
 20
0.6260436891999994
 30
0.0
  0
VERTEX
  5
379
330
363
100
AcDbEntity
  8
Default
  6
Continuous
100
AcDbVertex
100
AcDb2dVertex
 10
40.859343744349
 20
0.6123935609999993
 30
0.0
  0
VERTEX
  5
37A
330
363
100
AcDbEntity
  8
Default
  6
Continuous
100
AcDbVertex
100
AcDb2dVertex
 10
40.80530954714901
 20
0.6023217879999994
 30
0.0
  0
VERTEX
  5
37B
330
363
100
AcDbEntity
  8
Default
  6
Continuous
100
AcDbVertex
100
AcDb2dVertex
 10
40.750717533249
 20
0.5955230308000008
 30
0.0
  0
VERTEX
  5
37C
330
363
100
AcDbEntity
  8
Default
  6
Continuous
100
AcDbVertex
100
AcDb2dVertex
 10
40.69650458624901
 20
0.5915807234999999
 30
0.0
  0
VERTEX
  5
37D
330
363
100
AcDbEntity
  8
Default
  6
Continuous
100
AcDbVertex
100
AcDb2dVertex
 10
40.641460328449
 20
0.5900389109999988
 30
0.0
  0
VERTEX
  5
37E
330
363
100
AcDbEntity
  8
Default
  6
Continuous
100
AcDbVertex
100
AcDb2dVertex
 10
40.63093610314901
 20
0.5899998728
 30
0.0
  0
SEQEND
  5
37F
330
363
100
AcDbEntity
  8
Default
  6
Continuous
  0
LINE
  5
380
330
1F
100
AcDbEntity
  8
Default
  6
Continuous
100
AcDbLine
 10
40.63093610314901
 20
0.5899998728
 30
0.0
 11
20.39646074754901
 21
0.5899998721500008
 31
0.0
  0
POLYLINE
  5
381
330
1F
100
AcDbEntity
  8
Default
  6
Continuous
100
AcDb2dPolyline
 66
     1
 10
0.0
 20
0.0
 30
0.0
  0
VERTEX
  5
382
330
381
100
AcDbEntity
  8
Default
  6
Continuous
100
AcDbVertex
100
AcDb2dVertex
 10
20.39646074754901
 20
0.5899998721500008
 30
0.0
  0
VERTEX
  5
383
330
381
100
AcDbEntity
  8
Default
  6
Continuous
100
AcDbVertex
100
AcDb2dVertex
 10
20.35080104524901
 20
0.5910192550999991
 30
0.0
  0
VERTEX
  5
384
330
381
100
AcDbEntity
  8
Default
  6
Continuous
100
AcDbVertex
100
AcDb2dVertex
 10
20.290029425349
 20
0.5958453560999999
 30
0.0
  0
VERTEX
  5
385
330
381
100
AcDbEntity
  8
Default
  6
Continuous
100
AcDbVertex
100
AcDb2dVertex
 10
20.23163685154901
 20
0.6048479093000001
 30
0.0
  0
VERTEX
  5
386
330
381
100
AcDbEntity
  8
Default
  6
Continuous
100
AcDbVertex
100
AcDb2dVertex
 10
20.17528234114901
 20
0.6184545454000006
 30
0.0
  0
VERTEX
  5
387
330
381
100
AcDbEntity
  8
Default
  6
Continuous
100
AcDbVertex
100
AcDb2dVertex
 10
20.12080145674901
 20
0.6373434109999998
 30
0.0
  0
VERTEX
  5
388
330
381
100
AcDbEntity
  8
Default
  6
Continuous
100
AcDbVertex
100
AcDb2dVertex
 10
20.06987000714901
 20
0.6615269366999996
 30
0.0
  0
VERTEX
  5
389
330
381
100
AcDbEntity
  8
Default
  6
Continuous
100
AcDbVertex
100
AcDb2dVertex
 10
20.02426283454901
 20
0.6902759665999998
 30
0.0
  0
VERTEX
  5
38A
330
381
100
AcDbEntity
  8
Default
  6
Continuous
100
AcDbVertex
100
AcDb2dVertex
 10
19.98303495784901
 20
0.7242461428000002
 30
0.0
  0
VERTEX
  5
38B
330
381
100
AcDbEntity
  8
Default
  6
Continuous
100
AcDbVertex
100
AcDb2dVertex
 10
19.94573149684901
 20
0.7638819502
 30
0.0
  0
VERTEX
  5
38C
330
381
100
AcDbEntity
  8
Default
  6
Continuous
100
AcDbVertex
100
AcDb2dVertex
 10
19.91369688834901
 20
0.8080484083999995
 30
0.0
  0
VERTEX
  5
38D
330
381
100
AcDbEntity
  8
Default
  6
Continuous
100
AcDbVertex
100
AcDb2dVertex
 10
19.88671555694901
 20
0.8566209408999992
 30
0.0
  0
VERTEX
  5
38E
330
381
100
AcDbEntity
  8
Default
  6
Continuous
100
AcDbVertex
100
AcDb2dVertex
 10
19.86418263434901
 20
0.9099753304
 30
0.0
  0
VERTEX
  5
38F
330
381
100
AcDbEntity
  8
Default
  6
Continuous
100
AcDbVertex
100
AcDb2dVertex
 10
19.846640638149
 20
0.9663080751000006
 30
0.0
  0
VERTEX
  5
390
330
381
100
AcDbEntity
  8
Default
  6
Continuous
100
AcDbVertex
100
AcDb2dVertex
 10
19.83425732804901
 20
1.023579269499999
 30
0.0
  0
VERTEX
  5
391
330
381
100
AcDbEntity
  8
Default
  6
Continuous
100
AcDbVertex
100
AcDb2dVertex
 10
19.82649107294901
 20
1.081592736999999
 30
0.0
  0
VERTEX
  5
392
330
381
100
AcDbEntity
  8
Default
  6
Continuous
100
AcDbVertex
100
AcDb2dVertex
 10
19.82286241234901
 20
1.141565588499999
 30
0.0
  0
VERTEX
  5
393
330
381
100
AcDbEntity
  8
Default
  6
Continuous
100
AcDbVertex
100
AcDb2dVertex
 10
19.82330372374901
 20
1.203515747700001
 30
0.0
  0
VERTEX
  5
394
330
381
100
AcDbEntity
  8
Default
  6
Continuous
100
AcDbVertex
100
AcDb2dVertex
 10
19.827855436649
 20
1.266598175499999
 30
0.0
  0
VERTEX
  5
395
330
381
100
AcDbEntity
  8
Default
  6
Continuous
100
AcDbVertex
100
AcDb2dVertex
 10
19.836706115449
 20
1.331265914299999
 30
0.0
  0
VERTEX
  5
396
330
381
100
AcDbEntity
  8
Default
  6
Continuous
100
AcDbVertex
100
AcDb2dVertex
 10
19.84746888099901
 20
1.3860563922
 30
0.0
  0
SEQEND
  5
397
330
381
100
AcDbEntity
  8
Default
  6
Continuous
  0
LINE
  5
398
330
1F
100
AcDbEntity
  8
Default
  6
Continuous
100
AcDbLine
 10
19.84746888099901
 20
1.3860563922
 30
0.0
 11
25.94830544344901
 21
28.67323279305
 31
0.0
  0
POLYLINE
  5
399
330
1F
100
AcDbEntity
  8
Default
  6
Continuous
100
AcDb2dPolyline
 66
     1
 10
0.0
 20
0.0
 30
0.0
  0
VERTEX
  5
39A
330
399
100
AcDbEntity
  8
Default
  6
Continuous
100
AcDbVertex
100
AcDb2dVertex
 10
25.94830544344901
 20
28.67323279305
 30
0.0
  0
VERTEX
  5
39B
330
399
100
AcDbEntity
  8
Default
  6
Continuous
100
AcDbVertex
100
AcDb2dVertex
 10
25.95143812804901
 20
28.686940198
 30
0.0
  0
VERTEX
  5
39C
330
399
100
AcDbEntity
  8
Default
  6
Continuous
100
AcDbVertex
100
AcDb2dVertex
 10
25.964557789349
 20
28.7382480186
 30
0.0
  0
VERTEX
  5
39D
330
399
100
AcDbEntity
  8
Default
  6
Continuous
100
AcDbVertex
100
AcDb2dVertex
 10
25.979030271949
 20
28.7853208841
 30
0.0
  0
VERTEX
  5
39E
330
399
100
AcDbEntity
  8
Default
  6
Continuous
100
AcDbVertex
100
AcDb2dVertex
 10
25.994953048249
 20
28.8283733276
 30
0.0
  0
VERTEX
  5
39F
330
399
100
AcDbEntity
  8
Default
  6
Continuous
100
AcDbVertex
100
AcDb2dVertex
 10
26.01244998304901
 20
28.8678932029
 30
0.0
  0
VERTEX
  5
3A0
330
399
100
AcDbEntity
  8
Default
  6
Continuous
100
AcDbVertex
100
AcDb2dVertex
 10
26.031305573249
 20
28.9038048722
 30
0.0
  0
VERTEX
  5
3A1
330
399
100
AcDbEntity
  8
Default
  6
Continuous
100
AcDbVertex
100
AcDb2dVertex
 10
26.05107814994901
 20
28.9360494601
 30
0.0
  0
VERTEX
  5
3A2
330
399
100
AcDbEntity
  8
Default
  6
Continuous
100
AcDbVertex
100
AcDb2dVertex
 10
26.07133758664901
 20
28.9648133841
 30
0.0
  0
VERTEX
  5
3A3
330
399
100
AcDbEntity
  8
Default
  6
Continuous
100
AcDbVertex
100
AcDb2dVertex
 10
26.09191818564901
 20
28.9900132725
 30
0.0
  0
VERTEX
  5
3A4
330
399
100
AcDbEntity
  8
Default
  6
Continuous
100
AcDbVertex
100
AcDb2dVertex
 10
26.112518953049
 20
29.0113294882
 30
0.0
  0
VERTEX
  5
3A5
330
399
100
AcDbEntity
  8
Default
  6
Continuous
100
AcDbVertex
100
AcDb2dVertex
 10
26.13248725244901
 20
29.0284629375
 30
0.0
  0
VERTEX
  5
3A6
330
399
100
AcDbEntity
  8
Default
  6
Continuous
100
AcDbVertex
100
AcDb2dVertex
 10
26.151111978949
 20
29.0414333637
 30
0.0
  0
VERTEX
  5
3A7
330
399
100
AcDbEntity
  8
Default
  6
Continuous
100
AcDbVertex
100
AcDb2dVertex
 10
26.16816506894901
 20
29.0506930654
 30
0.0
  0
VERTEX
  5
3A8
330
399
100
AcDbEntity
  8
Default
  6
Continuous
100
AcDbVertex
100
AcDb2dVertex
 10
26.183681441849
 20
29.0567717736
 30
0.0
  0
VERTEX
  5
3A9
330
399
100
AcDbEntity
  8
Default
  6
Continuous
100
AcDbVertex
100
AcDb2dVertex
 10
26.19731561114901
 20
29.0601721547
 30
0.0
  0
VERTEX
  5
3AA
330
399
100
AcDbEntity
  8
Default
  6
Continuous
100
AcDbVertex
100
AcDb2dVertex
 10
26.209124517449
 20
29.061506722
 30
0.0
  0
VERTEX
  5
3AB
330
399
100
AcDbEntity
  8
Default
  6
Continuous
100
AcDbVertex
100
AcDb2dVertex
 10
26.220032112349
 20
29.0611894623
 30
0.0
  0
VERTEX
  5
3AC
330
399
100
AcDbEntity
  8
Default
  6
Continuous
100
AcDbVertex
100
AcDb2dVertex
 10
26.229976443349
 20
29.0593687921
 30
0.0
  0
VERTEX
  5
3AD
330
399
100
AcDbEntity
  8
Default
  6
Continuous
100
AcDbVertex
100
AcDb2dVertex
 10
26.23988381494901
 20
29.0559125845
 30
0.0
  0
VERTEX
  5
3AE
330
399
100
AcDbEntity
  8
Default
  6
Continuous
100
AcDbVertex
100
AcDb2dVertex
 10
26.25198474804901
 20
29.0494835541
 30
0.0
  0
VERTEX
  5
3AF
330
399
100
AcDbEntity
  8
Default
  6
Continuous
100
AcDbVertex
100
AcDb2dVertex
 10
26.26670410874901
 20
29.0385256861
 30
0.0
  0
SEQEND
  5
3B0
330
399
100
AcDbEntity
  8
Default
  6
Continuous
  0
LINE
  5
3B1
330
1F
100
AcDbEntity
  8
Default
  6
Continuous
100
AcDbLine
 10
26.26670410874901
 20
29.0385256861
 30
0.0
 11
26.27133358064901
 21
29.0343568995
 31
0.0
  0
ARC
  5
3B2
330
1F
100
AcDbEntity
  8
Default
  6
Continuous
100
AcDbCircle
 10
26.13954653183154
 20
28.88800629491768
 30
0.0
 40
0.1969424426009546
100
AcDbArc
 50
27.49441917742793
 51
47.99732504454601
  0
POLYLINE
  5
3B3
330
1F
100
AcDbEntity
  8
Default
  6
Continuous
100
AcDb2dPolyline
 66
     1
 10
0.0
 20
0.0
 30
0.0
  0
VERTEX
  5
3B4
330
3B3
100
AcDbEntity
  8
Default
  6
Continuous
100
AcDbVertex
100
AcDb2dVertex
 10
40.63093610314901
 20
0.1524998750000002
 30
0.0
  0
VERTEX
  5
3B5
330
3B3
100
AcDbEntity
  8
Default
  6
Continuous
100
AcDbVertex
100
AcDb2dVertex
 10
40.736194921749
 20
0.1555753991
 30
0.0
  0
VERTEX
  5
3B6
330
3B3
100
AcDbEntity
  8
Default
  6
Continuous
100
AcDbVertex
100
AcDb2dVertex
 10
40.834784367349
 20
0.1646735816999989
 30
0.0
  0
VERTEX
  5
3B7
330
3B3
100
AcDbEntity
  8
Default
  6
Continuous
100
AcDbVertex
100
AcDb2dVertex
 10
40.930339801949
 20
0.1802391120999989
 30
0.0
  0
VERTEX
  5
3B8
330
3B3
100
AcDbEntity
  8
Default
  6
Continuous
100
AcDbVertex
100
AcDb2dVertex
 10
41.022689331649
 20
0.2027042254999998
 30
0.0
  0
VERTEX
  5
3B9
330
3B3
100
AcDbEntity
  8
Default
  6
Continuous
100
AcDbVertex
100
AcDb2dVertex
 10
41.11124927594901
 20
0.2323981032999995
 30
0.0
  0
VERTEX
  5
3BA
330
3B3
100
AcDbEntity
  8
Default
  6
Continuous
100
AcDbVertex
100
AcDb2dVertex
 10
41.19543452674901
 20
0.2696333916999993
 30
0.0
  0
VERTEX
  5
3BB
330
3B3
100
AcDbEntity
  8
Default
  6
Continuous
100
AcDbVertex
100
AcDb2dVertex
 10
41.27481022014901
 20
0.3147750047999995
 30
0.0
  0
VERTEX
  5
3BC
330
3B3
100
AcDbEntity
  8
Default
  6
Continuous
100
AcDbVertex
100
AcDb2dVertex
 10
41.348725553349
 20
0.3677773700000007
 30
0.0
  0
VERTEX
  5
3BD
330
3B3
100
AcDbEntity
  8
Default
  6
Continuous
100
AcDbVertex
100
AcDb2dVertex
 10
41.416407587649
 20
0.4283056433999999
 30
0.0
  0
VERTEX
  5
3BE
330
3B3
100
AcDbEntity
  8
Default
  6
Continuous
100
AcDbVertex
100
AcDb2dVertex
 10
41.47701280094901
 20
0.4959121562000011
 30
0.0
  0
VERTEX
  5
3BF
330
3B3
100
AcDbEntity
  8
Default
  6
Continuous
100
AcDbVertex
100
AcDb2dVertex
 10
41.53009450894901
 20
0.5698416308999992
 30
0.0
  0
VERTEX
  5
3C0
330
3B3
100
AcDbEntity
  8
Default
  6
Continuous
100
AcDbVertex
100
AcDb2dVertex
 10
41.575569065349
 20
0.6492884710000002
 30
0.0
  0
VERTEX
  5
3C1
330
3B3
100
AcDbEntity
  8
Default
  6
Continuous
100
AcDbVertex
100
AcDb2dVertex
 10
41.61339564574901
 20
0.7334137318000007
 30
0.0
  0
VERTEX
  5
3C2
330
3B3
100
AcDbEntity
  8
Default
  6
Continuous
100
AcDbVertex
100
AcDb2dVertex
 10
41.643825777849
 20
0.8214919911000003
 30
0.0
  0
VERTEX
  5
3C3
330
3B3
100
AcDbEntity
  8
Default
  6
Continuous
100
AcDbVertex
100
AcDb2dVertex
 10
41.667344065549
 20
0.9130917541999999
 30
0.0
  0
VERTEX
  5
3C4
330
3B3
100
AcDbEntity
  8
Default
  6
Continuous
100
AcDbVertex
100
AcDb2dVertex
 10
41.684429362149
 20
1.007905920000001
 30
0.0
  0
VERTEX
  5
3C5
330
3B3
100
AcDbEntity
  8
Default
  6
Continuous
100
AcDbVertex
100
AcDb2dVertex
 10
41.69550658214901
 20
1.1055734338
 30
0.0
  0
VERTEX
  5
3C6
330
3B3
100
AcDbEntity
  8
Default
  6
Continuous
100
AcDbVertex
100
AcDb2dVertex
 10
41.701062193449
 20
1.205838849899999
 30
0.0
  0
VERTEX
  5
3C7
330
3B3
100
AcDbEntity
  8
Default
  6
Continuous
100
AcDbVertex
100
AcDb2dVertex
 10
41.701481243149
 20
1.3088402187
 30
0.0
  0
VERTEX
  5
3C8
330
3B3
100
AcDbEntity
  8
Default
  6
Continuous
100
AcDbVertex
100
AcDb2dVertex
 10
41.69703650404901
 20
1.414830280399999
 30
0.0
  0
VERTEX
  5
3C9
330
3B3
100
AcDbEntity
  8
Default
  6
Continuous
100
AcDbVertex
100
AcDb2dVertex
 10
41.68797892824901
 20
1.523901195300001
 30
0.0
  0
VERTEX
  5
3CA
330
3B3
100
AcDbEntity
  8
Default
  6
Continuous
100
AcDbVertex
100
AcDb2dVertex
 10
41.674580664949
 20
1.635963527099999
 30
0.0
  0
VERTEX
  5
3CB
330
3B3
100
AcDbEntity
  8
Default
  6
Continuous
100
AcDbVertex
100
AcDb2dVertex
 10
41.67269064164901
 20
1.64963850695
 30
0.0
  0
SEQEND
  5
3CC
330
3B3
100
AcDbEntity
  8
Default
  6
Continuous
  0
LINE
  5
3CD
330
1F
100
AcDbEntity
  8
Default
  6
Continuous
100
AcDbLine
 10
41.67269064164901
 20
1.64963850695
 30
0.0
 11
38.070419055249
 21
27.3574327044
 31
0.0
  0
ARC
  5
3CE
330
1F
100
AcDbEntity
  8
Default
  6
Continuous
100
AcDbCircle
 10
23.28656957600725
 20
25.28586481694722
 30
0.0
 40
14.92828184812982
100
AcDbArc
 50
7.976562273036927
 51
10.1755563046807
  0
POLYLINE
  5
3CF
330
1F
100
AcDbEntity
  8
Default
100
AcDb2dPolyline
 66
     1
 10
0.0
 20
0.0
 30
0.0
  0
VERTEX
  5
3D0
330
3CF
100
AcDbEntity
  8
Default
100
AcDbVertex
100
AcDb2dVertex
 10
37.9800454764339
 20
27.92316739738495
 30
0.0
  0
VERTEX
  5
3D1
330
3CF
100
AcDbEntity
  8
Default
100
AcDbVertex
100
AcDb2dVertex
 10
37.9772164307339
 20
27.93763144358495
 30
0.0
  0
VERTEX
  5
3D2
330
3CF
100
AcDbEntity
  8
Default
100
AcDbVertex
100
AcDb2dVertex
 10
37.97447335993391
 20
27.95146065528495
 30
0.0
  0
VERTEX
  5
3D3
330
3CF
100
AcDbEntity
  8
Default
100
AcDbVertex
100
AcDb2dVertex
 10
37.9718115020339
 20
27.96462832268495
 30
0.0
  0
VERTEX
  5
3D4
330
3CF
100
AcDbEntity
  8
Default
100
AcDbVertex
100
AcDb2dVertex
 10
37.96920333283391
 20
27.97722519708495
 30
0.0
  0
VERTEX
  5
3D5
330
3CF
100
AcDbEntity
  8
Default
100
AcDbVertex
100
AcDb2dVertex
 10
37.96663760843391
 20
27.98926327168495
 30
0.0
  0
VERTEX
  5
3D6
330
3CF
100
AcDbEntity
  8
Default
100
AcDbVertex
100
AcDb2dVertex
 10
37.96410470953391
 20
28.00075059108495
 30
0.0
  0
VERTEX
  5
3D7
330
3CF
100
AcDbEntity
  8
Default
100
AcDbVertex
100
AcDb2dVertex
 10
37.96157603933391
 20
28.01177990488495
 30
0.0
  0
VERTEX
  5
3D8
330
3CF
100
AcDbEntity
  8
Default
100
AcDbVertex
100
AcDb2dVertex
 10
37.95903547213391
 20
28.02238133838495
 30
0.0
  0
VERTEX
  5
3D9
330
3CF
100
AcDbEntity
  8
Default
100
AcDbVertex
100
AcDb2dVertex
 10
37.9564760240339
 20
28.03254540788495
 30
0.0
  0
VERTEX
  5
3DA
330
3CF
100
AcDbEntity
  8
Default
100
AcDbVertex
100
AcDb2dVertex
 10
37.9538703600339
 20
28.04234004358495
 30
0.0
  0
VERTEX
  5
3DB
330
3CF
100
AcDbEntity
  8
Default
100
AcDbVertex
100
AcDb2dVertex
 10
37.95121629083391
 20
28.05173253588495
 30
0.0
  0
VERTEX
  5
3DC
330
3CF
100
AcDbEntity
  8
Default
100
AcDbVertex
100
AcDb2dVertex
 10
37.94847105593391
 20
28.06082880688495
 30
0.0
  0
VERTEX
  5
3DD
330
3CF
100
AcDbEntity
  8
Default
100
AcDbVertex
100
AcDb2dVertex
 10
37.94550309573391
 20
28.06997273468495
 30
0.0
  0
VERTEX
  5
3DE
330
3CF
100
AcDbEntity
  8
Default
100
AcDbVertex
100
AcDb2dVertex
 10
37.9423148328339
 20
28.07903505858495
 30
0.0
  0
VERTEX
  5
3DF
330
3CF
100
AcDbEntity
  8
Default
100
AcDbVertex
100
AcDb2dVertex
 10
37.93876817653391
 20
28.08826133678495
 30
0.0
  0
VERTEX
  5
3E0
330
3CF
100
AcDbEntity
  8
Default
100
AcDbVertex
100
AcDb2dVertex
 10
37.93437030523391
 20
28.09859464928495
 30
0.0
  0
VERTEX
  5
3E1
330
3CF
100
AcDbEntity
  8
Default
100
AcDbVertex
100
AcDb2dVertex
 10
37.92875112333391
 20
28.11030266868495
 30
0.0
  0
VERTEX
  5
3E2
330
3CF
100
AcDbEntity
  8
Default
100
AcDbVertex
100
AcDb2dVertex
 10
37.9217376930339
 20
28.12305558978495
 30
0.0
  0
VERTEX
  5
3E3
330
3CF
100
AcDbEntity
  8
Default
100
AcDbVertex
100
AcDb2dVertex
 10
37.91294937463391
 20
28.13682555848495
 30
0.0
  0
VERTEX
  5
3E4
330
3CF
100
AcDbEntity
  8
Default
100
AcDbVertex
100
AcDb2dVertex
 10
37.90183084633391
 20
28.15163552768495
 30
0.0
  0
VERTEX
  5
3E5
330
3CF
100
AcDbEntity
  8
Default
100
AcDbVertex
100
AcDb2dVertex
 10
37.8881761288339
 20
28.16687911388495
 30
0.0
  0
VERTEX
  5
3E6
330
3CF
100
AcDbEntity
  8
Default
100
AcDbVertex
100
AcDb2dVertex
 10
37.8722894786339
 20
28.18155797498495
 30
0.0
  0
VERTEX
  5
3E7
330
3CF
100
AcDbEntity
  8
Default
100
AcDbVertex
100
AcDb2dVertex
 10
37.8541379907339
 20
28.19523551798495
 30
0.0
  0
VERTEX
  5
3E8
330
3CF
100
AcDbEntity
  8
Default
100
AcDbVertex
100
AcDb2dVertex
 10
37.8336087324339
 20
28.20754055398495
 30
0.0
  0
VERTEX
  5
3E9
330
3CF
100
AcDbEntity
  8
Default
100
AcDbVertex
100
AcDb2dVertex
 10
37.8112583170339
 20
28.21778258538495
 30
0.0
  0
VERTEX
  5
3EA
330
3CF
100
AcDbEntity
  8
Default
100
AcDbVertex
100
AcDb2dVertex
 10
37.78739894103391
 20
28.22559830788495
 30
0.0
  0
VERTEX
  5
3EB
330
3CF
100
AcDbEntity
  8
Default
100
AcDbVertex
100
AcDb2dVertex
 10
37.76214921163391
 20
28.23073271678495
 30
0.0
  0
VERTEX
  5
3EC
330
3CF
100
AcDbEntity
  8
Default
100
AcDbVertex
100
AcDb2dVertex
 10
37.73597710003391
 20
28.23288232328495
 30
0.0
  0
VERTEX
  5
3ED
330
3CF
100
AcDbEntity
  8
Default
100
AcDbVertex
100
AcDb2dVertex
 10
37.73210092373391
 20
28.23293348708495
 30
0.0
  0
SEQEND
  5
3EE
330
3CF
100
AcDbEntity
  8
Default
  0
POLYLINE
  5
3EF
330
1F
100
AcDbEntity
  8
Default
100
AcDb2dPolyline
 66
     1
 10
0.0
 20
0.0
 30
0.0
  0
VERTEX
  5
3F0
330
3EF
100
AcDbEntity
  8
Default
100
AcDbVertex
100
AcDb2dVertex
 10
37.73210092373391
 20
28.23293348708495
 30
0.0
  0
VERTEX
  5
3F1
330
3EF
100
AcDbEntity
  8
Default
100
AcDbVertex
100
AcDb2dVertex
 10
37.72604464783392
 20
28.23287632618495
 30
0.0
  0
VERTEX
  5
3F2
330
3EF
100
AcDbEntity
  8
Default
100
AcDbVertex
100
AcDb2dVertex
 10
37.69676129463392
 20
28.23022322198495
 30
0.0
  0
VERTEX
  5
3F3
330
3EF
100
AcDbEntity
  8
Default
100
AcDbVertex
100
AcDb2dVertex
 10
37.66854616793391
 20
28.22381044508495
 30
0.0
  0
VERTEX
  5
3F4
330
3EF
100
AcDbEntity
  8
Default
100
AcDbVertex
100
AcDb2dVertex
 10
37.64204257203392
 20
28.21401691308495
 30
0.0
  0
VERTEX
  5
3F5
330
3EF
100
AcDbEntity
  8
Default
100
AcDbVertex
100
AcDb2dVertex
 10
37.61757372143391
 20
28.20123721618495
 30
0.0
  0
VERTEX
  5
3F6
330
3EF
100
AcDbEntity
  8
Default
100
AcDbVertex
100
AcDb2dVertex
 10
37.59543171133392
 20
28.18590826418495
 30
0.0
  0
VERTEX
  5
3F7
330
3EF
100
AcDbEntity
  8
Default
100
AcDbVertex
100
AcDb2dVertex
 10
37.57600977963391
 20
28.16867119888495
 30
0.0
  0
VERTEX
  5
3F8
330
3EF
100
AcDbEntity
  8
Default
100
AcDbVertex
100
AcDb2dVertex
 10
37.55923119663392
 20
28.14987644508495
 30
0.0
  0
VERTEX
  5
3F9
330
3EF
100
AcDbEntity
  8
Default
100
AcDbVertex
100
AcDb2dVertex
 10
37.54520211853391
 20
28.13009512018495
 30
0.0
  0
VERTEX
  5
3FA
330
3EF
100
AcDbEntity
  8
Default
100
AcDbVertex
100
AcDb2dVertex
 10
37.5341851284339
 20
28.11047224418495
 30
0.0
  0
VERTEX
  5
3FB
330
3EF
100
AcDbEntity
  8
Default
100
AcDbVertex
100
AcDb2dVertex
 10
37.52582914173391
 20
28.09150584508495
 30
0.0
  0
VERTEX
  5
3FC
330
3EF
100
AcDbEntity
  8
Default
100
AcDbVertex
100
AcDb2dVertex
 10
37.51969820053391
 20
28.07344289278495
 30
0.0
  0
VERTEX
  5
3FD
330
3EF
100
AcDbEntity
  8
Default
100
AcDbVertex
100
AcDb2dVertex
 10
37.51552247763391
 20
28.05706376608495
 30
0.0
  0
VERTEX
  5
3FE
330
3EF
100
AcDbEntity
  8
Default
100
AcDbVertex
100
AcDb2dVertex
 10
37.51289133973391
 20
28.04297725718495
 30
0.0
  0
VERTEX
  5
3FF
330
3EF
100
AcDbEntity
  8
Default
100
AcDbVertex
100
AcDb2dVertex
 10
37.51126186663392
 20
28.03071466048495
 30
0.0
  0
VERTEX
  5
400
330
3EF
100
AcDbEntity
  8
Default
100
AcDbVertex
100
AcDb2dVertex
 10
37.51024951693391
 20
28.01935306098495
 30
0.0
  0
VERTEX
  5
401
330
3EF
100
AcDbEntity
  8
Default
100
AcDbVertex
100
AcDb2dVertex
 10
37.50969402343391
 20
28.00887783318495
 30
0.0
  0
VERTEX
  5
402
330
3EF
100
AcDbEntity
  8
Default
100
AcDbVertex
100
AcDb2dVertex
 10
37.50946238143391
 20
27.99915509778495
 30
0.0
  0
VERTEX
  5
403
330
3EF
100
AcDbEntity
  8
Default
100
AcDbVertex
100
AcDb2dVertex
 10
37.50943737163391
 20
27.99457561418495
 30
0.0
  0
SEQEND
  5
404
330
3EF
100
AcDbEntity
  8
Default
  0
SPLINE
  5
405
330
1F
100
AcDbEntity
  8
Default
100
AcDbSpline
210
0.0
220
0.0
230
1.0
 70
    12
 71
     2
 72
     6
 73
     3
 74
     0
 42
0.0000000001
 43
0.0000000001
 40
0.0
 40
0.0
 40
0.0
 40
0.4160689291157493
 40
0.4160689291157493
 40
0.4160689291157493
 10
37.50943737163391
 20
27.99457561418495
 30
0.0
 41
1.0
 10
37.50943767825532
 20
27.75077728455291
 30
0.0
 41
0.999999999999514
 10
37.50943759813538
 20
27.54274281999498
 30
0.0
 41
1.0
  0
ARC
  5
406
330
1F
100
AcDbEntity
  8
Default
  6
Continuous
100
AcDbCircle
 10
26.23862915531123
 20
28.96544813359532
 30
0.0
 40
0.510879120358033
100
AcDbArc
 50
25.98763258686888
 51
49.96963963507314
  0
LINE
  5
407
330
1F
100
AcDbEntity
  8
Default
  6
Continuous
100
AcDbLine
 10
26.567223252849
 20
29.3566301816
 30
0.0
 11
26.52560266064901
 21
29.3915916043
 31
0.0
  0
POLYLINE
  5
408
330
1F
100
AcDbEntity
  8
Default
  6
Continuous
100
AcDb2dPolyline
 66
     1
 10
0.0
 20
0.0
 30
0.0
  0
VERTEX
  5
409
330
408
100
AcDbEntity
  8
Default
  6
Continuous
100
AcDbVertex
100
AcDb2dVertex
 10
26.52560266064901
 20
29.3915916043
 30
0.0
  0
VERTEX
  5
40A
330
408
100
AcDbEntity
  8
Default
  6
Continuous
100
AcDbVertex
100
AcDb2dVertex
 10
26.471430048149
 20
29.4280041343
 30
0.0
  0
VERTEX
  5
40B
330
408
100
AcDbEntity
  8
Default
  6
Continuous
100
AcDbVertex
100
AcDb2dVertex
 10
26.41394624624901
 20
29.4572626508
 30
0.0
  0
VERTEX
  5
40C
330
408
100
AcDbEntity
  8
Default
  6
Continuous
100
AcDbVertex
100
AcDb2dVertex
 10
26.353890240349
 20
29.479023548
 30
0.0
  0
VERTEX
  5
40D
330
408
100
AcDbEntity
  8
Default
  6
Continuous
100
AcDbVertex
100
AcDb2dVertex
 10
26.291838079049
 20
29.4930963023
 30
0.0
  0
VERTEX
  5
40E
330
408
100
AcDbEntity
  8
Default
  6
Continuous
100
AcDbVertex
100
AcDb2dVertex
 10
26.228488381549
 20
29.4992578331
 30
0.0
  0
VERTEX
  5
40F
330
408
100
AcDbEntity
  8
Default
  6
Continuous
100
AcDbVertex
100
AcDb2dVertex
 10
26.164901890549
 20
29.4974093069
 30
0.0
  0
VERTEX
  5
410
330
408
100
AcDbEntity
  8
Default
  6
Continuous
100
AcDbVertex
100
AcDb2dVertex
 10
26.10176574814901
 20
29.4876468275
 30
0.0
  0
VERTEX
  5
411
330
408
100
AcDbEntity
  8
Default
  6
Continuous
100
AcDbVertex
100
AcDb2dVertex
 10
26.039649777449
 20
29.4701479806
 30
0.0
  0
VERTEX
  5
412
330
408
100
AcDbEntity
  8
Default
  6
Continuous
100
AcDbVertex
100
AcDb2dVertex
 10
25.979220135749
 20
29.4452573469
 30
0.0
  0
VERTEX
  5
413
330
408
100
AcDbEntity
  8
Default
  6
Continuous
100
AcDbVertex
100
AcDb2dVertex
 10
25.920769089949
 20
29.4132579837
 30
0.0
  0
VERTEX
  5
414
330
408
100
AcDbEntity
  8
Default
  6
Continuous
100
AcDbVertex
100
AcDb2dVertex
 10
25.86465325524901
 20
29.3743086301
 30
0.0
  0
VERTEX
  5
415
330
408
100
AcDbEntity
  8
Default
  6
Continuous
100
AcDbVertex
100
AcDb2dVertex
 10
25.811310300749
 20
29.3286487451
 30
0.0
  0
VERTEX
  5
416
330
408
100
AcDbEntity
  8
Default
  6
Continuous
100
AcDbVertex
100
AcDb2dVertex
 10
25.760800665549
 20
29.2762385701
 30
0.0
  0
VERTEX
  5
417
330
408
100
AcDbEntity
  8
Default
  6
Continuous
100
AcDbVertex
100
AcDb2dVertex
 10
25.71363398614901
 20
29.2173176445
 30
0.0
  0
VERTEX
  5
418
330
408
100
AcDbEntity
  8
Default
  6
Continuous
100
AcDbVertex
100
AcDb2dVertex
 10
25.67071645944901
 20
29.1525882278
 30
0.0
  0
VERTEX
  5
419
330
408
100
AcDbEntity
  8
Default
  6
Continuous
100
AcDbVertex
100
AcDb2dVertex
 10
25.63199324484901
 20
29.0821643995
 30
0.0
  0
VERTEX
  5
41A
330
408
100
AcDbEntity
  8
Default
  6
Continuous
100
AcDbVertex
100
AcDb2dVertex
 10
25.59706748904901
 20
29.0062525346
 30
0.0
  0
VERTEX
  5
41B
330
408
100
AcDbEntity
  8
Default
  6
Continuous
100
AcDbVertex
100
AcDb2dVertex
 10
25.56627187154901
 20
28.9260649316
 30
0.0
  0
VERTEX
  5
41C
330
408
100
AcDbEntity
  8
Default
  6
Continuous
100
AcDbVertex
100
AcDb2dVertex
 10
25.53991557814901
 20
28.8423030139
 30
0.0
  0
VERTEX
  5
41D
330
408
100
AcDbEntity
  8
Default
  6
Continuous
100
AcDbVertex
100
AcDb2dVertex
 10
25.521344186899
 20
28.76867876185
 30
0.0
  0
SEQEND
  5
41E
330
408
100
AcDbEntity
  8
Default
  6
Continuous
  0
LINE
  5
41F
330
1F
100
AcDbEntity
  8
Default
  6
Continuous
100
AcDbLine
 10
25.521344186899
 20
28.76867876185
 30
0.0
 11
19.42051031364901
 21
1.48151649385
 31
0.0
  0
POLYLINE
  5
420
330
1F
100
AcDbEntity
  8
Default
  6
Continuous
100
AcDb2dPolyline
 66
     1
 10
0.0
 20
0.0
 30
0.0
  0
VERTEX
  5
421
330
420
100
AcDbEntity
  8
Default
  6
Continuous
100
AcDbVertex
100
AcDb2dVertex
 10
19.42051031364901
 20
1.48151649385
 30
0.0
  0
VERTEX
  5
422
330
420
100
AcDbEntity
  8
Default
  6
Continuous
100
AcDbVertex
100
AcDb2dVertex
 10
19.416966332149
 20
1.465251797500001
 30
0.0
  0
VERTEX
  5
423
330
420
100
AcDbEntity
  8
Default
  6
Continuous
100
AcDbVertex
100
AcDb2dVertex
 10
19.39739505324901
 20
1.3517030748
 30
0.0
  0
VERTEX
  5
424
330
420
100
AcDbEntity
  8
Default
  6
Continuous
100
AcDbVertex
100
AcDb2dVertex
 10
19.38713773724901
 20
1.2420669744
 30
0.0
  0
VERTEX
  5
425
330
420
100
AcDbEntity
  8
Default
  6
Continuous
100
AcDbVertex
100
AcDb2dVertex
 10
19.385360046249
 20
1.1364025088
 30
0.0
  0
VERTEX
  5
426
330
420
100
AcDbEntity
  8
Default
  6
Continuous
100
AcDbVertex
100
AcDb2dVertex
 10
19.39147220894901
 20
1.034672348599999
 30
0.0
  0
VERTEX
  5
427
330
420
100
AcDbEntity
  8
Default
  6
Continuous
100
AcDbVertex
100
AcDb2dVertex
 10
19.405338042949
 20
0.9367388517999995
 30
0.0
  0
VERTEX
  5
428
330
420
100
AcDbEntity
  8
Default
  6
Continuous
100
AcDbVertex
100
AcDb2dVertex
 10
19.42681380174901
 20
0.8427841663999995
 30
0.0
  0
VERTEX
  5
429
330
420
100
AcDbEntity
  8
Default
  6
Continuous
100
AcDbVertex
100
AcDb2dVertex
 10
19.45579121884901
 20
0.7528716512999996
 30
0.0
  0
VERTEX
  5
42A
330
420
100
AcDbEntity
  8
Default
  6
Continuous
100
AcDbVertex
100
AcDb2dVertex
 10
19.49239375664901
 20
0.6670364461999991
 30
0.0
  0
VERTEX
  5
42B
330
420
100
AcDbEntity
  8
Default
  6
Continuous
100
AcDbVertex
100
AcDb2dVertex
 10
19.536646016749
 20
0.5860151889999994
 30
0.0
  0
VERTEX
  5
42C
330
420
100
AcDbEntity
  8
Default
  6
Continuous
100
AcDbVertex
100
AcDb2dVertex
 10
19.58841979194901
 20
0.5105483442000001
 30
0.0
  0
VERTEX
  5
42D
330
420
100
AcDbEntity
  8
Default
  6
Continuous
100
AcDbVertex
100
AcDb2dVertex
 10
19.64783293014901
 20
0.4408291237999986
 30
0.0
  0
VERTEX
  5
42E
330
420
100
AcDbEntity
  8
Default
  6
Continuous
100
AcDbVertex
100
AcDb2dVertex
 10
19.71486607524901
 20
0.377381012999999
 30
0.0
  0
VERTEX
  5
42F
330
420
100
AcDbEntity
  8
Default
  6
Continuous
100
AcDbVertex
100
AcDb2dVertex
 10
19.78929216684901
 20
0.3208440787000004
 30
0.0
  0
VERTEX
  5
430
330
420
100
AcDbEntity
  8
Default
  6
Continuous
100
AcDbVertex
100
AcDb2dVertex
 10
19.870994403449
 20
0.2717271748000005
 30
0.0
  0
VERTEX
  5
431
330
420
100
AcDbEntity
  8
Default
  6
Continuous
100
AcDbVertex
100
AcDb2dVertex
 10
19.95971541794901
 20
0.2305972924999988
 30
0.0
  0
VERTEX
  5
432
330
420
100
AcDbEntity
  8
Default
  6
Continuous
100
AcDbVertex
100
AcDb2dVertex
 10
20.05496776724901
 20
0.1978516160999995
 30
0.0
  0
VERTEX
  5
433
330
420
100
AcDbEntity
  8
Default
  6
Continuous
100
AcDbVertex
100
AcDb2dVertex
 10
20.156273084049
 20
0.1738189996999999
 30
0.0
  0
VERTEX
  5
434
330
420
100
AcDbEntity
  8
Default
  6
Continuous
100
AcDbVertex
100
AcDb2dVertex
 10
20.263303567549
 20
0.1587323075999993
 30
0.0
  0
VERTEX
  5
435
330
420
100
AcDbEntity
  8
Default
  6
Continuous
100
AcDbVertex
100
AcDb2dVertex
 10
20.37598424684901
 20
0.1526402168000001
 30
0.0
  0
VERTEX
  5
436
330
420
100
AcDbEntity
  8
Default
  6
Continuous
100
AcDbVertex
100
AcDb2dVertex
 10
20.396461176849
 20
0.1524998723
 30
0.0
  0
SEQEND
  5
437
330
420
100
AcDbEntity
  8
Default
  6
Continuous
  0
ARC
  5
438
330
1F
100
AcDbEntity
  8
Default
100
AcDbCircle
 10
27.78880832492921
 20
32.71348948104863
 30
0.0
 40
6.221555101727835
100
AcDbArc
 50
248.9436830809105
 51
267.5148780760054
  0
ARC
  5
439
330
1F
100
AcDbEntity
  8
Default
100
AcDbCircle
 10
27.5224333836333
 20
32.01733576378491
 30
0.0
 40
5.477145374410016
100
AcDbArc
 50
240.8033999382305
 51
244.2687648146867
  0
ARC
  5
43A
330
1F
100
AcDbEntity
  8
Default
100
AcDbCircle
 10
39.37319423465034
 20
17.12889652889541
 30
0.0
 40
10.68427900452352
100
AcDbArc
 50
88.89187675271242
 51
97.30929530076921
  0
ARC
  5
43B
330
1F
100
AcDbEntity
  8
Default
100
AcDbCircle
 10
37.74143464768477
 20
27.56687624313302
 30
0.0
 40
0.2432971313023284
100
AcDbArc
 50
187.7541584212218
 51
242.5943011728796
  0
SPLINE
  5
43C
330
1F
100
AcDbEntity
  8
Default
100
AcDbSpline
210
0.0
220
0.0
230
1.0
 70
    12
 71
     2
 72
     6
 73
     3
 74
     0
 42
0.0000000001
 43
0.0000000001
 40
0.0
 40
0.0
 40
0.0
 40
0.0856544478048361
 40
0.0856544478048361
 40
0.0856544478048361
 10
37.6039954367931
 20
26.93866931269594
 30
0.0
 41
1.0
 10
37.64881571956328
 20
26.93894642921788
 30
0.0
 41
0.9172205961144311
 10
37.68325576591565
 20
26.96763122917207
 30
0.0
 41
0.9493642046032725
  0
SPLINE
  5
43D
330
1F
100
AcDbEntity
  8
Default
100
AcDbSpline
210
0.0
220
0.0
230
1.0
 70
    12
 71
     2
 72
     6
 73
     3
 74
     0
 42
0.0000000001
 43
0.0000000001
 40
-0.1482614395726964
 40
-0.1482614395726964
 40
-0.1482614395726964
 40
-0.0082611733969005
 40
-0.0082611733969005
 40
-0.0082611733969005
 10
40.63125501140006
 20
0.2019754375991578
 30
0.0
 41
0.9999999999999598
 10
40.63125506425045
 20
0.2719755706870465
 30
0.0
 41
0.9999999999997442
 10
40.63125502393912
 20
0.3419757037749417
 30
0.0
 41
0.9999999999999716
  0
ARC
  5
43E
330
1F
100
AcDbEntity
  8
Default
100
AcDbCircle
 10
40.43125502393915
 20
0.3419755885999987
 30
0.0
 40
0.2
100
AcDbArc
 50
0.0000329951910078
 51
90.0
  0
SPLINE
  5
43F
330
1F
100
AcDbEntity
  8
Default
100
AcDbSpline
210
0.0
220
0.0
230
1.0
 70
    24
 71
     2
 72
     6
 73
     3
 74
     0
 42
0.0000000001
 43
0.0000000001
 40
0.0099999777115727
 40
0.0099999777115727
 40
0.0099999777115727
 40
1.609999999985448
 40
1.609999999985448
 40
1.609999999985448
 10
40.43125502393915
 20
0.541975588599998
 30
0.0
 10
39.63125501280222
 20
0.5419755885999944
 30
0.0
 10
38.83125500166529
 20
0.5419755885999908
 30
0.0
  0
ARC
  5
440
330
1F
100
AcDbEntity
  8
Default
100
AcDbCircle
 10
38.83125500166529
 20
0.3419755885999898
 30
0.0
 40
0.2
100
AcDbArc
 50
90.0
 51
180.0000000013608
  0
SPLINE
  5
441
330
1F
100
AcDbEntity
  8
Default
100
AcDbSpline
210
0.0
220
0.0
230
1.0
 70
    24
 71
     2
 72
     6
 73
     3
 74
     0
 42
0.0000000001
 43
0.0000000001
 40
-0.1520000005855499
 40
-0.1520000005855499
 40
-0.1520000005855499
 40
-0.0120000005855438
 40
-0.0120000005855438
 40
-0.0120000005855438
 10
38.63125500166527
 20
0.3419755885952398
 30
0.0
 10
38.63125500166695
 20
0.2719755885952377
 30
0.0
 10
38.63125500166861
 20
0.2019755885952339
 30
0.0
  0
ARC
  5
442
330
1F
100
AcDbEntity
  8
Default
100
AcDbCircle
 10
38.83125500166862
 20
0.2019755885999981
 30
0.0
 40
0.2
100
AcDbArc
 50
180.000000001365
 51
270.0
  0
SPLINE
  5
443
330
1F
100
AcDbEntity
  8
Default
100
AcDbSpline
210
0.0
220
0.0
230
1.0
 70
    24
 71
     2
 72
     6
 73
     3
 74
     0
 42
0.0000000001
 43
0.0000000001
 40
0.0120000000122786
 40
0.0120000000122786
 40
0.0120000000122786
 40
1.612000009743781
 40
1.612000009743781
 40
1.612000009743781
 10
38.83125500166862
 20
0.0019755885999988
 30
0.0
 10
39.63125500653437
 20
0.0019755885999988
 30
0.0
 10
40.43125501140012
 20
0.0019755885999988
 30
0.0
  0
ARC
  5
444
330
1F
100
AcDbEntity
  8
Default
100
AcDbCircle
 10
40.43125501140012
 20
0.2019755885999963
 30
0.0
 40
0.199999999999997
100
AcDbArc
 50
270.0
 51
359.9999567414461
  0
SPLINE
  5
445
330
1F
100
AcDbEntity
  8
Default
100
AcDbSpline
210
0.0
220
0.0
230
1.0
 70
    12
 71
     2
 72
     6
 73
     3
 74
     0
 42
0.0000000001
 43
0.0000000001
 40
-0.1482614395726964
 40
-0.1482614395726964
 40
-0.1482614395726964
 40
-0.0082611733969005
 40
-0.0082611733969005
 40
-0.0082611733969005
 10
22.40225090831707
 20
0.199999848999159
 30
0.0
 41
0.9999999999999598
 10
22.40225096116746
 20
0.2699999820870472
 30
0.0
 41
0.9999999999997442
 10
22.40225092085613
 20
0.3400001151749429
 30
0.0
 41
0.9999999999999716
  0
ARC
  5
446
330
1F
100
AcDbEntity
  8
Default
100
AcDbCircle
 10
22.20225092085616
 20
0.3399999999999999
 30
0.0
 40
0.2
100
AcDbArc
 50
0.0000329951910078
 51
90.0
  0
SPLINE
  5
447
330
1F
100
AcDbEntity
  8
Default
100
AcDbSpline
210
0.0
220
0.0
230
1.0
 70
    24
 71
     2
 72
     6
 73
     3
 74
     0
 42
0.0000000001
 43
0.0000000001
 40
0.0099999777115727
 40
0.0099999777115727
 40
0.0099999777115727
 40
1.609999999985448
 40
1.609999999985448
 40
1.609999999985448
 10
22.20225092085616
 20
0.5399999999999991
 30
0.0
 10
21.40225090971923
 20
0.5399999999999956
 30
0.0
 10
20.6022508985823
 20
0.539999999999992
 30
0.0
  0
ARC
  5
448
330
1F
100
AcDbEntity
  8
Default
100
AcDbCircle
 10
20.6022508985823
 20
0.339999999999991
 30
0.0
 40
0.2
100
AcDbArc
 50
90.0
 51
180.0000000013608
  0
SPLINE
  5
449
330
1F
100
AcDbEntity
  8
Default
100
AcDbSpline
210
0.0
220
0.0
230
1.0
 70
    24
 71
     2
 72
     6
 73
     3
 74
     0
 42
0.0000000001
 43
0.0000000001
 40
-0.1520000005855499
 40
-0.1520000005855499
 40
-0.1520000005855499
 40
-0.0120000005855438
 40
-0.0120000005855438
 40
-0.0120000005855438
 10
20.40225089858228
 20
0.339999999995241
 30
0.0
 10
20.40225089858396
 20
0.2699999999952389
 30
0.0
 10
20.40225089858563
 20
0.1999999999952351
 30
0.0
  0
ARC
  5
44A
330
1F
100
AcDbEntity
  8
Default
100
AcDbCircle
 10
20.60225089858563
 20
0.1999999999999993
 30
0.0
 40
0.2
100
AcDbArc
 50
180.000000001365
 51
270.0
  0
SPLINE
  5
44B
330
1F
100
AcDbEntity
  8
Default
100
AcDbSpline
210
0.0
220
0.0
230
1.0
 70
    24
 71
     2
 72
     6
 73
     3
 74
     0
 42
0.0000000001
 43
0.0000000001
 40
0.0120000000122786
 40
0.0120000000122786
 40
0.0120000000122786
 40
1.612000009743781
 40
1.612000009743781
 40
1.612000009743781
 10
20.60225089858563
 20
0.0
 30
0.0
 10
21.40225090345138
 20
0.0
 30
0.0
 10
22.20225090831713
 20
0.0
 30
0.0
  0
ARC
  5
44C
330
1F
100
AcDbEntity
  8
Default
100
AcDbCircle
 10
22.20225090831713
 20
0.1999999999999975
 30
0.0
 40
0.199999999999997
100
AcDbArc
 50
270.0
 51
359.9999567414461
  0
ARC
  5
44D
330
1F
100
AcDbEntity
  8
Default
100
AcDbCircle
 10
30.26531748838943
 20
26.37246500028994
 30
0.0
 40
0.2206982097835716
100
AcDbArc
 50
275.7685290698405
 51
291.7275018220804
  0
LINE
  5
44E
330
1F
100
AcDbEntity
  8
Default
100
AcDbLine
 10
30.28749982627997
 20
26.15288439165752
 30
0.0
 11
30.08054417205511
 21
26.13197744418628
 31
0.0
  0
ARC
  5
44F
330
1F
100
AcDbEntity
  8
Default
100
AcDbCircle
 10
30.05542900957107
 20
26.38058977221741
 30
0.0
 40
0.2498776921528805
100
AcDbArc
 50
262.5697811526741
 51
275.7685290698404
  0
POLYLINE
  5
450
330
1F
100
AcDbEntity
  8
Default
100
AcDb2dPolyline
 66
     1
 10
0.0
 20
0.0
 30
0.0
  0
VERTEX
  5
451
330
450
100
AcDbEntity
  8
Default
100
AcDbVertex
100
AcDb2dVertex
 10
27.85169406193685
 20
26.93774106407169
 30
0.0
  0
VERTEX
  5
452
330
450
100
AcDbEntity
  8
Default
100
AcDbVertex
100
AcDb2dVertex
 10
26.69785259745049
 20
29.18930368033823
 30
0.0
  0
SEQEND
  5
453
330
450
100
AcDbEntity
  8
Default
  0
ARC
  5
454
330
1F
100
AcDbEntity
  8
Default
100
AcDbCircle
 10
14.32886489292787
 20
22.12505650876806
 30
0.0
 40
13.80669731360706
100
AcDbArc
 50
25.07909887488
 51
29.76319133139242
  0
ARC
  5
455
330
1F
100
AcDbEntity
  8
Default
100
AcDbCircle
 10
47.09677406119758
 20
37.46009279974955
 30
0.0
 40
22.37201478765066
100
AcDbArc
 50
205.0790988748795
 51
209.0385828330987
  0
SPLINE
  5
456
330
1F
100
AcDbEntity
  8
Default
100
AcDbSpline
210
0.0
220
0.0
230
1.0
 70
    12
 71
     2
 72
     6
 73
     3
 74
     0
 42
0.0000000001
 43
0.0000000001
 40
0.0
 40
0.0
 40
0.0
 40
0.3136526776359063
 40
0.3136526776359063
 40
0.3136526776359063
 10
30.01841109205094
 20
26.33124003046184
 30
0.0
 41
1.0
 10
30.17477288605909
 20
26.34332069470704
 30
0.0
 41
0.9999862006071706
 10
30.33099912108173
 20
26.3570435429798
 30
0.0
 41
1.0
  0
SPLINE
  5
457
330
1F
100
AcDbEntity
  8
Default
100
AcDbSpline
210
0.0
220
0.0
230
1.0
 70
    12
 71
     2
 72
     6
 73
     3
 74
     0
 42
0.0000000001
 43
0.0000000001
 40
0.0
 40
0.0
 40
0.0
 40
0.2493712427351362
 40
0.2493712427351362
 40
0.2493712427351362
 10
27.901992221949
 20
25.9815502499
 30
0.0
 41
1.0
 10
28.01944570152579
 20
25.90492637189013
 30
0.0
 41
0.8416625784489381
 10
28.13805060467953
 20
25.97975561412777
 30
0.0
 41
1.0
  0
POLYLINE
  5
458
330
1F
100
AcDbEntity
  8
Default
100
AcDb2dPolyline
 66
     1
 10
0.0
 20
0.0
 30
0.0
  0
VERTEX
  5
459
330
458
100
AcDbEntity
  8
Default
100
AcDbVertex
100
AcDb2dVertex
 10
35.28134951309744
 20
26.92994774797231
 30
0.0
  0
VERTEX
  5
45A
330
458
100
AcDbEntity
  8
Default
100
AcDbVertex
100
AcDb2dVertex
 10
35.28175389982002
 20
26.80236250930881
 30
0.0
  0
SEQEND
  5
45B
330
458
100
AcDbEntity
  8
Default
  0
SPLINE
  5
45C
330
1F
100
AcDbEntity
  8
Default
100
AcDbSpline
210
0.0
220
0.0
230
1.0
 70
    12
 71
     2
 72
     6
 73
     3
 74
     0
 42
0.0000000001
 43
0.0000000001
 40
0.0
 40
0.0
 40
0.0
 40
0.3184049841480918
 40
0.3184049841480918
 40
0.3184049841480918
 10
35.28134951309744
 20
26.92994774797231
 30
0.0
 41
1.0
 10
35.43964802023886
 20
26.94689400794208
 30
0.0
 41
0.9999952770600171
 10
35.59804770201538
 20
26.96286691948929
 30
0.0
 41
1.0
  0
SPLINE
  5
45D
330
1F
100
AcDbEntity
  8
Default
100
AcDbSpline
210
0.0
220
0.0
230
1.0
 70
    12
 71
     2
 72
     8
 73
     5
 74
     0
 42
0.0000000001
 43
0.0000000001
 40
0.0
 40
0.0
 40
0.0
 40
0.1076772379739193
 40
0.1076772379739193
 40
0.2153544759478387
 40
0.2153544759478387
 40
0.2153544759478387
 10
27.97805145337884
 20
27.21325654578573
 30
0.0
 41
1.0
 10
27.92068813060379
 20
27.21884029227503
 30
0.0
 41
0.9040750516459389
 10
27.87996456197825
 20
27.17805647216149
 30
0.0
 41
1.0
 10
27.83924099335275
 20
27.13727265204795
 30
0.0
 41
0.9040750516459389
 10
27.84490954135578
 20
27.07991764713827
 30
0.0
 41
1.0
  0
ARC
  5
45E
330
1F
100
AcDbEntity
  8
Default
100
AcDbCircle
 10
17.11385381288019
 20
26.47251438931968
 30
0.0
 40
10.74823221582309
100
AcDbArc
 50
2.197737590866857
 51
3.239620511239696
  0
ARC
  5
45F
330
1F
100
AcDbEntity
  8
Default
100
AcDbCircle
 10
27.62725318228917
 20
26.85734180184976
 30
0.0
 40
0.2285689500095452
100
AcDbArc
 50
282.5515796615782
 51
6.872232129843739
  0
SPLINE
  5
460
330
1F
100
AcDbEntity
  8
Default
100
AcDbSpline
210
0.0
220
0.0
230
1.0
 70
    12
 71
     3
 72
    13
 73
     9
 74
     0
 42
0.0000000001
 43
0.0000000001
 40
0.0000000047030481
 40
0.0000000047030481
 40
0.0000000047030481
 40
0.0000000047030481
 40
0.0437575797412229
 40
0.0963766106336238
 40
0.0963766106336238
 40
0.1290011607604258
 40
0.1603237438471766
 40
0.1762203004876441
 40
0.1762203004876441
 40
0.1762203004876441
 40
0.1762203004876441
 10
27.67692542579488
 20
26.63423547488081
 30
0.0
 41
1.0
 10
27.62045287198396
 20
26.63175949491092
 30
0.0
 41
1.0
 10
27.58881261608045
 20
26.62834113441208
 30
0.0
 41
1.0
 10
27.5634306382546
 20
26.61909830662162
 30
0.0
 41
1.0
 10
27.54382545622832
 20
26.60704910436164
 30
0.0
 41
1.0
 10
27.53046302196228
 20
26.59609017090144
 30
0.0
 41
1.0
 10
27.51907641349277
 20
26.57592922602424
 30
0.0
 41
1.0
 10
27.51659144154217
 20
26.56239058302263
 30
0.0
 41
1.0
 10
27.51645492617126
 20
26.54623113330329
 30
0.0
 41
1.0
  0
SPLINE
  5
461
330
1F
100
AcDbEntity
  8
Default
100
AcDbSpline
210
0.0
220
0.0
230
1.0
 70
    12
 71
     2
 72
     6
 73
     3
 74
     0
 42
0.0000000001
 43
0.0000000001
 40
0.0
 40
0.0
 40
0.0
 40
0.2914963062765733
 40
0.2914963062765733
 40
0.2914963062765733
 10
27.51645492617126
 20
26.54623113330329
 30
0.0
 41
1.0
 10
27.5185520759595
 20
26.39857853239983
 30
0.0
 41
0.9806169748653679
 10
27.59025168960613
 20
26.24070534608227
 30
0.0
 41
1.0
  0
SPLINE
  5
462
330
1F
100
AcDbEntity
  8
Default
100
AcDbSpline
210
0.0
220
0.0
230
1.0
 70
    12
 71
     2
 72
     6
 73
     3
 74
     0
 42
0.0000000001
 43
0.0000000001
 40
0.0
 40
0.0
 40
0.0
 40
0.2323959088994463
 40
0.2323959088994463
 40
0.2323959088994463
 10
27.59025168960613
 20
26.24070534608227
 30
0.0
 41
1.0
 10
27.64879153056897
 20
26.14032717629439
 30
0.0
 41
0.9999597117723061
 10
27.70977113928515
 20
26.03997564455345
 30
0.0
 41
1.0
  0
SPLINE
  5
463
330
1F
100
AcDbEntity
  8
Default
100
AcDbSpline
210
0.0
220
0.0
230
1.0
 70
    12
 71
     2
 72
     6
 73
     3
 74
     0
 42
0.0000000001
 43
0.0000000001
 40
0.0
 40
0.0
 40
0.0
 40
0.1214621799935524
 40
0.1214621799935524
 40
0.1214621799935524
 10
27.70977113928515
 20
26.03997564455345
 30
0.0
 41
1.0
 10
27.74634923494966
 20
25.98309254480395
 30
0.0
 41
0.876654444896587
 10
27.81275200846366
 20
25.98341206772914
 30
0.0
 41
1.0
  0
SPLINE
  5
464
330
1F
100
AcDbEntity
  8
Default
100
AcDbSpline
210
0.0
220
0.0
230
1.0
 70
    12
 71
     3
 72
    12
 73
     8
 74
     0
 42
0.0000000001
 43
0.0000000001
 40
-1.0
 40
-1.0
 40
-1.0
 40
-1.0
 40
-0.7500623819354907
 40
-0.7500623819354907
 40
-0.500067351575719
 40
-0.500067351575719
 40
0.0
 40
0.0
 40
0.0
 40
0.0
 10
27.81275200846366
 20
25.98341206772914
 30
0.0
 41
1.0
 10
28.60051459656168
 20
25.96401146620866
 30
0.0
 41
1.0
 10
29.40492815338371
 20
26.02346501577257
 30
0.0
 41
1.0
 10
31.05242464410844
 20
26.20378315955721
 30
0.0
 41
1.0
 10
31.92967688761254
 20
26.33470271535595
 30
0.0
 41
1.0
 10
34.64673385757902
 20
26.72234496841823
 30
0.0
 41
1.0
 10
36.2402885055433
 20
26.92940106391338
 30
0.0
 41
1.0
 10
37.6039954367931
 20
26.93866931269594
 30
0.0
 41
1.0
  0
SPLINE
  5
465
330
1F
100
AcDbEntity
  8
Default
100
AcDbSpline
210
0.0
220
0.0
230
1.0
 70
    12
 71
     2
 72
     6
 73
     3
 74
     0
 42
0.0000000001
 43
0.0000000001
 40
0.0
 40
0.0
 40
0.0
 40
0.3179562956467166
 40
0.3179562956467166
 40
0.3179562956467166
 10
32.65043813267638
 20
26.61474839272403
 30
0.0
 41
1.0
 10
32.80821673608155
 20
26.63424113020488
 30
0.0
 41
0.9999999103337658
 10
32.96597877346082
 20
26.65386749178646
 30
0.0
 41
1.0
  0
LINE
  5
466
330
1F
100
AcDbEntity
  8
Default
100
AcDbLine
 10
37.50036219918513
 20
27.53404990196714
 30
0.0
 11
37.47544249191193
 21
27.71705704302755
 31
0.0
  0
SPLINE
  5
467
330
1F
100
AcDbEntity
  8
Default
100
AcDbSpline
210
0.0
220
0.0
230
1.0
 70
    12
 71
     2
 72
     6
 73
     3
 74
     0
 42
0.0000000001
 43
0.0000000001
 40
-0.1938206420261041
 40
-0.1938206420261041
 40
-0.1938206420261041
 40
0.0
 40
0.0
 40
0.0
 10
37.47544249191193
 20
27.71705704302755
 30
0.0
 41
1.0
 10
37.45982023705218
 20
27.83810229512239
 30
0.0
 41
0.7178366527271254
 10
37.3383538794246
 20
27.8261887790043
 30
0.0
 41
1.0
  0
ARC
  5
468
330
1F
100
AcDbEntity
  8
Default
100
AcDbCircle
 10
35.17710032535913
 20
48.06715085943512
 30
0.0
 40
20.35602031012936
100
AcDbArc
 50
274.8735452563024
 51
276.0947347867644
  0
SPLINE
  5
469
330
1F
100
AcDbEntity
  8
Default
100
AcDbSpline
210
0.0
220
0.0
230
1.0
 70
     8
 71
     3
 72
    11
 73
     7
 74
     0
 42
0.0000000001
 43
0.0000000001
 40
0.0
 40
0.0
 40
0.0
 40
0.0
 40
1.279703727119549
 40
4.478054017686862
 40
5.949823361320465
 40
8.966592204333145
 40
8.966592204333145
 40
8.966592204333145
 40
8.966592204333145
 10
36.90648428235423
 20
27.78472511704211
 30
0.0
 10
36.4813378128691
 20
27.74847494198716
 30
0.0
 10
34.99669045922801
 20
27.59748792621772
 30
0.0
 10
33.02931935516739
 20
27.33775904581184
 30
0.0
 10
30.47854422079425
 20
27.10385386866533
 30
0.0
 10
28.97730038672498
 20
27.08381391237526
 30
0.0
 10
27.97828920475382
 20
27.21322518382434
 30
0.0
  0
POLYLINE
  5
46A
330
1F
100
AcDbEntity
  8
Default
100
AcDb2dPolyline
 66
     1
 10
0.0
 20
0.0
 30
0.0
  0
VERTEX
  5
46B
330
46A
100
AcDbEntity
  8
Default
100
AcDbVertex
100
AcDb2dVertex
 10
35.59804770201538
 20
26.96286691948929
 30
0.0
  0
VERTEX
  5
46C
330
46A
100
AcDbEntity
  8
Default
100
AcDbVertex
100
AcDb2dVertex
 10
35.60048752772099
 20
26.83587615345699
 30
0.0
  0
SEQEND
  5
46D
330
46A
100
AcDbEntity
  8
Default
  0
ARC
  5
46E
330
1F
100
AcDbEntity
  8
Default
100
AcDbCircle
 10
35.48299985250287
 20
27.36699093613215
 30
0.0
 40
0.5439542868699839
100
AcDbArc
 50
276.012876070545
 51
282.4735058138342
  0
LINE
  5
46F
330
1F
100
AcDbEntity
  8
Default
100
AcDbLine
 10
35.53998012985394
 20
26.82602927926797
 30
0.0
 11
35.34096712921189
 21
26.80506695073847
 31
0.0
  0
ARC
  5
470
330
1F
100
AcDbEntity
  8
Default
100
AcDbCircle
 10
35.28858546400144
 20
27.30237011806003
 30
0.0
 40
0.5000542761323707
100
AcDbArc
 50
269.2172210286454
 51
276.0128760705438
  0
POLYLINE
  5
471
330
1F
100
AcDbEntity
  8
Default
100
AcDb2dPolyline
 66
     1
 10
0.0
 20
0.0
 30
0.0
  0
VERTEX
  5
472
330
471
100
AcDbEntity
  8
Default
100
AcDbVertex
100
AcDb2dVertex
 10
32.96597877346082
 20
26.65386749178646
 30
0.0
  0
VERTEX
  5
473
330
471
100
AcDbEntity
  8
Default
100
AcDbVertex
100
AcDb2dVertex
 10
32.97246087360725
 20
26.50782192838692
 30
0.0
  0
SEQEND
  5
474
330
471
100
AcDbEntity
  8
Default
  0
POLYLINE
  5
475
330
1F
100
AcDbEntity
  8
Default
100
AcDb2dPolyline
 66
     1
 10
0.0
 20
0.0
 30
0.0
  0
VERTEX
  5
476
330
475
100
AcDbEntity
  8
Default
100
AcDbVertex
100
AcDb2dVertex
 10
32.65043813267638
 20
26.61474839272403
 30
0.0
  0
VERTEX
  5
477
330
475
100
AcDbEntity
  8
Default
100
AcDbVertex
100
AcDb2dVertex
 10
32.65162123975318
 20
26.46340490129678
 30
0.0
  0
SEQEND
  5
478
330
475
100
AcDbEntity
  8
Default
  0
ARC
  5
479
330
1F
100
AcDbEntity
  8
Default
100
AcDbCircle
 10
32.85827051991745
 20
26.88478392399635
 30
0.0
 40
0.393877878294322
100
AcDbArc
 50
277.9349865216539
 51
286.8527530584805
  0
LINE
  5
47A
330
1F
100
AcDbEntity
  8
Default
100
AcDbLine
 10
32.9126451070299
 20
26.49467728820815
 30
0.0
 11
32.710820200553
 21
26.46654614417744
 31
0.0
  0
ARC
  5
47B
330
1F
100
AcDbEntity
  8
Default
100
AcDbCircle
 10
32.66289111593494
 20
26.81040997744375
 30
0.0
 40
0.3471880369207945
100
AcDbArc
 50
268.1398270608906
 51
277.9349865216556
  0
POLYLINE
  5
47C
330
1F
100
AcDbEntity
  8
Default
100
AcDb2dPolyline
 66
     1
 10
0.0
 20
0.0
 30
0.0
  0
VERTEX
  5
47D
330
47C
100
AcDbEntity
  8
Default
100
AcDbVertex
100
AcDb2dVertex
 10
30.33099912108173
 20
26.3570435429798
 30
0.0
  0
VERTEX
  5
47E
330
47C
100
AcDbEntity
  8
Default
100
AcDbVertex
100
AcDb2dVertex
 10
30.34701835363413
 20
26.16744629767982
 30
0.0
  0
SEQEND
  5
47F
330
47C
100
AcDbEntity
  8
Default
  0
POLYLINE
  5
480
330
1F
100
AcDbEntity
  8
Default
100
AcDb2dPolyline
 66
     1
 10
0.0
 20
0.0
 30
0.0
  0
VERTEX
  5
481
330
480
100
AcDbEntity
  8
Default
100
AcDbVertex
100
AcDb2dVertex
 10
30.01841109205094
 20
26.33124003046184
 30
0.0
  0
VERTEX
  5
482
330
480
100
AcDbEntity
  8
Default
100
AcDbVertex
100
AcDb2dVertex
 10
30.02311517519124
 20
26.13281027923358
 30
0.0
  0
SEQEND
  5
483
330
480
100
AcDbEntity
  8
Default
  0
LINE
  5
484
330
1F
100
AcDbEntity
  8
Default
  6
Continuous
100
AcDbLine
 10
22.39397483494901
 20
0.1524998734
 30
0.0
 11
38.63093610314901
 21
0.1524998729
 31
0.0
  0
SPLINE
  5
485
330
1F
100
AcDbEntity
  8
Default
100
AcDbSpline
210
0.0
220
0.0
230
1.0
 70
    12
 71
     2
 72
     6
 73
     3
 74
     0
 42
0.0000000001
 43
0.0000000001
 40
0.0
 40
0.0
 40
0.0
 40
0.0015672370115101
 40
0.0015672370115101
 40
0.0015672370115101
 10
-5.533977455662367
 20
27.15414513510159
 30
0.0
 41
1.0
 10
-5.534178102696636
 20
27.15490269494389
 30
0.0
 41
0.9998800978383098
 10
-5.534355194458442
 20
27.15566610483047
 30
0.0
 41
1.0
  0
POLYLINE
  5
486
330
1F
100
AcDbEntity
  8
Default
100
AcDb2dPolyline
 66
     1
 10
0.0
 20
0.0
 30
0.0
  0
VERTEX
  5
487
330
486
100
AcDbEntity
  8
Default
100
AcDbVertex
100
AcDb2dVertex
 10
-7.568919966055049
 20
68.25092438668176
 30
0.0
  0
VERTEX
  5
488
330
486
100
AcDbEntity
  8
Default
100
AcDbVertex
100
AcDb2dVertex
 10
-7.616915168195206
 20
68.16378172752809
 30
0.0
  0
SEQEND
  5
489
330
486
100
AcDbEntity
  8
Default
  0
ARC
  5
48A
330
1F
100
AcDbEntity
  8
Default
100
AcDbCircle
 10
-334.2731743482901
 20
298.7873832533493
 30
0.0
 40
399.8644235766344
100
AcDbArc
 50
324.5638436431537
 51
324.7774070112224
  0
SPLINE
  5
48B
330
1F
100
AcDbEntity
  8
Default
100
AcDbSpline
210
0.0
220
0.0
230
1.0
 70
     8
 71
     3
 72
    18
 73
    14
 74
     0
 42
0.0000000001
 43
0.0000000001
 40
-11.04446704942164
 40
-11.04446704942164
 40
-11.04446704942164
 40
-11.04446704942164
 40
-10.61383137829946
 40
-10.49565764506195
 40
-10.38182066249299
 40
-10.00594223520787
 40
-9.327331098099943
 40
-8.454856792675347
 40
-7.339592750294725
 40
-5.855096042031121
 40
-4.741449960198119
 40
-3.809270731539037
 40
-0.0000000000000004
 40
-0.0000000000000004
 40
-0.0000000000000004
 40
-0.0000000000000004
 10
-8.478805063853613
 20
66.94781332442123
 30
0.0
 10
-8.561968782291487
 20
66.83094685851067
 30
0.0
 10
-8.66610519531487
 20
66.68015814868674
 30
0.0
 10
-8.79536460871985
 20
66.5014709599599
 30
0.0
 10
-8.901904303125477
 20
66.32361762142502
 30
0.0
 10
-9.03843800709366
 20
65.95584016273013
 30
0.0
 10
-9.137514888462377
 20
65.31949397973668
 30
0.0
 10
-9.18337102635924
 20
64.43145719162175
 30
0.0
 10
-9.178606033389471
 20
63.27375942489488
 30
0.0
 10
-9.135013201019817
 20
62.03667969392171
 30
0.0
 10
-9.07066097558915
 20
60.8616179836911
 30
0.0
 10
-8.955848371898767
 20
58.91332022684911
 30
0.0
 10
-8.86414979226744
 20
57.33548327355176
 30
0.0
 10
-8.789674216623482
 20
56.06791781419145
 30
0.0
  0
ARC
  5
48C
330
1F
100
AcDbEntity
  8
Default
100
AcDbCircle
 10
-32002.3661865269
 20
-1823.708791211836
 30
0.0
 40
32048.7519027629
100
AcDbArc
 50
3.354775432793974
 51
3.362537249004979
  0
ARC
  5
48D
330
1F
100
AcDbEntity
  8
Default
100
AcDbCircle
 10
-8.159359933635315
 20
51.75579291654303
 30
0.0
 40
0.3766012876736257
100
AcDbArc
 50
183.354775432787
 51
260.3242844076335
  0
SPLINE
  5
48E
330
1F
100
AcDbEntity
  8
Default
100
AcDbSpline
210
0.0
220
0.0
230
1.0
 70
    12
 71
     2
 72
     6
 73
     3
 74
     0
 42
0.0000000001
 43
0.0000000001
 40
-8.275528837056001
 40
-8.275528837056001
 40
-8.275528837056001
 40
0.0
 40
0.0
 40
0.0
 10
-8.222655907482405
 20
51.38454885992773
 30
0.0
 41
1.0
 10
-4.15124875142405
 20
50.57428655365538
 30
0.0
 41
0.9951340748191598
 10
0.0000000000000142
 20
50.57816459041928
 30
0.0
 41
1.0
  0
SPLINE
  5
48F
330
1F
100
AcDbEntity
  8
Default
100
AcDbSpline
210
0.0
220
0.0
230
1.0
 70
    12
 71
     3
 72
    14
 73
    10
 74
     0
 42
0.0000000001
 43
0.0000000001
 40
-2.382636799938624
 40
-2.382636799938624
 40
-2.382636799938624
 40
-2.382636799938624
 40
-1.382636799938624
 40
-0.3826367999386246
 40
-0.3826367999386246
 40
-0.3826367999386246
 40
-0.2729743886858338
 40
-0.1509122625360565
 40
0.0
 40
0.0
 40
0.0
 40
0.0
 10
0.0000000000000142
 20
70.62321560807067
 30
0.0
 41
1.0
 10
-1.282456564702599
 20
70.62341000624716
 30
0.0
 41
1.0
 10
-3.848418151443823
 20
70.25309470903045
 30
0.0
 41
1.0
 10
-6.200655949874758
 20
69.16630781266598
 30
0.0
 41
1.0
 10
-7.282456947120878
 20
68.47680296426088
 30
0.0
 41
1.0
 10
-7.314217370003931
 20
68.45751156389191
 30
0.0
 41
1.0
 10
-7.378547819528265
 20
68.41465940248084
 30
0.0
 41
1.0
 10
-7.465101683346361
 20
68.34677544732112
 30
0.0
 41
1.0
 10
-7.53459030896552
 20
68.28809901475957
 30
0.0
 41
1.0
 10
-7.568919966055049
 20
68.25092438668176
 30
0.0
 41
1.0
  0
SPLINE
  5
490
330
1F
100
AcDbEntity
  8
Default
100
AcDbSpline
210
0.0
220
0.0
230
1.0
 70
     8
 71
     3
 72
    16
 73
    12
 74
     0
 42
0.0000000001
 43
0.0000000001
 40
0.0
 40
0.0
 40
0.0
 40
0.0
 40
1.0
 40
2.0
 40
3.0
 40
4.0
 40
5.0
 40
6.0
 40
7.0
 40
8.0
 40
9.0
 40
9.0
 40
9.0
 40
9.0
 10
20.95429789850179
 20
41.97438204615248
 30
0.0
 10
21.11686431270854
 20
41.41344864702263
 30
0.0
 10
21.40538256748039
 20
40.28070654408167
 30
0.0
 10
21.70623251908124
 20
38.55359333485181
 30
0.0
 10
21.92274049390932
 20
36.81473038217813
 30
0.0
 10
22.10904318623865
 20
35.07271276074969
 30
0.0
 10
22.25488825223387
 20
33.32560969084251
 30
0.0
 10
22.31718812327505
 20
31.57723668305867
 30
0.0
 10
22.54492261543992
 20
29.82421992551622
 30
0.0
 10
23.40675750599929
 20
28.25622092107245
 30
0.0
 10
24.34164047706288
 20
27.52048601774889
 30
0.0
 10
24.85063882520869
 20
27.23605609302796
 30
0.0
  0
ARC
  5
491
330
1F
100
AcDbEntity
  8
Default
100
AcDbCircle
 10
39.48823648131561
 20
23.07644194034124
 30
0.0
 40
4.735621076912604
100
AcDbArc
 50
78.2268504378205
 51
88.89187675271201
  0
SPLINE
  5
492
330
1F
100
AcDbEntity
  8
Default
100
AcDbSpline
210
0.0
220
0.0
230
1.0
 70
    12
 71
     2
 72
     6
 73
     3
 74
     0
 42
0.0000000001
 43
0.0000000001
 40
0.0
 40
0.0
 40
0.0
 40
0.4752604825934983
 40
0.4752604825934983
 40
0.4752604825934983
 10
40.45447983957528
 20
27.71244029632865
 30
0.0
 41
1.0
 10
40.68762398293283
 20
27.66540439666896
 30
0.0
 41
0.9986683373178159
 10
40.91468445876184
 20
27.59459348678187
 30
0.0
 41
1.0
  0
SPLINE
  5
493
330
1F
100
AcDbEntity
  8
Default
100
AcDbSpline
210
0.0
220
0.0
230
1.0
 70
    12
 71
     2
 72
     8
 73
     5
 74
     0
 42
0.0000000001
 43
0.0000000001
 40
0.0
 40
0.0
 40
0.0
 40
0.0324543335714889
 40
0.0324543335714889
 40
0.0649086671429778
 40
0.0649086671429778
 40
0.0649086671429778
 10
40.91468445876184
 20
27.59459348678187
 30
0.0
 41
1.0
 10
40.9310386834742
 20
27.58935400648024
 30
0.0
 41
0.9197371239895568
 10
40.94613235496551
 20
27.59753593095086
 30
0.0
 41
1.0
 10
40.96122602645683
 20
27.60571785542148
 30
0.0
 41
0.9197371239895568
 10
40.9658039158078
 20
27.62243899198762
 30
0.0
 41
1.0
  0
SPLINE
  5
494
330
1F
100
AcDbEntity
  8
Default
100
AcDbSpline
210
0.0
220
0.0
230
1.0
 70
    12
 71
     2
 72
     6
 73
     3
 74
     0
 42
0.0000000001
 43
0.0000000001
 40
0.0
 40
0.0
 40
0.0
 40
0.1197804066303905
 40
0.1197804066303905
 40
0.1197804066303905
 10
40.9658039158078
 20
27.62243899198762
 30
0.0
 41
1.0
 10
40.98104313606661
 20
27.68053152141249
 30
0.0
 41
0.9999980136198698
 10
40.99646975107812
 20
27.73840090452833
 30
0.0
 41
1.0
  0
SPLINE
  5
495
330
1F
100
AcDbEntity
  8
Default
100
AcDbSpline
210
0.0
220
0.0
230
1.0
 70
    12
 71
     3
 72
    59
 73
    55
 74
     0
 42
0.0000000001
 43
0.0000000001
 40
0.0
 40
0.0
 40
0.0
 40
0.0
 40
0.0213292444772112
 40
0.0422339028831005
 40
0.5213050783143771
 40
1.138131412743502
 40
1.138131412743502
 40
1.138131412743502
 40
1.161781021547216
 40
1.190660427673819
 40
1.266727426220671
 40
1.487915670039002
 40
1.487915670039002
 40
1.487915670039002
 40
3.408829853382499
 40
8.2904732492629
 40
10.51377757559225
 40
11.3697014921579
 40
12.98432973188382
 40
14.32711787798274
 40
14.98821339550627
 40
15.62821414854803
 40
17.06007105052871
 40
18.11268626327257
 40
18.35675537765046
 40
18.67392838797119
 40
20.80986268708262
 40
23.63983047276914
 40
23.63983047276914
 40
23.63983047276914
 40
27.65896466783846
 40
27.65896466783846
 40
27.65896466783846
 40
27.8059439588151
 40
27.87957196899965
 40
27.96182902675386
 40
28.0483590627115
 40
28.0483590627115
 40
28.12728586872971
 40
28.12728586872971
 40
28.12728586872971
 40
29.18399970511256
 40
29.18399970511256
 40
29.18399970511256
 40
30.30326730634012
 40
30.30326730634012
 40
30.30326730634012
 40
30.4234114192628
 40
30.4234114192628
 40
30.4234114192628
 40
30.45516024418013
 40
30.45516024418013
 40
30.45516024418013
 40
30.48690906909746
 40
30.48690906909746
 40
30.48690906909746
 40
30.48690906909746
 10
40.99646975107812
 20
27.73840090452833
 30
0.0
 41
1.0
 10
40.99761436512181
 20
27.74269465974062
 30
0.0
 41
1.0
 10
41.00204027185545
 20
27.76397622275768
 30
0.0
 41
1.0
 10
40.86524898860951
 20
27.87101740543194
 30
0.0
 41
1.0
 10
40.58751395151656
 20
28.11947508803725
 30
0.0
 41
1.0
 10
40.33159865165742
 20
28.38026558571669
 30
0.0
 41
1.0
 10
40.19105053729253
 20
28.53035404552845
 30
0.0
 41
1.0
 10
40.18565243152015
 20
28.53611645071906
 30
0.0
 41
1.0
 10
40.16222735392363
 20
28.55734378987977
 30
0.0
 41
1.0
 10
40.1237268967741
 20
28.57664024128182
 30
0.0
 41
1.0
 10
40.01836301174588
 20
28.60515035943242
 30
0.0
 41
1.0
 10
39.91891462347662
 20
28.61163438170126
 30
0.0
 41
1.0
 10
39.84510696088201
 20
28.61376537676666
 30
0.0
 41
1.0
 10
39.20474125278655
 20
28.62767579767944
 30
0.0
 41
1.0
 10
36.93764245013234
 20
28.67141437321781
 30
0.0
 41
1.0
 10
33.92944624371118
 20
28.72250720279742
 30
0.0
 41
1.0
 10
31.27629809194075
 20
28.77171278926296
 30
0.0
 41
1.0
 10
29.71237905294494
 20
28.81873195154299
 30
0.0
 41
1.0
 10
28.45051192631603
 20
29.01840041753326
 30
0.0
 41
1.0
 10
27.31711400225062
 20
29.4553337162189
 30
0.0
 41
1.0
 10
26.60616583031877
 20
29.99015903895531
 30
0.0
 41
1.0
 10
25.99868928041936
 20
30.67445526138562
 30
0.0
 41
1.0
 10
25.55427099632
 20
31.63269572200657
 30
0.0
 41
1.0
 10
25.33947173337917
 20
32.51438553831505
 30
0.0
 41
1.0
 10
25.23918352219708
 20
33.04460993980438
 30
0.0
 41
1.0
 10
25.07334576020234
 20
33.92764549648714
 30
0.0
 41
1.0
 10
24.74724670651524
 20
35.65846206659951
 30
0.0
 41
1.0
 10
24.44343551279003
 20
37.28564400200194
 30
0.0
 41
1.0
 10
24.27090930583758
 20
38.2130555428315
 30
0.0
 41
1.0
 10
24.02588540929093
 20
39.5301771178685
 30
0.0
 41
0.9999892345137223
 10
23.77338030124952
 20
40.84588495919188
 30
0.0
 41
0.9999892345137223
 10
23.51340213673411
 20
42.16013657409751
 30
0.0
 41
1.0
 10
23.50075174696046
 20
42.20710640333468
 30
0.0
 41
1.0
 10
23.47613798239642
 20
42.27431003005157
 30
0.0
 41
1.0
 10
23.42726649842669
 20
42.34641524991051
 30
0.0
 41
1.0
 10
23.38082097277392
 20
42.38999500327834
 30
0.0
 41
1.0
 10
23.34487101021244
 20
42.40856714289649
 30
0.0
 41
1.0
 10
23.30926503378247
 20
42.42057702867898
 30
0.0
 41
1.0
 10
23.29158650999355
 20
42.42791531189798
 30
0.0
 41
1.0
 10
23.24331513292306
 20
42.42057037370924
 30
0.0
 41
1.0
 10
22.89507898610355
 20
42.36758301083075
 30
0.0
 41
0.9999636970347625
 10
22.54741476783499
 20
42.31096441042231
 30
0.0
 41
0.9999636970347625
 10
22.20036034184346
 20
42.25072073875315
 30
0.0
 41
1.0
 10
21.83301767297027
 20
42.18550480803999
 30
0.0
 41
1.0
 10
21.46567500409709
 20
42.12028887732685
 30
0.0
 41
1.0
 10
21.09833233522389
 20
42.05507294661368
 30
0.0
 41
1.0
 10
21.05890328464541
 20
42.04781950651261
 30
0.0
 41
0.9978746378784636
 10
21.02017866387071
 20
42.0374432755652
 30
0.0
 41
0.9978746378784636
 10
20.98240538442626
 20
42.02401041351607
 30
0.0
 41
1.0
 10
20.97190460562648
 20
42.02119878813026
 30
0.0
 41
0.9481677523081955
 10
20.96330719192054
 20
42.01454626452785
 30
0.0
 41
0.9481677523081955
 10
20.95795001313857
 20
42.00508728846224
 30
0.0
 41
1.0
 10
20.9525928343566
 20
41.99562831239661
 30
0.0
 41
0.9481677523081955
 10
20.95130891435127
 20
41.98483372383885
 30
0.0
 41
0.9481677523081955
 10
20.95429789850179
 20
41.97438204615248
 30
0.0
 41
1.0
  0
SPLINE
  5
496
330
1F
100
AcDbEntity
  8
Default
100
AcDbSpline
210
0.0
220
0.0
230
1.0
 70
    12
 71
     2
 72
     6
 73
     3
 74
     0
 42
0.0000000001
 43
0.0000000001
 40
0.0
 40
0.0
 40
0.0
 40
1.082344106876008
 40
1.082344106876008
 40
1.082344106876008
 10
40.91468035260421
 20
27.5945949874754
 30
0.0
 41
1.0
 10
40.50366201887863
 20
27.94798599864705
 30
0.0
 41
0.9975644276718084
 10
40.14582180429348
 20
28.35513665658731
 30
0.0
 41
1.0
  0
SPLINE
  5
497
330
1F
100
AcDbEntity
  8
Default
100
AcDbSpline
210
0.0
220
0.0
230
1.0
 70
    12
 71
     3
 72
    10
 73
     6
 74
     0
 42
0.0000000001
 43
0.0000000001
 40
0.0
 40
0.0
 40
0.0
 40
0.0
 40
0.499786126541424
 40
0.499786126541424
 40
1.0
 40
1.0
 40
1.0
 40
1.0
 10
40.14582180429348
 20
28.35513665658731
 30
0.0
 41
1.0
 10
40.13648270324886
 20
28.36558715316261
 30
0.0
 41
1.0
 10
40.11652384165076
 20
28.37680686730928
 30
0.0
 41
1.0
 10
40.03618122826659
 20
28.39894464891412
 30
0.0
 41
1.0
 10
39.96920775792124
 20
28.41217536606587
 30
0.0
 41
1.0
 10
39.84615384089834
 20
28.41548313028184
 30
0.0
 41
1.0
  0
SPLINE
  5
498
330
1F
100
AcDbEntity
  8
Default
100
AcDbSpline
210
0.0
220
0.0
230
1.0
 70
    12
 71
     3
 72
    36
 73
    32
 74
     0
 42
0.0000000001
 43
0.0000000001
 40
0.0
 40
0.0
 40
0.0
 40
0.0
 40
2.990739583321262
 40
2.990739583321262
 40
2.990739583321262
 40
4.333651030355169
 40
4.333651030355169
 40
4.333651030355169
 40
8.814443795263726
 40
9.100566613352905
 40
10.24480724454827
 40
11.67549121983906
 40
12.96398165262606
 40
14.1559140323942
 40
15.39293631914945
 40
16.62719998542071
 40
17.10106454752805
 40
17.66960510727877
 40
19.56375070971521
 40
19.56375070971521
 40
19.56375070971521
 40
21.69406019694155
 40
21.69406019694155
 40
21.69406019694155
 40
25.8288213752095
 40
25.8288213752095
 40
25.8288213752095
 40
26.0991454120005
 40
26.0991454120005
 40
26.0991454120005
 40
26.42524490160192
 40
26.42524490160192
 40
26.42524490160192
 40
26.42524490160192
 10
39.84615384089834
 20
28.41548313028184
 30
0.0
 41
1.0
 10
38.84257717918809
 20
28.4356073974171
 30
0.0
 41
0.9999981939119967
 10
37.84581903579897
 20
28.45324020195143
 30
0.0
 41
0.9999981939119967
 10
36.84902254861738
 20
28.46855278993085
 30
0.0
 41
1.0
 10
36.40146055362481
 20
28.47675516692073
 30
0.0
 41
0.9999999941358523
 10
35.95389747463445
 20
28.48489818077894
 30
0.0
 41
0.9999999941358523
 10
35.50633331952004
 20
28.49298183136226
 30
0.0
 41
1.0
 10
34.01322201344477
 20
28.52134194824721
 30
0.0
 41
1.0
 10
32.42394087856643
 20
28.55090642160131
 30
0.0
 41
1.0
 10
30.45454366579391
 20
28.58651591639018
 30
0.0
 41
1.0
 10
29.50022006207935
 20
28.63592931008932
 30
0.0
 41
1.0
 10
28.23100840631805
 20
28.86949811620538
 30
0.0
 41
1.0
 10
27.01277222104399
 20
29.36866223776705
 30
0.0
 41
1.0
 10
26.06413208274542
 20
30.19610241842943
 30
0.0
 41
1.0
 10
25.46677007788897
 20
31.27831393735484
 30
0.0
 41
1.0
 10
25.188759230895
 20
32.22120133118747
 30
0.0
 41
1.0
 10
25.04265993629396
 20
32.96678121132204
 30
0.0
 41
1.0
 10
24.86533490308396
 20
33.92887789093538
 30
0.0
 41
1.0
 10
24.71181416019836
 20
34.73577698312648
 30
0.0
 41
1.0
 10
24.59600987221371
 20
35.35627570703777
 30
0.0
 41
1.0
 10
24.46560881475436
 20
36.05430481622303
 30
0.0
 41
0.9999946372837994
 10
24.33784975323606
 20
36.75282299096742
 30
0.0
 41
0.9999946372830957
 10
24.21273474306531
 20
37.4518189934082
 30
0.0
 41
0.9999999999978886
 10
23.97688802197227
 20
38.80978898941112
 30
0.0
 41
0.9999340955377237
 10
23.7220997135741
 20
40.16433476773568
 30
0.0
 41
0.9999340955802639
 10
23.44842019296348
 20
41.51518851638462
 30
0.0
 41
1.000000000125509
 10
23.43046321313135
 20
41.60348926643505
 30
0.0
 41
0.9999998892704794
 10
23.41258618602213
 20
41.69180615682534
 30
0.0
 41
0.9999998892704794
 10
23.39478911758112
 20
41.78013915818437
 30
0.0
 41
1.000000000125509
 10
23.37442133997171
 20
41.88693453902928
 30
0.0
 41
0.9996238213620874
 10
23.35047791001915
 20
41.99298552627911
 30
0.0
 41
0.9996238213620874
 10
23.32298584875308
 20
42.09817243754615
 30
0.0
 41
1.000000000125509
  0
SPLINE
  5
499
330
1F
100
AcDbEntity
  8
Default
100
AcDbSpline
210
0.0
220
0.0
230
1.0
 70
    12
 71
     3
 72
    10
 73
     6
 74
     0
 42
0.0000000001
 43
0.0000000001
 40
0.0
 40
0.0
 40
0.0
 40
0.0
 40
0.4997792602654922
 40
0.4997792602654922
 40
1.0
 40
1.0
 40
1.0
 40
1.0
 10
23.32298584875308
 20
42.09817243754615
 30
0.0
 41
1.0
 10
23.30165238781886
 20
42.17696163614004
 30
0.0
 41
1.0
 10
23.2674407600026
 20
42.2418859440676
 30
0.0
 41
1.0
 10
23.19092229944769
 20
42.31246807199194
 30
0.0
 41
1.0
 10
23.14938746652307
 20
42.32930798157707
 30
0.0
 41
1.0
 10
23.1025989581135
 20
42.32172099134738
 30
0.0
 41
1.0
  0
SPLINE
  5
49A
330
1F
100
AcDbEntity
  8
Default
100
AcDbSpline
210
0.0
220
0.0
230
1.0
 70
    12
 71
     2
 72
     6
 73
     3
 74
     0
 42
0.0000000001
 43
0.0000000001
 40
0.0
 40
0.0
 40
0.0
 40
1.03984789255465
 40
1.03984789255465
 40
1.03984789255465
 10
23.1025989581135
 20
42.32172099134738
 30
0.0
 41
1.0
 10
22.58959593324632
 20
42.23713481846799
 30
0.0
 41
0.9999833139372739
 10
22.07564988331761
 20
42.15848126210891
 30
0.0
 41
1.0
  0
SPLINE
  5
49B
330
1F
100
AcDbEntity
  8
Default
100
AcDbSpline
210
0.0
220
0.0
230
1.0
 70
    12
 71
     2
 72
     6
 73
     3
 74
     0
 42
0.0000000001
 43
0.0000000001
 40
0.0
 40
0.0
 40
0.0
 40
1.136364072058917
 40
1.136364072058917
 40
1.136364072058917
 10
22.07564988331761
 20
42.15848126210891
 30
0.0
 41
1.0
 10
21.51487378334433
 20
42.06704141130178
 30
0.0
 41
0.9999994086296703
 10
20.95429789850179
 20
41.97438204615253
 30
0.0
 41
1.0
  0
SPLINE
  5
49C
330
1F
100
AcDbEntity
  8
Default
100
AcDbSpline
210
0.0
220
0.0
230
1.0
 70
    12
 71
     2
 72
     6
 73
     3
 74
     0
 42
0.0000000001
 43
0.0000000001
 40
0.5367362653132891
 40
0.5367362653132891
 40
0.5367362653132891
 40
1.16046253457911
 40
1.16046253457911
 40
1.16046253457911
 10
-8.481204739606103
 20
28.31170831571061
 30
0.0
 41
0.9999556825401937
 10
-8.763123277013761
 20
28.4450653281834
 30
0.0
 41
0.9999520912270546
 10
-9.043098791492383
 20
28.58245479576436
 30
0.0
 41
1.0
  0
ARC
  5
49D
330
1F
100
AcDbEntity
  8
Default
100
AcDbCircle
 10
-63.85904567088829
 20
47.46228512232057
 30
0.0
 40
56.53701087835524
100
AcDbArc
 50
352.4515982317758
 51
354.5899439829722
  0
SPLINE
  5
49E
330
1F
100
AcDbEntity
  8
Default
100
AcDbSpline
210
0.0
220
0.0
230
1.0
 70
     8
 71
     3
 72
    23
 73
    19
 74
     0
 42
0.0000000001
 43
0.0000000001
 40
-11.91967701549755
 40
-11.91967701549755
 40
-11.91967701549755
 40
-11.91967701549755
 40
-8.329327274556412
 40
-4.522153002375717
 40
-3.809294555456245
 40
-2.42112832591297
 40
-1.528295460971046
 40
-0.946943201027295
 40
-0.7579104400587644
 40
-0.6748850320902328
 40
-0.6276874961547436
 40
-0.5831373980459477
 40
-0.5504869057075638
 40
-0.4870405797229443
 40
-0.4054342416030434
 40
-0.2521911721077188
 40
-0.1143499834053041
 40
0.0
 40
0.0
 40
0.0
 40
0.0
 10
-7.811970791374733
 20
40.03537482870195
 30
0.0
 10
-7.969184742754493
 20
38.84896193872036
 30
0.0
 10
-8.282864115513092
 20
36.40314555680067
 30
0.0
 10
-8.640856757091257
 20
33.72345774665501
 30
0.0
 10
-8.896030497093307
 20
31.77074275645008
 30
0.0
 10
-9.01342701168437
 20
30.77948142876517
 30
0.0
 10
-9.104281928460495
 20
29.82989020713777
 30
0.0
 10
-9.122949469351141
 20
29.27487851526765
 30
0.0
 10
-9.099785439057683
 20
28.99125645632358
 30
0.0
 10
-9.075839436260338
 20
28.88661039091598
 30
0.0
 10
-9.053827694531662
 20
28.8335746616312
 30
0.0
 10
-9.028607507819999
 20
28.79805044680418
 30
0.0
 10
-8.985029740862501
 20
28.77993669626957
 30
0.0
 10
-8.928933291426034
 20
28.76101448433185
 30
0.0
 10
-8.834800120154682
 20
28.72897053607777
 30
0.0
 10
-8.715958249073196
 20
28.69273593555123
 30
0.0
 10
-8.586475665084436
 20
28.65403972703542
 30
0.0
 10
-8.506651714949982
 20
28.6275996586778
 30
0.0
 10
-8.471104631725268
 20
28.61381214574288
 30
0.0
  0
SPLINE
  5
49F
330
1F
100
AcDbEntity
  8
Default
100
AcDbSpline
210
0.0
220
0.0
230
1.0
 70
     8
 71
     3
 72
    13
 73
     9
 74
     0
 42
0.0000000001
 43
0.0000000001
 40
-6.0
 40
-6.0
 40
-6.0
 40
-6.0
 40
-4.999999763674965
 40
-3.99999952734993
 40
-2.999999291024896
 40
-1.999999054699861
 40
-0.9999988183748261
 40
0.0
 40
0.0
 40
0.0
 40
0.0
 10
-8.471104631725268
 20
28.61381214574288
 30
0.0
 10
-8.00967754599921
 20
28.50604220480731
 30
0.0
 10
-7.078985913497291
 20
28.32581649046782
 30
0.0
 10
-5.673248371442611
 20
28.11327965420892
 30
0.0
 10
-4.259968845505938
 20
27.95815182557727
 30
0.0
 10
-2.841972024942692
 20
27.85586751179231
 30
0.0
 10
-1.421484892345774
 20
27.79891062254728
 30
0.0
 10
-0.4738220011006433
 20
27.78748069145217
 30
0.0
 10
0.0000000059136198
 20
27.78764253015127
 30
0.0
  0
SPLINE
  5
4A0
330
1F
100
AcDbEntity
  8
Default
100
AcDbSpline
210
0.0
220
0.0
230
1.0
 70
     8
 71
     3
 72
    13
 73
     9
 74
     0
 42
0.0000000001
 43
0.0000000001
 40
0.0
 40
0.0
 40
0.0
 40
0.0
 40
0.9999988183748261
 40
1.999999054699861
 40
2.999999291024896
 40
3.99999952734993
 40
4.999999763674965
 40
6.0
 40
6.0
 40
6.0
 40
6.0
 10
0.0000000059136198
 20
27.78764253015127
 30
0.0
 10
0.473822012927883
 20
27.78748069145217
 30
0.0
 10
1.421484904173013
 20
27.79891062254728
 30
0.0
 10
2.841972036769931
 20
27.85586751179231
 30
0.0
 10
4.259968857333178
 20
27.95815182557727
 30
0.0
 10
5.673248383269851
 20
28.11327965420892
 30
0.0
 10
7.078985925324531
 20
28.32581649046782
 30
0.0
 10
8.00967755782645
 20
28.50604220480731
 30
0.0
 10
8.471104643552508
 20
28.61381214574288
 30
0.0
  0
SPLINE
  5
4A1
330
1F
100
AcDbEntity
  8
Default
100
AcDbSpline
210
0.0
220
0.0
230
1.0
 70
     8
 71
     3
 72
    23
 73
    19
 74
     0
 42
0.0000000001
 43
0.0000000001
 40
0.0
 40
0.0
 40
0.0
 40
0.0
 40
0.1143499834053041
 40
0.2521911721077188
 40
0.4054342416030434
 40
0.4870405797229443
 40
0.5504869057075638
 40
0.5831373980459477
 40
0.6276874961547436
 40
0.6748850320902328
 40
0.7579104400587644
 40
0.946943201027295
 40
1.528295460971046
 40
2.42112832591297
 40
3.809294555456245
 40
4.522153002375717
 40
8.329327274556412
 40
11.91967701549755
 40
11.91967701549755
 40
11.91967701549755
 40
11.91967701549755
 10
8.471104643552508
 20
28.61381214574288
 30
0.0
 10
8.506651726777221
 20
28.6275996586778
 30
0.0
 10
8.586475676911675
 20
28.65403972703542
 30
0.0
 10
8.715958260900436
 20
28.69273593555123
 30
0.0
 10
8.834800131981922
 20
28.72897053607777
 30
0.0
 10
8.928933303253274
 20
28.76101448433185
 30
0.0
 10
8.98502975268974
 20
28.77993669626957
 30
0.0
 10
9.028607519647238
 20
28.79805044680418
 30
0.0
 10
9.053827706358902
 20
28.8335746616312
 30
0.0
 10
9.075839448087578
 20
28.88661039091598
 30
0.0
 10
9.099785450884923
 20
28.99125645632358
 30
0.0
 10
9.122949481178381
 20
29.27487851526765
 30
0.0
 10
9.104281940287734
 20
29.82989020713777
 30
0.0
 10
9.01342702351161
 20
30.77948142876517
 30
0.0
 10
8.896030508920546
 20
31.77074275645008
 30
0.0
 10
8.640856768918496
 20
33.72345774665501
 30
0.0
 10
8.282864127340332
 20
36.40314555680067
 30
0.0
 10
7.969184754581732
 20
38.84896193872036
 30
0.0
 10
7.811970803201973
 20
40.03537482870195
 30
0.0
  0
ARC
  5
4A2
330
1F
100
AcDbEntity
  8
Default
100
AcDbCircle
 10
63.85904568271555
 20
47.46228512232057
 30
0.0
 40
56.53701087835524
100
AcDbArc
 50
185.4100560170275
 51
187.548401768224
  0
SPLINE
  5
4A3
330
1F
100
AcDbEntity
  8
Default
100
AcDbSpline
210
0.0
220
0.0
230
1.0
 70
     8
 71
     3
 72
    11
 73
     7
 74
     0
 42
0.0000000001
 43
0.0000000001
 40
0.0
 40
0.0
 40
0.0
 40
0.0
 40
0.5807161227333388
 40
1.579145115981618
 40
4.028826996229559
 40
8.734236464915913
 40
8.734236464915913
 40
8.734236464915913
 40
8.734236464915913
 10
8.70071170038969
 20
28.69387715603249
 30
0.0
 10
8.51285921176489
 20
28.64660174162719
 30
0.0
 10
7.99348248617585
 20
28.55929535575645
 30
0.0
 10
6.661035797466752
 20
28.39160964782707
 30
0.0
 10
3.953919755070956
 20
28.14139520182908
 30
0.0
 10
1.568426594036765
 20
28.06768523881077
 30
0.0
 10
0.0000000059136198
 20
28.06976738772165
 30
0.0
  0
SPLINE
  5
4A4
330
1F
100
AcDbEntity
  8
Default
100
AcDbSpline
210
0.0
220
0.0
230
1.0
 70
     8
 71
     3
 72
    11
 73
     7
 74
     0
 42
0.0000000001
 43
0.0000000001
 40
-8.734236464915913
 40
-8.734236464915913
 40
-8.734236464915913
 40
-8.734236464915913
 40
-4.028826996229559
 40
-1.579145115981618
 40
-0.5807161227333388
 40
0.0
 40
0.0
 40
0.0
 40
0.0
 10
0.0000000059136198
 20
28.06976738772165
 30
0.0
 10
-1.568426582209526
 20
28.06768523881077
 30
0.0
 10
-3.953919743243716
 20
28.14139520182908
 30
0.0
 10
-6.661035785639513
 20
28.39160964782707
 30
0.0
 10
-7.99348247434861
 20
28.55929535575645
 30
0.0
 10
-8.512859199937651
 20
28.64660174162719
 30
0.0
 10
-8.70071168856245
 20
28.69387715603249
 30
0.0
  0
ARC
  5
4A5
330
1F
100
AcDbEntity
  8
Default
100
AcDbCircle
 10
-8.676763218900504
 20
28.83814706807451
 30
0.0
 40
0.4767832321942155
100
AcDbArc
 50
192.0252858064753
 51
200.7856856410668
  0
ARC
  5
4A6
330
1F
100
AcDbEntity
  8
Default
100
AcDbCircle
 10
-8.974349744311667
 20
28.72518961821442
 30
0.0
 40
0.1584797204555228
100
AcDbArc
 50
200.7856856410651
 51
243.3113223527142
  0
ARC
  5
4A7
330
1F
100
AcDbEntity
  8
Default
100
AcDbCircle
 10
-5.570431030302188
 20
38.92035469710773
 30
0.0
 40
10.90527057606768
100
AcDbArc
 50
251.4179538194732
 51
253.3208065539642
  0
ARC
  5
4A8
330
1F
100
AcDbEntity
  8
Default
100
AcDbCircle
 10
-7.011265582149974
 20
34.11145902089363
 30
0.0
 40
5.885162825181336
100
AcDbArc
 50
253.3208065539642
 51
257.9575618665136
  0
SPLINE
  5
4A9
330
1F
100
AcDbEntity
  8
Default
100
AcDbSpline
210
0.0
220
0.0
230
1.0
 70
     8
 71
     3
 72
    11
 73
     7
 74
     0
 42
0.0000000001
 43
0.0000000001
 40
-8.289804655665163
 40
-8.289804655665163
 40
-8.289804655665163
 40
-8.289804655665163
 40
-4.386439640998885
 40
-2.244382141007875
 40
-1.117145790588472
 40
0.0
 40
0.0
 40
0.0
 40
0.0
 10
-8.239123196834868
 20
28.35580900052609
 30
0.0
 10
-6.966390487756712
 20
28.08429587120617
 30
0.0
 10
-4.96854191724475
 20
27.79774956277895
 30
0.0
 10
-2.582170731262067
 20
27.6421415032008
 30
0.0
 10
-1.120485120570777
 20
27.59892722335022
 30
0.0
 10
-0.3724031950906408
 20
27.59290887923051
 30
0.0
 10
0.0000000059136198
 20
27.59346208095641
 30
0.0
  0
SPLINE
  5
4AA
330
1F
100
AcDbEntity
  8
Default
100
AcDbSpline
210
0.0
220
0.0
230
1.0
 70
     8
 71
     3
 72
    11
 73
     7
 74
     0
 42
0.0000000001
 43
0.0000000001
 40
0.0
 40
0.0
 40
0.0
 40
0.0
 40
1.117145790588472
 40
2.244382141007875
 40
4.386439640998885
 40
8.289804655665163
 40
8.289804655665163
 40
8.289804655665163
 40
8.289804655665163
 10
0.0000000059136198
 20
27.59346208095641
 30
0.0
 10
0.3724032069178804
 20
27.59290887923051
 30
0.0
 10
1.120485132398017
 20
27.59892722335022
 30
0.0
 10
2.582170743089307
 20
27.6421415032008
 30
0.0
 10
4.968541929071989
 20
27.79774956277895
 30
0.0
 10
6.966390499583952
 20
28.08429587120617
 30
0.0
 10
8.239123208662107
 20
28.35580900052609
 30
0.0
  0
ARC
  5
4AB
330
1F
100
AcDbEntity
  8
Default
100
AcDbCircle
 10
7.011265593977214
 20
34.11145902089363
 30
0.0
 40
5.885162825181336
100
AcDbArc
 50
282.0424381334864
 51
286.6791934460358
  0
ARC
  5
4AC
330
1F
100
AcDbEntity
  8
Default
100
AcDbCircle
 10
5.570431042129428
 20
38.92035469710773
 30
0.0
 40
10.90527057606768
100
AcDbArc
 50
286.6791934460359
 51
288.5820461805268
  0
ARC
  5
4AD
330
1F
100
AcDbEntity
  8
Default
100
AcDbCircle
 10
8.974349756138906
 20
28.72518961821442
 30
0.0
 40
0.1584797204555228
100
AcDbArc
 50
296.6886776472851
 51
339.2143143589349
  0
ARC
  5
4AE
330
1F
100
AcDbEntity
  8
Default
100
AcDbCircle
 10
8.676763230727744
 20
28.83814706807451
 30
0.0
 40
0.4767832321942155
100
AcDbArc
 50
339.2143143589327
 51
347.9747141935242
  0
SPLINE
  5
4AF
330
1F
100
AcDbEntity
  8
Default
100
AcDbSpline
210
0.0
220
0.0
230
1.0
 70
    12
 71
     2
 72
     6
 73
     3
 74
     0
 42
0.0000000001
 43
0.0000000001
 40
0.5367362653132901
 40
0.5367362653132901
 40
0.5367362653132901
 40
1.16046253457911
 40
1.16046253457911
 40
1.16046253457911
 10
8.48120475143334
 20
28.31170831571061
 30
0.0
 41
0.9999556825401937
 10
8.763123288841006
 20
28.4450653281834
 30
0.0
 41
0.9999520912270546
 10
9.043098803319623
 20
28.58245479576436
 30
0.0
 41
1.0
  0
SPLINE
  5
4B0
330
1F
100
AcDbEntity
  8
Default
100
AcDbSpline
210
0.0
220
0.0
230
1.0
 70
    12
 71
     2
 72
     6
 73
     3
 74
     0
 42
0.0000000001
 43
0.0000000001
 40
0.5367362653132891
 40
0.5367362653132891
 40
0.5367362653132891
 40
1.16046253457911
 40
1.16046253457911
 40
1.16046253457911
 10
8.48120475143334
 20
28.31170831571061
 30
0.0
 41
0.9999556825401937
 10
8.763123288841006
 20
28.4450653281834
 30
0.0
 41
0.9999520912270546
 10
9.043098803319623
 20
28.58245479576436
 30
0.0
 41
1.0
  0
SPLINE
  5
4B1
330
1F
100
AcDbEntity
  8
Default
100
AcDbSpline
210
0.0
220
0.0
230
1.0
 70
     8
 71
     3
 72
    18
 73
    14
 74
     0
 42
0.0000000001
 43
0.0000000001
 40
0.0
 40
0.0
 40
0.0
 40
0.0
 40
0.2333027194675158
 40
0.2905961816495549
 40
0.3809533486540008
 40
0.4920801357797896
 40
0.6761604746707232
 40
1.165086677208357
 40
1.917925925034485
 40
3.064069455414916
 40
4.21509045905279
 40
4.690458462965164
 40
7.107196983414992
 40
7.107196983414992
 40
7.107196983414992
 40
7.107196983414992
 10
8.789646097410383
 20
28.5361913826269
 30
0.0
 10
8.865435100639218
 20
28.55706729190125
 30
0.0
 10
8.953614467542593
 20
28.59182496280332
 30
0.0
 10
9.080593251399392
 20
28.62234137840854
 30
0.0
 10
9.135304543033612
 20
28.69388174608906
 30
0.0
 10
9.16184466321829
 20
28.82099652985904
 30
0.0
 10
9.184581266203594
 20
29.08134139128074
 30
0.0
 10
9.173728667820598
 20
29.55715540545349
 30
0.0
 10
9.110124549792317
 20
30.35055071761963
 30
0.0
 10
8.996916880041141
 20
31.36106330381808
 30
0.0
 10
8.88137992853737
 20
32.27794332075027
 30
0.0
 10
8.704983529603595
 20
33.61408884972563
 30
0.0
 10
8.578338746309555
 20
34.56974562491057
 30
0.0
 10
8.472828099264007
 20
35.36839470440498
 30
0.0
  0
SPLINE
  5
4B2
330
1F
100
AcDbEntity
  8
Default
100
AcDbSpline
210
0.0
220
0.0
230
1.0
 70
    12
 71
     2
 72
     6
 73
     3
 74
     0
 42
0.0000000001
 43
0.0000000001
 40
0.0
 40
0.0
 40
0.0
 40
6.481588670327722
 40
6.481588670327722
 40
6.481588670327722
 10
8.472828099264007
 20
35.36839470440498
 30
0.0
 41
1.0
 10
8.045640857244464
 20
38.58091120191757
 30
0.0
 41
0.9999997669392705
 10
7.622840580641423
 20
41.7940080122611
 30
0.0
 41
1.0
  0
SPLINE
  5
4B3
330
1F
100
AcDbEntity
  8
Default
100
AcDbSpline
210
0.0
220
0.0
230
1.0
 70
    12
 71
     2
 72
     6
 73
     3
 74
     0
 42
0.0000000001
 43
0.0000000001
 40
0.0
 40
0.0
 40
0.0
 40
0.3221193712202933
 40
0.3221193712202933
 40
0.3221193712202933
 10
7.622840580641423
 20
41.7940080122611
 30
0.0
 41
1.0
 10
7.60178146113112
 20
41.95368526016517
 30
0.0
 41
0.9999974648356978
 10
7.581441655873761
 20
42.11345572782066
 30
0.0
 41
1.0
  0
SPLINE
  5
4B4
330
1F
100
AcDbEntity
  8
Default
100
AcDbSpline
210
0.0
220
0.0
230
1.0
 70
     8
 71
     3
 72
     9
 73
     5
 74
     0
 42
0.0000000001
 43
0.0000000001
 40
0.0
 40
0.0
 40
0.0
 40
0.0
 40
1.0
 40
2.0
 40
2.0
 40
2.0
 40
2.0
 10
7.581441655873761
 20
42.11345572782066
 30
0.0
 10
7.571605701898164
 20
42.1907177736778
 30
0.0
 10
7.484264313779278
 20
42.38335285528505
 30
0.0
 10
7.314518757313976
 20
42.4306629533727
 30
0.0
 10
7.236776837811846
 20
42.423074559522
 30
0.0
  0
SPLINE
  5
4B5
330
1F
100
AcDbEntity
  8
Default
100
AcDbSpline
210
0.0
220
0.0
230
1.0
 70
     8
 71
     3
 72
     9
 73
     5
 74
     0
 42
0.0000000001
 43
0.0000000001
 40
0.0
 40
0.0
 40
0.0
 40
0.0
 40
1.0
 40
2.0
 40
2.0
 40
2.0
 40
2.0
 10
7.236776837811846
 20
42.423074559522
 30
0.0
 10
6.034350607213923
 20
42.30570565645613
 30
0.0
 10
3.624737722233476
 20
42.11547922977105
 30
0.0
 10
1.208150750990285
 20
42.05668320244679
 30
0.0
 10
0.0000000059136198
 20
42.05715735406829
 30
0.0
  0
SPLINE
  5
4B6
330
1F
100
AcDbEntity
  8
Default
100
AcDbSpline
210
0.0
220
0.0
230
1.0
 70
     8
 71
     3
 72
     9
 73
     5
 74
     0
 42
0.0000000001
 43
0.0000000001
 40
-2.0
 40
-2.0
 40
-2.0
 40
-2.0
 40
-1.0
 40
0.0
 40
0.0
 40
0.0
 40
0.0
 10
0.0000000059136198
 20
42.05715735406829
 30
0.0
 10
-1.208150739163045
 20
42.05668320244679
 30
0.0
 10
-3.624737710406237
 20
42.11547922977105
 30
0.0
 10
-6.034350595386684
 20
42.30570565645613
 30
0.0
 10
-7.236776825984606
 20
42.423074559522
 30
0.0
  0
SPLINE
  5
4B7
330
1F
100
AcDbEntity
  8
Default
100
AcDbSpline
210
0.0
220
0.0
230
1.0
 70
     8
 71
     3
 72
     9
 73
     5
 74
     0
 42
0.0000000001
 43
0.0000000001
 40
-2.0
 40
-2.0
 40
-2.0
 40
-2.0
 40
-1.0
 40
0.0
 40
0.0
 40
0.0
 40
0.0
 10
-7.236776825984606
 20
42.423074559522
 30
0.0
 10
-7.314518745486737
 20
42.4306629533727
 30
0.0
 10
-7.484264301952038
 20
42.38335285528505
 30
0.0
 10
-7.571605690070925
 20
42.1907177736778
 30
0.0
 10
-7.581441644046521
 20
42.11345572782066
 30
0.0
  0
SPLINE
  5
4B8
330
1F
100
AcDbEntity
  8
Default
100
AcDbSpline
210
0.0
220
0.0
230
1.0
 70
    12
 71
     2
 72
     6
 73
     3
 74
     0
 42
0.0000000001
 43
0.0000000001
 40
-0.3221193712202933
 40
-0.3221193712202933
 40
-0.3221193712202933
 40
0.0
 40
0.0
 40
0.0
 10
-7.581441644046521
 20
42.11345572782066
 30
0.0
 41
1.0
 10
-7.601781449303888
 20
41.95368526016517
 30
0.0
 41
0.9999974648356978
 10
-7.622840568814183
 20
41.7940080122611
 30
0.0
 41
1.0
  0
SPLINE
  5
4B9
330
1F
100
AcDbEntity
  8
Default
100
AcDbSpline
210
0.0
220
0.0
230
1.0
 70
    12
 71
     2
 72
     6
 73
     3
 74
     0
 42
0.0000000001
 43
0.0000000001
 40
-6.481588670327722
 40
-6.481588670327722
 40
-6.481588670327722
 40
0.0
 40
0.0
 40
0.0
 10
-7.622840568814183
 20
41.7940080122611
 30
0.0
 41
1.0
 10
-8.045640845417225
 20
38.58091120191757
 30
0.0
 41
0.9999997669392705
 10
-8.472828087436767
 20
35.36839470440498
 30
0.0
 41
1.0
  0
SPLINE
  5
4BA
330
1F
100
AcDbEntity
  8
Default
100
AcDbSpline
210
0.0
220
0.0
230
1.0
 70
     8
 71
     3
 72
    18
 73
    14
 74
     0
 42
0.0000000001
 43
0.0000000001
 40
-7.107196983414992
 40
-7.107196983414992
 40
-7.107196983414992
 40
-7.107196983414992
 40
-4.690458462965164
 40
-4.21509045905279
 40
-3.064069455414916
 40
-1.917925925034485
 40
-1.165086677208357
 40
-0.6761604746707232
 40
-0.4920801357797896
 40
-0.3809533486540008
 40
-0.2905961816495549
 40
-0.2333027194675158
 40
0.0
 40
0.0
 40
0.0
 40
0.0
 10
-8.472828087436767
 20
35.36839470440498
 30
0.0
 10
-8.578338734482315
 20
34.56974562491057
 30
0.0
 10
-8.704983517776355
 20
33.61408884972563
 30
0.0
 10
-8.88137991671013
 20
32.27794332075027
 30
0.0
 10
-8.996916868213901
 20
31.36106330381808
 30
0.0
 10
-9.110124537965078
 20
30.35055071761963
 30
0.0
 10
-9.173728655993358
 20
29.55715540545349
 30
0.0
 10
-9.184581254376354
 20
29.08134139128074
 30
0.0
 10
-9.16184465139105
 20
28.82099652985904
 30
0.0
 10
-9.135304531206373
 20
28.69388174608906
 30
0.0
 10
-9.080593239572153
 20
28.62234137840854
 30
0.0
 10
-8.953614455715353
 20
28.59182496280332
 30
0.0
 10
-8.865435088811978
 20
28.55706729190125
 30
0.0
 10
-8.789646085583144
 20
28.5361913826269
 30
0.0
  0
ENDSEC
  0
SECTION
  2
OBJECTS
  0
DICTIONARY
  5
C
330
0
100
AcDbDictionary
281
     1
  3
ACAD_GROUP
350
D
  3
ACAD_LAYOUT
350
1A
  3
ACAD_MLEADERSTYLE
350
4BC
  3
ACAD_MLINESTYLE
350
17
  3
ACAD_PLOTSETTINGS
350
19
  3
ACAD_PLOTSTYLENAME
350
E
  3
ACAD_TABLESTYLE
350
4BB
  3
ACAD_VISUALSTYLE
350
2A
  0
DICTIONARY
  5
D
102
{ACAD_REACTORS
330
C
102
}
330
C
100
AcDbDictionary
281
     1
  0
DICTIONARY
  5
1A
102
{ACAD_REACTORS
330
C
102
}
330
C
100
AcDbDictionary
281
     1
  3
Layout1
350
1E
  3
Layout2
350
26
  3
Model
350
22
  0
DICTIONARY
  5
4BC
102
{ACAD_REACTORS
330
C
102
}
330
C
100
AcDbDictionary
281
     1
  0
DICTIONARY
  5
17
102
{ACAD_REACTORS
330
C
102
}
330
C
100
AcDbDictionary
281
     1
  3
Standard
350
18
  0
DICTIONARY
  5
19
102
{ACAD_REACTORS
330
C
102
}
330
C
100
AcDbDictionary
281
     1
  0
ACDBDICTIONARYWDFLT
  5
E
102
{ACAD_REACTORS
330
C
102
}
330
C
100
AcDbDictionary
281
     1
  3
Normal
350
F
100
AcDbDictionaryWithDefault
340
F
  0
DICTIONARY
  5
4BB
102
{ACAD_REACTORS
330
C
102
}
330
C
100
AcDbDictionary
281
     1
  0
DICTIONARY
  5
2A
102
{ACAD_REACTORS
330
C
102
}
330
C
100
AcDbDictionary
281
     1
  3
2dWireframe
350
2F
  3
3D Hidden
350
31
  3
3dWireframe
350
30
  3
Basic
350
32
  3
Brighten
350
36
  3
ColorChange
350
3A
  3
Conceptual
350
34
  3
Dim
350
35
  3
Facepattern
350
39
  3
Flat
350
2B
  3
FlatWithEdges
350
2C
  3
Gouraud
350
2D
  3
GouraudWithEdges
350
2E
  3
Linepattern
350
38
  3
Realistic
350
33
  3
Thicken
350
37
  0
LAYOUT
  5
1E
102
{ACAD_REACTORS
330
1A
102
}
330
1A
100
AcDbPlotSettings
  1

  2
none_device
  4

  6

 40
0.0
 41
0.0
 42
0.0
 43
0.0
 44
0.0
 45
0.0
 46
0.0
 47
0.0
 48
0.0
 49
0.0
140
0.0
141
0.0
142
1.0
143
1.0
 70
   688
 72
     0
 73
     0
 74
     5
  7

 75
    16
 76
     0
 77
     2
 78
   300
147
1.0
148
0.0
149
0.0
100
AcDbLayout
  1
Layout1
 70
     1
 71
     1
 10
0.0
 20
0.0
 11
12.0
 21
9.0
 12
0.0
 22
0.0
 32
0.0
 14
1.000000000000000E+20
 24
1.000000000000000E+20
 34
1.000000000000000E+20
 15
-1.000000000000000E+20
 25
-1.000000000000000E+20
 35
-1.000000000000000E+20
146
0.0
 13
0.0
 23
0.0
 33
0.0
 16
1.0
 26
0.0
 36
0.0
 17
0.0
 27
1.0
 37
0.0
 76
     0
330
1B
  0
LAYOUT
  5
26
102
{ACAD_REACTORS
330
1A
102
}
330
1A
100
AcDbPlotSettings
  1

  2
none_device
  4

  6

 40
0.0
 41
0.0
 42
0.0
 43
0.0
 44
0.0
 45
0.0
 46
0.0
 47
0.0
 48
0.0
 49
0.0
140
0.0
141
0.0
142
1.0
143
1.0
 70
   688
 72
     0
 73
     0
 74
     5
  7

 75
    16
 76
     0
 77
     2
 78
   300
147
1.0
148
0.0
149
0.0
100
AcDbLayout
  1
Layout2
 70
     1
 71
     2
 10
0.0
 20
0.0
 11
0.0
 21
0.0
 12
0.0
 22
0.0
 32
0.0
 14
0.0
 24
0.0
 34
0.0
 15
0.0
 25
0.0
 35
0.0
146
0.0
 13
0.0
 23
0.0
 33
0.0
 16
1.0
 26
0.0
 36
0.0
 17
0.0
 27
1.0
 37
0.0
 76
     0
330
23
  0
LAYOUT
  5
22
102
{ACAD_REACTORS
330
1A
102
}
330
1A
100
AcDbPlotSettings
  1

  2
none_device
  4

  6

 40
0.0
 41
0.0
 42
0.0
 43
0.0
 44
0.0
 45
0.0
 46
0.0
 47
0.0
 48
0.0
 49
0.0
140
0.0
141
0.0
142
1.0
143
1.0
 70
  1712
 72
     0
 73
     0
 74
     0
  7

 75
     0
 76
     0
 77
     2
 78
   300
147
1.0
148
0.0
149
0.0
100
AcDbLayout
  1
Model
 70
     1
 71
     0
 10
0.0
 20
0.0
 11
12.0
 21
9.0
 12
0.0
 22
0.0
 32
0.0
 14
-10.8950000204545
 24
-0.0000000000000007
 34
0.0
 15
41.701481243149
 25
72.19055666061932
 35
0.0
146
0.0
 13
0.0
 23
0.0
 33
0.0
 16
1.0
 26
0.0
 36
0.0
 17
0.0
 27
1.0
 37
0.0
 76
     0
330
1F
331
29
  0
MLINESTYLE
  5
18
102
{ACAD_REACTORS
330
17
102
}
330
17
100
AcDbMlineStyle
  2
Standard
 70
     0
  3

 62
   256
 51
90.0
 52
90.0
 71
     2
 49
0.5
 62
   256
  6
BYLAYER
 49
-0.5
 62
   256
  6
BYLAYER
  0
ACDBPLACEHOLDER
  5
F
102
{ACAD_REACTORS
330
E
102
}
330
E
  0
VISUALSTYLE
  5
2F
102
{ACAD_REACTORS
330
2A
102
}
330
2A
100
AcDbVisualStyle
  2
2dWireframe
 70
     4
 71
     0
 72
     2
 73
     0
 90
        0
 40
-0.6
 41
-30.0
 62
     5
 63
     7
421
 16777215
 74
     1
 91
        4
 64
     7
 65
   257
 75
     1
175
     1
 42
1.0
 92
        0
 66
   257
 43
1.0
 76
     1
 77
     6
 78
     2
 67
     7
 79
     5
170
     0
171
     0
290
     0
174
     0
 93
        1
 44
0.0
173
     0
291
     0
 45
0.0
1001
ACAD
1000
AcDbSavedByObjectVersion
1070
     0
  0
VISUALSTYLE
  5
31
102
{ACAD_REACTORS
330
2A
102
}
330
2A
100
AcDbVisualStyle
  2
3D Hidden
 70
     6
 71
     1
 72
     2
 73
     2
 90
        0
 40
-0.6
 41
-30.0
 62
     5
 63
     7
421
 16777215
 74
     2
 91
        2
 64
     7
 65
   257
 75
     2
175
     1
 42
40.0
 92
        0
 66
   257
 43
1.0
 76
     1
 77
     6
 78
     2
 67
     7
 79
     3
170
     0
171
     0
290
     0
174
     0
 93
        1
 44
0.0
173
     0
291
     0
 45
0.0
1001
ACAD
1000
AcDbSavedByObjectVersion
1070
     0
  0
VISUALSTYLE
  5
30
102
{ACAD_REACTORS
330
2A
102
}
330
2A
100
AcDbVisualStyle
  2
3dWireframe
 70
     5
 71
     0
 72
     2
 73
     0
 90
        0
 40
-0.6
 41
-30.0
 62
     5
 63
     7
421
 16777215
 74
     1
 91
        4
 64
     7
 65
   257
 75
     1
175
     1
 42
1.0
 92
        0
 66
   257
 43
1.0
 76
     1
 77
     6
 78
     2
 67
     7
 79
     5
170
     0
171
     0
290
     0
174
     0
 93
        1
 44
0.0
173
     0
291
     0
 45
0.0
1001
ACAD
1000
AcDbSavedByObjectVersion
1070
     0
  0
VISUALSTYLE
  5
32
102
{ACAD_REACTORS
330
2A
102
}
330
2A
100
AcDbVisualStyle
  2
Basic
 70
     7
 71
     1
 72
     0
 73
     1
 90
        0
 40
-0.6
 41
-30.0
 62
     5
 63
     7
421
 16777215
 74
     0
 91
        4
 64
     7
 65
   257
 75
     1
175
     1
 42
1.0
 92
        8
 66
     7
 43
1.0
 76
     1
 77
     6
 78
     2
 67
     7
 79
     5
170
     0
171
     0
290
     0
174
     0
 93
        1
 44
0.0
173
     0
291
     1
 45
0.0
1001
ACAD
1000
AcDbSavedByObjectVersion
1070
     0
  0
VISUALSTYLE
  5
36
102
{ACAD_REACTORS
330
2A
102
}
330
2A
100
AcDbVisualStyle
  2
Brighten
 70
    12
 71
     2
 72
     2
 73
     0
 90
        0
 40
-0.6
 41
-30.0
 62
     5
 63
     7
421
 16777215
 74
     1
 91
        4
 64
     7
 65
   257
 75
     1
175
     1
 42
1.0
 92
        8
 66
     7
 43
1.0
 76
     1
 77
     6
 78
     2
 67
     7
 79
     5
170
     0
171
     0
290
     0
174
     0
 93
        1
 44
50.0
173
     0
291
     1
 45
0.0
1001
ACAD
1000
AcDbSavedByObjectVersion
1070
     0
  0
VISUALSTYLE
  5
3A
102
{ACAD_REACTORS
330
2A
102
}
330
2A
100
AcDbVisualStyle
  2
ColorChange
 70
    16
 71
     2
 72
     2
 73
     3
 90
        0
 40
-0.6
 41
-30.0
 62
     5
 63
     8
421
  8421504
 74
     1
 91
        4
 64
     7
 65
   257
 75
     1
175
     1
 42
1.0
 92
        8
 66
     8
424
  8421504
 43
1.0
 76
     1
 77
     6
 78
     2
 67
     7
 79
     5
170
     0
171
     0
290
     0
174
     0
 93
        1
 44
0.0
173
     0
291
     1
 45
0.0
1001
ACAD
1000
AcDbSavedByObjectVersion
1070
     0
  0
VISUALSTYLE
  5
34
102
{ACAD_REACTORS
330
2A
102
}
330
2A
100
AcDbVisualStyle
  2
Conceptual
 70
     9
 71
     3
 72
     2
 73
     0
 90
        0
 40
-0.6
 41
-30.0
 62
     5
 63
     7
421
 16777215
 74
     2
 91
        2
 64
     7
 65
   257
 75
     1
175
     1
 42
40.0
 92
        8
 66
     7
 43
1.0
 76
     1
 77
     6
 78
     2
 67
     7
 79
     3
170
     0
171
     0
290
     0
174
     0
 93
        1
 44
0.0
173
     0
291
     0
 45
0.0
1001
ACAD
1000
AcDbSavedByObjectVersion
1070
     0
  0
VISUALSTYLE
  5
35
102
{ACAD_REACTORS
330
2A
102
}
330
2A
100
AcDbVisualStyle
  2
Dim
 70
    11
 71
     2
 72
     2
 73
     0
 90
        0
 40
-0.6
 41
-30.0
 62
     5
 63
     7
421
 16777215
 74
     1
 91
        4
 64
     7
 65
   257
 75
     1
175
     1
 42
1.0
 92
        8
 66
     7
 43
1.0
 76
     1
 77
     6
 78
     2
 67
     7
 79
     5
170
     0
171
     0
290
     0
174
     0
 93
        1
 44
-50.0
173
     0
291
     1
 45
0.0
1001
ACAD
1000
AcDbSavedByObjectVersion
1070
     0
  0
VISUALSTYLE
  5
39
102
{ACAD_REACTORS
330
2A
102
}
330
2A
100
AcDbVisualStyle
  2
Facepattern
 70
    15
 71
     2
 72
     2
 73
     0
 90
        0
 40
-0.6
 41
-30.0
 62
     5
 63
     7
421
 16777215
 74
     1
 91
        4
 64
     7
 65
   257
 75
     1
175
     1
 42
1.0
 92
        8
 66
     7
 43
1.0
 76
     1
 77
     6
 78
     2
 67
     7
 79
     5
170
     0
171
     0
290
     0
174
     0
 93
        1
 44
0.0
173
     0
291
     1
 45
0.0
1001
ACAD
1000
AcDbSavedByObjectVersion
1070
     0
  0
VISUALSTYLE
  5
2B
102
{ACAD_REACTORS
330
2A
102
}
330
2A
100
AcDbVisualStyle
  2
Flat
 70
     0
 71
     2
 72
     1
 73
     1
 90
        2
 40
-0.6
 41
30.0
 62
     5
 63
     7
421
 16777215
 74
     0
 91
        4
 64
     7
 65
   257
 75
     1
175
     1
 42
1.0
 92
        8
 66
     7
 43
1.0
 76
     1
 77
     6
 78
     2
 67
     7
 79
     5
170
     0
171
     0
290
     0
174
     0
 93
       13
 44
0.0
173
     0
291
     1
 45
0.0
1001
ACAD
1000
AcDbSavedByObjectVersion
1070
     0
  0
VISUALSTYLE
  5
2C
102
{ACAD_REACTORS
330
2A
102
}
330
2A
100
AcDbVisualStyle
  2
FlatWithEdges
 70
     1
 71
     2
 72
     1
 73
     1
 90
        2
 40
-0.6
 41
30.0
 62
     5
 63
     7
421
 16777215
 74
     1
 91
        4
 64
     7
 65
   257
 75
     1
175
     1
 42
1.0
 92
        0
 66
   257
 43
1.0
 76
     1
 77
     6
 78
     2
 67
     7
 79
     5
170
     0
171
     0
290
     0
174
     0
 93
       13
 44
0.0
173
     0
291
     1
 45
0.0
1001
ACAD
1000
AcDbSavedByObjectVersion
1070
     0
  0
VISUALSTYLE
  5
2D
102
{ACAD_REACTORS
330
2A
102
}
330
2A
100
AcDbVisualStyle
  2
Gouraud
 70
     2
 71
     2
 72
     2
 73
     1
 90
        2
 40
-0.6
 41
30.0
 62
     5
 63
     7
421
 16777215
 74
     0
 91
        4
 64
     7
 65
   257
 75
     1
175
     1
 42
1.0
 92
        0
 66
     7
 43
1.0
 76
     1
 77
     6
 78
     2
 67
     7
 79
     5
170
     0
171
     0
290
     0
174
     0
 93
       13
 44
0.0
173
     0
291
     1
 45
0.0
1001
ACAD
1000
AcDbSavedByObjectVersion
1070
     0
  0
VISUALSTYLE
  5
2E
102
{ACAD_REACTORS
330
2A
102
}
330
2A
100
AcDbVisualStyle
  2
GouraudWithEdges
 70
     3
 71
     2
 72
     2
 73
     1
 90
        2
 40
-0.6
 41
30.0
 62
     5
 63
     7
421
 16777215
 74
     1
 91
        4
 64
     7
 65
   257
 75
     1
175
     1
 42
1.0
 92
        0
 66
   257
 43
1.0
 76
     1
 77
     6
 78
     2
 67
     7
 79
     5
170
     0
171
     0
290
     0
174
     0
 93
       13
 44
0.0
173
     0
291
     1
 45
0.0
1001
ACAD
1000
AcDbSavedByObjectVersion
1070
     0
  0
VISUALSTYLE
  5
38
102
{ACAD_REACTORS
330
2A
102
}
330
2A
100
AcDbVisualStyle
  2
Linepattern
 70
    14
 71
     2
 72
     2
 73
     0
 90
        0
 40
-0.6
 41
-30.0
 62
     5
 63
     7
421
 16777215
 74
     1
 91
        4
 64
     7
 65
   257
 75
     7
175
     7
 42
1.0
 92
        8
 66
     7
 43
1.0
 76
     1
 77
     6
 78
     2
 67
     7
 79
     5
170
     0
171
     0
290
     0
174
     0
 93
        1
 44
0.0
173
     0
291
     1
 45
0.0
1001
ACAD
1000
AcDbSavedByObjectVersion
1070
     0
  0
VISUALSTYLE
  5
33
102
{ACAD_REACTORS
330
2A
102
}
330
2A
100
AcDbVisualStyle
  2
Realistic
 70
     8
 71
     2
 72
     2
 73
     0
 90
        0
 40
-0.6
 41
-30.0
 62
     5
 63
     7
421
 16777215
 74
     1
 91
        0
 64
     7
 65
   257
 75
     1
175
     1
 42
1.0
 92
        8
 66
     8
424
  7895160
 43
1.0
 76
     1
 77
     6
 78
     2
 67
     7
 79
     5
170
     0
171
     0
290
     0
174
     0
 93
       13
 44
0.0
173
     0
291
     0
 45
0.0
1001
ACAD
1000
AcDbSavedByObjectVersion
1070
     0
  0
VISUALSTYLE
  5
37
102
{ACAD_REACTORS
330
2A
102
}
330
2A
100
AcDbVisualStyle
  2
Thicken
 70
    13
 71
     2
 72
     2
 73
     0
 90
        0
 40
-0.6
 41
-30.0
 62
     5
 63
     7
421
 16777215
 74
     1
 91
        4
 64
     7
 65
   257
 75
     1
175
     1
 42
1.0
 92
       12
 66
     7
 43
1.0
 76
     1
 77
     6
 78
     2
 67
     7
 79
     5
170
     0
171
     0
290
     0
174
     0
 93
        1
 44
0.0
173
     0
291
     1
 45
0.0
1001
ACAD
1000
AcDbSavedByObjectVersion
1070
     0
  0
ENDSEC
  0
EOF
