  0
SECTION
  2
HEADER
  9
$ACADVER
  1
AC1015
  9
$ACADMAINTVER
 70
     6
  9
$DWGCODEPAGE
  3
ANSI_1252
  9
$INSBASE
 10
0.0
 20
0.0
 30
0.0
  9
$EXTMIN
 10
-13.80431759671538
 20
-0.0000245005296984
 30
0.0
  9
$EXTMAX
 10
53.65777608149783
 20
78.20422565185712
 30
0.0
  9
$LIMMIN
 10
0.0
 20
0.0
  9
$LIMMAX
 10
12.0
 20
9.0
  9
$ORTHOMODE
 70
     0
  9
$REGENMODE
 70
     1
  9
$FILLMODE
 70
     1
  9
$QTEXTMODE
 70
     0
  9
$MIRRTEXT
 70
     1
  9
$LTSCALE
 40
0.0393700787401575
  9
$ATTMODE
 70
     1
  9
$TEXTSIZE
 40
0.2
  9
$TRACEWID
 40
0.05
  9
$TEXTSTYLE
  7
Standard
  9
$CLAYER
  8
DEFAULT
  9
$CELTYPE
  6
ByLayer
  9
$CECOLOR
 62
   256
  9
$CELTSCALE
 40
1.0
  9
$DISPSILH
 70
     0
  9
$DIMSCALE
 40
1.0
  9
$DIMASZ
 40
0.18
  9
$DIMEXO
 40
0.0625
  9
$DIMDLI
 40
0.38
  9
$DIMRND
 40
0.0
  9
$DIMDLE
 40
0.0
  9
$DIMEXE
 40
0.18
  9
$DIMTP
 40
0.0
  9
$DIMTM
 40
0.0
  9
$DIMTXT
 40
0.18
  9
$DIMCEN
 40
0.09
  9
$DIMTSZ
 40
0.0
  9
$DIMTOL
 70
     0
  9
$DIMLIM
 70
     0
  9
$DIMTIH
 70
     1
  9
$DIMTOH
 70
     1
  9
$DIMSE1
 70
     0
  9
$DIMSE2
 70
     0
  9
$DIMTAD
 70
     0
  9
$DIMZIN
 70
     0
  9
$DIMBLK
  1

  9
$DIMASO
 70
     1
  9
$DIMSHO
 70
     1
  9
$DIMPOST
  1

  9
$DIMAPOST
  1

  9
$DIMALT
 70
     0
  9
$DIMALTD
 70
     2
  9
$DIMALTF
 40
25.4
  9
$DIMLFAC
 40
1.0
  9
$DIMTOFL
 70
     0
  9
$DIMTVP
 40
0.0
  9
$DIMTIX
 70
     0
  9
$DIMSOXD
 70
     0
  9
$DIMSAH
 70
     0
  9
$DIMBLK1
  1

  9
$DIMBLK2
  1

  9
$DIMSTYLE
  2
Standard
  9
$DIMCLRD
 70
     0
  9
$DIMCLRE
 70
     0
  9
$DIMCLRT
 70
     0
  9
$DIMTFAC
 40
1.0
  9
$DIMGAP
 40
0.09
  9
$DIMJUST
 70
     0
  9
$DIMSD1
 70
     0
  9
$DIMSD2
 70
     0
  9
$DIMTOLJ
 70
     1
  9
$DIMTZIN
 70
     0
  9
$DIMALTZ
 70
     0
  9
$DIMALTTZ
 70
     0
  9
$DIMUPT
 70
     0
  9
$DIMDEC
 70
     4
  9
$DIMTDEC
 70
     4
  9
$DIMALTU
 70
     2
  9
$DIMALTTD
 70
     2
  9
$DIMTXSTY
  7
Standard
  9
$DIMAUNIT
 70
     0
  9
$DIMADEC
 70
     0
  9
$DIMALTRND
 40
0.0
  9
$DIMAZIN
 70
     0
  9
$DIMDSEP
 70
    46
  9
$DIMATFIT
 70
     3
  9
$DIMFRAC
 70
     0
  9
$DIMLDRBLK
  1

  9
$DIMLUNIT
 70
     2
  9
$DIMLWD
 70
    -2
  9
$DIMLWE
 70
    -2
  9
$DIMTMOVE
 70
     2
  9
$LUNITS
 70
     2
  9
$LUPREC
 70
     3
  9
$SKETCHINC
 40
0.1
  9
$FILLETRAD
 40
0.5
  9
$AUNITS
 70
     0
  9
$AUPREC
 70
     0
  9
$MENU
  1
.
  9
$ELEVATION
 40
0.0
  9
$PELEVATION
 40
0.0
  9
$THICKNESS
 40
0.0
  9
$LIMCHECK
 70
     0
  9
$CHAMFERA
 40
0.5
  9
$CHAMFERB
 40
0.5
  9
$CHAMFERC
 40
1.0
  9
$CHAMFERD
 40
0.0
  9
$SKPOLY
 70
     0
  9
$TDCREATE
 40
2455575.48337941
  9
$TDUCREATE
 40
2455575.691712743
  9
$TDUPDATE
 40
2455575.483379421
  9
$TDUUPDATE
 40
2455575.691712755
  9
$TDINDWG
 40
0.0000000116
  9
$TDUSRTIMER
 40
0.0000000116
  9
$USRTIMER
 70
     1
  9
$ANGBASE
 50
0.0
  9
$ANGDIR
 70
     0
  9
$PDMODE
 70
     0
  9
$PDSIZE
 40
0.0
  9
$PLINEWID
 40
0.0
  9
$SPLFRAME
 70
     0
  9
$SPLINETYPE
 70
     6
  9
$SPLINESEGS
 70
     8
  9
$HANDSEED
  5
D8
  9
$SURFTAB1
 70
     6
  9
$SURFTAB2
 70
     6
  9
$SURFTYPE
 70
     6
  9
$SURFU
 70
     6
  9
$SURFV
 70
     6
  9
$UCSBASE
  2

  9
$UCSNAME
  2

  9
$UCSORG
 10
0.0
 20
0.0
 30
0.0
  9
$UCSXDIR
 10
1.0
 20
0.0
 30
0.0
  9
$UCSYDIR
 10
0.0
 20
1.0
 30
0.0
  9
$UCSORTHOREF
  2

  9
$UCSORTHOVIEW
 70
     0
  9
$UCSORGTOP
 10
0.0
 20
0.0
 30
0.0
  9
$UCSORGBOTTOM
 10
0.0
 20
0.0
 30
0.0
  9
$UCSORGLEFT
 10
0.0
 20
0.0
 30
0.0
  9
$UCSORGRIGHT
 10
0.0
 20
0.0
 30
0.0
  9
$UCSORGFRONT
 10
0.0
 20
0.0
 30
0.0
  9
$UCSORGBACK
 10
0.0
 20
0.0
 30
0.0
  9
$PUCSBASE
  2

  9
$PUCSNAME
  2

  9
$PUCSORG
 10
0.0
 20
0.0
 30
0.0
  9
$PUCSXDIR
 10
1.0
 20
0.0
 30
0.0
  9
$PUCSYDIR
 10
0.0
 20
1.0
 30
0.0
  9
$PUCSORTHOREF
  2

  9
$PUCSORTHOVIEW
 70
     0
  9
$PUCSORGTOP
 10
0.0
 20
0.0
 30
0.0
  9
$PUCSORGBOTTOM
 10
0.0
 20
0.0
 30
0.0
  9
$PUCSORGLEFT
 10
0.0
 20
0.0
 30
0.0
  9
$PUCSORGRIGHT
 10
0.0
 20
0.0
 30
0.0
  9
$PUCSORGFRONT
 10
0.0
 20
0.0
 30
0.0
  9
$PUCSORGBACK
 10
0.0
 20
0.0
 30
0.0
  9
$USERI1
 70
     0
  9
$USERI2
 70
     0
  9
$USERI3
 70
     0
  9
$USERI4
 70
     0
  9
$USERI5
 70
     0
  9
$USERR1
 40
0.0
  9
$USERR2
 40
0.0
  9
$USERR3
 40
0.0
  9
$USERR4
 40
0.0
  9
$USERR5
 40
0.0
  9
$WORLDVIEW
 70
     1
  9
$SHADEDGE
 70
     3
  9
$SHADEDIF
 70
    70
  9
$TILEMODE
 70
     1
  9
$MAXACTVP
 70
    64
  9
$PINSBASE
 10
0.0
 20
0.0
 30
0.0
  9
$PLIMCHECK
 70
     0
  9
$PEXTMIN
 10
1.000000000000000E+20
 20
1.000000000000000E+20
 30
1.000000000000000E+20
  9
$PEXTMAX
 10
-1.000000000000000E+20
 20
-1.000000000000000E+20
 30
-1.000000000000000E+20
  9
$PLIMMIN
 10
0.0
 20
0.0
  9
$PLIMMAX
 10
12.0
 20
9.0
  9
$UNITMODE
 70
     0
  9
$VISRETAIN
 70
     1
  9
$PLINEGEN
 70
     0
  9
$PSLTSCALE
 70
     1
  9
$TREEDEPTH
 70
  3020
  9
$CMLSTYLE
  2
Standard
  9
$CMLJUST
 70
     0
  9
$CMLSCALE
 40
1.0
  9
$PROXYGRAPHICS
 70
     1
  9
$MEASUREMENT
 70
     0
  9
$CELWEIGHT
370
    -1
  9
$ENDCAPS
280
     0
  9
$JOINSTYLE
280
     0
  9
$LWDISPLAY
290
     0
  9
$INSUNITS
 70
     1
  9
$HYPERLINKBASE
  1

  9
$STYLESHEET
  1

  9
$XEDIT
290
     1
  9
$CEPSNTYPE
380
     0
  9
$PSTYLEMODE
290
     1
  9
$FINGERPRINTGUID
  2
{5FDCCF74-0029-4439-9EE9-C372AA763E1C}
  9
$VERSIONGUID
  2
{FAEB1C32-E019-11D5-929B-00C0DF256EC4}
  9
$EXTNAMES
290
     1
  9
$PSVPSCALE
 40
0.0
  9
$OLESTARTUP
290
     0
  0
ENDSEC
  0
SECTION
  2
CLASSES
  0
CLASS
  1
ACDBDICTIONARYWDFLT
  2
AcDbDictionaryWithDefault
  3
ObjectDBX Classes
 90
        0
280
     0
281
     0
  0
CLASS
  1
VISUALSTYLE
  2
AcDbVisualStyle
  3
ObjectDBX Classes
 90
     4095
280
     0
281
     0
  0
CLASS
  1
ACDBPLACEHOLDER
  2
AcDbPlaceHolder
  3
ObjectDBX Classes
 90
        0
280
     0
281
     0
  0
CLASS
  1
LAYOUT
  2
AcDbLayout
  3
ObjectDBX Classes
 90
        0
280
     0
281
     0
  0
ENDSEC
  0
SECTION
  2
TABLES
  0
TABLE
  2
VPORT
  5
8
330
0
100
AcDbSymbolTable
 70
     1
  0
VPORT
  5
29
330
8
100
AcDbSymbolTableRecord
100
AcDbViewportTableRecord
  2
*Active
 70
     0
 10
0.0
 20
0.0
 11
1.0
 21
1.0
 12
19.92672924239123
 22
39.10210057566371
 13
0.0
 23
0.0
 14
0.5
 24
0.5
 15
0.5
 25
0.5
 16
0.0
 26
0.0
 36
1.0
 17
0.0
 27
0.0
 37
0.0
 40
79.76833515543456
 41
0.862639735650662
 42
50.0
 43
0.0
 44
0.0
 50
0.0
 51
0.0
 71
     0
 72
   100
 73
     1
 74
     3
 75
     0
 76
     0
 77
     0
 78
     0
281
     0
 65
     1
110
0.0
120
0.0
130
0.0
111
1.0
121
0.0
131
0.0
112
0.0
122
1.0
132
0.0
 79
     0
146
0.0
  0
ENDTAB
  0
TABLE
  2
LTYPE
  5
5
330
0
100
AcDbSymbolTable
 70
     1
  0
LTYPE
  5
14
330
5
100
AcDbSymbolTableRecord
100
AcDbLinetypeTableRecord
  2
ByBlock
 70
     0
  3

 72
    65
 73
     0
 40
0.0
  0
LTYPE
  5
15
330
5
100
AcDbSymbolTableRecord
100
AcDbLinetypeTableRecord
  2
ByLayer
 70
     0
  3

 72
    65
 73
     0
 40
0.0
  0
LTYPE
  5
16
330
5
100
AcDbSymbolTableRecord
100
AcDbLinetypeTableRecord
  2
Continuous
 70
     0
  3
Solid line
 72
    65
 73
     0
 40
0.0
  0
ENDTAB
  0
TABLE
  2
LAYER
  5
2
330
0
100
AcDbSymbolTable
 70
     2
  0
LAYER
  5
10
330
2
100
AcDbSymbolTableRecord
100
AcDbLayerTableRecord
  2
0
 70
     0
 62
     7
  6
Continuous
370
    -3
390
F
  0
LAYER
  5
3B
330
2
100
AcDbSymbolTableRecord
100
AcDbLayerTableRecord
  2
DEFAULT
 70
     0
 62
     7
  6
Continuous
370
    -3
390
F
  0
ENDTAB
  0
TABLE
  2
STYLE
  5
3
330
0
100
AcDbSymbolTable
 70
     1
  0
STYLE
  5
11
330
3
100
AcDbSymbolTableRecord
100
AcDbTextStyleTableRecord
  2
Standard
 70
     0
 40
0.0
 41
1.0
 50
0.0
 71
     0
 42
0.2
  3
txt
  4

  0
ENDTAB
  0
TABLE
  2
VIEW
  5
6
330
0
100
AcDbSymbolTable
 70
     0
  0
ENDTAB
  0
TABLE
  2
UCS
  5
7
330
0
100
AcDbSymbolTable
 70
     0
  0
ENDTAB
  0
TABLE
  2
APPID
  5
9
330
0
100
AcDbSymbolTable
 70
     1
  0
APPID
  5
12
330
9
100
AcDbSymbolTableRecord
100
AcDbRegAppTableRecord
  2
ACAD
 70
     0
  0
ENDTAB
  0
TABLE
  2
DIMSTYLE
  5
A
330
0
100
AcDbSymbolTable
 70
     1
100
AcDbDimStyleTable
  0
DIMSTYLE
105
27
330
A
100
AcDbSymbolTableRecord
100
AcDbDimStyleTableRecord
  2
Standard
 70
     0
340
11
  0
ENDTAB
  0
TABLE
  2
BLOCK_RECORD
  5
1
330
0
100
AcDbSymbolTable
 70
     1
  0
BLOCK_RECORD
  5
1F
330
1
100
AcDbSymbolTableRecord
100
AcDbBlockTableRecord
  2
*Model_Space
340
22
  0
BLOCK_RECORD
  5
1B
330
1
100
AcDbSymbolTableRecord
100
AcDbBlockTableRecord
  2
*Paper_Space
340
1E
  0
BLOCK_RECORD
  5
23
330
1
100
AcDbSymbolTableRecord
100
AcDbBlockTableRecord
  2
*Paper_Space0
340
26
  0
ENDTAB
  0
ENDSEC
  0
SECTION
  2
BLOCKS
  0
BLOCK
  5
20
330
1F
100
AcDbEntity
  8
0
100
AcDbBlockBegin
  2
*Model_Space
 70
     0
 10
0.0
 20
0.0
 30
0.0
  3
*Model_Space
  1

  0
ENDBLK
  5
21
330
1F
100
AcDbEntity
  8
0
100
AcDbBlockEnd
  0
BLOCK
  5
1C
330
1B
100
AcDbEntity
 67
     1
  8
0
100
AcDbBlockBegin
  2
*Paper_Space
 70
     0
 10
0.0
 20
0.0
 30
0.0
  3
*Paper_Space
  1

  0
ENDBLK
  5
1D
330
1B
100
AcDbEntity
 67
     1
  8
0
100
AcDbBlockEnd
  0
BLOCK
  5
24
330
23
100
AcDbEntity
  8
0
100
AcDbBlockBegin
  2
*Paper_Space0
 70
     0
 10
0.0
 20
0.0
 30
0.0
  3
*Paper_Space0
  1

  0
ENDBLK
  5
25
330
23
100
AcDbEntity
  8
0
100
AcDbBlockEnd
  0
ENDSEC
  0
SECTION
  2
ENTITIES
  0
SPLINE
  5
3C
330
1F
100
AcDbEntity
  8
DEFAULT
100
AcDbSpline
210
0.0
220
0.0
230
1.0
 70
    12
 71
     2
 72
    12
 73
     9
 74
     0
 42
0.0000000001
 43
0.0000000001
 40
0.0
 40
0.0
 40
0.0
 40
0.595769589245478
 40
0.595769589245478
 40
0.6428949440849171
 40
0.6428949440849171
 40
0.6900202989243562
 40
0.6900202989243562
 40
0.9031676179966832
 40
0.9031676179966832
 40
0.9031676179966832
 10
-9.489577539465529
 20
73.1148548470694
 30
0.0
 41
1.0
 10
-9.489577539464857
 20
73.41273978849023
 30
0.0
 41
1.0
 10
-9.489577539464186
 20
73.71062472991105
 30
0.0
 41
1.0
 10
-9.489579284304057
 20
73.73547879842673
 30
0.0
 41
0.923869233570441
 10
-9.472005299366463
 20
73.75305335913838
 30
0.0
 41
1.0
 10
-9.45443131442887
 20
73.77062791985003
 30
0.0
 41
0.923869233570441
 10
-9.42957753946553
 20
73.77059996680228
 30
0.0
 41
1.0
 10
-9.323003879929367
 20
73.77058645556528
 30
0.0
 41
1.0
 10
-9.216430220393203
 20
73.77057294432826
 30
0.0
 41
1.0
  0
SPLINE
  5
3D
330
1F
100
AcDbEntity
  8
DEFAULT
100
AcDbSpline
210
0.0
220
0.0
230
1.0
 70
    12
 71
     2
 72
    16
 73
    13
 74
     0
 42
0.0000000001
 43
0.0000000001
 40
0.0
 40
0.0
 40
0.0
 40
0.1443345389673781
 40
0.1443345389673781
 40
2.443944714033027
 40
2.443944714033027
 40
2.648144977133396
 40
2.648144977133396
 40
3.058152851149399
 40
3.058152851149399
 40
3.151962766454945
 40
3.151962766454945
 40
4.701736884887369
 40
4.701736884887369
 40
4.701736884887369
 10
2.859840613039715
 20
75.65843397273152
 30
0.0
 41
1.0
 10
2.787496407365748
 20
75.69401763988371
 30
0.0
 41
0.8498734354997582
 10
2.787208230057569
 20
75.7746389671888
 30
0.0
 41
1.0
 10
2.787207830326571
 20
76.92444405472156
 30
0.0
 41
1.0
 10
2.787207430595572
 20
78.07424914225432
 30
0.0
 41
1.0
 10
2.787212173018577
 20
78.20424439909564
 30
0.0
 41
0.7071267479154613
 10
2.91720743040398
 20
78.20422281388434
 30
0.0
 41
0.9999999984592958
 10
3.122211367411982
 20
78.20422423287073
 30
0.0
 41
0.9999999984592958
 10
3.327215304419983
 20
78.20422565185712
 30
0.0
 41
0.9999999984592958
 10
3.386777705484115
 20
78.20425032164101
 30
0.0
 41
0.709703950210387
 10
3.387213695765354
 20
78.14468951731986
 30
0.0
 41
1.000000005789387
 10
3.387213695765354
 20
77.36980245810365
 30
0.0
 41
1.000000005789387
 10
3.387213695765354
 20
76.59491539888744
 30
0.0
 41
1.000000005789387
  0
SPLINE
  5
3E
330
1F
100
AcDbEntity
  8
DEFAULT
100
AcDbSpline
210
0.0
220
0.0
230
1.0
 70
    12
 71
     3
 72
   107
 73
   103
 74
     0
 42
0.0000000001
 43
0.0000000001
 40
0.0
 40
0.0
 40
0.0
 40
0.0
 40
0.9517700574055216
 40
1.799911552913863
 40
2.562275166284377
 40
2.966678481805937
 40
4.122743210710713
 40
4.817519360203685
 40
6.222253031362658
 40
6.970922036474835
 40
7.735532312424911
 40
8.548618781278243
 40
9.424649398489288
 40
9.424649398489288
 40
9.424649398489288
 40
9.449919607750239
 40
9.475138982809794
 40
9.526588433377341
 40
9.580413616762547
 40
9.67293307666188
 40
9.67293307666188
 40
9.67293307666188
 40
11.46496869494057
 40
11.46496869494057
 40
11.46496869494057
 40
12.0224552398462
 40
12.61619808460951
 40
13.64609650308457
 40
14.07583944452026
 40
14.46123854341465
 40
14.77781362452773
 40
15.05693969146633
 40
15.05693969146633
 40
15.05693969146633
 40
15.14624507899937
 40
15.21701875070867
 40
15.28047238892831
 40
15.3457152502289
 40
15.4834095894561
 40
15.6667138124835
 40
15.6667138124835
 40
15.6667138124835
 40
16.81516614626801
 40
16.81516614626801
 40
16.81516614626801
 40
17.47388656747291
 40
18.17361041000705
 40
18.91471190623815
 40
19.69770401574884
 40
21.38885243792653
 40
23.74403965875305
 40
23.74403965875305
 40
23.74403965875305
 40
26.09922687957957
 40
27.79037530175726
 40
28.57336741126795
 40
29.31446890749905
 40
30.01419275003319
 40
30.67291317123809
 40
30.67291317123809
 40
30.67291317123809
 40
31.8213655050226
 40
31.8213655050226
 40
31.8213655050226
 40
32.00466972805
 40
32.14236406727719
 40
32.20760692857779
 40
32.27106056679743
 40
32.34183423850673
 40
32.43113962603977
 40
32.43113962603977
 40
32.43113962603977
 40
32.71026569297837
 40
33.02684077409145
 40
33.41223987298584
 40
33.84198281442153
 40
34.87188123289658
 40
35.4656240776599
 40
36.02311062256553
 40
36.02311062256553
 40
36.02311062256553
 40
37.81514624084421
 40
37.81514624084421
 40
37.81514624084421
 40
37.90766570074355
 40
37.96149088412876
 40
38.0129403346963
 40
38.03815970975586
 40
38.06342991901681
 40
38.06342991901681
 40
38.06342991901681
 40
38.93946053622786
 40
39.75254700508119
 40
40.51715728103126
 40
41.26582628614344
 40
42.67055995730242
 40
43.36533610679538
 40
44.52140083570016
 40
44.92580415122172
 40
45.68816776459224
 40
46.53630926010058
 40
47.4880793175061
 40
47.4880793175061
 40
47.4880793175061
 40
47.4880793175061
 10
-1.277441840520309
 20
71.38756103411605
 30
0.0
 41
1.0
 10
-1.593473429372073
 20
71.36044220381675
 30
0.0
 41
1.0
 10
-2.190086390010345
 20
71.2910290958475
 30
0.0
 41
1.0
 10
-3.025213912205842
 20
71.10628845644247
 30
0.0
 41
1.0
 10
-3.663614177340831
 20
70.89569577507575
 30
0.0
 41
1.0
 10
-4.390028181151509
 20
70.62831575566341
 30
0.0
 41
1.0
 10
-5.090029920522605
 20
70.3532363939225
 30
0.0
 41
1.0
 10
-6.113984944180593
 20
69.9943221587006
 30
0.0
 41
1.0
 10
-7.032960364324462
 20
69.747550691167
 30
0.0
 41
1.0
 10
-7.997170520129646
 20
69.6108229042039
 30
0.0
 41
1.0
 10
-8.772193563622139
 20
69.57007932203786
 30
0.0
 41
1.0
 10
-9.59037578715401
 20
69.59596660635496
 30
0.0
 41
1.0
 10
-10.15085526826389
 20
69.65157131243487
 30
0.0
 41
1.0
 10
-10.44067325552257
 20
69.68912954100625
 30
0.0
 41
1.0
 10
-10.44924065844987
 20
69.69022056756593
 30
0.0
 41
1.0
 10
-10.46550519221282
 20
69.69522954297308
 30
0.0
 41
1.0
 10
-10.49425897797698
 20
69.71392808422884
 30
0.0
 41
1.0
 10
-10.51711057236356
 20
69.7535494914215
 30
0.0
 41
1.0
 10
-10.51450962331289
 20
69.82083008474703
 30
0.0
 41
1.0
 10
-10.50177108377827
 20
69.86755429780865
 30
0.0
 41
1.0
 10
-10.49458702893044
 20
69.89768886319446
 30
0.0
 41
1.0
 10
-10.34713906530958
 20
70.47661534667209
 30
0.0
 41
0.9997885169707336
 10
-10.185156874092
 20
71.05164451547664
 30
0.0
 41
0.9997885169707336
 10
-10.00874322473115
 20
71.62241154287653
 30
0.0
 41
1.0
 10
-9.953876978137632
 20
71.79992527033602
 30
0.0
 41
1.0
 10
-9.835837153459828
 20
72.16518666272643
 30
0.0
 41
1.0
 10
-9.594004084934944
 20
72.85073207248601
 30
0.0
 41
1.0
 10
-9.34771846758764
 20
73.48976801757685
 30
0.0
 41
1.0
 10
-9.089276497550305
 20
74.0481066732342
 30
0.0
 41
1.0
 10
-8.914913526150016
 20
74.38270688287793
 30
0.0
 41
1.0
 10
-8.74654665124109
 20
74.66338335585392
 30
0.0
 41
1.0
 10
-8.626956723539092
 20
74.82602303361142
 30
0.0
 41
1.0
 10
-8.568030796384814
 20
74.89802813296482
 30
0.0
 41
1.0
 10
-8.549154731843123
 20
74.92109392027385
 30
0.0
 41
1.0
 10
-8.512332009053015
 20
74.96373611768823
 30
0.0
 41
1.0
 10
-8.460215011432934
 20
75.0172418978603
 30
0.0
 41
1.0
 10
-8.4084175672144
 20
75.05896023445874
 30
0.0
 41
1.0
 10
-8.33390869084622
 20
75.1077690134438
 30
0.0
 41
1.0
 10
-8.21437177713135
 20
75.15722814706362
 30
0.0
 41
1.0
 10
-8.109956287782023
 20
75.18149427608765
 30
0.0
 41
1.0
 10
-8.050218041936965
 20
75.19424231545116
 30
0.0
 41
1.0
 10
-7.674538479920916
 20
75.26814845490904
 30
0.0
 41
0.9996722140620791
 10
-7.296726328141578
 20
75.33023894318221
 30
0.0
 41
0.9996722140620791
 10
-6.917153111130532
 20
75.38045272310386
 30
0.0
 41
1.0
 10
-6.699480817104663
 20
75.40924861327052
 30
0.0
 41
1.0
 10
-6.249847234997718
 20
75.46326264087736
 30
0.0
 41
1.0
 10
-5.552950675468834
 20
75.52790477075432
 30
0.0
 41
1.0
 10
-4.81370466506198
 20
75.5830612858205
 30
0.0
 41
1.0
 10
-3.743341851756529
 20
75.63918048169315
 30
0.0
 41
1.0
 10
-2.133879194956404
 20
75.678113422309
 30
0.0
 41
1.0
 10
-0.7850571607093231
 20
75.68005163211123
 30
0.0
 41
1.0
 10
0.0
 20
75.68026221965592
 30
0.0
 41
1.0
 10
0.7850571607093231
 20
75.68005163211123
 30
0.0
 41
1.0
 10
2.133879194956404
 20
75.678113422309
 30
0.0
 41
1.0
 10
3.743341851756529
 20
75.63918048169315
 30
0.0
 41
1.0
 10
4.81370466506198
 20
75.5830612858205
 30
0.0
 41
1.0
 10
5.552950675468834
 20
75.52790477075432
 30
0.0
 41
1.0
 10
6.249847234997718
 20
75.46326264087736
 30
0.0
 41
1.0
 10
6.699480817104663
 20
75.40924861327052
 30
0.0
 41
1.0
 10
6.917153111130532
 20
75.38045272310386
 30
0.0
 41
1.0
 10
7.296726328141578
 20
75.33023894318221
 30
0.0
 41
0.9996722140620791
 10
7.674538479920916
 20
75.26814845490904
 30
0.0
 41
0.9996722140620791
 10
8.050218041936965
 20
75.19424231545116
 30
0.0
 41
1.0
 10
8.109956287782023
 20
75.18149427608765
 30
0.0
 41
1.0
 10
8.21437177713135
 20
75.15722814706362
 30
0.0
 41
1.0
 10
8.33390869084622
 20
75.1077690134438
 30
0.0
 41
1.0
 10
8.4084175672144
 20
75.05896023445874
 30
0.0
 41
1.0
 10
8.460215011432934
 20
75.0172418978603
 30
0.0
 41
1.0
 10
8.512332009053015
 20
74.96373611768823
 30
0.0
 41
1.0
 10
8.549154731843123
 20
74.92109392027385
 30
0.0
 41
1.0
 10
8.568030796384814
 20
74.89802813296482
 30
0.0
 41
1.0
 10
8.626956723539092
 20
74.82602303361142
 30
0.0
 41
1.0
 10
8.74654665124109
 20
74.66338335585392
 30
0.0
 41
1.0
 10
8.914913526150016
 20
74.38270688287793
 30
0.0
 41
1.0
 10
9.089276497550305
 20
74.0481066732342
 30
0.0
 41
1.0
 10
9.34771846758764
 20
73.48976801757685
 30
0.0
 41
1.0
 10
9.594004084934944
 20
72.85073207248601
 30
0.0
 41
1.0
 10
9.835837153459828
 20
72.16518666272643
 30
0.0
 41
1.0
 10
9.953876978137632
 20
71.79992527033602
 30
0.0
 41
1.0
 10
10.00874322473115
 20
71.62241154287653
 30
0.0
 41
1.0
 10
10.185156874092
 20
71.05164451547664
 30
0.0
 41
0.9997885169707336
 10
10.34713906530958
 20
70.47661534667209
 30
0.0
 41
0.9997885169707336
 10
10.49458702893044
 20
69.89768886319446
 30
0.0
 41
1.0
 10
10.50177108377827
 20
69.86755429780865
 30
0.0
 41
1.0
 10
10.51450962331289
 20
69.82083008474703
 30
0.0
 41
1.0
 10
10.51711057236356
 20
69.7535494914215
 30
0.0
 41
1.0
 10
10.49425897797698
 20
69.71392808422884
 30
0.0
 41
1.0
 10
10.46550519221282
 20
69.69522954297308
 30
0.0
 41
1.0
 10
10.44924065844987
 20
69.69022056756593
 30
0.0
 41
1.0
 10
10.44067325552257
 20
69.68912954100625
 30
0.0
 41
1.0
 10
10.15085526826389
 20
69.65157131243487
 30
0.0
 41
1.0
 10
9.59037578715401
 20
69.59596660635496
 30
0.0
 41
1.0
 10
8.772193563622139
 20
69.57007932203786
 30
0.0
 41
1.0
 10
7.997170520129646
 20
69.6108229042039
 30
0.0
 41
1.0
 10
7.032960364324462
 20
69.747550691167
 30
0.0
 41
1.0
 10
6.113984944180593
 20
69.9943221587006
 30
0.0
 41
1.0
 10
5.090029920522605
 20
70.3532363939225
 30
0.0
 41
1.0
 10
4.390028181151509
 20
70.62831575566341
 30
0.0
 41
1.0
 10
3.663614177340831
 20
70.89569577507575
 30
0.0
 41
1.0
 10
3.025213912205842
 20
71.10628845644247
 30
0.0
 41
1.0
 10
2.190086390010345
 20
71.2910290958475
 30
0.0
 41
1.0
 10
1.593473429372073
 20
71.36044220381675
 30
0.0
 41
1.0
 10
1.277441840520309
 20
71.38756103411605
 30
0.0
 41
1.0
  0
SPLINE
  5
3F
330
1F
100
AcDbEntity
  8
DEFAULT
100
AcDbSpline
210
0.0
220
0.0
230
1.0
 70
    12
 71
     3
 72
    16
 73
    12
 74
     0
 42
0.0000000001
 43
0.0000000001
 40
-0.1210247449583074
 40
-0.1210247449583074
 40
-0.1210247449583074
 40
-0.1210247449583074
 40
0.0
 40
0.0
 40
0.0
 40
0.1049127767732758
 40
0.2099195019661643
 40
0.3420621298819194
 40
0.5096662857767473
 40
0.9190318219369773
 40
1.38575513825149
 40
1.38575513825149
 40
1.38575513825149
 40
1.38575513825149
 10
-10.10628784543493
 20
68.42235541478074
 30
0.0
 41
1.0
 10
-10.0905840627066
 20
68.42598956006603
 30
0.0
 41
0.9989076142761357
 10
-10.07511396857199
 20
68.4305163681467
 30
0.0
 41
0.9989076142761357
 10
-10.05992826096104
 20
68.43592100396121
 30
0.0
 41
1.0
 10
-10.02703614059031
 20
68.44762740160338
 30
0.0
 41
1.0
 10
-9.963879458664909
 20
68.47930559460856
 30
0.0
 41
1.0
 10
-9.876891693657875
 20
68.55388561878242
 30
0.0
 41
1.0
 10
-9.790906691561574
 20
68.65824290816052
 30
0.0
 41
1.0
 10
-9.661063933218774
 20
68.85612918925344
 30
0.0
 41
1.0
 10
-9.507785939075713
 20
69.16930509834155
 30
0.0
 41
1.0
 10
-9.407014547281374
 20
69.44366122261238
 30
0.0
 41
1.0
 10
-9.361820142955414
 20
69.59258461293712
 30
0.0
 41
1.0
  0
SPLINE
  5
40
330
1F
100
AcDbEntity
  8
DEFAULT
100
AcDbSpline
210
0.0
220
0.0
230
1.0
 70
    12
 71
     2
 72
    20
 73
    17
 74
     0
 42
0.0000000001
 43
0.0000000001
 40
-1.549334271570444
 40
-1.549334271570444
 40
-1.549334271570444
 40
0.0
 40
0.0
 40
0.0471253548394549
 40
0.0471253548394549
 40
0.0942507096789097
 40
0.0942507096789097
 40
0.5042585836949092
 40
0.5042585836949092
 40
0.7084642282488322
 40
0.7084642282488322
 40
3.007613799200303
 40
3.007613799200303
 40
3.211820737032047
 40
3.211820737032047
 40
3.45013387530915
 40
3.45013387530915
 40
3.45013387530915
 10
4.155719241430674
 20
76.5949164369916
 30
0.0
 41
1.0
 10
4.155719241430674
 20
77.36958357277682
 30
0.0
 41
1.0
 10
4.155719241430674
 20
78.14425070856204
 30
0.0
 41
1.0
 10
4.155717496589434
 20
78.16910448348156
 30
0.0
 41
0.9238692335702329
 10
4.173291481527031
 20
78.18667904419324
 30
0.0
 41
1.0
 10
4.190865466464629
 20
78.20425360490489
 30
0.0
 41
0.9238692335702329
 10
4.215719241427983
 20
78.20422565185712
 30
0.0
 41
1.0
 10
4.420723178435983
 20
78.20422423287073
 30
0.0
 41
1.0
 10
4.625727115443983
 20
78.20422281388436
 30
0.0
 41
1.0
 10
4.755727662186978
 20
78.20424423805174
 30
0.0
 41
0.7071128018605748
 10
4.755727115434052
 20
78.07424369179411
 30
0.0
 41
1.000000001636139
 10
4.755727115437672
 20
76.92466890631837
 30
0.0
 41
1.000000001636139
 10
4.755727115441292
 20
75.77509412084264
 30
0.0
 41
1.000000001636139
 10
4.755728882742675
 20
75.64509235412413
 30
0.0
 41
0.7071098289734908
 10
4.625727115443984
 20
75.64511648879827
 30
0.0
 41
0.9999999997235938
 10
4.506570546305431
 20
75.64513000003528
 30
0.0
 41
0.9999999997235938
 10
4.387413977166879
 20
75.6451435112723
 30
0.0
 41
0.9999999997235938
  0
SPLINE
  5
41
330
1F
100
AcDbEntity
  8
DEFAULT
100
AcDbSpline
210
0.0
220
0.0
230
1.0
 70
    12
 71
     2
 72
    10
 73
     7
 74
     0
 42
0.0000000001
 43
0.0000000001
 40
0.0
 40
0.0
 40
0.0
 40
0.2654198534801253
 40
0.2654198534801253
 40
0.4696267913118861
 40
0.4696267913118861
 40
0.7101678398689524
 40
0.7101678398689524
 40
0.7101678398689524
 10
4.755727115442543
 20
52.82574935462806
 30
0.0
 41
1.0
 10
4.75572711544187
 20
52.69303921437652
 30
0.0
 41
1.0
 10
4.755727115441196
 20
52.56032907412498
 30
0.0
 41
1.0
 10
4.755728882741261
 20
52.43032688038351
 30
0.0
 41
0.7071098278164522
 10
4.625727115442542
 20
52.43035101505765
 30
0.0
 41
0.9999999980874608
 10
4.505456591164008
 20
52.43036452629467
 30
0.0
 41
0.9999999980874608
 10
4.385186066885474
 20
52.4303780375317
 30
0.0
 41
0.9999999980874608
  0
SPLINE
  5
42
330
1F
100
AcDbEntity
  8
DEFAULT
100
AcDbSpline
210
0.0
220
0.0
230
1.0
 70
    12
 71
     3
 72
    15
 73
    11
 74
     0
 42
0.0000000001
 43
0.0000000001
 40
0.0
 40
0.0
 40
0.0
 40
0.0
 40
0.2405410474902503
 40
0.2405410474902503
 40
0.2405410474902503
 40
0.4442927873406414
 40
0.4442927873406414
 40
0.4442927873406414
 40
0.8633028009238507
 40
1.11416189749229
 40
1.11416189749229
 40
1.11416189749229
 40
1.11416189749229
 10
3.157748477892792
 20
52.4303780375317
 30
0.0
 41
1.0
 10
3.077568128729375
 20
52.43036903004035
 30
0.0
 41
1.0
 10
2.997387779565958
 20
52.43036002254902
 30
0.0
 41
1.0
 10
2.917207430402541
 20
52.43035101505766
 30
0.0
 41
1.0
 10
2.84126528875801
 20
52.4303369133814
 30
0.0
 41
0.8055646871193067
 10
2.787472960530628
 20
52.48402593362592
 30
0.0
 41
0.8055646877749463
 10
2.787207830229333
 20
52.56010095129308
 30
0.0
 41
1.000000001966919
 10
2.787207430402542
 20
52.56032839152979
 30
0.0
 41
1.000000001966919
 10
2.787207430402542
 20
52.60154417456172
 30
0.0
 41
1.000000001966919
 10
2.787207430402542
 20
52.70415490294614
 30
0.0
 41
1.000000001966919
 10
2.787207430402542
 20
52.75014310565295
 30
0.0
 41
1.000000001966919
  0
SPLINE
  5
43
330
1F
100
AcDbEntity
  8
DEFAULT
100
AcDbSpline
210
0.0
220
0.0
230
1.0
 70
     8
 71
     3
 72
    11
 73
     7
 74
     0
 42
0.0000000001
 43
0.0000000001
 40
0.0
 40
0.0
 40
0.0
 40
0.0
 40
0.3618505899726652
 40
0.5504216929963847
 40
0.939234565482387
 40
1.771793846482074
 40
1.771793846482074
 40
1.771793846482074
 40
1.771793846482074
 10
-11.35669948429608
 20
68.19927708513991
 30
0.0
 10
-11.29592610970294
 20
68.30345261112076
 30
0.0
 10
-11.2050536144643
 20
68.46288124999316
 30
0.0
 10
-11.04589010716487
 20
68.7324414621283
 30
0.0
 10
-10.79792281449102
 20
69.13186196719883
 30
0.0
 10
-10.56023174015538
 20
69.46281082096036
 30
0.0
 10
-10.39104035557786
 20
69.68277122520352
 30
0.0
  0
SPLINE
  5
44
330
1F
100
AcDbEntity
  8
DEFAULT
100
AcDbSpline
210
0.0
220
0.0
230
1.0
 70
    12
 71
     2
 72
    14
 73
    11
 74
     0
 42
0.0000000001
 43
0.0000000001
 40
-2.007828258560878
 40
-2.007828258560878
 40
-2.007828258560878
 40
-1.659018027826967
 40
-1.659018027826967
 40
-1.090521395420067
 40
-1.090521395420067
 40
-0.5220247630148849
 40
-0.5220247630148849
 40
0.0
 40
0.0
 40
0.2204121202096732
 40
0.2204121202096732
 40
0.2204121202096732
 10
4.479622877927536
 20
52.81147903306764
 30
0.0
 41
1.0
 10
4.486347495424963
 20
52.63359242341704
 30
0.0
 41
0.9698687092348403
 10
4.408209129442206
 20
52.4736447377976
 30
0.0
 41
1.0
 10
4.276287667798665
 20
52.2036041219227
 30
0.0
 41
0.9206297514773369
 10
3.990455695171523
 20
52.11073168420121
 30
0.0
 41
1.0
 10
3.70462372254503
 20
52.01785924647999
 30
0.0
 41
0.9206297514764046
 10
3.439171126621069
 20
52.15878520427722
 30
0.0
 41
1.0
 10
3.197609220250259
 20
52.28702784927462
 30
0.0
 41
0.9329344544875579
 10
3.104829544244179
 20
52.54430253191097
 30
0.0
 41
1.0
 10
3.076116233345877
 20
52.65070235080691
 30
0.0
 41
1.0
 10
3.047402922447574
 20
52.75710216970285
 30
0.0
 41
1.0
  0
ARC
  5
45
330
1F
100
AcDbEntity
  8
DEFAULT
100
AcDbCircle
 10
-9.873829507967715
 20
71.56584853487298
 30
0.0
 40
0.7086614206815479
100
AcDbArc
 50
83.79693700930065
 51
241.5517402178987
  0
SPLINE
  5
46
330
1F
100
AcDbEntity
  8
DEFAULT
100
AcDbSpline
210
0.0
220
0.0
230
1.0
 70
     8
 71
     3
 72
    11
 73
     7
 74
     0
 42
0.0000000001
 43
0.0000000001
 40
0.0
 40
0.0
 40
0.0
 40
0.0
 40
0.3618505899726652
 40
0.5504216929963847
 40
0.939234565482387
 40
1.771793846482074
 40
1.771793846482074
 40
1.771793846482074
 40
1.771793846482074
 10
11.35669948429608
 20
68.19927708513991
 30
0.0
 10
11.29592610970294
 20
68.30345261112076
 30
0.0
 10
11.2050536144643
 20
68.46288124999316
 30
0.0
 10
11.04589010716487
 20
68.7324414621283
 30
0.0
 10
10.79792281449102
 20
69.13186196719883
 30
0.0
 10
10.56023174015538
 20
69.46281082096036
 30
0.0
 10
10.39104035557786
 20
69.68277122520352
 30
0.0
  0
SPLINE
  5
47
330
1F
100
AcDbEntity
  8
DEFAULT
100
AcDbSpline
210
0.0
220
0.0
230
1.0
 70
    12
 71
     3
 72
    16
 73
    12
 74
     0
 42
0.0000000001
 43
0.0000000001
 40
-0.1210247449583074
 40
-0.1210247449583074
 40
-0.1210247449583074
 40
-0.1210247449583074
 40
0.0
 40
0.0
 40
0.0
 40
0.1049127767732758
 40
0.2099195019661643
 40
0.3420621298819194
 40
0.5096662857767473
 40
0.9190318219369773
 40
1.38575513825149
 40
1.38575513825149
 40
1.38575513825149
 40
1.38575513825149
 10
10.10628784543493
 20
68.42235541478074
 30
0.0
 41
1.0
 10
10.0905840627066
 20
68.42598956006603
 30
0.0
 41
0.9989076142761357
 10
10.07511396857199
 20
68.4305163681467
 30
0.0
 41
0.9989076142761357
 10
10.05992826096104
 20
68.43592100396121
 30
0.0
 41
1.0
 10
10.02703614059031
 20
68.44762740160338
 30
0.0
 41
1.0
 10
9.963879458664909
 20
68.47930559460856
 30
0.0
 41
1.0
 10
9.876891693657875
 20
68.55388561878242
 30
0.0
 41
1.0
 10
9.790906691561574
 20
68.65824290816052
 30
0.0
 41
1.0
 10
9.661063933218774
 20
68.85612918925344
 30
0.0
 41
1.0
 10
9.507785939075713
 20
69.16930509834155
 30
0.0
 41
1.0
 10
9.407014547281374
 20
69.44366122261238
 30
0.0
 41
1.0
 10
9.361820142955414
 20
69.59258461293712
 30
0.0
 41
1.0
  0
SPLINE
  5
48
330
1F
100
AcDbEntity
  8
DEFAULT
100
AcDbSpline
210
0.0
220
0.0
230
1.0
 70
    15
 71
     3
 72
    51
 73
    47
 74
     0
 42
0.0000000001
 43
0.0000000001
 40
1.430287008499165
 40
1.430287008499165
 40
1.430287008499165
 40
1.430287008499165
 40
2.361186913627376
 40
3.432445882175082
 40
5.898140928603206
 40
6.476544031029418
 40
6.910269752157507
 40
7.585272795628143
 40
7.874702124130988
 40
8.33330988148167
 40
8.816661978838196
 40
9.179658982931507
 40
9.179658982931507
 40
9.179658982931507
 40
9.357735423334224
 40
9.50249004750875
 40
9.692035109259793
 40
9.858558418195193
 40
10.02568898489091
 40
10.19829991399657
 40
10.39285702126651
 40
10.6376595172444
 40
10.96035603583815
 40
10.96035603583815
 40
10.96035603583815
 40
11.41609840232833
 40
11.89803122031865
 40
12.16547024413732
 40
12.4595387960575
 40
12.96736984289793
 40
13.68866649939221
 40
14.54315431190207
 40
15.50516203992872
 40
16.52271209009139
 40
17.8127245195424
 40
19.54537379716758
 40
19.54537379716758
 40
19.54537379716758
 40
20.23338832760064
 40
20.23338832760064
 40
20.23338832760064
 40
20.28631536182254
 40
20.33924239604434
 40
20.33924239604434
 40
20.33924239604434
 40
20.97566080566675
 40
20.97566080566675
 40
20.97566080566675
 40
20.97566080566675
 10
10.50905746842075
 20
59.91588533808375
 30
0.0
 41
1.0
 10
10.45957427866944
 20
60.2222991398895
 30
0.0
 41
1.0
 10
10.37374580036
 20
60.88413524582754
 30
0.0
 41
1.0
 10
10.24577410289142
 20
62.3686204609029
 30
0.0
 41
1.0
 10
10.22442714801927
 20
63.741064912271
 30
0.0
 41
1.0
 10
10.2210635348329
 20
64.90013741914798
 30
0.0
 41
1.0
 10
10.22667011996514
 20
65.46248735093931
 30
0.0
 41
1.0
 10
10.24084751273342
 20
65.92856386555651
 30
0.0
 41
1.0
 10
10.28729799184774
 20
66.4007659942693
 30
0.0
 41
1.0
 10
10.3396058832776
 20
66.80789383855374
 30
0.0
 41
1.0
 10
10.40323185757275
 20
67.23822078566319
 30
0.0
 41
1.0
 10
10.4507019483098
 20
67.51634434442887
 30
0.0
 41
1.0
 10
10.47361533867948
 20
67.63515581690461
 30
0.0
 41
1.0
 10
10.4848042959846
 20
67.69338581439078
 30
0.0
 41
1.0
 10
10.50668935547246
 20
67.79894994160239
 30
0.0
 41
1.0
 10
10.5472624480478
 20
67.96459868825846
 30
0.0
 41
1.0
 10
10.60692830480465
 20
68.12187539213942
 30
0.0
 41
1.0
 10
10.71858698423939
 20
68.25983795619337
 30
0.0
 41
1.0
 10
10.8750180627361
 20
68.33502220220767
 30
0.0
 41
1.0
 10
11.05632221450257
 20
68.33815751981577
 30
0.0
 41
1.0
 10
11.25101018918761
 20
68.26942392854866
 30
0.0
 41
1.0
 10
11.46512123319876
 20
68.1315945622341
 30
0.0
 41
1.0
 10
11.60863667824235
 20
68.00760345127675
 30
0.0
 41
1.0
 10
11.68834369088222
 20
67.93552240137444
 30
0.0
 41
1.0
 10
11.80073093269499
 20
67.83341139125048
 30
0.0
 41
1.0
 10
12.02422246197438
 20
67.61432260446014
 30
0.0
 41
1.0
 10
12.29163598867653
 20
67.31472842673799
 30
0.0
 41
1.0
 10
12.51123728666102
 20
67.04438229353653
 30
0.0
 41
1.0
 10
12.7238268102527
 20
66.75917672180536
 30
0.0
 41
1.0
 10
13.02581789591788
 20
66.34886889879817
 30
0.0
 41
1.0
 10
13.32767917704174
 20
65.72035522274132
 30
0.0
 41
1.0
 10
13.58070426702029
 20
64.91145677345861
 30
0.0
 41
1.0
 10
13.75019994978913
 20
63.98023848187036
 30
0.0
 41
1.0
 10
13.81720671122616
 20
62.89098421602712
 30
0.0
 41
1.0
 10
13.79008183668519
 20
61.54398307411249
 30
0.0
 41
1.0
 10
13.71725899350229
 20
60.53877401549552
 30
0.0
 41
1.0
 10
13.67341065395832
 20
59.96294900425129
 30
0.0
 41
1.0
 10
13.65449836128951
 20
59.71417057117051
 30
0.0
 41
0.8484215805866726
 10
13.48194820322775
 20
59.53396283955783
 30
0.0
 41
0.8484215805866726
 10
13.23422482045862
 20
59.50427261878498
 30
0.0
 41
1.0
 10
12.89892805047523
 20
59.46403925589296
 30
0.0
 41
1.0
 10
12.11584649982694
 20
59.41229986459399
 30
0.0
 41
1.0
 10
11.30168379299039
 20
59.44856443413009
 30
0.0
 41
1.0
 10
10.93386417713805
 20
59.50013471384266
 30
0.0
 41
1.0
 10
10.70824598080223
 20
59.53165766105763
 30
0.0
 41
0.8697291983410347
 10
10.54543411187889
 20
59.69099868545699
 30
0.0
 41
0.8697291983410347
 10
10.50905746842075
 20
59.91588533808375
 30
0.0
 41
1.0
  0
SPLINE
  5
49
330
1F
100
AcDbEntity
  8
DEFAULT
100
AcDbSpline
210
0.0
220
0.0
230
1.0
 70
    12
 71
     3
 72
    15
 73
    11
 74
     0
 42
0.0000000001
 43
0.0000000001
 40
-0.1309855292468244
 40
-0.1309855292468244
 40
-0.1309855292468244
 40
-0.1309855292468244
 40
0.0
 40
0.0
 40
0.0
 40
0.1036217776033871
 40
0.2093606619688961
 40
0.4389608445509011
 40
0.7424240227825463
 40
1.076691279400148
 40
1.076691279400148
 40
1.076691279400148
 40
1.076691279400148
 10
9.750476886661573
 20
68.7210901914862
 30
0.0
 41
1.0
 10
9.780867445052552
 20
68.68959796168443
 30
0.0
 41
0.9953096151882529
 10
9.814773377703787
 20
68.66192589199242
 30
0.0
 41
0.9953096151882529
 10
9.851717589000668
 20
68.63846336037639
 30
0.0
 41
1.0
 10
9.881348520225961
 20
68.62060474835685
 30
0.0
 41
1.0
 10
9.938725728209697
 20
68.58096983866056
 30
0.0
 41
1.0
 10
10.05133043379273
 20
68.48694447061871
 30
0.0
 41
1.0
 10
10.19245291016966
 20
68.32668789057915
 30
0.0
 41
1.0
 10
10.35414562432632
 20
68.08652742262521
 30
0.0
 41
1.0
 10
10.45866246826081
 20
67.90132171227653
 30
0.0
 41
1.0
 10
10.50823811047508
 20
67.8014813335226
 30
0.0
 41
1.0
  0
SPLINE
  5
4A
330
1F
100
AcDbEntity
  8
DEFAULT
100
AcDbSpline
210
0.0
220
0.0
230
1.0
 70
    12
 71
     2
 72
    16
 73
    13
 74
     0
 42
0.0000000001
 43
0.0000000001
 40
0.0
 40
0.0
 40
0.0
 40
0.0710743857112578
 40
0.0710743857112578
 40
0.2117832342804259
 40
0.2117832342804259
 40
1.302304629701001
 40
1.302304629701001
 40
2.392826025121576
 40
2.392826025121576
 40
2.53353479141368
 40
2.53353479141368
 40
3.007847074692493
 40
3.007847074692493
 40
3.007847074692493
 10
4.376073744366771
 20
75.60533811563302
 30
0.0
 41
1.0
 10
4.38590474647228
 20
75.63948842271304
 30
0.0
 41
1.0
 10
4.395735748577789
 20
75.67363872979305
 30
0.0
 41
1.0
 10
4.432390423262103
 20
75.73416559709688
 30
0.0
 41
0.991411348109636
 10
4.452095751826761
 20
75.80212710729187
 30
0.0
 41
1.0
 10
4.643236347129284
 20
76.46134999077265
 30
0.0
 41
0.7183119241939618
 10
3.99045569516847
 20
76.67345128191184
 30
0.0
 41
1.0
 10
3.337675043207654
 20
76.88555257305104
 30
0.0
 41
0.7183119241939618
 10
3.104829544243316
 20
76.23988043419932
 30
0.0
 41
1.0
 10
3.080824730675206
 20
76.17331595522852
 30
0.0
 41
0.9914113556869347
 10
3.074902180772486
 20
76.10280365603366
 30
0.0
 41
1.0
 10
2.993500260794573
 20
75.88005545078568
 30
0.0
 41
1.0
 10
2.912098340816659
 20
75.6573072455377
 30
0.0
 41
1.0
  0
SPLINE
  5
4B
330
1F
100
AcDbEntity
  8
DEFAULT
100
AcDbSpline
210
0.0
220
0.0
230
1.0
 70
    12
 71
     2
 72
    18
 73
    15
 74
     0
 42
0.0000000001
 43
0.0000000001
 40
0.0
 40
0.0
 40
0.0
 40
0.2405410485565227
 40
0.2405410485565227
 40
0.444747678148577
 40
0.444747678148577
 40
2.743895879419217
 40
2.743895879419217
 40
2.948103200844254
 40
2.948103200844254
 40
3.358111074860253
 40
3.358111074860253
 40
3.45236034932334
 40
3.45236034932334
 40
5.001694057396291
 40
5.001694057396291
 40
5.001694057396291
 10
-10.487548301933
 20
71.21151782621746
 30
0.0
 41
1.0
 10
-10.60781882621126
 20
71.21150431498046
 30
0.0
 41
1.0
 10
-10.72808935048952
 20
71.21149080374344
 30
0.0
 41
1.0
 10
-10.85809072106102
 20
71.21146682787575
 30
0.0
 41
0.7071113298335091
 10
-10.85808934673251
 20
71.34146819784245
 30
0.0
 41
1.000000002017718
 10
-10.85808934861101
 20
72.49104229847777
 30
0.0
 41
1.000000002017718
 10
-10.85808935048952
 20
73.64061639911309
 30
0.0
 41
1.000000002017718
 10
-10.85809166614225
 20
73.77061871428768
 30
0.0
 41
0.70710755277474
 10
-10.72808935048952
 20
73.77059712882955
 30
0.0
 41
1.000000000477184
 10
-10.52308541348152
 20
73.77059854781592
 30
0.0
 41
1.000000000477184
 10
-10.31808147647352
 20
73.7705999668023
 30
0.0
 41
1.000000000477184
 10
-10.25808135734683
 20
73.7706245780988
 30
0.0
 41
0.7071202900575121
 10
-10.25808147647353
 20
73.71062446000971
 30
0.0
 41
1.000000007973469
 10
-10.25808147647353
 20
72.93595760597324
 30
0.0
 41
1.000000007973469
 10
-10.25808147647353
 20
72.16129075193676
 30
0.0
 41
1.000000007973469
  0
SPLINE
  5
4C
330
1F
100
AcDbEntity
  8
DEFAULT
100
AcDbSpline
210
0.0
220
0.0
230
1.0
 70
     8
 71
     2
 72
    10
 73
     7
 74
     0
 42
0.0000000001
 43
0.0000000001
 40
0.0
 40
0.0
 40
0.0
 40
0.7220943810042827
 40
0.7220943810042827
 40
1.440834538484197
 40
1.440834538484197
 40
3.034274057281309
 40
3.034274057281309
 40
3.034274057281309
 10
-9.5144594135427
 20
73.04847856332191
 30
0.0
 10
-9.514459421386135
 20
73.40952575382406
 30
0.0
 10
-9.514459429229571
 20
73.77057294432619
 30
0.0
 10
-9.873829507935318
 20
73.770447122037
 30
0.0
 10
-10.23319958664106
 20
73.7703212997478
 30
0.0
 10
-10.23319958037371
 20
72.97347571805949
 30
0.0
 10
-10.23319957410636
 20
72.17663013637116
 30
0.0
  0
SPLINE
  5
4D
330
1F
100
AcDbEntity
  8
DEFAULT
100
AcDbSpline
210
0.0
220
0.0
230
1.0
 70
    12
 71
     3
 72
    15
 73
    11
 74
     0
 42
0.0000000001
 43
0.0000000001
 40
-0.1309855292468244
 40
-0.1309855292468244
 40
-0.1309855292468244
 40
-0.1309855292468244
 40
0.0
 40
0.0
 40
0.0
 40
0.1036217776033871
 40
0.2093606619688961
 40
0.4389608445509011
 40
0.7424240227825463
 40
1.076691279400148
 40
1.076691279400148
 40
1.076691279400148
 40
1.076691279400148
 10
-9.750476886661573
 20
68.7210901914862
 30
0.0
 41
1.0
 10
-9.780867445052552
 20
68.68959796168443
 30
0.0
 41
0.9953096151882529
 10
-9.814773377703787
 20
68.66192589199242
 30
0.0
 41
0.9953096151882529
 10
-9.851717589000668
 20
68.63846336037639
 30
0.0
 41
1.0
 10
-9.881348520225961
 20
68.62060474835685
 30
0.0
 41
1.0
 10
-9.938725728209697
 20
68.58096983866056
 30
0.0
 41
1.0
 10
-10.05133043379273
 20
68.48694447061871
 30
0.0
 41
1.0
 10
-10.19245291016966
 20
68.32668789057915
 30
0.0
 41
1.0
 10
-10.35414562432632
 20
68.08652742262521
 30
0.0
 41
1.0
 10
-10.45866246826081
 20
67.90132171227653
 30
0.0
 41
1.0
 10
-10.50823811047508
 20
67.8014813335226
 30
0.0
 41
1.0
  0
SPLINE
  5
4E
330
1F
100
AcDbEntity
  8
DEFAULT
100
AcDbSpline
210
0.0
220
0.0
230
1.0
 70
     8
 71
     2
 72
    10
 73
     7
 74
     0
 42
0.0000000001
 43
0.0000000001
 40
0.0
 40
0.0
 40
0.0
 40
1.5939428300631
 40
1.5939428300631
 40
2.312682987543014
 40
2.312682987543014
 40
3.906122506341547
 40
3.906122506341547
 40
3.906122506341547
 10
4.130837376634215
 20
76.61025579931793
 30
0.0
 10
4.130837364149077
 20
77.40722721434948
 30
0.0
 10
4.130837351663939
 20
78.20419862938103
 30
0.0
 10
3.771467272958189
 20
78.20407280709182
 30
0.0
 10
3.412097194252439
 20
78.20394698480263
 30
0.0
 10
3.412097200519097
 20
77.40710140311359
 30
0.0
 10
3.412097206785756
 20
76.61025582142456
 30
0.0
  0
SPLINE
  5
4F
330
1F
100
AcDbEntity
  8
DEFAULT
100
AcDbSpline
210
0.0
220
0.0
230
1.0
 70
    12
 71
     3
 72
    21
 73
    17
 74
     0
 42
0.0000000001
 43
0.0000000001
 40
0.0
 40
0.0
 40
0.0
 40
0.0
 40
2.957634718931054
 40
2.957634718931054
 40
2.957634718931054
 40
6.692026301339061
 40
6.692026301339061
 40
6.692026301339061
 40
10.12757549331587
 40
10.12757549331587
 40
10.12757549331587
 40
10.96017093141221
 40
11.71955899344657
 40
13.1663571579405
 40
14.49332052427008
 40
15.84966577441632
 40
15.84966577441632
 40
15.84966577441632
 40
15.84966577441632
 10
0.020011645730976
 20
52.71709309535984
 30
0.0
 41
1.0
 10
1.005919305567129
 20
52.71655566390877
 30
0.0
 41
0.9999400228632581
 10
1.991745476388984
 20
52.72924280223392
 30
0.0
 41
0.9999400228632581
 10
2.977312777103389
 20
52.75515222752057
 30
0.0
 41
1.0
 10
4.221938630457456
 20
52.78787200275453
 30
0.0
 41
0.999584557617708
 10
5.464633940321045
 20
52.8645040154621
 30
0.0
 41
0.999584557617708
 10
6.703849901794182
 20
52.98495275708556
 30
0.0
 41
1.0
 10
7.849295972766401
 20
53.09628729612918
 30
0.0
 41
0.9902006013894006
 10
8.958885987012112
 20
53.40165933377495
 30
0.0
 41
0.9902006013894006
 10
9.999999999999513
 20
53.89209148305859
 30
0.0
 41
1.0
 10
10.08697833187057
 20
54.1556346376659
 30
0.0
 41
1.0
 10
10.24885104102355
 20
54.66105218959585
 30
0.0
 41
1.0
 10
10.53670654853669
 20
55.6322497184179
 30
0.0
 41
1.0
 10
10.8278165810709
 20
56.7739515925862
 30
0.0
 41
1.0
 10
11.08315241206629
 20
58.12751618176672
 30
0.0
 41
1.0
 10
11.19118221560848
 20
59.01586669203533
 30
0.0
 41
1.0
 10
11.23304356431801
 20
59.46602504276363
 30
0.0
 41
1.0
  0
SPLINE
  5
50
330
1F
100
AcDbEntity
  8
DEFAULT
100
AcDbSpline
210
0.0
220
0.0
230
1.0
 70
    12
 71
     3
 72
    21
 73
    17
 74
     0
 42
0.0000000001
 43
0.0000000001
 40
0.0
 40
0.0
 40
0.0
 40
0.0
 40
2.957634718931054
 40
2.957634718931054
 40
2.957634718931054
 40
6.692026301339061
 40
6.692026301339061
 40
6.692026301339061
 40
10.12757549331587
 40
10.12757549331587
 40
10.12757549331587
 40
10.96017093141221
 40
11.71955899344657
 40
13.1663571579405
 40
14.49332052427008
 40
15.84966577441632
 40
15.84966577441632
 40
15.84966577441632
 40
15.84966577441632
 10
-0.0200116457310067
 20
52.71709309535984
 30
0.0
 41
1.0
 10
-1.005919305567159
 20
52.71655566390877
 30
0.0
 41
0.9999400228632581
 10
-1.991745476389015
 20
52.72924280223392
 30
0.0
 41
0.9999400228632581
 10
-2.97731277710342
 20
52.75515222752057
 30
0.0
 41
1.0
 10
-4.221938630457474
 20
52.78787200275453
 30
0.0
 41
0.999584557617708
 10
-5.464633940321058
 20
52.8645040154621
 30
0.0
 41
0.999584557617708
 10
-6.703849901794194
 20
52.98495275708556
 30
0.0
 41
1.0
 10
-7.849295972766405
 20
53.09628729612918
 30
0.0
 41
0.9902006013894006
 10
-8.958885987012112
 20
53.40165933377495
 30
0.0
 41
0.9902006013894006
 10
-9.999999999999513
 20
53.89209148305859
 30
0.0
 41
1.0
 10
-10.08697833187057
 20
54.1556346376659
 30
0.0
 41
1.0
 10
-10.24885104102355
 20
54.66105218959585
 30
0.0
 41
1.0
 10
-10.53670654853669
 20
55.6322497184179
 30
0.0
 41
1.0
 10
-10.8278165810709
 20
56.7739515925862
 30
0.0
 41
1.0
 10
-11.08315241206629
 20
58.12751618176672
 30
0.0
 41
1.0
 10
-11.19118221560848
 20
59.01586669203533
 30
0.0
 41
1.0
 10
-11.23304356431801
 20
59.46602504276363
 30
0.0
 41
1.0
  0
SPLINE
  5
51
330
1F
100
AcDbEntity
  8
DEFAULT
100
AcDbSpline
210
0.0
220
0.0
230
1.0
 70
    15
 71
     3
 72
    51
 73
    47
 74
     0
 42
0.0000000001
 43
0.0000000001
 40
1.430287008499165
 40
1.430287008499165
 40
1.430287008499165
 40
1.430287008499165
 40
2.361186913627376
 40
3.432445882175082
 40
5.898140928603206
 40
6.476544031029418
 40
6.910269752157507
 40
7.585272795628143
 40
7.874702124130988
 40
8.33330988148167
 40
8.816661978838196
 40
9.179658982931507
 40
9.179658982931507
 40
9.179658982931507
 40
9.357735423334224
 40
9.50249004750875
 40
9.692035109259793
 40
9.858558418195193
 40
10.02568898489091
 40
10.19829991399657
 40
10.39285702126651
 40
10.6376595172444
 40
10.96035603583815
 40
10.96035603583815
 40
10.96035603583815
 40
11.41609840232833
 40
11.89803122031865
 40
12.16547024413732
 40
12.4595387960575
 40
12.96736984289793
 40
13.68866649939221
 40
14.54315431190207
 40
15.50516203992872
 40
16.52271209009139
 40
17.8127245195424
 40
19.54537379716758
 40
19.54537379716758
 40
19.54537379716758
 40
20.23338832760064
 40
20.23338832760064
 40
20.23338832760064
 40
20.28631536182254
 40
20.33924239604434
 40
20.33924239604434
 40
20.33924239604434
 40
20.97566080566675
 40
20.97566080566675
 40
20.97566080566675
 40
20.97566080566675
 10
-10.50905746842075
 20
59.91588533808375
 30
0.0
 41
1.0
 10
-10.45957427866944
 20
60.2222991398895
 30
0.0
 41
1.0
 10
-10.37374580036
 20
60.88413524582754
 30
0.0
 41
1.0
 10
-10.24577410289142
 20
62.3686204609029
 30
0.0
 41
1.0
 10
-10.22442714801927
 20
63.741064912271
 30
0.0
 41
1.0
 10
-10.2210635348329
 20
64.90013741914798
 30
0.0
 41
1.0
 10
-10.22667011996514
 20
65.46248735093931
 30
0.0
 41
1.0
 10
-10.24084751273342
 20
65.92856386555651
 30
0.0
 41
1.0
 10
-10.28729799184774
 20
66.4007659942693
 30
0.0
 41
1.0
 10
-10.3396058832776
 20
66.80789383855374
 30
0.0
 41
1.0
 10
-10.40323185757275
 20
67.23822078566319
 30
0.0
 41
1.0
 10
-10.4507019483098
 20
67.51634434442887
 30
0.0
 41
1.0
 10
-10.47361533867948
 20
67.63515581690461
 30
0.0
 41
1.0
 10
-10.4848042959846
 20
67.69338581439078
 30
0.0
 41
1.0
 10
-10.50668935547246
 20
67.79894994160239
 30
0.0
 41
1.0
 10
-10.5472624480478
 20
67.96459868825846
 30
0.0
 41
1.0
 10
-10.60692830480465
 20
68.12187539213942
 30
0.0
 41
1.0
 10
-10.71858698423939
 20
68.25983795619337
 30
0.0
 41
1.0
 10
-10.8750180627361
 20
68.33502220220767
 30
0.0
 41
1.0
 10
-11.05632221450257
 20
68.33815751981577
 30
0.0
 41
1.0
 10
-11.25101018918761
 20
68.26942392854866
 30
0.0
 41
1.0
 10
-11.46512123319876
 20
68.1315945622341
 30
0.0
 41
1.0
 10
-11.60863667824235
 20
68.00760345127675
 30
0.0
 41
1.0
 10
-11.68834369088222
 20
67.93552240137444
 30
0.0
 41
1.0
 10
-11.80073093269499
 20
67.83341139125048
 30
0.0
 41
1.0
 10
-12.02422246197438
 20
67.61432260446014
 30
0.0
 41
1.0
 10
-12.29163598867653
 20
67.31472842673799
 30
0.0
 41
1.0
 10
-12.51123728666102
 20
67.04438229353653
 30
0.0
 41
1.0
 10
-12.7238268102527
 20
66.75917672180536
 30
0.0
 41
1.0
 10
-13.02581789591788
 20
66.34886889879817
 30
0.0
 41
1.0
 10
-13.32767917704174
 20
65.72035522274132
 30
0.0
 41
1.0
 10
-13.58070426702029
 20
64.91145677345861
 30
0.0
 41
1.0
 10
-13.75019994978913
 20
63.98023848187036
 30
0.0
 41
1.0
 10
-13.81720671122616
 20
62.89098421602712
 30
0.0
 41
1.0
 10
-13.79008183668519
 20
61.54398307411249
 30
0.0
 41
1.0
 10
-13.71725899350229
 20
60.53877401549552
 30
0.0
 41
1.0
 10
-13.67341065395832
 20
59.96294900425129
 30
0.0
 41
1.0
 10
-13.65449836128951
 20
59.71417057117051
 30
0.0
 41
0.8484215805866726
 10
-13.48194820322775
 20
59.53396283955783
 30
0.0
 41
0.8484215805866726
 10
-13.23422482045862
 20
59.50427261878498
 30
0.0
 41
1.0
 10
-12.89892805047523
 20
59.46403925589296
 30
0.0
 41
1.0
 10
-12.11584649982694
 20
59.41229986459399
 30
0.0
 41
1.0
 10
-11.30168379299039
 20
59.44856443413009
 30
0.0
 41
1.0
 10
-10.93386417713805
 20
59.50013471384266
 30
0.0
 41
1.0
 10
-10.70824598080223
 20
59.53165766105763
 30
0.0
 41
0.8697291983410347
 10
-10.54543411187889
 20
59.69099868545699
 30
0.0
 41
0.8697291983410347
 10
-10.50905746842075
 20
59.91588533808375
 30
0.0
 41
1.0
  0
SPLINE
  5
52
330
1F
100
AcDbEntity
  8
DEFAULT
100
AcDbSpline
210
0.0
220
0.0
230
1.0
 70
     8
 71
     5
 72
    12
 73
     6
 74
     0
 42
0.0000000001
 43
0.0000000001
 40
0.0
 40
0.0
 40
0.0
 40
0.0
 40
0.0
 40
0.0
 40
1.0
 40
1.0
 40
1.0
 40
1.0
 40
1.0
 40
1.0
 10
-1.277441840520309
 20
71.38756103411605
 30
0.0
 10
-0.7683360521514971
 20
71.43124765901746
 30
0.0
 10
-0.2574556799171407
 20
71.45425402033858
 30
0.0
 10
0.2574556799171406
 20
71.45425402033858
 30
0.0
 10
0.7683360521514968
 20
71.43124765901746
 30
0.0
 10
1.277441840520309
 20
71.38756103411605
 30
0.0
  0
SPLINE
  5
53
330
1F
100
AcDbEntity
  8
DEFAULT
100
AcDbSpline
210
0.0
220
0.0
230
1.0
 70
     8
 71
     3
 72
    26
 73
    22
 74
     0
 42
0.0000000001
 43
0.0000000001
 40
0.0
 40
0.0
 40
0.0
 40
0.0
 40
0.1824891209247783
 40
0.4233254145037756
 40
0.8961203849239153
 40
1.263634407489044
 40
2.281338872056231
 40
2.936413014694223
 40
3.709412794598719
 40
4.444022373573844
 40
4.444022373573844
 40
4.444022373573844
 40
4.808823186915031
 40
5.178631862111721
 40
5.951575731179672
 40
6.610551778647534
 40
7.621267139501482
 40
7.991924309966064
 40
8.46471928346203
 40
8.705555585683085
 40
8.888044739510267
 40
8.888044739510267
 40
8.888044739510267
 40
8.888044739510267
 10
4.378436836129495
 20
73.44970461580665
 30
0.0
 10
4.318327930194513
 20
73.44038037854908
 30
0.0
 10
4.179143916710004
 20
73.41708173945169
 30
0.0
 10
3.885139246993447
 20
73.36438154141032
 30
0.0
 10
3.530959025607075
 20
73.29756535916782
 30
0.0
 10
2.92528190463878
 20
73.16817812940249
 30
0.0
 10
2.264311207682937
 20
73.00740159428892
 30
0.0
 10
1.463115816411829
 20
72.85509494012534
 30
0.0
 10
0.7474650651527668
 20
72.7643541907443
 30
0.0
 10
0.24483835092974
 20
72.74330160990219
 30
0.0
 10
-0.0000000000017479
 20
72.7433126362501
 30
0.0
 10
-0.1216220040032994
 20
72.74322234535173
 30
0.0
 10
-0.3664325377622788
 20
72.7484568726981
 30
0.0
 10
-0.8681774465662073
 20
72.77962911135738
 30
0.0
 10
-1.464364320847523
 20
72.85526027295168
 30
0.0
 10
-2.264521400234358
 20
73.00746844948961
 30
0.0
 10
-2.925514835297335
 20
73.16820197923695
 30
0.0
 10
-3.529930601882867
 20
73.29736874374352
 30
0.0
 10
-3.885138560303275
 20
73.36438247272623
 30
0.0
 10
-4.179144348212134
 20
73.4170810199762
 30
0.0
 10
-4.318327242805339
 20
73.44038303381886
 30
0.0
 10
-4.378436836132863
 20
73.44970461580662
 30
0.0
  0
SPLINE
  5
54
330
1F
100
AcDbEntity
  8
DEFAULT
100
AcDbSpline
210
0.0
220
0.0
230
1.0
 70
     8
 71
     5
 72
    12
 73
     6
 74
     0
 42
0.0000000001
 43
0.0000000001
 40
0.0
 40
0.0
 40
0.0
 40
0.0
 40
0.0
 40
0.0
 40
1.0
 40
1.0
 40
1.0
 40
1.0
 40
1.0
 40
1.0
 10
-5.291782123065779
 20
40.19285448205684
 30
0.0
 10
-3.181896965081211
 20
40.36273063163706
 30
0.0
 10
-1.072011807096643
 20
40.53260678121727
 30
0.0
 10
1.072011807096636
 20
40.53260678121727
 30
0.0
 10
3.181896965081204
 20
40.36273063163706
 30
0.0
 10
5.291782123065772
 20
40.19285448205684
 30
0.0
  0
SPLINE
  5
55
330
1F
100
AcDbEntity
  8
DEFAULT
100
AcDbSpline
210
0.0
220
0.0
230
1.0
 70
    12
 71
     3
 72
    33
 73
    29
 74
     0
 42
0.0000000001
 43
0.0000000001
 40
-0.6176182602239597
 40
-0.6176182602239597
 40
-0.6176182602239597
 40
-0.6176182602239597
 40
0.0000000000000001
 40
0.0000000000000001
 40
0.0000000000000001
 40
0.4866256082788433
 40
1.009700198553584
 40
2.08818668010959
 40
3.1364853832825
 40
3.585905280521441
 40
4.405187495633474
 40
4.689918120906282
 40
5.182966450399416
 40
5.182966450399416
 40
5.182966450399416
 40
5.646222660906126
 40
5.646222660906126
 40
5.646222660906126
 40
6.262673864534434
 40
6.262673864534434
 40
6.262673864534434
 40
6.75865049385624
 40
6.75865049385624
 40
6.75865049385624
 40
7.422671150368728
 40
7.422671150368728
 40
7.422671150368728
 40
9.191693105124525
 40
9.191693105124525
 40
9.191693105124525
 40
9.191693105124525
 10
32.61612655280896
 20
32.76539095746212
 30
0.0
 41
1.0
 10
32.61314239090088
 20
32.84768657836554
 30
0.0
 41
0.99998557630679
 10
32.61069963745096
 20
32.93000004869547
 30
0.0
 41
0.99998557630679
 10
32.60879839815978
 20
33.01232780665919
 30
0.0
 41
1.0
 10
32.60505342689774
 20
33.17449313170314
 30
0.0
 41
1.0
 10
32.60164285094939
 20
33.5110693157988
 30
0.0
 41
1.0
 10
32.61238608415711
 20
34.20710830073511
 30
0.0
 41
1.0
 10
32.65872769288882
 20
35.08942271622514
 30
0.0
 41
1.0
 10
32.73928830679517
 20
35.94450169122838
 30
0.0
 41
1.0
 10
32.82848343482418
 20
36.71167883149331
 30
0.0
 41
1.0
 10
32.89762973592039
 20
37.22488555640926
 30
0.0
 41
1.0
 10
32.95903043984249
 20
37.75369012890941
 30
0.0
 41
1.0
 10
32.9807041923349
 20
38.01214402074601
 30
0.0
 41
1.0
 10
32.98736311872167
 20
38.176380026221
 30
0.0
 41
1.0
 10
32.99362286041956
 20
38.33077052583751
 30
0.0
 41
0.998724278797142
 10
32.99032396870667
 20
38.48525265442014
 30
0.0
 41
0.998724278797142
 10
32.97747906898132
 20
38.63923518358823
 30
0.0
 41
1.0
 10
32.96026087830906
 20
38.84564399985825
 30
0.0
 41
0.9842451300820002
 10
32.89884134616459
 20
39.04345377361874
 30
0.0
 41
0.9842451300820002
 10
32.79612344276598
 20
39.22331510310737
 30
0.0
 41
1.0
 10
32.71325664938445
 20
39.36841669820345
 30
0.0
 41
0.9789770941345598
 10
32.59685135847695
 20
39.488296582227
 30
0.0
 41
0.9789770941345598
 10
32.45424910246242
 20
39.57539408462707
 30
0.0
 41
1.0
 10
32.26528330826872
 20
39.69080915009167
 30
0.0
 41
0.9992410161189248
 10
32.07102690625607
 20
39.79707842593636
 30
0.0
 41
0.9992410161189248
 10
31.87192220885824
 20
39.89395994215887
 30
0.0
 41
1.0
 10
31.33885597625191
 20
40.15334239539518
 30
0.0
 41
0.9894219088509976
 10
30.7682249438916
 20
40.31402559395497
 30
0.0
 41
0.9894219088509976
 10
30.17813767299559
 20
40.37091037327681
 30
0.0
 41
1.0
  0
SPLINE
  5
56
330
1F
100
AcDbEntity
  8
DEFAULT
100
AcDbSpline
210
0.0
220
0.0
230
1.0
 70
     8
 71
     3
 72
    17
 73
    13
 74
     0
 42
0.0000000001
 43
0.0000000001
 40
0.0
 40
0.0
 40
0.0
 40
0.0
 40
0.514784039034206
 40
0.514784039034206
 40
0.514784039034206
 40
0.5437938637853904
 40
0.571869374375075
 40
0.6979513122340337
 40
0.7506739588811985
 40
0.7506739588811985
 40
0.7506739588811985
 40
1.584256976605511
 40
1.584256976605511
 40
1.584256976605511
 40
1.584256976605511
 10
40.42088041355969
 20
4.139324081632308
 30
0.0
 10
40.42520244973361
 20
3.967783442973669
 30
0.0
 10
40.42952448590753
 20
3.796242804315029
 30
0.0
 10
40.43384652208144
 20
3.624702165656389
 30
0.0
 10
40.43407772467599
 20
3.615039511339515
 30
0.0
 10
40.43487360862859
 20
3.596000785571798
 30
0.0
 10
40.44296753114736
 20
3.535445691299036
 30
0.0
 10
40.46276801669994
 20
3.468944868662484
 30
0.0
 10
40.46725090197986
 20
3.409274228516639
 30
0.0
 10
40.46677826463467
 20
3.391702165656389
 30
0.0
 10
40.46676300556813
 20
3.113841159748285
 30
0.0
 10
40.46674774650158
 20
2.83598015384018
 30
0.0
 10
40.46673248743504
 20
2.558119147932076
 30
0.0
  0
SPLINE
  5
57
330
1F
100
AcDbEntity
  8
DEFAULT
100
AcDbSpline
210
0.0
220
0.0
230
1.0
 70
    12
 71
     3
 72
    23
 73
    19
 74
     0
 42
0.0000000001
 43
0.0000000001
 40
0.0
 40
0.0
 40
0.0
 40
0.0
 40
0.5668399707054732
 40
0.5668399707054732
 40
0.5668399707054732
 40
0.7710470480198164
 40
0.7710470480198164
 40
0.7710470480198164
 40
3.40104704801972
 40
3.40104704801972
 40
3.40104704801972
 40
3.428415876531689
 40
3.454079023089714
 40
3.579851618567376
 40
3.636936946996121
 40
3.636936946996121
 40
3.636936946996121
 40
4.151729925208601
 40
4.151729925208601
 40
4.151729925208601
 40
4.151729925208601
 10
41.51992468051113
 20
0.6317021656564843
 30
0.0
 41
1.0
 10
41.70887133741153
 20
0.6317021660618974
 30
0.0
 41
1.0
 10
41.89781799431193
 20
0.6317021664673107
 30
0.0
 41
1.0
 10
42.08676465121233
 20
0.6317021668727238
 30
0.0
 41
1.0
 10
42.16291812440524
 20
0.6317010478146702
 30
0.0
 41
0.8047396203742009
 10
42.21676010100929
 20
0.6855486921930328
 30
0.0
 41
0.8047396199430699
 10
42.21675096664997
 20
0.7617021656564856
 30
0.0
 41
0.999999998706607
 10
42.2167295470273
 20
1.63836883232312
 30
0.0
 41
0.999999998706607
 10
42.21670812740464
 20
2.515035498989755
 30
0.0
 41
0.999999998706607
 10
42.21668670778197
 20
3.391702165656389
 30
0.0
 41
0.999999998706607
 10
42.21661830473726
 20
3.400827991239205
 30
0.0
 41
0.999999998706607
 10
42.21681993341651
 20
3.418507819282148
 30
0.0
 41
0.999999998706607
 10
42.22341511822087
 20
3.477850156662169
 30
0.0
 41
0.999999998706607
 10
42.24331791021722
 20
3.544858040388024
 30
0.0
 41
0.999999998706607
 10
42.24950155302539
 20
3.605656133979032
 30
0.0
 41
0.999999998706607
 10
42.24961845023623
 20
3.624702165656389
 30
0.0
 41
0.999999998706607
 10
42.25394056203777
 20
3.796245783102703
 30
0.0
 41
0.999999998706607
 10
42.2582626738393
 20
3.967789400549017
 30
0.0
 41
0.999999998706607
 10
42.26258478564085
 20
4.13933301799533
 30
0.0
 41
0.999999998706607
  0
SPLINE
  5
58
330
1F
100
AcDbEntity
  8
DEFAULT
100
AcDbSpline
210
0.0
220
0.0
230
1.0
 70
    15
 71
     2
 72
    46
 73
    43
 74
     0
 42
0.0000000001
 43
0.0000000001
 40
-4.794571530997553
 40
-4.794571530997553
 40
-4.794571530997553
 40
-4.64265244766411
 40
-4.64265244766411
 40
-2.393276159110467
 40
-2.393276159110467
 40
-2.359070723758834
 40
-2.359070723758834
 40
-2.231635182005188
 40
-2.231635182005188
 40
-2.201496771839262
 40
-2.201496771839262
 40
-2.171358361673335
 40
-2.171358361673335
 40
0.0
 40
0.0
 40
0.2385432190892538
 40
0.2385432190892538
 40
0.4471052675974994
 40
0.4471052675974994
 40
1.203395216718079
 40
1.203395216718079
 40
1.714827328735219
 40
1.714827328735219
 40
1.95316403856741
 40
1.95316403856741
 40
2.081749924819361
 40
2.081749924819361
 40
2.106795230391582
 40
2.106795230391582
 40
2.131840535963802
 40
2.131840535963802
 40
2.248652827735422
 40
2.248652827735422
 40
2.292691160334532
 40
2.292691160334532
 40
2.641840467196648
 40
2.641840467196648
 40
2.702188918370362
 40
2.702188918370362
 40
3.458478867490942
 40
3.458478867490942
 40
3.831075891793962
 40
3.831075891793962
 40
3.831075891793962
 10
46.93208975838289
 20
10.96141717499377
 30
0.0
 41
1.0
 10
46.9024461385751
 20
10.95488607736026
 30
0.0
 41
0.9999911554928996
 10
46.87285850427362
 20
10.94810586143094
 30
0.0
 41
1.0
 10
45.76757450694873
 20
10.69482220621481
 30
0.0
 41
0.9877405169692576
 10
44.79426719242537
 20
10.11303341615658
 30
0.0
 41
1.0
 10
44.77777746383483
 20
10.10313384746506
 30
0.0
 41
0.8418381866446382
 10
44.77989097177307
 20
10.08401721351808
 30
0.0
 41
1.0
 10
44.78688299671142
 20
10.02068423701474
 30
0.0
 41
1.0
 10
44.79387502164978
 20
9.957351260511395
 30
0.0
 41
1.0
 10
44.79566108380694
 20
9.940966191697603
 30
0.0
 41
0.8762369496996714
 10
44.81045457903657
 20
9.933698936579408
 30
0.0
 41
1.0
 10
44.82524807426621
 20
9.926431681461212
 30
0.0
 41
0.8762369496996714
 10
44.8393082829957
 20
9.93503232263177
 30
0.0
 41
1.0
 10
45.77373349099172
 20
10.505353125718
 30
0.0
 41
0.9876496272833194
 10
46.83878881135227
 20
10.75848046984154
 30
0.0
 41
1.0
 10
46.88515771024574
 20
10.76950077648896
 30
0.0
 41
0.9999700664601674
 10
46.93169158754407
 20
10.77980224273324
 30
0.0
 41
1.0
 10
46.95073494953449
 20
10.67945777185857
 30
0.0
 41
1.041021950325436
 10
47.00887766028045
 20
10.59548701707975
 30
0.0
 41
1.132494864040021
 10
47.28296373056895
 20
10.19964695559645
 30
0.0
 41
0.800794798021636
 10
47.67880379205226
 20
10.47373302588495
 30
0.0
 41
1.132494864040021
 10
47.91483289215224
 20
10.63716339793401
 30
0.0
 41
0.9081866268126607
 10
47.88326779991829
 20
10.92251032284184
 30
0.0
 41
0.9872499619337787
 10
47.93078742631512
 20
10.92626093837933
 30
0.0
 41
0.9872264531957121
 10
47.97835429149009
 20
10.92935534417527
 30
0.0
 41
0.9872499619337787
 10
48.04254676362583
 20
10.93293160995282
 30
0.0
 41
0.9872499619337787
 10
48.10673923576158
 20
10.93650787573037
 30
0.0
 41
0.9872499619337787
 10
48.12003114058035
 20
10.93711388923245
 30
0.0
 41
0.9023624835102022
 10
48.12849861778184
 20
10.94737760278643
 30
0.0
 41
0.9872499619337787
 10
48.13696609498333
 20
10.9576413163404
 30
0.0
 41
0.9023624835102022
 10
48.13503502667595
 20
10.97080615440504
 30
0.0
 41
0.9872499619337787
 10
48.12660373745843
 20
11.02860054201634
 30
0.0
 41
0.9872499619337787
 10
48.11817244824091
 20
11.08639492962764
 30
0.0
 41
0.9872499619337787
 10
48.1142789932251
 20
11.1131838633242
 30
0.0
 41
0.7327700838326464
 10
48.08723285273385
 20
11.11203833065894
 30
0.0
 41
0.9872499619337787
 10
47.95820777471027
 20
11.10664272007285
 30
0.0
 41
0.9870643956473125
 10
47.82948887493176
 20
11.0962490579466
 30
0.0
 41
0.9872499619337787
 10
47.81639286774207
 20
11.12078984214031
 30
0.0
 41
1.007512744905036
 10
47.80055778324706
 20
11.14365915765677
 30
0.0
 41
1.031623359676823
 10
47.52647171295855
 20
11.53949921914007
 30
0.0
 41
0.7294678732579302
 10
47.13063165147523
 20
11.26541314885156
 30
0.0
 41
1.031623359676823
 10
46.96948055539737
 20
11.15382951964244
 30
0.0
 41
0.8827621520838586
 10
46.93208975838289
 20
10.96141717499377
 30
0.0
 41
0.8805781363477689
  0
POLYLINE
  5
59
330
1F
100
AcDbEntity
  8
DEFAULT
100
AcDb2dPolyline
 66
     1
 10
0.0
 20
0.0
 30
0.0
  0
VERTEX
  5
5A
330
59
100
AcDbEntity
  8
DEFAULT
100
AcDbVertex
100
AcDb2dVertex
 10
35.14051805184512
 20
12.51437990372608
 30
0.0
  0
VERTEX
  5
5B
330
59
100
AcDbEntity
  8
DEFAULT
100
AcDbVertex
100
AcDb2dVertex
 10
33.80336002154354
 20
12.81215795604573
 30
0.0
  0
SEQEND
  5
5C
330
59
100
AcDbEntity
  8
DEFAULT
  0
SPLINE
  5
5D
330
1F
100
AcDbEntity
  8
DEFAULT
100
AcDbSpline
210
0.0
220
0.0
230
1.0
 70
    12
 71
     3
 72
    13
 73
     9
 74
     0
 42
0.0000000001
 43
0.0000000001
 40
-2.658415923453003
 40
-2.658415923453003
 40
-2.658415923453003
 40
-2.658415923453003
 40
0.0
 40
0.0
 40
0.0
 40
0.185091838654331
 40
0.370183677308662
 40
0.555275515962993
 40
0.555275515962993
 40
0.555275515962993
 40
0.555275515962993
 10
40.6467589071147
 20
3.201975918211389
 30
0.0
 41
1.0
 10
40.52670038664125
 20
4.079943823662759
 30
0.0
 41
1.0
 10
40.40664186616778
 20
4.95791172911413
 30
0.0
 41
1.0
 10
40.28658334569432
 20
5.835879634565501
 30
0.0
 41
1.0
 10
40.29474937677513
 20
6.029170972736257
 30
0.0
 41
1.0
 10
40.33588929975831
 20
6.166457657607115
 30
0.0
 41
1.0
 10
40.48527654765577
 20
6.324191116235648
 30
0.0
 41
1.0
 10
40.62388379533068
 20
6.37672980190256
 30
0.0
 41
1.0
 10
40.69446920557568
 20
6.38679764508043
 30
0.0
 41
1.0
  0
POLYLINE
  5
5E
330
1F
100
AcDbEntity
  8
DEFAULT
100
AcDb2dPolyline
 66
     1
 10
0.0
 20
0.0
 30
0.0
  0
VERTEX
  5
5F
330
5E
100
AcDbEntity
  8
DEFAULT
100
AcDbVertex
100
AcDb2dVertex
 10
51.84173248743414
 20
14.27956274473064
 30
0.0
  0
VERTEX
  5
60
330
5E
100
AcDbEntity
  8
DEFAULT
100
AcDbVertex
100
AcDb2dVertex
 10
53.0167324874358
 20
13.18156274473126
 30
0.0
  0
SEQEND
  5
61
330
5E
100
AcDbEntity
  8
DEFAULT
  0
SPLINE
  5
62
330
1F
100
AcDbEntity
  8
DEFAULT
100
AcDbSpline
210
0.0
220
0.0
230
1.0
 70
    12
 71
     3
 72
    20
 73
    16
 74
     0
 42
0.0000000001
 43
0.0000000001
 40
-0.1758194138754767
 40
-0.1758194138754767
 40
-0.1758194138754767
 40
-0.1758194138754767
 40
0.9613994551137345
 40
0.9613994551137345
 40
0.9613994551137345
 40
1.197756137209615
 40
1.422469919745043
 40
1.889547449093093
 40
2.290351915810546
 40
2.433607148801389
 40
2.574802708995992
 40
2.946506893489401
 40
2.946506893489401
 40
2.946506893489401
 40
8.305571860294593
 40
8.305571860294593
 40
8.305571860294593
 40
8.305571860294593
 10
48.77133648587913
 20
12.15873522170499
 30
0.0
 41
1.0
 10
48.69827064721367
 20
11.82267657440831
 30
0.0
 41
0.9999947846632189
 10
48.62387610148463
 20
11.48690956773771
 30
0.0
 41
0.9999947846632189
 10
48.54815401266989
 20
11.15143945510725
 30
0.0
 41
1.0
 10
48.53085762689908
 20
11.07496104180013
 30
0.0
 41
1.0
 10
48.49102194358437
 20
10.9250726645988
 30
0.0
 41
1.0
 10
48.35130191075343
 20
10.64846526609205
 30
0.0
 41
1.0
 10
48.10507780543737
 20
10.37102125803492
 30
0.0
 41
1.0
 10
47.8060189945363
 20
10.20785219540976
 30
0.0
 41
1.0
 10
47.58860075622039
 20
10.13718478475093
 30
0.0
 41
1.0
 10
47.37985364792176
 20
10.07213431553461
 30
0.0
 41
1.0
 10
47.21212196876557
 20
10.03693752902683
 30
0.0
 41
1.0
 10
47.09183655954526
 20
10.00770619062449
 30
0.0
 41
1.0
 10
45.35587422065491
 20
9.585838709682667
 30
0.0
 41
0.9998517151940094
 10
43.61140065338186
 20
9.200677202504586
 30
0.0
 41
0.9998517151940094
 10
41.8591918945007
 20
8.852393009888642
 30
0.0
 41
1.0
  0
SPLINE
  5
63
330
1F
100
AcDbEntity
  8
DEFAULT
100
AcDbSpline
210
0.0
220
0.0
230
1.0
 70
    15
 71
     3
 72
    31
 73
    27
 74
     0
 42
0.0000000001
 43
0.0000000001
 40
-0.854447274395706
 40
-0.854447274395706
 40
-0.854447274395706
 40
-0.854447274395706
 40
-0.0000000000000001
 40
-0.0000000000000001
 40
-0.0000000000000001
 40
0.0543222374982162
 40
0.1126995884209266
 40
0.2325270174696271
 40
0.3512942629480499
 40
0.4612001066445568
 40
0.4612001066445568
 40
0.4612001066445568
 40
1.086939415928846
 40
1.086939415928846
 40
1.086939415928846
 40
2.503538939193923
 40
2.503538939193923
 40
2.503538939193923
 40
3.129282221503468
 40
3.129282221503468
 40
3.129282221503468
 40
3.182060624957885
 40
3.239188065200628
 40
3.357955310679622
 40
3.477782739728661
 40
3.590482328149671
 40
3.590482328149671
 40
3.590482328149671
 40
3.590482328149671
 10
40.92169975606831
 20
3.687283913658892
 30
0.0
 41
1.0
 10
41.1968612183161
 20
3.778041327441638
 30
0.0
 41
0.9664504998669835
 10
41.48660375655112
 20
3.778041327440518
 30
0.0
 41
0.9664504998669835
 10
41.76176521879822
 20
3.687283913655645
 30
0.0
 41
1.0
 10
41.77896162503643
 20
3.681611966196765
 30
0.0
 41
1.0
 10
41.81358519544438
 20
3.666697760115359
 30
0.0
 41
1.0
 10
41.87905930776433
 20
3.624780078703377
 30
0.0
 41
1.0
 10
41.95013742775434
 20
3.554619168195543
 30
0.0
 41
1.0
 10
42.00933431028469
 20
3.453465073285124
 30
0.0
 41
1.0
 10
42.02811051740419
 20
3.378646572726644
 30
0.0
 41
1.0
 10
42.02973047422304
 20
3.341958404068379
 30
0.0
 41
1.0
 10
42.03893150551256
 20
3.133576931271099
 30
0.0
 41
0.9999545638136501
 10
42.04569907128658
 20
2.925102239196863
 30
0.0
 41
0.9999545638136501
 10
42.05003224906796
 20
2.716562744730542
 30
0.0
 41
1.0
 10
41.5778324079796
 20
2.716562744730544
 30
0.0
 41
1.0
 10
41.10563256689124
 20
2.716562744730544
 30
0.0
 41
1.0
 10
40.63343272580288
 20
2.716562744730544
 30
0.0
 41
1.0
 10
40.63744665932661
 20
2.925111277501988
 30
0.0
 41
0.9999418656543417
 10
40.64421431104027
 20
3.133588616974981
 30
0.0
 41
0.9999418656543417
 10
40.65373450064486
 20
3.341958404068378
 30
0.0
 41
1.0
 10
40.65453754301768
 20
3.359534710339617
 30
0.0
 41
1.0
 10
40.6596683722486
 20
3.395951616338268
 30
0.0
 41
1.0
 10
40.6831048791108
 20
3.468757041745736
 30
0.0
 41
1.0
 10
40.73333747596251
 20
3.554633414693999
 30
0.0
 41
1.0
 10
40.81737432776897
 20
3.637614345333164
 30
0.0
 41
1.0
 10
40.88593380226156
 20
3.675548714089464
 30
0.0
 41
1.0
 10
40.92169975606831
 20
3.687283913658893
 30
0.0
 41
1.0
  0
SPLINE
  5
64
330
1F
100
AcDbEntity
  8
DEFAULT
100
AcDbSpline
210
0.0
220
0.0
230
1.0
 70
    12
 71
     2
 72
     8
 73
     5
 74
     0
 42
0.0000000001
 43
0.0000000001
 40
-2.20674832544441
 40
-2.20674832544441
 40
-2.20674832544441
 40
0.0
 40
0.0
 40
0.1536272571088088
 40
0.1536272571088088
 40
0.1536272571088088
 10
33.48326381752067
 20
15.87496864305561
 30
0.0
 41
1.0
 10
33.14501771325696
 20
14.82471909370395
 30
0.0
 41
1.0
 10
32.80677160899324
 20
13.7744695443523
 30
0.0
 41
1.0
 10
32.77715636845446
 20
13.68251499966057
 30
0.0
 41
0.7192065300786509
 10
32.8680339198026
 20
13.64974349645125
 30
0.0
 41
1.0
  0
CIRCLE
  5
65
330
1F
100
AcDbEntity
  8
DEFAULT
100
AcDbCircle
 10
40.41655965344017
 20
1.27953035095598
 30
0.0
 40
1.279554851485679
  0
SPLINE
  5
66
330
1F
100
AcDbEntity
  8
DEFAULT
100
AcDbSpline
210
0.0
220
0.0
230
1.0
 70
    12
 71
     2
 72
    12
 73
     9
 74
     0
 42
0.0000000001
 43
0.0000000001
 40
0.0
 40
0.0
 40
0.0
 40
0.4970826400640833
 40
0.4970826400640833
 40
1.385739708916194
 40
1.385739708916194
 40
2.760036660026547
 40
2.760036660026547
 40
2.926202947711666
 40
2.926202947711666
 40
2.926202947711666
 10
41.68873010126187
 20
1.41653792316518
 30
0.0
 41
1.0
 10
41.9281525318799
 20
1.5440482531577
 30
0.0
 41
0.8789786161022684
 10
41.95179516242736
 20
1.814275954473705
 30
0.0
 41
1.0
 10
41.99052094586701
 20
2.25691368467991
 30
0.0
 41
1.0
 10
42.02924672930666
 20
2.699551414886114
 30
0.0
 41
1.0
 10
41.34192867719196
 20
2.699536578864428
 30
0.0
 41
1.0
 10
40.65461062507725
 20
2.699521742842742
 30
0.0
 41
1.0
 10
40.6616822192691
 20
2.616739919217828
 30
0.0
 41
1.0
 10
40.66875381346095
 20
2.533958095592914
 30
0.0
 41
1.0
  0
CIRCLE
  5
67
330
1F
100
AcDbEntity
  8
DEFAULT
100
AcDbCircle
 10
40.41655965344017
 20
1.27953035095598
 30
0.0
 40
1.062500000000002
  0
CIRCLE
  5
68
330
1F
100
AcDbEntity
  8
DEFAULT
100
AcDbCircle
 10
40.41655965344017
 20
1.27953035095598
 30
0.0
 40
0.9999999999999953
  0
SPLINE
  5
69
330
1F
100
AcDbEntity
  8
DEFAULT
100
AcDbSpline
210
0.0
220
0.0
230
1.0
 70
    12
 71
     3
 72
    49
 73
    45
 74
     0
 42
0.0000000001
 43
0.0000000001
 40
-4.887321796800915
 40
-4.887321796800915
 40
-4.887321796800915
 40
-4.887321796800915
 40
-4.832514065108541
 40
-4.832514065108541
 40
-4.832514065108541
 40
-4.76701875362512
 40
-4.670133207364357
 40
-4.454626587447827
 40
-3.961252028394807
 40
-3.349274009170384
 40
-2.855845713667286
 40
-2.469823629994108
 40
-1.906198571864562
 40
-1.245640975404636
 40
-0.6232340434435694
 40
-0.2607732239028427
 40
-0.2607732239028427
 40
-0.2607732239028427
 40
-0.1452591880817432
 40
-0.1452591880817432
 40
-0.1452591880817432
 40
-0.0297451522606437
 40
-0.0297451522606437
 40
-0.0297451522606437
 40
0.2621619400142053
 40
0.7506542399168596
 40
1.216455105467977
 40
1.435154606727614
 40
1.634680332056674
 40
1.634680332056674
 40
1.634680332056674
 40
2.071703240060926
 40
2.281691625883207
 40
2.400137315136839
 40
2.547362697743056
 40
2.547362697743056
 40
2.547362697743056
 40
3.369522558120798
 40
3.764239376833442
 40
3.980206996263225
 40
4.22368126019705
 40
4.22368126019705
 40
4.22368126019705
 40
4.737521851545522
 40
4.737521851545522
 40
4.737521851545522
 40
4.737521851545522
 10
33.70170415604083
 20
12.85452040123875
 30
0.0
 41
1.0
 10
33.71443760911041
 20
12.84109610535199
 30
0.0
 41
0.975010751598314
 10
33.73033476037086
 20
12.83162862791958
 30
0.0
 41
0.975010751598314
 10
33.74820383623698
 20
12.82682772437742
 30
0.0
 41
1.0
 10
33.76939983226794
 20
12.8215929170835
 30
0.0
 41
1.0
 10
33.82251061285531
 20
12.81104167952759
 30
0.0
 41
1.0
 10
33.94673993957348
 20
12.79025538355528
 30
0.0
 41
1.0
 10
34.2133637649908
 20
12.75679439465233
 30
0.0
 41
1.0
 10
34.65305914852426
 20
12.73022230598322
 30
0.0
 41
1.0
 10
35.18600083018515
 20
12.72303959333506
 30
0.0
 41
1.0
 10
35.68312632519407
 20
12.7247255225766
 30
0.0
 41
1.0
 10
36.16417028344699
 20
12.72887397121768
 30
0.0
 41
1.0
 10
36.7004820324175
 20
12.7522512662223
 30
0.0
 41
1.0
 10
37.31447938658009
 20
12.79627816161751
 30
0.0
 41
1.0
 10
37.86037090673114
 20
12.85001470480899
 30
0.0
 41
1.0
 10
38.18630811211131
 20
12.88932528649947
 30
0.0
 41
1.0
 10
38.30614478571609
 20
12.90471177068363
 30
0.0
 41
1.0
 10
38.34662525032906
 20
12.90990927833968
 30
0.0
 41
0.891861186245528
 10
38.37770166429507
 20
12.9363656310008
 30
0.0
 41
0.891861186245528
 10
38.38929232798804
 20
12.97549795288786
 30
0.0
 41
1.0
 10
38.40088299168102
 20
13.01463027477492
 30
0.0
 41
0.891861186245528
 10
38.3892277032338
 20
13.05374339728296
 30
0.0
 41
0.891861186245528
 10
38.35810762984634
 20
13.08014838040121
 30
0.0
 41
1.0
 10
38.28391795134979
 20
13.14309737103682
 30
0.0
 41
1.0
 10
38.08912748540834
 20
13.3155653080962
 30
0.0
 41
1.0
 10
37.78908010246442
 20
13.60305306606619
 30
0.0
 41
1.0
 10
37.52283378648554
 20
13.88963962601595
 30
0.0
 41
1.0
 10
37.33193561673377
 20
14.11416013778292
 30
0.0
 41
1.0
 10
37.24203103506623
 20
14.22830436140949
 30
0.0
 41
1.0
 10
37.20204731242794
 20
14.28145158304517
 30
0.0
 41
1.0
 10
37.11458194384581
 20
14.39771242677733
 30
0.0
 41
1.0
 10
37.00529855060025
 20
14.58660144325633
 30
0.0
 41
1.0
 10
36.93444715673072
 20
14.83264826243141
 30
0.0
 41
1.0
 10
36.90457266716829
 20
14.98825018477162
 30
0.0
 41
1.0
 10
36.89169553705137
 20
15.07598959996278
 30
0.0
 41
1.0
 10
36.88487917587358
 20
15.12454976910086
 30
0.0
 41
1.0
 10
36.88976897409913
 20
15.40524700931339
 30
0.0
 41
1.0
 10
36.91373721923843
 20
15.81053230361859
 30
0.0
 41
1.0
 10
36.97280121906962
 20
16.28459244275144
 30
0.0
 41
1.0
 10
37.01644868376187
 20
16.56595413958874
 30
0.0
 41
1.0
 10
37.04217414820619
 20
16.71693025190091
 30
0.0
 41
1.0
 10
37.05626532739337
 20
16.79685512003106
 30
0.0
 41
1.0
 10
37.08601174145488
 20
16.96557614682602
 30
0.0
 41
0.9994982562242228
 10
37.12228045826191
 20
17.13301632782639
 30
0.0
 41
0.9994982562242228
 10
37.16501688500573
 20
17.29892362682627
 30
0.0
 41
1.0
  0
SPLINE
  5
6A
330
1F
100
AcDbEntity
  8
DEFAULT
100
AcDbSpline
210
0.0
220
0.0
230
1.0
 70
    12
 71
     3
 72
    15
 73
    11
 74
     0
 42
0.0000000001
 43
0.0000000001
 40
0.0
 40
0.0
 40
0.0
 40
0.0
 40
5.00139753095318
 40
5.00139753095318
 40
5.00139753095318
 40
5.501052638785465
 40
5.501052638785465
 40
6.001200536893763
 40
6.001200536893763
 40
7.001394948928373
 40
7.001394948928373
 40
7.001394948928373
 40
7.001394948928373
 10
39.53620925838412
 20
4.576582915507047
 30
0.0
 41
1.0
 10
37.9524640271023
 20
4.055927703922279
 30
0.0
 41
1.0
 10
36.36871879582048
 20
3.535272492337511
 30
0.0
 41
1.0
 10
34.78497356453866
 20
3.014617280752742
 30
0.0
 41
1.0
 10
34.76286457839664
 20
3.00734896563795
 30
0.0
 41
1.0
 10
34.74529611767341
 20
3.001234281153882
 30
0.0
 41
1.0
 10
34.71931053986081
 20
2.988486563907164
 30
0.0
 41
1.0
 10
34.71106392568416
 20
2.975125783396929
 30
0.0
 41
1.0
 10
34.70031297446911
 20
2.921836766168096
 30
0.0
 41
1.0
 10
34.71180122662575
 20
2.869172835405831
 30
0.0
 41
1.0
 10
34.74171991656938
 20
2.813383385984979
 30
0.0
 41
1.0
  0
SPLINE
  5
6B
330
1F
100
AcDbEntity
  8
DEFAULT
100
AcDbSpline
210
0.0
220
0.0
230
1.0
 70
    12
 71
     5
 72
    32
 73
    26
 74
     0
 42
0.0000000001
 43
0.0000000001
 40
-0.185062415177105
 40
-0.185062415177105
 40
-0.185062415177105
 40
-0.185062415177105
 40
-0.185062415177105
 40
-0.185062415177105
 40
0.0
 40
0.0
 40
0.0
 40
0.0
 40
0.0
 40
1.0
 40
1.0
 40
1.0
 40
1.0
 40
1.0
 40
1.56307275402013
 40
1.56307275402013
 40
1.56307275402013
 40
1.56307275402013
 40
1.56307275402013
 40
1.853833905128213
 40
1.853833905128213
 40
1.853833905128213
 40
1.853833905128213
 40
1.853833905128213
 40
3.558624363062016
 40
3.558624363062016
 40
3.558624363062016
 40
3.558624363062016
 40
3.558624363062016
 40
3.558624363062016
 10
33.58164289718435
 20
2.716562744730595
 30
0.0
 41
1.0
 10
33.58272513460969
 20
2.753559402182273
 30
0.0
 41
1.0
 10
33.58380737203503
 20
2.790556059633951
 30
0.0
 41
1.0
 10
33.58488960946037
 20
2.827552717085629
 30
0.0
 41
1.0
 10
33.58597184688571
 20
2.864549374537307
 30
0.0
 41
1.0
 10
33.58705408431105
 20
2.901546031988985
 30
0.0
 41
1.0
 10
33.58936215274481
 20
2.980448142763962
 30
0.0
 41
1.0
 10
33.59167022117857
 20
3.059350253538938
 30
0.0
 41
1.0
 10
33.63093622302882
 20
3.199429904276768
 30
0.0
 41
1.0
 10
33.70625740571097
 20
3.223165135791502
 30
0.0
 41
1.0
 10
33.78223059314281
 20
3.244588138757648
 30
0.0
 41
1.0
 10
33.8906456538224
 20
3.275159136829792
 30
0.0
 41
0.998492705285086
 10
34.00034680583359
 20
3.30101364896267
 30
0.0
 41
0.9977390579276291
 10
34.11108837354606
 20
3.322082399271784
 30
0.0
 41
0.9977390579276291
 10
34.22261959872364
 20
3.33831768062444
 30
0.0
 41
0.998492705285086
 10
34.33468653035716
 20
3.349693714183291
 30
0.0
 41
1.0
 10
34.39263116760885
 20
3.355209711984692
 30
0.0
 41
0.9943963830036286
 10
34.4500349048376
 20
3.365564337173482
 30
0.0
 41
0.9915945745054431
 10
34.50640656415302
 20
3.380710832425915
 30
0.0
 41
0.991594574505443
 10
34.56126964766102
 20
3.400521167572607
 30
0.0
 41
0.9943963830036285
 10
34.61417568802233
 20
3.424789626758711
 30
0.0
 41
1.0
 10
34.92377592884024
 20
3.567618590984065
 30
0.0
 41
0.999999950511523
 10
35.23341168994827
 20
3.710370550319513
 30
0.0
 41
0.9999999257672846
 10
35.54308294836396
 20
3.853045494162475
 30
0.0
 41
0.9999999257672846
 10
35.85278968109959
 20
3.995643411921804
 30
0.0
 41
0.999999950511523
 10
36.16253186516214
 20
4.13816429301778
 30
0.0
 41
1.0
  0
SPLINE
  5
6C
330
1F
100
AcDbEntity
  8
DEFAULT
100
AcDbSpline
210
0.0
220
0.0
230
1.0
 70
     8
 71
     3
 72
    22
 73
    18
 74
     0
 42
0.0000000001
 43
0.0000000001
 40
0.0
 40
0.0
 40
0.0
 40
0.0
 40
0.3202183661464366
 40
0.3202183661464366
 40
0.3202183661464366
 40
1.723872493180957
 40
1.723872493180957
 40
1.723872493180957
 40
2.289752770129075
 40
2.289752770129075
 40
2.289752770129075
 40
2.35342426302997
 40
2.414323705652462
 40
2.534436548192115
 40
2.645573117834322
 40
2.698346933902606
 40
2.761855197621083
 40
2.761855197621083
 40
2.761855197621083
 40
2.761855197621083
 10
34.85179961070013
 20
3.036586299832542
 30
0.0
 10
34.85552280755147
 20
2.92991179894089
 30
0.0
 10
34.85924600440281
 20
2.823237298049237
 30
0.0
 10
34.86296920125416
 20
2.716562797157585
 30
0.0
 10
34.39508449235159
 20
2.716572894051713
 30
0.0
 10
33.92719978344903
 20
2.716582990945842
 30
0.0
 10
33.45931507454647
 20
2.716593087839971
 30
0.0
 10
33.46594209290993
 20
2.905416018782233
 30
0.0
 10
33.47256911127337
 20
3.094238949724496
 30
0.0
 10
33.47919612963682
 20
3.283061880666758
 30
0.0
 10
33.48206998904525
 20
3.305030062342398
 30
0.0
 10
33.49020191551075
 20
3.345878493675757
 30
0.0
 10
33.51611142561897
 20
3.423303985026668
 30
0.0
 10
33.56282433788439
 20
3.5096437192243
 30
0.0
 10
33.62867221538142
 20
3.578906253502736
 30
0.0
 10
33.69178027188709
 20
3.621340046519041
 30
0.0
 10
33.72676152569396
 20
3.638171423216867
 30
0.0
 10
33.74592001180267
 20
3.647161297231939
 30
0.0
  0
SPLINE
  5
6D
330
1F
100
AcDbEntity
  8
DEFAULT
100
AcDbSpline
210
0.0
220
0.0
230
1.0
 70
    12
 71
     3
 72
    20
 73
    16
 74
     0
 42
0.0000000001
 43
0.0000000001
 40
0.0
 40
0.0
 40
0.0
 40
0.0
 40
0.1849909913328722
 40
0.1849909913328722
 40
0.1849909913328722
 40
0.5342965175807226
 40
0.5342965175807226
 40
0.5342965175807226
 40
10.3552779996256
 40
10.3552779996256
 40
10.3552779996256
 40
11.3552779996256
 40
11.3552779996256
 40
11.3552779996256
 40
12.3552779996256
 40
12.3552779996256
 40
12.3552779996256
 40
12.3552779996256
 10
29.93169686320427
 20
2.716562744730538
 30
0.0
 41
1.0
 10
29.93113444349765
 20
2.7782238436065
 30
0.0
 41
0.9999999999897313
 10
29.93057168155084
 20
2.839884939359911
 30
0.0
 41
0.9999999999897313
 10
29.93000857736386
 20
2.90154603198887
 30
0.0
 41
1.0
 10
29.92772464651345
 20
3.022719592558468
 30
0.0
 41
0.9238680135740763
 10
29.98193374282283
 20
3.13111526589723
 30
0.0
 41
0.9238680135740763
 10
30.08025472773884
 20
3.20197591821139
 30
0.0
 41
1.0
 10
33.23398651606729
 20
4.079944503845821
 30
0.0
 41
1.0
 10
36.38771830439574
 20
4.957913089480253
 30
0.0
 41
1.0
 10
39.54145009272418
 20
5.835881675114685
 30
0.0
 41
1.0
 10
39.71063484813703
 20
5.881241200193054
 30
0.0
 41
1.0
 10
39.89738484250216
 20
5.912232899078385
 30
0.0
 41
1.0
 10
40.0468856837322
 20
5.912719747405506
 30
0.0
 41
1.0
 10
40.19635422098605
 20
5.912235028203293
 30
0.0
 41
1.0
 10
40.28005795066269
 20
5.881178813460137
 30
0.0
 41
1.0
 10
40.28658334569432
 20
5.835879634565501
 30
0.0
 41
1.0
  0
SPLINE
  5
6E
330
1F
100
AcDbEntity
  8
DEFAULT
100
AcDbSpline
210
0.0
220
0.0
230
1.0
 70
    12
 71
     3
 72
    15
 73
    11
 74
     0
 42
0.0000000001
 43
0.0000000001
 40
3.0
 40
3.0
 40
3.0
 40
3.0
 40
4.000172717818701
 40
4.000172717818701
 40
4.500276249612895
 40
4.500276249612895
 40
4.999997417975155
 40
4.999997417975155
 40
4.999997417975155
 40
10.0809888002999
 40
10.0809888002999
 40
10.0809888002999
 40
10.0809888002999
 10
34.34439793893868
 20
2.813383323257317
 30
0.0
 41
1.0
 10
34.39310223771604
 20
2.869171571989016
 30
0.0
 41
1.0
 10
34.44044923501838
 20
2.921834418813095
 30
0.0
 41
1.0
 10
34.51002889794136
 20
2.975122252355072
 30
0.0
 41
1.0
 10
34.53297908153606
 20
2.988482737633239
 30
0.0
 41
1.0
 10
34.57858572697469
 20
3.001234428512209
 30
0.0
 41
1.0
 10
34.60105825574591
 20
3.007347998992374
 30
0.0
 41
1.0
 10
34.62317016566179
 20
3.014617280752721
 30
0.0
 41
1.0
 10
36.23211962871572
 20
3.543558367086167
 30
0.0
 41
1.0
 10
37.84106909176965
 20
4.072499453419614
 30
0.0
 41
1.0
 10
39.45001855482359
 20
4.601440539753059
 30
0.0
 41
1.0
  0
SPLINE
  5
6F
330
1F
100
AcDbEntity
  8
DEFAULT
100
AcDbSpline
210
0.0
220
0.0
230
1.0
 70
    12
 71
     3
 72
    20
 73
    16
 74
     0
 42
0.0000000001
 43
0.0000000001
 40
0.0
 40
0.0
 40
0.0
 40
0.0
 40
0.1849909913328722
 40
0.1849909913328722
 40
0.1849909913328722
 40
0.5342965175807226
 40
0.5342965175807226
 40
0.5342965175807226
 40
10.3552779996256
 40
10.3552779996256
 40
10.3552779996256
 40
11.3552779996256
 40
11.3552779996256
 40
11.3552779996256
 40
12.3552779996256
 40
12.3552779996256
 40
12.3552779996256
 40
12.3552779996256
 10
52.75176811166581
 20
2.716562744730538
 30
0.0
 41
1.0
 10
52.75233053137242
 20
2.7782238436065
 30
0.0
 41
0.9999999999897313
 10
52.75289329331924
 20
2.839884939359911
 30
0.0
 41
0.9999999999897313
 10
52.75345639750621
 20
2.90154603198887
 30
0.0
 41
1.0
 10
52.75574032835663
 20
3.022719592558467
 30
0.0
 41
0.9238680135740763
 10
52.70153123204724
 20
3.131115265897229
 30
0.0
 41
0.9238680135740763
 10
52.60321024713124
 20
3.20197591821139
 30
0.0
 41
1.0
 10
49.44947845880279
 20
4.07994450384582
 30
0.0
 41
1.0
 10
46.29574667047434
 20
4.957913089480253
 30
0.0
 41
1.0
 10
43.14201488214589
 20
5.835881675114685
 30
0.0
 41
1.0
 10
42.97283012673304
 20
5.881241200193054
 30
0.0
 41
1.0
 10
42.78608013236791
 20
5.912232899078385
 30
0.0
 41
1.0
 10
42.63657929113788
 20
5.912719747405506
 30
0.0
 41
1.0
 10
42.48711075388402
 20
5.912235028203293
 30
0.0
 41
1.0
 10
42.40340702420739
 20
5.881178813460137
 30
0.0
 41
1.0
 10
42.39688162917575
 20
5.835879634565501
 30
0.0
 41
1.0
  0
SPLINE
  5
70
330
1F
100
AcDbEntity
  8
DEFAULT
100
AcDbSpline
210
0.0
220
0.0
230
1.0
 70
     8
 71
     3
 72
    22
 73
    18
 74
     0
 42
0.0000000001
 43
0.0000000001
 40
0.0
 40
0.0
 40
0.0
 40
0.0
 40
0.3202183661464366
 40
0.3202183661464366
 40
0.3202183661464366
 40
1.723872493180957
 40
1.723872493180957
 40
1.723872493180957
 40
2.289752770129075
 40
2.289752770129075
 40
2.289752770129075
 40
2.35342426302997
 40
2.414323705652462
 40
2.534436548192115
 40
2.645573117834322
 40
2.698346933902606
 40
2.761855197621083
 40
2.761855197621083
 40
2.761855197621083
 40
2.761855197621083
 10
47.83166536416995
 20
3.036586299832542
 30
0.0
 10
47.82794216731861
 20
2.92991179894089
 30
0.0
 10
47.82421897046726
 20
2.823237298049237
 30
0.0
 10
47.82049577361592
 20
2.716562797157585
 30
0.0
 10
48.28838048251848
 20
2.716572894051713
 30
0.0
 10
48.75626519142105
 20
2.716582990945842
 30
0.0
 10
49.2241499003236
 20
2.716593087839971
 30
0.0
 10
49.21752288196015
 20
2.905416018782233
 30
0.0
 10
49.2108958635967
 20
3.094238949724496
 30
0.0
 10
49.20426884523326
 20
3.283061880666758
 30
0.0
 10
49.20139498582483
 20
3.305030062342398
 30
0.0
 10
49.19326305935933
 20
3.345878493675757
 30
0.0
 10
49.1673535492511
 20
3.423303985026668
 30
0.0
 10
49.12064063698568
 20
3.5096437192243
 30
0.0
 10
49.05479275948866
 20
3.578906253502736
 30
0.0
 10
48.99168470298299
 20
3.621340046519041
 30
0.0
 10
48.95670344917612
 20
3.638171423216867
 30
0.0
 10
48.9375449630674
 20
3.647161297231939
 30
0.0
  0
SPLINE
  5
71
330
1F
100
AcDbEntity
  8
DEFAULT
100
AcDbSpline
210
0.0
220
0.0
230
1.0
 70
    12
 71
     3
 72
   108
 73
   104
 74
     0
 42
0.0000000001
 43
0.0000000001
 40
0.1213318024929776
 40
0.1213318024929776
 40
0.1213318024929776
 40
0.1213318024929776
 40
0.2242720703707105
 40
0.2242720703707105
 40
0.2242720703707105
 40
0.7031755076922522
 40
0.7031755076922522
 40
0.7031755076922522
 40
1.032633297472306
 40
1.395233297381388
 40
1.733419944095147
 40
1.877961159445834
 40
2.0
 40
2.0
 40
2.0
 40
3.0
 40
3.0
 40
3.0
 40
3.251035025531873
 40
3.251035025531873
 40
3.251035025531873
 40
3.347933659604971
 40
3.347933659604971
 40
3.347933659604971
 40
4.743364650118927
 40
4.743364650118927
 40
4.743364650118927
 40
5.307463692559235
 40
5.307463692559235
 40
5.307463692559235
 40
5.80356746747143
 40
5.80356746747143
 40
5.80356746747143
 40
6.186734095126335
 40
6.186734095126335
 40
6.186734095126335
 40
8.870896311656873
 40
12.09485027082705
 40
14.31598562428304
 40
15.03542509440928
 40
15.73520892818658
 40
15.94467708400092
 40
16.4532387664019
 40
16.4532387664019
 40
16.4532387664019
 40
16.74898837287802
 40
16.86898837287682
 40
16.98898837287561
 40
17.08898837287381
 40
17.20898837286417
 40
17.20898837286417
 40
17.20898837286417
 40
19.25500675940397
 40
19.25500675940397
 40
19.25500675940397
 40
19.37500675939432
 40
19.47500675939252
 40
19.59500675939131
 40
19.71500675939011
 40
20.01075636586623
 40
20.01075636586623
 40
20.01075636586623
 40
20.51931804826721
 40
20.72878620408155
 40
21.42857003785885
 40
22.14800950798509
 40
24.36914486144108
 40
27.59309882061126
 40
30.2772610371418
 40
30.2772610371418
 40
30.2772610371418
 40
30.6604276647967
 40
30.6604276647967
 40
30.6604276647967
 40
31.1565314397089
 40
31.1565314397089
 40
31.1565314397089
 40
31.7206304821492
 40
31.7206304821492
 40
31.7206304821492
 40
33.11606147266316
 40
33.11606147266316
 40
33.11606147266316
 40
33.21296010673626
 40
33.21296010673626
 40
33.21296010673626
 40
33.46399513226813
 40
33.46399513226813
 40
33.46399513226813
 40
34.46399513226813
 40
34.46399513226813
 40
34.46399513226813
 40
34.5860339728223
 40
34.73057518817298
 40
35.06876183488674
 40
35.43136183479582
 40
35.76081962457588
 40
35.76081962457588
 40
35.76081962457588
 40
36.23972306189742
 40
36.23972306189742
 40
36.23972306189742
 40
36.34266332977516
 40
36.34266332977516
 40
36.34266332977516
 40
36.34266332977516
 10
42.16475199350188
 20
4.138354384195639
 30
0.0
 41
1.0
 10
42.19906354793532
 20
4.138704591688074
 30
0.0
 41
1.0
 10
42.23337510236875
 20
4.139054799180511
 30
0.0
 41
1.0
 10
42.26768665680218
 20
4.139405006672946
 30
0.0
 41
1.0
 10
42.39420291322771
 20
4.236994408886467
 30
0.0
 41
0.9981639391956412
 10
42.5276085491582
 20
4.324931834743167
 30
0.0
 41
0.9981639391956412
 10
42.66716874201602
 20
4.402732908860491
 30
0.0
 41
1.0
 10
42.76313355797297
 20
4.456230726583692
 30
0.0
 41
1.0
 10
42.97536796778434
 20
4.548335833612327
 30
0.0
 41
1.0
 10
43.30644801368294
 20
4.641863132769406
 30
0.0
 41
1.0
 10
43.58601816924421
 20
4.682887499364116
 30
0.0
 41
1.0
 10
43.78793113839706
 20
4.685112613528441
 30
0.0
 41
1.0
 10
43.87643312535945
 20
4.675350833902328
 30
0.0
 41
1.0
 10
43.91634164506029
 20
4.667360690088492
 30
0.0
 41
1.0
 10
46.65445510274649
 20
4.110943141646517
 30
0.0
 41
1.0
 10
49.39256856043269
 20
3.554525593204541
 30
0.0
 41
1.0
 10
52.13068201811888
 20
2.998108044762565
 30
0.0
 41
1.0
 10
52.22115680874452
 20
2.979722480404594
 30
0.0
 41
0.8260964046306843
 10
52.27564722483059
 20
2.905193886762406
 30
0.0
 41
0.8260964046306843
 10
52.26572502856546
 20
2.81340463501259
 30
0.0
 41
1.0
 10
52.26459838272805
 20
2.781124745663258
 30
0.0
 41
1.0
 10
52.26347173689064
 20
2.748844856313926
 30
0.0
 41
1.0
 10
52.26234509105324
 20
2.716564966964595
 30
0.0
 41
1.0
 10
52.72748875453477
 20
2.716569604942482
 30
0.0
 41
1.0
 10
53.1926324180163
 20
2.716574242920368
 30
0.0
 41
1.0
 10
53.65777608149783
 20
2.716578880898255
 30
0.0
 41
1.0
 10
53.6512138239407
 20
2.904497350413289
 30
0.0
 41
1.0
 10
53.64465156638357
 20
3.092415819928325
 30
0.0
 41
1.0
 10
53.63808930882646
 20
3.280334289443359
 30
0.0
 41
1.0
 10
53.6324475267842
 20
3.457596352164302
 30
0.0
 41
0.8719083950469132
 10
53.52341664462134
 20
3.597474639684162
 30
0.0
 41
0.8719083950469132
 10
53.352894484395
 20
3.646217448963414
 30
0.0
 41
1.0
 10
53.2300907441545
 20
3.681320213796336
 30
0.0
 41
0.9999999996905915
 10
53.10728807337723
 20
3.71642672006812
 30
0.0
 41
0.9999999996905915
 10
52.98448647223972
 20
3.751536967727588
 30
0.0
 41
1.0
 10
52.12423736581452
 20
3.997491083122072
 30
0.0
 41
1.0
 10
50.23073684952013
 20
4.53888065377226
 30
0.0
 41
1.0
 10
47.62589155257152
 20
5.285532485966882
 30
0.0
 41
1.0
 10
45.65030351940742
 20
5.850746363747767
 30
0.0
 41
1.0
 10
44.48380621952099
 20
6.185006346182763
 30
0.0
 41
1.0
 10
43.96297728915186
 20
6.338296608548474
 30
0.0
 41
1.0
 10
43.50899967741947
 20
6.469544814222418
 30
0.0
 41
1.0
 10
43.27875251308681
 20
6.53520825747612
 30
0.0
 41
1.0
 10
43.1127306282329
 20
6.572839225285581
 30
0.0
 41
1.0
 10
43.01587274944437
 20
6.594516192375677
 30
0.0
 41
1.0
 10
42.88011271520451
 20
6.622590647619901
 30
0.0
 41
1.0
 10
42.70390785659075
 20
6.651431207823748
 30
0.0
 41
1.0
 10
42.5912764163333
 20
6.664846086033556
 30
0.0
 41
1.0
 10
42.47805985156246
 20
6.671224271031001
 30
0.0
 41
1.0
 10
42.40478782556994
 20
6.67235591445858
 30
0.0
 41
1.0
 10
42.36474168070494
 20
6.67271696014047
 30
0.0
 41
1.0
 10
41.68273555185834
 20
6.67271696014047
 30
0.0
 41
1.0
 10
41.00072942301174
 20
6.67271696014047
 30
0.0
 41
1.0
 10
40.31872329416514
 20
6.67271696014047
 30
0.0
 41
1.0
 10
40.27867714930014
 20
6.67235591445858
 30
0.0
 41
1.0
 10
40.20540512330762
 20
6.671224271031001
 30
0.0
 41
1.0
 10
40.09218855853678
 20
6.664846086033556
 30
0.0
 41
1.0
 10
39.97955711827932
 20
6.651431207823748
 30
0.0
 41
1.0
 10
39.80335225966557
 20
6.622590647619901
 30
0.0
 41
1.0
 10
39.66759222542571
 20
6.594516192375677
 30
0.0
 41
1.0
 10
39.57073434663718
 20
6.572839225285581
 30
0.0
 41
1.0
 10
39.40471246178326
 20
6.53520825747612
 30
0.0
 41
1.0
 10
39.17446529745061
 20
6.469544814222418
 30
0.0
 41
1.0
 10
38.72048768571822
 20
6.338296608548474
 30
0.0
 41
1.0
 10
38.19965875534909
 20
6.185006346182763
 30
0.0
 41
1.0
 10
37.03316145546266
 20
5.850746363747767
 30
0.0
 41
1.0
 10
35.05757342229856
 20
5.285532485966882
 30
0.0
 41
1.0
 10
32.45272812534995
 20
4.53888065377226
 30
0.0
 41
1.0
 10
30.55922760905555
 20
3.997491083122072
 30
0.0
 41
1.0
 10
29.69897850269301
 20
3.751536967745778
 30
0.0
 41
1.0
 10
29.57617690149258
 20
3.71642672006812
 30
0.0
 41
0.9999999996905915
 10
29.45337423071531
 20
3.681320213796335
 30
0.0
 41
0.9999999996905915
 10
29.33057049041227
 20
3.64621744894482
 30
0.0
 41
1.0
 10
29.16004833024872
 20
3.597474639684162
 30
0.0
 41
0.8719083950469132
 10
29.05101744808588
 20
3.457596352164302
 30
0.0
 41
0.8719083950469132
 10
29.04537566604362
 20
3.280334289443359
 30
0.0
 41
1.0
 10
29.03881340848649
 20
3.092415819928325
 30
0.0
 41
1.0
 10
29.03225115092937
 20
2.904497350413289
 30
0.0
 41
1.0
 10
29.02568889337225
 20
2.716578880898255
 30
0.0
 41
1.0
 10
29.49083255685377
 20
2.716574242920368
 30
0.0
 41
1.0
 10
29.95597622033531
 20
2.716569604942482
 30
0.0
 41
1.0
 10
30.42111988381684
 20
2.716564966964595
 30
0.0
 41
1.0
 10
30.41999323797943
 20
2.748844856313926
 30
0.0
 41
1.0
 10
30.41886659214202
 20
2.781124745663258
 30
0.0
 41
1.0
 10
30.41773994630461
 20
2.81340463501259
 30
0.0
 41
1.0
 10
30.4078177500395
 20
2.905193886762406
 30
0.0
 41
0.8260964046306843
 10
30.46230816612556
 20
2.979722480404595
 30
0.0
 41
0.8260964046306843
 10
30.55278295675119
 20
2.998108044762568
 30
0.0
 41
1.0
 10
33.29089641443739
 20
3.554525593204541
 30
0.0
 41
1.0
 10
36.02900987212359
 20
4.110943141646517
 30
0.0
 41
1.0
 10
38.76712332980979
 20
4.667360690088492
 30
0.0
 41
1.0
 10
38.80703184951063
 20
4.675350833902328
 30
0.0
 41
1.0
 10
38.89553383647302
 20
4.685112613528441
 30
0.0
 41
1.0
 10
39.09744680562587
 20
4.682887499364116
 30
0.0
 41
1.0
 10
39.37701696118714
 20
4.641863132769406
 30
0.0
 41
1.0
 10
39.70809700708573
 20
4.548335833612327
 30
0.0
 41
1.0
 10
39.92033141689711
 20
4.456230726583692
 30
0.0
 41
1.0
 10
40.01629623285407
 20
4.402732908860488
 30
0.0
 41
1.0
 10
40.15585642571188
 20
4.324931834743168
 30
0.0
 41
0.9981639391956412
 10
40.28926206164237
 20
4.236994408886469
 30
0.0
 41
0.9981639391956412
 10
40.41577831806789
 20
4.13940500667295
 30
0.0
 41
1.0
 10
40.45008987250133
 20
4.13905479918051
 30
0.0
 41
1.0
 10
40.48440142693477
 20
4.138704591688074
 30
0.0
 41
1.0
 10
40.5187129813682
 20
4.138354384195639
 30
0.0
 41
1.0
  0
SPLINE
  5
72
330
1F
100
AcDbEntity
  8
DEFAULT
100
AcDbSpline
210
0.0
220
0.0
230
1.0
 70
    12
 71
     2
 72
    12
 73
     9
 74
     0
 42
0.0000000001
 43
0.0000000001
 40
0.0
 40
0.0
 40
0.0
 40
0.4970826400640833
 40
0.4970826400640833
 40
1.385739708916194
 40
1.385739708916194
 40
2.760036660026547
 40
2.760036660026547
 40
2.926202947711666
 40
2.926202947711666
 40
2.926202947711666
 10
30.08132334798675
 20
1.416562442923696
 30
0.0
 41
1.0
 10
30.32074577860479
 20
1.544072772916216
 30
0.0
 41
0.8789786161022684
 10
30.34438840915224
 20
1.814300474232221
 30
0.0
 41
1.0
 10
30.3831141925919
 20
2.256938204438426
 30
0.0
 41
1.0
 10
30.42183997603155
 20
2.69957593464463
 30
0.0
 41
1.0
 10
29.73452192391684
 20
2.699561098622944
 30
0.0
 41
1.0
 10
29.04720387180214
 20
2.699546262601258
 30
0.0
 41
1.0
 10
29.05427546599399
 20
2.616764438976344
 30
0.0
 41
1.0
 10
29.06134706018584
 20
2.53398261535143
 30
0.0
 41
1.0
  0
CIRCLE
  5
73
330
1F
100
AcDbEntity
  8
DEFAULT
100
AcDbCircle
 10
28.80915290016505
 20
1.279554870714496
 30
0.0
 40
1.062500000000002
  0
CIRCLE
  5
74
330
1F
100
AcDbEntity
  8
DEFAULT
100
AcDbCircle
 10
28.80915290016505
 20
1.279554870714496
 30
0.0
 40
0.9999999999999953
  0
CIRCLE
  5
75
330
1F
100
AcDbEntity
  8
DEFAULT
100
AcDbCircle
 10
28.80915290016505
 20
1.279554870714496
 30
0.0
 40
1.279554851485679
  0
SPLINE
  5
76
330
1F
100
AcDbEntity
  8
DEFAULT
100
AcDbSpline
210
0.0
220
0.0
230
1.0
 70
    24
 71
     2
 72
     6
 73
     3
 74
     0
 42
0.0000000001
 43
0.0000000001
 40
0.0
 40
0.0
 40
0.0
 40
1.194093301447136
 40
1.194093301447136
 40
1.194093301447136
 10
31.71527767121854
 20
13.21865799757038
 30
0.0
 10
32.30905363791946
 20
13.15624962867148
 30
0.0
 10
32.90282960462038
 20
13.09384125977258
 30
0.0
  0
SPLINE
  5
77
330
1F
100
AcDbEntity
  8
DEFAULT
100
AcDbSpline
210
0.0
220
0.0
230
1.0
 70
    24
 71
     2
 72
     6
 73
     3
 74
     0
 42
0.0000000001
 43
0.0000000001
 40
0.0
 40
0.0
 40
0.0
 40
1.146461603092215
 40
1.146461603092215
 40
1.146461603092215
 10
40.79173248743514
 20
8.884163768748705
 30
0.0
 10
40.79173248743514
 20
8.310932967202596
 30
0.0
 10
40.79173248743514
 20
7.73770216565649
 30
0.0
  0
SPLINE
  5
78
330
1F
100
AcDbEntity
  8
DEFAULT
100
AcDbSpline
210
0.0
220
0.0
230
1.0
 70
    12
 71
     2
 72
     8
 73
     5
 74
     0
 42
0.0000000001
 43
0.0000000001
 40
19.08062834928557
 40
19.08062834928557
 40
19.08062834928557
 40
19.19367093341335
 40
19.19367093341335
 40
20.06378699603012
 40
20.06378699603012
 40
20.06378699603012
 10
35.23932772467014
 20
17.42745378491538
 30
0.0
 41
1.0
 10
35.18281301333518
 20
17.42831788800264
 30
0.0
 41
0.9999993391672023
 10
35.12630043819566
 20
17.42931193152273
 30
0.0
 41
1.0
 10
34.68742226384834
 20
17.43703170016255
 30
0.0
 41
0.9867663246232526
 10
34.26915188174014
 20
17.30390193565729
 30
0.0
 41
1.0
  0
SPLINE
  5
79
330
1F
100
AcDbEntity
  8
DEFAULT
100
AcDbSpline
210
0.0
220
0.0
230
1.0
 70
    12
 71
     3
 72
    61
 73
    57
 74
     0
 42
0.0000000001
 43
0.0000000001
 40
-14.48953541717279
 40
-14.48953541717279
 40
-14.48953541717279
 40
-14.48953541717279
 40
-14.46110332057899
 40
-14.44848728087798
 40
-14.42710499470111
 40
-14.18925589137555
 40
-13.98156850934518
 40
-13.75016134255067
 40
-12.82082616021859
 40
-12.7065080381281
 40
-12.68967539156428
 40
-12.67411580120618
 40
-12.58561198573748
 40
-12.32304345046871
 40
-12.07026269681369
 40
-11.45905031525677
 40
-10.02939110213883
 40
-7.460473085223368
 40
-4.576369514554878
 40
-3.638448576174051
 40
-2.769987124001825
 40
-2.115288652767101
 40
-1.612296177871077
 40
-1.55528582184618
 40
-1.505344478425672
 40
-1.480934064219257
 40
-1.460796477957686
 40
-1.357446907176323
 40
-1.010638071977587
 40
-0.6728037536138991
 40
-0.0000000000000009
 40
-0.0000000000000009
 40
-0.0000000000000009
 40
0.0078131291711578
 40
0.0553314589348581
 40
0.1028497886985585
 40
0.1503681184618899
 40
0.1503681184618899
 40
0.1503681184618899
 40
0.1939775387976911
 40
0.2373047699813207
 40
0.2373047699813207
 40
0.2373047699813207
 40
1.702134904368983
 40
1.702134904368983
 40
1.702134904368983
 40
2.637291065456827
 40
2.637291065456827
 40
2.637291065456827
 40
3.76379874172537
 40
3.76379874172537
 40
3.76379874172537
 40
5.192900755303272
 40
5.192900755303272
 40
5.192900755303272
 40
17.04421187226613
 40
17.04421187226613
 40
17.04421187226613
 40
17.04421187226613
 10
35.14051805184512
 20
12.51437990372608
 30
0.0
 41
1.0
 10
35.14983201367062
 20
12.51261784352451
 30
0.0
 41
1.0
 10
35.16327721443828
 20
12.5101126881625
 30
0.0
 41
1.0
 10
35.18380786918532
 20
12.50673272993057
 30
0.0
 41
1.0
 10
35.27403118495577
 20
12.49815472191166
 30
0.0
 41
1.0
 10
35.42887573950585
 20
12.48259249375803
 30
0.0
 41
1.0
 10
35.65376944265923
 20
12.46384020714166
 30
0.0
 41
1.0
 10
36.10890608060229
 20
12.43371190766111
 30
0.0
 41
1.0
 10
36.5334880496082
 20
12.41313114960843
 30
0.0
 41
1.0
 10
36.88689733163201
 20
12.40428756422201
 30
0.0
 41
1.0
 10
36.93565485774626
 20
12.40036372605095
 30
0.0
 41
1.0
 10
36.97571938586298
 20
12.39605053581987
 30
0.0
 41
1.0
 10
37.09718176236854
 20
12.38256155977281
 30
0.0
 41
1.0
 10
37.2973074798437
 20
12.36095276466567
 30
0.0
 41
1.0
 10
37.67082548873101
 20
12.32229945649184
 30
0.0
 41
1.0
 10
38.43186723152551
 20
12.24875034341622
 30
0.0
 41
1.0
 10
39.96372004622439
 20
12.12743908287939
 30
0.0
 41
1.0
 10
42.25615209436332
 20
12.02214455179706
 30
0.0
 41
1.0
 10
44.38696772057376
 20
12.0217982844448
 30
0.0
 41
1.0
 10
45.94997506367298
 20
12.0608909725643
 30
0.0
 41
1.0
 10
46.76984967099884
 20
12.0899060516588
 30
0.0
 41
1.0
 10
47.44419485194364
 20
12.12838074691213
 30
0.0
 41
1.0
 10
47.84778955476341
 20
12.16091894524907
 30
0.0
 41
1.0
 10
48.05014346994746
 20
12.18101771623013
 30
0.0
 41
1.0
 10
48.09385203114999
 20
12.18342154796018
 30
0.0
 41
1.0
 10
48.12536649719766
 20
12.18444587310877
 30
0.0
 41
1.0
 10
48.17460842301656
 20
12.1820913217698
 30
0.0
 41
1.0
 10
48.33109900188687
 20
12.17300342082413
 30
0.0
 41
1.0
 10
48.59353769587981
 20
12.16110546514005
 30
0.0
 41
1.0
 10
49.04598091931096
 20
12.15390912104898
 30
0.0
 41
1.0
 10
49.38292189306347
 20
12.16625663437979
 30
0.0
 41
1.0
 10
49.60638007698296
 20
12.1854627730738
 30
0.0
 41
1.0
 10
49.65505305450952
 20
12.19552548873868
 30
0.0
 41
1.0
 10
50.0021795551916
 20
12.26895626750541
 30
0.0
 41
1.0
 10
50.68240714487992
 20
12.43509842088268
 30
0.0
 41
1.0
 10
51.75026993394324
 20
12.75053118839296
 30
0.0
 41
1.0
 10
52.57241314474587
 20
13.02599044092806
 30
0.0
 41
1.0
 10
53.0167324874358
 20
13.18156274473126
 30
0.0
 41
1.0
 10
53.01673248743529
 20
13.49156885178829
 30
0.0
 41
1.0
 10
52.99273294569024
 20
14.11910907094663
 30
0.0
 41
1.0
 10
52.90391598930067
 20
14.72820329699059
 30
0.0
 41
1.0
 10
52.83972764581205
 20
15.01735199693772
 30
0.0
 41
1.0
 10
52.73342096227029
 20
15.49623083491929
 30
0.0
 41
0.9908203565559098
 10
52.54938283779425
 20
15.9509351577177
 30
0.0
 41
0.9908203565559098
 10
52.29268148547236
 20
16.36894289466564
 30
0.0
 41
1.0
 10
52.12769298216976
 20
16.63760712359989
 30
0.0
 41
0.9776098014139428
 10
51.89920229308098
 20
16.854848185857
 30
0.0
 41
0.9776098014139428
 10
51.6225572739173
 20
17.00607386986202
 30
0.0
 41
1.0
 10
51.29069837750871
 20
17.18748175768249
 30
0.0
 41
0.9857896328557237
 10
50.92865753725659
 20
17.29686904615125
 30
0.0
 41
0.9857896328557237
 10
50.55186895294455
 20
17.32957243467814
 30
0.0
 41
1.0
 10
50.07682931441867
 20
17.37080352954464
 30
0.0
 41
0.9980793023088426
 10
49.60003075369481
 20
17.37588229379664
 30
0.0
 41
0.9980793023088426
 10
49.12422062845713
 20
17.34477946312184
 30
0.0
 41
1.0
 10
45.17649649241663
 20
17.51048005795106
 30
0.0
 41
0.9996137970895712
 10
41.22541993357756
 20
17.54173013940621
 30
0.0
 41
0.9996137970895712
 10
37.27556870373835
 20
17.43849350087011
 30
0.0
 41
1.0
  0
SPLINE
  5
7A
330
1F
100
AcDbEntity
  8
DEFAULT
100
AcDbSpline
210
0.0
220
0.0
230
1.0
 70
    12
 71
     3
 72
    19
 73
    15
 74
     0
 42
0.0000000001
 43
0.0000000001
 40
0.0
 40
0.0
 40
0.0
 40
0.0
 40
0.7711169463561839
 40
1.710145453058037
 40
3.968027780946098
 40
6.074555515417075
 40
7.323635398889083
 40
11.79809990629502
 40
13.41031791976705
 40
14.20436955754968
 40
14.93431786684034
 40
14.93431786684034
 40
14.93431786684034
 40
15.08458834851292
 40
15.08458834851292
 40
15.08458834851292
 40
15.08458834851292
 10
51.84173248743414
 20
14.27956274473064
 30
0.0
 41
1.0
 10
51.59267629910105
 20
14.34341105950503
 30
0.0
 41
1.0
 10
51.03508756130274
 20
14.46268083266927
 30
0.0
 41
1.0
 10
49.7260115245325
 20
14.65779673400088
 30
0.0
 41
1.0
 10
47.96213367721793
 20
14.78951233601209
 30
0.0
 41
1.0
 10
46.09224114130855
 20
14.85697864588418
 30
0.0
 41
1.0
 10
43.48285397361901
 20
14.91831923098746
 30
0.0
 41
1.0
 10
41.03794444456886
 20
14.95819632904266
 30
0.0
 41
1.0
 10
38.7452528159218
 20
15.02438427607925
 30
0.0
 41
1.0
 10
37.70044901468059
 20
15.05915463046398
 30
0.0
 41
1.0
 10
37.19281751444893
 20
15.07898807719313
 30
0.0
 41
1.0
 10
36.94970021217068
 20
15.088660136822
 30
0.0
 41
1.0
 10
36.92968051835285
 20
15.0894565905114
 30
0.0
 41
0.9999999988545222
 10
36.90966087125835
 20
15.09025421777593
 30
0.0
 41
0.9999999988545222
 10
36.88964127095603
 20
15.09105301861286
 30
0.0
 41
1.0
  0
SPLINE
  5
7B
330
1F
100
AcDbEntity
  8
DEFAULT
100
AcDbSpline
210
0.0
220
0.0
230
1.0
 70
     8
 71
     3
 72
    26
 73
    22
 74
     0
 42
0.0000000001
 43
0.0000000001
 40
-16.29693414369224
 40
-16.29693414369224
 40
-16.29693414369224
 40
-16.29693414369224
 40
-14.74181574531229
 40
-14.16502891764236
 40
-12.93894511555298
 40
-12.16300212733336
 40
-10.55028432009859
 40
-8.802880121653352
 40
-6.887694628166072
 40
-6.542112077221858
 40
-6.087914740637488
 40
-4.931532264857702
 40
-3.981749143283722
 40
-3.421558519823833
 40
-2.907188000830495
 40
-2.421709147557901
 40
-1.98128714915515
 40
-1.542408932793722
 40
-1.06967415928302
 40
-0.5517270068764207
 40
0.0
 40
0.0
 40
0.0
 40
0.0
 10
37.16501688500573
 20
17.29892362682627
 30
0.0
 10
37.74966604469945
 20
17.26185570283116
 30
0.0
 10
38.46030167562369
 20
17.25073408247797
 30
0.0
 10
39.5796149676882
 20
17.24893848668139
 30
0.0
 10
40.43922361476997
 20
17.25174020965958
 30
0.0
 10
41.64413937923012
 20
17.25140754179576
 30
0.0
 10
43.02282108107659
 20
17.24915854968224
 30
0.0
 10
44.78125476833757
 20
17.24218251381132
 30
0.0
 10
46.11728783776727
 20
17.23787437149355
 30
0.0
 10
47.02229130564085
 20
17.23377432805019
 30
0.0
 10
47.6742246073091
 20
17.22550105909539
 30
0.0
 10
48.52759087165973
 20
17.19594287822596
 30
0.0
 10
49.41096712737288
 20
17.08611983134457
 30
0.0
 10
50.06634614512117
 20
16.91925104956582
 30
0.0
 10
50.54906221651267
 20
16.72280628402526
 30
0.0
 10
50.95821272096052
 20
16.4664338053174
 30
0.0
 10
51.28511219319986
 20
16.14664690557083
 30
0.0
 10
51.53687783822538
 20
15.76981184709823
 30
0.0
 10
51.71479927632451
 20
15.3252544531344
 30
0.0
 10
51.81867889394081
 20
14.82004736589152
 30
0.0
 10
51.84022543772272
 20
14.46345268120083
 30
0.0
 10
51.84173248743414
 20
14.27956274473064
 30
0.0
  0
SPLINE
  5
7C
330
1F
100
AcDbEntity
  8
DEFAULT
100
AcDbSpline
210
0.0
220
0.0
230
1.0
 70
    12
 71
     5
 72
    32
 73
    26
 74
     0
 42
0.0000000001
 43
0.0000000001
 40
-0.185062415177105
 40
-0.185062415177105
 40
-0.185062415177105
 40
-0.185062415177105
 40
-0.185062415177105
 40
-0.185062415177105
 40
0.0
 40
0.0
 40
0.0
 40
0.0
 40
0.0
 40
1.0
 40
1.0
 40
1.0
 40
1.0
 40
1.0
 40
1.56307275402013
 40
1.56307275402013
 40
1.56307275402013
 40
1.56307275402013
 40
1.56307275402013
 40
1.853833905128213
 40
1.853833905128213
 40
1.853833905128213
 40
1.853833905128213
 40
1.853833905128213
 40
3.558624363062016
 40
3.558624363062016
 40
3.558624363062016
 40
3.558624363062016
 40
3.558624363062016
 40
3.558624363062016
 10
49.10182207768572
 20
2.716562744730595
 30
0.0
 41
1.0
 10
49.10073984026038
 20
2.753559402182273
 30
0.0
 41
1.0
 10
49.09965760283505
 20
2.790556059633951
 30
0.0
 41
1.0
 10
49.0985753654097
 20
2.827552717085629
 30
0.0
 41
1.0
 10
49.09749312798438
 20
2.864549374537307
 30
0.0
 41
1.0
 10
49.09641089055903
 20
2.901546031988985
 30
0.0
 41
1.0
 10
49.09410282212527
 20
2.980448142763962
 30
0.0
 41
1.0
 10
49.0917947536915
 20
3.059350253538938
 30
0.0
 41
1.0
 10
49.05252875184126
 20
3.199429904276768
 30
0.0
 41
1.0
 10
48.97720756915911
 20
3.223165135791502
 30
0.0
 41
1.0
 10
48.90123438172726
 20
3.244588138757648
 30
0.0
 41
1.0
 10
48.79281932104767
 20
3.275159136829792
 30
0.0
 41
0.998492705285086
 10
48.68311816903648
 20
3.30101364896267
 30
0.0
 41
0.9977390579276291
 10
48.57237660132402
 20
3.322082399271784
 30
0.0
 41
0.9977390579276291
 10
48.46084537614643
 20
3.33831768062444
 30
0.0
 41
0.998492705285086
 10
48.34877844451292
 20
3.349693714183291
 30
0.0
 41
1.0
 10
48.29083380726121
 20
3.355209711984692
 30
0.0
 41
0.9943963830036286
 10
48.23343007003245
 20
3.365564337173482
 30
0.0
 41
0.9915945745054431
 10
48.17705841071704
 20
3.380710832425915
 30
0.0
 41
0.991594574505443
 10
48.12219532720906
 20
3.400521167572607
 30
0.0
 41
0.9943963830036285
 10
48.06928928684775
 20
3.424789626758711
 30
0.0
 41
1.0
 10
47.75968904602985
 20
3.567618590984065
 30
0.0
 41
0.999999950511523
 10
47.45005328492179
 20
3.710370550319513
 30
0.0
 41
0.9999999257672846
 10
47.14038202650611
 20
3.853045494162475
 30
0.0
 41
0.9999999257672846
 10
46.83067529377049
 20
3.995643411921804
 30
0.0
 41
0.999999950511523
 10
46.52093310970794
 20
4.13816429301778
 30
0.0
 41
1.0
  0
SPLINE
  5
7D
330
1F
100
AcDbEntity
  8
DEFAULT
100
AcDbSpline
210
0.0
220
0.0
230
1.0
 70
    12
 71
     3
 72
    15
 73
    11
 74
     0
 42
0.0000000001
 43
0.0000000001
 40
0.0
 40
0.0
 40
0.0
 40
0.0
 40
5.00139753095318
 40
5.00139753095318
 40
5.00139753095318
 40
5.501052638785465
 40
5.501052638785465
 40
6.001200536893763
 40
6.001200536893763
 40
7.001394948928373
 40
7.001394948928373
 40
7.001394948928373
 40
7.001394948928373
 10
43.14725571648596
 20
4.576582915507047
 30
0.0
 41
1.0
 10
44.73100094776778
 20
4.055927703922279
 30
0.0
 41
1.0
 10
46.3147461790496
 20
3.535272492337511
 30
0.0
 41
1.0
 10
47.89849141033142
 20
3.014617280752742
 30
0.0
 41
1.0
 10
47.92060039647344
 20
3.00734896563795
 30
0.0
 41
1.0
 10
47.93816885719666
 20
3.001234281153882
 30
0.0
 41
1.0
 10
47.96415443500927
 20
2.988486563907164
 30
0.0
 41
1.0
 10
47.97240104918592
 20
2.975125783396929
 30
0.0
 41
1.0
 10
47.98315200040096
 20
2.921836766168096
 30
0.0
 41
1.0
 10
47.97166374824432
 20
2.869172835405831
 30
0.0
 41
1.0
 10
47.9417450583007
 20
2.813383385984979
 30
0.0
 41
1.0
  0
SPLINE
  5
7E
330
1F
100
AcDbEntity
  8
DEFAULT
100
AcDbSpline
210
0.0
220
0.0
230
1.0
 70
    12
 71
     3
 72
    15
 73
    11
 74
     0
 42
0.0000000001
 43
0.0000000001
 40
3.0
 40
3.0
 40
3.0
 40
3.0
 40
4.000172717818701
 40
4.000172717818701
 40
4.500276249612895
 40
4.500276249612895
 40
4.999997417975155
 40
4.999997417975155
 40
4.999997417975155
 40
10.0809888002999
 40
10.0809888002999
 40
10.0809888002999
 40
10.0809888002999
 10
48.33906703593139
 20
2.813383323257317
 30
0.0
 41
1.0
 10
48.29036273715404
 20
2.869171571989016
 30
0.0
 41
1.0
 10
48.2430157398517
 20
2.921834418813095
 30
0.0
 41
1.0
 10
48.17343607692872
 20
2.975122252355072
 30
0.0
 41
1.0
 10
48.15048589333402
 20
2.988482737633239
 30
0.0
 41
1.0
 10
48.10487924789538
 20
3.001234428512209
 30
0.0
 41
1.0
 10
48.08240671912417
 20
3.007347998992374
 30
0.0
 41
1.0
 10
48.06029480920829
 20
3.014617280752721
 30
0.0
 41
1.0
 10
46.45134534615435
 20
3.543558367086167
 30
0.0
 41
1.0
 10
44.84239588310042
 20
4.072499453419614
 30
0.0
 41
1.0
 10
43.23344642004649
 20
4.601440539753059
 30
0.0
 41
1.0
  0
SPLINE
  5
7F
330
1F
100
AcDbEntity
  8
DEFAULT
100
AcDbSpline
210
0.0
220
0.0
230
1.0
 70
    12
 71
     3
 72
    13
 73
     9
 74
     0
 42
0.0000000001
 43
0.0000000001
 40
-2.658415923453003
 40
-2.658415923453003
 40
-2.658415923453003
 40
-2.658415923453003
 40
0.0
 40
0.0
 40
0.0
 40
0.185091838654331
 40
0.370183677308662
 40
0.555275515962993
 40
0.555275515962993
 40
0.555275515962993
 40
0.555275515962993
 10
42.03670606775538
 20
3.201975918211389
 30
0.0
 41
1.0
 10
42.15676458822883
 20
4.079943823662759
 30
0.0
 41
1.0
 10
42.2768231087023
 20
4.95791172911413
 30
0.0
 41
1.0
 10
42.39688162917575
 20
5.835879634565501
 30
0.0
 41
1.0
 10
42.38871559809495
 20
6.029170972736257
 30
0.0
 41
1.0
 10
42.34757567511177
 20
6.166457657607115
 30
0.0
 41
1.0
 10
42.1981884272143
 20
6.324191116235648
 30
0.0
 41
1.0
 10
42.05958117953939
 20
6.37672980190256
 30
0.0
 41
1.0
 10
41.9889957692944
 20
6.38679764508043
 30
0.0
 41
1.0
  0
SPLINE
  5
80
330
1F
100
AcDbEntity
  8
DEFAULT
100
AcDbSpline
210
0.0
220
0.0
230
1.0
 70
     8
 71
     2
 72
    14
 73
    11
 74
     0
 42
0.0000000001
 43
0.0000000001
 40
-0.0219797174157427
 40
-0.0219797174157427
 40
-0.0219797174157427
 40
0.9804989504700002
 40
0.9804989504700002
 40
1.068196242243018
 40
1.068196242243018
 40
2.913188004009824
 40
2.913188004009824
 40
3.00088529578284
 40
3.00088529578284
 40
4.003488611987201
 40
4.003488611987201
 40
4.003488611987201
 10
42.32673797608062
 20
6.67271696014047
 30
0.0
 10
42.32661280954613
 20
7.174081448182239
 30
0.0
 10
42.32648764301163
 20
7.675445936224009
 30
0.0
 10
42.29535800566504
 20
7.706572480765749
 30
0.0
 10
42.26422836831844
 20
7.737699025307489
 30
0.0
 10
41.34173248743504
 20
7.737699025307489
 30
0.0
 10
40.41923660655164
 20
7.737699025307489
 30
0.0
 10
40.38810696920504
 20
7.706572480765749
 30
0.0
 10
40.35697733185845
 20
7.67544593622401
 30
0.0
 10
40.35685214976073
 20
7.174019108461255
 30
0.0
 10
40.35672696766301
 20
6.6725922806985
 30
0.0
  0
CIRCLE
  5
81
330
1F
100
AcDbEntity
  8
DEFAULT
100
AcDbCircle
 10
52.02391837307994
 20
1.279554870714485
 30
0.0
 40
1.062500000000002
  0
SPLINE
  5
82
330
1F
100
AcDbEntity
  8
DEFAULT
100
AcDbSpline
210
0.0
220
0.0
230
1.0
 70
    12
 71
     3
 72
    43
 73
    39
 74
     0
 42
0.0000000001
 43
0.0000000001
 40
0.0
 40
0.0
 40
0.0
 40
0.0
 40
1.071436559607652
 40
1.071436559607652
 40
1.071436559607652
 40
2.13266014906715
 40
2.13266014906715
 40
2.13266014906715
 40
2.441426119410373
 40
2.441426119410373
 40
2.441426119410373
 40
3.221008148336679
 40
3.221008148336679
 40
3.221008148336679
 40
3.71979395381796
 40
3.71979395381796
 40
3.71979395381796
 40
4.132304265720075
 40
4.132304265720075
 40
4.132304265720075
 40
4.360840261947867
 40
4.360840261947867
 40
4.360840261947867
 40
5.981409072073737
 40
9.204509364292274
 40
9.378627216197316
 40
9.57381607316703
 40
9.76148275065641
 40
9.883866073491435
 40
10.03460863674095
 40
11.08238415599888
 40
11.42742802650194
 40
11.50680480390903
 40
11.61550995387626
 40
12.58544775105139
 40
12.58544775105139
 40
12.58544775105139
 40
12.77106042731409
 40
12.77106042731409
 40
12.77106042731409
 40
12.77106042731409
 10
39.13378656624874
 20
10.6771984211119
 30
0.0
 41
1.0
 10
39.24571173163807
 20
10.33562165543641
 30
0.0
 41
0.9872613475161315
 10
39.42191650441832
 20
10.02230604070081
 30
0.0
 41
0.9872613475161315
 10
39.65566705049017
 20
9.749225233106756
 30
0.0
 41
1.0
 10
39.90594347401309
 20
9.499231676353583
 30
0.0
 41
1.0
 10
40.156219897536
 20
9.249238119600411
 30
0.0
 41
1.0
 10
40.40649632105892
 20
8.999244562847236
 30
0.0
 41
1.0
 10
40.48126959702475
 20
8.924606666428511
 30
0.0
 41
0.9494153242120156
 10
40.57888807857955
 20
8.884202577038819
 30
0.0
 41
0.9494153242120156
 10
40.68453776800222
 20
8.884163777965014
 30
0.0
 41
1.0
 10
41.00228770066435
 20
8.884163771640209
 30
0.0
 41
1.0
 10
41.32003763332648
 20
8.884163765315401
 30
0.0
 41
1.0
 10
41.63778756598862
 20
8.884163758990594
 30
0.0
 41
1.0
 10
41.80689153904554
 20
8.88416375742292
 30
0.0
 41
0.9668350366045351
 10
41.96758302099947
 20
8.831491171279028
 30
0.0
 41
0.9668350366045351
 10
42.1038740304995
 20
8.731386653733137
 30
0.0
 41
1.0
 10
42.21480254671502
 20
8.649910658811898
 30
0.0
 41
0.9980854740541097
 10
42.31924216237408
 20
8.560267811137527
 30
0.0
 41
0.9980854740541097
 10
42.41659302041482
 20
8.462972981383237
 30
0.0
 41
1.0
 10
42.47643655976927
 20
8.410928669669163
 30
0.0
 41
0.9235094769624238
 10
42.55361911209332
 20
8.392688242015053
 30
0.0
 41
0.9235094769624238
 10
42.63042947599705
 20
8.412437357975978
 30
0.0
 41
1.0
 10
43.15358446145771
 20
8.547004858451201
 30
0.0
 41
1.0
 10
44.71768476778143
 20
8.947564090921441
 30
0.0
 41
1.0
 10
46.33808104650711
 20
9.362033634101643
 30
0.0
 41
1.0
 10
47.49841888498766
 20
9.65803254115931
 30
0.0
 41
1.0
 10
47.67648364367661
 20
9.710554794983294
 30
0.0
 41
1.0
 10
47.83550515641117
 20
9.766576750157922
 30
0.0
 41
1.0
 10
47.9776142432566
 20
9.824561085821395
 30
0.0
 41
1.0
 10
48.37157893015794
 20
10.02317830020941
 30
0.0
 41
1.0
 10
48.74102290267315
 20
10.41324050055858
 30
0.0
 41
1.0
 10
48.9135207604757
 20
10.87606510650931
 30
0.0
 41
1.0
 10
48.95513657930925
 20
11.04860830164579
 30
0.0
 41
1.0
 10
49.04185277285986
 20
11.42485215789778
 30
0.0
 41
1.0
 10
49.12349848186432
 20
11.77490489593844
 30
0.0
 41
1.0
 10
49.19604080817957
 20
12.09001419833958
 30
0.0
 41
1.0
 10
49.20159364898129
 20
12.11413462403097
 30
0.0
 41
0.9999999839148456
 10
49.20714119108462
 20
12.13825626893963
 30
0.0
 41
0.9999999839148456
 10
49.21268343422194
 20
12.16237913190185
 30
0.0
 41
1.0
  0
SPLINE
  5
83
330
1F
100
AcDbEntity
  8
DEFAULT
100
AcDbSpline
210
0.0
220
0.0
230
1.0
 70
    12
 71
     3
 72
    16
 73
    12
 74
     0
 42
0.0000000001
 43
0.0000000001
 40
0.0
 40
0.0
 40
0.0
 40
0.0
 40
0.0876471673201316
 40
0.0876471673201316
 40
0.0876471673201316
 40
0.5900077866456375
 40
0.5900077866456375
 40
1.087647167320132
 40
1.087647167320132
 40
1.087647167320132
 40
1.126554509672583
 40
1.126554509672583
 40
1.126554509672583
 40
1.126554509672583
 10
37.16501688500573
 20
17.29892362682627
 30
0.0
 41
1.0
 10
37.19361988227703
 20
17.30487575617893
 30
0.0
 41
0.9999989935789989
 10
37.22223317880026
 20
17.31077817592069
 30
0.0
 41
0.9999989935789989
 10
37.25085668818433
 20
17.3166308682306
 30
0.0
 41
1.0
 10
37.27979647355731
 20
17.32256907204284
 30
0.0
 41
1.0
 10
37.3004809904461
 20
17.32876034212
 30
0.0
 41
1.0
 10
37.32076330868168
 20
17.34139406053963
 30
0.0
 41
1.0
 10
37.32249425373464
 20
17.34772488079998
 30
0.0
 41
1.0
 10
37.29790296653153
 20
17.35331262758742
 30
0.0
 41
1.0
 10
37.28521010961141
 20
17.35600445932418
 30
0.0
 41
0.999069630032392
 10
37.27239280385164
 20
17.35802219269461
 30
0.0
 41
0.999069630032392
 10
37.25948682376126
 20
17.35936019598313
 30
0.0
 41
1.0
  0
SPLINE
  5
84
330
1F
100
AcDbEntity
  8
DEFAULT
100
AcDbSpline
210
0.0
220
0.0
230
1.0
 70
    12
 71
     2
 72
    14
 73
    11
 74
     0
 42
0.0000000001
 43
0.0000000001
 40
-1.805996928124579
 40
-1.805996928124579
 40
-1.805996928124579
 40
0.0
 40
0.0
 40
0.6933632554174705
 40
0.6933632554174705
 40
3.40687822129579
 40
3.40687822129579
 40
4.484611856363196
 40
4.484611856363196
 40
4.944533498590197
 40
4.944533498590197
 40
4.944533498590197
 10
40.79583050526286
 20
11.49286141417551
 30
0.0
 41
1.0
 10
39.89624696795065
 20
11.41440323744614
 30
0.0
 41
1.0
 10
38.99666343063843
 20
11.33594506071676
 30
0.0
 41
1.0
 10
39.04249893391008
 20
10.99027583245983
 30
0.0
 41
0.9913620050714262
 10
39.17664615949504
 20
10.66841774169346
 30
0.0
 41
1.0
 10
37.847495560482
 20
10.94072189637104
 30
0.0
 41
1.0
 10
36.51834496146896
 20
11.21302605104862
 30
0.0
 41
1.0
 10
35.88897658192316
 20
11.34196525831379
 30
0.0
 41
0.7748232566130985
 10
35.88897658192304
 20
11.98440582081144
 30
0.0
 41
1.0
 10
35.88897658192306
 20
12.21436664192494
 30
0.0
 41
1.0
 10
35.88897658192307
 20
12.44432746303844
 30
0.0
 41
1.0
  0
LINE
  5
85
330
1F
100
AcDbEntity
  8
DEFAULT
100
AcDbLine
 10
34.88497456907687
 20
12.57128809173176
 30
0.0
 11
31.60932427471942
 21
12.91557281091598
 31
0.0
  0
SPLINE
  5
86
330
1F
100
AcDbEntity
  8
DEFAULT
100
AcDbSpline
210
0.0
220
0.0
230
1.0
 70
    12
 71
     3
 72
    38
 73
    34
 74
     0
 42
0.0000000001
 43
0.0000000001
 40
8.619266111609749
 40
8.619266111609749
 40
8.619266111609749
 40
8.619266111609749
 40
8.94702172678302
 40
8.94702172678302
 40
8.94702172678302
 40
9.345561477237323
 40
9.345561477237323
 40
9.345561477237323
 40
10.34556147723732
 40
10.34556147723732
 40
10.34556147723732
 40
10.49950724160721
 40
10.49950724160721
 40
10.49950724160721
 40
11.49950724160721
 40
11.49950724160721
 40
11.49950724160721
 40
12.46775488835832
 40
12.46775488835832
 40
12.46775488835832
 40
14.27416342117512
 40
14.27416342117512
 40
14.27416342117512
 40
15.27416342117512
 40
15.27416342117512
 40
15.27416342117512
 40
16.27416342117511
 40
16.27416342117511
 40
16.27416342117511
 40
16.41915560495925
 40
16.41915560495925
 40
16.41915560495925
 40
16.95117592591873
 40
16.95117592591873
 40
16.95117592591873
 40
16.95117592591873
 10
47.11583468457368
 20
12.11017208478457
 30
0.0
 41
1.0
 10
47.11020721057338
 20
12.00106528722622
 30
0.0
 41
1.0
 10
47.10457973657308
 20
11.89195848966788
 30
0.0
 41
1.0
 10
47.09895226257278
 20
11.78285169210954
 30
0.0
 41
1.0
 10
47.09180006118214
 20
11.64418311908087
 30
0.0
 41
0.9164131381000594
 10
47.01831674666892
 20
11.52636830838761
 30
0.0
 41
0.9164131381000593
 10
46.89692903801963
 20
11.45895057096329
 30
0.0
 41
1.0
 10
46.72938553829072
 20
11.36589828587458
 30
0.0
 41
1.0
 10
46.56184203856182
 20
11.27284600078587
 30
0.0
 41
1.0
 10
46.3942985388329
 20
11.17979371569716
 30
0.0
 41
1.0
 10
46.34846640813843
 20
11.15433892635252
 30
0.0
 41
0.9583209062674005
 10
46.29664046992404
 20
11.14642674379807
 30
0.0
 41
0.9583209062674004
 10
46.24530089859961
 20
11.15704648582879
 30
0.0
 41
1.0
 10
45.64785863682172
 20
11.28062918305089
 30
0.0
 41
1.0
 10
45.05041637504385
 20
11.40421188027299
 30
0.0
 41
1.0
 10
44.45297411326595
 20
11.527794577495
 30
0.0
 41
1.0
 10
44.13618919736636
 20
11.59377682897407
 30
0.0
 41
0.9948535294358829
 10
43.81366695295046
 20
11.61996351086897
 30
0.0
 41
0.9948535294358825
 10
43.49038693372967
 20
11.60595031621705
 30
0.0
 41
1.0
 10
42.88878036699086
 20
11.58070125281844
 30
0.0
 41
1.0
 10
42.28717380025206
 20
11.55545218941984
 30
0.0
 41
1.0
 10
41.68556723351327
 20
11.53020312602113
 30
0.0
 41
1.0
 10
41.0266992178144
 20
11.50255083427535
 30
0.0
 41
1.0
 10
40.36783120211553
 20
11.47489854252956
 30
0.0
 41
1.0
 10
39.70896318641665
 20
11.44724625078377
 30
0.0
 41
1.0
 10
39.67597519372805
 20
11.46970988971405
 30
0.0
 41
1.0
 10
39.64298720103944
 20
11.49217352864423
 30
0.0
 41
1.0
 10
39.60999920835084
 20
11.5146371675745
 30
0.0
 41
1.0
 10
39.56857214826179
 20
11.54284750724787
 30
0.0
 41
0.9305979806178766
 10
39.54399054913532
 20
11.58652552868304
 30
0.0
 41
0.9305979806178761
 10
39.54137244882844
 20
11.63657720320938
 30
0.0
 41
1.0
 10
39.53210881299078
 20
11.81367519405205
 30
0.0
 41
1.0
 10
39.52284517715312
 20
11.99077318489472
 30
0.0
 41
1.0
 10
39.51358154131545
 20
12.16787117573739
 30
0.0
 41
1.0
  0
SPLINE
  5
87
330
1F
100
AcDbEntity
  8
DEFAULT
100
AcDbSpline
210
0.0
220
0.0
230
1.0
 70
    12
 71
     3
 72
    89
 73
    85
 74
     0
 42
0.0000000001
 43
0.0000000001
 40
-6.949571067577475
 40
-6.949571067577475
 40
-6.949571067577475
 40
-6.949571067577475
 40
-6.854840568644876
 40
-6.854840568644876
 40
-6.854840568644876
 40
0.0000000000000002
 40
0.0000000000000002
 40
0.0000000000000002
 40
1.344420548632039
 40
2.128334974196119
 40
4.171907465684417
 40
5.311507554835913
 40
8.214720953273247
 40
10.70628667996253
 40
12.0730980388483
 40
15.13234731318839
 40
16.57910129197289
 40
19.70100847121484
 40
19.70100847121484
 40
19.70100847121484
 40
19.71777442564216
 40
19.7311094804493
 40
19.7566407908419
 40
19.81376579521773
 40
19.81376579521773
 40
19.81376579521773
 40
21.3602705140798
 40
21.3602705140798
 40
21.3602705140798
 40
21.40053834591029
 40
21.40053834591029
 40
21.40053834591029
 40
21.5149139179055
 40
21.5149139179055
 40
21.5149139179055
 40
22.16695242443419
 40
22.16695242443419
 40
22.16695242443419
 40
22.47040700890597
 40
22.83267028165212
 40
23.07067239014989
 40
23.4165388843637
 40
24.35098229348735
 40
24.90903184010194
 40
26.11374559115932
 40
26.11374559115932
 40
26.11374559115932
 40
27.39620997682569
 40
28.13264099957378
 40
28.80586991041657
 40
29.99569457917459
 40
31.03205144652137
 40
31.97770603914732
 40
32.81574919856295
 40
34.46342533297049
 40
35.52185511184958
 40
36.78790186331393
 40
37.67235684266153
 40
38.08931737058005
 40
39.29450469431555
 40
39.91673106087909
 40
41.40282874716475
 40
44.34654539137323
 40
45.54900504207234
 40
46.82451305392374
 40
48.91824834104723
 40
48.91824834104723
 40
48.91824834104723
 40
49.25389809586886
 40
49.51883394102114
 40
49.78472085485384
 40
50.15218890394928
 40
50.25663663491632
 40
50.4555435742072
 40
50.69086752671684
 40
50.7937507301454
 40
50.91165806018198
 40
50.91165806018198
 40
50.91165806018198
 40
50.97218874387125
 40
51.0837355416292
 40
51.13343604035347
 40
51.18482496215943
 40
51.22156018308614
 40
51.22156018308614
 40
51.22156018308614
 40
51.22156018308614
 10
30.13123066889453
 20
40.37817216167802
 30
0.0
 41
1.0
 10
30.09923551653865
 20
40.36745951096144
 30
0.0
 41
0.8780867112383834
 10
30.07926665884676
 20
40.34026216950804
 30
0.0
 41
0.8780867112383834
 10
30.07862750316094
 20
40.30652728934432
 30
0.0
 41
1.0
 10
30.03532574142925
 20
38.0210438378037
 30
0.0
 41
0.999171919581138
 10
30.10595582639256
 20
35.73624164922517
 30
0.0
 41
0.999171919581138
 10
30.29034229587984
 20
33.45779672346875
 30
0.0
 41
1.0
 10
30.3264918427798
 20
33.01110043424725
 30
0.0
 41
1.0
 10
30.39150769051547
 20
32.30465034865569
 30
0.0
 41
1.0
 10
30.53413762717197
 20
30.92129201336488
 30
0.0
 41
1.0
 10
30.68648939077811
 20
29.60775990141499
 30
0.0
 41
1.0
 10
30.87671716812467
 20
27.58760781992603
 30
0.0
 41
1.0
 10
30.94392446625912
 20
25.40852190257551
 30
0.0
 41
1.0
 10
30.85345452419135
 20
23.15559032251498
 30
0.0
 41
1.0
 10
30.66955885510644
 20
20.8569081987716
 30
0.0
 41
1.0
 10
30.47089610886849
 20
18.90932344494335
 30
0.0
 41
1.0
 10
30.25818346971306
 20
16.37552475584462
 30
0.0
 41
1.0
 10
30.17714350669777
 20
14.85438422363018
 30
0.0
 41
1.0
 10
30.15239602990057
 20
13.81399149465031
 30
0.0
 41
1.0
 10
30.15224135988436
 20
13.80842946575265
 30
0.0
 41
1.0
 10
30.15231176337986
 20
13.79831949992458
 30
0.0
 41
1.0
 10
30.15415179728274
 20
13.77994674188624
 30
0.0
 41
1.0
 10
30.16339721228259
 20
13.74879136717768
 30
0.0
 41
1.0
 10
30.18247846539791
 20
13.72767027520162
 30
0.0
 41
1.0
 10
30.19709739316626
 20
13.71563846448194
 30
0.0
 41
1.0
 10
30.59499609787471
 20
13.38689262172932
 30
0.0
 41
0.9975409092132962
 10
31.01963737403189
 20
13.09350380987826
 30
0.0
 41
0.9975409092132962
 10
31.4678885272883
 20
12.83763643810121
 30
0.0
 41
1.0
 10
31.47963119095108
 20
12.83093329257709
 30
0.0
 41
0.9855046990615461
 10
31.49250874076197
 20
12.82681127599743
 30
0.0
 41
0.9855046990615461
 10
31.50596118484138
 20
12.82544963797462
 30
0.0
 41
1.0
 10
31.54630303667425
 20
12.82136629041445
 30
0.0
 41
0.8860335494281898
 10
31.58203176379324
 20
12.84053910437222
 30
0.0
 41
0.8860335494281898
 10
31.60093173755875
 20
12.87641290718522
 30
0.0
 41
1.0
 10
31.65812832935349
 20
13.08660699722628
 30
0.0
 41
0.9955007204706513
 10
31.73931805949886
 20
13.28874861421805
 30
0.0
 41
0.9955007204706513
 10
31.84340504212234
 20
13.48010928324245
 30
0.0
 41
1.0
 10
31.89174647871063
 20
13.56898350568579
 30
0.0
 41
1.0
 10
32.00576036693477
 20
13.75943721998489
 30
0.0
 41
1.0
 10
32.17230601311053
 20
14.01054491578372
 30
0.0
 41
1.0
 10
32.35416728240044
 20
14.26819715649149
 30
0.0
 41
1.0
 10
32.6461920197065
 20
14.68157675437925
 30
0.0
 41
1.0
 10
33.01269753537244
 20
15.17278541090214
 30
0.0
 41
1.0
 10
33.52133960166547
 20
15.91436407522896
 30
0.0
 41
1.0
 10
33.81793249168395
 20
16.42254915816888
 30
0.0
 41
1.0
 10
33.99901253411645
 20
16.78103494677622
 30
0.0
 41
1.0
 10
34.19221215123549
 20
17.16246932710313
 30
0.0
 41
1.0
 10
34.46653940362125
 20
17.77724367925123
 30
0.0
 41
1.0
 10
34.81925658245016
 20
18.60230698569778
 30
0.0
 41
1.0
 10
35.13776053737382
 20
19.40829711455949
 30
0.0
 41
1.0
 10
35.46226171463621
 20
20.31893936973891
 30
0.0
 41
1.0
 10
35.7542517533528
 20
21.33582196133749
 30
0.0
 41
1.0
 10
35.94434185583302
 20
22.25723614517513
 30
0.0
 41
1.0
 10
36.07252011968477
 20
23.39510853731644
 30
0.0
 41
1.0
 10
36.03096407021818
 20
24.58208446237561
 30
0.0
 41
1.0
 10
35.74020244067284
 20
25.87795508366294
 30
0.0
 41
1.0
 10
35.36884580764828
 20
26.88260759989381
 30
0.0
 41
1.0
 10
35.01425841427626
 20
27.66173889159008
 30
0.0
 41
1.0
 10
34.64709521642951
 20
28.41231009277162
 30
0.0
 41
1.0
 10
34.30921096560597
 20
29.07979558928379
 30
0.0
 41
1.0
 10
33.82263189972117
 20
30.07138793451579
 30
0.0
 41
1.0
 10
33.1070517573277
 20
31.59570648186295
 30
0.0
 41
1.0
 10
32.36448840470514
 20
33.32133025359614
 30
0.0
 41
1.0
 10
31.7641915637583
 20
35.02655974223526
 30
0.0
 41
1.0
 10
31.30499460193573
 20
36.47988484984791
 30
0.0
 41
1.0
 10
31.03253384892351
 20
37.57037099435593
 30
0.0
 41
1.0
 10
30.89680409196595
 20
38.2550530303801
 30
0.0
 41
1.0
 10
30.87472406073364
 20
38.36472483717357
 30
0.0
 41
1.0
 10
30.83554060693935
 20
38.56108133062315
 30
0.0
 41
1.0
 10
30.78238613623655
 20
38.84493469659864
 30
0.0
 41
1.0
 10
30.73247571296977
 20
39.14026127466973
 30
0.0
 41
1.0
 10
30.69728177478154
 20
39.38357121904143
 30
0.0
 41
1.0
 10
30.66278127788702
 20
39.60465886882173
 30
0.0
 41
1.0
 10
30.62965215145508
 20
39.7808926447578
 30
0.0
 41
1.0
 10
30.56992194748743
 20
39.95155588331026
 30
0.0
 41
1.0
 10
30.48071647646239
 20
40.07613283038336
 30
0.0
 41
1.0
 10
30.42694045988453
 20
40.12648511429656
 30
0.0
 41
1.0
 10
30.39876039301799
 20
40.15390162220574
 30
0.0
 41
1.0
 10
30.38468614228906
 20
40.16836054913041
 30
0.0
 41
1.0
 10
30.34333579617129
 20
40.20814179521198
 30
0.0
 41
1.0
 10
30.28756690184522
 20
40.25668693767776
 30
0.0
 41
1.0
 10
30.23582641240779
 20
40.3051521894932
 30
0.0
 41
1.0
 10
30.20386123615719
 20
40.33816967791393
 30
0.0
 41
1.0
 10
30.1851270934965
 20
40.36085238176351
 30
0.0
 41
1.0
 10
30.17813767299559
 20
40.37091037327681
 30
0.0
 41
1.0
  0
CIRCLE
  5
88
330
1F
100
AcDbEntity
  8
DEFAULT
100
AcDbCircle
 10
33.24277858521989
 20
1.279554870714495
 30
0.0
 40
0.9999999999999953
  0
CIRCLE
  5
89
330
1F
100
AcDbEntity
  8
DEFAULT
100
AcDbCircle
 10
33.24277858521989
 20
1.279554870714495
 30
0.0
 40
1.062500000000002
  0
CIRCLE
  5
8A
330
1F
100
AcDbEntity
  8
DEFAULT
100
AcDbCircle
 10
33.24277858521989
 20
1.279554870714495
 30
0.0
 40
1.279554851485679
  0
SPLINE
  5
8B
330
1F
100
AcDbEntity
  8
DEFAULT
100
AcDbSpline
210
0.0
220
0.0
230
1.0
 70
    12
 71
     2
 72
    12
 73
     9
 74
     0
 42
0.0000000001
 43
0.0000000001
 40
0.0
 40
0.0
 40
0.0
 40
0.4970826400640833
 40
0.4970826400640833
 40
1.385739708916194
 40
1.385739708916194
 40
2.760036660026547
 40
2.760036660026547
 40
2.926202947711666
 40
2.926202947711666
 40
2.926202947711666
 10
34.51494903304159
 20
1.416562442923694
 30
0.0
 41
1.0
 10
34.75437146365962
 20
1.544072772916215
 30
0.0
 41
0.8789786161022684
 10
34.77801409420708
 20
1.81430047423222
 30
0.0
 41
1.0
 10
34.81673987764673
 20
2.256938204438424
 30
0.0
 41
1.0
 10
34.85546566108638
 20
2.699575934644629
 30
0.0
 41
1.0
 10
34.16814760897168
 20
2.699561098622943
 30
0.0
 41
1.0
 10
33.48082955685697
 20
2.699546262601257
 30
0.0
 41
1.0
 10
33.48790115104882
 20
2.616764438976343
 30
0.0
 41
1.0
 10
33.49497274524067
 20
2.533982615351429
 30
0.0
 41
1.0
  0
SPLINE
  5
8C
330
1F
100
AcDbEntity
  8
DEFAULT
100
AcDbSpline
210
0.0
220
0.0
230
1.0
 70
    24
 71
     2
 72
     6
 73
     3
 74
     0
 42
0.0000000001
 43
0.0000000001
 40
0.0
 40
0.0
 40
0.0
 40
0.0449999999999982
 40
0.0449999999999982
 40
0.0449999999999982
 10
46.23999915839548
 20
24.56656274473044
 30
0.0
 10
46.23999915839548
 20
24.58906274473044
 30
0.0
 10
46.23999915839548
 20
24.61156274473044
 30
0.0
  0
SPLINE
  5
8D
330
1F
100
AcDbEntity
  8
DEFAULT
100
AcDbSpline
210
0.0
220
0.0
230
1.0
 70
    24
 71
     2
 72
     6
 73
     3
 74
     0
 42
0.0000000001
 43
0.0000000001
 40
0.0
 40
0.0
 40
0.0
 40
0.0450000000000017
 40
0.0450000000000017
 40
0.0450000000000017
 10
37.45967634796547
 20
24.61156274473044
 30
0.0
 10
37.45967634796547
 20
24.58906274473044
 30
0.0
 10
37.45967634796547
 20
24.56656274473044
 30
0.0
  0
SPLINE
  5
8E
330
1F
100
AcDbEntity
  8
DEFAULT
100
AcDbSpline
210
0.0
220
0.0
230
1.0
 70
    24
 71
     2
 72
     6
 73
     3
 74
     0
 42
0.0000000001
 43
0.0000000001
 40
0.0
 40
0.0
 40
0.0
 40
1.10428602091052
 40
1.10428602091052
 40
1.10428602091052
 10
41.89173248743494
 20
7.73770216565649
 30
0.0
 10
41.89173248743494
 20
8.28984517611175
 30
0.0
 10
41.89173248743494
 20
8.84198818656701
 30
0.0
  0
CIRCLE
  5
8F
330
1F
100
AcDbEntity
  8
DEFAULT
100
AcDbCircle
 10
47.59031670525344
 20
1.279530350955981
 30
0.0
 40
1.279554851485679
  0
CIRCLE
  5
90
330
1F
100
AcDbEntity
  8
DEFAULT
100
AcDbCircle
 10
47.59031670525344
 20
1.279530350955981
 30
0.0
 40
0.9999999999999953
  0
SPLINE
  5
91
330
1F
100
AcDbEntity
  8
DEFAULT
100
AcDbSpline
210
0.0
220
0.0
230
1.0
 70
    12
 71
     2
 72
    12
 73
     9
 74
     0
 42
0.0000000001
 43
0.0000000001
 40
0.0
 40
0.0
 40
0.0
 40
0.4970826400640833
 40
0.4970826400640833
 40
1.385739708916194
 40
1.385739708916194
 40
2.760036660026547
 40
2.760036660026547
 40
2.926202947711666
 40
2.926202947711666
 40
2.926202947711666
 10
48.86248715307514
 20
1.416537923165181
 30
0.0
 41
1.0
 10
49.10190958369316
 20
1.544048253157701
 30
0.0
 41
0.8789786161022684
 10
49.12555221424063
 20
1.814275954473706
 30
0.0
 41
1.0
 10
49.16427799768028
 20
2.25691368467991
 30
0.0
 41
1.0
 10
49.20300378111993
 20
2.699551414886115
 30
0.0
 41
1.0
 10
48.51568572900523
 20
2.699536578864429
 30
0.0
 41
1.0
 10
47.82836767689052
 20
2.699521742842743
 30
0.0
 41
1.0
 10
47.83543927108237
 20
2.616739919217829
 30
0.0
 41
1.0
 10
47.84251086527422
 20
2.533958095592915
 30
0.0
 41
1.0
  0
SPLINE
  5
92
330
1F
100
AcDbEntity
  8
DEFAULT
100
AcDbSpline
210
0.0
220
0.0
230
1.0
 70
    12
 71
     2
 72
    12
 73
     9
 74
     0
 42
0.0000000001
 43
0.0000000001
 40
0.0
 40
0.0
 40
0.0
 40
0.4970826400640833
 40
0.4970826400640833
 40
1.385739708916194
 40
1.385739708916194
 40
2.760036660026547
 40
2.760036660026547
 40
2.926202947711666
 40
2.926202947711666
 40
2.926202947711666
 10
53.29608882090164
 20
1.416562442923684
 30
0.0
 41
1.0
 10
53.53551125151968
 20
1.544072772916204
 30
0.0
 41
0.8789786161022684
 10
53.55915388206714
 20
1.814300474232209
 30
0.0
 41
1.0
 10
53.59787966550679
 20
2.256938204438414
 30
0.0
 41
1.0
 10
53.63660544894644
 20
2.699575934644619
 30
0.0
 41
1.0
 10
52.94928739683174
 20
2.699561098622933
 30
0.0
 41
1.0
 10
52.26196934471703
 20
2.699546262601246
 30
0.0
 41
1.0
 10
52.26904093890888
 20
2.616764438976332
 30
0.0
 41
1.0
 10
52.27611253310073
 20
2.533982615351419
 30
0.0
 41
1.0
  0
CIRCLE
  5
93
330
1F
100
AcDbEntity
  8
DEFAULT
100
AcDbCircle
 10
47.59031670525344
 20
1.279530350955981
 30
0.0
 40
1.062500000000002
  0
CIRCLE
  5
94
330
1F
100
AcDbEntity
  8
DEFAULT
100
AcDbCircle
 10
52.02391837307994
 20
1.279554870714485
 30
0.0
 40
1.279554851485679
  0
SPLINE
  5
95
330
1F
100
AcDbEntity
  8
DEFAULT
100
AcDbSpline
210
0.0
220
0.0
230
1.0
 70
    12
 71
     3
 72
    91
 73
    87
 74
     0
 42
0.0000000001
 43
0.0000000001
 40
0.0
 40
0.0
 40
0.0
 40
0.0
 40
0.5061411421616673
 40
1.035340802963354
 40
2.308124077112366
 40
2.895055455981621
 40
4.108394361949805
 40
4.700152286407354
 40
5.665241109480118
 40
5.665241109480118
 40
5.665241109480118
 40
6.0718717073817
 40
6.483039177827213
 40
6.892655405730384
 40
7.317875299835661
 40
7.745431725169101
 40
8.179862939299351
 40
8.659400240896028
 40
9.193336269461467
 40
9.193336269461467
 40
9.193336269461467
 40
13.63976487821535
 40
13.63976487821535
 40
13.63976487821535
 40
13.66676822265237
 40
13.6928914576648
 40
13.74285518993461
 40
13.84664915000541
 40
13.84664915000541
 40
13.84664915000541
 40
13.92164914983044
 40
13.92164914983044
 40
13.92164914983044
 40
22.830382450418
 40
22.830382450418
 40
22.830382450418
 40
24.67354994005463
 40
24.67354994005463
 40
24.67354994005463
 40
25.92657058755516
 40
26.89010541634904
 40
28.42640011800221
 40
29.66744642718757
 40
30.34207402407238
 40
31.08409930084217
 40
31.08409930084217
 40
31.08409930084217
 40
33.59345880860392
 40
33.59345880860392
 40
33.59345880860392
 40
33.77604458433436
 40
33.96666369239139
 40
34.33615883411262
 40
34.5233397441048
 40
34.6846140261573
 40
34.78443125889657
 40
34.82190824610722
 40
34.85440255899042
 40
34.85440255899042
 40
34.85440255899042
 40
34.92248136821011
 40
34.92248136821011
 40
34.92248136821011
 40
35.21907733628169
 40
35.21907733628169
 40
35.21907733628169
 40
35.36182868300118
 40
35.36182868300118
 40
35.36182868300118
 40
36.73299479163686
 40
36.73299479163686
 40
36.73299479163686
 40
37.09714644957522
 40
37.52459542371768
 40
38.30718329322046
 40
38.87623152069844
 40
39.90240605040479
 40
40.94111380748969
 40
40.94111380748969
 40
40.94111380748969
 40
40.97728091476426
 40
40.99525420593755
 40
40.99525420593755
 40
41.03448510927286
 40
41.08028036565464
 40
41.11080798670962
 40
41.11080798670962
 40
41.11080798670962
 40
41.11080798670962
 10
37.25096625581686
 20
17.31660916737854
 30
0.0
 41
1.0
 10
37.28384150992767
 20
17.48208757160257
 30
0.0
 41
1.0
 10
37.3552775768454
 20
17.81975821689955
 30
0.0
 41
1.0
 10
37.53518217702371
 20
18.56788112463945
 30
0.0
 41
1.0
 10
37.74879075678204
 20
19.33515895286756
 30
0.0
 41
1.0
 10
38.03572832207914
 20
20.31841585545495
 30
0.0
 41
1.0
 10
38.26081411550278
 20
21.08344198200685
 30
0.0
 41
1.0
 10
38.52329425568593
 20
21.96859227222229
 30
0.0
 41
1.0
 10
38.6887042054808
 20
22.46095183801832
 30
0.0
 41
1.0
 10
38.81309793845985
 20
22.75782919533729
 30
0.0
 41
1.0
 10
38.86572180446558
 20
22.88288538445559
 30
0.0
 41
1.0
 10
38.99568030400322
 20
23.12343602593045
 30
0.0
 41
1.0
 10
39.24542242750692
 20
23.44941812322242
 30
0.0
 41
1.0
 10
39.55431205817602
 20
23.72954047025737
 30
0.0
 41
1.0
 10
39.90726521933248
 20
23.96052105092696
 30
0.0
 41
1.0
 10
40.29856388689672
 20
24.13992233984394
 30
0.0
 41
1.0
 10
40.72923744036736
 20
24.26371551328203
 30
0.0
 41
1.0
 10
41.2064503169474
 20
24.34090378274384
 30
0.0
 41
1.0
 10
41.5443101112165
 20
24.35771244732676
 30
0.0
 41
1.0
 10
41.72222452446129
 20
24.36068182950404
 30
0.0
 41
1.0
 10
43.20436736474175
 20
24.36097655978967
 30
0.0
 41
1.0
 10
44.68651020502219
 20
24.36127129007531
 30
0.0
 41
1.0
 10
46.16865304530265
 20
24.36156602036095
 30
0.0
 41
1.0
 10
46.17764518328
 20
24.36156039735859
 30
0.0
 41
1.0
 10
46.19538551202072
 20
24.36306464638647
 30
0.0
 41
1.0
 10
46.22868632570879
 20
24.37187620973705
 30
0.0
 41
1.0
 10
46.28048399110678
 20
24.40513843267096
 30
0.0
 41
1.0
 10
46.30010821989733
 20
24.45713081436223
 30
0.0
 41
1.0
 10
46.30001396692533
 20
24.49156274481728
 30
0.0
 41
1.0
 10
46.30001045788557
 20
24.51656274478833
 30
0.0
 41
1.0
 10
46.3000069488458
 20
24.54156274475939
 30
0.0
 41
1.0
 10
46.30000343980603
 20
24.56656274473044
 30
0.0
 41
1.0
 10
43.33042567311022
 20
24.56653127977157
 30
0.0
 41
1.0
 10
40.36084790641439
 20
24.5664998148127
 30
0.0
 41
1.0
 10
37.39127013971857
 20
24.56646834985383
 30
0.0
 41
1.0
 10
37.29663936618646
 20
23.95916267285797
 30
0.0
 41
0.999202994889622
 10
37.17243456250556
 20
23.35720890772873
 30
0.0
 41
0.999202994889622
 10
37.01895270426567
 20
22.76204633514717
 30
0.0
 41
1.0
 10
36.91468040533657
 20
22.35770558509808
 30
0.0
 41
1.0
 10
36.73218414214431
 20
21.64142673602353
 30
0.0
 41
1.0
 10
36.39924399982444
 20
20.43596719588577
 30
0.0
 41
1.0
 10
36.03743041518806
 20
19.2417070711272
 30
0.0
 41
1.0
 10
35.60769040555147
 20
18.17303075848615
 30
0.0
 41
1.0
 10
35.21766691719679
 20
17.37727781822024
 30
0.0
 41
1.0
 10
34.99788580659838
 20
16.95938036462179
 30
0.0
 41
1.0
 10
34.87819521983646
 20
16.74287507693121
 30
0.0
 41
1.0
 10
34.47346376747617
 20
16.01076654691796
 30
0.0
 41
0.9998048845949187
 10
34.05113948315512
 20
15.2886636130362
 30
0.0
 41
0.9998048845949187
 10
33.61146957279477
 20
14.57698895550534
 30
0.0
 41
1.0
 10
33.57872330765187
 20
14.52568794793325
 30
0.0
 41
1.0
 10
33.51021976390101
 20
14.42182815591057
 30
0.0
 41
1.0
 10
33.3675239232285
 20
14.2194852427099
 30
0.0
 41
1.0
 10
33.21431461786827
 20
14.02292049430271
 30
0.0
 41
1.0
 10
33.05873848882446
 20
13.84104035529576
 30
0.0
 41
1.0
 10
32.95768880424468
 20
13.73092037334314
 30
0.0
 41
1.0
 10
32.88605392194155
 20
13.66170870035665
 30
0.0
 41
1.0
 10
32.84086401697618
 20
13.62741905073385
 30
0.0
 41
1.0
 10
32.82072001794824
 20
13.61565626737655
 30
0.0
 41
1.0
 10
32.8110475792234
 20
13.61073403838716
 30
0.0
 41
1.0
 10
32.7905375437288
 20
13.60003606950557
 30
0.0
 41
0.9625670711397984
 10
32.77469655731908
 20
13.58312597181928
 30
0.0
 41
0.962567255523506
 10
32.76530354874205
 20
13.56190274051907
 30
0.0
 41
1.000000553151122
 10
32.72559663127922
 20
13.47116653249052
 30
0.0
 41
0.9979684392413203
 10
32.69309984813689
 20
13.37764681456583
 30
0.0
 41
0.9979684392413203
 10
32.66801131070063
 20
13.28191371458855
 30
0.0
 41
1.000000553151122
 10
32.6548316047539
 20
13.23147720897752
 30
0.0
 41
0.8372052355571262
 10
32.67789582363294
 20
13.18472694101472
 30
0.0
 41
0.8372052355571262
 10
32.72593973305617
 20
13.16449507223235
 30
0.0
 41
1.000000553151122
 10
33.1427285373336
 20
12.97140622926196
 30
0.0
 41
0.9900786668832067
 10
33.58650325044423
 20
12.85283046169444
 30
0.0
 41
0.9900786668832067
 10
34.04405463299859
 20
12.81229725341726
 30
0.0
 41
1.000000553151122
 10
34.16495160744188
 20
12.80158732567574
 30
0.0
 41
1.000000553151122
 10
34.42839756796161
 20
12.784880103125
 30
0.0
 41
1.000000553151122
 10
34.95309675588128
 20
12.77558245675563
 30
0.0
 41
1.000000553151122
 10
35.54611998268435
 20
12.77742356392446
 30
0.0
 41
1.000000553151122
 10
36.3387165990882
 20
12.79049749228525
 30
0.0
 41
1.000000553151122
 10
37.21476555024137
 20
12.85584877197071
 30
0.0
 41
1.000000553151122
 10
37.89893643588519
 20
12.9294087978742
 30
0.0
 41
1.000000553151122
 10
38.24247023348271
 20
12.97693666873439
 30
0.0
 41
1.000000553151122
 10
38.25428107467472
 20
12.97864421805609
 30
0.0
 41
1.000000553151122
 10
38.27088131034755
 20
12.98399389339836
 30
0.0
 41
1.000000553151122
 10
38.28569560095089
 20
12.99320398930392
 30
0.0
 41
1.000000553151122
 10
38.30047286859764
 20
13.00404912930459
 30
0.0
 41
1.000000553151122
 10
38.31984151347797
 20
13.02390512588586
 30
0.0
 41
1.000000553151122
 10
38.33654466247851
 20
13.05844957980246
 30
0.0
 41
1.000000553151122
 10
38.34140156733969
 20
13.08345590719117
 30
0.0
 41
1.000000553151122
 10
38.34233458788055
 20
13.09357306463615
 30
0.0
 41
1.000000553151122
  0
SPLINE
  5
96
330
1F
100
AcDbEntity
  8
DEFAULT
100
AcDbSpline
210
0.0
220
0.0
230
1.0
 70
    15
 71
     3
 72
    30
 73
    26
 74
     0
 42
0.0000000001
 43
0.0000000001
 40
0.5800457954128917
 40
0.5800457954128917
 40
0.5800457954128917
 40
0.5800457954128917
 40
0.8572869922041779
 40
0.8572869922041779
 40
0.8572869922041779
 40
8.236817160594462
 40
8.236817160594462
 40
8.236817160594462
 40
9.014278863375862
 40
9.014278863375862
 40
9.014278863375862
 40
9.272349525644193
 40
9.301338882412148
 40
9.329867987358726
 40
9.426714356427738
 40
9.521012338109884
 40
9.521012338109884
 40
9.521012338109884
 40
10.13030035224317
 40
10.13030035224317
 40
10.13030035224317
 40
19.03061454879472
 40
19.03061454879472
 40
19.03061454879472
 40
19.61066034420761
 40
19.61066034420761
 40
19.61066034420761
 40
19.61066034420761
 10
46.27680399398321
 20
25.19115091201196
 30
0.0
 41
1.0
 10
46.27271979325663
 20
25.29298257340406
 30
0.0
 41
0.8268411148821904
 10
46.20123434585065
 20
25.36561876434272
 30
0.0
 41
0.8268411148821904
 10
46.09948267289017
 20
25.37132667930151
 30
0.0
 41
1.0
 10
43.64250923652316
 20
25.50915434368038
 30
0.0
 41
0.9991933503557325
 10
41.17741738470335
 20
25.52575392273122
 30
0.0
 41
0.9991933503557325
 10
38.71017251382681
 20
25.42108524632043
 30
0.0
 41
1.0
 10
38.45125085875571
 20
25.41006135918442
 30
0.0
 41
0.9999820555633443
 10
38.192417056013
 20
25.39713804265602
 30
0.0
 41
0.9999820555633443
 10
37.93368503947902
 20
25.38231599244016
 30
0.0
 41
1.0
 10
37.84790977806494
 20
25.37602316162737
 30
0.0
 41
1.0
 10
37.75210922239574
 20
25.37403227116111
 30
0.0
 41
1.0
 10
37.6473688026309
 20
25.36425273704744
 30
0.0
 41
1.0
 10
37.59825722854778
 20
25.34699575156374
 30
0.0
 41
1.0
 10
37.53736261589582
 20
25.30367706523448
 30
0.0
 41
1.0
 10
37.51035806944462
 20
25.24254989459184
 30
0.0
 41
1.0
 10
37.50494815316145
 20
25.21187147141716
 30
0.0
 41
1.0
 10
37.46986925033255
 20
25.01182043088008
 30
0.0
 41
1.0
 10
37.43479034750365
 20
24.81176939034299
 30
0.0
 41
1.0
 10
37.39971144467476
 20
24.61171834980591
 30
0.0
 41
1.0
 10
40.36648284309614
 20
24.61166788909428
 30
0.0
 41
1.0
 10
43.33325424151752
 20
24.61161742838265
 30
0.0
 41
1.0
 10
46.30002563993891
 20
24.61156696767102
 30
0.0
 41
1.0
 10
46.29228474598411
 20
24.80476054699416
 30
0.0
 41
0.9999999999982173
 10
46.2845441973322
 20
24.99795519510815
 30
0.0
 41
0.9999999999982173
 10
46.27680399398321
 20
25.19115091201196
 30
0.0
 41
1.0
  0
CIRCLE
  5
97
330
1F
100
AcDbEntity
  8
DEFAULT
100
AcDbCircle
 10
52.02391837307994
 20
1.279554870714485
 30
0.0
 40
0.9999999999999953
  0
SPLINE
  5
98
330
1F
100
AcDbEntity
  8
DEFAULT
100
AcDbSpline
210
0.0
220
0.0
230
1.0
 70
    11
 71
     3
 72
    21
 73
    17
 74
     0
 42
0.0000000001
 43
0.0000000001
 40
0.0
 40
0.0
 40
0.0
 40
0.0
 40
0.6861475710973188
 40
0.6861475710973188
 40
0.6861475710973188
 40
1.404887728577089
 40
1.404887728577089
 40
1.404887728577089
 40
2.091035299473075
 40
2.091035299473075
 40
2.091035299473075
 40
2.180238455146364
 40
2.276697457836502
 40
2.473693849649767
 40
2.670622810161299
 40
2.856355546545533
 40
2.856355546545533
 40
2.856355546545533
 40
2.856355546545533
 10
11.86813984574671
 20
1.528254282190586
 30
0.0
 10
11.86813976637494
 20
1.29953842515816
 30
0.0
 10
11.86813968700316
 20
1.070822568125734
 30
0.0
 10
11.86813960763139
 20
0.842106711093308
 30
0.0
 10
12.10771966012465
 20
0.842106711093308
 30
0.0
 10
12.34729971261791
 20
0.842106711093308
 30
0.0
 10
12.58687976511116
 20
0.842106711093308
 30
0.0
 10
12.58687968575613
 20
1.070822568058623
 30
0.0
 10
12.5868796064011
 20
1.299538425023939
 30
0.0
 10
12.58687952704606
 20
1.528254281989254
 30
0.0
 10
12.56281895005179
 20
1.510721349640487
 30
0.0
 10
12.50997566967791
 20
1.4783251460078
 30
0.0
 10
12.3910801161438
 20
1.430361933531386
 30
0.0
 10
12.22755982271691
 20
1.407407750666285
 30
0.0
 10
12.03414895779581
 20
1.434515164477572
 30
0.0
 10
11.91807170415457
 20
1.491663689907411
 30
0.0
 10
11.86813984574671
 20
1.528254282190586
 30
0.0
  0
SPLINE
  5
99
330
1F
100
AcDbEntity
  8
DEFAULT
100
AcDbSpline
210
0.0
220
0.0
230
1.0
 70
    12
 71
     2
 72
     6
 73
     3
 74
     0
 42
0.0000000001
 43
0.0000000001
 40
0.0
 40
0.0
 40
0.0
 40
0.0291243815190252
 40
0.0291243815190252
 40
0.0291243815190252
 10
12.61171675356972
 20
1.438558937023882
 30
0.0
 41
1.0
 10
12.59950025875343
 20
1.430625746875819
 30
0.0
 41
0.9995728113249319
 10
12.58684111202372
 20
1.423419898168167
 30
0.0
 41
1.0
  0
SPLINE
  5
9A
330
1F
100
AcDbEntity
  8
DEFAULT
100
AcDbSpline
210
0.0
220
0.0
230
1.0
 70
    12
 71
     2
 72
     6
 73
     3
 74
     0
 42
0.0000000001
 43
0.0000000001
 40
0.0
 40
0.0
 40
0.0
 40
0.0289266313218846
 40
0.0289266313218846
 40
0.0289266313218846
 10
11.86803331768757
 20
1.423504424345554
 30
0.0
 41
1.0
 10
11.85546323225938
 20
1.430666625709246
 30
0.0
 41
0.9995819083693558
 10
11.84332816413614
 20
1.43854344598713
 30
0.0
 41
1.0
  0
SPLINE
  5
9B
330
1F
100
AcDbEntity
  8
DEFAULT
100
AcDbSpline
210
0.0
220
0.0
230
1.0
 70
    12
 71
     3
 72
    68
 73
    64
 74
     0
 42
0.0000000001
 43
0.0000000001
 40
-0.1790612068547683
 40
-0.1790612068547683
 40
-0.1790612068547683
 40
-0.1790612068547683
 40
0.0
 40
0.0
 40
0.0
 40
0.2042019940651985
 40
0.2042019940651985
 40
0.2042019940651985
 40
2.503306151787859
 40
2.503306151787859
 40
2.503306151787859
 40
2.707512346847373
 40
2.707512346847373
 40
2.707512346847373
 40
3.117520221771764
 40
3.117520221771764
 40
3.117520221771764
 40
3.16464557671363
 40
3.16464557671363
 40
3.16464557671363
 40
3.211770931655495
 40
3.211770931655495
 40
3.211770931655495
 40
4.661677674114183
 40
4.661677674114183
 40
4.661677674114183
 40
5.373154041531835
 40
5.373154041531835
 40
5.373154041531835
 40
5.911542535127189
 40
5.911542535127189
 40
5.911542535127189
 40
7.286512600535747
 40
7.286512600535747
 40
7.286512600535747
 40
7.8249010941311
 40
7.8249010941311
 40
7.8249010941311
 40
8.536377461548753
 40
8.536377461548753
 40
8.536377461548753
 40
9.986284204007442
 40
9.986284204007442
 40
9.986284204007442
 40
10.03340955894931
 40
10.03340955894931
 40
10.03340955894931
 40
10.08053491389117
 40
10.08053491389117
 40
10.08053491389117
 40
10.49054278881556
 40
10.49054278881556
 40
10.49054278881556
 40
10.69474898387508
 40
10.69474898387508
 40
10.69474898387508
 40
12.99385314159774
 40
12.99385314159774
 40
12.99385314159774
 40
13.19805513566294
 40
13.19805513566294
 40
13.19805513566294
 40
13.37711634251771
 40
13.37711634251771
 40
13.37711634251771
 40
13.37711634251771
 10
11.55231105070606
 20
2.559134270148712
 30
0.0
 41
1.0
 10
11.49262398175447
 20
2.559134332220239
 30
0.0
 41
1.0
 10
11.43293691280288
 20
2.559134394291765
 30
0.0
 41
1.0
 10
11.37324984385129
 20
2.559134456363291
 30
0.0
 41
1.0
 10
11.29709833959049
 20
2.559134472831424
 30
0.0
 41
0.8047410755601504
 10
11.2432507920402
 20
2.505287227777211
 30
0.0
 41
0.8047410755601504
 10
11.24324984385561
 20
2.429135186660655
 30
0.0
 41
1.0
 10
11.24324984385129
 20
1.662766217608962
 30
0.0
 41
1.0
 10
11.2432498438513
 20
0.8963981650347417
 30
0.0
 41
1.0
 10
11.24324984385594
 20
0.1300293267984596
 30
0.0
 41
1.0
 10
11.24324930715748
 20
0.0538758309824335
 30
0.0
 41
0.8047417721457909
 10
11.29709680806463
 20
0.0000320069099899
 30
0.0
 41
0.8047417718024832
 10
11.3732498438513
 20
0.0000382035889726
 30
0.0
 41
0.9999999989700765
 10
11.50991913518996
 20
0.0000427523844812
 30
0.0
 41
0.9999999989700765
 10
11.64658842652863
 20
0.0000473011799899
 30
0.0
 41
0.9999999989700765
 10
11.78325771786729
 20
0.0000518499754986
 30
0.0
 41
0.9999999989700765
 10
11.79938394439782
 20
0.0000335349196062
 30
0.0
 41
0.9492461764207258
 10
11.81428269919653
 20
0.0061950324665108
 30
0.0
 41
0.9492461764207258
 10
11.82568547598929
 20
0.0175981839558447
 30
0.0
 41
0.9999999989700765
 10
11.83708825278206
 20
0.0290013354451785
 30
0.0
 41
0.9492461764207258
 10
11.84325884803787
 20
0.0439003996077673
 30
0.0
 41
0.9492461764207258
 10
11.84325771786585
 20
0.0600268230652963
 30
0.0
 41
0.9999999989700765
 10
11.84325771786633
 20
0.5433291717342343
 30
0.0
 41
0.9999999989700765
 10
11.84325771786681
 20
1.026631520403172
 30
0.0
 41
0.9999999989700765
 10
11.84325771786729
 20
1.50993386907211
 30
0.0
 41
0.9999999989700765
 10
11.69573109122052
 20
1.699826332552395
 30
0.0
 41
0.9728045190479094
 10
11.60790617885922
 20
1.923679047579747
 30
0.0
 41
0.9728045190479094
 10
11.58694830271313
 20
2.163228668084212
 30
0.0
 41
0.9999999989700765
 10
11.57130708636442
 20
2.342008589028643
 30
0.0
 41
0.9999999989700765
 10
11.55566587001572
 20
2.520788509973073
 30
0.0
 41
0.9999999989700765
 10
11.54002465366701
 20
2.699568430917504
 30
0.0
 41
0.9999999989700765
 10
11.9983480088032
 20
2.699568430917504
 30
0.0
 41
0.9999999989700765
 10
12.45667136393938
 20
2.699568430917504
 30
0.0
 41
0.9999999989700765
 10
12.91499471907557
 20
2.699568430917504
 30
0.0
 41
0.9999999989700765
 10
12.89935350272686
 20
2.520788509973073
 30
0.0
 41
0.9999999989700765
 10
12.88371228637816
 20
2.342008589028643
 30
0.0
 41
0.9999999989700765
 10
12.86807107002945
 20
2.163228668084212
 30
0.0
 41
0.9999999989700765
 10
12.84711319388336
 20
1.923679047579747
 30
0.0
 41
0.9728045190479094
 10
12.75928828152206
 20
1.699826332552395
 30
0.0
 41
0.9728045190479094
 10
12.61176165487529
 20
1.50993386907211
 30
0.0
 41
0.9999999989700765
 10
12.61176165487576
 20
1.026631520403172
 30
0.0
 41
0.9999999989700765
 10
12.61176165487623
 20
0.5433291717342343
 30
0.0
 41
0.9999999989700765
 10
12.61176165487671
 20
0.0600268230652963
 30
0.0
 41
0.9999999989700765
 10
12.61176052470469
 20
0.0439003996077673
 30
0.0
 41
0.9492461764207258
 10
12.6179311199605
 20
0.0290013354451785
 30
0.0
 41
0.9492461764207258
 10
12.62933389675326
 20
0.0175981839558447
 30
0.0
 41
0.9999999989700765
 10
12.64073667354603
 20
0.0061950324665108
 30
0.0
 41
0.9492461764207258
 10
12.65563542834473
 20
0.0000335349196062
 30
0.0
 41
0.9492461764207258
 10
12.67176165487526
 20
0.0000518499754986
 30
0.0
 41
0.9999999989700765
 10
12.80843094621393
 20
0.0000473011799899
 30
0.0
 41
0.9999999989700765
 10
12.94510023755259
 20
0.0000427523844812
 30
0.0
 41
0.9999999989700765
 10
13.08176952889126
 20
0.0000382035889726
 30
0.0
 41
0.9999999989700765
 10
13.15792256467792
 20
0.0000320069099899
 30
0.0
 41
0.8047417718024832
 10
13.21177006558507
 20
0.0538758309824335
 30
0.0
 41
0.8047417721457909
 10
13.21176952888662
 20
0.1300293267984596
 30
0.0
 41
1.0
 10
13.21176952889126
 20
0.8963981650347417
 30
0.0
 41
1.0
 10
13.21176952889126
 20
1.662766217608962
 30
0.0
 41
1.0
 10
13.21176952888694
 20
2.429135186660655
 30
0.0
 41
1.0
 10
13.21176858070236
 20
2.505287227777211
 30
0.0
 41
0.8047410755601504
 10
13.15792103315207
 20
2.559134472831424
 30
0.0
 41
0.8047410755601504
 10
13.08176952889126
 20
2.559134456363291
 30
0.0
 41
1.0
 10
13.02208245993967
 20
2.559134394291765
 30
0.0
 41
1.0
 10
12.96239539098808
 20
2.559134332220239
 30
0.0
 41
1.0
 10
12.90270832203649
 20
2.559134270148712
 30
0.0
 41
1.0
  0
SPLINE
  5
9C
330
1F
100
AcDbEntity
  8
DEFAULT
100
AcDbSpline
210
0.0
220
0.0
230
1.0
 70
    11
 71
     3
 72
    21
 73
    17
 74
     0
 42
0.0000000001
 43
0.0000000001
 40
0.0
 40
0.0
 40
0.0
 40
0.0
 40
0.6861475710973188
 40
0.6861475710973188
 40
0.6861475710973188
 40
1.404887728577089
 40
1.404887728577089
 40
1.404887728577089
 40
2.091035299473075
 40
2.091035299473075
 40
2.091035299473075
 40
2.180238455146364
 40
2.276697457836502
 40
2.473693849649767
 40
2.670622810161299
 40
2.856355546545533
 40
2.856355546545533
 40
2.856355546545533
 40
2.856355546545533
 10
3.419239692043783
 20
1.528230723575389
 30
0.0
 10
3.419239612672011
 20
1.299514866542963
 30
0.0
 10
3.419239533300239
 20
1.070799009510538
 30
0.0
 10
3.419239453928467
 20
0.8420831524781116
 30
0.0
 10
3.658819506421724
 20
0.8420831524781116
 30
0.0
 10
3.898399558914981
 20
0.8420831524781116
 30
0.0
 10
4.137979611408237
 20
0.8420831524781116
 30
0.0
 10
4.137979532053204
 20
1.070799009443427
 30
0.0
 10
4.137979452698169
 20
1.299514866408742
 30
0.0
 10
4.137979373343136
 20
1.528230723374057
 30
0.0
 10
4.113918796348862
 20
1.51069779102529
 30
0.0
 10
4.061075515974981
 20
1.478301587392603
 30
0.0
 10
3.94217996244087
 20
1.430338374916189
 30
0.0
 10
3.778659669013985
 20
1.407384192051088
 30
0.0
 10
3.585248804092885
 20
1.434491605862375
 30
0.0
 10
3.469171550451641
 20
1.491640131292215
 30
0.0
 10
3.419239692043783
 20
1.528230723575389
 30
0.0
  0
SPLINE
  5
9D
330
1F
100
AcDbEntity
  8
DEFAULT
100
AcDbSpline
210
0.0
220
0.0
230
1.0
 70
    12
 71
     2
 72
     6
 73
     3
 74
     0
 42
0.0000000001
 43
0.0000000001
 40
0.0
 40
0.0
 40
0.0
 40
0.0291243815190252
 40
0.0291243815190252
 40
0.0291243815190252
 10
4.162816599866794
 20
1.438535378408686
 30
0.0
 41
1.0
 10
4.150600105050501
 20
1.430602188260622
 30
0.0
 41
0.9995728113249319
 10
4.137940958320794
 20
1.423396339552971
 30
0.0
 41
1.0
  0
SPLINE
  5
9E
330
1F
100
AcDbEntity
  8
DEFAULT
100
AcDbSpline
210
0.0
220
0.0
230
1.0
 70
    12
 71
     2
 72
     6
 73
     3
 74
     0
 42
0.0000000001
 43
0.0000000001
 40
0.0
 40
0.0
 40
0.0
 40
0.0289266313218846
 40
0.0289266313218846
 40
0.0289266313218846
 10
3.419133163984643
 20
1.423480865730358
 30
0.0
 41
1.0
 10
3.406563078556458
 20
1.430643067094049
 30
0.0
 41
0.9995819083693558
 10
3.394428010433213
 20
1.438519887371934
 30
0.0
 41
1.0
  0
SPLINE
  5
9F
330
1F
100
AcDbEntity
  8
DEFAULT
100
AcDbSpline
210
0.0
220
0.0
230
1.0
 70
    12
 71
     3
 72
    68
 73
    64
 74
     0
 42
0.0000000001
 43
0.0000000001
 40
-0.1790612068547683
 40
-0.1790612068547683
 40
-0.1790612068547683
 40
-0.1790612068547683
 40
0.0
 40
0.0
 40
0.0
 40
0.2042019940651985
 40
0.2042019940651985
 40
0.2042019940651985
 40
2.503306151787859
 40
2.503306151787859
 40
2.503306151787859
 40
2.707512346847373
 40
2.707512346847373
 40
2.707512346847373
 40
3.117520221771764
 40
3.117520221771764
 40
3.117520221771764
 40
3.16464557671363
 40
3.16464557671363
 40
3.16464557671363
 40
3.211770931655495
 40
3.211770931655495
 40
3.211770931655495
 40
4.661677674114183
 40
4.661677674114183
 40
4.661677674114183
 40
5.373154041531835
 40
5.373154041531835
 40
5.373154041531835
 40
5.911542535127189
 40
5.911542535127189
 40
5.911542535127189
 40
7.286512600535747
 40
7.286512600535747
 40
7.286512600535747
 40
7.8249010941311
 40
7.8249010941311
 40
7.8249010941311
 40
8.536377461548753
 40
8.536377461548753
 40
8.536377461548753
 40
9.986284204007442
 40
9.986284204007442
 40
9.986284204007442
 40
10.03340955894931
 40
10.03340955894931
 40
10.03340955894931
 40
10.08053491389117
 40
10.08053491389117
 40
10.08053491389117
 40
10.49054278881556
 40
10.49054278881556
 40
10.49054278881556
 40
10.69474898387508
 40
10.69474898387508
 40
10.69474898387508
 40
12.99385314159774
 40
12.99385314159774
 40
12.99385314159774
 40
13.19805513566294
 40
13.19805513566294
 40
13.19805513566294
 40
13.37711634251771
 40
13.37711634251771
 40
13.37711634251771
 40
13.37711634251771
 10
3.103410897003137
 20
2.559110711533516
 30
0.0
 41
1.0
 10
3.043723828051547
 20
2.559110773605042
 30
0.0
 41
1.0
 10
2.984036759099958
 20
2.559110835676568
 30
0.0
 41
1.0
 10
2.924349690148368
 20
2.559110897748095
 30
0.0
 41
1.0
 10
2.84819818588756
 20
2.559110914216228
 30
0.0
 41
0.8047410755601504
 10
2.794350638337273
 20
2.505263669162015
 30
0.0
 41
0.8047410755601504
 10
2.794349690152686
 20
2.429111628045459
 30
0.0
 41
1.0
 10
2.794349690148367
 20
1.662742658993765
 30
0.0
 41
1.0
 10
2.794349690148369
 20
0.8963746064195453
 30
0.0
 41
1.0
 10
2.794349690153012
 20
0.1300057681832631
 30
0.0
 41
1.0
 10
2.794349153454558
 20
0.0538522723672371
 30
0.0
 41
0.8047417721457909
 10
2.848196654361707
 20
0.0000084482947934
 30
0.0
 41
0.8047417718024832
 10
2.924349690148369
 20
0.0000146449737761
 30
0.0
 41
0.9999999989700765
 10
3.061018981487035
 20
0.0000191937692848
 30
0.0
 41
0.9999999989700765
 10
3.197688272825701
 20
0.0000237425647935
 30
0.0
 41
0.9999999989700765
 10
3.334357564164367
 20
0.0000282913603021
 30
0.0
 41
0.9999999989700765
 10
3.350483790694898
 20
0.0000099763044098
 30
0.0
 41
0.9492461764207258
 10
3.365382545493602
 20
0.0061714738513144
 30
0.0
 41
0.9492461764207258
 10
3.376785322286365
 20
0.0175746253406482
 30
0.0
 41
0.9999999989700765
 10
3.388188099079129
 20
0.0289777768299821
 30
0.0
 41
0.9492461764207258
 10
3.394358694334942
 20
0.0438768409925709
 30
0.0
 41
0.9492461764207258
 10
3.394357564162922
 20
0.0600032644500998
 30
0.0
 41
0.9999999989700765
 10
3.394357564163403
 20
0.5433056131190379
 30
0.0
 41
0.9999999989700765
 10
3.394357564163885
 20
1.026607961787976
 30
0.0
 41
0.9999999989700765
 10
3.394357564164366
 20
1.509910310456914
 30
0.0
 41
0.9999999989700765
 10
3.246830937517593
 20
1.699802773937198
 30
0.0
 41
0.9728045190479094
 10
3.15900602515629
 20
1.923655488964551
 30
0.0
 41
0.9728045190479094
 10
3.138048149010203
 20
2.163205109469016
 30
0.0
 41
0.9999999989700765
 10
3.122406932661497
 20
2.341985030413446
 30
0.0
 41
0.9999999989700765
 10
3.106765716312791
 20
2.520764951357877
 30
0.0
 41
0.9999999989700765
 10
3.091124499964085
 20
2.699544872302307
 30
0.0
 41
0.9999999989700765
 10
3.549447855100271
 20
2.699544872302307
 30
0.0
 41
0.9999999989700765
 10
4.007771210236457
 20
2.699544872302307
 30
0.0
 41
0.9999999989700765
 10
4.466094565372643
 20
2.699544872302307
 30
0.0
 41
0.9999999989700765
 10
4.450453349023937
 20
2.520764951357877
 30
0.0
 41
0.9999999989700765
 10
4.434812132675231
 20
2.341985030413446
 30
0.0
 41
0.9999999989700765
 10
4.419170916326525
 20
2.163205109469016
 30
0.0
 41
0.9999999989700765
 10
4.398213040180437
 20
1.923655488964551
 30
0.0
 41
0.9728045190479094
 10
4.310388127819134
 20
1.699802773937198
 30
0.0
 41
0.9728045190479094
 10
4.162861501172362
 20
1.509910310456914
 30
0.0
 41
0.9999999989700765
 10
4.162861501172835
 20
1.026607961787976
 30
0.0
 41
0.9999999989700765
 10
4.162861501173308
 20
0.5433056131190379
 30
0.0
 41
0.9999999989700765
 10
4.162861501173781
 20
0.0600032644500998
 30
0.0
 41
0.9999999989700765
 10
4.162860371001762
 20
0.0438768409925709
 30
0.0
 41
0.9492461764207258
 10
4.169030966257574
 20
0.0289777768299821
 30
0.0
 41
0.9492461764207258
 10
4.180433743050338
 20
0.0175746253406482
 30
0.0
 41
0.9999999989700765
 10
4.191836519843101
 20
0.0061714738513144
 30
0.0
 41
0.9492461764207258
 10
4.206735274641805
 20
0.0000099763044098
 30
0.0
 41
0.9492461764207258
 10
4.222861501172336
 20
0.0000282913603021
 30
0.0
 41
0.9999999989700765
 10
4.359530792511002
 20
0.0000237425647935
 30
0.0
 41
0.9999999989700765
 10
4.496200083849669
 20
0.0000191937692848
 30
0.0
 41
0.9999999989700765
 10
4.632869375188335
 20
0.0000146449737761
 30
0.0
 41
0.9999999989700765
 10
4.709022410974995
 20
0.0000084482947934
 30
0.0
 41
0.8047417718024832
 10
4.762869911882146
 20
0.0538522723672371
 30
0.0
 41
0.8047417721457909
 10
4.762869375183691
 20
0.1300057681832631
 30
0.0
 41
1.0
 10
4.762869375188334
 20
0.8963746064195453
 30
0.0
 41
1.0
 10
4.762869375188336
 20
1.662742658993765
 30
0.0
 41
1.0
 10
4.762869375184017
 20
2.429111628045459
 30
0.0
 41
1.0
 10
4.76286842699943
 20
2.505263669162015
 30
0.0
 41
0.8047410755601504
 10
4.709020879449143
 20
2.559110914216228
 30
0.0
 41
0.8047410755601504
 10
4.632869375188335
 20
2.559110897748095
 30
0.0
 41
1.0
 10
4.573182306236745
 20
2.559110835676568
 30
0.0
 41
1.0
 10
4.513495237285156
 20
2.559110773605042
 30
0.0
 41
1.0
 10
4.453808168333566
 20
2.559110711533516
 30
0.0
 41
1.0
  0
SPLINE
  5
A0
330
1F
100
AcDbEntity
  8
DEFAULT
100
AcDbSpline
210
0.0
220
0.0
230
1.0
 70
    12
 71
     3
 72
    68
 73
    64
 74
     0
 42
0.0000000001
 43
0.0000000001
 40
-0.1790612068547683
 40
-0.1790612068547683
 40
-0.1790612068547683
 40
-0.1790612068547683
 40
0.0
 40
0.0
 40
0.0
 40
0.2042019940651985
 40
0.2042019940651985
 40
0.2042019940651985
 40
2.503306151787859
 40
2.503306151787859
 40
2.503306151787859
 40
2.707512346847373
 40
2.707512346847373
 40
2.707512346847373
 40
3.117520221771764
 40
3.117520221771764
 40
3.117520221771764
 40
3.16464557671363
 40
3.16464557671363
 40
3.16464557671363
 40
3.211770931655495
 40
3.211770931655495
 40
3.211770931655495
 40
4.661677674114183
 40
4.661677674114183
 40
4.661677674114183
 40
5.373154041531835
 40
5.373154041531835
 40
5.373154041531835
 40
5.911542535127189
 40
5.911542535127189
 40
5.911542535127189
 40
7.286512600535747
 40
7.286512600535747
 40
7.286512600535747
 40
7.8249010941311
 40
7.8249010941311
 40
7.8249010941311
 40
8.536377461548753
 40
8.536377461548753
 40
8.536377461548753
 40
9.986284204007442
 40
9.986284204007442
 40
9.986284204007442
 40
10.03340955894931
 40
10.03340955894931
 40
10.03340955894931
 40
10.08053491389117
 40
10.08053491389117
 40
10.08053491389117
 40
10.49054278881556
 40
10.49054278881556
 40
10.49054278881556
 40
10.69474898387508
 40
10.69474898387508
 40
10.69474898387508
 40
12.99385314159774
 40
12.99385314159774
 40
12.99385314159774
 40
13.19805513566294
 40
13.19805513566294
 40
13.19805513566294
 40
13.37711634251771
 40
13.37711634251771
 40
13.37711634251771
 40
13.37711634251771
 10
-10.54902814363561
 20
2.559109722235624
 30
0.0
 41
1.0
 10
-10.6087152125872
 20
2.55910978430715
 30
0.0
 41
1.0
 10
-10.66840228153879
 20
2.559109846378677
 30
0.0
 41
1.0
 10
-10.72808935049038
 20
2.559109908450203
 30
0.0
 41
1.0
 10
-10.80424085475119
 20
2.559109924918336
 30
0.0
 41
0.8047410755601504
 10
-10.85808840230148
 20
2.505262679864123
 30
0.0
 41
0.8047410755601504
 10
-10.85808935048606
 20
2.429110638747567
 30
0.0
 41
1.0
 10
-10.85808935049038
 20
1.662741669695874
 30
0.0
 41
1.0
 10
-10.85808935049038
 20
0.8963736171216536
 30
0.0
 41
1.0
 10
-10.85808935048574
 20
0.1300047788853715
 30
0.0
 41
1.0
 10
-10.85808988718419
 20
0.0538512830693454
 30
0.0
 41
0.8047417721457909
 10
-10.80424238627704
 20
0.0000074589969018
 30
0.0
 41
0.8047417718024832
 10
-10.72808935049038
 20
0.0000136556758845
 30
0.0
 41
0.9999999989700765
 10
-10.59142005915172
 20
0.0000182044713932
 30
0.0
 41
0.9999999989700765
 10
-10.45475076781305
 20
0.0000227532669019
 30
0.0
 41
0.9999999989700765
 10
-10.31808147647438
 20
0.0000273020624105
 30
0.0
 41
0.9999999989700765
 10
-10.30195524994385
 20
0.0000089870065182
 30
0.0
 41
0.9492461764207258
 10
-10.28705649514515
 20
0.0061704845534228
 30
0.0
 41
0.9492461764207258
 10
-10.27565371835238
 20
0.0175736360427566
 30
0.0
 41
0.9999999989700765
 10
-10.26425094155962
 20
0.0289767875320905
 30
0.0
 41
0.9492461764207258
 10
-10.25808034630381
 20
0.0438758516946793
 30
0.0
 41
0.9492461764207258
 10
-10.25808147647583
 20
0.0600022751522082
 30
0.0
 41
0.9999999989700765
 10
-10.25808147647535
 20
0.5433046238211463
 30
0.0
 41
0.9999999989700765
 10
-10.25808147647487
 20
1.026606972490084
 30
0.0
 41
0.9999999989700765
 10
-10.25808147647438
 20
1.509909321159022
 30
0.0
 41
0.9999999989700765
 10
-10.40560810312116
 20
1.699801784639307
 30
0.0
 41
0.9728045190479094
 10
-10.49343301548246
 20
1.923654499666659
 30
0.0
 41
0.9728045190479094
 10
-10.51439089162855
 20
2.163204120171124
 30
0.0
 41
0.9999999989700765
 10
-10.53003210797725
 20
2.341984041115555
 30
0.0
 41
0.9999999989700765
 10
-10.54567332432596
 20
2.520763962059985
 30
0.0
 41
0.9999999989700765
 10
-10.56131454067467
 20
2.699543883004416
 30
0.0
 41
0.9999999989700765
 10
-10.10299118553848
 20
2.699543883004415
 30
0.0
 41
0.9999999989700765
 10
-9.644667830402293
 20
2.699543883004415
 30
0.0
 41
0.9999999989700765
 10
-9.186344475266107
 20
2.699543883004416
 30
0.0
 41
0.9999999989700765
 10
-9.201985691614814
 20
2.520763962059985
 30
0.0
 41
0.9999999989700765
 10
-9.217626907963519
 20
2.341984041115555
 30
0.0
 41
0.9999999989700765
 10
-9.233268124312225
 20
2.163204120171124
 30
0.0
 41
0.9999999989700765
 10
-9.254226000458312
 20
1.92365449966666
 30
0.0
 41
0.9728045190479094
 10
-9.342050912819614
 20
1.699801784639307
 30
0.0
 41
0.9728045190479094
 10
-9.489577539466389
 20
1.509909321159022
 30
0.0
 41
0.9999999989700765
 10
-9.489577539465914
 20
1.026606972490084
 30
0.0
 41
0.9999999989700765
 10
-9.489577539465442
 20
0.5433046238211463
 30
0.0
 41
0.9999999989700765
 10
-9.48957753946497
 20
0.0600022751522082
 30
0.0
 41
0.9999999989700765
 10
-9.48957866963699
 20
0.0438758516946793
 30
0.0
 41
0.9492461764207258
 10
-9.48340807438118
 20
0.0289767875320905
 30
0.0
 41
0.9492461764207258
 10
-9.472005297588412
 20
0.0175736360427566
 30
0.0
 41
0.9999999989700765
 10
-9.460602520795652
 20
0.0061704845534228
 30
0.0
 41
0.9492461764207258
 10
-9.44570376599695
 20
0.0000089870065182
 30
0.0
 41
0.9492461764207258
 10
-9.429577539466415
 20
0.0000273020624105
 30
0.0
 41
0.9999999989700765
 10
-9.292908248127748
 20
0.0000227532669019
 30
0.0
 41
0.9999999989700765
 10
-9.156238956789082
 20
0.0000182044713932
 30
0.0
 41
0.9999999989700765
 10
-9.019569665450415
 20
0.0000136556758845
 30
0.0
 41
0.9999999989700765
 10
-8.943416629663753
 20
0.0000074589969018
 30
0.0
 41
0.8047417718024832
 10
-8.889569128756605
 20
0.0538512830693455
 30
0.0
 41
0.8047417721457909
 10
-8.88956966545506
 20
0.1300047788853715
 30
0.0
 41
1.0
 10
-8.889569665450416
 20
0.8963736171216536
 30
0.0
 41
1.0
 10
-8.889569665450415
 20
1.662741669695874
 30
0.0
 41
1.0
 10
-8.889569665454733
 20
2.429110638747567
 30
0.0
 41
1.0
 10
-8.88957061363932
 20
2.505262679864123
 30
0.0
 41
0.8047410755601504
 10
-8.943418161189609
 20
2.559109924918336
 30
0.0
 41
0.8047410755601504
 10
-9.019569665450415
 20
2.559109908450203
 30
0.0
 41
1.0
 10
-9.079256734402005
 20
2.559109846378677
 30
0.0
 41
1.0
 10
-9.138943803353595
 20
2.559109784307151
 30
0.0
 41
1.0
 10
-9.198630872305184
 20
2.559109722235624
 30
0.0
 41
1.0
  0
SPLINE
  5
A1
330
1F
100
AcDbEntity
  8
DEFAULT
100
AcDbSpline
210
0.0
220
0.0
230
1.0
 70
    11
 71
     3
 72
    21
 73
    17
 74
     0
 42
0.0000000001
 43
0.0000000001
 40
0.0
 40
0.0
 40
0.0
 40
0.0
 40
0.6861475710973188
 40
0.6861475710973188
 40
0.6861475710973188
 40
1.404887728577089
 40
1.404887728577089
 40
1.404887728577089
 40
2.091035299473075
 40
2.091035299473075
 40
2.091035299473075
 40
2.180238455146364
 40
2.276697457836502
 40
2.473693849649767
 40
2.670622810161299
 40
2.856355546545533
 40
2.856355546545533
 40
2.856355546545533
 40
2.856355546545533
 10
-10.23319934859497
 20
1.528229734277498
 30
0.0
 10
-10.23319942796674
 20
1.299513877245072
 30
0.0
 10
-10.23319950733851
 20
1.070798020212646
 30
0.0
 10
-10.23319958671028
 20
0.84208216318022
 30
0.0
 10
-9.993619534217027
 20
0.84208216318022
 30
0.0
 10
-9.75403948172377
 20
0.84208216318022
 30
0.0
 10
-9.514459429230513
 20
0.84208216318022
 30
0.0
 10
-9.514459508585547
 20
1.070798020145535
 30
0.0
 10
-9.51445958794058
 20
1.299513877110851
 30
0.0
 10
-9.514459667295615
 20
1.528229734076165
 30
0.0
 10
-9.538520244289888
 20
1.510696801727399
 30
0.0
 10
-9.59136352466377
 20
1.478300598094711
 30
0.0
 10
-9.71025907819788
 20
1.430337385618297
 30
0.0
 10
-9.873779371624765
 20
1.407383202753197
 30
0.0
 10
-10.06719023654587
 20
1.434490616564484
 30
0.0
 10
-10.18326749018711
 20
1.491639141994323
 30
0.0
 10
-10.23319934859497
 20
1.528229734277498
 30
0.0
  0
SPLINE
  5
A2
330
1F
100
AcDbEntity
  8
DEFAULT
100
AcDbSpline
210
0.0
220
0.0
230
1.0
 70
    12
 71
     3
 72
    51
 73
    47
 74
     0
 42
0.0000000001
 43
0.0000000001
 40
0.0
 40
0.0
 40
0.0
 40
0.0
 40
0.1850170296733504
 40
0.1850170296733504
 40
0.1850170296733504
 40
0.520173497597568
 40
0.520173497597568
 40
0.520173497597568
 40
9.099676400445363
 40
9.099676400445363
 40
9.099676400445363
 40
9.615544201653611
 40
9.615544201653611
 40
9.615544201653611
 40
9.993973654413724
 40
9.993973654413724
 40
9.993973654413724
 40
14.30315525470423
 40
14.30315525470423
 40
14.30315525470423
 40
14.7742825708795
 40
14.7742825708795
 40
14.7742825708795
 40
16.18368727112652
 40
16.18368727112652
 40
16.18368727112652
 40
16.75785465601795
 40
16.75785465601795
 40
16.75785465601795
 40
17.15903056950664
 40
17.15903056950664
 40
17.15903056950664
 40
17.20072622779563
 40
17.38818531472793
 40
18.19039763389805
 40
18.54823534358818
 40
18.81309407149477
 40
19.26458975272412
 40
19.71165219652836
 40
20.1524174949869
 40
20.60541677168002
 40
20.84769903166183
 40
20.91374847699942
 40
20.91374847699942
 40
20.91374847699942
 40
21.19122867902137
 40
21.19122867902137
 40
21.19122867902137
 40
21.19122867902137
 10
-9.475815483686716
 20
2.71659003719634
 30
0.0
 41
1.0
 10
-9.476993273706817
 20
2.77825113294912
 30
0.0
 41
1.0
 10
-9.47817106372692
 20
2.8399122287019
 30
0.0
 41
1.0
 10
-9.479348853747021
 20
2.90157332445468
 30
0.0
 41
1.0
 10
-9.481546584331035
 20
3.016602693150079
 30
0.0
 41
0.9434068772082975
 10
-9.437177499426115
 20
3.122753387857566
 30
0.0
 41
0.9434068772082975
 10
-9.353774554242802
 20
3.202003210677125
 30
0.0
 41
1.0
 10
-6.632042655990542
 20
4.079971150252438
 30
0.0
 41
1.0
 10
-3.910310757738282
 20
4.95793908982775
 30
0.0
 41
1.0
 10
-1.188578859486022
 20
5.835907029403063
 30
0.0
 41
1.0
 10
-1.024207994282171
 20
5.888929279662873
 30
0.0
 41
0.9912851293171517
 10
-0.8534405751599549
 20
5.914767795812478
 30
0.0
 41
0.9912851293171517
 10
-0.6807412500428535
 20
5.912747039871241
 30
0.0
 41
1.0
 10
-0.5538084145725876
 20
5.91126179792695
 30
0.0
 41
0.9874844733509924
 10
-0.4295449665717789
 20
5.885324447347043
 30
0.0
 41
0.9874844733509924
 10
-0.3126165735252825
 20
5.83590884693868
 30
0.0
 41
1.0
 10
0.820454430158498
 20
4.953083549170013
 30
0.0
 41
1.0
 10
1.953525433842279
 20
4.070258251401346
 30
0.0
 41
1.0
 10
3.086596437526059
 20
3.187432953632678
 30
0.0
 41
1.0
 10
3.081118598661257
 20
3.030485644586509
 30
0.0
 41
1.0
 10
3.075640759796455
 20
2.87353833554034
 30
0.0
 41
1.0
 10
3.070162920931653
 20
2.71659102649417
 30
0.0
 41
1.0
 10
3.540059042905556
 20
2.716593917957587
 30
0.0
 41
1.0
 10
4.009955164879459
 20
2.716596809421004
 30
0.0
 41
1.0
 10
4.479851286853362
 20
2.716599700884421
 30
0.0
 41
1.0
 10
4.473264146541953
 20
2.907875461325149
 30
0.0
 41
1.0
 10
4.466677006230544
 20
3.099151221765878
 30
0.0
 41
1.0
 10
4.460089865919134
 20
3.290426982206606
 30
0.0
 41
1.0
 10
4.42926044971709
 20
3.422567723838873
 30
0.0
 41
0.9713820167738915
 10
4.361453862974866
 20
3.540100252514357
 30
0.0
 41
0.9713820167738915
 10
4.262491568978486
 20
3.632933936430586
 30
0.0
 41
1.0
 10
4.252352659857429
 20
3.642444955694489
 30
0.0
 41
1.0
 10
4.198142313578966
 20
3.696258546871171
 30
0.0
 41
1.0
 10
3.952740194915354
 20
3.937026514907684
 30
0.0
 41
1.0
 10
3.630127885660222
 20
4.249559825171223
 30
0.0
 41
1.0
 10
3.290685306991715
 20
4.581787680050929
 30
0.0
 41
1.0
 10
3.034316803422612
 20
4.83175658334518
 30
0.0
 41
1.0
 10
2.757301689535133
 20
5.103155183854938
 30
0.0
 41
1.0
 10
2.439236189818793
 20
5.416432484396686
 30
0.0
 41
1.0
 10
2.117567456761098
 20
5.726758879165244
 30
0.0
 41
1.0
 10
1.850575027410068
 20
5.995325317655188
 30
0.0
 41
1.0
 10
1.668955557233051
 20
6.172570521744866
 30
0.0
 41
1.0
 10
1.595203583461805
 20
6.244153588735956
 30
0.0
 41
1.0
 10
1.580601572304806
 20
6.26067605321956
 30
0.0
 41
1.0
 10
1.516186687498202
 20
6.329530341869011
 30
0.0
 41
0.9625143386592643
 10
1.43263071376777
 20
6.373217616354127
 30
0.0
 41
0.9625143386592643
 10
1.339330103916275
 20
6.386824937546165
 30
0.0
 41
1.0
  0
SPLINE
  5
A3
330
1F
100
AcDbEntity
  8
DEFAULT
100
AcDbSpline
210
0.0
220
0.0
230
1.0
 70
    12
 71
     2
 72
    12
 73
     9
 74
     0
 42
0.0000000001
 43
0.0000000001
 40
-0.2945245821050146
 40
-0.2945245821050146
 40
-0.2945245821050146
 40
0.0
 40
0.0
 40
10.17777351185168
 40
10.17777351185168
 40
10.5324244727375
 40
10.5324244727375
 40
10.71740804035282
 40
10.71740804035282
 40
10.71740804035282
 10
1.947809679575638
 20
5.8970717638272
 30
0.0
 41
1.0
 10
2.093398633218234
 20
5.874051922306603
 30
0.0
 41
0.9986234502627014
 10
2.235774950988507
 20
5.835906927031235
 30
0.0
 41
1.0
 10
7.151302004914813
 20
4.518955068854179
 30
0.0
 41
1.0
 10
12.06682905884112
 20
3.202003210677124
 30
0.0
 41
1.0
 10
12.22756817578012
 20
3.094787958750022
 30
0.0
 41
0.8810856103606852
 10
12.22703991991566
 20
2.901573324454731
 30
0.0
 41
1.0
 10
12.22720041695632
 20
2.809081679897989
 30
0.0
 41
0.9999999999834117
 10
12.22736197948561
 20
2.716590037196275
 30
0.0
 41
1.0
  0
SPLINE
  5
A4
330
1F
100
AcDbEntity
  8
DEFAULT
100
AcDbSpline
210
0.0
220
0.0
230
1.0
 70
    12
 71
     5
 72
   144
 73
   138
 74
     0
 42
0.0000000001
 43
0.0000000001
 40
0.0
 40
0.0
 40
0.0
 40
0.0
 40
0.0
 40
0.0
 40
8.362512113541069
 40
8.362512113541069
 40
8.362512113541069
 40
8.362512113541069
 40
8.362512113541069
 40
8.615244180804195
 40
8.615244180804195
 40
8.615244180804195
 40
8.615244180804195
 40
8.615244180804195
 40
10.00956595936061
 40
10.00956595936061
 40
10.00956595936061
 40
10.00956595936061
 40
10.00956595936061
 40
10.57533852707282
 40
10.57533852707282
 40
10.57533852707282
 40
10.57533852707282
 40
10.57533852707282
 40
11.04755431807279
 40
11.04755431807279
 40
11.04755431807279
 40
11.04755431807279
 40
11.04755431807279
 40
11.49729393612517
 40
11.49729393612517
 40
11.49729393612517
 40
11.49729393612517
 40
11.49729393612517
 40
15.81995611122757
 40
15.81995611122757
 40
15.81995611122757
 40
19.0619524331446
 40
19.0619524331446
 40
19.0619524331446
 40
21.08820064235752
 40
21.08820064235752
 40
21.08820064235752
 40
21.25705528901998
 40
21.25705528901998
 40
21.25705528901998
 40
21.86493601188721
 40
21.86493601188721
 40
21.86493601188721
 40
22.1013335829584
 40
22.1013335829584
 40
22.1013335829584
 40
22.30395405684127
 40
22.30395405684127
 40
22.30395405684127
 40
22.30395405684127
 40
22.30395405684127
 40
23.06018973343152
 40
23.06018973343152
 40
23.06018973343152
 40
23.06018973343152
 40
23.06018973343152
 40
25.10620809847857
 40
25.10620809847857
 40
25.10620809847857
 40
25.10620809847857
 40
25.10620809847857
 40
26.10620809847857
 40
26.10620809847857
 40
26.10620809847857
 40
26.10620809847857
 40
26.10620809847857
 40
27.18147134977874
 40
27.18147134977874
 40
27.18147134977874
 40
27.51535292723033
 40
27.51535292723033
 40
27.51535292723033
 40
28.98630469544085
 40
28.98630469544085
 40
28.98630469544085
 40
31.95385761526463
 40
31.95385761526463
 40
31.95385761526463
 40
33.8143289818855
 40
33.8143289818855
 40
33.8143289818855
 40
33.8143289818855
 40
33.8143289818855
 40
34.11697116950812
 40
34.11697116950812
 40
34.11697116950812
 40
34.11697116950812
 40
34.11697116950812
 40
34.60217206708953
 40
34.60217206708953
 40
34.60217206708953
 40
34.60217206708953
 40
34.60217206708953
 40
35.16605886834547
 40
35.16605886834547
 40
35.16605886834547
 40
35.16605886834547
 40
35.16605886834547
 40
36.56449006551787
 40
36.56449006551787
 40
36.56449006551787
 40
36.56449006551787
 40
36.56449006551787
 40
36.83494836094448
 40
36.83494836094448
 40
36.83494836094448
 40
36.83494836094448
 40
36.83494836094448
 40
37.85172702943652
 40
37.85172702943652
 40
37.85172702943652
 40
37.85172702943652
 40
37.85172702943652
 40
37.95585868025105
 40
37.95585868025105
 40
37.95585868025105
 40
38.07883436524601
 40
38.07883436524601
 40
38.07883436524601
 40
38.3676142241631
 40
38.3676142241631
 40
38.3676142241631
 40
38.68049238416225
 40
38.68049238416225
 40
38.68049238416225
 40
38.96962693672162
 40
38.96962693672162
 40
38.96962693672162
 40
38.96962693672162
 40
38.96962693672162
 40
39.46468191754057
 40
39.46468191754057
 40
39.46468191754057
 40
39.46468191754057
 40
39.46468191754057
 40
39.46468191754057
 10
3.317251606446092
 20
4.555765315142557
 30
0.0
 41
1.0
 10
4.959377018011817
 20
4.238450823423439
 30
0.0
 41
1.0
 10
6.601502429577541
 20
3.921136331704319
 30
0.0
 41
1.0
 10
8.243627841143265
 20
3.6038218399852
 30
0.0
 41
1.0
 10
9.885753252708989
 20
3.28650734826608
 30
0.0
 41
1.0
 10
11.52787866427471
 20
2.969192856546961
 30
0.0
 41
1.0
 10
11.52611554634669
 20
2.918677202259442
 30
0.0
 41
1.0
 10
11.52435242841866
 20
2.868161547971924
 30
0.0
 41
1.0
 10
11.52258931049063
 20
2.817645893684405
 30
0.0
 41
1.0
 10
11.52082619256261
 20
2.767130239396885
 30
0.0
 41
1.0
 10
11.51906307463458
 20
2.716614585109367
 30
0.0
 41
1.0
 10
11.79792743034395
 20
2.716615618080162
 30
0.0
 41
1.0
 10
12.07679178605332
 20
2.716616651050956
 30
0.0
 41
1.0
 10
12.35565614176269
 20
2.716617684021752
 30
0.0
 41
1.0
 10
12.63452049747206
 20
2.716618716992546
 30
0.0
 41
1.0
 10
12.91338485318143
 20
2.716619749963341
 30
0.0
 41
1.0
 10
12.90943581760922
 20
2.829705332833465
 30
0.0
 41
1.0
 10
12.90548678203701
 20
2.942790915703589
 30
0.0
 41
1.0
 10
12.90153774646479
 20
3.055876498573713
 30
0.0
 41
1.0
 10
12.89758871089258
 20
3.168962081443838
 30
0.0
 41
1.0
 10
12.89363967532036
 20
3.282047664313962
 30
0.0
 41
1.0
 10
12.89844325281212
 20
3.377762352147364
 30
0.0
 41
0.9125728055206833
 10
12.87181386458371
 20
3.47369588515389
 30
0.0
 41
0.8688592082810251
 10
12.81302648528082
 20
3.555401619018821
 30
0.0
 41
0.8688592082810249
 10
12.73052912411236
 20
3.611138074528434
 30
0.0
 41
0.9125728055206833
 10
12.6382498961302
 20
3.637001560503477
 30
0.0
 41
1.0
 10
12.55163940610299
 20
3.661276245533815
 30
0.0
 41
0.9999969022561087
 10
12.46498121579405
 20
3.685380480962755
 30
0.0
 41
0.9999953533841632
 10
12.37827572765095
 20
3.709314153994639
 30
0.0
 41
0.999995353384163
 10
12.29152334456199
 20
3.733077153418536
 30
0.0
 41
0.9999969022561087
 10
12.20472446985009
 20
3.756669369609973
 30
0.0
 41
1.0
 10
11.37045956290195
 20
3.983425282183457
 30
0.0
 41
1.0
 10
10.53617529244771
 20
4.210110403402635
 30
0.0
 41
1.0
 10
9.701884654977011
 20
4.436772286904604
 30
0.0
 41
1.0
 10
8.241887700698125
 20
4.833473119666995
 30
0.0
 41
1.0
 10
6.781950850925344
 20
5.230394052929652
 30
0.0
 41
1.0
 10
6.156264611821138
 20
5.400506518626338
 30
0.0
 41
1.0
 10
5.139509517217927
 20
5.676884995400411
 30
0.0
 41
1.0
 10
4.122703630472381
 20
5.953077723948816
 30
0.0
 41
1.0
 10
3.731618403259699
 20
6.059283445715979
 30
0.0
 41
1.0
 10
3.307937802827209
 20
6.174321199153425
 30
0.0
 41
1.0
 10
2.884253785157429
 20
6.289345049621907
 30
0.0
 41
1.0
 10
2.851660701658287
 20
6.29818615658647
 30
0.0
 41
1.0
 10
2.701714422767588
 20
6.338792245784728
 30
0.0
 41
1.0
 10
2.551648823774061
 20
6.378963040275503
 30
0.0
 41
1.0
 10
2.434098999324019
 20
6.409996147192762
 30
0.0
 41
1.0
 10
2.270639688984528
 20
6.452343085569629
 30
0.0
 41
1.0
 10
2.106843033322181
 20
6.493375140702592
 30
0.0
 41
1.0
 10
2.060947310963589
 20
6.504732464498128
 30
0.0
 41
1.0
 10
1.975641127133329
 20
6.525526870349647
 30
0.0
 41
1.0
 10
1.890178760007679
 20
6.545670365929634
 30
0.0
 41
1.0
 10
1.850702447403193
 20
6.554827494523106
 30
0.0
 41
1.0
 10
1.811193856104917
 20
6.563843832639281
 30
0.0
 41
1.0
 10
1.771653481141307
 20
6.572718310544194
 30
0.0
 41
1.0
 10
1.62403961269482
 20
6.605848902127923
 30
0.0
 41
0.9984538482396074
 10
1.475026274546871
 20
6.632478552346837
 30
0.0
 41
0.9976807723594112
 10
1.324956612694981
 20
6.652530245199543
 30
0.0
 41
0.9976807723594112
 10
1.174179211811733
 20
6.665957404231471
 30
0.0
 41
0.9984538482396076
 10
1.023045400420756
 20
6.672744252606205
 30
0.0
 41
1.0
 10
0.6138417274113458
 20
6.672744252606205
 30
0.0
 41
1.0
 10
0.2046380544019357
 20
6.672744252606205
 30
0.0
 41
1.0
 10
-0.2045656186074744
 20
6.672744252606205
 30
0.0
 41
1.0
 10
-0.6137692916168845
 20
6.672744252606205
 30
0.0
 41
1.0
 10
-1.022972964626295
 20
6.672744252606204
 30
0.0
 41
1.0
 10
-1.370325982067312
 20
6.672744252606204
 30
0.0
 41
1.0
 10
-1.717678999508329
 20
6.672744252606204
 30
0.0
 41
1.0
 10
-2.052323526801134
 20
6.473744800110926
 30
0.0
 41
1.0
 10
-2.37551156112962
 20
6.346267242909744
 30
0.0
 41
1.0
 10
-2.701086714060056
 20
6.225209659422782
 30
0.0
 41
1.0
 10
-2.902663723553752
 20
6.150257914990831
 30
0.0
 41
1.0
 10
-3.105132354583671
 20
6.077775895054498
 30
0.0
 41
1.0
 10
-3.308234131273965
 20
6.007064301651761
 30
0.0
 41
1.0
 10
-3.574892349134644
 20
5.915799673413001
 30
0.0
 41
1.0
 10
-3.841750123099538
 20
5.825173642056905
 30
0.0
 41
1.0
 10
-3.904987353589054
 20
5.803726569486743
 30
0.0
 41
1.0
 10
-4.246850949824735
 20
5.687877016725378
 30
0.0
 41
1.0
 10
-4.588776585117068
 20
5.572192409701888
 30
0.0
 41
1.0
 10
-4.86745934439255
 20
5.477933893857279
 30
0.0
 41
1.0
 10
-5.708309013708496
 20
5.193336491951511
 30
0.0
 41
1.0
 10
-6.548708225514285
 20
4.907433552287526
 30
0.0
 41
1.0
 10
-7.110534573645555
 20
4.716112219067998
 30
0.0
 41
1.0
 10
-8.024727957282295
 20
4.405245019398395
 30
0.0
 41
1.0
 10
-8.93952170852053
 20
4.09612812477557
 30
0.0
 41
1.0
 10
-9.29209771304324
 20
3.977193293593612
 30
0.0
 41
1.0
 10
-9.644707984770182
 20
3.858364284228826
 30
0.0
 41
1.0
 10
-9.99732508199667
 20
3.739564053234778
 30
0.0
 41
1.0
 10
-10.05468517450462
 20
3.720238863692402
 30
0.0
 41
1.0
 10
-10.11204526701257
 20
3.700913674150026
 30
0.0
 41
1.0
 10
-10.16940535952052
 20
3.68158848460765
 30
0.0
 41
1.0
 10
-10.22676545202847
 20
3.662263295065274
 30
0.0
 41
1.0
 10
-10.28412554453642
 20
3.642938105522898
 30
0.0
 41
1.0
 10
-10.37713618159042
 20
3.611601890535509
 30
0.0
 41
0.9321798701642041
 10
-10.4599284350821
 20
3.55377073397691
 30
0.0
 41
0.8982698052463064
 10
-10.52196873239621
 20
3.472993501939332
 30
0.0
 41
0.8982698052463063
 10
-10.5564865223437
 20
3.378085535549371
 30
0.0
 41
0.9321798701642041
 10
-10.56277017346526
 20
3.280139363069236
 30
0.0
 41
1.0
 10
-10.56667136271363
 20
3.167429497894644
 30
0.0
 41
1.0
 10
-10.57057255196199
 20
3.054719632720053
 30
0.0
 41
1.0
 10
-10.57447374121036
 20
2.942009767545462
 30
0.0
 41
1.0
 10
-10.57837493045873
 20
2.829299902370871
 30
0.0
 41
1.0
 10
-10.5822761197071
 20
2.716590037196279
 30
0.0
 41
1.0
 10
-10.30258988033693
 20
2.716596035126249
 30
0.0
 41
1.0
 10
-10.02290364096676
 20
2.71660203305622
 30
0.0
 41
1.0
 10
-9.743217401596596
 20
2.716608030986191
 30
0.0
 41
1.0
 10
-9.463531162226431
 20
2.716614028916161
 30
0.0
 41
1.0
 10
-9.183844922856263
 20
2.716620026846132
 30
0.0
 41
1.0
 10
-9.18573170309202
 20
2.770678769367065
 30
0.0
 41
1.0
 10
-9.187618483327775
 20
2.824737511887998
 30
0.0
 41
1.0
 10
-9.189505263563532
 20
2.878796254408931
 30
0.0
 41
1.0
 10
-9.191392043799288
 20
2.932854996929864
 30
0.0
 41
1.0
 10
-9.193278824035046
 20
2.986913739450797
 30
0.0
 41
1.0
 10
-7.786143337529611
 20
3.323008588071482
 30
0.0
 41
1.0
 10
-6.379007851024177
 20
3.659103436692169
 30
0.0
 41
1.0
 10
-4.971872364518743
 20
3.995198285312855
 30
0.0
 41
1.0
 10
-3.564736878013309
 20
4.331293133933541
 30
0.0
 41
1.0
 10
-2.157601391507875
 20
4.667387982554227
 30
0.0
 41
1.0
 10
-2.137315401175322
 20
4.672164932150115
 30
0.0
 41
1.0
 10
-2.116817981643254
 20
4.67590088727369
 30
0.0
 41
1.0
 10
-2.096167030903454
 20
4.67871612625282
 30
0.0
 41
1.0
 10
-2.050919487313373
 20
4.683110334167823
 30
0.0
 41
1.0
 10
-2.00549245227877
 20
4.684269294066122
 30
0.0
 41
1.0
 10
-1.980875355219609
 20
4.684070733056415
 30
0.0
 41
1.0
 10
-1.898500065422461
 20
4.681049908195575
 30
0.0
 41
1.0
 10
-1.8166676225057
 20
4.67151369447196
 30
0.0
 41
1.0
 10
-1.759629350860987
 20
4.662016694799783
 30
0.0
 41
1.0
 10
-1.64171156246673
 20
4.637202777794821
 30
0.0
 41
1.0
 10
-1.526084801191487
 20
4.603632888781808
 30
0.0
 41
1.0
 10
-1.46668166936008
 20
4.583834403363163
 30
0.0
 41
1.0
 10
-1.353984536900497
 20
4.541286257284237
 30
0.0
 41
1.0
 10
-1.244761767387343
 20
4.490267314133985
 30
0.0
 41
1.0
 10
-1.193385062671267
 20
4.463582665854283
 30
0.0
 41
1.0
 10
-1.143368504215896
 20
4.434489405621832
 30
0.0
 41
1.0
 10
-1.094991451762872
 20
4.402760201326224
 30
0.0
 41
1.0
 10
-1.012198143046983
 20
4.348458302526028
 30
0.0
 41
0.99992324470021
 10
-0.9288745347939793
 20
4.294968406988845
 30
0.0
 41
0.9998848670503151
 10
-0.8450301603393083
 20
4.242296767372342
 30
0.0
 41
0.9998848670503151
 10
-0.7606746736741103
 20
4.190449448383252
 30
0.0
 41
0.99992324470021
 10
-0.6758178457402437
 20
4.139432324449876
 30
0.0
 41
1.0
  0
SPLINE
  5
A5
330
1F
100
AcDbEntity
  8
DEFAULT
100
AcDbSpline
210
0.0
220
0.0
230
1.0
 70
    12
 71
     3
 72
    23
 73
    19
 74
     0
 42
0.0000000001
 43
0.0000000001
 40
3.000008660046274
 40
3.000008660046274
 40
3.000008660046274
 40
3.000008660046274
 40
3.250039181675391
 40
3.250039181675391
 40
3.499920764833183
 40
3.499920764833183
 40
4.0
 40
4.0
 40
4.0
 40
4.084145494918941
 40
4.166521375050658
 40
4.317291500485652
 40
4.436053224510881
 40
4.483199762611336
 40
4.525444888680739
 40
4.525444888680739
 40
4.525444888680739
 40
5.360336576673979
 40
5.360336576673979
 40
5.360336576673979
 40
5.360336576673979
 10
0.0080448185929729
 20
4.139424873866487
 30
0.0
 41
1.0
 10
0.0429981636926478
 20
4.156193258541759
 30
0.0
 41
1.0
 10
0.0795725853473304
 20
4.17554992985702
 30
0.0
 41
1.0
 10
0.1508666287483642
 20
4.219798753460618
 30
0.0
 41
1.0
 10
0.1854524962642436
 20
4.244204601010455
 30
0.0
 41
1.0
 10
0.278336924734802
 20
4.317241324555826
 30
0.0
 41
1.0
 10
0.3237950579617106
 20
4.36514932467068
 30
0.0
 41
1.0
 10
0.3455952643998934
 20
4.402760201326224
 30
0.0
 41
1.0
 10
0.3596995450462526
 20
4.427027291592952
 30
0.0
 41
1.0
 10
0.3898662512089928
 20
4.473637824499272
 30
0.0
 41
1.0
 10
0.4564590890058824
 20
4.556113476886313
 30
0.0
 41
1.0
 10
0.5436186614146319
 20
4.635425362390529
 30
0.0
 41
1.0
 10
0.6403856174405593
 20
4.682437780605393
 30
0.0
 41
1.0
 10
0.7110274551780922
 20
4.685332424453627
 30
0.0
 41
1.0
 10
0.7394907559888928
 20
4.674761103428094
 30
0.0
 41
1.0
 10
0.7514761445968183
 20
4.667387982554229
 30
0.0
 41
1.0
 10
1.487027661956448
 20
4.207434070940884
 30
0.0
 41
1.0
 10
2.222579179316078
 20
3.74748015932754
 30
0.0
 41
1.0
 10
2.958130696675706
 20
3.287526247714196
 30
0.0
 41
1.0
  0
POLYLINE
  5
A6
330
1F
100
AcDbEntity
  8
DEFAULT
100
AcDb2dPolyline
 66
     1
 10
0.0
 20
0.0
 30
0.0
  0
VERTEX
  5
A7
330
A6
100
AcDbEntity
  8
DEFAULT
100
AcDbVertex
100
AcDb2dVertex
 10
-0.6758178457402444
 20
4.139432324449874
 30
0.0
  0
VERTEX
  5
A8
330
A6
100
AcDbEntity
  8
DEFAULT
100
AcDbVertex
100
AcDb2dVertex
 10
1.085454763345453
 20
4.139423131508674
 30
0.0
  0
SEQEND
  5
A9
330
A6
100
AcDbEntity
  8
DEFAULT
  0
SPLINE
  5
AA
330
1F
100
AcDbEntity
  8
DEFAULT
100
AcDbSpline
210
0.0
220
0.0
230
1.0
 70
    12
 71
     5
 72
    52
 73
    46
 74
     0
 42
0.0000000001
 43
0.0000000001
 40
-0.5133332467668957
 40
-0.5133332467668957
 40
-0.5133332467668957
 40
-0.5133332467668957
 40
-0.5133332467668957
 40
-0.5133332467668957
 40
0.0
 40
0.0
 40
0.0
 40
0.0
 40
0.0
 40
1.0
 40
1.0
 40
1.0
 40
1.0
 40
1.0
 40
3.6300000007887
 40
3.6300000007887
 40
3.6300000007887
 40
3.6300000007887
 40
3.6300000007887
 40
3.834207750224474
 40
3.834207750224474
 40
3.834207750224474
 40
3.834207750224474
 40
3.834207750224474
 40
5.324239532421034
 40
5.324239532421034
 40
5.324239532421034
 40
5.324239532421034
 40
5.324239532421034
 40
5.528442747223548
 40
5.528442747223548
 40
5.528442747223548
 40
5.528442747223548
 40
5.528442747223548
 40
8.158442747223454
 40
8.158442747223454
 40
8.158442747223454
 40
8.158442747223454
 40
8.158442747223454
 40
9.158442747223454
 40
9.158442747223454
 40
9.158442747223454
 40
9.158442747223454
 40
9.158442747223454
 40
9.827492438421377
 40
9.827492438421377
 40
9.827492438421377
 40
9.827492438421377
 40
9.827492438421377
 40
9.827492438421377
 10
0.9207761249892759
 20
4.137900839602895
 30
0.0
 41
1.0
 10
0.9181980988811077
 20
4.035266563306741
 30
0.0
 41
1.0
 10
0.9156200727729396
 20
3.932632287010587
 30
0.0
 41
1.0
 10
0.9130420466647713
 20
3.829998010714432
 30
0.0
 41
1.0
 10
0.9104640205566031
 20
3.727363734418278
 30
0.0
 41
1.0
 10
0.907885994448435
 20
3.624729458122124
 30
0.0
 41
1.0
 10
0.9069192683557539
 20
3.586226365627674
 30
0.0
 41
1.0
 10
0.9059525422630692
 20
3.547723273133224
 30
0.0
 41
1.0
 10
0.8749548063833181
 20
3.468403383846524
 30
0.0
 41
1.0
 10
0.8749545286129425
 20
3.430066420984324
 30
0.0
 41
1.0
 10
0.8749542508425705
 20
3.391729458122124
 30
0.0
 41
1.0
 10
0.8749690011619148
 20
2.865729458122143
 30
0.0
 41
1.0
 10
0.8749837514812591
 20
2.339729458122162
 30
0.0
 41
1.0
 10
0.8749985018006032
 20
1.813729458122181
 30
0.0
 41
1.0
 10
0.8750132521199475
 20
1.2877294581222
 30
0.0
 41
1.0
 10
0.8750280024392918
 20
0.7617294581222191
 30
0.0
 41
1.0
 10
0.8750300082718369
 20
0.7200795592278832
 30
0.0
 41
0.8828433730803481
 10
0.8592600585213002
 20
0.6790430636786566
 30
0.0
 41
0.824265059690958
 10
0.827717725548303
 20
0.6474998122736175
 30
0.0
 41
0.8242650598318297
 10
0.7866816882036324
 20
0.6317286666705232
 30
0.0
 41
0.8828433735029629
 10
0.7450317876436348
 20
0.6317294581222199
 30
0.0
 41
1.000000000704358
 10
0.4470254279226794
 20
0.6317294581222195
 30
0.0
 41
1.000000000704358
 10
0.1490190698425463
 20
0.6317294581222191
 30
0.0
 41
1.000000000704358
 10
-0.1489873118697332
 20
0.631729458122234
 30
0.0
 41
1.000000000704358
 10
-0.4469937424871283
 20
0.6317294581222783
 30
0.0
 41
1.000000000704358
 10
-0.7450002472826078
 20
0.6317294581223674
 30
0.0
 41
1.000000000704358
 10
-0.7866493008796744
 20
0.6317295855931453
 30
0.0
 41
0.882843317831651
 10
-0.8276852732877589
 20
0.6475012902231091
 30
0.0
 41
0.8242649763952974
 10
-0.8592284987974934
 20
0.6790445448352214
 30
0.0
 41
0.8242649763952974
 10
-0.8750001175140624
 20
0.7200804837416713
 30
0.0
 41
0.882843317831651
 10
-0.8750001273421057
 20
0.7617294581222191
 30
0.0
 41
1.000000000704358
 10
-0.875000101873681
 20
1.2877294581222
 30
0.0
 41
1.000000000704358
 10
-0.8750000764052563
 20
1.813729458122181
 30
0.0
 41
1.000000000704358
 10
-0.8750000509368316
 20
2.339729458122162
 30
0.0
 41
1.000000000704358
 10
-0.8750000254684069
 20
2.865729458122143
 30
0.0
 41
1.000000000704358
 10
-0.8749999999999822
 20
3.391729458122124
 30
0.0
 41
1.000000000704358
 10
-0.8749999999999822
 20
3.430066420984324
 30
0.0
 41
1.000000000704358
 10
-0.8749999999999822
 20
3.468403383846524
 30
0.0
 41
1.000000000704358
 10
-0.9060003711268187
 20
3.547723273133224
 30
0.0
 41
1.000000000704358
 10
-0.90696691832715
 20
3.586226365627674
 30
0.0
 41
1.000000000704358
 10
-0.9079334655274813
 20
3.624729458122124
 30
0.0
 41
1.000000000704358
 10
-0.911291452671777
 20
3.758497255046572
 30
0.0
 41
1.000000000704358
 10
-0.9146494398160726
 20
3.89226505197102
 30
0.0
 41
1.000000000704358
 10
-0.9180074269603683
 20
4.026032848895467
 30
0.0
 41
1.000000000704358
 10
-0.9213654141046639
 20
4.159800645819915
 30
0.0
 41
1.000000000704358
 10
-0.9247234012489596
 20
4.293568442744362
 30
0.0
 41
1.000000000704358
  0
SPLINE
  5
AB
330
1F
100
AcDbEntity
  8
DEFAULT
100
AcDbSpline
210
0.0
220
0.0
230
1.0
 70
     8
 71
     2
 72
    14
 73
    11
 74
     0
 42
0.0000000001
 43
0.0000000001
 40
-1.002478667885743
 40
-1.002478667885743
 40
-1.002478667885743
 40
-0.0000000000000002
 40
-0.0000000000000002
 40
0.0876972917730116
 40
0.0876972917730116
 40
1.93177191432099
 40
1.93177191432099
 40
2.020161696301368
 40
2.020161696301368
 40
3.022645852287387
 40
3.022645852287387
 40
3.022645852287387
 10
0.9850054886455241
 20
6.672744252606204
 30
0.0
 10
0.9848803221110667
 20
7.174108740647974
 30
0.0
 10
0.9847551555766092
 20
7.675473228689745
 30
0.0
 10
0.9536255182300133
 20
7.706599773231485
 30
0.0
 10
0.9224958808834174
 20
7.737726317773224
 30
0.0
 10
0.000229284804723
 20
7.737726317773223
 30
0.0
 10
-0.9220373112739715
 20
7.737726317773223
 30
0.0
 10
-0.9535186556369766
 20
7.706477363182723
 30
0.0
 10
-0.9849999999999817
 20
7.675228408592224
 30
0.0
 10
-0.9849999999999817
 20
7.173986330599214
 30
0.0
 10
-0.9849999999999817
 20
6.672744252606204
 30
0.0
  0
SPLINE
  5
AC
330
1F
100
AcDbEntity
  8
DEFAULT
100
AcDbSpline
210
0.0
220
0.0
230
1.0
 70
    15
 71
     2
 72
    20
 73
    17
 74
     0
 42
0.0000000001
 43
0.0000000001
 40
-2.657560333842206
 40
-2.657560333842206
 40
-2.657560333842206
 40
-2.557730480576989
 40
-2.557730480576989
 40
-2.457900627311771
 40
-2.457900627311771
 40
-1.602599097387122
 40
-1.602599097387122
 40
-1.054965000801082
 40
-1.054965000801082
 40
-0.1996636289056157
 40
-0.1996636289056157
 40
-0.0998318144528079
 40
-0.0998318144528079
 40
0.0
 40
0.0
 40
0.3423967907399472
 40
0.3423967907399472
 40
0.3423967907399472
 10
-10.35465140822016
 20
9.969275135818663
 30
0.0
 41
1.0
 10
-10.35466821695504
 20
9.916528081892183
 30
0.0
 41
0.9213730987481591
 10
-10.31690053761302
 20
9.879706153947332
 30
0.0
 41
1.0
 10
-10.27913285827101
 20
9.842884226002484
 30
0.0
 41
0.9213730987481591
 10
-10.22640318779041
 20
9.844332927184205
 30
0.0
 41
1.0
 10
-9.798896834920559
 20
9.85549301432522
 30
0.0
 41
1.0
 10
-9.371390482050701
 20
9.866653101466234
 30
0.0
 41
1.0
 10
-9.371390482050701
 20
10.14047014975925
 30
0.0
 41
1.0
 10
-9.371390482050701
 20
10.41428719805227
 30
0.0
 41
1.0
 10
-9.798896795426673
 20
10.42545027096649
 30
0.0
 41
1.0
 10
-10.22640310880264
 20
10.4366133438807
 30
0.0
 41
1.0
 10
-10.27913390967568
 20
10.43806684786965
 30
0.0
 41
0.9213734903559427
 10
-10.31690155691338
 20
10.40124342449583
 30
0.0
 41
1.0
 10
-10.35466920415108
 20
10.364420001122
 30
0.0
 41
0.9213734903559427
 10
-10.35465140822105
 20
10.31167192655861
 30
0.0
 41
1.0
 10
-10.35465140822061
 20
10.14047353118864
 30
0.0
 41
1.0
 10
-10.35465140822016
 20
9.969275135818663
 30
0.0
 41
1.0
  0
SPLINE
  5
AD
330
1F
100
AcDbEntity
  8
DEFAULT
100
AcDbSpline
210
0.0
220
0.0
230
1.0
 70
    12
 71
     2
 72
     8
 73
     5
 74
     0
 42
0.0000000001
 43
0.0000000001
 40
0.0
 40
0.0
 40
0.0
 40
0.0687435086839916
 40
0.0687435086839916
 40
0.2089281248794966
 40
0.2089281248794966
 40
0.2089281248794966
 10
-9.153680656166788
 20
10.69170531144874
 30
0.0
 41
1.0
 10
-9.161708505958785
 20
10.73206803112782
 30
0.0
 41
0.7701959544631365
 10
-9.202860218673083
 20
10.73170464035434
 30
0.0
 41
1.0
 10
-9.202860218673084
 20
10.80179694845209
 30
0.0
 41
1.0
 10
-9.202860218673086
 20
10.87188925654985
 30
0.0
 41
1.0
  0
SPLINE
  5
AE
330
1F
100
AcDbEntity
  8
DEFAULT
100
AcDbSpline
210
0.0
220
0.0
230
1.0
 70
    12
 71
     2
 72
    16
 73
    13
 74
     0
 42
0.0000000001
 43
0.0000000001
 40
0.0
 40
0.0
 40
0.0
 40
0.0785387835009723
 40
0.0785387835009723
 40
0.567193917169085
 40
0.567193917169085
 40
0.6457298198175286
 40
0.6457298198175286
 40
1.371198149872016
 40
1.371198149872016
 40
1.410421960709665
 40
1.410421960709665
 40
1.449645771547315
 40
1.449645771547315
 40
1.449645771547315
 10
-8.564205085015999
 20
10.38735809595248
 30
0.0
 41
1.0
 10
-8.564206187626624
 20
10.33735919858614
 30
0.0
 41
0.7071154425893783
 10
-8.614205085004972
 20
10.33735944764295
 30
0.0
 41
1.0
 10
-8.858532666094625
 20
10.33736671876289
 30
0.0
 41
1.0
 10
-9.102860247184278
 20
10.33737398988283
 30
0.0
 41
1.0
 10
-9.152854925328597
 20
10.33739073506139
 30
0.0
 41
0.7071624174050165
 10
-9.152860218670057
 20
10.38751120360607
 30
0.0
 41
1.0
 10
-9.152860218664252
 20
10.60478112089121
 30
0.0
 41
1.0
 10
-9.152860218658446
 20
10.82205103817635
 30
0.0
 41
1.0
 10
-9.152860218658367
 20
10.84274213662564
 30
0.0
 41
0.9235691721893541
 10
-9.167514723772024
 20
10.85734922514156
 30
0.0
 41
1.0
 10
-9.18216922888568
 20
10.87195631365749
 30
0.0
 41
0.9235691721893541
 10
-9.202860218673086
 20
10.87188925654985
 30
0.0
 41
1.0
  0
SPLINE
  5
AF
330
1F
100
AcDbEntity
  8
DEFAULT
100
AcDbSpline
210
0.0
220
0.0
230
1.0
 70
    12
 71
     2
 72
    12
 73
     9
 74
     0
 42
0.0000000001
 43
0.0000000001
 40
0.0
 40
0.0
 40
0.0
 40
0.0392500557890311
 40
0.0392500557890311
 40
0.0785001115780621
 40
0.0785001115780621
 40
0.6857132272494804
 40
0.6857132272494804
 40
0.7642156337850174
 40
0.7642156337850174
 40
0.7642156337850174
 10
-8.564205085004971
 20
10.93680890007241
 30
0.0
 41
1.0
 10
-8.564215540200985
 20
10.91610869121377
 30
0.0
 41
0.9238793103156213
 10
-8.578860208185827
 20
10.90147884310395
 30
0.0
 41
1.0
 10
-8.593504876170664
 20
10.88684899499414
 30
0.0
 41
0.9238793103156213
 10
-8.614205085004969
 20
10.88685949826638
 30
0.0
 41
1.0
 10
-8.917811642840661
 20
10.88685939816872
 30
0.0
 41
1.0
 10
-9.221418200676354
 20
10.88685929807107
 30
0.0
 41
1.0
 10
-9.27139198232371
 20
10.88683968106879
 30
0.0
 41
0.7071534827311549
 10
-9.271418200676353
 20
10.93681345968881
 30
0.0
 41
1.0
  0
SPLINE
  5
B0
330
1F
100
AcDbEntity
  8
DEFAULT
100
AcDbSpline
210
0.0
220
0.0
230
1.0
 70
    12
 71
     2
 72
    28
 73
    25
 74
     0
 42
0.0000000001
 43
0.0000000001
 40
-0.0283818206951969
 40
-0.0283818206951969
 40
-0.0283818206951969
 40
0.1621323002346955
 40
0.1621323002346955
 40
0.2406712221993054
 40
0.2406712221993054
 40
0.7293263558674145
 40
0.7293263558674145
 40
0.8078429401781614
 40
0.8078429401781614
 40
2.286192333221782
 40
2.286192333221782
 40
2.364730422744056
 40
2.364730422744056
 40
2.971943538415436
 40
2.971943538415436
 40
3.050481627935288
 40
3.050481627935288
 40
4.288279327040459
 40
4.288279327040459
 40
4.366827848276457
 40
4.366827848276457
 40
4.974040963947847
 40
4.974040963947847
 40
5.052585235048991
 40
5.052585235048991
 40
5.052585235048991
 10
-9.152860217493254
 20
11.16180892551846
 30
0.0
 41
1.0
 10
-9.152860218082935
 20
11.25707289816857
 30
0.0
 41
1.0
 10
-9.152860218672615
 20
11.35233687081868
 30
0.0
 41
1.0
 10
-9.152858264462784
 20
11.40234668144977
 30
0.0
 41
0.7071337296692758
 10
-9.102860218673083
 20
11.4023474304988
 30
0.0
 41
0.9999999996592277
 10
-8.858532651839027
 20
11.40234716386944
 30
0.0
 41
0.9999999996592277
 10
-8.614205085004972
 20
11.40234689724009
 30
0.0
 41
0.9999999996592277
 10
-8.564230105639894
 20
11.40234432766318
 30
0.0
 41
0.7073059731798348
 10
-8.56420508984083
 20
11.35236935449638
 30
0.0
 41
0.9999999999585214
 10
-8.5642050874229
 20
10.61319465797457
 30
0.0
 41
0.9999999999585214
 10
-8.564205085004971
 20
9.874019961452758
 30
0.0
 41
0.9999999999585214
 10
-8.56420618436039
 20
9.824021060808176
 30
0.0
 41
0.7071067814916925
 10
-8.614205085004972
 20
9.824022160116295
 30
0.0
 41
0.9999999999585214
 10
-8.917811642840661
 20
9.824022160116295
 30
0.0
 41
0.9999999999585214
 10
-9.221418200676352
 20
9.824022160116295
 30
0.0
 41
0.9999999999585214
 10
-9.271417101322548
 20
9.8240210608011
 30
0.0
 41
0.7071067814302879
 10
-9.27141820067636
 20
9.874019961447296
 30
0.0
 41
0.9999999999585214
 10
-9.271418200671102
 20
10.49291881099988
 30
0.0
 41
0.9999999999585214
 10
-9.271418200665844
 20
11.11181766055247
 30
0.0
 41
0.9999999999585214
 10
-9.27142088647241
 20
11.16182034507228
 30
0.0
 41
0.707162340852277
 10
-9.221418200676357
 20
11.16181990770748
 30
0.0
 41
0.9999999807784424
 10
-8.917811642840665
 20
11.16181733302605
 30
0.0
 41
0.9999999807784424
 10
-8.614205085004972
 20
11.16181475834462
 30
0.0
 41
0.9999999807784424
 10
-8.564204808124229
 20
11.16181327202445
 30
0.0
 41
0.707156564372619
 10
-8.564205085009146
 20
11.1118129954626
 30
0.0
 41
0.9999999878499763
  0
SPLINE
  5
B1
330
1F
100
AcDbEntity
  8
DEFAULT
100
AcDbSpline
210
0.0
220
0.0
230
1.0
 70
    12
 71
     2
 72
    26
 73
    23
 74
     0
 42
0.0000000001
 43
0.0000000001
 40
0.0
 40
0.0
 40
0.0
 40
0.0392488393249128
 40
0.0392488393249128
 40
0.0784976786498256
 40
0.0784976786498256
 40
1.356837813064723
 40
1.356837813064723
 40
1.396086652029281
 40
1.396086652029281
 40
1.435335490993841
 40
1.435335490993841
 40
1.469633776857807
 40
1.469633776857807
 40
1.583909176608954
 40
1.583909176608954
 40
1.608239212010987
 40
1.608239212010987
 40
1.686784417990365
 40
1.686784417990365
 40
2.965124552405262
 40
2.965124552405262
 40
3.043671946250129
 40
3.043671946250129
 40
3.043671946250129
 10
-8.524009436820897
 20
10.93653516819611
 30
0.0
 41
1.0
 10
-8.52399833761548
 20
10.91583560163892
 30
0.0
 41
0.9238793372785336
 10
-8.509353670485432
 20
10.9012066610246
 30
0.0
 41
1.0
 10
-8.49470900335538
 20
10.88657772041027
 30
0.0
 41
0.9238793372785336
 10
-8.474009436820893
 20
10.88658886185667
 30
0.0
 41
1.0
 10
-7.834839369613444
 20
10.88658885852077
 30
0.0
 41
1.0
 10
-7.195669302405996
 20
10.88658885518487
 30
0.0
 41
1.0
 10
-7.174969736197832
 20
10.88657771478456
 30
0.0
 41
0.9238793462510351
 10
-7.160325069352233
 20
10.90120665522111
 30
0.0
 41
1.0
 10
-7.145680402506638
 20
10.91583559565766
 30
0.0
 41
0.9238793462510351
 10
-7.145669302405997
 20
10.93653516188748
 30
0.0
 41
1.0
 10
-7.145669302405998
 20
10.9540126485
 30
0.0
 41
1.0
 10
-7.145669302405999
 20
10.97149013511254
 30
0.0
 41
1.0
 10
-7.145669302405999
 20
11.02928452233035
 30
0.0
 41
1.0
 10
-7.145669302405999
 20
11.08707890954816
 30
0.0
 41
1.0
 10
-7.145669302406092
 20
11.09958001598493
 30
0.0
 41
1.0
 10
-7.145669302406185
 20
11.1120811224217
 30
0.0
 41
1.0
 10
-7.145667103758326
 20
11.16209881076229
 30
0.0
 41
0.7071307606965487
 10
-7.195669302405999
 20
11.16209796877849
 30
0.0
 41
0.9999999940432969
 10
-7.834839369613448
 20
11.16209897465998
 30
0.0
 41
0.9999999940432969
 10
-8.474009436820896
 20
11.16209998054148
 30
0.0
 41
0.9999999940432969
 10
-8.52401383697523
 20
11.16210285803267
 30
0.0
 41
0.7071150271143525
 10
-8.524009436818076
 20
11.1120984587021
 30
0.0
 41
1.000000001829694
  0
SPLINE
  5
B2
330
1F
100
AcDbEntity
  8
DEFAULT
100
AcDbSpline
210
0.0
220
0.0
230
1.0
 70
    12
 71
     2
 72
    18
 73
    15
 74
     0
 42
0.0000000001
 43
0.0000000001
 40
-6.067022646501879
 40
-6.067022646501879
 40
-6.067022646501879
 40
0.0
 40
0.0
 40
0.0785371683837692
 40
0.0785371683837692
 40
1.502341177416785
 40
1.502341177416785
 40
1.577394814162575
 40
1.577394814162575
 40
2.855734948577475
 40
2.855734948577475
 40
2.930797923428012
 40
2.930797923428012
 40
3.341612103689305
 40
3.341612103689305
 40
3.341612103689305
 10
-2.406986790319017
 20
11.40104766889088
 30
0.0
 41
1.0
 10
-5.440498113569956
 20
11.4010469094468
 30
0.0
 41
1.0
 10
-8.474009436820895
 20
11.40104615000274
 30
0.0
 41
1.0
 10
-8.524004671294755
 20
11.40104092109484
 30
0.0
 41
0.7071667154766433
 10
-8.524009436814975
 20
11.35104568671045
 30
0.0
 41
1.0
 10
-8.523949964099158
 20
10.63914368467814
 30
0.0
 41
1.0
 10
-8.52389049138334
 20
9.927241682645823
 30
0.0
 41
1.0
 10
-8.520645088874925
 20
9.880719099367267
 30
0.0
 41
0.731198974740205
 10
-8.4740094368209
 20
9.880701540320828
 30
0.0
 41
0.999999929877297
 10
-7.834839369613449
 20
9.880698723245201
 30
0.0
 41
0.999999929877297
 10
-7.195669302405997
 20
9.880695906169578
 30
0.0
 41
0.999999929877297
 10
-7.149025343731598
 20
9.880709833967243
 30
0.0
 41
0.731144518278727
 10
-7.145788791143834
 20
9.927241362641801
 30
0.0
 41
0.9999999786610748
 10
-7.145788791143834
 20
10.13264845277245
 30
0.0
 41
0.9999999786610748
 10
-7.145788791143834
 20
10.33805554290309
 30
0.0
 41
0.9999999786610748
  0
SPLINE
  5
B3
330
1F
100
AcDbEntity
  8
DEFAULT
100
AcDbSpline
210
0.0
220
0.0
230
1.0
 70
     8
 71
     2
 72
     8
 73
     5
 74
     0
 42
0.0000000001
 43
0.0000000001
 40
0.0
 40
0.0
 40
0.0
 40
1.062463716163613
 40
1.062463716163613
 40
7.179401736861672
 40
7.179401736861672
 40
7.179401736861672
 10
-2.406986790319017
 20
11.40104766889088
 30
0.0
 10
-2.406986790319017
 20
10.86968370835362
 30
0.0
 10
-2.406986790319017
 20
10.33831974781637
 30
0.0
 10
-5.465455800668047
 20
10.33818764535938
 30
0.0
 10
-8.523924811017077
 20
10.3380555429024
 30
0.0
  0
SPLINE
  5
B4
330
1F
100
AcDbEntity
  8
DEFAULT
100
AcDbSpline
210
0.0
220
0.0
230
1.0
 70
    12
 71
     5
 72
    56
 73
    50
 74
     0
 42
0.0000000001
 43
0.0000000001
 40
0.0
 40
0.0
 40
0.0
 40
0.0
 40
0.0
 40
0.0
 40
1.673553654764816
 40
1.673553654764816
 40
1.673553654764816
 40
1.673553654764816
 40
1.673553654764816
 40
2.673553654764816
 40
2.673553654764816
 40
2.673553654764816
 40
2.673553654764816
 40
2.673553654764816
 40
2.699285546055129
 40
2.699285546055129
 40
2.699285546055129
 40
2.72552563727328
 40
2.72552563727328
 40
2.72552563727328
 40
2.78152076823283
 40
2.78152076823283
 40
2.78152076823283
 40
2.911082063718929
 40
2.911082063718929
 40
2.911082063718929
 40
2.911082063718929
 40
2.911082063718929
 40
3.111141328082344
 40
3.111141328082344
 40
3.111141328082344
 40
3.111141328082344
 40
3.111141328082344
 40
3.271633366133257
 40
3.271633366133257
 40
3.271633366133257
 40
3.271633366133257
 40
3.271633366133257
 40
4.109750790750043
 40
4.109750790750043
 40
4.109750790750043
 40
4.109750790750043
 40
4.109750790750043
 40
5.494100536185612
 40
5.494100536185612
 40
5.494100536185612
 40
5.494100536185612
 40
5.494100536185612
 40
6.32604597485892
 40
6.32604597485892
 40
6.32604597485892
 40
6.32604597485892
 40
6.32604597485892
 40
6.32604597485892
 10
0.0000000000182609
 20
8.40502355935773
 30
0.0
 41
1.0
 10
0.3349412551981073
 20
8.404744729782927
 30
0.0
 41
0.9958683807691553
 10
0.6695616097080311
 20
8.428524280079708
 30
0.0
 41
0.9938025711537328
 10
1.001772344262222
 20
8.47636394905063
 30
0.0
 41
0.9938025711537328
 10
1.329506064786198
 20
8.547966023714537
 30
0.0
 41
0.9958683807691553
 10
1.650759410842387
 20
8.64273948948996
 30
0.0
 41
1.0
 10
1.702373531517674
 20
8.657966254158405
 30
0.0
 41
1.0
 10
1.753811569225442
 20
8.673789886758566
 30
0.0
 41
1.0
 10
1.820997500965208
 20
8.683001285939376
 30
0.0
 41
1.0
 10
1.850450934457162
 20
8.730018733903838
 30
0.0
 41
1.0
 10
1.889257672559618
 20
8.767300215811064
 30
0.0
 41
1.0
 10
1.892965856272337
 20
8.77086265343799
 30
0.0
 41
1.0
 10
1.896763247414878
 20
8.774339848905408
 30
0.0
 41
1.0
 10
1.900647214867482
 20
8.777724394832862
 30
0.0
 41
1.0
 10
1.908661405668533
 20
8.784358240876164
 30
0.0
 41
1.0
 10
1.917007308218054
 20
8.790553698201489
 30
0.0
 41
1.0
 10
1.921298798984179
 20
8.793573844587929
 30
0.0
 41
1.0
 10
1.934970366483463
 20
8.80271292751121
 30
0.0
 41
1.0
 10
1.949271399395034
 20
8.810868697231376
 30
0.0
 41
1.0
 10
1.95925372999975
 20
8.81598969773329
 30
0.0
 41
1.0
 10
1.992986815074088
 20
8.831604800360786
 30
0.0
 41
1.0
 10
2.028366718766708
 20
8.842988588453705
 30
0.0
 41
1.0
 10
2.053631250474662
 20
8.849197350477514
 30
0.0
 41
1.0
 10
2.079215268535803
 20
8.8539894829449
 30
0.0
 41
1.0
 10
2.104877081957133
 20
8.857688110859566
 30
0.0
 41
1.0
 10
2.14483354385097
 20
8.863567833557052
 30
0.0
 41
0.9497697594954418
 10
2.182914457040557
 20
8.879333514214027
 30
0.0
 41
0.9246546392431627
 10
2.215863974522928
 20
8.904506044405577
 30
0.0
 41
0.9246546392431629
 10
2.241068206714159
 20
8.937088483979123
 30
0.0
 41
0.9497697594954418
 10
2.257211702961625
 20
8.974067594975095
 30
0.0
 41
1.0
 10
2.265187020908205
 20
9.005171989421322
 30
0.0
 41
0.9977263982924777
 10
2.271500122352873
 20
9.036683892631297
 30
0.0
 41
0.9965895974387164
 10
2.276123715173753
 20
9.06849686309011
 30
0.0
 41
0.9965895974387167
 10
2.279041995125489
 20
9.100502158525218
 30
0.0
 41
0.9977263982924777
 10
2.280250825502036
 20
9.1325899720895
 30
0.0
 41
1.0
 10
2.286561154928795
 20
9.300094593170861
 30
0.0
 41
1.0
 10
2.292871484355554
 20
9.467599214252223
 30
0.0
 41
1.0
 10
2.299181813782314
 20
9.63510383533359
 30
0.0
 41
1.0
 10
2.305492143209074
 20
9.802608456414955
 30
0.0
 41
1.0
 10
2.311802472635833
 20
9.970113077496315
 30
0.0
 41
1.0
 10
2.321882922386532
 20
10.2467993873703
 30
0.0
 41
1.0
 10
2.331963372137231
 20
10.52348569724428
 30
0.0
 41
1.0
 10
2.34204382188793
 20
10.80017200711826
 30
0.0
 41
1.0
 10
2.352124271638629
 20
11.07685831699224
 30
0.0
 41
1.0
 10
2.362204721389328
 20
11.35354462686623
 30
0.0
 41
1.0
 10
2.362204721857003
 20
11.51993371460089
 30
0.0
 41
1.0
 10
2.362204722324678
 20
11.68632280233555
 30
0.0
 41
1.0
 10
2.362204722792353
 20
11.85271189007021
 30
0.0
 41
1.0
 10
2.362204723260028
 20
12.01910097780487
 30
0.0
 41
1.0
 10
2.362204723727703
 20
12.18549006553953
 30
0.0
 41
1.0
  0
SPLINE
  5
B5
330
1F
100
AcDbEntity
  8
DEFAULT
100
AcDbSpline
210
0.0
220
0.0
230
1.0
 70
    12
 71
     3
 72
    23
 73
    19
 74
     0
 42
0.0000000001
 43
0.0000000001
 40
-1.443329556515185
 40
-1.443329556515185
 40
-1.443329556515185
 40
-1.443329556515185
 40
-0.7963728990072723
 40
-0.4069101053335467
 40
-0.2605455211828035
 40
-0.1417980984691944
 40
-0.092085902055685
 40
-0.0585971818950618
 40
-0.0000000000000002
 40
-0.0000000000000002
 40
-0.0000000000000002
 40
0.2197696432368876
 40
0.2197696432368876
 40
0.2197696432368876
 40
1.229930713227737
 40
1.229930713227737
 40
1.229930713227737
 40
2.223290258449476
 40
2.223290258449476
 40
2.223290258449476
 40
2.223290258449476
 10
1.736411401777545
 20
8.676132327386227
 30
0.0
 41
1.0
 10
1.768036255703773
 20
8.889522938288762
 30
0.0
 41
1.0
 10
1.816477158672237
 20
9.231405515973286
 30
0.0
 41
1.0
 10
1.891953428246593
 20
9.618876108001535
 30
0.0
 41
1.0
 10
1.954615367861283
 20
9.827995848084253
 30
0.0
 41
1.0
 10
1.993337207562311
 20
9.92584172134682
 30
0.0
 41
1.0
 10
2.02871576124287
 20
9.983340090383004
 30
0.0
 41
1.0
 10
2.058491308573137
 20
10.02020722264657
 30
0.0
 41
1.0
 10
2.122162233165689
 20
10.01849260161398
 30
0.0
 41
1.0
 10
2.141049576432049
 20
10.02405093521463
 30
0.0
 41
1.0
 10
2.215489632596171
 20
10.0459578100766
 30
0.0
 41
0.892998312276645
 10
2.273792093166684
 20
10.10318796011504
 30
0.0
 41
0.892998312276645
 10
2.297241573105179
 20
10.1773702174016
 30
0.0
 41
1.0
 10
2.30664128026839
 20
10.51395824785077
 30
0.0
 41
0.9999969682007951
 10
2.317056045130945
 20
10.85051639945198
 30
0.0
 41
0.9999969682007951
 10
2.328485772966417
 20
11.18704161107509
 30
0.0
 41
1.0
 10
2.339725423214864
 20
11.51797037271261
 30
0.0
 41
1.0
 10
2.350965073463325
 20
11.84889913435019
 30
0.0
 41
1.0
 10
2.362204723711786
 20
12.17982789598777
 30
0.0
 41
1.0
  0
SPLINE
  5
B6
330
1F
100
AcDbEntity
  8
DEFAULT
100
AcDbSpline
210
0.0
220
0.0
230
1.0
 70
    12
 71
     5
 72
    56
 73
    50
 74
     0
 42
0.0000000001
 43
0.0000000001
 40
0.0
 40
0.0
 40
0.0
 40
0.0
 40
0.0
 40
0.0
 40
1.673553654764816
 40
1.673553654764816
 40
1.673553654764816
 40
1.673553654764816
 40
1.673553654764816
 40
2.673553654764816
 40
2.673553654764816
 40
2.673553654764816
 40
2.673553654764816
 40
2.673553654764816
 40
2.699285546055129
 40
2.699285546055129
 40
2.699285546055129
 40
2.72552563727328
 40
2.72552563727328
 40
2.72552563727328
 40
2.78152076823283
 40
2.78152076823283
 40
2.78152076823283
 40
2.911082063718929
 40
2.911082063718929
 40
2.911082063718929
 40
2.911082063718929
 40
2.911082063718929
 40
3.111141328082344
 40
3.111141328082344
 40
3.111141328082344
 40
3.111141328082344
 40
3.111141328082344
 40
3.271633366133257
 40
3.271633366133257
 40
3.271633366133257
 40
3.271633366133257
 40
3.271633366133257
 40
4.109750790750043
 40
4.109750790750043
 40
4.109750790750043
 40
4.109750790750043
 40
4.109750790750043
 40
5.494100536185612
 40
5.494100536185612
 40
5.494100536185612
 40
5.494100536185612
 40
5.494100536185612
 40
6.32604597485892
 40
6.32604597485892
 40
6.32604597485892
 40
6.32604597485892
 40
6.32604597485892
 40
6.32604597485892
 10
-0.0000000000182609
 20
8.40502355935773
 30
0.0
 41
1.0
 10
-0.3349412551981073
 20
8.404744729782927
 30
0.0
 41
0.9958683807691553
 10
-0.6695616097080311
 20
8.428524280079708
 30
0.0
 41
0.9938025711537328
 10
-1.001772344262222
 20
8.47636394905063
 30
0.0
 41
0.9938025711537328
 10
-1.329506064786198
 20
8.547966023714537
 30
0.0
 41
0.9958683807691553
 10
-1.650759410842387
 20
8.64273948948996
 30
0.0
 41
1.0
 10
-1.702373531517674
 20
8.657966254158405
 30
0.0
 41
1.0
 10
-1.753811569225442
 20
8.673789886758566
 30
0.0
 41
1.0
 10
-1.820997500965208
 20
8.683001285939376
 30
0.0
 41
1.0
 10
-1.850450934457162
 20
8.730018733903838
 30
0.0
 41
1.0
 10
-1.889257672559618
 20
8.767300215811064
 30
0.0
 41
1.0
 10
-1.892965856272337
 20
8.77086265343799
 30
0.0
 41
1.0
 10
-1.896763247414878
 20
8.774339848905408
 30
0.0
 41
1.0
 10
-1.900647214867482
 20
8.777724394832862
 30
0.0
 41
1.0
 10
-1.908661405668533
 20
8.784358240876164
 30
0.0
 41
1.0
 10
-1.917007308218054
 20
8.790553698201489
 30
0.0
 41
1.0
 10
-1.921298798984179
 20
8.793573844587929
 30
0.0
 41
1.0
 10
-1.934970366483463
 20
8.80271292751121
 30
0.0
 41
1.0
 10
-1.949271399395034
 20
8.810868697231376
 30
0.0
 41
1.0
 10
-1.95925372999975
 20
8.81598969773329
 30
0.0
 41
1.0
 10
-1.992986815074088
 20
8.831604800360786
 30
0.0
 41
1.0
 10
-2.028366718766708
 20
8.842988588453705
 30
0.0
 41
1.0
 10
-2.053631250474662
 20
8.849197350477514
 30
0.0
 41
1.0
 10
-2.079215268535803
 20
8.8539894829449
 30
0.0
 41
1.0
 10
-2.104877081957133
 20
8.857688110859566
 30
0.0
 41
1.0
 10
-2.14483354385097
 20
8.863567833557052
 30
0.0
 41
0.9497697594954418
 10
-2.182914457040557
 20
8.879333514214027
 30
0.0
 41
0.9246546392431627
 10
-2.215863974522928
 20
8.904506044405577
 30
0.0
 41
0.9246546392431629
 10
-2.241068206714159
 20
8.937088483979123
 30
0.0
 41
0.9497697594954418
 10
-2.257211702961625
 20
8.974067594975095
 30
0.0
 41
1.0
 10
-2.265187020908205
 20
9.00517198942132
 30
0.0
 41
0.9977263982924777
 10
-2.271500122352873
 20
9.036683892631295
 30
0.0
 41
0.9965895974387164
 10
-2.276123715173753
 20
9.068496863090107
 30
0.0
 41
0.9965895974387167
 10
-2.279041995125489
 20
9.100502158525218
 30
0.0
 41
0.9977263982924777
 10
-2.280250825502036
 20
9.1325899720895
 30
0.0
 41
1.0
 10
-2.286561154928795
 20
9.300094593170861
 30
0.0
 41
1.0
 10
-2.292871484355554
 20
9.467599214252223
 30
0.0
 41
1.0
 10
-2.299181813782314
 20
9.63510383533359
 30
0.0
 41
1.0
 10
-2.305492143209074
 20
9.802608456414955
 30
0.0
 41
1.0
 10
-2.311802472635833
 20
9.970113077496315
 30
0.0
 41
1.0
 10
-2.321882922386532
 20
10.2467993873703
 30
0.0
 41
1.0
 10
-2.331963372137231
 20
10.52348569724428
 30
0.0
 41
1.0
 10
-2.34204382188793
 20
10.80017200711826
 30
0.0
 41
1.0
 10
-2.352124271638629
 20
11.07685831699224
 30
0.0
 41
1.0
 10
-2.362204721389328
 20
11.35354462686623
 30
0.0
 41
1.0
 10
-2.362204721857003
 20
11.51993371460089
 30
0.0
 41
1.0
 10
-2.362204722324678
 20
11.68632280233555
 30
0.0
 41
1.0
 10
-2.362204722792353
 20
11.85271189007021
 30
0.0
 41
1.0
 10
-2.362204723260028
 20
12.01910097780487
 30
0.0
 41
1.0
 10
-2.362204723727703
 20
12.18549006553953
 30
0.0
 41
1.0
  0
SPLINE
  5
B7
330
1F
100
AcDbEntity
  8
DEFAULT
100
AcDbSpline
210
0.0
220
0.0
230
1.0
 70
    12
 71
     3
 72
    23
 73
    19
 74
     0
 42
0.0000000001
 43
0.0000000001
 40
-1.443329556515185
 40
-1.443329556515185
 40
-1.443329556515185
 40
-1.443329556515185
 40
-0.7963728990072723
 40
-0.4069101053335467
 40
-0.2605455211828035
 40
-0.1417980984691944
 40
-0.092085902055685
 40
-0.0585971818950618
 40
-0.0000000000000002
 40
-0.0000000000000002
 40
-0.0000000000000002
 40
0.2197696432368876
 40
0.2197696432368876
 40
0.2197696432368876
 40
1.229930713227737
 40
1.229930713227737
 40
1.229930713227737
 40
2.223290258449476
 40
2.223290258449476
 40
2.223290258449476
 40
2.223290258449476
 10
-1.736411401777545
 20
8.676132327386227
 30
0.0
 41
1.0
 10
-1.768036255703773
 20
8.889522938288762
 30
0.0
 41
1.0
 10
-1.816477158672237
 20
9.231405515973286
 30
0.0
 41
1.0
 10
-1.891953428246593
 20
9.618876108001535
 30
0.0
 41
1.0
 10
-1.954615367861283
 20
9.827995848084253
 30
0.0
 41
1.0
 10
-1.993337207562311
 20
9.92584172134682
 30
0.0
 41
1.0
 10
-2.02871576124287
 20
9.983340090383004
 30
0.0
 41
1.0
 10
-2.058491308573137
 20
10.02020722264657
 30
0.0
 41
1.0
 10
-2.122162233165689
 20
10.01849260161398
 30
0.0
 41
1.0
 10
-2.141049576432049
 20
10.02405093521463
 30
0.0
 41
1.0
 10
-2.215489632596171
 20
10.0459578100766
 30
0.0
 41
0.892998312276645
 10
-2.273792093166684
 20
10.10318796011504
 30
0.0
 41
0.892998312276645
 10
-2.297241573105179
 20
10.1773702174016
 30
0.0
 41
1.0
 10
-2.30664128026839
 20
10.51395824785071
 30
0.0
 41
0.9999969682007951
 10
-2.317056045130946
 20
10.85051639945193
 30
0.0
 41
0.9999969682007951
 10
-2.328485772966417
 20
11.18704161107503
 30
0.0
 41
1.0
 10
-2.339725423214864
 20
11.51797037271261
 30
0.0
 41
1.0
 10
-2.350965073463325
 20
11.84889913435019
 30
0.0
 41
1.0
 10
-2.362204723711786
 20
12.17982789598777
 30
0.0
 41
1.0
  0
SPLINE
  5
B8
330
1F
100
AcDbEntity
  8
DEFAULT
100
AcDbSpline
210
0.0
220
0.0
230
1.0
 70
    12
 71
     2
 72
    26
 73
    23
 74
     0
 42
0.0000000001
 43
0.0000000001
 40
0.0
 40
0.0
 40
0.0
 40
0.0392488393249128
 40
0.0392488393249128
 40
0.0784976786498256
 40
0.0784976786498256
 40
1.356837813064723
 40
1.356837813064723
 40
1.396086652029281
 40
1.396086652029281
 40
1.435335490993841
 40
1.435335490993841
 40
1.469633776857807
 40
1.469633776857807
 40
1.583909176608954
 40
1.583909176608954
 40
1.608239212010987
 40
1.608239212010987
 40
1.686784417990365
 40
1.686784417990365
 40
2.965124552405262
 40
2.965124552405262
 40
3.043671946250129
 40
3.043671946250129
 40
3.043671946250129
 10
8.524009436820897
 20
10.93653516819611
 30
0.0
 41
1.0
 10
8.52399833761548
 20
10.91583560163892
 30
0.0
 41
0.9238793372785336
 10
8.509353670485432
 20
10.9012066610246
 30
0.0
 41
1.0
 10
8.49470900335538
 20
10.88657772041027
 30
0.0
 41
0.9238793372785336
 10
8.474009436820893
 20
10.88658886185667
 30
0.0
 41
1.0
 10
7.834839369613444
 20
10.88658885852077
 30
0.0
 41
1.0
 10
7.195669302405996
 20
10.88658885518487
 30
0.0
 41
1.0
 10
7.174969736197832
 20
10.88657771478456
 30
0.0
 41
0.9238793462510351
 10
7.160325069352233
 20
10.90120665522111
 30
0.0
 41
1.0
 10
7.145680402506638
 20
10.91583559565766
 30
0.0
 41
0.9238793462510351
 10
7.145669302405997
 20
10.93653516188748
 30
0.0
 41
1.0
 10
7.145669302405998
 20
10.9540126485
 30
0.0
 41
1.0
 10
7.145669302405999
 20
10.97149013511254
 30
0.0
 41
1.0
 10
7.145669302405999
 20
11.02928452233035
 30
0.0
 41
1.0
 10
7.145669302405999
 20
11.08707890954816
 30
0.0
 41
1.0
 10
7.145669302406092
 20
11.09958001598493
 30
0.0
 41
1.0
 10
7.145669302406185
 20
11.1120811224217
 30
0.0
 41
1.0
 10
7.145667103758326
 20
11.16209881076229
 30
0.0
 41
0.7071307606965487
 10
7.195669302405999
 20
11.16209796877849
 30
0.0
 41
0.9999999940432969
 10
7.834839369613448
 20
11.16209897465998
 30
0.0
 41
0.9999999940432969
 10
8.474009436820896
 20
11.16209998054148
 30
0.0
 41
0.9999999940432969
 10
8.52401383697523
 20
11.16210285803267
 30
0.0
 41
0.7071150271143525
 10
8.524009436818076
 20
11.1120984587021
 30
0.0
 41
1.000000001829694
  0
SPLINE
  5
B9
330
1F
100
AcDbEntity
  8
DEFAULT
100
AcDbSpline
210
0.0
220
0.0
230
1.0
 70
     8
 71
     2
 72
     8
 73
     5
 74
     0
 42
0.0000000001
 43
0.0000000001
 40
0.0
 40
0.0
 40
0.0
 40
1.062463716163613
 40
1.062463716163613
 40
7.179401736861672
 40
7.179401736861672
 40
7.179401736861672
 10
2.406986790319017
 20
11.40104766889088
 30
0.0
 10
2.406986790319017
 20
10.86968370835362
 30
0.0
 10
2.406986790319017
 20
10.33831974781637
 30
0.0
 10
5.465455800668047
 20
10.33818764535938
 30
0.0
 10
8.523924811017077
 20
10.3380555429024
 30
0.0
  0
SPLINE
  5
BA
330
1F
100
AcDbEntity
  8
DEFAULT
100
AcDbSpline
210
0.0
220
0.0
230
1.0
 70
    12
 71
     2
 72
    18
 73
    15
 74
     0
 42
0.0000000001
 43
0.0000000001
 40
-6.067022646501879
 40
-6.067022646501879
 40
-6.067022646501879
 40
0.0
 40
0.0
 40
0.0785371683837692
 40
0.0785371683837692
 40
1.502341177416785
 40
1.502341177416785
 40
1.577394814162575
 40
1.577394814162575
 40
2.855734948577475
 40
2.855734948577475
 40
2.930797923428012
 40
2.930797923428012
 40
3.341612103689305
 40
3.341612103689305
 40
3.341612103689305
 10
2.406986790319017
 20
11.40104766889088
 30
0.0
 41
1.0
 10
5.440498113569956
 20
11.4010469094468
 30
0.0
 41
1.0
 10
8.474009436820895
 20
11.40104615000274
 30
0.0
 41
1.0
 10
8.524004671294755
 20
11.40104092109484
 30
0.0
 41
0.7071667154766433
 10
8.524009436814975
 20
11.35104568671045
 30
0.0
 41
1.0
 10
8.523949964099158
 20
10.63914368467814
 30
0.0
 41
1.0
 10
8.52389049138334
 20
9.927241682645823
 30
0.0
 41
1.0
 10
8.520645088874925
 20
9.880719099367267
 30
0.0
 41
0.731198974740205
 10
8.4740094368209
 20
9.880701540320828
 30
0.0
 41
0.999999929877297
 10
7.834839369613449
 20
9.880698723245201
 30
0.0
 41
0.999999929877297
 10
7.195669302405997
 20
9.880695906169578
 30
0.0
 41
0.999999929877297
 10
7.149025343731598
 20
9.880709833967243
 30
0.0
 41
0.731144518278727
 10
7.145788791143834
 20
9.927241362641801
 30
0.0
 41
0.9999999786610748
 10
7.145788791143834
 20
10.13264845277245
 30
0.0
 41
0.9999999786610748
 10
7.145788791143834
 20
10.33805554290309
 30
0.0
 41
0.9999999786610748
  0
SPLINE
  5
BB
330
1F
100
AcDbEntity
  8
DEFAULT
100
AcDbSpline
210
0.0
220
0.0
230
1.0
 70
     8
 71
     3
 72
    24
 73
    20
 74
     0
 42
0.0000000001
 43
0.0000000001
 40
0.0
 40
0.0
 40
0.0
 40
0.0
 40
0.7272740576808133
 40
1.357736527526735
 40
1.897843686739847
 40
2.337895206260385
 40
2.69822818614206
 40
3.014947651534493
 40
3.145820565258941
 40
3.28351159653176
 40
3.397356045075257
 40
3.457920988579699
 40
3.555292757894511
 40
3.603942054935436
 40
3.632020584450265
 40
3.639156012398561
 40
3.642234635052024
 40
3.643503660587009
 40
3.646961494914839
 40
3.646961494914839
 40
3.646961494914839
 40
3.646961494914839
 10
-9.999999999999478
 20
14.27959003719637
 30
0.0
 10
-10.00068371902597
 20
14.52200938801965
 30
0.0
 10
-10.01196979228127
 20
14.97462922240257
 30
0.0
 10
-10.0706023111858
 20
15.60499602801541
 30
0.0
 10
-10.17048973570146
 20
16.13334652503026
 30
0.0
 10
-10.31374399914113
 20
16.5581866678806
 30
0.0
 10
-10.50030515681848
 20
16.88316314281428
 30
0.0
 10
-10.69549425341036
 20
17.07369194220675
 30
0.0
 10
-10.86693516743173
 20
17.16888685849171
 30
0.0
 10
-10.98762760191322
 20
17.21090981764357
 30
0.0
 10
-11.09049660610848
 20
17.22878677636241
 30
0.0
 10
-11.18079160649169
 20
17.23569479881728
 30
0.0
 10
-11.24969596098847
 20
17.23724994745759
 30
0.0
 10
-11.30761559044796
 20
17.24046675265647
 30
0.0
 10
-11.33550881888147
 20
17.24305358083655
 30
0.0
 10
-11.34780945750735
 20
17.24507933675275
 30
0.0
 10
-11.3526167267109
 20
17.24636228927785
 30
0.0
 10
-11.35093319409845
 20
17.24833867846177
 30
0.0
 10
-11.349214795512
 20
17.24827857764173
 30
0.0
 10
-11.34813888783663
 20
17.24860641333125
 30
0.0
  0
SPLINE
  5
BC
330
1F
100
AcDbEntity
  8
DEFAULT
100
AcDbSpline
210
0.0
220
0.0
230
1.0
 70
    24
 71
     2
 72
     6
 73
     3
 74
     0
 42
0.0000000001
 43
0.0000000001
 40
0.0
 40
0.0
 40
0.0
 40
0.6931021131602675
 40
0.6931021131602675
 40
0.6931021131602675
 10
0.549999999999919
 20
8.430830524499491
 30
0.0
 10
0.549999999999919
 20
8.084279467919357
 30
0.0
 10
0.549999999999919
 20
7.737728411339224
 30
0.0
  0
SPLINE
  5
BD
330
1F
100
AcDbEntity
  8
DEFAULT
100
AcDbSpline
210
0.0
220
0.0
230
1.0
 70
    24
 71
     2
 72
     6
 73
     3
 74
     0
 42
0.0000000001
 43
0.0000000001
 40
0.0
 40
0.0
 40
0.0
 40
0.6931021163970135
 40
0.6931021163970135
 40
0.6931021163970135
 10
-0.5499999999998835
 20
7.737728411339224
 30
0.0
 10
-0.5499999999998835
 20
8.08427946953773
 30
0.0
 10
-0.5499999999998835
 20
8.430830527736237
 30
0.0
  0
SPLINE
  5
BE
330
1F
100
AcDbEntity
  8
DEFAULT
100
AcDbSpline
210
0.0
220
0.0
230
1.0
 70
    24
 71
     2
 72
     6
 73
     3
 74
     0
 42
0.0000000001
 43
0.0000000001
 40
0.0
 40
0.0
 40
0.0
 40
0.0449999999999982
 40
0.0449999999999982
 40
0.0449999999999982
 10
-10.28208187744796
 20
24.61159003719617
 30
0.0
 10
-10.28208187744796
 20
24.58909003719617
 30
0.0
 10
-10.28208187744796
 20
24.56659003719617
 30
0.0
  0
SPLINE
  5
BF
330
1F
100
AcDbEntity
  8
DEFAULT
100
AcDbSpline
210
0.0
220
0.0
230
1.0
 70
    24
 71
     2
 72
     6
 73
     3
 74
     0
 42
0.0000000001
 43
0.0000000001
 40
0.0
 40
0.0
 40
0.0
 40
0.0999722813743489
 40
0.0999722813743489
 40
0.0999722813743489
 10
-9.271418200676353
 20
9.984141708015985
 30
0.0
 10
-9.321404341363527
 20
9.984141708015985
 30
0.0
 10
-9.371390482050701
 20
9.984141708015985
 30
0.0
  0
SPLINE
  5
C0
330
1F
100
AcDbEntity
  8
DEFAULT
100
AcDbSpline
210
0.0
220
0.0
230
1.0
 70
    24
 71
     2
 72
     6
 73
     3
 74
     0
 42
0.0000000001
 43
0.0000000001
 40
0.0
 40
0.0
 40
0.0
 40
0.0999722813743489
 40
0.0999722813743489
 40
0.0999722813743489
 10
-9.371390482050701
 20
10.29679859150257
 30
0.0
 10
-9.321404341363527
 20
10.29679859150257
 30
0.0
 10
-9.271418200676353
 20
10.29679859150257
 30
0.0
  0
SPLINE
  5
C1
330
1F
100
AcDbEntity
  8
DEFAULT
100
AcDbSpline
210
0.0
220
0.0
230
1.0
 70
    12
 71
     3
 72
    30
 73
    26
 74
     0
 42
0.0000000001
 43
0.0000000001
 40
0.0
 40
0.0
 40
0.0
 40
0.0
 40
0.6598249576726878
 40
1.704601509326259
 40
3.986402777198714
 40
4.521857318025755
 40
5.499944621414161
 40
5.499944621414161
 40
5.499944621414161
 40
5.706804732218803
 40
5.706804732218803
 40
5.706804732218803
 40
5.868022440724325
 40
6.013845351840282
 40
6.294007513490956
 40
6.788135694860687
 40
6.788135694860687
 40
6.788135694860687
 40
7.151207966908908
 40
7.35478116382504
 40
7.457395589183722
 40
7.555662435402462
 40
7.555662435402462
 40
7.555662435402462
 40
7.887520939230139
 40
7.887520939230139
 40
7.887520939230139
 40
7.887520939230139
 10
-10.65234165452041
 20
17.36334485791692
 30
0.0
 41
1.0
 10
-10.69613068688476
 20
17.57889481387871
 30
0.0
 41
1.0
 10
-10.80143078053084
 20
18.13724424221284
 30
0.0
 41
1.0
 10
-11.04192798932124
 20
19.44412961443293
 30
0.0
 41
1.0
 10
-11.25673841628222
 20
20.71345474310721
 30
0.0
 41
1.0
 10
-11.47659594139281
 20
21.95931096884961
 30
0.0
 41
1.0
 10
-11.57223354133656
 20
22.45473180471249
 30
0.0
 41
1.0
 10
-11.64001804360459
 20
22.77363892570651
 30
0.0
 41
1.0
 10
-11.65435577258943
 20
22.84109392971416
 30
0.0
 41
0.9997517272176918
 10
-11.67052892948714
 20
22.9081325531642
 30
0.0
 41
0.9997517272176918
 10
-11.68852546823376
 20
22.97470486445994
 30
0.0
 41
1.0
 10
-11.7027624155432
 20
23.02643337616596
 30
0.0
 41
1.0
 10
-11.73075753655687
 20
23.12518980988395
 30
0.0
 41
1.0
 10
-11.79885071092959
 20
23.30840625712898
 30
0.0
 41
1.0
 10
-11.92943209723036
 20
23.58738373773068
 30
0.0
 41
1.0
 10
-12.1001546814535
 20
23.78627460302576
 30
0.0
 41
1.0
 10
-12.22902099962753
 20
23.8890961282701
 30
0.0
 41
1.0
 10
-12.3236524375976
 20
23.96460188435919
 30
0.0
 41
1.0
 10
-12.68306448038273
 20
24.16324896112891
 30
0.0
 41
1.0
 10
-12.89280323756183
 20
24.2395684073722
 30
0.0
 41
1.0
 10
-13.02160812974989
 20
24.27948046569066
 30
0.0
 41
1.0
 10
-13.08624838229562
 20
24.29697665250452
 30
0.0
 41
1.0
 10
-13.11800448877549
 20
24.30501209695118
 30
0.0
 41
1.0
 10
-13.2253484111596
 20
24.33217399494869
 30
0.0
 41
0.9980583658839685
 10
-13.33445121418269
 20
24.35107015191614
 30
0.0
 41
0.9980583658839685
 10
-13.44467738467123
 20
24.36159049958443
 30
0.0
 41
1.0
  0
SPLINE
  5
C2
330
1F
100
AcDbEntity
  8
DEFAULT
100
AcDbSpline
210
0.0
220
0.0
230
1.0
 70
    12
 71
     2
 72
     6
 73
     3
 74
     0
 42
0.0000000001
 43
0.0000000001
 40
0.0
 40
0.0
 40
0.0
 40
0.0291243815190252
 40
0.0291243815190252
 40
0.0291243815190252
 10
-9.489622440771956
 20
1.438534389110794
 30
0.0
 41
1.0
 10
-9.501838935588248
 20
1.430601198962731
 30
0.0
 41
0.9995728113249319
 10
-9.514498082317957
 20
1.423395350255079
 30
0.0
 41
1.0
  0
SPLINE
  5
C3
330
1F
100
AcDbEntity
  8
DEFAULT
100
AcDbSpline
210
0.0
220
0.0
230
1.0
 70
    12
 71
     2
 72
     6
 73
     3
 74
     0
 42
0.0000000001
 43
0.0000000001
 40
0.0
 40
0.0
 40
0.0
 40
0.0289266313218846
 40
0.0289266313218846
 40
0.0289266313218846
 10
-10.23330587665411
 20
1.423479876432466
 30
0.0
 41
1.0
 10
-10.24587596208229
 20
1.430642077796158
 30
0.0
 41
0.9995819083693558
 10
-10.25801103020554
 20
1.438518898074042
 30
0.0
 41
1.0
  0
SPLINE
  5
C4
330
1F
100
AcDbEntity
  8
DEFAULT
100
AcDbSpline
210
0.0
220
0.0
230
1.0
 70
     8
 71
     3
 72
    31
 73
    27
 74
     0
 42
0.0000000001
 43
0.0000000001
 40
0.0
 40
0.0
 40
0.0
 40
0.0
 40
0.7738486097493056
 40
1.640609696422259
 40
3.711058129943453
 40
4.779947418548042
 40
6.179073423529389
 40
9.606635768796092
 40
12.56364877411684
 40
13.00236487719054
 40
13.00236487719054
 40
13.00236487719054
 40
13.37553276723797
 40
13.63970346935245
 40
13.87414391484035
 40
14.05230971314559
 40
14.16098768897708
 40
14.3464162161137
 40
14.60799330294035
 40
14.95086038159188
 40
15.41289603454705
 40
16.04431355961153
 40
16.93989728742488
 40
16.93989728742488
 40
16.93989728742488
 40
17.4011180078513
 40
17.4011180078513
 40
17.4011180078513
 40
17.4011180078513
 10
10.46977002397366
 20
25.39126851989282
 30
0.0
 10
10.45248414590508
 20
25.6486422409387
 30
0.0
 10
10.40756041003831
 20
26.19370319691486
 30
0.0
 10
10.27534841375584
 20
27.42373688519235
 30
0.0
 10
10.09330334538937
 20
28.74679905213394
 30
0.0
 10
9.865382724838405
 20
30.24233200860854
 30
0.0
 10
9.556533878771969
 20
32.18311951497266
 30
0.0
 10
9.144046991880124
 20
34.74467908213348
 30
0.0
 10
8.780326946037466
 20
36.98984492955666
 30
0.0
 10
8.59838697558964
 20
38.10703374490974
 30
0.0
 10
8.575352731265713
 20
38.25241930408166
 30
0.0
 10
8.555080344722157
 20
38.37614971424771
 30
0.0
 10
8.519892013495436
 20
38.58557291052008
 30
0.0
 10
8.465117737341515
 20
38.87111919727655
 30
0.0
 10
8.411179876990598
 20
39.09013148507183
 30
0.0
 10
8.359822146204039
 20
39.25643273299571
 30
0.0
 10
8.298459035391723
 20
39.4012384444998
 30
0.0
 10
8.2066824418681
 20
39.56384138670234
 30
0.0
 10
8.00885179348689
 20
39.74398042300066
 30
0.0
 10
7.680199318999431
 20
39.8868826135502
 30
0.0
 10
7.213345046987424
 20
39.99607727230125
 30
0.0
 10
6.556197206838267
 20
40.08735581643924
 30
0.0
 10
6.049156663748995
 20
40.13187492102507
 30
0.0
 10
5.751561604899926
 20
40.15583561032613
 30
0.0
 10
5.598301777621875
 20
40.16817523423637
 30
0.0
 10
5.445041950343824
 20
40.18051485814661
 30
0.0
 10
5.291782123065772
 20
40.19285448205684
 30
0.0
  0
SPLINE
  5
C5
330
1F
100
AcDbEntity
  8
DEFAULT
100
AcDbSpline
210
0.0
220
0.0
230
1.0
 70
    15
 71
     3
 72
    30
 73
    26
 74
     0
 42
0.0000000001
 43
0.0000000001
 40
0.0
 40
0.0
 40
0.0
 40
0.0
 40
3.572930198393035
 40
3.572930198393035
 40
3.572930198393035
 40
3.647926990979203
 40
3.647926990979203
 40
3.647926990979203
 40
3.679432476707911
 40
3.703275334895728
 40
3.749215122314822
 40
3.799210955564673
 40
3.857979240682949
 40
3.857979240682949
 40
3.857979240682949
 40
7.155738991502
 40
7.155738991502
 40
7.155738991502
 40
7.177632254871685
 40
7.199784537240308
 40
7.24867079512283
 40
7.353744862215986
 40
7.353744862215986
 40
7.353744862215986
 40
7.429915028917303
 40
7.429915028917303
 40
7.429915028917303
 40
7.429915028917303
 10
-13.79754580138493
 20
24.56658568453172
 30
0.0
 41
1.0
 10
-12.6065690686429
 20
24.56657417145258
 30
0.0
 41
1.0
 10
-11.41559233590087
 20
24.56656265837344
 30
0.0
 41
1.0
 10
-10.22461560315884
 20
24.5665511452943
 30
0.0
 41
1.0
 10
-10.22581379244255
 20
24.54157941671174
 30
0.0
 41
0.9998778599663108
 10
-10.22653375356221
 20
24.51658914194604
 30
0.0
 41
0.9998778599663108
 10
-10.2267752227096
 20
24.49158947793622
 30
0.0
 41
1.0
 10
-10.22686607752876
 20
24.48111561934445
 30
0.0
 41
1.0
 10
-10.22722169622878
 20
24.46254784472434
 30
0.0
 41
1.0
 10
-10.23356338091585
 20
24.42936410187776
 30
0.0
 41
1.0
 10
-10.25524558305092
 20
24.39398227087904
 30
0.0
 41
1.0
 10
-10.30104266105369
 20
24.3682978808231
 30
0.0
 41
1.0
 10
-10.33719716786125
 20
24.3616146656739
 30
0.0
 41
1.0
 10
-10.35679159758032
 20
24.36159027297378
 30
0.0
 41
1.0
 10
-11.45604484785334
 20
24.36159035364487
 30
0.0
 41
1.0
 10
-12.55529809812635
 20
24.36159043431597
 30
0.0
 41
1.0
 10
-13.65455134839937
 20
24.36159051498708
 30
0.0
 41
1.0
 10
-13.66183911977173
 20
24.36162427078952
 30
0.0
 41
1.0
 10
-13.67654450663006
 20
24.36324531919838
 30
0.0
 41
1.0
 10
-13.70594195431216
 20
24.37352946680619
 30
0.0
 41
1.0
 10
-13.75408087494663
 20
24.40888356186624
 30
0.0
 41
1.0
 10
-13.77762676182865
 20
24.45709948600269
 30
0.0
 41
1.0
 10
-13.78422634868805
 20
24.49150879214495
 30
0.0
 41
1.0
 10
-13.78909784182729
 20
24.51648461635611
 30
0.0
 41
0.999902946842249
 10
-13.79353809033305
 20
24.54151267620394
 30
0.0
 41
0.999902946842249
 10
-13.79754580138493
 20
24.56658568453172
 30
0.0
 41
1.0
  0
SPLINE
  5
C6
330
1F
100
AcDbEntity
  8
DEFAULT
100
AcDbSpline
210
0.0
220
0.0
230
1.0
 70
    15
 71
     3
 72
   101
 73
    97
 74
     0
 42
0.0000000001
 43
0.0000000001
 40
0.0
 40
0.0
 40
0.0
 40
0.0
 40
4.019609970369661
 40
4.019609970369661
 40
4.019609970369661
 40
4.178108068756499
 40
4.178108068756499
 40
4.178108068756499
 40
5.022144791300286
 40
5.748449692484687
 40
6.43727313338997
 40
7.208222891590552
 40
8.129295415530262
 40
9.101980747324749
 40
9.985809514769777
 40
10.43425901485453
 40
11.33049805137214
 40
11.68754109987705
 40
11.68754109987705
 40
11.68754109987705
 40
11.86762181075079
 40
11.86762181075079
 40
11.86762181075079
 40
11.89432767694851
 40
11.89432767694851
 40
11.89432767694851
 40
12.53814285895257
 40
12.79929667154499
 40
13.32837367716334
 40
14.25795849546316
 40
14.25795849546316
 40
14.25795849546316
 40
15.52852778306025
 40
15.52852778306025
 40
15.52852778306025
 40
16.23030465862744
 40
16.90067515071343
 40
17.37978504973436
 40
18.05483629286482
 40
18.36540080962324
 40
19.14500063644759
 40
20.06710619996868
 40
21.4842085545187
 40
21.84726433702211
 40
22.67287595849687
 40
23.47787123254067
 40
24.14629733799284
 40
25.63541284092582
 40
25.63541284092582
 40
25.63541284092582
 40
27.12452834385881
 40
27.79295444931098
 40
28.59794972335478
 40
29.42356134482954
 40
29.78661712733295
 40
31.20371948188297
 40
32.12582504540406
 40
32.90542487222842
 40
33.21598938898683
 40
33.89104063211729
 40
34.37015053113821
 40
35.04052102322421
 40
35.7422978987914
 40
35.7422978987914
 40
35.7422978987914
 40
37.01286718638848
 40
37.01286718638848
 40
37.01286718638848
 40
37.9424520046883
 40
38.47152901030665
 40
38.73268282289907
 40
39.37649800490313
 40
39.37649800490313
 40
39.37649800490313
 40
39.40320387110086
 40
39.40320387110086
 40
39.40320387110086
 40
39.5832845819746
 40
39.5832845819746
 40
39.5832845819746
 40
39.9403276304795
 40
40.83656666699711
 40
41.28501616708186
 40
42.16884493452689
 40
43.14153026632138
 40
44.0626027902611
 40
44.83355254846168
 40
45.52237598936696
 40
46.24868089055136
 40
47.09271761309515
 40
47.09271761309515
 40
47.09271761309515
 40
47.25121571148198
 40
47.25121571148198
 40
47.25121571148198
 40
51.27082568185165
 40
51.27082568185165
 40
51.27082568185165
 40
51.27082568185165
 10
-0.0000000000000426
 20
12.18549006553954
 30
0.0
 41
1.0
 10
1.339869990123178
 20
12.18549006553953
 30
0.0
 41
1.0
 10
2.679739980246398
 20
12.18549006553953
 30
0.0
 41
1.0
 10
4.019609970369618
 20
12.18549006553953
 30
0.0
 41
1.0
 10
4.019609970369618
 20
12.13265736607726
 30
0.0
 41
1.0
 10
4.019609970369618
 20
12.07982466661498
 30
0.0
 41
1.0
 10
4.019609970369618
 20
12.0269919671527
 30
0.0
 41
1.0
 10
4.299007558872429
 20
12.06016218572488
 30
0.0
 41
1.0
 10
4.817573263874763
 20
12.1323850364006
 30
0.0
 41
1.0
 10
5.556174316402398
 20
12.28205635368816
 30
0.0
 41
1.0
 10
6.256255256496914
 20
12.48652041687134
 30
0.0
 41
1.0
 10
7.000004420405126
 20
12.76434494365301
 30
0.0
 41
1.0
 10
7.816324022710219
 20
13.11500418193443
 30
0.0
 41
1.0
 10
8.649285150402179
 20
13.51983230637614
 30
0.0
 41
1.0
 10
9.32693693350933
 20
13.88207285000004
 30
0.0
 41
1.0
 10
9.975035133062953
 20
14.2451271230328
 30
0.0
 41
1.0
 10
10.46561837204953
 20
14.52992480272083
 30
0.0
 41
1.0
 10
10.83074694518922
 20
14.73296807393148
 30
0.0
 41
1.0
 10
10.93639595886428
 20
14.78779185451062
 30
0.0
 41
1.0
 10
10.98968182891658
 20
14.81544315712192
 30
0.0
 41
1.0
 10
11.04296769896887
 20
14.84309445973323
 30
0.0
 41
1.0
 10
11.09625356902117
 20
14.87074576234454
 30
0.0
 41
1.0
 10
11.09738413466185
 20
14.8795757820961
 30
0.0
 41
1.0
 10
11.09851470030253
 20
14.88840580184765
 30
0.0
 41
1.0
 10
11.09964526594321
 20
14.8972358215992
 30
0.0
 41
1.0
 10
11.12690052583049
 20
15.11010668417907
 30
0.0
 41
1.0
 10
11.16676262326266
 20
15.40911087687889
 30
0.0
 41
1.0
 10
11.22746452891019
 20
15.88326832957287
 30
0.0
 41
1.0
 10
11.29493104979236
 20
16.45254713732932
 30
0.0
 41
1.0
 10
11.33788619236167
 20
16.93703931392069
 30
0.0
 41
1.0
 10
11.352209917924
 20
17.24661432978971
 30
0.0
 41
1.0
 10
10.93619151410293
 20
17.32663524200452
 30
0.0
 41
0.9994270102563322
 10
10.51721368131949
 20
17.38934277221918
 30
0.0
 41
0.9994270102563322
 10
10.09599662957672
 20
17.43462912811868
 30
0.0
 41
1.0
 10
9.863444259769828
 20
17.45963155701081
 30
0.0
 41
1.0
 10
9.40718941015627
 20
17.49596279650871
 30
0.0
 41
1.0
 10
8.78985529900238
 20
17.50264397126088
 30
0.0
 41
1.0
 10
8.18214289618233
 20
17.47137355896877
 30
0.0
 41
1.0
 10
7.697419169524899
 20
17.41043167316338
 30
0.0
 41
1.0
 10
7.110898377002265
 20
17.36373078722841
 30
0.0
 41
1.0
 10
6.441305910579128
 20
17.32194348215182
 30
0.0
 41
1.0
 10
5.402000815634104
 20
17.29451404344859
 30
0.0
 41
1.0
 10
4.501311280335191
 20
17.28336690623847
 30
0.0
 41
1.0
 10
3.632730708535302
 20
17.2782821453792
 30
0.0
 41
1.0
 10
2.968164383169412
 20
17.28479056230175
 30
0.0
 41
1.0
 10
2.202157568500283
 20
17.30848645693963
 30
0.0
 41
1.0
 10
1.21535008704787
 20
17.3450147120412
 30
0.0
 41
1.0
 10
0.496414544064935
 20
17.36675227314334
 30
0.0
 41
1.0
 10
0.0
 20
17.36656445754525
 30
0.0
 41
1.0
 10
-0.496414544064935
 20
17.36675227314334
 30
0.0
 41
1.0
 10
-1.21535008704787
 20
17.3450147120412
 30
0.0
 41
1.0
 10
-2.202157568500281
 20
17.30848645693963
 30
0.0
 41
1.0
 10
-2.968164383169412
 20
17.28479056230175
 30
0.0
 41
1.0
 10
-3.632730708535302
 20
17.2782821453792
 30
0.0
 41
1.0
 10
-4.501311280335191
 20
17.28336690623847
 30
0.0
 41
1.0
 10
-5.402000815634105
 20
17.29451404344859
 30
0.0
 41
1.0
 10
-6.441305910579129
 20
17.32194348215182
 30
0.0
 41
1.0
 10
-7.110898377002266
 20
17.36373078722841
 30
0.0
 41
1.0
 10
-7.697419169524898
 20
17.41043167316338
 30
0.0
 41
1.0
 10
-8.18214289618233
 20
17.47137355896877
 30
0.0
 41
1.0
 10
-8.78985529900238
 20
17.50264397126088
 30
0.0
 41
1.0
 10
-9.40718941015627
 20
17.49596279650871
 30
0.0
 41
1.0
 10
-9.863444259769828
 20
17.45963155701081
 30
0.0
 41
1.0
 10
-10.09599662957672
 20
17.43462912811869
 30
0.0
 41
1.0
 10
-10.51721368131949
 20
17.38934277221918
 30
0.0
 41
0.9994270102563322
 10
-10.93619151410293
 20
17.32663524200452
 30
0.0
 41
0.9994270102563322
 10
-11.352209917924
 20
17.24661432978971
 30
0.0
 41
1.0
 10
-11.33788619236167
 20
16.93703931392069
 30
0.0
 41
1.0
 10
-11.29493104979236
 20
16.45254713732932
 30
0.0
 41
1.0
 10
-11.22746452891019
 20
15.88326832957287
 30
0.0
 41
1.0
 10
-11.16676262326266
 20
15.40911087687889
 30
0.0
 41
1.0
 10
-11.12690052583049
 20
15.11010668417907
 30
0.0
 41
1.0
 10
-11.09964526594321
 20
14.8972358215992
 30
0.0
 41
1.0
 10
-11.09851470030253
 20
14.88840580184765
 30
0.0
 41
1.0
 10
-11.09738413466185
 20
14.8795757820961
 30
0.0
 41
1.0
 10
-11.09625356902117
 20
14.87074576234454
 30
0.0
 41
1.0
 10
-11.04296769896887
 20
14.84309445973323
 30
0.0
 41
1.0
 10
-10.98968182891658
 20
14.81544315712192
 30
0.0
 41
1.0
 10
-10.93639595886428
 20
14.78779185451062
 30
0.0
 41
1.0
 10
-10.83074694518922
 20
14.73296807393148
 30
0.0
 41
1.0
 10
-10.46561837204953
 20
14.52992480272083
 30
0.0
 41
1.0
 10
-9.975035133062955
 20
14.2451271230328
 30
0.0
 41
1.0
 10
-9.32693693350933
 20
13.88207285000004
 30
0.0
 41
1.0
 10
-8.64928515040218
 20
13.51983230637614
 30
0.0
 41
1.0
 10
-7.816324022710219
 20
13.11500418193443
 30
0.0
 41
1.0
 10
-7.000004420405126
 20
12.76434494365301
 30
0.0
 41
1.0
 10
-6.256255256496913
 20
12.48652041687134
 30
0.0
 41
1.0
 10
-5.5561743164024
 20
12.28205635368816
 30
0.0
 41
1.0
 10
-4.817573263874763
 20
12.1323850364006
 30
0.0
 41
1.0
 10
-4.299007558872429
 20
12.06016218572488
 30
0.0
 41
1.0
 10
-4.019609970369618
 20
12.0269919671527
 30
0.0
 41
1.0
 10
-4.019609970369618
 20
12.07982466661498
 30
0.0
 41
1.0
 10
-4.019609970369618
 20
12.13265736607726
 30
0.0
 41
1.0
 10
-4.019609970369618
 20
12.18549006553953
 30
0.0
 41
1.0
 10
-2.679739980246426
 20
12.18549006553953
 30
0.0
 41
1.0
 10
-1.339869990123234
 20
12.18549006553953
 30
0.0
 41
1.0
 10
-0.0000000000000426
 20
12.18549006553954
 30
0.0
 41
1.0
  0
SPLINE
  5
C7
330
1F
100
AcDbEntity
  8
DEFAULT
100
AcDbSpline
210
0.0
220
0.0
230
1.0
 70
     8
 71
     3
 72
    31
 73
    27
 74
     0
 42
0.0000000001
 43
0.0000000001
 40
0.0
 40
0.0
 40
0.0
 40
0.0
 40
0.7738486097493056
 40
1.640609696422259
 40
3.711058129943453
 40
4.779947418548042
 40
6.179073423529389
 40
9.606635768796092
 40
12.56364877411684
 40
13.00236487719054
 40
13.00236487719054
 40
13.00236487719054
 40
13.37553276723797
 40
13.63970346935245
 40
13.87414391484035
 40
14.05230971314559
 40
14.16098768897708
 40
14.3464162161137
 40
14.60799330294035
 40
14.95086038159188
 40
15.41289603454705
 40
16.04431355961153
 40
16.93989728742488
 40
16.93989728742488
 40
16.93989728742488
 40
17.4011180078513
 40
17.4011180078513
 40
17.4011180078513
 40
17.4011180078513
 10
-10.46977002397367
 20
25.39126851989282
 30
0.0
 10
-10.45248414590509
 20
25.6486422409387
 30
0.0
 10
-10.40756041003832
 20
26.19370319691486
 30
0.0
 10
-10.27534841375585
 20
27.42373688519235
 30
0.0
 10
-10.09330334538938
 20
28.74679905213394
 30
0.0
 10
-9.865382724838412
 20
30.24233200860854
 30
0.0
 10
-9.556533878771976
 20
32.18311951497266
 30
0.0
 10
-9.14404699188013
 20
34.74467908213348
 30
0.0
 10
-8.780326946037473
 20
36.98984492955666
 30
0.0
 10
-8.598386975589648
 20
38.10703374490974
 30
0.0
 10
-8.57535273126572
 20
38.25241930408166
 30
0.0
 10
-8.555080344722166
 20
38.37614971424771
 30
0.0
 10
-8.519892013495443
 20
38.58557291052008
 30
0.0
 10
-8.465117737341522
 20
38.87111919727655
 30
0.0
 10
-8.411179876990605
 20
39.09013148507183
 30
0.0
 10
-8.359822146204047
 20
39.25643273299571
 30
0.0
 10
-8.29845903539173
 20
39.4012384444998
 30
0.0
 10
-8.206682441868107
 20
39.56384138670234
 30
0.0
 10
-8.008851793486896
 20
39.74398042300066
 30
0.0
 10
-7.680199318999439
 20
39.8868826135502
 30
0.0
 10
-7.213345046987432
 20
39.99607727230125
 30
0.0
 10
-6.556197206838273
 20
40.08735581643924
 30
0.0
 10
-6.049156663749002
 20
40.13187492102507
 30
0.0
 10
-5.751561604899935
 20
40.15583561032613
 30
0.0
 10
-5.598301777621884
 20
40.16817523423637
 30
0.0
 10
-5.445041950343831
 20
40.18051485814661
 30
0.0
 10
-5.291782123065779
 20
40.19285448205684
 30
0.0
  0
SPLINE
  5
C8
330
1F
100
AcDbEntity
  8
DEFAULT
100
AcDbSpline
210
0.0
220
0.0
230
1.0
 70
    24
 71
     2
 72
     6
 73
     3
 74
     0
 42
0.0000000001
 43
0.0000000001
 40
0.0
 40
0.0
 40
0.0
 40
0.0450000000000053
 40
0.0450000000000053
 40
0.0450000000000053
 10
-13.74427075943042
 20
24.56659003719617
 30
0.0
 10
-13.74427075943042
 20
24.58909003719617
 30
0.0
 10
-13.74427075943042
 20
24.61159003719618
 30
0.0
  0
SPLINE
  5
C9
330
1F
100
AcDbEntity
  8
DEFAULT
100
AcDbSpline
210
0.0
220
0.0
230
1.0
 70
    15
 71
     5
 72
    37
 73
    31
 74
     0
 42
0.0000000001
 43
0.0000000001
 40
0.0
 40
0.0
 40
0.0
 40
0.0
 40
0.0
 40
0.0
 40
1.0
 40
1.0
 40
1.0
 40
1.0
 40
1.0
 40
1.591685380862763
 40
1.591685380862763
 40
1.591685380862763
 40
1.591685380862763
 40
1.591685380862763
 40
5.173919321705702
 40
5.173919321705702
 40
5.173919321705702
 40
5.173919321705702
 40
5.173919321705702
 40
5.766324559941469
 40
5.766324559941469
 40
5.766324559941469
 40
5.766324559941469
 40
5.766324559941469
 40
6.766324559941469
 40
6.766324559941469
 40
6.766324559941469
 40
6.766324559941469
 40
6.766324559941469
 40
9.901806363634137
 40
9.901806363634137
 40
9.901806363634137
 40
9.901806363634137
 40
9.901806363634137
 40
9.901806363634137
 10
-13.55731471625145
 20
25.3912464493211
 30
0.0
 41
1.0
 10
-13.61529177582557
 20
25.38387369799418
 30
0.0
 41
1.0
 10
-13.67322482423237
 20
25.37615485631963
 30
0.0
 41
1.0
 10
-13.77599347725378
 20
25.31960144313345
 30
0.0
 41
1.0
 10
-13.77832604812227
 20
25.26120404582116
 30
0.0
 41
1.0
 10
-13.78065946474806
 20
25.20280668230327
 30
0.0
 41
1.0
 10
-13.78538415628666
 20
25.08456396206164
 30
0.0
 41
0.9999999993120493
 10
-13.79011231525757
 20
24.96632138039053
 30
0.0
 41
0.999999998968074
 10
-13.79484394165591
 20
24.84807893741195
 30
0.0
 41
0.999999998968074
 10
-13.79957903547682
 20
24.72983663324794
 30
0.0
 41
0.9999999993120493
 10
-13.80431759671538
 20
24.61159446802051
 30
0.0
 41
1.0
 10
-13.0878708085545
 20
24.6115977925706
 30
0.0
 41
1.0
 10
-12.37142402039363
 20
24.61160111712069
 30
0.0
 41
1.0
 10
-11.65497723223276
 20
24.61160444167077
 30
0.0
 41
1.0
 10
-10.93853044407188
 20
24.61160776622086
 30
0.0
 41
1.0
 10
-10.22208365591101
 20
24.61161109077095
 30
0.0
 41
1.0
 10
-10.22682042640257
 20
24.72999741454584
 30
0.0
 41
0.999999999992224
 10
-10.23155682780017
 20
24.84838375308832
 30
0.0
 41
0.9999999999883359
 10
-10.23629286010375
 20
24.96677010639699
 30
0.0
 41
0.9999999999883361
 10
-10.24102852331326
 20
25.08515647447048
 30
0.0
 41
0.9999999999922242
 10
-10.24576381742864
 20
25.20354285730741
 30
0.0
 41
1.0
 10
-10.24783985740005
 20
25.25544562339796
 30
0.0
 41
1.0
 10
-10.24991582642763
 20
25.30734839232616
 30
0.0
 41
1.0
 10
-10.32742557353287
 20
25.37248543587003
 30
0.0
 41
1.0
 10
-10.37889778300045
 20
25.37947790854403
 30
0.0
 41
1.0
 10
-10.43040564156201
 20
25.38619710315464
 30
0.0
 41
1.0
 10
-11.05257331055441
 20
25.46735880867178
 30
0.0
 41
0.9967224310488195
 10
-11.67942990106641
 20
25.50864758627022
 30
0.0
 41
0.9950836465732291
 10
-12.3079015045256
 20
25.50966244490726
 30
0.0
 41
0.9950836465732291
 10
-12.93488817211467
 20
25.47039837877224
 30
0.0
 41
0.9967224310488195
 10
-13.55731471625145
 20
25.3912464493211
 30
0.0
 41
1.0
  0
SPLINE
  5
CA
330
1F
100
AcDbEntity
  8
DEFAULT
100
AcDbSpline
210
0.0
220
0.0
230
1.0
 70
    12
 71
     3
 72
    24
 73
    20
 74
     0
 42
0.0000000001
 43
0.0000000001
 40
-0.5405758120702362
 40
-0.5405758120702362
 40
-0.5405758120702362
 40
-0.5405758120702362
 40
-0.4094537808314678
 40
-0.4094537808314678
 40
-0.4094537808314678
 40
0.0
 40
0.0
 40
0.0
 40
0.0891862731807223
 40
0.1880218187503614
 40
0.4250947976900005
 40
1.11846233308774
 40
1.11846233308774
 40
1.11846233308774
 40
1.889547781089315
 40
2.732670923702695
 40
4.19503262336611
 40
5.418553415856874
 40
6.516850338983329
 40
6.516850338983329
 40
6.516850338983329
 40
6.516850338983329
 10
-10.32805021819943
 20
24.36401733966628
 30
0.0
 41
1.0
 10
-10.35702324141436
 20
24.33117826664089
 30
0.0
 41
0.9960870121848514
 10
-10.38227343420498
 20
24.29539742602169
 30
0.0
 41
0.9960870121848514
 10
-10.40350438548112
 20
24.25709484778875
 30
0.0
 41
1.0
 10
-10.47011207088212
 20
24.13692849029474
 30
0.0
 41
0.9868618071688537
 10
-10.51166817499169
 20
24.00597190420953
 30
0.0
 41
0.9868618071688537
 10
-10.52653478148251
 20
23.8693866881746
 30
0.0
 41
1.0
 10
-10.52975136807233
 20
23.83983467342691
 30
0.0
 41
1.0
 10
-10.53471086434945
 20
23.77732873133322
 30
0.0
 41
1.0
 10
-10.53915076624518
 20
23.63567978052572
 30
0.0
 41
1.0
 10
-10.53082640139298
 20
23.29247640419629
 30
0.0
 41
1.0
 10
-10.49802099638636
 20
22.9837993368321
 30
0.0
 41
1.0
 10
-10.47652379959657
 20
22.75359756961997
 30
0.0
 41
1.0
 10
-10.4525612226517
 20
22.49754074381784
 30
0.0
 41
1.0
 10
-10.39285953916403
 20
21.96274287680147
 30
0.0
 41
1.0
 10
-10.25460925863549
 20
20.94652854180249
 30
0.0
 41
1.0
 10
-10.05432323957296
 20
19.78691399772617
 30
0.0
 41
1.0
 10
-9.753917102753281
 20
18.56073189445208
 30
0.0
 41
1.0
 10
-9.500204049396299
 20
17.82850978048923
 30
0.0
 41
1.0
 10
-9.36052973397537
 20
17.49006814588423
 30
0.0
 41
1.0
  0
SPLINE
  5
CB
330
1F
100
AcDbEntity
  8
DEFAULT
100
AcDbSpline
210
0.0
220
0.0
230
1.0
 70
    12
 71
     3
 72
    15
 73
    11
 74
     0
 42
0.0000000001
 43
0.0000000001
 40
0.0
 40
0.0
 40
0.0
 40
0.0
 40
1.690525992456849
 40
2.947928771452026
 40
4.908249795933024
 40
6.52082592067804
 40
7.882638136304386
 40
7.882638136304386
 40
7.882638136304386
 40
10.12919064714452
 40
10.12919064714452
 40
10.12919064714452
 40
10.12919064714452
 10
0.0000000000000178
 20
13.18159003719699
 30
0.0
 41
1.0
 10
-0.5634988273669972
 20
13.18172831517432
 30
0.0
 41
1.0
 10
-1.546171246243881
 20
13.18224359858331
 30
0.0
 41
1.0
 10
-3.18216272768773
 20
13.19813421977483
 30
0.0
 41
1.0
 10
-4.791867086396557
 20
13.24327099530307
 30
0.0
 41
1.0
 10
-6.432648450051483
 20
13.37042405934656
 30
0.0
 41
1.0
 10
-7.413385530335742
 20
13.52190181776209
 30
0.0
 41
1.0
 10
-7.857868809698767
 20
13.61424410482318
 30
0.0
 41
1.0
 10
-8.59219997712445
 20
13.76680286824281
 30
0.0
 41
0.9969102094464454
 10
-9.308456790761381
 20
13.9892722294312
 30
0.0
 41
0.9969102094464454
 10
-9.999999999999472
 20
14.27959003719637
 30
0.0
 41
1.0
  0
SPLINE
  5
CC
330
1F
100
AcDbEntity
  8
DEFAULT
100
AcDbSpline
210
0.0
220
0.0
230
1.0
 70
    12
 71
     3
 72
    15
 73
    11
 74
     0
 42
0.0000000001
 43
0.0000000001
 40
0.0
 40
0.0
 40
0.0
 40
0.0
 40
1.690525992456849
 40
2.947928771452026
 40
4.908249795933024
 40
6.52082592067804
 40
7.882638136304386
 40
7.882638136304386
 40
7.882638136304386
 40
10.12919064714452
 40
10.12919064714452
 40
10.12919064714452
 40
10.12919064714452
 10
-0.0000000000000178
 20
13.18159003719699
 30
0.0
 41
1.0
 10
0.5634988273669972
 20
13.18172831517432
 30
0.0
 41
1.0
 10
1.546171246243881
 20
13.18224359858331
 30
0.0
 41
1.0
 10
3.182162727687732
 20
13.19813421977483
 30
0.0
 41
1.0
 10
4.791867086396557
 20
13.24327099530307
 30
0.0
 41
1.0
 10
6.432648450051481
 20
13.37042405934656
 30
0.0
 41
1.0
 10
7.413385530335741
 20
13.52190181776209
 30
0.0
 41
1.0
 10
7.857868809698765
 20
13.61424410482318
 30
0.0
 41
1.0
 10
8.592199977124476
 20
13.76680286824282
 30
0.0
 41
0.9969102094464454
 10
9.308456790761408
 20
13.9892722294312
 30
0.0
 41
0.9969102094464454
 10
9.999999999999499
 20
14.27959003719638
 30
0.0
 41
1.0
  0
SPLINE
  5
CD
330
1F
100
AcDbEntity
  8
DEFAULT
100
AcDbSpline
210
0.0
220
0.0
230
1.0
 70
    12
 71
     3
 72
    24
 73
    20
 74
     0
 42
0.0000000001
 43
0.0000000001
 40
-0.5405758120702362
 40
-0.5405758120702362
 40
-0.5405758120702362
 40
-0.5405758120702362
 40
-0.4094537808314678
 40
-0.4094537808314678
 40
-0.4094537808314678
 40
0.0
 40
0.0
 40
0.0
 40
0.0891862731807223
 40
0.1880218187503614
 40
0.4250947976900005
 40
1.11846233308774
 40
1.11846233308774
 40
1.11846233308774
 40
1.889547781089315
 40
2.732670923702695
 40
4.19503262336611
 40
5.418553415856874
 40
6.516850338983329
 40
6.516850338983329
 40
6.516850338983329
 40
6.516850338983329
 10
10.32805021819943
 20
24.36401733966628
 30
0.0
 41
1.0
 10
10.35702324141436
 20
24.33117826664089
 30
0.0
 41
0.9960870121848514
 10
10.38227343420498
 20
24.29539742602169
 30
0.0
 41
0.9960870121848514
 10
10.40350438548112
 20
24.25709484778875
 30
0.0
 41
1.0
 10
10.47011207088212
 20
24.13692849029474
 30
0.0
 41
0.9868618071688537
 10
10.51166817499169
 20
24.00597190420953
 30
0.0
 41
0.9868618071688537
 10
10.52653478148251
 20
23.8693866881746
 30
0.0
 41
1.0
 10
10.52975136807233
 20
23.83983467342691
 30
0.0
 41
1.0
 10
10.53471086434945
 20
23.77732873133322
 30
0.0
 41
1.0
 10
10.53915076624518
 20
23.63567978052572
 30
0.0
 41
1.0
 10
10.53082640139298
 20
23.29247640419629
 30
0.0
 41
1.0
 10
10.49802099638636
 20
22.9837993368321
 30
0.0
 41
1.0
 10
10.47652379959657
 20
22.75359756961997
 30
0.0
 41
1.0
 10
10.4525612226517
 20
22.49754074381784
 30
0.0
 41
1.0
 10
10.39285953916403
 20
21.96274287680147
 30
0.0
 41
1.0
 10
10.25460925863549
 20
20.94652854180249
 30
0.0
 41
1.0
 10
10.05432323957296
 20
19.78691399772617
 30
0.0
 41
1.0
 10
9.753917102753281
 20
18.56073189445208
 30
0.0
 41
1.0
 10
9.500204049396299
 20
17.82850978048923
 30
0.0
 41
1.0
 10
9.360529733975369
 20
17.49006814588423
 30
0.0
 41
1.0
  0
SPLINE
  5
CE
330
1F
100
AcDbEntity
  8
DEFAULT
100
AcDbSpline
210
0.0
220
0.0
230
1.0
 70
    15
 71
     5
 72
    37
 73
    31
 74
     0
 42
0.0000000001
 43
0.0000000001
 40
0.0
 40
0.0
 40
0.0
 40
0.0
 40
0.0
 40
0.0
 40
1.0
 40
1.0
 40
1.0
 40
1.0
 40
1.0
 40
1.591685380862763
 40
1.591685380862763
 40
1.591685380862763
 40
1.591685380862763
 40
1.591685380862763
 40
5.173919321705702
 40
5.173919321705702
 40
5.173919321705702
 40
5.173919321705702
 40
5.173919321705702
 40
5.766324559941469
 40
5.766324559941469
 40
5.766324559941469
 40
5.766324559941469
 40
5.766324559941469
 40
6.766324559941469
 40
6.766324559941469
 40
6.766324559941469
 40
6.766324559941469
 40
6.766324559941469
 40
9.901806363634137
 40
9.901806363634137
 40
9.901806363634137
 40
9.901806363634137
 40
9.901806363634137
 40
9.901806363634137
 10
13.55731471625145
 20
25.3912464493211
 30
0.0
 41
1.0
 10
13.61529177582557
 20
25.38387369799418
 30
0.0
 41
1.0
 10
13.67322482423237
 20
25.37615485631963
 30
0.0
 41
1.0
 10
13.77599347725378
 20
25.31960144313345
 30
0.0
 41
1.0
 10
13.77832604812227
 20
25.26120404582116
 30
0.0
 41
1.0
 10
13.78065946474806
 20
25.20280668230327
 30
0.0
 41
1.0
 10
13.78538415628666
 20
25.08456396206164
 30
0.0
 41
0.9999999993120493
 10
13.79011231525757
 20
24.96632138039053
 30
0.0
 41
0.999999998968074
 10
13.79484394165591
 20
24.84807893741195
 30
0.0
 41
0.999999998968074
 10
13.79957903547682
 20
24.72983663324794
 30
0.0
 41
0.9999999993120493
 10
13.80431759671538
 20
24.61159446802051
 30
0.0
 41
1.0
 10
13.0878708085545
 20
24.6115977925706
 30
0.0
 41
1.0
 10
12.37142402039363
 20
24.61160111712069
 30
0.0
 41
1.0
 10
11.65497723223276
 20
24.61160444167077
 30
0.0
 41
1.0
 10
10.93853044407188
 20
24.61160776622086
 30
0.0
 41
1.0
 10
10.22208365591101
 20
24.61161109077095
 30
0.0
 41
1.0
 10
10.22682042640257
 20
24.72999741454584
 30
0.0
 41
0.999999999992224
 10
10.23155682780017
 20
24.84838375308832
 30
0.0
 41
0.9999999999883359
 10
10.23629286010375
 20
24.96677010639699
 30
0.0
 41
0.9999999999883361
 10
10.24102852331326
 20
25.08515647447048
 30
0.0
 41
0.9999999999922242
 10
10.24576381742864
 20
25.20354285730741
 30
0.0
 41
1.0
 10
10.24783985740005
 20
25.25544562339796
 30
0.0
 41
1.0
 10
10.24991582642763
 20
25.30734839232616
 30
0.0
 41
1.0
 10
10.32742557353287
 20
25.37248543587003
 30
0.0
 41
1.0
 10
10.37889778300045
 20
25.37947790854403
 30
0.0
 41
1.0
 10
10.43040564156201
 20
25.38619710315464
 30
0.0
 41
1.0
 10
11.05257331055441
 20
25.46735880867178
 30
0.0
 41
0.9967224310488195
 10
11.67942990106641
 20
25.50864758627022
 30
0.0
 41
0.9950836465732291
 10
12.3079015045256
 20
25.50966244490726
 30
0.0
 41
0.9950836465732291
 10
12.93488817211467
 20
25.47039837877224
 30
0.0
 41
0.9967224310488195
 10
13.55731471625145
 20
25.3912464493211
 30
0.0
 41
1.0
  0
SPLINE
  5
CF
330
1F
100
AcDbEntity
  8
DEFAULT
100
AcDbSpline
210
0.0
220
0.0
230
1.0
 70
    24
 71
     2
 72
     6
 73
     3
 74
     0
 42
0.0000000001
 43
0.0000000001
 40
0.0
 40
0.0
 40
0.0
 40
0.0450000000000053
 40
0.0450000000000053
 40
0.0450000000000053
 10
13.74427075943041
 20
24.56659003719617
 30
0.0
 10
13.74427075943041
 20
24.58909003719617
 30
0.0
 10
13.74427075943041
 20
24.61159003719618
 30
0.0
  0
SPLINE
  5
D0
330
1F
100
AcDbEntity
  8
DEFAULT
100
AcDbSpline
210
0.0
220
0.0
230
1.0
 70
    15
 71
     3
 72
    30
 73
    26
 74
     0
 42
0.0000000001
 43
0.0000000001
 40
0.0
 40
0.0
 40
0.0
 40
0.0
 40
3.572930198393035
 40
3.572930198393035
 40
3.572930198393035
 40
3.647926990979203
 40
3.647926990979203
 40
3.647926990979203
 40
3.679432476707911
 40
3.703275334895728
 40
3.749215122314822
 40
3.799210955564673
 40
3.857979240682949
 40
3.857979240682949
 40
3.857979240682949
 40
7.155738991502
 40
7.155738991502
 40
7.155738991502
 40
7.177632254871685
 40
7.199784537240308
 40
7.24867079512283
 40
7.353744862215986
 40
7.353744862215986
 40
7.353744862215986
 40
7.429915028917303
 40
7.429915028917303
 40
7.429915028917303
 40
7.429915028917303
 10
13.79754580138493
 20
24.56658568453172
 30
0.0
 41
1.0
 10
12.6065690686429
 20
24.56657417145258
 30
0.0
 41
1.0
 10
11.41559233590087
 20
24.56656265837344
 30
0.0
 41
1.0
 10
10.22461560315884
 20
24.5665511452943
 30
0.0
 41
1.0
 10
10.22581379244255
 20
24.54157941671174
 30
0.0
 41
0.9998778599663108
 10
10.22653375356221
 20
24.51658914194604
 30
0.0
 41
0.9998778599663108
 10
10.2267752227096
 20
24.49158947793622
 30
0.0
 41
1.0
 10
10.22686607752875
 20
24.48111561934445
 30
0.0
 41
1.0
 10
10.22722169622878
 20
24.46254784472434
 30
0.0
 41
1.0
 10
10.23356338091585
 20
24.42936410187776
 30
0.0
 41
1.0
 10
10.25524558305092
 20
24.39398227087904
 30
0.0
 41
1.0
 10
10.30104266105369
 20
24.3682978808231
 30
0.0
 41
1.0
 10
10.33719716786125
 20
24.3616146656739
 30
0.0
 41
1.0
 10
10.35679159758032
 20
24.36159027297378
 30
0.0
 41
1.0
 10
11.45604484785334
 20
24.36159035364487
 30
0.0
 41
1.0
 10
12.55529809812635
 20
24.36159043431597
 30
0.0
 41
1.0
 10
13.65455134839937
 20
24.36159051498708
 30
0.0
 41
1.0
 10
13.66183911977173
 20
24.36162427078952
 30
0.0
 41
1.0
 10
13.67654450663006
 20
24.36324531919838
 30
0.0
 41
1.0
 10
13.70594195431216
 20
24.37352946680619
 30
0.0
 41
1.0
 10
13.75408087494663
 20
24.40888356186624
 30
0.0
 41
1.0
 10
13.77762676182865
 20
24.45709948600269
 30
0.0
 41
1.0
 10
13.78422634868805
 20
24.49150879214495
 30
0.0
 41
1.0
 10
13.78909784182729
 20
24.51648461635611
 30
0.0
 41
0.999902946842249
 10
13.79353809033305
 20
24.54151267620394
 30
0.0
 41
0.999902946842249
 10
13.79754580138493
 20
24.56658568453172
 30
0.0
 41
1.0
  0
SPLINE
  5
D1
330
1F
100
AcDbEntity
  8
DEFAULT
100
AcDbSpline
210
0.0
220
0.0
230
1.0
 70
    12
 71
     3
 72
    30
 73
    26
 74
     0
 42
0.0000000001
 43
0.0000000001
 40
0.0
 40
0.0
 40
0.0
 40
0.0
 40
0.6598249576726878
 40
1.704601509326259
 40
3.986402777198714
 40
4.521857318025755
 40
5.499944621414161
 40
5.499944621414161
 40
5.499944621414161
 40
5.706804732218803
 40
5.706804732218803
 40
5.706804732218803
 40
5.868022440724325
 40
6.013845351840282
 40
6.294007513490956
 40
6.788135694860687
 40
6.788135694860687
 40
6.788135694860687
 40
7.151207966908908
 40
7.35478116382504
 40
7.457395589183722
 40
7.555662435402462
 40
7.555662435402462
 40
7.555662435402462
 40
7.887520939230139
 40
7.887520939230139
 40
7.887520939230139
 40
7.887520939230139
 10
10.65234165452041
 20
17.36334485791692
 30
0.0
 41
1.0
 10
10.69613068688476
 20
17.57889481387871
 30
0.0
 41
1.0
 10
10.80143078053084
 20
18.13724424221284
 30
0.0
 41
1.0
 10
11.04192798932124
 20
19.44412961443293
 30
0.0
 41
1.0
 10
11.25673841628222
 20
20.71345474310721
 30
0.0
 41
1.0
 10
11.47659594139281
 20
21.95931096884961
 30
0.0
 41
1.0
 10
11.57223354133656
 20
22.45473180471249
 30
0.0
 41
1.0
 10
11.64001804360459
 20
22.77363892570651
 30
0.0
 41
1.0
 10
11.65435577258943
 20
22.84109392971416
 30
0.0
 41
0.9997517272176918
 10
11.67052892948715
 20
22.9081325531642
 30
0.0
 41
0.9997517272176918
 10
11.68852546823376
 20
22.97470486445994
 30
0.0
 41
1.0
 10
11.7027624155432
 20
23.02643337616596
 30
0.0
 41
1.0
 10
11.73075753655687
 20
23.12518980988395
 30
0.0
 41
1.0
 10
11.79885071092959
 20
23.30840625712898
 30
0.0
 41
1.0
 10
11.92943209723036
 20
23.58738373773068
 30
0.0
 41
1.0
 10
12.1001546814535
 20
23.78627460302576
 30
0.0
 41
1.0
 10
12.22902099962753
 20
23.8890961282701
 30
0.0
 41
1.0
 10
12.3236524375976
 20
23.96460188435919
 30
0.0
 41
1.0
 10
12.68306448038273
 20
24.16324896112891
 30
0.0
 41
1.0
 10
12.89280323756183
 20
24.2395684073722
 30
0.0
 41
1.0
 10
13.02160812974989
 20
24.27948046569066
 30
0.0
 41
1.0
 10
13.08624838229562
 20
24.29697665250452
 30
0.0
 41
1.0
 10
13.11800448877549
 20
24.30501209695118
 30
0.0
 41
1.0
 10
13.2253484111596
 20
24.33217399494869
 30
0.0
 41
0.9980583658839685
 10
13.33445121418269
 20
24.35107015191614
 30
0.0
 41
0.9980583658839685
 10
13.44467738467123
 20
24.36159049958443
 30
0.0
 41
1.0
  0
SPLINE
  5
D2
330
1F
100
AcDbEntity
  8
DEFAULT
100
AcDbSpline
210
0.0
220
0.0
230
1.0
 70
    24
 71
     2
 72
     6
 73
     3
 74
     0
 42
0.0000000001
 43
0.0000000001
 40
0.0
 40
0.0
 40
0.0
 40
0.0449999999999982
 40
0.0449999999999982
 40
0.0449999999999982
 10
10.28208187744796
 20
24.61159003719617
 30
0.0
 10
10.28208187744796
 20
24.58909003719617
 30
0.0
 10
10.28208187744796
 20
24.56659003719617
 30
0.0
  0
SPLINE
  5
D3
330
1F
100
AcDbEntity
  8
DEFAULT
100
AcDbSpline
210
0.0
220
0.0
230
1.0
 70
     8
 71
     3
 72
    24
 73
    20
 74
     0
 42
0.0000000001
 43
0.0000000001
 40
0.0
 40
0.0
 40
0.0
 40
0.0
 40
0.7272740576808133
 40
1.357736527526735
 40
1.897843686739847
 40
2.337895206260385
 40
2.69822818614206
 40
3.014947651534493
 40
3.145820565258941
 40
3.28351159653176
 40
3.397356045075257
 40
3.457920988579699
 40
3.555292757894511
 40
3.603942054935436
 40
3.632020584450265
 40
3.639156012398561
 40
3.642234635052024
 40
3.643503660587009
 40
3.646961494914839
 40
3.646961494914839
 40
3.646961494914839
 40
3.646961494914839
 10
9.999999999999478
 20
14.27959003719637
 30
0.0
 10
10.00068371902597
 20
14.52200938801965
 30
0.0
 10
10.01196979228127
 20
14.97462922240257
 30
0.0
 10
10.0706023111858
 20
15.60499602801541
 30
0.0
 10
10.17048973570146
 20
16.13334652503026
 30
0.0
 10
10.31374399914113
 20
16.5581866678806
 30
0.0
 10
10.50030515681848
 20
16.88316314281428
 30
0.0
 10
10.69549425341036
 20
17.07369194220675
 30
0.0
 10
10.86693516743172
 20
17.16888685849171
 30
0.0
 10
10.98762760191322
 20
17.21090981764357
 30
0.0
 10
11.09049660610848
 20
17.22878677636241
 30
0.0
 10
11.18079160649169
 20
17.23569479881728
 30
0.0
 10
11.24969596098847
 20
17.23724994745759
 30
0.0
 10
11.30761559044796
 20
17.24046675265647
 30
0.0
 10
11.33550881888148
 20
17.24305358083655
 30
0.0
 10
11.34780945750735
 20
17.24507933675275
 30
0.0
 10
11.3526167267109
 20
17.24636228927785
 30
0.0
 10
11.35093319409845
 20
17.24833867846177
 30
0.0
 10
11.349214795512
 20
17.24827857764173
 30
0.0
 10
11.34813888783663
 20
17.24860641333125
 30
0.0
  0
SPLINE
  5
D4
330
1F
100
AcDbEntity
  8
DEFAULT
100
AcDbSpline
210
0.0
220
0.0
230
1.0
 70
    12
 71
     3
 72
    12
 73
     8
 74
     0
 42
0.0000000001
 43
0.0000000001
 40
3.0
 40
3.0
 40
3.0
 40
3.0
 40
3.250039181675398
 40
3.250039181675398
 40
3.499920764833195
 40
3.499920764833195
 40
3.700918620656291
 40
3.700918620656291
 40
3.700918620656291
 40
3.700918620656291
 10
1.085454763345453
 20
4.139423131508674
 30
0.0
 41
1.0
 10
1.096421795608723
 20
4.156191917671435
 30
0.0
 41
1.0
 10
1.112991491788964
 20
4.17554916332855
 30
0.0
 41
1.0
 10
1.157128365117675
 20
4.219798753460618
 30
0.0
 41
1.0
 10
1.184624284607963
 20
4.244204601010457
 30
0.0
 41
1.0
 10
1.241013266612379
 20
4.288114570881558
 30
0.0
 41
1.0
 10
1.268514632398244
 20
4.307561051858475
 30
0.0
 41
1.0
 10
1.296999369380069
 20
4.326262264294998
 30
0.0
 41
1.0
  0
ENDSEC
  0
SECTION
  2
OBJECTS
  0
DICTIONARY
  5
C
330
0
100
AcDbDictionary
281
     1
  3
ACAD_GROUP
350
D
  3
ACAD_LAYOUT
350
1A
  3
ACAD_MLEADERSTYLE
350
D7
  3
ACAD_MLINESTYLE
350
17
  3
ACAD_PLOTSETTINGS
350
19
  3
ACAD_PLOTSTYLENAME
350
E
  3
ACAD_VISUALSTYLE
350
2A
  3
AcDbVariableDictionary
350
D5
  0
DICTIONARY
  5
D
102
{ACAD_REACTORS
330
C
102
}
330
C
100
AcDbDictionary
281
     1
  0
DICTIONARY
  5
1A
102
{ACAD_REACTORS
330
C
102
}
330
C
100
AcDbDictionary
281
     1
  3
Layout1
350
1E
  3
Layout2
350
26
  3
Model
350
22
  0
DICTIONARY
  5
D7
102
{ACAD_REACTORS
330
C
102
}
330
C
100
AcDbDictionary
281
     1
  0
DICTIONARY
  5
17
102
{ACAD_REACTORS
330
C
102
}
330
C
100
AcDbDictionary
281
     1
  3
Standard
350
18
  0
DICTIONARY
  5
19
102
{ACAD_REACTORS
330
C
102
}
330
C
100
AcDbDictionary
281
     1
  0
ACDBDICTIONARYWDFLT
  5
E
102
{ACAD_REACTORS
330
C
102
}
330
C
100
AcDbDictionary
281
     1
  3
Normal
350
F
100
AcDbDictionaryWithDefault
340
F
  0
DICTIONARY
  5
2A
102
{ACAD_REACTORS
330
C
102
}
330
C
100
AcDbDictionary
281
     1
  3
2dWireframe
350
2F
  3
3D Hidden
350
31
  3
3dWireframe
350
30
  3
Basic
350
32
  3
Brighten
350
36
  3
ColorChange
350
3A
  3
Conceptual
350
34
  3
Dim
350
35
  3
Facepattern
350
39
  3
Flat
350
2B
  3
FlatWithEdges
350
2C
  3
Gouraud
350
2D
  3
GouraudWithEdges
350
2E
  3
Linepattern
350
38
  3
Realistic
350
33
  3
Thicken
350
37
  0
DICTIONARY
  5
D5
102
{ACAD_REACTORS
330
C
102
}
330
C
100
AcDbDictionary
281
     1
  0
LAYOUT
  5
1E
102
{ACAD_REACTORS
330
1A
102
}
330
1A
100
AcDbPlotSettings
  1

  2
none_device
  4

  6

 40
0.0
 41
0.0
 42
0.0
 43
0.0
 44
0.0
 45
0.0
 46
0.0
 47
0.0
 48
0.0
 49
0.0
140
0.0
141
0.0
142
1.0
143
1.0
 70
   688
 72
     0
 73
     0
 74
     5
  7

 75
    16
147
1.0
148
0.0
149
0.0
100
AcDbLayout
  1
Layout1
 70
     1
 71
     1
 10
0.0
 20
0.0
 11
12.0
 21
9.0
 12
0.0
 22
0.0
 32
0.0
 14
1.000000000000000E+20
 24
1.000000000000000E+20
 34
1.000000000000000E+20
 15
-1.000000000000000E+20
 25
-1.000000000000000E+20
 35
-1.000000000000000E+20
146
0.0
 13
0.0
 23
0.0
 33
0.0
 16
1.0
 26
0.0
 36
0.0
 17
0.0
 27
1.0
 37
0.0
 76
     0
330
1B
  0
LAYOUT
  5
26
102
{ACAD_REACTORS
330
1A
102
}
330
1A
100
AcDbPlotSettings
  1

  2
none_device
  4

  6

 40
0.0
 41
0.0
 42
0.0
 43
0.0
 44
0.0
 45
0.0
 46
0.0
 47
0.0
 48
0.0
 49
0.0
140
0.0
141
0.0
142
1.0
143
1.0
 70
   688
 72
     0
 73
     0
 74
     5
  7

 75
    16
147
1.0
148
0.0
149
0.0
100
AcDbLayout
  1
Layout2
 70
     1
 71
     2
 10
0.0
 20
0.0
 11
0.0
 21
0.0
 12
0.0
 22
0.0
 32
0.0
 14
0.0
 24
0.0
 34
0.0
 15
0.0
 25
0.0
 35
0.0
146
0.0
 13
0.0
 23
0.0
 33
0.0
 16
1.0
 26
0.0
 36
0.0
 17
0.0
 27
1.0
 37
0.0
 76
     0
330
23
  0
LAYOUT
  5
22
102
{ACAD_REACTORS
330
1A
102
}
330
1A
100
AcDbPlotSettings
  1

  2
none_device
  4

  6

 40
0.0
 41
0.0
 42
0.0
 43
0.0
 44
0.0
 45
0.0
 46
0.0
 47
0.0
 48
0.0
 49
0.0
140
0.0
141
0.0
142
1.0
143
1.0
 70
  1712
 72
     0
 73
     0
 74
     0
  7

 75
     0
147
1.0
148
0.0
149
0.0
100
AcDbLayout
  1
Model
 70
     1
 71
     0
 10
0.0
 20
0.0
 11
12.0
 21
9.0
 12
0.0
 22
0.0
 32
0.0
 14
-13.80431759671538
 24
-0.0000245005296984
 34
0.0
 15
53.65777608149783
 25
78.20422565185712
 35
0.0
146
0.0
 13
0.0
 23
0.0
 33
0.0
 16
1.0
 26
0.0
 36
0.0
 17
0.0
 27
1.0
 37
0.0
 76
     0
330
1F
331
29
  0
MLINESTYLE
  5
18
102
{ACAD_REACTORS
330
17
102
}
330
17
100
AcDbMlineStyle
  2
Standard
 70
     0
  3

 62
   256
 51
90.0
 52
90.0
 71
     2
 49
0.5
 62
   256
  6
BYLAYER
 49
-0.5
 62
   256
  6
BYLAYER
  0
ACDBPLACEHOLDER
  5
F
102
{ACAD_REACTORS
330
E
102
}
330
E
  0
VISUALSTYLE
  5
2F
102
{ACAD_REACTORS
330
2A
102
}
330
2A
100
AcDbVisualStyle
  2
2dWireframe
 70
     4
 71
     0
 72
     2
 73
     0
 90
        0
 40
-0.6
 41
-30.0
 62
     5
 63
     7
 74
     1
 91
        4
 64
     7
 65
   257
 75
     1
175
     1
 42
1.0
 92
        0
 66
   257
 43
1.0
 76
     1
 77
     6
 78
     2
 67
     7
 79
     5
170
     0
171
     0
290
     0
174
     0
 93
        1
 44
0.0
173
     0
291
     0
 45
0.0
1001
ACAD
1000
AcDbSavedByObjectVersion
1070
     0
  0
VISUALSTYLE
  5
31
102
{ACAD_REACTORS
330
2A
102
}
330
2A
100
AcDbVisualStyle
  2
3D Hidden
 70
     6
 71
     1
 72
     2
 73
     2
 90
        0
 40
-0.6
 41
-30.0
 62
     5
 63
     7
 74
     2
 91
        2
 64
     7
 65
   257
 75
     2
175
     1
 42
40.0
 92
        0
 66
   257
 43
1.0
 76
     1
 77
     6
 78
     2
 67
     7
 79
     3
170
     0
171
     0
290
     0
174
     0
 93
        1
 44
0.0
173
     0
291
     0
 45
0.0
1001
ACAD
1000
AcDbSavedByObjectVersion
1070
     0
  0
VISUALSTYLE
  5
30
102
{ACAD_REACTORS
330
2A
102
}
330
2A
100
AcDbVisualStyle
  2
3dWireframe
 70
     5
 71
     0
 72
     2
 73
     0
 90
        0
 40
-0.6
 41
-30.0
 62
     5
 63
     7
 74
     1
 91
        4
 64
     7
 65
   257
 75
     1
175
     1
 42
1.0
 92
        0
 66
   257
 43
1.0
 76
     1
 77
     6
 78
     2
 67
     7
 79
     5
170
     0
171
     0
290
     0
174
     0
 93
        1
 44
0.0
173
     0
291
     0
 45
0.0
1001
ACAD
1000
AcDbSavedByObjectVersion
1070
     0
  0
VISUALSTYLE
  5
32
102
{ACAD_REACTORS
330
2A
102
}
330
2A
100
AcDbVisualStyle
  2
Basic
 70
     7
 71
     1
 72
     0
 73
     1
 90
        0
 40
-0.6
 41
-30.0
 62
     5
 63
     7
 74
     0
 91
        4
 64
     7
 65
   257
 75
     1
175
     1
 42
1.0
 92
        8
 66
     7
 43
1.0
 76
     1
 77
     6
 78
     2
 67
     7
 79
     5
170
     0
171
     0
290
     0
174
     0
 93
        1
 44
0.0
173
     0
291
     1
 45
0.0
1001
ACAD
1000
AcDbSavedByObjectVersion
1070
     0
  0
VISUALSTYLE
  5
36
102
{ACAD_REACTORS
330
2A
102
}
330
2A
100
AcDbVisualStyle
  2
Brighten
 70
    12
 71
     2
 72
     2
 73
     0
 90
        0
 40
-0.6
 41
-30.0
 62
     5
 63
     7
 74
     1
 91
        4
 64
     7
 65
   257
 75
     1
175
     1
 42
1.0
 92
        8
 66
     7
 43
1.0
 76
     1
 77
     6
 78
     2
 67
     7
 79
     5
170
     0
171
     0
290
     0
174
     0
 93
        1
 44
50.0
173
     0
291
     1
 45
0.0
1001
ACAD
1000
AcDbSavedByObjectVersion
1070
     0
  0
VISUALSTYLE
  5
3A
102
{ACAD_REACTORS
330
2A
102
}
330
2A
100
AcDbVisualStyle
  2
ColorChange
 70
    16
 71
     2
 72
     2
 73
     3
 90
        0
 40
-0.6
 41
-30.0
 62
     5
 63
     8
 74
     1
 91
        4
 64
     7
 65
   257
 75
     1
175
     1
 42
1.0
 92
        8
 66
     8
 43
1.0
 76
     1
 77
     6
 78
     2
 67
     7
 79
     5
170
     0
171
     0
290
     0
174
     0
 93
        1
 44
0.0
173
     0
291
     1
 45
0.0
1001
ACAD
1000
AcDbSavedByObjectVersion
1070
     0
  0
VISUALSTYLE
  5
34
102
{ACAD_REACTORS
330
2A
102
}
330
2A
100
AcDbVisualStyle
  2
Conceptual
 70
     9
 71
     3
 72
     2
 73
     0
 90
        0
 40
-0.6
 41
-30.0
 62
     5
 63
     7
 74
     2
 91
        2
 64
     7
 65
   257
 75
     1
175
     1
 42
40.0
 92
        8
 66
     7
 43
1.0
 76
     1
 77
     6
 78
     2
 67
     7
 79
     3
170
     0
171
     0
290
     0
174
     0
 93
        1
 44
0.0
173
     0
291
     0
 45
0.0
1001
ACAD
1000
AcDbSavedByObjectVersion
1070
     0
  0
VISUALSTYLE
  5
35
102
{ACAD_REACTORS
330
2A
102
}
330
2A
100
AcDbVisualStyle
  2
Dim
 70
    11
 71
     2
 72
     2
 73
     0
 90
        0
 40
-0.6
 41
-30.0
 62
     5
 63
     7
 74
     1
 91
        4
 64
     7
 65
   257
 75
     1
175
     1
 42
1.0
 92
        8
 66
     7
 43
1.0
 76
     1
 77
     6
 78
     2
 67
     7
 79
     5
170
     0
171
     0
290
     0
174
     0
 93
        1
 44
-50.0
173
     0
291
     1
 45
0.0
1001
ACAD
1000
AcDbSavedByObjectVersion
1070
     0
  0
VISUALSTYLE
  5
39
102
{ACAD_REACTORS
330
2A
102
}
330
2A
100
AcDbVisualStyle
  2
Facepattern
 70
    15
 71
     2
 72
     2
 73
     0
 90
        0
 40
-0.6
 41
-30.0
 62
     5
 63
     7
 74
     1
 91
        4
 64
     7
 65
   257
 75
     1
175
     1
 42
1.0
 92
        8
 66
     7
 43
1.0
 76
     1
 77
     6
 78
     2
 67
     7
 79
     5
170
     0
171
     0
290
     0
174
     0
 93
        1
 44
0.0
173
     0
291
     1
 45
0.0
1001
ACAD
1000
AcDbSavedByObjectVersion
1070
     0
  0
VISUALSTYLE
  5
2B
102
{ACAD_REACTORS
330
2A
102
}
330
2A
100
AcDbVisualStyle
  2
Flat
 70
     0
 71
     2
 72
     1
 73
     1
 90
        2
 40
-0.6
 41
30.0
 62
     5
 63
     7
 74
     0
 91
        4
 64
     7
 65
   257
 75
     1
175
     1
 42
1.0
 92
        8
 66
     7
 43
1.0
 76
     1
 77
     6
 78
     2
 67
     7
 79
     5
170
     0
171
     0
290
     0
174
     0
 93
       13
 44
0.0
173
     0
291
     1
 45
0.0
1001
ACAD
1000
AcDbSavedByObjectVersion
1070
     0
  0
VISUALSTYLE
  5
2C
102
{ACAD_REACTORS
330
2A
102
}
330
2A
100
AcDbVisualStyle
  2
FlatWithEdges
 70
     1
 71
     2
 72
     1
 73
     1
 90
        2
 40
-0.6
 41
30.0
 62
     5
 63
     7
 74
     1
 91
        4
 64
     7
 65
   257
 75
     1
175
     1
 42
1.0
 92
        0
 66
   257
 43
1.0
 76
     1
 77
     6
 78
     2
 67
     7
 79
     5
170
     0
171
     0
290
     0
174
     0
 93
       13
 44
0.0
173
     0
291
     1
 45
0.0
1001
ACAD
1000
AcDbSavedByObjectVersion
1070
     0
  0
VISUALSTYLE
  5
2D
102
{ACAD_REACTORS
330
2A
102
}
330
2A
100
AcDbVisualStyle
  2
Gouraud
 70
     2
 71
     2
 72
     2
 73
     1
 90
        2
 40
-0.6
 41
30.0
 62
     5
 63
     7
 74
     0
 91
        4
 64
     7
 65
   257
 75
     1
175
     1
 42
1.0
 92
        0
 66
     7
 43
1.0
 76
     1
 77
     6
 78
     2
 67
     7
 79
     5
170
     0
171
     0
290
     0
174
     0
 93
       13
 44
0.0
173
     0
291
     1
 45
0.0
1001
ACAD
1000
AcDbSavedByObjectVersion
1070
     0
  0
VISUALSTYLE
  5
2E
102
{ACAD_REACTORS
330
2A
102
}
330
2A
100
AcDbVisualStyle
  2
GouraudWithEdges
 70
     3
 71
     2
 72
     2
 73
     1
 90
        2
 40
-0.6
 41
30.0
 62
     5
 63
     7
 74
     1
 91
        4
 64
     7
 65
   257
 75
     1
175
     1
 42
1.0
 92
        0
 66
   257
 43
1.0
 76
     1
 77
     6
 78
     2
 67
     7
 79
     5
170
     0
171
     0
290
     0
174
     0
 93
       13
 44
0.0
173
     0
291
     1
 45
0.0
1001
ACAD
1000
AcDbSavedByObjectVersion
1070
     0
  0
VISUALSTYLE
  5
38
102
{ACAD_REACTORS
330
2A
102
}
330
2A
100
AcDbVisualStyle
  2
Linepattern
 70
    14
 71
     2
 72
     2
 73
     0
 90
        0
 40
-0.6
 41
-30.0
 62
     5
 63
     7
 74
     1
 91
        4
 64
     7
 65
   257
 75
     7
175
     7
 42
1.0
 92
        8
 66
     7
 43
1.0
 76
     1
 77
     6
 78
     2
 67
     7
 79
     5
170
     0
171
     0
290
     0
174
     0
 93
        1
 44
0.0
173
     0
291
     1
 45
0.0
1001
ACAD
1000
AcDbSavedByObjectVersion
1070
     0
  0
VISUALSTYLE
  5
33
102
{ACAD_REACTORS
330
2A
102
}
330
2A
100
AcDbVisualStyle
  2
Realistic
 70
     8
 71
     2
 72
     2
 73
     0
 90
        0
 40
-0.6
 41
-30.0
 62
     5
 63
     7
 74
     1
 91
        0
 64
     7
 65
   257
 75
     1
175
     1
 42
1.0
 92
        8
 66
     8
 43
1.0
 76
     1
 77
     6
 78
     2
 67
     7
 79
     5
170
     0
171
     0
290
     0
174
     0
 93
       13
 44
0.0
173
     0
291
     0
 45
0.0
1001
ACAD
1000
AcDbSavedByObjectVersion
1070
     0
  0
VISUALSTYLE
  5
37
102
{ACAD_REACTORS
330
2A
102
}
330
2A
100
AcDbVisualStyle
  2
Thicken
 70
    13
 71
     2
 72
     2
 73
     0
 90
        0
 40
-0.6
 41
-30.0
 62
     5
 63
     7
 74
     1
 91
        4
 64
     7
 65
   257
 75
     1
175
     1
 42
1.0
 92
       12
 66
     7
 43
1.0
 76
     1
 77
     6
 78
     2
 67
     7
 79
     5
170
     0
171
     0
290
     0
174
     0
 93
        1
 44
0.0
173
     0
291
     1
 45
0.0
1001
ACAD
1000
AcDbSavedByObjectVersion
1070
     0
  0
ENDSEC
  0
EOF
