  0
SECTION
  2
HEADER
  9
$ACADVER
  1
AC1014
  9
$ACADMAINTVER
 70
     9
  9
$DWGCODEPAGE
  3
ANSI_1252
  9
$INSBASE
 10
0.0
 20
0.0
 30
0.0
  9
$EXTMIN
 10
-0.1250000000000082
 20
-0.0000004999999987
 30
0.0
  9
$EXTMAX
 10
59.19226188683355
 20
70.24578931220081
 30
0.0
  9
$LIMMIN
 10
0.0
 20
0.0
  9
$LIMMAX
 10
12.0
 20
9.0
  9
$ORTHOMODE
 70
     0
  9
$REGENMODE
 70
     1
  9
$FILLMODE
 70
     1
  9
$QTEXTMODE
 70
     0
  9
$MIRRTEXT
 70
     1
  9
$DRAGMODE
 70
     2
  9
$LTSCALE
 40
0.0393700787401575
  9
$OSMODE
 70
    37
  9
$ATTMODE
 70
     1
  9
$TEXTSIZE
 40
0.2
  9
$TRACEWID
 40
0.05
  9
$TEXTSTYLE
  7
STANDARD
  9
$CLAYER
  8
DEFAULT
  9
$CELTYPE
  6
BYLAYER
  9
$CECOLOR
 62
   256
  9
$CELTSCALE
 40
1.0
  9
$DELOBJ
 70
     1
  9
$DISPSILH
 70
     0
  9
$DIMSCALE
 40
1.0
  9
$DIMASZ
 40
0.18
  9
$DIMEXO
 40
0.0625
  9
$DIMDLI
 40
0.38
  9
$DIMRND
 40
0.0
  9
$DIMDLE
 40
0.0
  9
$DIMEXE
 40
0.18
  9
$DIMTP
 40
0.0
  9
$DIMTM
 40
0.0
  9
$DIMTXT
 40
0.18
  9
$DIMCEN
 40
0.09
  9
$DIMTSZ
 40
0.0
  9
$DIMTOL
 70
     0
  9
$DIMLIM
 70
     0
  9
$DIMTIH
 70
     1
  9
$DIMTOH
 70
     1
  9
$DIMSE1
 70
     0
  9
$DIMSE2
 70
     0
  9
$DIMTAD
 70
     0
  9
$DIMZIN
 70
     0
  9
$DIMBLK
  1

  9
$DIMASO
 70
     1
  9
$DIMSHO
 70
     1
  9
$DIMPOST
  1

  9
$DIMAPOST
  1

  9
$DIMALT
 70
     0
  9
$DIMALTD
 70
     2
  9
$DIMALTF
 40
25.4
  9
$DIMLFAC
 40
1.0
  9
$DIMTOFL
 70
     0
  9
$DIMTVP
 40
0.0
  9
$DIMTIX
 70
     0
  9
$DIMSOXD
 70
     0
  9
$DIMSAH
 70
     0
  9
$DIMBLK1
  1

  9
$DIMBLK2
  1

  9
$DIMSTYLE
  2
STANDARD
  9
$DIMCLRD
 70
     0
  9
$DIMCLRE
 70
     0
  9
$DIMCLRT
 70
     0
  9
$DIMTFAC
 40
1.0
  9
$DIMGAP
 40
0.09
  9
$DIMJUST
 70
     0
  9
$DIMSD1
 70
     0
  9
$DIMSD2
 70
     0
  9
$DIMTOLJ
 70
     1
  9
$DIMTZIN
 70
     0
  9
$DIMALTZ
 70
     0
  9
$DIMALTTZ
 70
     0
  9
$DIMFIT
 70
     5
  9
$DIMUPT
 70
     0
  9
$DIMUNIT
 70
     2
  9
$DIMDEC
 70
     4
  9
$DIMTDEC
 70
     4
  9
$DIMALTU
 70
     2
  9
$DIMALTTD
 70
     2
  9
$DIMTXSTY
  7
STANDARD
  9
$DIMAUNIT
 70
     0
  9
$LUNITS
 70
     2
  9
$LUPREC
 70
     3
  9
$SKETCHINC
 40
0.1
  9
$FILLETRAD
 40
0.5
  9
$AUNITS
 70
     0
  9
$AUPREC
 70
     0
  9
$MENU
  1
.
  9
$ELEVATION
 40
0.0
  9
$PELEVATION
 40
0.0
  9
$THICKNESS
 40
0.0
  9
$LIMCHECK
 70
     0
  9
$CHAMFERA
 40
0.5
  9
$CHAMFERB
 40
0.5
  9
$CHAMFERC
 40
1.0
  9
$CHAMFERD
 40
0.0
  9
$SKPOLY
 70
     0
  9
$TDCREATE
 40
2455247.365063935
  9
$TDUPDATE
 40
2455247.365063947
  9
$TDINDWG
 40
0.0000000116
  9
$TDUSRTIMER
 40
0.0000000116
  9
$USRTIMER
 70
     1
  9
$ANGBASE
 50
0.0
  9
$ANGDIR
 70
     0
  9
$PDMODE
 70
     0
  9
$PDSIZE
 40
0.0
  9
$PLINEWID
 40
0.0
  9
$COORDS
 70
     1
  9
$SPLFRAME
 70
     0
  9
$SPLINETYPE
 70
     6
  9
$SPLINESEGS
 70
     8
  9
$ATTDIA
 70
     0
  9
$ATTREQ
 70
     1
  9
$HANDLING
 70
     1
  9
$HANDSEED
  5
2D9
  9
$SURFTAB1
 70
     6
  9
$SURFTAB2
 70
     6
  9
$SURFTYPE
 70
     6
  9
$SURFU
 70
     6
  9
$SURFV
 70
     6
  9
$UCSNAME
  2

  9
$UCSORG
 10
0.0
 20
0.0
 30
0.0
  9
$UCSXDIR
 10
1.0
 20
0.0
 30
0.0
  9
$UCSYDIR
 10
0.0
 20
1.0
 30
0.0
  9
$PUCSNAME
  2

  9
$PUCSORG
 10
0.0
 20
0.0
 30
0.0
  9
$PUCSXDIR
 10
1.0
 20
0.0
 30
0.0
  9
$PUCSYDIR
 10
0.0
 20
1.0
 30
0.0
  9
$USERI1
 70
     0
  9
$USERI2
 70
     0
  9
$USERI3
 70
     0
  9
$USERI4
 70
     0
  9
$USERI5
 70
     0
  9
$USERR1
 40
0.0
  9
$USERR2
 40
0.0
  9
$USERR3
 40
0.0
  9
$USERR4
 40
0.0
  9
$USERR5
 40
0.0
  9
$WORLDVIEW
 70
     1
  9
$SHADEDGE
 70
     3
  9
$SHADEDIF
 70
    70
  9
$TILEMODE
 70
     1
  9
$MAXACTVP
 70
    64
  9
$PINSBASE
 10
0.0
 20
0.0
 30
0.0
  9
$PLIMCHECK
 70
     0
  9
$PEXTMIN
 10
1.000000000000000E+20
 20
1.000000000000000E+20
 30
1.000000000000000E+20
  9
$PEXTMAX
 10
-1.000000000000000E+20
 20
-1.000000000000000E+20
 30
-1.000000000000000E+20
  9
$PLIMMIN
 10
0.0
 20
0.0
  9
$PLIMMAX
 10
12.0
 20
9.0
  9
$UNITMODE
 70
     0
  9
$VISRETAIN
 70
     1
  9
$PLINEGEN
 70
     0
  9
$PSLTSCALE
 70
     1
  9
$TREEDEPTH
 70
  3020
  9
$PICKSTYLE
 70
     1
  9
$CMLSTYLE
  2
STANDARD
  9
$CMLJUST
 70
     0
  9
$CMLSCALE
 40
1.0
  9
$PROXYGRAPHICS
 70
     1
  9
$MEASUREMENT
 70
     0
  0
ENDSEC
  0
SECTION
  2
CLASSES
  0
CLASS
  1
ACDBDICTIONARYWDFLT
  2
AcDbDictionaryWithDefault
  3
ObjectDBX Classes
 90
        0
280
     0
281
     0
  0
CLASS
  1
VISUALSTYLE
  2
AcDbVisualStyle
  3
ObjectDBX Classes
 90
     4095
280
     0
281
     0
  0
CLASS
  1
XRECORD
  2
AcDbXrecord
  3
AutoCAD 2000
 90
        0
280
     0
281
     0
  0
CLASS
  1
LWPOLYLINE
  2
AcDbPolyline
  3
AutoCAD 2000
 90
        0
280
     0
281
     1
  0
CLASS
  1
HATCH
  2
AcDbHatch
  3
AutoCAD 2000
 90
        0
280
     0
281
     1
  0
CLASS
  1
ACDBPLACEHOLDER
  2
AcDbPlaceHolder
  3
ObjectDBX Classes
 90
        0
280
     0
281
     0
  0
CLASS
  1
LAYOUT
  2
AcDbLayout
  3
ObjectDBX Classes
 90
        0
280
     0
281
     0
  0
ENDSEC
  0
SECTION
  2
TABLES
  0
TABLE
  2
VPORT
  5
8
330
0
100
AcDbSymbolTable
 70
     1
  0
VPORT
  5
29
330
8
100
AcDbSymbolTableRecord
100
AcDbViewportTableRecord
  2
*ACTIVE
 70
     0
 10
0.0
 20
0.0
 11
1.0
 21
1.0
 12
29.53363094341677
 22
35.12289440610041
 13
0.0
 23
0.0
 14
0.5
 24
0.5
 15
0.5
 25
0.5
 16
0.0
 26
0.0
 36
1.0
 17
0.0
 27
0.0
 37
0.0
 40
71.65070560844482
 41
0.8444244423105753
 42
50.0
 43
0.0
 44
0.0
 50
0.0
 51
0.0
 71
     0
 72
   100
 73
     1
 74
     3
 75
     0
 76
     0
 77
     0
 78
     0
  0
ENDTAB
  0
TABLE
  2
LTYPE
  5
5
330
0
100
AcDbSymbolTable
 70
     1
  0
LTYPE
  5
14
330
5
100
AcDbSymbolTableRecord
100
AcDbLinetypeTableRecord
  2
BYBLOCK
 70
     0
  3

 72
    65
 73
     0
 40
0.0
  0
LTYPE
  5
15
330
5
100
AcDbSymbolTableRecord
100
AcDbLinetypeTableRecord
  2
BYLAYER
 70
     0
  3

 72
    65
 73
     0
 40
0.0
  0
LTYPE
  5
16
330
5
100
AcDbSymbolTableRecord
100
AcDbLinetypeTableRecord
  2
CONTINUOUS
 70
     0
  3
Solid line
 72
    65
 73
     0
 40
0.0
  0
ENDTAB
  0
TABLE
  2
LAYER
  5
2
330
0
100
AcDbSymbolTable
 70
     2
  0
LAYER
  5
10
330
2
100
AcDbSymbolTableRecord
100
AcDbLayerTableRecord
  2
0
 70
     0
 62
     7
  6
CONTINUOUS
  0
LAYER
  5
3B
330
2
100
AcDbSymbolTableRecord
100
AcDbLayerTableRecord
  2
DEFAULT
 70
     0
 62
     7
  6
CONTINUOUS
  0
ENDTAB
  0
TABLE
  2
STYLE
  5
3
330
0
100
AcDbSymbolTable
 70
     1
  0
STYLE
  5
11
330
3
100
AcDbSymbolTableRecord
100
AcDbTextStyleTableRecord
  2
STANDARD
 70
     0
 40
0.0
 41
1.0
 50
0.0
 71
     0
 42
0.2
  3
txt
  4

  0
ENDTAB
  0
TABLE
  2
VIEW
  5
6
330
0
100
AcDbSymbolTable
 70
     0
  0
ENDTAB
  0
TABLE
  2
UCS
  5
7
330
0
100
AcDbSymbolTable
 70
     0
  0
ENDTAB
  0
TABLE
  2
APPID
  5
9
330
0
100
AcDbSymbolTable
 70
     1
  0
APPID
  5
12
330
9
100
AcDbSymbolTableRecord
100
AcDbRegAppTableRecord
  2
ACAD
 70
     0
  0
ENDTAB
  0
TABLE
  2
DIMSTYLE
  5
A
330
0
100
AcDbSymbolTable
 70
     1
  0
DIMSTYLE
105
27
330
A
100
AcDbSymbolTableRecord
100
AcDbDimStyleTableRecord
  2
STANDARD
 70
     0
  3

  4

  5

  6

  7

 40
1.0
 41
0.18
 42
0.0625
 43
0.38
 44
0.18
 45
0.0
 46
0.0
 47
0.0
 48
0.0
140
0.18
141
0.09
142
0.0
143
25.4
144
1.0
145
0.0
146
1.0
147
0.09
 71
     0
 72
     0
 73
     1
 74
     1
 75
     0
 76
     0
 77
     0
 78
     0
170
     0
171
     2
172
     0
173
     0
174
     0
175
     0
176
     0
177
     0
178
     0
270
     2
271
     4
272
     4
273
     2
274
     2
340
11
275
     0
280
     0
281
     0
282
     0
283
     1
284
     0
285
     0
286
     0
287
     3
288
     0
  0
ENDTAB
  0
TABLE
  2
BLOCK_RECORD
  5
1
330
0
100
AcDbSymbolTable
 70
     1
  0
BLOCK_RECORD
  5
1F
330
1
100
AcDbSymbolTableRecord
100
AcDbBlockTableRecord
  2
*MODEL_SPACE
  0
BLOCK_RECORD
  5
1B
330
1
100
AcDbSymbolTableRecord
100
AcDbBlockTableRecord
  2
*PAPER_SPACE
  0
ENDTAB
  0
ENDSEC
  0
SECTION
  2
BLOCKS
  0
BLOCK
  5
20
330
1F
100
AcDbEntity
  8
0
100
AcDbBlockBegin
  2
*MODEL_SPACE
 70
     0
 10
0.0
 20
0.0
 30
0.0
  3
*MODEL_SPACE
  1

  0
ENDBLK
  5
21
330
1F
100
AcDbEntity
  8
0
100
AcDbBlockEnd
  0
BLOCK
  5
1C
330
1B
100
AcDbEntity
 67
     1
  8
0
100
AcDbBlockBegin
  2
*PAPER_SPACE
 70
     0
 10
0.0
 20
0.0
 30
0.0
  3
*PAPER_SPACE
  1

  0
ENDBLK
  5
1D
330
1B
100
AcDbEntity
 67
     1
  8
0
100
AcDbBlockEnd
  0
ENDSEC
  0
SECTION
  2
ENTITIES
  0
LINE
  5
3C
330
1F
100
AcDbEntity
  8
DEFAULT
100
AcDbLine
 10
10.508142610345
 20
11.38093899793
 30
0.0
 11
11.36428000000001
 21
10.524804
 31
0.0
  0
LINE
  5
3D
330
1F
100
AcDbEntity
  8
DEFAULT
100
AcDbLine
 10
10.42437138666
 20
11.49432076631
 30
0.0
 11
10.508142610345
 21
11.38093899793
 31
0.0
  0
LINE
  5
3E
330
1F
100
AcDbEntity
  8
DEFAULT
100
AcDbLine
 10
9.479843999999986
 20
13.42765799999999
 30
0.0
 11
10.42437138666
 21
11.49432076631
 31
0.0
  0
SPLINE
  5
3F
330
1F
100
AcDbEntity
  8
DEFAULT
100
AcDbSpline
210
0.0
220
0.0
230
1.0
 70
     8
 71
     3
 72
    16
 73
    12
 74
     0
 42
0.0000000001
 43
0.0000000001
 40
0.0
 40
0.0
 40
0.0
 40
0.0
 40
0.2341619387177
 40
0.4361470240471
 40
0.6001935609847
 40
0.7271726137984
 40
0.8208191896425
 40
0.8860680961386
 40
0.9277143745084
 40
0.9566562139274
 40
1.0
 40
1.0
 40
1.0
 40
1.0
 10
13.61202078127999
 20
11.20753179182999
 30
0.0
 10
13.68325022658999
 20
11.24733866104999
 30
0.0
 10
13.81695425801999
 20
11.31968863574001
 30
0.0
 10
14.00410286651001
 20
11.41304273954
 30
0.0
 10
14.16097713872
 20
11.48355667217
 30
0.0
 10
14.28581555988998
 20
11.53166482448999
 30
0.0
 10
14.38194561287
 20
11.56113397822
 30
0.0
 10
14.44969048664001
 20
11.57165414347
 30
0.0
 10
14.50058376592
 20
11.5713998157
 30
0.0
 10
14.52812882596001
 20
11.53505885723
 30
0.0
 10
14.51584565611
 20
11.50866398482999
 30
0.0
 10
14.50927711713999
 20
11.4950632802
 30
0.0
  0
LINE
  5
40
330
1F
100
AcDbEntity
  8
DEFAULT
100
AcDbLine
 10
23.089766
 20
2.434055000000001
 30
0.0
 11
23.089766
 21
0.125
 31
0.0
  0
LINE
  5
41
330
1F
100
AcDbEntity
  8
DEFAULT
100
AcDbLine
 10
11.44369691030002
 20
6.7226909014
 30
0.0
 11
13.48958908969999
 21
6.7226909014
 31
0.0
  0
LINE
  5
42
330
1F
100
AcDbEntity
  8
DEFAULT
100
AcDbLine
 10
24.761516
 20
2.699549000000005
 30
0.0
 11
24.71451
 21
2.162261999999998
 31
0.0
  0
LINE
  5
43
330
1F
100
AcDbEntity
  8
DEFAULT
100
AcDbLine
 10
24.45827800000001
 20
1.510404000000008
 30
0.0
 11
24.45827800000001
 21
0.0590609999999998
 31
0.0
  0
LINE
  5
44
330
1F
100
AcDbEntity
  8
DEFAULT
100
AcDbLine
 10
58.25535744300255
 20
3.294561197579995
 30
0.0
 11
48.19605865063355
 21
5.951599063979998
 31
0.0
  0
LINE
  5
45
330
1F
100
AcDbEntity
  8
DEFAULT
100
AcDbLine
 10
11.771669
 20
46.24725908218656
 30
0.0
 11
11.77224200000001
 21
46.24920208218657
 31
0.0
  0
ARC
  5
46
330
1F
100
AcDbEntity
  8
DEFAULT
100
AcDbCircle
 10
45.50525388683356
 20
2.418504000000005
 30
0.0
 40
0.1023620000000056
100
AcDbArc
 50
180.0000000000035
 51
270.0
  0
LINE
  5
47
330
1F
100
AcDbEntity
  8
DEFAULT
100
AcDbLine
 10
50.61537788683356
 20
3.620638999999997
 30
0.0
 11
50.73887888683356
 21
3.342238999999992
 31
0.0
  0
LINE
  5
48
330
1F
100
AcDbEntity
  8
DEFAULT
100
AcDbLine
 10
20.38115500000001
 20
13.246482
 30
0.0
 11
21.72607399999998
 21
13.24606899999999
 31
0.0
  0
LINE
  5
49
330
1F
100
AcDbEntity
  8
DEFAULT
100
AcDbLine
 10
19.42583400000001
 20
2.766536000000002
 30
0.0
 11
19.42583400000001
 21
2.716536000000005
 31
0.0
  0
LINE
  5
4A
330
1F
100
AcDbEntity
  8
DEFAULT
100
AcDbLine
 10
13.34262800000002
 20
4.166141999999994
 30
0.0
 11
13.34262800000002
 21
2.557811999999998
 31
0.0
  0
LINE
  5
4B
330
1F
100
AcDbEntity
  8
DEFAULT
100
AcDbLine
 10
16.00552100000002
 20
14.192926
 30
0.0
 11
15.85788399999998
 21
14.192926
 31
0.0
  0
LINE
  5
4C
330
1F
100
AcDbEntity
  8
DEFAULT
100
AcDbLine
 10
13.01782499999999
 20
9.649119999999996
 30
0.0
 11
13.01782499999999
 21
9.619292000000002
 31
0.0
  0
LINE
  5
4D
330
1F
100
AcDbEntity
  8
DEFAULT
100
AcDbLine
 10
15.77373
 20
13.42765799999999
 30
0.0
 11
15.453442
 21
13.42765799999999
 31
0.0
  0
LINE
  5
4E
330
1F
100
AcDbEntity
  8
DEFAULT
100
AcDbLine
 10
15.77373
 20
13.83485
 30
0.0
 11
15.85788399999998
 21
13.83484199999999
 31
0.0
  0
LINE
  5
4F
330
1F
100
AcDbEntity
  8
DEFAULT
100
AcDbLine
 10
19.99977100000001
 20
0.8420260000000042
 30
0.0
 11
19.99977100000001
 21
1.528176000000002
 31
0.0
  0
LINE
  5
50
330
1F
100
AcDbEntity
  8
DEFAULT
100
AcDbLine
 10
20.083708
 20
0.0
 30
0.0
 11
20.49966000000001
 21
0.0
 31
0.0
  0
LINE
  5
51
330
1F
100
AcDbEntity
  8
DEFAULT
100
AcDbLine
 10
20.38125199999999
 20
13.471481
 30
0.0
 11
20.38117700000001
 21
13.47148199999999
 31
0.0
  0
LINE
  5
52
330
1F
100
AcDbEntity
  8
DEFAULT
100
AcDbLine
 10
23.689774
 20
0.0590609999999998
 30
0.0
 11
23.689774
 21
1.510404000000008
 31
0.0
  0
LINE
  5
53
330
1F
100
AcDbEntity
  8
DEFAULT
100
AcDbLine
 10
13.569006
 20
10.524804
 30
0.0
 11
13.54375300000001
 21
10.524804
 31
0.0
  0
LINE
  5
54
330
1F
100
AcDbEntity
  8
DEFAULT
100
AcDbLine
 10
23.68977424101
 20
1.510403866540003
 30
0.0
 11
23.6307191229
 21
1.603564519589995
 31
0.0
  0
LINE
  5
55
330
1F
100
AcDbEntity
  8
DEFAULT
100
AcDbLine
 10
18.95657600000001
 20
3.086559000000008
 30
0.0
 11
18.94540700000002
 21
2.766536000000002
 31
0.0
  0
LINE
  5
56
330
1F
100
AcDbEntity
  8
DEFAULT
100
AcDbLine
 10
49.86974688683355
 20
13.247946
 30
0.0
 11
52.65622988683356
 21
13.247173
 31
0.0
  0
LINE
  5
57
330
1F
100
AcDbEntity
  8
DEFAULT
100
AcDbLine
 10
5.98782700000001
 20
2.766536000000002
 30
0.0
 11
4.584276000000017
 21
2.766536000000002
 31
0.0
  0
LINE
  5
58
330
1F
100
AcDbEntity
  8
DEFAULT
100
AcDbLine
 10
15.47716
 20
13.634005
 30
0.0
 11
15.453442
 21
13.42765799999999
 31
0.0
  0
LINE
  5
59
330
1F
100
AcDbEntity
  8
DEFAULT
100
AcDbLine
 10
19.28103000000002
 20
0.8420260000000042
 30
0.0
 11
19.28103000000002
 21
1.528176000000002
 31
0.0
  0
LINE
  5
5A
330
1F
100
AcDbEntity
  8
DEFAULT
100
AcDbLine
 10
37.07697088683355
 20
2.716536236396422
 30
0.0
 11
37.09253665133689
 21
2.699549020605588
 31
0.0
  0
ARC
  5
5B
330
1F
100
AcDbEntity
  8
DEFAULT
100
AcDbCircle
 10
1.718519999999996
 20
2.434055000000013
 30
0.0
 40
0.1249999999999882
100
AcDbArc
 50
359.9999999999945
 51
90.0000000000054
  0
LINE
  5
5C
330
1F
100
AcDbEntity
  8
DEFAULT
100
AcDbLine
 10
11.82603525160002
 20
2.163622138060006
 30
0.0
 11
11.90462051914
 21
1.814273533049999
 31
0.0
  0
LINE
  5
5D
330
1F
100
AcDbEntity
  8
DEFAULT
100
AcDbLine
 10
19.18520585688
 20
3.064590183044999
 30
0.0
 11
19.46397802686002
 21
2.863356444220003
 31
0.0
  0
LINE
  5
5E
330
1F
100
AcDbEntity
  8
DEFAULT
100
AcDbLine
 10
14.358429
 20
4.651390000000006
 30
0.0
 11
19.18520585688
 21
3.064590183044999
 31
0.0
  0
LINE
  5
5F
330
1F
100
AcDbEntity
  8
DEFAULT
100
AcDbLine
 10
50.21149888683355
 20
9.658881999999991
 30
0.0
 11
52.10235188683356
 21
10.273257
 31
0.0
  0
SPLINE
  5
60
330
1F
100
AcDbEntity
  8
DEFAULT
100
AcDbSpline
210
0.0
220
0.0
230
1.0
 70
     8
 71
     3
 72
    14
 73
    10
 74
     0
 42
0.0000000001
 43
0.0000000001
 40
0.0
 40
0.0
 40
0.0
 40
0.0
 40
1.0
 40
2.0
 40
3.0
 40
4.0
 40
5.0
 40
6.0
 40
7.0
 40
7.0
 40
7.0
 40
7.0
 10
45.19839113231356
 20
4.189368897860007
 30
0.0
 10
45.23157758703972
 20
4.242283194549813
 30
0.0
 10
45.18958801133033
 20
4.365288974457712
 30
0.0
 10
45.04794931491556
 20
4.469306199484578
 30
0.0
 10
44.89461674527141
 20
4.552411738224151
 30
0.0
 10
44.73393892960615
 20
4.620638521907765
 30
0.0
 10
44.56802141383065
 20
4.674663767373929
 30
0.0
 10
44.3979958467403
 20
4.71406873308517
 30
0.0
 10
44.28250433535581
 20
4.728709774857549
 30
0.0
 10
44.22446994220356
 20
4.73198823221
 30
0.0
  0
LINE
  5
61
330
1F
100
AcDbEntity
  8
DEFAULT
100
AcDbLine
 10
21.16133500000001
 20
13.246916
 30
0.0
 11
21.16132200000001
 21
13.164402
 31
0.0
  0
LINE
  5
62
330
1F
100
AcDbEntity
  8
DEFAULT
100
AcDbLine
 10
12.68120999999999
 20
2.766536000000002
 30
0.0
 11
12.68120999999999
 21
2.716536000000005
 31
0.0
  0
ARC
  5
63
330
1F
100
AcDbEntity
  8
DEFAULT
100
AcDbCircle
 10
58.59554188683358
 20
1.857850999999991
 30
0.0
 40
0.499999602881822
100
AcDbArc
 50
298.2160973788376
 51
355.0000959861706
  0
ARC
  5
64
330
1F
100
AcDbEntity
  8
DEFAULT
100
AcDbCircle
 10
0.8592599891928773
 20
54.54262101102919
 30
0.0
 40
0.7086614608792271
100
AcDbArc
 50
119.2116435741777
 51
237.9760937945749
  0
LINE
  5
65
330
1F
100
AcDbEntity
  8
DEFAULT
100
AcDbLine
 10
4.849578000000008
 20
1.603565000000003
 30
0.0
 11
4.849578000000008
 21
0.0
 31
0.0
  0
LINE
  5
66
330
1F
100
AcDbEntity
  8
DEFAULT
100
AcDbLine
 10
11.584756
 20
9.619288999999995
 30
0.0
 11
11.484962
 21
9.516958000000002
 31
0.0
  0
LINE
  5
67
330
1F
100
AcDbEntity
  8
DEFAULT
100
AcDbLine
 10
0.4159530000000018
 20
0.0
 30
0.0
 11
0.0
 21
0.0
 31
0.0
  0
LINE
  5
68
330
1F
100
AcDbEntity
  8
DEFAULT
100
AcDbLine
 10
11.90462051914
 20
1.814273533049999
 30
0.0
 11
12.02333544074
 21
1.603564519589995
 31
0.0
  0
LINE
  5
69
330
1F
100
AcDbEntity
  8
DEFAULT
100
AcDbLine
 10
12.02333544074
 20
1.603564519589995
 30
0.0
 11
12.08239055884999
 21
1.510403866540003
 31
0.0
  0
LINE
  5
6A
330
1F
100
AcDbEntity
  8
DEFAULT
100
AcDbLine
 10
4.322001
 20
13.554242
 30
0.0
 11
4.621926000000002
 21
13.83440499999999
 31
0.0
  0
LINE
  5
6B
330
1F
100
AcDbEntity
  8
DEFAULT
100
AcDbLine
 10
20.31126600000002
 20
12.884405
 30
0.0
 11
20.61124700000002
 21
13.164242
 31
0.0
  0
LINE
  5
6C
330
1F
100
AcDbEntity
  8
DEFAULT
100
AcDbLine
 10
11.91546099999999
 20
9.649119999999996
 30
0.0
 11
11.91546099999999
 21
9.619292000000002
 31
0.0
  0
LINE
  5
6D
330
1F
100
AcDbEntity
  8
DEFAULT
100
AcDbLine
 10
49.37841888683356
 20
2.716536000000005
 30
0.0
 11
50.72226788683355
 21
2.716536000000005
 31
0.0
  0
LINE
  5
6E
330
1F
100
AcDbEntity
  8
DEFAULT
100
AcDbLine
 10
5.90988384255499
 20
3.064590183044999
 30
0.0
 11
10.66102800000002
 21
4.626525999999998
 31
0.0
  0
LINE
  5
6F
330
1F
100
AcDbEntity
  8
DEFAULT
100
AcDbLine
 10
5.858462221709999
 20
3.045418324300002
 30
0.0
 11
5.90988384255499
 21
3.064590183044999
 31
0.0
  0
LINE
  5
70
330
1F
100
AcDbEntity
  8
DEFAULT
100
AcDbLine
 10
5.866629945499994
 20
2.863356318770002
 30
0.0
 11
5.858462221709999
 21
3.045418324300002
 31
0.0
  0
LINE
  5
71
330
1F
100
AcDbEntity
  8
DEFAULT
100
AcDbLine
 10
4.433626000000004
 20
2.559055000000001
 30
0.0
 11
4.433626000000004
 21
0.0
 31
0.0
  0
LINE
  5
72
330
1F
100
AcDbEntity
  8
DEFAULT
100
AcDbLine
 10
47.26055988683356
 20
9.516961999999992
 30
0.0
 11
47.19042188683355
 21
6.722366000000008
 31
0.0
  0
LINE
  5
73
330
1F
100
AcDbEntity
  8
DEFAULT
100
AcDbLine
 10
11.77915199999998
 20
2.699549000000005
 30
0.0
 11
11.82615899999999
 21
2.162261999999998
 31
0.0
  0
LINE
  5
74
330
1F
100
AcDbEntity
  8
DEFAULT
100
AcDbLine
 10
0.1717700000000093
 20
2.699549000000005
 30
0.0
 11
0.2187760000000196
 21
2.162261999999998
 31
0.0
  0
LINE
  5
75
330
1F
100
AcDbEntity
  8
DEFAULT
100
AcDbLine
 10
2.592108999999994
 20
13.47129
 30
0.0
 11
3.937194000000005
 21
13.471141
 31
0.0
  0
LINE
  5
76
330
1F
100
AcDbEntity
  8
DEFAULT
100
AcDbLine
 10
50.03275788683355
 20
14.61044
 30
0.0
 11
47.24476488683355
 21
14.73948
 31
0.0
  0
LINE
  5
77
330
1F
100
AcDbEntity
  8
DEFAULT
100
AcDbLine
 10
9.15955600000001
 20
15.088775
 30
0.0
 11
9.15955600000001
 21
13.42765799999999
 31
0.0
  0
ARC
  5
78
330
1F
100
AcDbEntity
  8
DEFAULT
100
AcDbCircle
 10
58.77893494067399
 20
3.318243217569861
 30
0.0
 40
0.393821020486575
100
AcDbArc
 50
2.00088185229434
 51
74.79789101290257
  0
LINE
  5
79
330
1F
100
AcDbEntity
  8
DEFAULT
100
AcDbLine
 10
0.1702914999999905
 20
3.330465000000004
 30
0.0
 11
0.1505980000000022
 21
2.766536000000002
 31
0.0
  0
ARC
  5
7A
330
1F
100
AcDbEntity
  8
DEFAULT
100
AcDbCircle
 10
0.5656873079281463
 20
3.316200622558862
 30
0.0
 40
0.3956530265155851
100
AcDbArc
 50
106.1853174281355
 51
177.9338821502042
  0
SPLINE
  5
7B
330
1F
100
AcDbEntity
  8
DEFAULT
100
AcDbSpline
210
0.0
220
0.0
230
1.0
 70
     8
 71
     3
 72
    19
 73
    15
 74
     0
 42
0.0000000001
 43
0.0000000001
 40
0.0
 40
0.0
 40
0.0
 40
0.0
 40
1.0
 40
2.0
 40
3.0
 40
4.0
 40
5.0
 40
6.0
 40
7.0
 40
8.0
 40
9.0
 40
10.0
 40
11.0
 40
12.0
 40
12.0
 40
12.0
 40
12.0
 10
11.44369691030002
 20
6.7226909014
 30
0.0
 10
11.12536553902731
 20
6.725051837828957
 30
0.0
 10
10.50303489565749
 20
6.588448271959777
 30
0.0
 10
9.594452479739886
 20
6.311658357378448
 30
0.0
 10
8.680217110949826
 20
6.050474051302089
 30
0.0
 10
7.766474225702552
 20
5.788655795608761
 30
0.0
 10
6.852597846402546
 20
5.527012520050405
 30
0.0
 10
5.938761124064484
 20
5.265309115571895
 30
0.0
 10
5.024910679377115
 20
5.003632307439133
 30
0.0
 10
4.111075295668371
 20
4.741909193745173
 30
0.0
 10
3.197193855092451
 20
4.480344839021171
 30
0.0
 10
2.283304014799199
 20
4.218810227158642
 30
0.0
 10
1.369343500339056
 20
3.957522239830254
 30
0.0
 10
0.7600540383348289
 20
3.783269947946053
 30
0.0
 10
0.4554009999999948
 20
3.696172000000004
 30
0.0
  0
LINE
  5
7C
330
1F
100
AcDbEntity
  8
DEFAULT
100
AcDbLine
 10
13.15437499999999
 20
3.365513000000007
 30
0.0
 11
13.17494300000001
 21
2.766536000000002
 31
0.0
  0
LINE
  5
7D
330
1F
100
AcDbEntity
  8
DEFAULT
100
AcDbLine
 10
11.758343
 20
2.766536000000002
 30
0.0
 11
13.17494200000002
 21
2.766536000000002
 31
0.0
  0
LINE
  5
7E
330
1F
100
AcDbEntity
  8
DEFAULT
100
AcDbLine
 10
15.85788399999998
 20
13.61535500000001
 30
0.0
 11
16.00552100000002
 21
13.61535500000001
 31
0.0
  0
LINE
  5
7F
330
1F
100
AcDbEntity
  8
DEFAULT
100
AcDbLine
 10
4.752034000000009
 20
13.246775
 30
0.0
 11
4.552131000000003
 21
13.24669300000001
 31
0.0
  0
LINE
  5
80
330
1F
100
AcDbEntity
  8
DEFAULT
100
AcDbLine
 10
16.00552100000002
 20
13.61535500000001
 30
0.0
 11
16.00552100000002
 21
15.10230700000001
 31
0.0
  0
ARC
  5
81
330
1F
100
AcDbEntity
  8
DEFAULT
100
AcDbCircle
 10
-0.0000000000000112
 20
2.434055000000012
 30
0.0
 40
0.1249999999999889
100
AcDbArc
 50
89.99999999999484
 51
180.0000000000051
  0
ARC
  5
82
330
1F
100
AcDbEntity
  8
DEFAULT
100
AcDbCircle
 10
46.70407288683356
 20
15.190158
 30
0.0
 40
0.6889765647687133
100
AcDbArc
 50
216.9808008483572
 51
317.7192122154563
  0
LINE
  5
83
330
1F
100
AcDbEntity
  8
DEFAULT
100
AcDbLine
 10
2.114432636220016
 20
48.25976567091656
 30
0.0
 11
2.380727258589985
 21
56.83937614338655
 31
0.0
  0
LINE
  5
84
330
1F
100
AcDbEntity
  8
DEFAULT
100
AcDbLine
 10
24.43339
 20
55.15280708218657
 30
0.0
 11
24.43339
 21
56.74734508218658
 31
0.0
  0
LINE
  5
85
330
1F
100
AcDbEntity
  8
DEFAULT
100
AcDbLine
 10
2.491948166933014
 20
27.55938778734
 30
0.0
 11
2.195057999999989
 21
27.559386
 31
0.0
  0
ARC
  5
86
330
1F
100
AcDbEntity
  8
DEFAULT
100
AcDbCircle
 10
2.474261509871924
 20
27.77858979312407
 30
0.0
 40
0.2199143860181917
100
AcDbArc
 50
274.6130062850323
 51
359.9939423449199
  0
LINE
  5
87
330
1F
100
AcDbEntity
  8
DEFAULT
100
AcDbLine
 10
24.51732699999999
 20
56.74734508218658
 30
0.0
 11
24.93328
 21
56.74734508218658
 31
0.0
  0
LINE
  5
88
330
1F
100
AcDbEntity
  8
DEFAULT
100
AcDbLine
 10
13.141842
 20
2.559055000000001
 30
0.0
 11
13.32590300000001
 21
2.559055000000001
 31
0.0
  0
LINE
  5
89
330
1F
100
AcDbEntity
  8
DEFAULT
100
AcDbLine
 10
24.687354
 20
54.18829008218657
 30
0.0
 11
24.93328
 21
54.18829008218657
 31
0.0
  0
LINE
  5
8A
330
1F
100
AcDbEntity
  8
DEFAULT
100
AcDbLine
 10
47.21381687541258
 20
14.72663901038545
 30
0.0
 11
47.24476488611994
 21
14.73947998457966
 31
0.0
  0
LINE
  5
8B
330
1F
100
AcDbEntity
  8
DEFAULT
100
AcDbLine
 10
11.771669
 20
46.24725908218656
 30
0.0
 11
11.77100199999998
 21
46.27463508218656
 31
0.0
  0
LINE
  5
8C
330
1F
100
AcDbEntity
  8
DEFAULT
100
AcDbLine
 10
13.450897
 20
45.88003308218657
 30
0.0
 11
13.450897
 21
47.81418308218656
 31
0.0
  0
LINE
  5
8D
330
1F
100
AcDbEntity
  8
DEFAULT
100
AcDbLine
 10
25.05828
 20
54.31329008218657
 30
0.0
 11
25.05828
 21
56.62234508218658
 31
0.0
  0
LINE
  5
8E
330
1F
100
AcDbEntity
  8
DEFAULT
100
AcDbLine
 10
13.16419099999999
 20
46.33760708218657
 30
0.0
 11
13.21809500000001
 21
47.81322608218656
 31
0.0
  0
LINE
  5
8F
330
1F
100
AcDbEntity
  8
DEFAULT
100
AcDbLine
 10
13.079891
 20
45.75503308218657
 30
0.0
 11
13.325897
 21
45.75503308218657
 31
0.0
  0
LINE
  5
90
330
1F
100
AcDbEntity
  8
DEFAULT
100
AcDbLine
 10
35.71755662612938
 20
2.699548977187334
 30
0.0
 11
35.73312188683356
 21
2.716535738299626
 31
0.0
  0
LINE
  5
91
330
1F
100
AcDbEntity
  8
DEFAULT
100
AcDbLine
 10
20.024653
 20
1.510404000000008
 30
0.0
 11
20.024653
 21
0.0590609999999998
 31
0.0
  0
ARC
  5
92
330
1F
100
AcDbEntity
  8
DEFAULT
100
AcDbCircle
 10
36.10924107610699
 20
3.31656990837025
 30
0.0
 40
0.3933819078101266
100
AcDbArc
 50
108.5464320006004
 51
173.9948030946308
  0
LINE
  5
93
330
1F
100
AcDbEntity
  8
DEFAULT
100
AcDbLine
 10
11.41149461899499
 20
5.885843982455
 30
0.0
 11
11.77140540050002
 21
3.165731921930004
 31
0.0
  0
ARC
  5
94
330
1F
100
AcDbEntity
  8
DEFAULT
100
AcDbCircle
 10
11.88712768178379
 20
5.960158123896904
 30
0.0
 40
0.4814035750138336
100
AcDbArc
 50
98.09015184204254
 51
188.8802446856608
  0
LINE
  5
95
330
1F
100
AcDbEntity
  8
DEFAULT
100
AcDbLine
 10
2.114432636220016
 20
48.25976567091656
 30
0.0
 11
2.250494000000003
 21
53.85091108218657
 31
0.0
  0
LINE
  5
96
330
1F
100
AcDbEntity
  8
DEFAULT
100
AcDbLine
 10
15.21126699999999
 20
12.884905
 30
0.0
 11
20.31127799999999
 21
12.884405
 31
0.0
  0
LINE
  5
97
330
1F
100
AcDbEntity
  8
DEFAULT
100
AcDbLine
 10
19.85496700000002
 20
2.766536000000002
 30
0.0
 11
19.85496700000002
 21
2.716536000000005
 31
0.0
  0
LINE
  5
98
330
1F
100
AcDbEntity
  8
DEFAULT
100
AcDbLine
 10
11.77891099999999
 20
3.365513000000007
 30
0.0
 11
11.758343
 21
2.766536000000002
 31
0.0
  0
LINE
  5
99
330
1F
100
AcDbEntity
  8
DEFAULT
100
AcDbLine
 10
12.82601400000001
 20
0.8420260000000042
 30
0.0
 11
12.82601400000001
 21
1.528176000000002
 31
0.0
  0
LINE
  5
9A
330
1F
100
AcDbEntity
  8
DEFAULT
100
AcDbLine
 10
11.651296
 20
4.166141999999994
 30
0.0
 11
11.328508
 21
4.166141999999994
 31
0.0
  0
LINE
  5
9B
330
1F
100
AcDbEntity
  8
DEFAULT
100
AcDbLine
 10
22.76900683691201
 20
25.990442207
 30
0.0
 11
22.7029115987437
 21
18.8721128849262
 31
0.0
  0
LINE
  5
9C
330
1F
100
AcDbEntity
  8
DEFAULT
100
AcDbLine
 10
22.73516749921399
 20
27.60899500347
 30
0.0
 11
22.76900683691201
 21
25.990442207
 31
0.0
  0
LINE
  5
9D
330
1F
100
AcDbEntity
  8
DEFAULT
100
AcDbLine
 10
22.70480309692198
 20
27.77834489293
 30
0.0
 11
22.73516749921399
 21
27.60899500347
 31
0.0
  0
LINE
  5
9E
330
1F
100
AcDbEntity
  8
DEFAULT
100
AcDbLine
 10
24.51733300000001
 20
0.0
 30
0.0
 11
24.45827800000001
 21
0.0590550000000007
 31
0.0
  0
LINE
  5
9F
330
1F
100
AcDbEntity
  8
DEFAULT
100
AcDbLine
 10
9.722019000000017
 20
12.884905
 30
0.0
 11
4.622007999999994
 21
12.884405
 31
0.0
  0
LINE
  5
A0
330
1F
100
AcDbEntity
  8
DEFAULT
100
AcDbLine
 10
12.85089500000001
 20
1.510404000000008
 30
0.0
 11
12.85089500000001
 21
0.0590609999999998
 31
0.0
  0
LINE
  5
A1
330
1F
100
AcDbEntity
  8
DEFAULT
100
AcDbLine
 10
20.61128500000001
 20
13.554242
 30
0.0
 11
20.31136000000001
 21
13.83440499999999
 31
0.0
  0
LINE
  5
A2
330
1F
100
AcDbEntity
  8
DEFAULT
100
AcDbLine
 10
20.181252
 20
13.246775
 30
0.0
 11
20.181274
 21
13.47177499999999
 31
0.0
  0
LINE
  5
A3
330
1F
100
AcDbEntity
  8
DEFAULT
100
AcDbLine
 10
19.02340215744502
 20
3.064590183044999
 30
0.0
 11
14.27225799999999
 21
4.626525999999998
 31
0.0
  0
LINE
  5
A4
330
1F
100
AcDbEntity
  8
DEFAULT
100
AcDbLine
 10
19.07482377829001
 20
3.045418324300002
 30
0.0
 11
19.02340215744502
 21
3.064590183044999
 31
0.0
  0
LINE
  5
A5
330
1F
100
AcDbEntity
  8
DEFAULT
100
AcDbLine
 10
19.06665605449999
 20
2.863356318770002
 30
0.0
 11
19.07482377829001
 21
3.045418324300002
 31
0.0
  0
LINE
  5
A6
330
1F
100
AcDbEntity
  8
DEFAULT
100
AcDbLine
 10
1.665856553720005
 20
3.045418127809995
 30
0.0
 11
1.542569999999984
 21
2.865670000000009
 31
0.0
  0
LINE
  5
A7
330
1F
100
AcDbEntity
  8
DEFAULT
100
AcDbLine
 10
9.89203319314501
 20
4.717333876135001
 30
0.0
 11
1.665856553720005
 21
3.045418127809995
 31
0.0
  0
ARC
  5
A8
330
1F
100
AcDbEntity
  8
DEFAULT
100
AcDbCircle
 10
10.06028898514586
 20
2.404666518010701
 30
0.0
 40
2.31877992075045
100
AcDbArc
 50
50.32453678471087
 51
94.16116537244135
  0
LINE
  5
A9
330
1F
100
AcDbEntity
  8
DEFAULT
100
AcDbLine
 10
19.28103000000002
 20
0.8420279999999991
 30
0.0
 11
19.99977100000001
 21
0.8420279999999991
 31
0.0
  0
LINE
  5
AA
330
1F
100
AcDbEntity
  8
DEFAULT
100
AcDbLine
 10
25.05828600000001
 20
2.434055000000001
 30
0.0
 11
25.05828600000001
 21
0.125
 31
0.0
  0
ARC
  5
AB
330
1F
100
AcDbEntity
  8
DEFAULT
100
AcDbCircle
 10
12.46664252735999
 20
2.05075874356857
 30
0.0
 40
0.6342236987375508
100
AcDbArc
 50
235.4844523428096
 51
304.5155476571904
  0
LINE
  5
AC
330
1F
100
AcDbEntity
  8
DEFAULT
100
AcDbLine
 10
13.10725074839999
 20
2.163622138060006
 30
0.0
 11
13.02866548085998
 21
1.814273533049999
 31
0.0
  0
LINE
  5
AD
330
1F
100
AcDbEntity
  8
DEFAULT
100
AcDbLine
 10
1.421281798689989
 20
1.814273533049999
 30
0.0
 11
1.499844953260009
 21
2.163334469540004
 31
0.0
  0
LINE
  5
AE
330
1F
100
AcDbEntity
  8
DEFAULT
100
AcDbLine
 10
0.4159527038700048
 20
1.603564519589995
 30
0.0
 11
0.4750078219800002
 21
1.510403866540003
 31
0.0
  0
ARC
  5
AF
330
1F
100
AcDbEntity
  8
DEFAULT
100
AcDbCircle
 10
0.0000000000000035
 20
54.31329008218658
 30
0.0
 40
0.1250000000000036
100
AcDbArc
 50
180.0000000000033
 51
269.9999999999984
  0
LINE
  5
B0
330
1F
100
AcDbEntity
  8
DEFAULT
100
AcDbLine
 10
11.77100199999998
 20
46.27463508218656
 30
0.0
 11
11.76908900000001
 21
46.33760708218657
 31
0.0
  0
ARC
  5
B1
330
1F
100
AcDbEntity
  8
DEFAULT
100
AcDbCircle
 10
11.607383
 20
45.88003308218658
 30
0.0
 40
0.1250000000000053
100
AcDbArc
 50
180.0000000000033
 51
269.9999999999976
  0
LINE
  5
B2
330
1F
100
AcDbEntity
  8
DEFAULT
100
AcDbLine
 10
1.9903975
 20
17.0712255
 30
0.0
 11
2.112624738536937
 21
17.1059773625515
 31
0.0
  0
LINE
  5
B3
330
1F
100
AcDbEntity
  8
DEFAULT
100
AcDbLine
 10
1.100829000000004
 20
17.07183449999999
 30
0.0
 11
1.9903975
 21
17.0712255
 31
0.0
  0
ARC
  5
B4
330
1F
100
AcDbEntity
  8
DEFAULT
100
AcDbCircle
 10
1.105395469369528
 20
17.32231164205545
 30
0.0
 40
0.2505187644364615
100
AcDbArc
 50
182.5018696496497
 51
268.9555516381866
  0
LINE
  5
B5
330
1F
100
AcDbEntity
  8
DEFAULT
100
AcDbLine
 10
0.4653940000000034
 20
27.859161
 30
0.0
 11
0.8551155000000108
 21
17.311376
 31
0.0
  0
ARC
  5
B6
330
1F
100
AcDbEntity
  8
DEFAULT
100
AcDbCircle
 10
0.7474884390666466
 20
27.90856630511409
 30
0.0
 40
0.2863881225290973
100
AcDbArc
 50
104.520992004971
 51
189.9338874850936
  0
LINE
  5
B7
330
1F
100
AcDbEntity
  8
DEFAULT
100
AcDbLine
 10
0.6757410000000164
 20
28.185808
 30
0.0
 11
0.6756809999999973
 21
28.185806
 31
0.0
  0
LINE
  5
B8
330
1F
100
AcDbEntity
  8
DEFAULT
100
AcDbLine
 10
2.557568500000002
 20
28.180896
 30
0.0
 11
0.6757410000000164
 21
28.185808
 31
0.0
  0
LINE
  5
B9
330
1F
100
AcDbEntity
  8
DEFAULT
100
AcDbLine
 10
2.764125000000007
 20
27.992543
 30
0.0
 11
2.557568500000002
 21
28.180896
 31
0.0
  0
LINE
  5
BA
330
1F
100
AcDbEntity
  8
DEFAULT
100
AcDbLine
 10
47.03035188683356
 20
4.717334000000008
 30
0.0
 11
49.31337188683355
 21
3.289719000000005
 31
0.0
  0
ARC
  5
BB
330
1F
100
AcDbEntity
  8
DEFAULT
100
AcDbCircle
 10
11.70234392606691
 20
55.84690156774405
 30
0.0
 40
40.85448552498979
100
AcDbArc
 50
256.4272153791915
 51
271.0719419994026
  0
LINE
  5
BC
330
1F
100
AcDbEntity
  8
DEFAULT
100
AcDbLine
 10
15.77373
 20
15.088775
 30
0.0
 11
15.77373
 21
13.42765799999999
 31
0.0
  0
SPLINE
  5
BD
330
1F
100
AcDbEntity
  8
DEFAULT
100
AcDbSpline
210
0.0
220
0.0
230
1.0
 70
     8
 71
     3
 72
    16
 73
    12
 74
     0
 42
0.0000000001
 43
0.0000000001
 40
0.0
 40
0.0
 40
0.0
 40
0.0
 40
1.0
 40
2.0
 40
3.0
 40
4.0
 40
5.0
 40
6.0
 40
7.0
 40
8.0
 40
9.0
 40
9.0
 40
9.0
 40
9.0
 10
2.752150999999998
 20
27.685481
 30
0.0
 10
2.7504267921897
 20
27.66424170117405
 30
0.0
 10
2.747246077373063
 20
27.62150263177101
 30
0.0
 10
2.742394458229285
 20
27.55830113691994
 30
0.0
 10
2.741511644305859
 20
27.49193449582319
 30
0.0
 10
2.726470662847674
 20
27.43721689342261
 30
0.0
 10
2.722966081810029
 20
27.53269691985767
 30
0.0
 10
2.717877778858139
 20
27.58801934958423
 30
0.0
 10
2.713298912620786
 20
27.6542960314284
 30
0.0
 10
2.707451817605573
 20
27.71685140748205
 30
0.0
 10
2.702744088213109
 20
27.76084856031212
 30
0.0
 10
2.694175896351993
 20
27.77856654245
 30
0.0
  0
LINE
  5
BE
330
1F
100
AcDbEntity
  8
DEFAULT
100
AcDbLine
 10
18.78114100000002
 20
2.559055000000001
 30
0.0
 11
18.96520200000001
 21
2.559055000000001
 31
0.0
  0
LINE
  5
BF
330
1F
100
AcDbEntity
  8
DEFAULT
100
AcDbLine
 10
1.542592999999982
 20
2.864996000000005
 30
0.0
 11
1.546030000000002
 21
2.766536000000002
 31
0.0
  0
LINE
  5
C0
330
1F
100
AcDbEntity
  8
DEFAULT
100
AcDbLine
 10
4.622019999999992
 20
12.884405
 30
0.0
 11
4.32203899999999
 21
13.164242
 31
0.0
  0
LINE
  5
C1
330
1F
100
AcDbEntity
  8
DEFAULT
100
AcDbLine
 10
19.25614899999999
 20
0.0590609999999998
 30
0.0
 11
19.25614899999999
 21
1.510404000000008
 31
0.0
  0
LINE
  5
C2
330
1F
100
AcDbEntity
  8
DEFAULT
100
AcDbLine
 10
14.27038899999999
 20
12.561849
 30
0.0
 11
13.61263299999999
 21
11.21550000000001
 31
0.0
  0
LINE
  5
C3
330
1F
100
AcDbEntity
  8
DEFAULT
100
AcDbLine
 10
45.59566388683355
 20
5.962693000000002
 30
0.0
 11
45.60064988683355
 21
5.962693000000002
 31
0.0
  0
LINE
  5
C4
330
1F
100
AcDbEntity
  8
DEFAULT
100
AcDbLine
 10
45.60064988683355
 20
5.962693000000002
 30
0.0
 11
45.59566388683355
 21
5.962693000000002
 31
0.0
  0
LINE
  5
C5
330
1F
100
AcDbEntity
  8
DEFAULT
100
AcDbLine
 10
45.40289188683356
 20
4.166141999999994
 30
0.0
 11
45.40289188683356
 21
2.418503999999999
 31
0.0
  0
ARC
  5
C6
330
1F
100
AcDbEntity
  8
DEFAULT
100
AcDbCircle
 10
50.02365688683355
 20
14.41380000000001
 30
0.0
 40
0.1968507006780922
100
AcDbArc
 50
8.108368630191015
 51
87.35009642109256
  0
SPLINE
  5
C7
330
1F
100
AcDbEntity
  8
DEFAULT
100
AcDbSpline
210
0.0
220
0.0
230
1.0
 70
     8
 71
     3
 72
    19
 73
    15
 74
     0
 42
0.0000000001
 43
0.0000000001
 40
-12.0
 40
-12.0
 40
-12.0
 40
-12.0
 40
-11.0
 40
-10.0
 40
-9.0
 40
-8.0
 40
-7.0
 40
-6.0
 40
-5.0
 40
-4.0
 40
-3.0
 40
-2.0
 40
-1.0
 40
0.0
 40
0.0
 40
0.0
 40
0.0
 10
2.304664740085002
 20
18.97124582819
 30
0.0
 10
2.587894410051746
 20
18.97043343682859
 30
0.0
 10
3.154390185207944
 20
18.96251081591258
 30
0.0
 10
4.00314091018177
 20
18.91911390561205
 30
0.0
 10
4.84972424430228
 20
18.84513789427253
 30
0.0
 10
5.694105558772378
 20
18.74981002159399
 30
0.0
 10
6.537189487912968
 20
18.64390869743002
 30
0.0
 10
7.380310534008117
 20
18.53825471139147
 30
0.0
 10
8.224677585914947
 20
18.44295865778832
 30
0.0
 10
9.07072040501015
 20
18.36344223226773
 30
0.0
 10
9.91856977389125
 20
18.30632882355887
 30
0.0
 10
10.76743437207315
 20
18.26742393890574
 30
0.0
 10
11.61694212141424
 20
18.24718122036218
 30
0.0
 10
12.18340562186469
 20
18.24236268146365
 30
0.0
 10
12.466643
 20
18.242289
 30
0.0
  0
SPLINE
  5
C8
330
1F
100
AcDbEntity
  8
DEFAULT
100
AcDbSpline
210
0.0
220
0.0
230
1.0
 70
     8
 71
     3
 72
    19
 73
    15
 74
     0
 42
0.0000000001
 43
0.0000000001
 40
0.0
 40
0.0
 40
0.0
 40
0.0
 40
1.0
 40
2.0
 40
3.0
 40
4.0
 40
5.0
 40
6.0
 40
7.0
 40
8.0
 40
9.0
 40
10.0
 40
11.0
 40
12.0
 40
12.0
 40
12.0
 40
12.0
 10
2.114597000000003
 20
16.133376
 30
0.0
 10
2.113388263889362
 20
16.21321062021278
 30
0.0
 10
2.110632417182046
 20
16.37287389933492
 30
0.0
 10
2.10776755958716
 20
16.61239065323156
 30
0.0
 10
2.108495285334783
 20
16.85192699782272
 30
0.0
 10
2.111887850621201
 20
17.0914374832649
 30
0.0
 10
2.117949303504304
 20
17.33089256367684
 30
0.0
 10
2.125869224743582
 20
17.57030247404123
 30
0.0
 10
2.13545044354538
 20
17.80961071152039
 30
0.0
 10
2.14647599398188
 20
18.04900926666603
 30
0.0
 10
2.160181253811714
 20
18.28770820964375
 30
0.0
 10
2.176857961334463
 20
18.52831550629372
 30
0.0
 10
2.209395400691619
 20
18.75987529725518
 30
0.0
 10
2.232448546821587
 20
18.93220506665516
 30
0.0
 10
2.304664740085002
 20
18.97124582819
 30
0.0
  0
ARC
  5
C9
330
1F
100
AcDbEntity
  8
DEFAULT
100
AcDbCircle
 10
51.74336288683354
 20
14.04116999999998
 30
0.0
 40
0.3937003221168944
100
AcDbArc
 50
184.9999668273227
 51
256.0211134260726
  0
LINE
  5
CA
330
1F
100
AcDbEntity
  8
DEFAULT
100
AcDbLine
 10
22.37662699999998
 20
28.180938
 30
0.0
 11
22.90506999999999
 21
28.184911
 31
0.0
  0
LINE
  5
CB
330
1F
100
AcDbEntity
  8
DEFAULT
100
AcDbLine
 10
47.26055988683356
 20
9.516961999999992
 30
0.0
 11
45.29719288683356
 21
9.516961999999992
 31
0.0
  0
LINE
  5
CC
330
1F
100
AcDbEntity
  8
DEFAULT
100
AcDbLine
 10
50.75898488683356
 20
2.766536000000002
 30
0.0
 11
49.34907888683355
 21
2.766536000000002
 31
0.0
  0
LINE
  5
CD
330
1F
100
AcDbEntity
  8
DEFAULT
100
AcDbLine
 10
35.73312188683356
 20
2.716536000000005
 30
0.0
 11
37.07697088683355
 21
2.716536000000005
 31
0.0
  0
CIRCLE
  5
CE
330
1F
100
AcDbEntity
  8
DEFAULT
100
AcDbCircle
 10
50.60830488683355
 20
14.497095
 30
0.0
 40
0.1968499999999977
  0
ARC
  5
CF
330
1F
100
AcDbEntity
  8
DEFAULT
100
AcDbCircle
 10
38.93592790788096
 20
27.79878050826296
 30
0.0
 40
0.2206008769396057
100
AcDbArc
 50
180.1596039687908
 51
268.4824979342315
  0
LINE
  5
D0
330
1F
100
AcDbEntity
  8
DEFAULT
100
AcDbLine
 10
38.71530988683357
 20
27.9706055
 30
0.0
 11
38.71532788683355
 21
27.798166
 31
0.0
  0
ARC
  5
D1
330
1F
100
AcDbEntity
  8
DEFAULT
100
AcDbCircle
 10
39.07028592789113
 20
27.86255789442032
 30
0.0
 40
0.3710556222406631
100
AcDbArc
 50
70.85686789375949
 51
163.0708000639526
  0
LINE
  5
D2
330
1F
100
AcDbEntity
  8
DEFAULT
100
AcDbLine
 10
51.27812588683356
 20
28.215065
 30
0.0
 11
39.19196588683356
 21
28.213095
 31
0.0
  0
ARC
  5
D3
330
1F
100
AcDbEntity
  8
DEFAULT
100
AcDbCircle
 10
50.33193068041358
 20
13.36023864261201
 30
0.0
 40
0.4756674263716272
100
AcDbArc
 50
193.6560388564137
 51
346.3132811801472
  0
LINE
  5
D4
330
1F
100
AcDbEntity
  8
DEFAULT
100
AcDbLine
 10
46.62788588683355
 20
11.494319
 30
0.0
 11
46.31951188683355
 21
12.447619
 31
0.0
  0
LINE
  5
D5
330
1F
100
AcDbEntity
  8
DEFAULT
100
AcDbLine
 10
49.86980888683355
 20
13.47294599999999
 30
0.0
 11
50.02127788683356
 21
13.472934
 31
0.0
  0
LINE
  5
D6
330
1F
100
AcDbEntity
  8
DEFAULT
100
AcDbLine
 10
50.73889088683356
 20
3.342519999999993
 30
0.0
 11
50.73889188683356
 21
3.342472999999998
 31
0.0
  0
ARC
  5
D7
330
1F
100
AcDbEntity
  8
DEFAULT
100
AcDbCircle
 10
37.24163291641116
 20
2.903831954892199
 30
0.0
 40
0.4595602293036044
100
AcDbArc
 50
121.7639336087279
 51
197.3828459234644
  0
LINE
  5
D8
330
1F
100
AcDbEntity
  8
DEFAULT
100
AcDbLine
 10
10.02021399999998
 20
13.217547
 30
0.0
 11
10.66289700000002
 21
12.561849
 31
0.0
  0
LINE
  5
D9
330
1F
100
AcDbEntity
  8
DEFAULT
100
AcDbLine
 10
0.4750080000000025
 20
1.510404000000008
 30
0.0
 11
0.4750080000000025
 21
0.0590609999999998
 31
0.0
  0
LINE
  5
DA
330
1F
100
AcDbEntity
  8
DEFAULT
100
AcDbLine
 10
1.243511758989996
 20
1.510403866540003
 30
0.0
 11
1.30256687710002
 21
1.603564519589995
 31
0.0
  0
ARC
  5
DB
330
1F
100
AcDbEntity
  8
DEFAULT
100
AcDbCircle
 10
0.8592597904799959
 20
2.05075874356857
 30
0.0
 40
0.634223698737551
100
AcDbArc
 50
235.4844523428096
 51
304.5155476571904
  0
LINE
  5
DC
330
1F
100
AcDbEntity
  8
DEFAULT
100
AcDbLine
 10
1.21862999999999
 20
0.8420279999999991
 30
0.0
 11
0.4998899999999935
 21
0.8420279999999991
 31
0.0
  0
LINE
  5
DD
330
1F
100
AcDbEntity
  8
DEFAULT
100
AcDbLine
 10
10.02021399999998
 20
13.217547
 30
0.0
 11
9.456126000000012
 21
13.634005
 31
0.0
  0
LINE
  5
DE
330
1F
100
AcDbEntity
  8
DEFAULT
100
AcDbLine
 10
41.32935988683356
 20
15.01326999999999
 30
0.0
 11
41.33308588683356
 21
15.09378700000001
 31
0.0
  0
SPLINE
  5
DF
330
1F
100
AcDbEntity
  8
DEFAULT
100
AcDbSpline
210
0.0
220
0.0
230
1.0
 70
     8
 71
     3
 72
    12
 73
     8
 74
     0
 42
0.0000000001
 43
0.0000000001
 40
0.0
 40
0.0
 40
0.0
 40
0.0
 40
1.0
 40
2.0
 40
3.0
 40
4.0
 40
5.0
 40
5.0
 40
5.0
 40
5.0
 10
55.35253288683356
 20
16.133269
 30
0.0
 10
55.39634076587446
 20
16.06110242423908
 30
0.0
 10
55.48486885247809
 20
15.91736758489806
 30
0.0
 10
55.61583101742026
 20
15.70048910392735
 30
0.0
 10
55.73591241819871
 20
15.47764296607018
 30
0.0
 10
55.84631266696771
 20
15.24890832363415
 30
0.0
 10
55.84623216774681
 20
15.06905602130725
 30
0.0
 10
55.79278000712355
 20
14.99956585096
 30
0.0
  0
LINE
  5
E0
330
1F
100
AcDbEntity
  8
DEFAULT
100
AcDbLine
 10
15.477159
 20
13.634005
 30
0.0
 11
9.456126000000012
 21
13.634005
 31
0.0
  0
LINE
  5
E1
330
1F
100
AcDbEntity
  8
DEFAULT
100
AcDbLine
 10
-0.125
 20
2.434055000000001
 30
0.0
 11
-0.125
 21
0.125
 31
0.0
  0
LINE
  5
E2
330
1F
100
AcDbEntity
  8
DEFAULT
100
AcDbLine
 10
24.71463348527
 20
2.163622138060006
 30
0.0
 11
24.63604821773001
 21
1.814273533049999
 31
0.0
  0
LINE
  5
E3
330
1F
100
AcDbEntity
  8
DEFAULT
100
AcDbLine
 10
23.6307191229
 20
1.603564519589995
 30
0.0
 11
23.51200420130999
 21
1.814273533049999
 31
0.0
  0
LINE
  5
E4
330
1F
100
AcDbEntity
  8
DEFAULT
100
AcDbLine
 10
12.90995055926001
 20
1.603564519589995
 30
0.0
 11
12.85089544115002
 21
1.510403866540003
 31
0.0
  0
LINE
  5
E5
330
1F
100
AcDbEntity
  8
DEFAULT
100
AcDbLine
 10
4.933515
 20
0.8420260000000042
 30
0.0
 11
4.933515
 21
1.528176000000002
 31
0.0
  0
LINE
  5
E6
330
1F
100
AcDbEntity
  8
DEFAULT
100
AcDbLine
 10
58.69816788683356
 20
2.766536000000002
 30
0.0
 11
58.69816788683356
 21
2.716536000000005
 31
0.0
  0
LINE
  5
E7
330
1F
100
AcDbEntity
  8
DEFAULT
100
AcDbLine
 10
45.17651388683356
 20
10.524804
 30
0.0
 11
47.38123788683356
 21
10.524804
 31
0.0
  0
LINE
  5
E8
330
1F
100
AcDbEntity
  8
DEFAULT
100
AcDbLine
 10
46.72448288683356
 20
4.166141999999994
 30
0.0
 11
47.41263288683355
 21
4.166141999999994
 31
0.0
  0
LINE
  5
E9
330
1F
100
AcDbEntity
  8
DEFAULT
100
AcDbLine
 10
35.71755688683355
 20
2.699549000000005
 30
0.0
 11
35.73204388683355
 21
2.533956000000003
 31
0.0
  0
LINE
  5
EA
330
1F
100
AcDbEntity
  8
DEFAULT
100
AcDbLine
 10
9.075401999999997
 20
13.61535500000001
 30
0.0
 11
8.927764999999994
 21
13.61535500000001
 31
0.0
  0
SPLINE
  5
EB
330
1F
100
AcDbEntity
  8
DEFAULT
100
AcDbSpline
210
0.0
220
0.0
230
1.0
 70
     8
 71
     3
 72
    19
 73
    15
 74
     0
 42
0.0000000001
 43
0.0000000001
 40
0.0
 40
0.0
 40
0.0
 40
0.0
 40
0.1011763222572
 40
0.2232144367775
 40
0.3481954240116
 40
0.4667307689401
 40
0.576165643506
 40
0.6750207307125
 40
0.7614810123431
 40
0.8349355497899
 40
0.8952186339714
 40
0.9440277832864
 40
0.9855573206089
 40
1.0
 40
1.0
 40
1.0
 40
1.0
 10
12.46664347264002
 20
10.27325674629999
 30
0.0
 10
12.50406507897
 20
10.27325674629999
 30
0.0
 10
12.58663074417998
 20
10.27181949254999
 30
0.0
 10
12.71525153721998
 20
10.26455363124001
 30
0.0
 10
12.84980130726998
 20
10.25069929214
 30
0.0
 10
12.97885660443001
 20
10.23060495602
 30
0.0
 10
13.09707360281001
 20
10.20497886796001
 30
0.0
 10
13.20183983589001
 20
10.17442963664
 30
0.0
 10
13.29114894751001
 20
10.13958817522
 30
0.0
 10
13.36327331686999
 20
10.10119057466
 30
0.0
 10
13.41708467907
 20
10.05971954588
 30
0.0
 10
13.45192697133999
 20
10.01503083324
 30
0.0
 10
13.46212969219002
 20
9.976126304589997
 30
0.0
 10
13.46023431724998
 20
9.955344243910005
 30
0.0
 10
13.45931869938002
 20
9.950041687679999
 30
0.0
  0
ARC
  5
EC
330
1F
100
AcDbEntity
  8
DEFAULT
100
AcDbCircle
 10
22.92459170769273
 20
27.96586110792147
 30
0.0
 40
0.2199134591987591
100
AcDbArc
 50
95.0918335781921
 51
180.0623026967248
  0
LINE
  5
ED
330
1F
100
AcDbEntity
  8
DEFAULT
100
AcDbLine
 10
23.55118159470697
 20
28.21498296572
 30
0.0
 11
22.90507387594749
 21
28.18490672824
 31
0.0
  0
ARC
  5
EE
330
1F
100
AcDbEntity
  8
DEFAULT
100
AcDbCircle
 10
11.607383
 20
0.1249999999999966
 30
0.0
 40
0.1249999999999982
100
AcDbArc
 50
179.9999999999984
 51
270.0000000000008
  0
ARC
  5
EF
330
1F
100
AcDbEntity
  8
DEFAULT
100
AcDbCircle
 10
20.49966000000001
 20
2.434054999999998
 30
0.0
 40
0.1250000000000027
100
AcDbArc
 50
0.0000000000012213
 51
90.0
  0
ARC
  5
F0
330
1F
100
AcDbEntity
  8
DEFAULT
100
AcDbCircle
 10
50.16228488683354
 20
1.85785099999999
 30
0.0
 40
0.4999993664830592
100
AcDbArc
 50
298.2159964039524
 51
355.0000959861702
  0
ARC
  5
F1
330
1F
100
AcDbEntity
  8
DEFAULT
100
AcDbCircle
 10
63.52639388683404
 20
16.48046800000013
 30
0.0
 40
14.96063069589038
100
AcDbArc
 50
199.027253642673
 51
207.1273085515961
  0
LINE
  5
F2
330
1F
100
AcDbEntity
  8
DEFAULT
100
AcDbLine
 10
3.771982000000008
 20
13.554242
 30
0.0
 11
3.771924999999982
 21
13.554402
 31
0.0
  0
LINE
  5
F3
330
1F
100
AcDbEntity
  8
DEFAULT
100
AcDbLine
 10
3.207211999999998
 20
13.24606899999999
 30
0.0
 11
2.592130999999995
 21
13.24629
 31
0.0
  0
LINE
  5
F4
330
1F
100
AcDbEntity
  8
DEFAULT
100
AcDbLine
 10
1.30256687710002
 20
1.603564519589995
 30
0.0
 11
1.421281798689989
 21
1.814273533049999
 31
0.0
  0
LINE
  5
F5
330
1F
100
AcDbEntity
  8
DEFAULT
100
AcDbLine
 10
0.4998899999999935
 20
0.8420260000000042
 30
0.0
 11
0.4998899999999935
 21
1.528176000000002
 31
0.0
  0
LINE
  5
F6
330
1F
100
AcDbEntity
  8
DEFAULT
100
AcDbLine
 10
4.605395000000016
 20
2.699549000000005
 30
0.0
 11
4.652401999999995
 21
2.162261999999998
 31
0.0
  0
LINE
  5
F7
330
1F
100
AcDbEntity
  8
DEFAULT
100
AcDbLine
 10
8.927764999999994
 20
13.834828
 30
0.0
 11
4.621926000000002
 21
13.83440499999999
 31
0.0
  0
LINE
  5
F8
330
1F
100
AcDbEntity
  8
DEFAULT
100
AcDbLine
 10
0.6446929999999895
 20
2.766536000000002
 30
0.0
 11
0.6446929999999895
 21
2.716536000000005
 31
0.0
  0
LINE
  5
F9
330
1F
100
AcDbEntity
  8
DEFAULT
100
AcDbLine
 10
1.073826999999994
 20
2.766536000000002
 30
0.0
 11
1.073826999999994
 21
2.716536000000005
 31
0.0
  0
ARC
  5
FA
330
1F
100
AcDbEntity
  8
DEFAULT
100
AcDbCircle
 10
58.15195647737261
 20
2.956011868169879
 30
0.0
 40
0.3539878643926127
100
AcDbArc
 50
359.272779968747
 51
73.01609020520775
  0
ARC
  5
FB
330
1F
100
AcDbEntity
  8
DEFAULT
100
AcDbCircle
 10
37.32074788683554
 20
7.96573700000045
 30
0.0
 40
14.96063058311205
100
AcDbArc
 50
8.8726917619329
 51
16.97274924238777
  0
LINE
  5
FC
330
1F
100
AcDbEntity
  8
DEFAULT
100
AcDbLine
 10
54.80732688683355
 20
15.35893399999999
 30
0.0
 11
54.42224888683356
 21
15.376915
 31
0.0
  0
ARC
  5
FD
330
1F
100
AcDbEntity
  8
DEFAULT
100
AcDbCircle
 10
36.51698788683357
 20
1.857850999999982
 30
0.0
 40
0.4999996028818213
100
AcDbArc
 50
298.2160973788394
 51
355.0000959861717
  0
LINE
  5
FE
330
1F
100
AcDbEntity
  8
DEFAULT
100
AcDbLine
 10
44.80069088683355
 20
10.900627
 30
0.0
 11
45.17651388683356
 21
10.524804
 31
0.0
  0
LINE
  5
FF
330
1F
100
AcDbEntity
  8
DEFAULT
100
AcDbLine
 10
37.07574588683354
 20
3.319125999999997
 30
0.0
 11
37.09503188683355
 21
2.766536000000002
 31
0.0
  0
ARC
  5
100
330
1F
100
AcDbEntity
  8
DEFAULT
100
AcDbCircle
 10
46.70407288683356
 20
15.190158
 30
0.0
 40
0.4921258097875012
100
AcDbArc
 50
176.5405394526432
 51
352.4594040697912
  0
LINE
  5
101
330
1F
100
AcDbEntity
  8
DEFAULT
100
AcDbLine
 10
50.07118579901413
 20
13.16537793417342
 30
0.0
 11
50.02630098981044
 21
13.24789003796251
 31
0.0
  0
LINE
  5
102
330
1F
100
AcDbEntity
  8
DEFAULT
100
AcDbLine
 10
24.45827199999999
 20
56.68827908218658
 30
0.0
 11
24.45827199999999
 21
55.13778108218656
 31
0.0
  0
LINE
  5
103
330
1F
100
AcDbEntity
  8
DEFAULT
100
AcDbLine
 10
5.67713744404
 20
1.510403866540003
 30
0.0
 11
5.736192562149995
 21
1.603564519589995
 31
0.0
  0
ARC
  5
104
330
1F
100
AcDbEntity
  8
DEFAULT
100
AcDbCircle
 10
22.43070458015926
 20
27.46392568789013
 30
0.0
 40
0.2372349745773515
100
AcDbArc
 50
175.4905346453292
 51
265.7649050283764
  0
LINE
  5
105
330
1F
100
AcDbEntity
  8
DEFAULT
100
AcDbLine
 10
22.63582700000001
 20
27.220075
 30
0.0
 11
22.413185
 21
27.2273385
 31
0.0
  0
LINE
  5
106
330
1F
100
AcDbEntity
  8
DEFAULT
100
AcDbLine
 10
22.75572499999998
 20
27.217109
 30
0.0
 11
22.63582700000001
 21
27.220075
 31
0.0
  0
LINE
  5
107
330
1F
100
AcDbEntity
  8
DEFAULT
100
AcDbLine
 10
14.913072
 20
13.217547
 30
0.0
 11
15.47716
 21
13.634005
 31
0.0
  0
LINE
  5
108
330
1F
100
AcDbEntity
  8
DEFAULT
100
AcDbLine
 10
50.73783388683356
 20
2.699549000000005
 30
0.0
 11
50.66038188683355
 21
1.814273999999997
 31
0.0
  0
LINE
  5
109
330
1F
100
AcDbEntity
  8
DEFAULT
100
AcDbLine
 10
11.482383
 20
45.88003308218657
 30
0.0
 11
11.482383
 21
47.81418308218656
 31
0.0
  0
LINE
  5
10A
330
1F
100
AcDbEntity
  8
DEFAULT
100
AcDbLine
 10
11.85338899999999
 20
45.75503308218657
 30
0.0
 11
11.607383
 21
45.75503308218657
 31
0.0
  0
ARC
  5
10B
330
1F
100
AcDbEntity
  8
DEFAULT
100
AcDbCircle
 10
24.93327999999999
 20
54.31329008218658
 30
0.0
 40
0.1250000000000071
100
AcDbArc
 50
270.0000000000032
 51
359.9999999999935
  0
LINE
  5
10C
330
1F
100
AcDbEntity
  8
DEFAULT
100
AcDbLine
 10
-0.125
 20
54.31329008218657
 30
0.0
 11
-0.125
 21
56.62234508218658
 31
0.0
  0
LINE
  5
10D
330
1F
100
AcDbEntity
  8
DEFAULT
100
AcDbLine
 10
18.78114100000002
 20
2.559055000000001
 30
0.0
 11
18.78114100000002
 21
0.0
 31
0.0
  0
LINE
  5
10E
330
1F
100
AcDbEntity
  8
DEFAULT
100
AcDbLine
 10
21.16129100000001
 20
13.471728
 30
0.0
 11
21.161304
 21
13.554242
 31
0.0
  0
LINE
  5
10F
330
1F
100
AcDbEntity
  8
DEFAULT
100
AcDbLine
 10
13.52179138100499
 20
5.885843982455
 30
0.0
 11
13.16188059949999
 21
3.165731921930004
 31
0.0
  0
ARC
  5
110
330
1F
100
AcDbEntity
  8
DEFAULT
100
AcDbCircle
 10
13.04615831821624
 20
5.960158123896948
 30
0.0
 40
0.4814035750137867
100
AcDbArc
 50
351.119755314333
 51
81.90984815795987
  0
LINE
  5
111
330
1F
100
AcDbEntity
  8
DEFAULT
100
AcDbLine
 10
4.617687000000018
 20
2.559055000000001
 30
0.0
 11
4.433626000000004
 21
2.559055000000001
 31
0.0
  0
LINE
  5
112
330
1F
100
AcDbEntity
  8
DEFAULT
100
AcDbLine
 10
14.42514338965501
 20
11.38093899793
 30
0.0
 11
13.569006
 21
10.524804
 31
0.0
  0
LINE
  5
113
330
1F
100
AcDbEntity
  8
DEFAULT
100
AcDbLine
 10
14.50891461334001
 20
11.49432076631
 30
0.0
 11
14.42514338965501
 21
11.38093899793
 31
0.0
  0
LINE
  5
114
330
1F
100
AcDbEntity
  8
DEFAULT
100
AcDbLine
 10
15.453442
 20
13.42765799999999
 30
0.0
 11
14.50891461334001
 21
11.49432076631
 31
0.0
  0
LINE
  5
115
330
1F
100
AcDbEntity
  8
DEFAULT
100
AcDbLine
 10
11.79472799999999
 20
2.716536000000005
 30
0.0
 11
13.13855699999999
 21
2.716536000000005
 31
0.0
  0
LINE
  5
116
330
1F
100
AcDbEntity
  8
DEFAULT
100
AcDbLine
 10
20.32927900000001
 20
3.332634999999996
 30
0.0
 11
20.349062
 21
2.766536000000002
 31
0.0
  0
ARC
  5
117
330
1F
100
AcDbEntity
  8
DEFAULT
100
AcDbCircle
 10
19.9202330109708
 20
3.313137851180822
 30
0.0
 40
0.4095103905311333
100
AcDbArc
 50
2.728933961156458
 51
69.65684635541888
  0
LINE
  5
118
330
1F
100
AcDbEntity
  8
DEFAULT
100
AcDbLine
 10
1.718519999999984
 20
2.559055000000001
 30
0.0
 11
1.534458000000001
 21
2.559055000000001
 31
0.0
  0
LINE
  5
119
330
1F
100
AcDbEntity
  8
DEFAULT
100
AcDbLine
 10
6.15214499999999
 20
2.559055000000001
 30
0.0
 11
5.968084000000005
 21
2.559055000000001
 31
0.0
  0
ARC
  5
11A
330
1F
100
AcDbEntity
  8
DEFAULT
100
AcDbCircle
 10
12.59909149570798
 20
3.25662450322658
 30
0.0
 40
0.5657138631049443
100
AcDbArc
 50
10.99963364178286
 51
103.5400777350563
  0
LINE
  5
11B
330
1F
100
AcDbEntity
  8
DEFAULT
100
AcDbLine
 10
0.1873460000000193
 20
2.716536000000005
 30
0.0
 11
1.531173999999993
 21
2.716536000000005
 31
0.0
  0
LINE
  5
11C
330
1F
100
AcDbEntity
  8
DEFAULT
100
AcDbLine
 10
23.26742944628
 20
3.045418127809995
 30
0.0
 11
23.390716
 21
2.865670000000009
 31
0.0
  0
LINE
  5
11D
330
1F
100
AcDbEntity
  8
DEFAULT
100
AcDbLine
 10
15.041252806855
 20
4.717333876135001
 30
0.0
 11
23.26742944628
 21
3.045418127809995
 31
0.0
  0
ARC
  5
11E
330
1F
100
AcDbEntity
  8
DEFAULT
100
AcDbCircle
 10
14.87299701485414
 20
2.404666518010758
 30
0.0
 40
2.318779920750394
100
AcDbArc
 50
85.83883462755811
 51
129.6754632152897
  0
LINE
  5
11F
330
1F
100
AcDbEntity
  8
DEFAULT
100
AcDbLine
 10
0.184061000000014
 20
2.559055000000001
 30
0.0
 11
0.0
 21
2.559055000000001
 31
0.0
  0
LINE
  5
120
330
1F
100
AcDbEntity
  8
DEFAULT
100
AcDbLine
 10
23.214766
 20
2.559055000000001
 30
0.0
 11
23.39882800000001
 21
2.559055000000001
 31
0.0
  0
LINE
  5
121
330
1F
100
AcDbEntity
  8
DEFAULT
100
AcDbLine
 10
8.927764999999994
 20
14.85551199999999
 30
0.0
 11
8.923335000000009
 21
14.85551199999999
 31
0.0
  0
LINE
  5
122
330
1F
100
AcDbEntity
  8
DEFAULT
100
AcDbLine
 10
11.79144399999998
 20
2.559055000000001
 30
0.0
 11
11.607383
 21
2.559055000000001
 31
0.0
  0
ARC
  5
123
330
1F
100
AcDbEntity
  8
DEFAULT
100
AcDbCircle
 10
46.99861530418526
 20
10.85590705324095
 30
0.0
 40
0.7377468007111061
100
AcDbArc
 50
28.24211602688161
 51
119.9613507903883
  0
LINE
  5
124
330
1F
100
AcDbEntity
  8
DEFAULT
100
AcDbLine
 10
49.36285288683355
 20
2.699549000000005
 30
0.0
 11
49.37734088683355
 21
2.533956000000003
 31
0.0
  0
LINE
  5
125
330
1F
100
AcDbEntity
  8
DEFAULT
100
AcDbLine
 10
49.31639969157355
 20
3.294561197579995
 30
0.0
 11
45.96629786287355
 21
5.885826964909995
 31
0.0
  0
ARC
  5
126
330
1F
100
AcDbEntity
  8
DEFAULT
100
AcDbCircle
 10
52.57808888683356
 20
15.19015800000001
 30
0.0
 40
1.574802719327097
100
AcDbArc
 50
219.2897550071302
 51
320.7102449928698
  0
SPLINE
  5
127
330
1F
100
AcDbEntity
  8
DEFAULT
100
AcDbSpline
210
0.0
220
0.0
230
1.0
 70
     8
 71
     3
 72
    14
 73
    10
 74
     0
 42
0.0000000001
 43
0.0000000001
 40
0.0
 40
0.0
 40
0.0
 40
0.0
 40
1.0
 40
2.0
 40
3.0
 40
4.0
 40
5.0
 40
6.0
 40
7.0
 40
7.0
 40
7.0
 40
7.0
 10
47.03035230818355
 20
4.717333752269994
 30
0.0
 10
46.98979795930117
 20
4.742215495755772
 30
0.0
 10
46.89296273450086
 20
4.72882368430335
 30
0.0
 10
46.78014365202444
 20
4.650039932725036
 30
0.0
 10
46.68354272167255
 20
4.551484842220518
 30
0.0
 10
46.61798159377174
 20
4.42982713903676
 30
0.0
 10
46.51920137838908
 20
4.333599694328043
 30
0.0
 10
46.40818875853211
 20
4.25318610060711
 30
0.0
 10
46.32812834199001
 20
4.208969549646127
 30
0.0
 10
46.28691735567355
 20
4.189368897860007
 30
0.0
  0
LINE
  5
128
330
1F
100
AcDbEntity
  8
DEFAULT
100
AcDbLine
 10
13.16161100000002
 20
46.24725908218656
 30
0.0
 11
13.16227799999999
 21
46.27463508218656
 31
0.0
  0
LINE
  5
129
330
1F
100
AcDbEntity
  8
DEFAULT
100
AcDbLine
 10
22.81884736378001
 20
48.25976567091656
 30
0.0
 11
22.55255274141001
 21
56.83937614338655
 31
0.0
  0
ARC
  5
12A
330
1F
100
AcDbEntity
  8
DEFAULT
100
AcDbCircle
 10
24.07402001080719
 20
54.54262101102917
 30
0.0
 40
0.7086614608791809
100
AcDbArc
 50
302.0244686484805
 51
60.78779463854101
  0
LINE
  5
12B
330
1F
100
AcDbEntity
  8
DEFAULT
100
AcDbLine
 10
23.51200420130999
 20
1.814273533049999
 30
0.0
 11
23.43344104674
 21
2.163334469540004
 31
0.0
  0
LINE
  5
12C
330
1F
100
AcDbEntity
  8
DEFAULT
100
AcDbLine
 10
11.36428000000001
 20
10.524804
 30
0.0
 11
11.389533
 21
10.524804
 31
0.0
  0
LINE
  5
12D
330
1F
100
AcDbEntity
  8
DEFAULT
100
AcDbLine
 10
15.85788399999998
 20
13.61535500000001
 30
0.0
 11
15.85788399999998
 21
15.093577
 31
0.0
  0
LINE
  5
12E
330
1F
100
AcDbEntity
  8
DEFAULT
100
AcDbLine
 10
24.433396
 20
0.8420260000000042
 30
0.0
 11
24.433396
 21
1.528176000000002
 31
0.0
  0
ARC
  5
12F
330
1F
100
AcDbEntity
  8
DEFAULT
100
AcDbCircle
 10
18.78114100000001
 20
0.1249999999999866
 30
0.0
 40
0.1249999999999866
100
AcDbArc
 50
179.9999999999939
 51
270.0000000000065
  0
LINE
  5
130
330
1F
100
AcDbEntity
  8
DEFAULT
100
AcDbLine
 10
23.859459
 20
2.766536000000002
 30
0.0
 11
23.859459
 21
2.716536000000005
 31
0.0
  0
LINE
  5
131
330
1F
100
AcDbEntity
  8
DEFAULT
100
AcDbLine
 10
11.58475300000001
 20
9.619292000000002
 30
0.0
 11
12.04511199999999
 21
9.619292000000002
 31
0.0
  0
LINE
  5
132
330
1F
100
AcDbEntity
  8
DEFAULT
100
AcDbLine
 10
5.98037576450335
 20
2.699549020605588
 30
0.0
 11
5.96481
 21
2.716536236396422
 31
0.0
  0
LINE
  5
133
330
1F
100
AcDbEntity
  8
DEFAULT
100
AcDbLine
 10
4.32203899999999
 20
13.164242
 30
0.0
 11
3.772019999999998
 21
13.164242
 31
0.0
  0
ARC
  5
134
330
1F
100
AcDbEntity
  8
DEFAULT
100
AcDbCircle
 10
2.008693292307273
 20
27.96586110792149
 30
0.0
 40
0.2199134591987432
100
AcDbArc
 50
359.9376973032715
 51
84.90816642181265
  0
LINE
  5
135
330
1F
100
AcDbEntity
  8
DEFAULT
100
AcDbLine
 10
1.382103405293009
 20
28.21498296572
 30
0.0
 11
2.02821112405249
 21
28.18490672824
 31
0.0
  0
LINE
  5
136
330
1F
100
AcDbEntity
  8
DEFAULT
100
AcDbLine
 10
5.677137499999986
 20
0.0590550000000007
 30
0.0
 11
5.736192999999986
 21
-0.0000004999999987
 31
0.0
  0
LINE
  5
137
330
1F
100
AcDbEntity
  8
DEFAULT
100
AcDbLine
 10
10.66289700000002
 20
12.561849
 30
0.0
 11
11.32065299999999
 21
11.21550000000001
 31
0.0
  0
ARC
  5
138
330
1F
100
AcDbEntity
  8
DEFAULT
100
AcDbCircle
 10
11.60738299999999
 20
2.434055000000008
 30
0.0
 40
0.1249999999999929
100
AcDbArc
 50
89.99999999999675
 51
180.0000000000033
  0
LINE
  5
139
330
1F
100
AcDbEntity
  8
DEFAULT
100
AcDbLine
 10
4.752034000000009
 20
13.246775
 30
0.0
 11
4.752012000000008
 21
13.47177499999999
 31
0.0
  0
LINE
  5
13A
330
1F
100
AcDbEntity
  8
DEFAULT
100
AcDbLine
 10
19.197093
 20
0.0
 30
0.0
 11
19.197093
 21
1.603565000000003
 31
0.0
  0
LINE
  5
13B
330
1F
100
AcDbEntity
  8
DEFAULT
100
AcDbLine
 10
14.913071
 20
13.217547
 30
0.0
 11
10.02021399999998
 21
13.217547
 31
0.0
  0
LINE
  5
13C
330
1F
100
AcDbEntity
  8
DEFAULT
100
AcDbLine
 10
4.620970999999997
 20
2.716536000000005
 30
0.0
 11
5.964798999999999
 21
2.716536000000005
 31
0.0
  0
LINE
  5
13D
330
1F
100
AcDbEntity
  8
DEFAULT
100
AcDbLine
 10
21.16126599999998
 20
13.164242
 30
0.0
 11
21.16132200000001
 21
13.164402
 31
0.0
  0
LINE
  5
13E
330
1F
100
AcDbEntity
  8
DEFAULT
100
AcDbLine
 10
20.32789099999999
 20
2.699549000000005
 30
0.0
 11
20.28088399999999
 21
2.162261999999998
 31
0.0
  0
LINE
  5
13F
330
1F
100
AcDbEntity
  8
DEFAULT
100
AcDbLine
 10
21.161304
 20
13.554242
 30
0.0
 11
21.161361
 21
13.554402
 31
0.0
  0
LINE
  5
140
330
1F
100
AcDbEntity
  8
DEFAULT
100
AcDbLine
 10
16.00552100000002
 20
14.85551199999999
 30
0.0
 11
16.009951
 21
14.85551199999999
 31
0.0
  0
LINE
  5
141
330
1F
100
AcDbEntity
  8
DEFAULT
100
AcDbLine
 10
13.28199000000001
 20
4.166141999999994
 30
0.0
 11
13.60477800000001
 21
4.166141999999994
 31
0.0
  0
LINE
  5
142
330
1F
100
AcDbEntity
  8
DEFAULT
100
AcDbLine
 10
23.38653600000001
 20
2.699549000000005
 30
0.0
 11
23.43357900000001
 21
2.161844000000002
 31
0.0
  0
LINE
  5
143
330
1F
100
AcDbEntity
  8
DEFAULT
100
AcDbLine
 10
0.2459259999999972
 20
54.18829008218657
 30
0.0
 11
0.0
 21
54.18829008218657
 31
0.0
  0
LINE
  5
144
330
1F
100
AcDbEntity
  8
DEFAULT
100
AcDbLine
 10
13.16161100000002
 20
46.24725908218656
 30
0.0
 11
13.16103799999999
 21
46.24920208218657
 31
0.0
  0
LINE
  5
145
330
1F
100
AcDbEntity
  8
DEFAULT
100
AcDbLine
 10
22.81884736378001
 20
48.25976567091656
 30
0.0
 11
22.68278600000002
 21
53.85091108218657
 31
0.0
  0
LINE
  5
146
330
1F
100
AcDbEntity
  8
DEFAULT
100
AcDbLine
 10
46.12406288184469
 20
14.79135089219686
 30
0.0
 11
46.15369297304255
 21
14.77570606491852
 31
0.0
  0
LINE
  5
147
330
1F
100
AcDbEntity
  8
DEFAULT
100
AcDbLine
 10
13.16130759381335
 20
46.22500929516401
 30
0.0
 11
13.16161100000002
 21
46.24725908218656
 31
0.0
  0
LINE
  5
148
330
1F
100
AcDbEntity
  8
DEFAULT
100
AcDbLine
 10
13.17493741712562
 20
46.08672608218656
 30
0.0
 11
13.16130759381332
 21
46.22500929516401
 31
0.0
  0
CIRCLE
  5
149
330
1F
100
AcDbEntity
  8
DEFAULT
100
AcDbCircle
 10
46.70407288683357
 20
15.190158
 30
0.0
 40
0.1968499999999977
  0
ARC
  5
14A
330
1F
100
AcDbEntity
  8
DEFAULT
100
AcDbCircle
 10
13.74850207235246
 20
137.7146629716356
 30
0.0
 40
89.91366288646729
100
AcDbArc
 50
269.1831280764115
 51
275.7896796140687
  0
LINE
  5
14B
330
1F
100
AcDbEntity
  8
DEFAULT
100
AcDbLine
 10
46.12406288683356
 20
14.79135100000001
 30
0.0
 11
41.32935988683356
 21
15.01326999999999
 31
0.0
  0
ARC
  5
14C
330
1F
100
AcDbEntity
  8
DEFAULT
100
AcDbCircle
 10
50.57843588683355
 20
11.746477
 30
0.0
 40
2.168634612079329
100
AcDbArc
 50
262.6642181148981
 51
313.3357871462974
  0
LINE
  5
14D
330
1F
100
AcDbEntity
  8
DEFAULT
100
AcDbLine
 10
47.05249788683355
 20
2.316141999999999
 30
0.0
 11
45.50527488683355
 21
2.316141999999999
 31
0.0
  0
LINE
  5
14E
330
1F
100
AcDbEntity
  8
DEFAULT
100
AcDbLine
 10
11.482383
 20
2.434055000000001
 30
0.0
 11
11.482383
 21
0.125
 31
0.0
  0
LINE
  5
14F
330
1F
100
AcDbEntity
  8
DEFAULT
100
AcDbLine
 10
9.15955600000001
 20
14.383071
 30
0.0
 11
15.773729
 21
14.383071
 31
0.0
  0
LINE
  5
150
330
1F
100
AcDbEntity
  8
DEFAULT
100
AcDbLine
 10
4.308626000000004
 20
2.434055000000001
 30
0.0
 11
4.308626000000004
 21
0.125
 31
0.0
  0
LINE
  5
151
330
1F
100
AcDbEntity
  8
DEFAULT
100
AcDbLine
 10
13.02866548085998
 20
1.814273533049999
 30
0.0
 11
12.90995055926001
 21
1.603564519589995
 31
0.0
  0
LINE
  5
152
330
1F
100
AcDbEntity
  8
DEFAULT
100
AcDbLine
 10
57.81167588683356
 20
2.716536000000005
 30
0.0
 11
59.15552488683355
 21
2.716536000000005
 31
0.0
  0
CIRCLE
  5
153
330
1F
100
AcDbEntity
  8
DEFAULT
100
AcDbCircle
 10
35.47984988683355
 20
1.279527999999999
 30
0.0
 40
1.154527000000002
  0
LINE
  5
154
330
1F
100
AcDbEntity
  8
DEFAULT
100
AcDbLine
 10
47.41263288683355
 20
4.166141999999994
 30
0.0
 11
47.41702488683356
 21
4.166141999999994
 31
0.0
  0
LINE
  5
155
330
1F
100
AcDbEntity
  8
DEFAULT
100
AcDbLine
 10
0.4750080000000025
 20
56.68829008218658
 30
0.0
 11
0.4159530000000018
 21
56.74734508218658
 31
0.0
  0
SPLINE
  5
156
330
1F
100
AcDbEntity
  8
DEFAULT
100
AcDbSpline
210
0.0
220
0.0
230
1.0
 70
     8
 71
     3
 72
    16
 73
    12
 74
     0
 42
0.0000000001
 43
0.0000000001
 40
0.0
 40
0.0
 40
0.0
 40
0.0
 40
1.0
 40
2.0
 40
3.0
 40
4.0
 40
5.0
 40
6.0
 40
7.0
 40
8.0
 40
9.0
 40
9.0
 40
9.0
 40
9.0
 10
22.18113399999999
 20
27.685481
 30
0.0
 10
22.18285820781028
 20
27.66424170117405
 30
0.0
 10
22.18603892262695
 20
27.62150263177101
 30
0.0
 10
22.19089054177073
 20
27.55830113691994
 30
0.0
 10
22.19177335569412
 20
27.49193449582319
 30
0.0
 10
22.20681433715231
 20
27.43721689342261
 30
0.0
 10
22.21031891818996
 20
27.53269691985767
 30
0.0
 10
22.21540722114187
 20
27.58801934958423
 30
0.0
 10
22.21998608737923
 20
27.6542960314284
 30
0.0
 10
22.22583318239444
 20
27.71685140748205
 30
0.0
 10
22.23054091178687
 20
27.76084856031212
 30
0.0
 10
22.23910910364799
 20
27.77856654245
 30
0.0
  0
LINE
  5
157
330
1F
100
AcDbEntity
  8
DEFAULT
100
AcDbLine
 10
19.25614849999999
 20
0.0590550000000007
 30
0.0
 11
19.197093
 21
-0.0000004999999987
 31
0.0
  0
LINE
  5
158
330
1F
100
AcDbEntity
  8
DEFAULT
100
AcDbLine
 10
9.15955600000001
 20
13.42765799999999
 30
0.0
 11
9.479843999999986
 21
13.42765799999999
 31
0.0
  0
LINE
  5
159
330
1F
100
AcDbEntity
  8
DEFAULT
100
AcDbLine
 10
36.61961388683355
 20
2.766536000000002
 30
0.0
 11
36.61961388683355
 21
2.716536000000005
 31
0.0
  0
ARC
  5
15A
330
1F
100
AcDbEntity
  8
DEFAULT
100
AcDbCircle
 10
2.502580419840756
 20
27.46392568789013
 30
0.0
 40
0.2372349745773512
100
AcDbArc
 50
274.2350949716224
 51
4.509465354670799
  0
LINE
  5
15B
330
1F
100
AcDbEntity
  8
DEFAULT
100
AcDbLine
 10
2.297458000000006
 20
27.220075
 30
0.0
 11
2.520100000000014
 21
27.2273385
 31
0.0
  0
LINE
  5
15C
330
1F
100
AcDbEntity
  8
DEFAULT
100
AcDbLine
 10
2.17756
 20
27.217109
 30
0.0
 11
2.297458000000006
 21
27.220075
 31
0.0
  0
LINE
  5
15D
330
1F
100
AcDbEntity
  8
DEFAULT
100
AcDbLine
 10
2.556657999999999
 20
28.180938
 30
0.0
 11
2.028215000000017
 21
28.184911
 31
0.0
  0
CIRCLE
  5
15E
330
1F
100
AcDbEntity
  8
DEFAULT
100
AcDbCircle
 10
49.12514688683356
 20
1.279527999999999
 30
0.0
 40
1.154527000000002
  0
LINE
  5
15F
330
1F
100
AcDbEntity
  8
DEFAULT
100
AcDbLine
 10
50.6361166275957
 20
13.24772109573136
 30
0.0
 11
50.59118610786682
 21
13.1652338341294
 31
0.0
  0
LINE
  5
160
330
1F
100
AcDbEntity
  8
DEFAULT
100
AcDbLine
 10
0.1873349999999903
 20
2.716535738299612
 30
0.0
 11
0.1717697392957973
 21
2.699548977187334
 31
0.0
  0
LINE
  5
161
330
1F
100
AcDbEntity
  8
DEFAULT
100
AcDbLine
 10
5.854906999999997
 20
1.814273999999997
 30
0.0
 11
4.730862999999999
 21
1.814273999999997
 31
0.0
  0
LINE
  5
162
330
1F
100
AcDbEntity
  8
DEFAULT
100
AcDbLine
 10
1.546007000000003
 20
2.766536000000002
 30
0.0
 11
0.1506149999999877
 21
2.766536000000002
 31
0.0
  0
LINE
  5
163
330
1F
100
AcDbEntity
  8
DEFAULT
100
AcDbLine
 10
50.59129383626674
 20
13.55523396209676
 30
0.0
 11
50.63617894612815
 21
13.4727210218588
 31
0.0
  0
LINE
  5
164
330
1F
100
AcDbEntity
  8
DEFAULT
100
AcDbLine
 10
50.02636354359039
 20
13.47289012675215
 30
0.0
 11
50.07129417949184
 21
13.55537778037963
 31
0.0
  0
LINE
  5
165
330
1F
100
AcDbEntity
  8
DEFAULT
100
AcDbLine
 10
50.95261582052257
 20
14.76359097298123
 30
0.0
 11
51.00158395836118
 21
14.47889199668944
 31
0.0
  0
CIRCLE
  5
166
330
1F
100
AcDbEntity
  8
DEFAULT
100
AcDbCircle
 10
52.57808888683356
 20
14.38307100000001
 30
0.0
 40
0.4724409999999821
  0
LINE
  5
167
330
1F
100
AcDbEntity
  8
DEFAULT
100
AcDbLine
 10
45.96231288683356
 20
6.722666000000004
 30
0.0
 11
45.36732488683356
 21
6.722588999999999
 31
0.0
  0
LINE
  5
168
330
1F
100
AcDbEntity
  8
DEFAULT
100
AcDbLine
 10
49.38370588683355
 20
2.766536000000002
 30
0.0
 11
49.31639988683355
 21
3.294561000000002
 31
0.0
  0
ARC
  5
169
330
1F
100
AcDbEntity
  8
DEFAULT
100
AcDbCircle
 10
47.09905283931164
 20
4.423758994768044
 30
0.0
 40
0.2823036216081407
100
AcDbArc
 50
99.51517458890956
 51
236.1204695289051
  0
LINE
  5
16A
330
1F
100
AcDbEntity
  8
DEFAULT
100
AcDbLine
 10
3.771982000000008
 20
13.554242
 30
0.0
 11
4.322001
 21
13.554242
 31
0.0
  0
LINE
  5
16B
330
1F
100
AcDbEntity
  8
DEFAULT
100
AcDbLine
 10
24.74594
 20
2.716536000000005
 30
0.0
 11
23.40211199999999
 21
2.716536000000005
 31
0.0
  0
LINE
  5
16C
330
1F
100
AcDbEntity
  8
DEFAULT
100
AcDbLine
 10
5.507452000000001
 20
2.766536000000002
 30
0.0
 11
5.507452000000001
 21
2.716536000000005
 31
0.0
  0
LINE
  5
16D
330
1F
100
AcDbEntity
  8
DEFAULT
100
AcDbLine
 10
8.927764999999994
 20
14.192926
 30
0.0
 11
9.075401999999997
 21
14.192926
 31
0.0
  0
ARC
  5
16E
330
1F
100
AcDbEntity
  8
DEFAULT
100
AcDbCircle
 10
12.46664299999986
 20
41.67413900000056
 30
0.0
 40
27.33464376152557
100
AcDbArc
 50
277.4468636414074
 51
288.4168400129549
  0
SPLINE
  5
16F
330
1F
100
AcDbEntity
  8
DEFAULT
100
AcDbSpline
210
0.0
220
0.0
230
1.0
 70
     8
 71
     3
 72
    14
 73
    10
 74
     0
 42
0.0000000001
 43
0.0000000001
 40
0.0
 40
0.0
 40
0.0
 40
0.0
 40
1.0
 40
2.0
 40
3.0
 40
4.0
 40
5.0
 40
6.0
 40
7.0
 40
7.0
 40
7.0
 40
7.0
 10
23.72812016328507
 20
3.251948988540008
 30
0.0
 10
23.25225436828629
 20
3.413754867869642
 30
0.0
 10
22.27477251480354
 20
3.673545006732397
 30
0.0
 10
20.81921788343791
 20
4.089421336348039
 30
0.0
 10
19.36011903481995
 20
4.497550052257097
 30
0.0
 10
17.90093076592635
 20
4.897675052305331
 30
0.0
 10
16.44131590241057
 20
5.32201003149639
 30
0.0
 10
14.98538480087493
 20
5.664125288711944
 30
0.0
 10
13.99119541987253
 20
6.044233048359402
 30
0.0
 10
13.52179268781006
 20
5.88586085499
 30
0.0
  0
ARC
  5
170
330
1F
100
AcDbEntity
  8
DEFAULT
100
AcDbCircle
 10
23.40780626705968
 20
2.88847960116498
 30
0.0
 40
0.4844698005798354
100
AcDbArc
 50
345.4215558485487
 51
48.61130840106228
  0
LINE
  5
171
330
1F
100
AcDbEntity
  8
DEFAULT
100
AcDbLine
 10
5.748080143120006
 20
3.064590183044999
 30
0.0
 11
5.469307973139991
 21
2.863356444220003
 31
0.0
  0
LINE
  5
172
330
1F
100
AcDbEntity
  8
DEFAULT
100
AcDbLine
 10
10.57485700000001
 20
4.651390000000006
 30
0.0
 11
5.748080143120006
 21
3.064590183044999
 31
0.0
  0
SPLINE
  5
173
330
1F
100
AcDbEntity
  8
DEFAULT
100
AcDbSpline
210
0.0
220
0.0
230
1.0
 70
     8
 71
     3
 72
    12
 73
     8
 74
     0
 42
0.0000000001
 43
0.0000000001
 40
0.0
 40
0.0
 40
0.0
 40
0.0
 40
1.0
 40
2.0
 40
3.0
 40
4.0
 40
5.0
 40
5.0
 40
5.0
 40
5.0
 10
14.80859290172
 20
4.729964216949995
 30
0.0
 10
14.71555466113261
 20
4.723555779165522
 30
0.0
 10
14.5305637067697
 20
4.696962308048541
 30
0.0
 10
14.25940486024589
 20
4.627773619713778
 30
0.0
 10
13.99584530764275
 20
4.529954111294913
 30
0.0
 10
13.75022020671574
 20
4.402255900551779
 30
0.0
 10
13.6052973984587
 20
4.264480940083018
 30
0.0
 10
13.60479100000001
 20
4.166141999999994
 30
0.0
  0
ARC
  5
174
330
1F
100
AcDbEntity
  8
DEFAULT
100
AcDbCircle
 10
11.18477792764756
 20
137.7146629716362
 30
0.0
 40
89.91366288646783
100
AcDbArc
 50
264.2103203859313
 51
270.8168719235885
  0
LINE
  5
175
330
1F
100
AcDbEntity
  8
DEFAULT
100
AcDbLine
 10
24.37383415762993
 20
56.74734508218658
 30
0.0
 11
24.43339
 21
56.74734508218658
 31
0.0
  0
ARC
  5
176
330
1F
100
AcDbEntity
  8
DEFAULT
100
AcDbCircle
 10
-0.0000000000000224
 20
56.62234508218659
 30
0.0
 40
0.1249999999999858
100
AcDbArc
 50
89.99999999998974
 51
180.0000000000065
  0
ARC
  5
177
330
1F
100
AcDbEntity
  8
DEFAULT
100
AcDbCircle
 10
13.32590299999999
 20
2.434054999999984
 30
0.0
 40
0.1250000000000164
100
AcDbArc
 50
0.0000000000075316
 51
89.99999999999186
  0
LINE
  5
178
330
1F
100
AcDbEntity
  8
DEFAULT
100
AcDbLine
 10
24.45827199999999
 20
56.68829008218658
 30
0.0
 11
24.51732699999999
 21
56.74734508218658
 31
0.0
  0
ARC
  5
179
330
1F
100
AcDbEntity
  8
DEFAULT
100
AcDbCircle
 10
24.93328000000001
 20
56.62234508218658
 30
0.0
 40
0.125
100
AcDbArc
 50
0.0000000000032569
 51
90.00000000000489
  0
ARC
  5
17A
330
1F
100
AcDbEntity
  8
DEFAULT
100
AcDbCircle
 10
23.21476599999999
 20
2.434055000000009
 30
0.0
 40
0.1249999999999929
100
AcDbArc
 50
89.99999999999675
 51
180.0000000000039
  0
LINE
  5
17B
330
1F
100
AcDbEntity
  8
DEFAULT
100
AcDbLine
 10
20.181252
 20
13.246775
 30
0.0
 11
20.38115500000001
 21
13.24669300000001
 31
0.0
  0
ARC
  5
17C
330
1F
100
AcDbEntity
  8
DEFAULT
100
AcDbCircle
 10
20.49966
 20
0.1250000000000048
 30
0.0
 40
0.1250000000000036
100
AcDbArc
 50
270.0000000000016
 51
359.9999999999978
  0
ARC
  5
17D
330
1F
100
AcDbEntity
  8
DEFAULT
100
AcDbCircle
 10
24.93328600000001
 20
2.434054999999995
 30
0.0
 40
0.1250000000000053
100
AcDbArc
 50
0.0000000000024427
 51
89.99999999999837
  0
LINE
  5
17E
330
1F
100
AcDbEntity
  8
DEFAULT
100
AcDbLine
 10
3.937194000000005
 20
13.471141
 30
0.0
 11
4.552033999999992
 21
13.471481
 31
0.0
  0
LINE
  5
17F
330
1F
100
AcDbEntity
  8
DEFAULT
100
AcDbLine
 10
11.484959
 20
9.516961999999992
 30
0.0
 11
13.44832600000001
 21
9.516961999999992
 31
0.0
  0
LINE
  5
180
330
1F
100
AcDbEntity
  8
DEFAULT
100
AcDbLine
 10
24.28859300000001
 20
2.766536000000002
 30
0.0
 11
24.28859300000001
 21
2.716536000000005
 31
0.0
  0
SPLINE
  5
181
330
1F
100
AcDbEntity
  8
DEFAULT
100
AcDbSpline
210
0.0
220
0.0
230
1.0
 70
     8
 71
     3
 72
    24
 73
    20
 74
     0
 42
0.0000000001
 43
0.0000000001
 40
0.0
 40
0.0
 40
0.0
 40
0.0
 40
0.07715671941002
 40
0.1702225681787
 40
0.2655326468086
 40
0.3559272967056
 40
0.4393819603914
 40
0.5147685145828
 40
0.5807028313599
 40
0.6367190125566
 40
0.6826906877213
 40
0.7199123792478
 40
0.7515826633142
 40
0.7832529474155
 40
0.8204746391833
 40
0.8664463143469
 40
0.9224624960007
 40
0.9883968126878
 40
1.0
 40
1.0
 40
1.0
 40
1.0
 10
12.46664347264002
 20
10.16913266352
 30
0.0
 10
12.50157780489999
 20
10.16913266352
 30
0.0
 10
12.57865563855
 20
10.16779094048
 30
0.0
 10
12.69872748762
 20
10.16100799369001
 30
0.0
 10
12.82433424003
 20
10.14807452431
 30
0.0
 10
12.94481171426
 20
10.12931577296
 30
0.0
 10
13.0551712717
 20
10.10539295835
 30
0.0
 10
13.15297408658
 20
10.07687422145
 30
0.0
 10
13.23634715585999
 20
10.0443485401
 30
0.0
 10
13.30367768970001
 20
10.00850308599
 30
0.0
 10
13.35391241203999
 20
9.969788480480005
 30
0.0
 10
13.38643886830999
 20
9.928070059630002
 30
0.0
 10
13.39842563703999
 20
9.882362684450001
 30
0.0
 10
13.38643886821998
 20
9.836655309240001
 30
0.0
 10
13.35391241223002
 20
9.794936887969996
 30
0.0
 10
13.30367768932999
 20
9.756222282730008
 30
0.0
 10
13.23634715636999
 20
9.720376826649996
 30
0.0
 10
13.17992196582
 20
9.698364110870003
 30
0.0
 10
13.14662610343001
 20
9.687198464529999
 30
0.0
 10
13.14163233039
 20
9.685562185639995
 30
0.0
  0
LINE
  5
182
330
1F
100
AcDbEntity
  8
DEFAULT
100
AcDbLine
 10
23.71465600000001
 20
0.8420279999999991
 30
0.0
 11
24.433396
 21
0.8420279999999991
 31
0.0
  0
LINE
  5
183
330
1F
100
AcDbEntity
  8
DEFAULT
100
AcDbLine
 10
20.083708
 20
1.603565000000003
 30
0.0
 11
20.083708
 21
0.0
 31
0.0
  0
LINE
  5
184
330
1F
100
AcDbEntity
  8
DEFAULT
100
AcDbLine
 10
12.90995100000001
 20
0.0
 30
0.0
 11
13.32590300000001
 21
0.0
 31
0.0
  0
LINE
  5
185
330
1F
100
AcDbEntity
  8
DEFAULT
100
AcDbLine
 10
18.78114100000002
 20
0.0
 30
0.0
 11
19.197093
 21
0.0
 31
0.0
  0
LINE
  5
186
330
1F
100
AcDbEntity
  8
DEFAULT
100
AcDbLine
 10
24.74595100000001
 20
2.716535738299612
 30
0.0
 11
24.76151626070418
 21
2.699548977187334
 31
0.0
  0
LINE
  5
187
330
1F
100
AcDbEntity
  8
DEFAULT
100
AcDbLine
 10
51.62974888683355
 20
12.33299699999999
 30
0.0
 11
49.38315788683356
 21
11.60303499999999
 31
0.0
  0
LINE
  5
188
330
1F
100
AcDbEntity
  8
DEFAULT
100
AcDbLine
 10
50.76429888683356
 20
13.165177
 30
0.0
 11
49.89804288683355
 21
13.16541700000001
 31
0.0
  0
LINE
  5
189
330
1F
100
AcDbEntity
  8
DEFAULT
100
AcDbLine
 10
0.4998899999999935
 20
55.15280708218657
 30
0.0
 11
0.4998899999999935
 21
56.74734508218658
 31
0.0
  0
LINE
  5
18A
330
1F
100
AcDbEntity
  8
DEFAULT
100
AcDbLine
 10
12.10727199999999
 20
0.8420260000000042
 30
0.0
 11
12.10727199999999
 21
1.528176000000002
 31
0.0
  0
SPLINE
  5
18B
330
1F
100
AcDbEntity
  8
DEFAULT
100
AcDbSpline
210
0.0
220
0.0
230
1.0
 70
     8
 71
     3
 72
    14
 73
    10
 74
     0
 42
0.0000000001
 43
0.0000000001
 40
0.0
 40
0.0
 40
0.0
 40
0.0
 40
1.0
 40
2.0
 40
3.0
 40
4.0
 40
5.0
 40
6.0
 40
7.0
 40
7.0
 40
7.0
 40
7.0
 10
1.205164883484997
 20
3.251948988540008
 30
0.0
 10
1.681030678483779
 20
3.413754867869642
 30
0.0
 10
2.658512531966522
 20
3.673545006732397
 30
0.0
 10
4.11406716333218
 20
4.089421336348039
 30
0.0
 10
5.573166011950121
 20
4.497550052257097
 30
0.0
 10
7.032354280843748
 20
4.897675052305331
 30
0.0
 10
8.491969144359501
 20
5.32201003149639
 30
0.0
 10
9.947900245895141
 20
5.664125288711944
 30
0.0
 10
10.94208962689757
 20
6.044233048359402
 30
0.0
 10
11.41149235896
 20
5.88586085499
 30
0.0
  0
ARC
  5
18C
330
1F
100
AcDbEntity
  8
DEFAULT
100
AcDbCircle
 10
1.525478779710378
 20
2.888479601164994
 30
0.0
 40
0.4844698005798208
100
AcDbArc
 50
131.3886915989384
 51
194.5784441514535
  0
LINE
  5
18D
330
1F
100
AcDbEntity
  8
DEFAULT
100
AcDbLine
 10
9.075401999999997
 20
13.61535500000001
 30
0.0
 11
9.075401999999997
 21
15.093577
 31
0.0
  0
LINE
  5
18E
330
1F
100
AcDbEntity
  8
DEFAULT
100
AcDbLine
 10
9.456126000000012
 20
13.634005
 30
0.0
 11
9.479843999999986
 21
13.42765799999999
 31
0.0
  0
LINE
  5
18F
330
1F
100
AcDbEntity
  8
DEFAULT
100
AcDbLine
 10
12.082391
 20
1.510404000000008
 30
0.0
 11
12.082391
 21
0.0590609999999998
 31
0.0
  0
LINE
  5
190
330
1F
100
AcDbEntity
  8
DEFAULT
100
AcDbLine
 10
11.59065799999999
 20
4.166141999999994
 30
0.0
 11
11.59065799999999
 21
2.557811999999998
 31
0.0
  0
SPLINE
  5
191
330
1F
100
AcDbEntity
  8
DEFAULT
100
AcDbSpline
210
0.0
220
0.0
230
1.0
 70
     8
 71
     3
 72
    19
 73
    15
 74
     0
 42
0.0000000001
 43
0.0000000001
 40
0.0
 40
0.0
 40
0.0
 40
0.0
 40
0.1235919666214
 40
0.2451043183287
 40
0.3625079393068
 40
0.4738760400769
 40
0.5774394841606
 40
0.6716499905291
 40
0.7552606378014
 40
0.8274447239784
 40
0.8880009336909
 40
0.937747797675
 40
0.9792454826625
 40
1.0
 40
1.0
 40
1.0
 40
1.0
 10
12.46664347264002
 20
12.33299688516
 30
0.0
 10
12.52026436416
 20
12.33299688516
 30
0.0
 10
12.62661791654
 20
12.33076782654
 30
0.0
 10
12.78362303511
 20
12.32077308052
 30
0.0
 10
12.93475869843999
 20
12.30432864715
 30
0.0
 10
13.07722953146001
 20
12.28175091920001
 30
0.0
 10
13.208417973
 20
12.25347422501
 30
0.0
 10
13.32593809113999
 20
12.22004220709
 30
0.0
 10
13.42770017773
 20
12.18208443348
 30
0.0
 10
13.51198978390002
 20
12.14028657017001
 30
0.0
 10
13.57753924622
 20
12.09522605562
 30
0.0
 10
13.62351890953002
 20
12.04716685055
 30
0.0
 10
13.64515556075
 20
12.00228729551999
 30
0.0
 10
13.64779661881002
 20
11.97497483116
 30
0.0
 10
13.64763395220999
 20
11.96589126526
 30
0.0
  0
LINE
  5
192
330
1F
100
AcDbEntity
  8
DEFAULT
100
AcDbLine
 10
23.38653623549666
 20
2.699549020605588
 30
0.0
 11
23.40210200000001
 21
2.716536236396422
 31
0.0
  0
ARC
  5
193
330
1F
100
AcDbEntity
  8
DEFAULT
100
AcDbCircle
 10
23.21476599999999
 20
0.1249999999999933
 30
0.0
 40
0.1249999999999933
100
AcDbArc
 50
179.999999999997
 51
270.0000000000016
  0
LINE
  5
194
330
1F
100
AcDbEntity
  8
DEFAULT
100
AcDbLine
 10
19.19709343784999
 20
1.603564519589995
 30
0.0
 11
19.07837851625001
 21
1.814273533049999
 31
0.0
  0
LINE
  5
195
330
1F
100
AcDbEntity
  8
DEFAULT
100
AcDbLine
 10
10.66289700000002
 20
12.561849
 30
0.0
 11
14.270388
 21
12.561849
 31
0.0
  0
LINE
  5
196
330
1F
100
AcDbEntity
  8
DEFAULT
100
AcDbLine
 10
16.00552100000002
 20
13.834828
 30
0.0
 11
20.31136000000001
 21
13.83440499999999
 31
0.0
  0
LINE
  5
197
330
1F
100
AcDbEntity
  8
DEFAULT
100
AcDbLine
 10
4.552033999999992
 20
13.471692
 30
0.0
 11
4.752012000000008
 21
13.47177499999999
 31
0.0
  0
LINE
  5
198
330
1F
100
AcDbEntity
  8
DEFAULT
100
AcDbLine
 10
1.546750000000003
 20
2.699549000000005
 30
0.0
 11
1.499707000000001
 21
2.161844000000002
 31
0.0
  0
LINE
  5
199
330
1F
100
AcDbEntity
  8
DEFAULT
100
AcDbLine
 10
4.849578000000008
 20
0.0
 30
0.0
 11
4.433626000000004
 21
0.0
 31
0.0
  0
SPLINE
  5
19A
330
1F
100
AcDbEntity
  8
DEFAULT
100
AcDbSpline
210
0.0
220
0.0
230
1.0
 70
     8
 71
     3
 72
    20
 73
    16
 74
     0
 42
0.0000000001
 43
0.0000000001
 40
0.0
 40
0.0
 40
0.0
 40
0.0
 40
1.0
 40
2.0
 40
3.0
 40
4.0
 40
5.0
 40
6.0
 40
7.0
 40
8.0
 40
9.0
 40
10.0
 40
11.0
 40
12.0
 40
13.0
 40
13.0
 40
13.0
 40
13.0
 10
58.88220488683355
 20
3.698283000000004
 30
0.0
 10
58.58585776301379
 20
3.778829060580065
 30
0.0
 10
57.9931550051782
 20
3.939890325405358
 30
0.0
 10
57.1041019771494
 20
4.181487676130232
 30
0.0
 10
56.21504870513884
 20
4.423081778411131
 30
0.0
 10
55.32599692538398
 20
4.664682979380657
 30
0.0
 10
54.43693842246226
 20
4.906259305275412
 30
0.0
 10
53.54790563781707
 20
5.147927946402447
 30
0.0
 10
52.65887024959787
 20
5.389595657319859
 30
0.0
 10
51.76982991615793
 20
5.631216415829869
 30
0.0
 10
50.88081273647686
 20
5.873025705065359
 30
0.0
 10
49.99163268360431
 20
6.113850729153583
 30
0.0
 10
49.10279356111698
 20
6.357371358128148
 30
0.0
 10
48.21258884587724
 20
6.590480270515528
 30
0.0
 10
47.61063026880063
 20
6.726288777104699
 30
0.0
 10
47.30187202233355
 20
6.722690448340003
 30
0.0
  0
LINE
  5
19B
330
1F
100
AcDbEntity
  8
DEFAULT
100
AcDbLine
 10
46.53417788683356
 20
4.166141999999994
 30
0.0
 11
46.72448288683356
 21
4.166141999999994
 31
0.0
  0
LINE
  5
19C
330
1F
100
AcDbEntity
  8
DEFAULT
100
AcDbLine
 10
4.620960999999994
 20
2.716536236396422
 30
0.0
 11
4.605395235496673
 21
2.699549020605588
 31
0.0
  0
LINE
  5
19D
330
1F
100
AcDbEntity
  8
DEFAULT
100
AcDbLine
 10
11.79471800000002
 20
2.716536236396422
 30
0.0
 11
11.77915223549667
 21
2.699549020605588
 31
0.0
  0
LINE
  5
19E
330
1F
100
AcDbEntity
  8
DEFAULT
100
AcDbLine
 10
4.552033999999992
 20
13.471481
 30
0.0
 11
4.552109000000002
 21
13.47148199999999
 31
0.0
  0
LINE
  5
19F
330
1F
100
AcDbEntity
  8
DEFAULT
100
AcDbLine
 10
4.849578000000008
 20
0.0
 30
0.0
 11
4.908633000000009
 21
0.0590550000000007
 31
0.0
  0
LINE
  5
1A0
330
1F
100
AcDbEntity
  8
DEFAULT
100
AcDbLine
 10
1.546749764503346
 20
2.699549020605588
 30
0.0
 11
1.531183999999996
 21
2.716536236396422
 31
0.0
  0
LINE
  5
1A1
330
1F
100
AcDbEntity
  8
DEFAULT
100
AcDbLine
 10
3.771951000000001
 20
13.246916
 30
0.0
 11
3.771963999999997
 21
13.164402
 31
0.0
  0
LINE
  5
1A2
330
1F
100
AcDbEntity
  8
DEFAULT
100
AcDbLine
 10
36.19047988683356
 20
2.766536000000002
 30
0.0
 11
36.19047988683356
 21
2.716536000000005
 31
0.0
  0
LINE
  5
1A3
330
1F
100
AcDbEntity
  8
DEFAULT
100
AcDbLine
 10
9.15955600000001
 20
13.83485
 30
0.0
 11
9.075401999999997
 21
13.83484199999999
 31
0.0
  0
LINE
  5
1A4
330
1F
100
AcDbEntity
  8
DEFAULT
100
AcDbLine
 10
4.908633000000009
 20
1.510404000000008
 30
0.0
 11
4.908633000000009
 21
0.0590609999999998
 31
0.0
  0
ARC
  5
1A5
330
1F
100
AcDbEntity
  8
DEFAULT
100
AcDbCircle
 10
6.152144999999991
 20
0.1249999999999981
 30
0.0
 40
0.1249999999999981
100
AcDbArc
 50
269.9999999999996
 51
0.0000000000008842
  0
ARC
  5
1A6
330
1F
100
AcDbEntity
  8
DEFAULT
100
AcDbCircle
 10
24.93328600000001
 20
0.1250000000000047
 30
0.0
 40
0.1250000000000036
100
AcDbArc
 50
270.0000000000016
 51
359.9999999999978
  0
LINE
  5
1A7
330
1F
100
AcDbEntity
  8
DEFAULT
100
AcDbLine
 10
5.652255999999994
 20
0.8420260000000042
 30
0.0
 11
5.652255999999994
 21
1.528176000000002
 31
0.0
  0
LINE
  5
1A8
330
1F
100
AcDbEntity
  8
DEFAULT
100
AcDbLine
 10
20.31232500000002
 20
2.716536236396422
 30
0.0
 11
20.32789076450334
 21
2.699549020605588
 31
0.0
  0
LINE
  5
1A9
330
1F
100
AcDbEntity
  8
DEFAULT
100
AcDbLine
 10
45.42053388683355
 20
4.166141999999994
 30
0.0
 11
46.53417788683356
 21
4.166141999999994
 31
0.0
  0
LINE
  5
1AA
330
1F
100
AcDbEntity
  8
DEFAULT
100
AcDbLine
 10
20.083708
 20
0.0
 30
0.0
 11
20.024653
 21
0.0590550000000007
 31
0.0
  0
LINE
  5
1AB
330
1F
100
AcDbEntity
  8
DEFAULT
100
AcDbLine
 10
24.51733329613
 20
1.603564519589995
 30
0.0
 11
24.45827817802001
 21
1.510403866540003
 31
0.0
  0
LINE
  5
1AC
330
1F
100
AcDbEntity
  8
DEFAULT
100
AcDbLine
 10
1.21862999999999
 20
0.8420260000000042
 30
0.0
 11
1.21862999999999
 21
1.528176000000002
 31
0.0
  0
CIRCLE
  5
1AD
330
1F
100
AcDbEntity
  8
DEFAULT
100
AcDbCircle
 10
49.12514688683356
 20
1.279527999999999
 30
0.0
 40
1.0625
  0
ARC
  5
1AE
330
1F
100
AcDbEntity
  8
DEFAULT
100
AcDbCircle
 10
1.318052814105724
 20
65.32726968291259
 30
0.0
 40
0.5503775068893452
100
AcDbArc
 50
87.52312966869813
 51
178.5611312488766
  0
ARC
  5
1AF
330
1F
100
AcDbEntity
  8
DEFAULT
100
AcDbCircle
 10
1262.628097562436
 20
31.68997599196558
 30
0.0
 40
1262.308870580699
100
AcDbArc
 50
178.4724061692199
 51
179.0865617904722
  0
ARC
  5
1B0
330
1F
100
AcDbEntity
  8
DEFAULT
100
AcDbCircle
 10
0.7750891976539463
 20
51.75171025369358
 30
0.0
 40
0.3018389427555273
100
AcDbArc
 50
168.1897304799066
 51
254.0606855146609
  0
LINE
  5
1B1
330
1F
100
AcDbEntity
  8
DEFAULT
100
AcDbLine
 10
1.945365968055256
 20
51.40582958218656
 30
0.0
 11
0.6921984680552384
 21
51.46147608218656
 31
0.0
  0
ARC
  5
1B2
330
1F
100
AcDbEntity
  8
DEFAULT
100
AcDbCircle
 10
1.933853072766552
 20
51.62648596626141
 30
0.0
 40
0.2209565264727817
100
AcDbArc
 50
272.986737541295
 51
357.2544643346031
  0
LINE
  5
1B3
330
1F
100
AcDbEntity
  8
DEFAULT
100
AcDbLine
 10
2.766438201682263
 20
65.51423427577154
 30
0.0
 11
2.154555968055234
 21
51.61590208218655
 31
0.0
  0
ARC
  5
1B4
330
1F
100
AcDbEntity
  8
DEFAULT
100
AcDbCircle
 10
2.46653116604129
 20
65.52722629567714
 30
0.0
 40
0.3001883119113387
100
AcDbArc
 50
357.5194887256473
 51
87.44750323276055
  0
LINE
  5
1B5
330
1F
100
AcDbEntity
  8
DEFAULT
100
AcDbLine
 10
1.34183797201726
 20
65.87713299897655
 30
0.0
 11
2.479899973954247
 21
65.82711677165656
 31
0.0
  0
LINE
  5
1B6
330
1F
100
AcDbEntity
  8
DEFAULT
100
AcDbLine
 10
45.72769488683355
 20
10.524804
 30
0.0
 11
45.72769488683355
 21
9.619292000000002
 31
0.0
  0
LINE
  5
1B7
330
1F
100
AcDbEntity
  8
DEFAULT
100
AcDbLine
 10
44.74891488683355
 20
15.364598
 30
0.0
 11
39.04560672397291
 21
14.98530483319948
 31
0.0
  0
SPLINE
  5
1B8
330
1F
100
AcDbEntity
  8
DEFAULT
100
AcDbSpline
210
0.0
220
0.0
230
1.0
 70
     8
 71
     3
 72
    12
 73
     8
 74
     0
 42
0.0000000001
 43
0.0000000001
 40
-5.0
 40
-5.0
 40
-5.0
 40
-5.0
 40
-4.0
 40
-3.0
 40
-2.0
 40
-1.0
 40
0.0
 40
0.0
 40
0.0
 40
0.0
 10
40.71025349579355
 20
16.21659531658
 30
0.0
 10
41.68814852520401
 20
16.29997818198324
 30
0.0
 10
43.64423774604111
 20
16.46367767229695
 30
0.0
 10
46.58137238834493
 20
16.67054227208725
 30
0.0
 10
49.52399609990107
 20
16.79203929954488
 30
0.0
 10
52.46936463835094
 20
16.7402746310355
 30
0.0
 10
54.42123442679338
 20
16.4511940174895
 30
0.0
 10
55.35253338102355
 20
16.13326938637
 30
0.0
  0
ARC
  5
1B9
330
1F
100
AcDbEntity
  8
DEFAULT
100
AcDbCircle
 10
40.75812431697668
 20
14.58955119212263
 30
0.0
 40
1.627748198724847
100
AcDbArc
 50
91.68526775029427
 51
119.1243760036963
  0
LINE
  5
1BA
330
1F
100
AcDbEntity
  8
DEFAULT
100
AcDbLine
 10
39.14286302081655
 20
15.11891556133698
 30
0.0
 11
39.96588775171355
 21
16.01149543263
 31
0.0
  0
CIRCLE
  5
1BB
330
1F
100
AcDbEntity
  8
DEFAULT
100
AcDbCircle
 10
35.47984988683355
 20
1.279527999999999
 30
0.0
 40
1.0625
  0
LINE
  5
1BC
330
1F
100
AcDbEntity
  8
DEFAULT
100
AcDbLine
 10
21.161304
 20
13.554242
 30
0.0
 11
20.61128500000001
 21
13.554242
 31
0.0
  0
LINE
  5
1BD
330
1F
100
AcDbEntity
  8
DEFAULT
100
AcDbLine
 10
4.652278199790004
 20
2.163622138060006
 30
0.0
 11
4.730863467330011
 21
1.814273533049999
 31
0.0
  0
ARC
  5
1BE
330
1F
100
AcDbEntity
  8
DEFAULT
100
AcDbCircle
 10
23.61523315394955
 20
65.3272696829126
 30
0.0
 40
0.5503775068893294
100
AcDbArc
 50
1.438868751121925
 51
92.47687033130353
  0
ARC
  5
1BF
330
1F
100
AcDbEntity
  8
DEFAULT
100
AcDbCircle
 10
-1237.69481159401
 20
31.6899759919748
 30
0.0
 40
1262.308870580328
100
AcDbArc
 50
0.9134382095276441
 51
1.527593830780115
  0
ARC
  5
1C0
330
1F
100
AcDbEntity
  8
DEFAULT
100
AcDbCircle
 10
24.15819677040134
 20
51.75171025369356
 30
0.0
 40
0.3018389427554964
100
AcDbArc
 50
285.9393144853333
 51
11.81026952009752
  0
LINE
  5
1C1
330
1F
100
AcDbEntity
  8
DEFAULT
100
AcDbLine
 10
22.98792
 20
51.40582958218656
 30
0.0
 11
24.24108750000001
 21
51.46147608218656
 31
0.0
  0
ARC
  5
1C2
330
1F
100
AcDbEntity
  8
DEFAULT
100
AcDbCircle
 10
22.9994328952887
 20
51.62648596626143
 30
0.0
 40
0.2209565264728071
100
AcDbArc
 50
182.7455356654039
 51
267.0132624587065
  0
LINE
  5
1C3
330
1F
100
AcDbEntity
  8
DEFAULT
100
AcDbLine
 10
22.166847766373
 20
65.51423427577154
 30
0.0
 11
22.77873
 21
51.61590208218655
 31
0.0
  0
ARC
  5
1C4
330
1F
100
AcDbEntity
  8
DEFAULT
100
AcDbCircle
 10
22.46675480201398
 20
65.52722629567712
 30
0.0
 40
0.3001883119113533
100
AcDbArc
 50
92.55249676724095
 51
182.4805112743499
  0
LINE
  5
1C5
330
1F
100
AcDbEntity
  8
DEFAULT
100
AcDbLine
 10
23.591447996038
 20
65.87713299897655
 30
0.0
 11
22.45338599410101
 21
65.82711677165656
 31
0.0
  0
LINE
  5
1C6
330
1F
100
AcDbEntity
  8
DEFAULT
100
AcDbLine
 10
12.25207600000002
 20
2.766536000000002
 30
0.0
 11
12.25207600000002
 21
2.716536000000005
 31
0.0
  0
SPLINE
  5
1C7
330
1F
100
AcDbEntity
  8
DEFAULT
100
AcDbSpline
210
0.0
220
0.0
230
1.0
 70
     8
 71
     3
 72
    19
 73
    15
 74
     0
 42
0.0000000001
 43
0.0000000001
 40
-12.0
 40
-12.0
 40
-12.0
 40
-12.0
 40
-11.0
 40
-10.0
 40
-9.0
 40
-8.0
 40
-7.0
 40
-6.0
 40
-5.0
 40
-4.0
 40
-3.0
 40
-2.0
 40
-1.0
 40
0.0
 40
0.0
 40
0.0
 40
0.0
 10
22.62862125991501
 20
18.97124582819
 30
0.0
 10
22.34539158994826
 20
18.97043343682859
 30
0.0
 10
21.77889581479207
 20
18.96251081591258
 30
0.0
 10
20.93014508981824
 20
18.91911390561205
 30
0.0
 10
20.08356175569773
 20
18.84513789427253
 30
0.0
 10
19.2391804412276
 20
18.74981002159399
 30
0.0
 10
18.39609651208704
 20
18.64390869743002
 30
0.0
 10
17.55297546599189
 20
18.53825471139147
 30
0.0
 10
16.70860841408506
 20
18.44295865778832
 30
0.0
 10
15.86256559498986
 20
18.36344223226773
 30
0.0
 10
15.01471622610873
 20
18.30632882355887
 30
0.0
 10
14.16585162792686
 20
18.26742393890574
 30
0.0
 10
13.31634387858577
 20
18.24718122036218
 30
0.0
 10
12.74988037813532
 20
18.24236268146365
 30
0.0
 10
12.466643
 20
18.242289
 30
0.0
  0
SPLINE
  5
1C8
330
1F
100
AcDbEntity
  8
DEFAULT
100
AcDbSpline
210
0.0
220
0.0
230
1.0
 70
     8
 71
     3
 72
    19
 73
    15
 74
     0
 42
0.0000000001
 43
0.0000000001
 40
0.0
 40
0.0
 40
0.0
 40
0.0
 40
1.0
 40
2.0
 40
3.0
 40
4.0
 40
5.0
 40
6.0
 40
7.0
 40
8.0
 40
9.0
 40
10.0
 40
11.0
 40
12.0
 40
12.0
 40
12.0
 40
12.0
 10
22.81868900000001
 20
16.133376
 30
0.0
 10
22.81989773611065
 20
16.21321062021278
 30
0.0
 10
22.82265358281796
 20
16.37287389933492
 30
0.0
 10
22.82551844041285
 20
16.61239065323156
 30
0.0
 10
22.82479071466526
 20
16.85192699782272
 30
0.0
 10
22.82139814937881
 20
17.0914374832649
 30
0.0
 10
22.81533669649571
 20
17.33089256367684
 30
0.0
 10
22.8074167752564
 20
17.57030247404123
 30
0.0
 10
22.79783555645463
 20
17.80961071152039
 30
0.0
 10
22.78681000601813
 20
18.04900926666603
 30
0.0
 10
22.77310474618827
 20
18.28770820964375
 30
0.0
 10
22.75642803866555
 20
18.52831550629372
 30
0.0
 10
22.72389059930839
 20
18.75987529725518
 30
0.0
 10
22.70083745317839
 20
18.93220506665516
 30
0.0
 10
22.62862125991501
 20
18.97124582819
 30
0.0
  0
LINE
  5
1C9
330
1F
100
AcDbEntity
  8
DEFAULT
100
AcDbLine
 10
4.552131000000003
 20
13.246482
 30
0.0
 11
3.207211999999998
 21
13.24606899999999
 31
0.0
  0
LINE
  5
1CA
330
1F
100
AcDbEntity
  8
DEFAULT
100
AcDbLine
 10
1.718519999999984
 20
0.0
 30
0.0
 11
1.302566999999982
 21
0.0
 31
0.0
  0
LINE
  5
1CB
330
1F
100
AcDbEntity
  8
DEFAULT
100
AcDbLine
 10
46.83005688683355
 20
10.524804
 30
0.0
 11
46.83005688683355
 21
9.619292000000002
 31
0.0
  0
SPLINE
  5
1CC
330
1F
100
AcDbEntity
  8
DEFAULT
100
AcDbSpline
210
0.0
220
0.0
230
1.0
 70
     8
 71
     3
 72
    19
 73
    15
 74
     0
 42
0.0000000001
 43
0.0000000001
 40
0.0
 40
0.0
 40
0.0
 40
0.0
 40
1.0
 40
2.0
 40
3.0
 40
4.0
 40
5.0
 40
6.0
 40
7.0
 40
8.0
 40
9.0
 40
10.0
 40
11.0
 40
12.0
 40
12.0
 40
12.0
 40
12.0
 10
55.37029869128355
 20
18.4074197918
 30
0.0
 10
55.44836559179998
 20
18.3692729693116
 30
0.0
 10
55.60085013135588
 20
18.28519728318415
 30
0.0
 10
55.81108615441322
 20
18.12989060246021
 30
0.0
 10
55.99601204657887
 20
17.94520393987351
 30
0.0
 10
56.15508023387191
 20
17.73779968765278
 30
0.0
 10
56.27847151379534
 20
17.50705362523674
 30
0.0
 10
56.34745546767674
 20
17.25244063682831
 30
0.0
 10
56.31785375233899
 20
16.98750565976432
 30
0.0
 10
56.18247329370216
 20
16.75977982166903
 30
0.0
 10
55.99971365594105
 20
16.57267326689903
 30
0.0
 10
55.78992487801324
 20
16.41710251071116
 30
0.0
 10
55.56989128036044
 20
16.27723745725847
 30
0.0
 10
55.42526010462932
 20
16.18083765013914
 30
0.0
 10
55.35253288683356
 20
16.133269
 30
0.0
  0
LINE
  5
1CD
330
1F
100
AcDbEntity
  8
DEFAULT
100
AcDbLine
 10
45.13488488683356
 20
4.398972999999998
 30
0.0
 11
45.14072888683356
 21
4.166141999999994
 31
0.0
  0
ARC
  5
1CE
330
1F
100
AcDbEntity
  8
DEFAULT
100
AcDbCircle
 10
-0.0000000000000098
 20
0.1249999999999902
 30
0.0
 40
0.1249999999999902
100
AcDbArc
 50
179.9999999999955
 51
270.0000000000045
  0
ARC
  5
1CF
330
1F
100
AcDbEntity
  8
DEFAULT
100
AcDbCircle
 10
4.433626
 20
0.1249999999999962
 30
0.0
 40
0.1249999999999964
100
AcDbArc
 50
179.9999999999983
 51
270.0000000000016
  0
LINE
  5
1D0
330
1F
100
AcDbEntity
  8
DEFAULT
100
AcDbLine
 10
1.243511999999981
 20
0.0590609999999998
 30
0.0
 11
1.243511999999981
 21
1.510404000000008
 31
0.0
  0
LINE
  5
1D1
330
1F
100
AcDbEntity
  8
DEFAULT
100
AcDbLine
 10
2.592108999999994
 20
13.47129
 30
0.0
 11
2.592130999999995
 21
13.24629
 31
0.0
  0
ARC
  5
1D2
330
1F
100
AcDbEntity
  8
DEFAULT
100
AcDbCircle
 10
1.718519999999994
 20
0.1249999999999894
 30
0.0
 40
0.1249999999999894
100
AcDbArc
 50
269.9999999999952
 51
0.0000000000048535
  0
LINE
  5
1D3
330
1F
100
AcDbEntity
  8
DEFAULT
100
AcDbLine
 10
47.64853788683355
 20
11.20500800000001
 30
0.0
 11
51.82446488683355
 21
12.561849
 31
0.0
  0
LINE
  5
1D4
330
1F
100
AcDbEntity
  8
DEFAULT
100
AcDbLine
 10
12.82601300000002
 20
0.8420279999999991
 30
0.0
 11
12.10727199999999
 21
0.8420279999999991
 31
0.0
  0
LINE
  5
1D5
330
1F
100
AcDbEntity
  8
DEFAULT
100
AcDbLine
 10
20.49966000000001
 20
2.559055000000001
 30
0.0
 11
20.49966000000001
 21
0.0
 31
0.0
  0
LINE
  5
1D6
330
1F
100
AcDbEntity
  8
DEFAULT
100
AcDbLine
 10
6.15214499999999
 20
0.0
 30
0.0
 11
5.736192999999986
 21
0.0
 31
0.0
  0
ARC
  5
1D7
330
1F
100
AcDbEntity
  8
DEFAULT
100
AcDbCircle
 10
51.28653143940345
 20
26.30847444940569
 30
0.0
 40
1.906553093505924
100
AcDbArc
 50
347.4990662702943
 51
89.82847939609978
  0
LINE
  5
1D8
330
1F
100
AcDbEntity
  8
DEFAULT
100
AcDbLine
 10
51.18457088683355
 20
17.217771
 30
0.0
 11
53.14788488683355
 21
25.8957905
 31
0.0
  0
LINE
  5
1D9
330
1F
100
AcDbEntity
  8
DEFAULT
100
AcDbLine
 10
50.96054188683355
 20
17.067674
 30
0.0
 11
51.18457088683355
 21
17.217771
 31
0.0
  0
LINE
  5
1DA
330
1F
100
AcDbEntity
  8
DEFAULT
100
AcDbLine
 10
50.63531488683354
 20
17.13638400000001
 30
0.0
 11
50.96054188683355
 21
17.067674
 31
0.0
  0
SPLINE
  5
1DB
330
1F
100
AcDbEntity
  8
DEFAULT
100
AcDbSpline
210
0.0
220
0.0
230
1.0
 70
     8
 71
     3
 72
    20
 73
    16
 74
     0
 42
0.0000000001
 43
0.0000000001
 40
0.0
 40
0.0
 40
0.0
 40
0.0
 40
0.9999534735080793
 40
1.999957350715739
 40
2.9999612279234
 40
3.999965105131059
 40
4.99996898233872
 40
5.999972859546379
 40
6.999976736754039
 40
7.9999806139617
 40
8.99998449116936
 40
9.99998836837702
 40
10.99999224558468
 40
11.99999612279234
 40
13.0
 40
13.0
 40
13.0
 40
13.0
 10
50.79993838683355
 20
18.6362855
 30
0.0
 10
50.79033310988962
 20
18.59381631902447
 30
0.0
 10
50.76155629742557
 20
18.51119891645617
 30
0.0
 10
50.69712117590949
 20
18.39721314914262
 30
0.0
 10
50.62128660120592
 20
18.29084927883184
 30
0.0
 10
50.54292728439344
 20
18.18637786489005
 30
0.0
 10
50.46861850403494
 20
18.07898669393994
 30
0.0
 10
50.40580742008979
 20
17.96385195263804
 30
0.0
 10
50.37305965279856
 20
17.83626928305638
 30
0.0
 10
50.37556641886393
 20
17.70442555286415
 30
0.0
 10
50.41099401554047
 20
17.57828435024759
 30
0.0
 10
50.4426674634754
 20
17.45152454650665
 30
0.0
 10
50.47350348685876
 20
17.32533141737713
 30
0.0
 10
50.51481696491066
 20
17.19835413353093
 30
0.0
 10
50.59421010504308
 20
17.14900198055263
 30
0.0
 10
50.63531488683354
 20
17.13638400000001
 30
0.0
  0
LINE
  5
1DC
330
1F
100
AcDbEntity
  8
DEFAULT
100
AcDbLine
 10
52.46704888683357
 20
26.044468
 30
0.0
 11
50.79993838683355
 21
18.6362855
 31
0.0
  0
ARC
  5
1DD
330
1F
100
AcDbEntity
  8
DEFAULT
100
AcDbCircle
 10
51.27621901608683
 20
26.30998958583053
 30
0.0
 40
1.220072741112048
100
AcDbArc
 50
347.430267354558
 51
89.88809804603554
  0
LINE
  5
1DE
330
1F
100
AcDbEntity
  8
DEFAULT
100
AcDbLine
 10
40.67651388683355
 20
27.528393
 30
0.0
 11
51.27860188683356
 21
27.53006
 31
0.0
  0
LINE
  5
1DF
330
1F
100
AcDbEntity
  8
DEFAULT
100
AcDbLine
 10
49.83577688683356
 20
2.766536000000002
 30
0.0
 11
49.83577688683356
 21
2.716536000000005
 31
0.0
  0
LINE
  5
1E0
330
1F
100
AcDbEntity
  8
DEFAULT
100
AcDbLine
 10
47.15486088683355
 20
4.166141999999994
 30
0.0
 11
47.15486088683355
 21
2.418503999999999
 31
0.0
  0
LINE
  5
1E1
330
1F
100
AcDbEntity
  8
DEFAULT
100
AcDbLine
 10
45.29719288683356
 20
9.516961999999992
 30
0.0
 11
45.36732488683356
 21
6.722588999999999
 31
0.0
  0
ARC
  5
1E2
330
1F
100
AcDbEntity
  8
DEFAULT
100
AcDbCircle
 10
24.07402620952
 20
2.050758743568575
 30
0.0
 40
0.6342236987375527
100
AcDbArc
 50
235.4844523428101
 51
304.5155476571907
  0
LINE
  5
1E3
330
1F
100
AcDbEntity
  8
DEFAULT
100
AcDbLine
 10
3.772019999999998
 20
13.164242
 30
0.0
 11
3.771963999999997
 21
13.164402
 31
0.0
  0
LINE
  5
1E4
330
1F
100
AcDbEntity
  8
DEFAULT
100
AcDbLine
 10
8.927764999999994
 20
13.61535500000001
 30
0.0
 11
8.927764999999994
 21
15.10230700000001
 31
0.0
  0
LINE
  5
1E5
330
1F
100
AcDbEntity
  8
DEFAULT
100
AcDbLine
 10
53.03201488683355
 20
13.217547
 30
0.0
 11
51.82446488683355
 21
12.561849
 31
0.0
  0
LINE
  5
1E6
330
1F
100
AcDbEntity
  8
DEFAULT
100
AcDbLine
 10
11.77197240618668
 20
46.22500929516401
 30
0.0
 11
11.771669
 21
46.24725908218656
 31
0.0
  0
LINE
  5
1E7
330
1F
100
AcDbEntity
  8
DEFAULT
100
AcDbLine
 10
11.75834258287438
 20
46.08672608218656
 30
0.0
 11
11.77197240618668
 21
46.22500929516401
 31
0.0
  0
LINE
  5
1E8
330
1F
100
AcDbEntity
  8
DEFAULT
100
AcDbLine
 10
48.26017588683355
 20
11.403741
 30
0.0
 11
47.38123788683356
 21
10.524804
 31
0.0
  0
LINE
  5
1E9
330
1F
100
AcDbEntity
  8
DEFAULT
100
AcDbLine
 10
53.50791888683355
 20
13.65912899999999
 30
0.0
 11
52.65628488683356
 21
13.447124
 31
0.0
  0
LINE
  5
1EA
330
1F
100
AcDbEntity
  8
DEFAULT
100
AcDbLine
 10
12.90995100000001
 20
-0.0000004999999987
 30
0.0
 11
12.85089550000001
 21
0.0590550000000007
 31
0.0
  0
LINE
  5
1EB
330
1F
100
AcDbEntity
  8
DEFAULT
100
AcDbLine
 10
12.46664347264002
 20
9.577842257100002
 30
0.0
 11
13.14163208449
 21
9.685562854739999
 31
0.0
  0
ARC
  5
1EC
330
1F
100
AcDbEntity
  8
DEFAULT
100
AcDbCircle
 10
13.06621690724447
 20
10.09926686709706
 30
0.0
 40
0.4205216471837316
100
AcDbArc
 50
280.3311598292034
 51
339.2140606617485
  0
LINE
  5
1ED
330
1F
100
AcDbEntity
  8
DEFAULT
100
AcDbLine
 10
13.45936797502
 20
9.950033179019997
 30
0.0
 11
13.64772578942001
 21
11.9658897735
 31
0.0
  0
LINE
  5
1EE
330
1F
100
AcDbEntity
  8
DEFAULT
100
AcDbLine
 10
47.16074188683355
 20
9.619292000000002
 30
0.0
 11
45.39701088683356
 21
9.619292000000002
 31
0.0
  0
LINE
  5
1EF
330
1F
100
AcDbEntity
  8
DEFAULT
100
AcDbLine
 10
45.96224588683356
 20
6.722664999999992
 30
0.0
 11
45.96219088683355
 21
6.722663999999995
 31
0.0
  0
LINE
  5
1F0
330
1F
100
AcDbEntity
  8
DEFAULT
100
AcDbLine
 10
45.59813491894356
 20
5.962692806229995
 30
0.0
 11
45.09032123568355
 21
5.88586085499
 31
0.0
  0
LINE
  5
1F1
330
1F
100
AcDbEntity
  8
DEFAULT
100
AcDbLine
 10
45.72371343988355
 20
5.956638239589992
 30
0.0
 11
45.59813491894356
 21
5.962692806229995
 31
0.0
  0
LINE
  5
1F2
330
1F
100
AcDbEntity
  8
DEFAULT
100
AcDbLine
 10
45.96625228524356
 20
5.88586085499
 30
0.0
 11
45.72371343988355
 21
5.956638239589992
 31
0.0
  0
LINE
  5
1F3
330
1F
100
AcDbEntity
  8
DEFAULT
100
AcDbLine
 10
5.652255999999994
 20
0.8420279999999991
 30
0.0
 11
4.933515
 21
0.8420279999999991
 31
0.0
  0
LINE
  5
1F4
330
1F
100
AcDbEntity
  8
DEFAULT
100
AcDbLine
 10
12.023335
 20
0.0
 30
0.0
 11
11.607383
 21
0.0
 31
0.0
  0
LINE
  5
1F5
330
1F
100
AcDbEntity
  8
DEFAULT
100
AcDbLine
 10
5.980376000000007
 20
2.699549000000005
 30
0.0
 11
5.933333000000005
 21
2.161844000000002
 31
0.0
  0
LINE
  5
1F6
330
1F
100
AcDbEntity
  8
DEFAULT
100
AcDbLine
 10
11.76908900000001
 20
46.33760708218657
 30
0.0
 11
11.71518499999999
 21
47.81322608218656
 31
0.0
  0
LINE
  5
1F7
330
1F
100
AcDbEntity
  8
DEFAULT
100
AcDbLine
 10
50.76440688683356
 20
13.555177
 30
0.0
 11
49.89815088683355
 21
13.55541699999999
 31
0.0
  0
LINE
  5
1F8
330
1F
100
AcDbEntity
  8
DEFAULT
100
AcDbLine
 10
52.65629188683356
 20
13.472173
 30
0.0
 11
50.02127788683356
 21
13.472934
 31
0.0
  0
LINE
  5
1F9
330
1F
100
AcDbEntity
  8
DEFAULT
100
AcDbLine
 10
0.4159530000000018
 20
56.74734508218658
 30
0.0
 11
0.0
 21
56.74734508218658
 31
0.0
  0
CIRCLE
  5
1FA
330
1F
100
AcDbEntity
  8
DEFAULT
100
AcDbCircle
 10
57.55840388683356
 20
1.279527999999999
 30
0.0
 40
1.154527000000002
  0
LINE
  5
1FB
330
1F
100
AcDbEntity
  8
DEFAULT
100
AcDbLine
 10
52.39882888683356
 20
13.47228299999999
 30
0.0
 11
51.64825888683356
 21
13.65912899999999
 31
0.0
  0
SPLINE
  5
1FC
330
1F
100
AcDbEntity
  8
DEFAULT
100
AcDbSpline
210
0.0
220
0.0
230
1.0
 70
     8
 71
     3
 72
    29
 73
    25
 74
     0
 42
0.0000000001
 43
0.0000000001
 40
0.2003447683664201
 40
0.2003447683664201
 40
0.2003447683664201
 40
0.2003447683664201
 40
1.0
 40
2.0
 40
3.0
 40
4.0
 40
5.0
 40
6.0
 40
7.0
 40
8.0
 40
9.0
 40
10.0
 40
11.0
 40
12.0
 40
13.0
 40
14.0
 40
15.0
 40
16.0
 40
17.0
 40
18.0
 40
19.0
 40
20.0
 40
21.0
 40
22.0
 40
22.0
 40
22.0
 40
22.0
 10
51.57982086584344
 20
18.96481045737787
 30
0.0
 10
51.68096035408507
 20
18.96319076235288
 30
0.0
 10
51.9085676912609
 20
18.95885060358727
 30
0.0
 10
52.26256845433355
 20
18.9485117597603
 30
0.0
 10
52.64168709672761
 20
18.93148028716681
 30
0.0
 10
53.02039424033288
 20
18.90685941666214
 30
0.0
 10
53.39837169471336
 20
18.87267739275039
 30
0.0
 10
53.7751277802621
 20
18.82682881243146
 30
0.0
 10
54.15008120752306
 20
18.76805171725259
 30
0.0
 10
54.52252551869427
 20
18.69457503390441
 30
0.0
 10
54.88988685237817
 20
18.59874122655945
 30
0.0
 10
55.24842746329379
 20
18.47233520073159
 30
0.0
 10
55.58694268006903
 20
18.29931600104243
 30
0.0
 10
55.90542445782619
 20
18.09180577555334
 30
0.0
 10
56.18921801751696
 20
17.83720250167393
 30
0.0
 10
56.40889127566811
 20
17.52439914686774
 30
0.0
 10
56.55881247083398
 20
17.1748241669399
 30
0.0
 10
56.68246292325865
 20
16.81624635487042
 30
0.0
 10
56.78510209237903
 20
16.44941237511681
 30
0.0
 10
56.78944634152379
 20
16.06719463526679
 30
0.0
 10
56.69359561985428
 20
15.69216987525115
 30
0.0
 10
56.44013261462032
 20
15.3990156275634
 30
0.0
 10
56.10617224357345
 20
15.2128777954992
 30
0.0
 10
55.89935365298489
 20
15.06788292902321
 30
0.0
 10
55.79277988683356
 20
14.999566
 30
0.0
  0
SPLINE
  5
1FD
330
1F
100
AcDbEntity
  8
DEFAULT
100
AcDbSpline
210
0.0
220
0.0
230
1.0
 70
     8
 71
     3
 72
    20
 73
    16
 74
     0
 42
0.0000000001
 43
0.0000000001
 40
0.0
 40
0.0
 40
0.0
 40
0.0
 40
1.0
 40
2.0
 40
3.0
 40
4.0
 40
5.0
 40
6.0
 40
7.0
 40
8.0
 40
9.0
 40
10.0
 40
11.0
 40
12.0
 40
13.0
 40
13.0
 40
13.0
 40
13.0
 10
47.61820627290355
 20
6.436770703899995
 30
0.0
 10
47.72714552261425
 20
6.425652169010021
 30
0.0
 10
47.89644988565534
 20
6.287160519388195
 30
0.0
 10
48.09795142236693
 20
6.043643250328643
 30
0.0
 10
48.32591209530665
 20
5.821417532002684
 30
0.0
 10
48.5527354652429
 20
5.599409447653983
 30
0.0
 10
48.78347047096159
 20
5.381084567949998
 30
0.0
 10
49.01298659857
 20
5.161593169052182
 30
0.0
 10
49.24187862386151
 20
4.941421084993536
 30
0.0
 10
49.46974998326439
 20
4.720200621431701
 30
0.0
 10
49.69734576109288
 20
4.498695504518778
 30
0.0
 10
49.92535244916684
 20
4.277613843309084
 30
0.0
 10
50.15418462165354
 20
4.057383693544679
 30
0.0
 10
50.38425568370347
 20
3.838454295979247
 30
0.0
 10
50.53724400792609
 20
3.692077722353005
 30
0.0
 10
50.61537788683356
 20
3.620638999999997
 30
0.0
  0
LINE
  5
1FE
330
1F
100
AcDbEntity
  8
DEFAULT
100
AcDbLine
 10
47.22979388683356
 20
6.722723000000002
 30
0.0
 11
47.27916688683355
 21
6.722718999999998
 31
0.0
  0
LINE
  5
1FF
330
1F
100
AcDbEntity
  8
DEFAULT
100
AcDbLine
 10
37.09253688683356
 20
2.699549000000005
 30
0.0
 11
37.01508488683355
 21
1.814273999999997
 31
0.0
  0
LINE
  5
200
330
1F
100
AcDbEntity
  8
DEFAULT
100
AcDbLine
 10
45.25566788683355
 20
6.722217999999998
 30
0.0
 11
45.25931488683355
 21
6.722296
 31
0.0
  0
LINE
  5
201
330
1F
100
AcDbEntity
  8
DEFAULT
100
AcDbLine
 10
22.1975295
 20
27.550543
 30
0.0
 11
22.3544005
 21
18.969407
 31
0.0
  0
LINE
  5
202
330
1F
100
AcDbEntity
  8
DEFAULT
100
AcDbLine
 10
22.07769498919762
 20
64.25290341019738
 30
0.0
 11
22.23257043849765
 21
64.09811571592738
 31
0.0
  0
LINE
  5
203
330
1F
100
AcDbEntity
  8
DEFAULT
100
AcDbLine
 10
4.816456984027639
 20
70.24480654998737
 30
0.0
 11
20.11681511788433
 21
70.227430959374
 31
0.0
  0
SPLINE
  5
204
330
1F
100
AcDbEntity
  8
DEFAULT
100
AcDbSpline
210
0.0
220
0.0
230
1.0
 70
     8
 71
     3
 72
    16
 73
    12
 74
     0
 42
0.0000000001
 43
0.0000000001
 40
-9.0
 40
-9.0
 40
-9.0
 40
-9.0
 40
-8.0
 40
-7.0
 40
-6.0
 40
-5.0
 40
-4.0
 40
-3.0
 40
-2.0
 40
-1.0
 40
0.0
 40
0.0
 40
0.0
 40
0.0
 10
2.925430984027628
 20
68.34052354998738
 30
0.0
 10
2.932339571990212
 20
68.46213958393209
 30
0.0
 10
2.946778188471399
 20
68.70545820294221
 30
0.0
 10
2.955667304871127
 20
69.07066219051342
 30
0.0
 10
2.992330083564696
 20
69.43570333386671
 30
0.0
 10
3.124033827558122
 20
69.78156280184585
 30
0.0
 10
3.376752531896273
 20
70.05751583175473
 30
0.0
 10
3.721002905794478
 20
70.19834305938663
 30
0.0
 10
4.085723671096758
 20
70.23710778479641
 30
0.0
 10
4.450909534466604
 20
70.24863164659324
 30
0.0
 10
4.694645117570275
 20
70.24494488355478
 30
0.0
 10
4.816456984027639
 20
70.24480654998737
 30
0.0
  0
LINE
  5
205
330
1F
100
AcDbEntity
  8
DEFAULT
100
AcDbLine
 10
2.749966984027623
 20
64.92896054998738
 30
0.0
 11
2.925430984027628
 21
68.34052354998738
 31
0.0
  0
SPLINE
  5
206
330
1F
100
AcDbEntity
  8
DEFAULT
100
AcDbSpline
210
0.0
220
0.0
230
1.0
 70
     8
 71
     3
 72
    24
 73
    20
 74
     0
 42
0.0000000001
 43
0.0000000001
 40
0.0
 40
0.0
 40
0.0
 40
0.0
 40
1.0
 40
2.0
 40
3.0
 40
4.0
 40
5.0
 40
6.0
 40
7.0
 40
8.0
 40
9.0
 40
10.0
 40
11.0
 40
12.0
 40
13.0
 40
14.0
 40
15.0
 40
16.0
 40
17.0
 40
17.0
 40
17.0
 40
17.0
 10
2.745250984027649
 20
64.43372854998738
 30
0.0
 10
2.91358834002969
 20
64.03317816433724
 30
0.0
 10
3.754142467173523
 20
63.91031902448556
 30
0.0
 10
4.899154990194035
 20
64.00001464499334
 30
0.0
 10
6.066286312045349
 20
64.14121283993553
 30
0.0
 10
7.227965334846374
 20
64.26553951716085
 30
0.0
 10
8.395349308143466
 20
64.34911312910756
 30
0.0
 10
9.563310359857269
 20
64.4126791165879
 30
0.0
 10
10.73213516434592
 20
64.46197376222975
 30
0.0
 10
11.90165285412198
 20
64.49018705578699
 30
0.0
 10
13.07154456863961
 20
64.48970286137929
 30
0.0
 10
14.24103962679837
 20
64.46058041828186
 30
0.0
 10
15.40983962536902
 20
64.41074901263134
 30
0.0
 10
16.57777869743867
 20
64.34672170473021
 30
0.0
 10
17.74510167291439
 20
64.26234441458647
 30
0.0
 10
18.90656823701562
 20
64.13531991742366
 30
0.0
 10
20.07386067758566
 20
63.99847057683409
 30
0.0
 10
21.21918740293535
 20
63.90128714963396
 30
0.0
 10
22.05940483993086
 20
64.05729872360968
 30
0.0
 10
22.20256398402765
 20
64.47089454998738
 30
0.0
  0
LINE
  5
207
330
1F
100
AcDbEntity
  8
DEFAULT
100
AcDbLine
 10
22.00785098402764
 20
68.34052354998738
 30
0.0
 11
22.18331498402765
 21
64.92896054998738
 31
0.0
  0
SPLINE
  5
208
330
1F
100
AcDbEntity
  8
DEFAULT
100
AcDbSpline
210
0.0
220
0.0
230
1.0
 70
     8
 71
     3
 72
    16
 73
    12
 74
     0
 42
0.0000000001
 43
0.0000000001
 40
0.0
 40
0.0
 40
0.0
 40
0.0
 40
1.0
 40
2.0
 40
3.0
 40
4.0
 40
5.0
 40
6.0
 40
7.0
 40
8.0
 40
9.0
 40
9.0
 40
9.0
 40
9.0
 10
20.11682498402763
 20
70.24480654998737
 30
0.0
 10
20.23863685048499
 20
70.24494488355478
 30
0.0
 10
20.48237243358867
 20
70.24863164659324
 30
0.0
 10
20.84755829695851
 20
70.23710778479641
 30
0.0
 10
21.21227906226079
 20
70.19834305938663
 30
0.0
 10
21.556529436159
 20
70.05751583175473
 30
0.0
 10
21.80924814049715
 20
69.78156280184585
 30
0.0
 10
21.94095188449057
 20
69.43570333386671
 30
0.0
 10
21.97761466318414
 20
69.07066219051342
 30
0.0
 10
21.98650377958387
 20
68.70545820294221
 30
0.0
 10
22.00094239606506
 20
68.46213958393209
 30
0.0
 10
22.00785098402764
 20
68.34052354998738
 30
0.0
  0
LINE
  5
209
330
1F
100
AcDbEntity
  8
DEFAULT
100
AcDbLine
 10
2.69648196741764
 20
64.09238818282738
 30
0.0
 11
2.855703415677624
 21
64.25298701810738
 31
0.0
  0
ARC
  5
20A
330
1F
100
AcDbEntity
  8
DEFAULT
100
AcDbCircle
 10
14.97063573861801
 20
26.50107055039507
 30
0.0
 40
24.40401582647798
100
AcDbArc
 50
15.41755299283167
 51
31.8286370768565
  0
SPLINE
  5
20B
330
1F
100
AcDbEntity
  8
DEFAULT
100
AcDbSpline
210
0.0
220
0.0
230
1.0
 70
     8
 71
     3
 72
    20
 73
    16
 74
     0
 42
0.0000000001
 43
0.0000000001
 40
0.0
 40
0.0
 40
0.0
 40
0.0
 40
1.0
 40
2.0
 40
3.0
 40
4.0
 40
5.0
 40
6.0
 40
7.0
 40
8.0
 40
9.0
 40
10.0
 40
11.0
 40
12.0
 40
13.0
 40
13.0
 40
13.0
 40
13.0
 10
34.42477038683357
 20
38.94322200000001
 30
0.0
 10
34.40428502512727
 20
38.99435562954581
 30
0.0
 10
34.36746923799389
 20
39.10992853080656
 30
0.0
 10
34.3415638430953
 20
39.28641879090688
 30
0.0
 10
34.35461961801913
 20
39.46457176025483
 30
0.0
 10
34.37851448034662
 20
39.64155726160317
 30
0.0
 10
34.4455431292938
 20
39.80889336332595
 30
0.0
 10
34.56446542616042
 20
39.94542277193261
 30
0.0
 10
34.72675072245728
 20
40.02729812463771
 30
0.0
 10
34.90649808497373
 20
40.04629471563432
 30
0.0
 10
35.08133578079476
 20
40.00292226413028
 30
0.0
 10
35.24237130630864
 20
39.92532083213943
 30
0.0
 10
35.3869617598463
 20
39.82003816770133
 30
0.0
 10
35.51160307837942
 20
39.69200327665365
 30
0.0
 10
35.58121577662725
 20
39.59543319360515
 30
0.0
 10
35.61283038683358
 20
39.54517000000001
 30
0.0
  0
SPLINE
  5
20C
330
1F
100
AcDbEntity
  8
DEFAULT
100
AcDbSpline
210
0.0
220
0.0
230
1.0
 70
     8
 71
     3
 72
    20
 73
    16
 74
     0
 42
0.0000000001
 43
0.0000000001
 40
0.0
 40
0.0
 40
0.0
 40
0.0
 40
1.0
 40
2.0
 40
3.0
 40
4.0
 40
5.0
 40
6.0
 40
7.0
 40
8.0
 40
9.0
 40
10.0
 40
11.0
 40
12.0
 40
13.0
 40
13.0
 40
13.0
 40
13.0
 10
34.42425717375356
 20
38.94450582772001
 30
0.0
 10
34.59215771814159
 20
38.32360226494184
 30
0.0
 10
34.93127789121338
 20
37.08269445384765
 30
0.0
 10
35.4477429587438
 20
35.2234752079154
 30
0.0
 10
35.96872916573874
 20
33.36553746863822
 30
0.0
 10
36.49000524286227
 20
31.50762108890957
 30
0.0
 10
36.99850256472989
 20
29.64635454137208
 30
0.0
 10
37.48341711174159
 20
27.77801434977525
 30
0.0
 10
37.78308056910548
 20
25.86705619294332
 30
0.0
 10
37.78120217222828
 20
23.93320264236956
 30
0.0
 10
37.63401910948748
 20
22.00915466660665
 30
0.0
 10
37.43241105229002
 20
20.08995343036042
 30
0.0
 10
37.21392348881291
 20
18.17277418901185
 30
0.0
 10
36.9905383490228
 20
16.25612658275527
 30
0.0
 10
36.84141980106087
 20
14.9783925271836
 30
0.0
 10
36.76709961951356
 20
14.33949553521001
 30
0.0
  0
LINE
  5
20D
330
1F
100
AcDbEntity
  8
DEFAULT
100
AcDbLine
 10
36.76709950317358
 20
14.339495767605
 30
0.0
 11
38.53257238683356
 21
14.33949600000001
 31
0.0
  0
LINE
  5
20E
330
1F
100
AcDbEntity
  8
DEFAULT
100
AcDbLine
 10
38.20508385562856
 20
15.86693275730501
 30
0.0
 11
36.76709950317358
 21
14.339495767605
 31
0.0
  0
SPLINE
  5
20F
330
1F
100
AcDbEntity
  8
DEFAULT
100
AcDbSpline
210
0.0
220
0.0
230
1.0
 70
     8
 71
     3
 72
    20
 73
    16
 74
     0
 42
0.0000000001
 43
0.0000000001
 40
0.0
 40
0.0
 40
0.0
 40
0.0
 40
1.0
 40
2.0
 40
3.0
 40
4.0
 40
5.0
 40
6.0
 40
7.0
 40
8.0
 40
9.0
 40
10.0
 40
11.0
 40
12.0
 40
13.0
 40
13.0
 40
13.0
 40
13.0
 10
39.66491680438357
 20
15.94376904114002
 30
0.0
 10
39.6703441243496
 20
15.98724379250238
 30
0.0
 10
39.63224450627872
 20
16.07003661176826
 30
0.0
 10
39.52220505724078
 20
16.14071063971373
 30
0.0
 10
39.40079433979101
 20
16.18271803174677
 30
0.0
 10
39.27424220894416
 20
16.20544672079764
 30
0.0
 10
39.14610541177321
 20
16.21350885007101
 30
0.0
 10
39.01782862366021
 20
16.20811795400506
 30
0.0
 10
38.89060219197658
 20
16.19125892461111
 30
0.0
 10
38.76522257369477
 20
16.16387904884017
 30
0.0
 10
38.64238206923459
 20
16.12676981454223
 30
0.0
 10
38.52288182461079
 20
16.07996385347049
 30
0.0
 10
38.40791216226033
 20
16.02286451413907
 30
0.0
 10
38.29959273107552
 20
15.9538051002263
 30
0.0
 10
38.23438360996097
 20
15.89809164890302
 30
0.0
 10
38.20508385562856
 20
15.86693275730501
 30
0.0
  0
LINE
  5
210
330
1F
100
AcDbEntity
  8
DEFAULT
100
AcDbLine
 10
38.53651061517355
 20
14.34357784514
 30
0.0
 11
39.66491680438357
 21
15.94376904114002
 31
0.0
  0
ARC
  5
211
330
1F
100
AcDbEntity
  8
DEFAULT
100
AcDbCircle
 10
49.7891962799148
 20
-145.2639314587871
 30
0.0
 40
160.7075543923187
100
AcDbArc
 50
88.3452217089284
 51
91.79767687012865
  0
LINE
  5
212
330
1F
100
AcDbEntity
  8
DEFAULT
100
AcDbLine
 10
0.5594518104253439
 20
56.74734508218658
 30
0.0
 11
0.4998899999999935
 21
56.74734508218658
 31
0.0
  0
LINE
  5
213
330
1F
100
AcDbEntity
  8
DEFAULT
100
AcDbLine
 10
0.4750080000000025
 20
56.68827908218658
 30
0.0
 11
0.4750080000000025
 21
55.13778108218656
 31
0.0
  0
LINE
  5
214
330
1F
100
AcDbEntity
  8
DEFAULT
100
AcDbLine
 10
13.16227799999999
 20
46.27463508218656
 30
0.0
 11
13.16419099999999
 21
46.33760708218657
 31
0.0
  0
LINE
  5
215
330
1F
100
AcDbEntity
  8
DEFAULT
100
AcDbLine
 10
45.96212288683355
 20
6.722217999999998
 30
0.0
 11
47.10649388683356
 21
6.722663999999995
 31
0.0
  0
ARC
  5
216
330
1F
100
AcDbEntity
  8
DEFAULT
100
AcDbCircle
 10
5.292885475540004
 20
2.050758743568569
 30
0.0
 40
0.6342236987375504
100
AcDbArc
 50
235.4844523428096
 51
304.5155476571904
  0
LINE
  5
217
330
1F
100
AcDbEntity
  8
DEFAULT
100
AcDbLine
 10
11.484959
 20
9.516961999999992
 30
0.0
 11
11.555092
 21
6.722592000000006
 31
0.0
  0
LINE
  5
218
330
1F
100
AcDbEntity
  8
DEFAULT
100
AcDbLine
 10
45.36732488683356
 20
6.722588999999999
 30
0.0
 11
45.96219088683355
 21
6.722663999999995
 31
0.0
  0
LINE
  5
219
330
1F
100
AcDbEntity
  8
DEFAULT
100
AcDbLine
 10
47.16076288683355
 20
9.619288999999995
 30
0.0
 11
47.26055688683356
 21
9.516958000000002
 31
0.0
  0
LINE
  5
21A
330
1F
100
AcDbEntity
  8
DEFAULT
100
AcDbLine
 10
23.38727900000001
 20
2.766536000000002
 30
0.0
 11
24.78267099999999
 21
2.766536000000002
 31
0.0
  0
ARC
  5
21B
330
1F
100
AcDbEntity
  8
DEFAULT
100
AcDbCircle
 10
50.33193068041358
 20
13.36023864261201
 30
0.0
 40
0.4756674263716383
100
AcDbArc
 50
13.67718489408569
 51
193.6560388564141
  0
LINE
  5
21C
330
1F
100
AcDbEntity
  8
DEFAULT
100
AcDbLine
 10
50.30153585217687
 20
9.595592730801087
 30
0.0
 11
50.21149912839748
 21
9.658882123757905
 31
0.0
  0
ARC
  5
21D
330
1F
100
AcDbEntity
  8
DEFAULT
100
AcDbCircle
 10
47.05249788683354
 20
2.418504000000002
 30
0.0
 40
0.1023625000000052
100
AcDbArc
 50
270.000000000004
 51
359.999999999998
  0
LINE
  5
21E
330
1F
100
AcDbEntity
  8
DEFAULT
100
AcDbLine
 10
21.72607399999998
 20
13.24606899999999
 30
0.0
 11
22.34115500000001
 21
13.24629
 31
0.0
  0
ARC
  5
21F
330
1F
100
AcDbEntity
  8
DEFAULT
100
AcDbCircle
 10
13.32589699999998
 20
45.88003308218659
 30
0.0
 40
0.125000000000016
100
AcDbArc
 50
270.0000000000073
 51
359.9999999999902
  0
SPLINE
  5
220
330
1F
100
AcDbEntity
  8
DEFAULT
100
AcDbSpline
210
0.0
220
0.0
230
1.0
 70
     8
 71
     3
 72
    24
 73
    20
 74
     0
 42
0.0000000001
 43
0.0000000001
 40
0.0
 40
0.0
 40
0.0
 40
0.0
 40
0.07715671941002
 40
0.1702225681787
 40
0.2655326468086
 40
0.3559272967056
 40
0.4393819603914
 40
0.5147685145828
 40
0.5807028313599
 40
0.6367190125566
 40
0.6826906877213
 40
0.7199123792478
 40
0.7515826633142
 40
0.7832529474155
 40
0.8204746391833
 40
0.8664463143469
 40
0.9224624960007
 40
0.9883968126878
 40
1.0
 40
1.0
 40
1.0
 40
1.0
 10
12.46664252735999
 20
10.16913266352
 30
0.0
 10
12.43170819510001
 20
10.16913266352
 30
0.0
 10
12.35463036145001
 20
10.16779094048
 30
0.0
 10
12.23455851238
 20
10.16100799369001
 30
0.0
 10
12.10895175996998
 20
10.14807452431
 30
0.0
 10
11.98847428574001
 20
10.12931577296
 30
0.0
 10
11.87811472830001
 20
10.10539295835
 30
0.0
 10
11.78031191342001
 20
10.07687422145
 30
0.0
 10
11.69693884413999
 20
10.0443485401
 30
0.0
 10
11.6296083103
 20
10.00850308599
 30
0.0
 10
11.57937358795999
 20
9.969788480480005
 30
0.0
 10
11.54684713168999
 20
9.928070059630002
 30
0.0
 10
11.53486036296002
 20
9.882362684450001
 30
0.0
 10
11.54684713178
 20
9.836655309240001
 30
0.0
 10
11.57937358776999
 20
9.794936887969996
 30
0.0
 10
11.62960831066999
 20
9.756222282730008
 30
0.0
 10
11.69693884362999
 20
9.720376826649996
 30
0.0
 10
11.75336403418001
 20
9.698364110870003
 30
0.0
 10
11.78665989657
 20
9.687198464529999
 30
0.0
 10
11.79165366960999
 20
9.685562185639995
 30
0.0
  0
LINE
  5
221
330
1F
100
AcDbEntity
  8
DEFAULT
100
AcDbLine
 10
50.75900488683355
 20
2.766536000000002
 30
0.0
 11
50.73886988683356
 21
3.343129000000005
 31
0.0
  0
LINE
  5
222
330
1F
100
AcDbEntity
  8
DEFAULT
100
AcDbLine
 10
2.735756500000008
 20
27.550543
 30
0.0
 11
2.578885500000013
 21
18.969407
 31
0.0
  0
SPLINE
  5
223
330
1F
100
AcDbEntity
  8
DEFAULT
100
AcDbSpline
210
0.0
220
0.0
230
1.0
 70
     8
 71
     3
 72
    16
 73
    12
 74
     0
 42
0.0000000001
 43
0.0000000001
 40
0.0
 40
0.0
 40
0.0
 40
0.0
 40
1.0
 40
2.0
 40
3.0
 40
4.0
 40
5.0
 40
6.0
 40
7.0
 40
8.0
 40
8.970756410505707
 40
8.970756410505707
 40
8.970756410505707
 40
8.970756410505707
 10
34.42456459873357
 20
38.94373705503001
 30
0.0
 10
34.59380535250988
 20
38.54461878688086
 30
0.0
 10
34.93626871630885
 20
37.74804388789582
 30
0.0
 10
35.45306105395188
 20
36.55453655277513
 30
0.0
 10
35.97430319829785
 20
35.36296119032431
 30
0.0
 10
36.49745295983756
 20
34.17222454679571
 30
0.0
 10
37.01899132659163
 20
32.98078040304625
 30
0.0
 10
37.53200893068372
 20
31.78561979265077
 30
0.0
 10
38.02347857322128
 20
30.58136352372054
 30
0.0
 10
38.46428337116079
 20
29.37072951954625
 30
0.0
 10
38.69911464211324
 20
28.54846442399713
 30
0.0
 10
38.79253150470444
 20
28.13805744873943
 30
0.0
  0
SPLINE
  5
224
330
1F
100
AcDbEntity
  8
DEFAULT
100
AcDbSpline
210
0.0
220
0.0
230
1.0
 70
     8
 71
     3
 72
    16
 73
    12
 74
     0
 42
0.0000000001
 43
0.0000000001
 40
0.0762377703473303
 40
0.0762377703473303
 40
0.0762377703473303
 40
0.0762377703473303
 40
1.0
 40
2.0
 40
3.0
 40
4.0
 40
5.0
 40
6.0
 40
7.0
 40
8.0
 40
9.0
 40
9.0
 40
9.0
 40
9.0
 10
40.35657416844123
 20
28.21328482690241
 30
0.0
 10
40.24715315198729
 20
28.62315017750061
 30
0.0
 10
39.97570910371732
 20
29.46445209694554
 30
0.0
 10
39.48686013802795
 20
30.71524910872913
 30
0.0
 10
38.94347765789034
 20
31.98121955081241
 30
0.0
 10
38.38470806537292
 20
33.24040237380342
 30
0.0
 10
37.82690447847217
 20
34.50001683775384
 30
0.0
 10
37.26988466771967
 20
35.75995893950745
 30
0.0
 10
36.71763393911239
 20
37.02207892453492
 30
0.0
 10
36.16174981788355
 20
38.28230049840559
 30
0.0
 10
35.81730001757451
 20
39.1346245232196
 30
0.0
 10
35.61283038683358
 20
39.54517000000001
 30
0.0
  0
SPLINE
  5
225
330
1F
100
AcDbEntity
  8
DEFAULT
100
AcDbSpline
210
0.0
220
0.0
230
1.0
 70
     8
 71
     3
 72
    20
 73
    16
 74
     0
 42
0.0000000001
 43
0.0000000001
 40
0.0
 40
0.0
 40
0.0
 40
0.0
 40
1.0
 40
2.0
 40
3.0
 40
4.0
 40
5.0
 40
6.0
 40
7.0
 40
8.0
 40
9.0
 40
10.0
 40
11.0
 40
12.0
 40
12.92330402528452
 40
12.92330402528452
 40
12.92330402528452
 40
12.92330402528452
 10
38.20508321048355
 20
15.8669328548
 30
0.0
 10
38.23536817088838
 20
16.1688628221688
 30
0.0
 10
38.29592160128844
 20
16.77272480671539
 30
0.0
 10
38.38674010810364
 20
17.67851898438103
 30
0.0
 10
38.47752540231467
 20
18.58431607421052
 30
0.0
 10
38.56838730884392
 20
19.49010596789958
 30
0.0
 10
38.6593035056804
 20
20.39589042520161
 30
0.0
 10
38.74985017267171
 20
21.3017107079438
 30
0.0
 10
38.84079376499518
 20
22.20749473867855
 30
0.0
 10
38.93290218723287
 20
23.11315102903795
 30
0.0
 10
39.01637799073872
 20
24.01970866960725
 30
0.0
 10
39.06930485532631
 20
24.92867793812255
 30
0.0
 10
39.08064125716383
 20
25.83929529641019
 30
0.0
 10
39.03181351461869
 20
26.72567326572727
 30
0.0
 10
38.95362713325329
 20
27.30448631034842
 30
0.0
 10
38.90514525750032
 20
27.58043211752001
 30
0.0
  0
SPLINE
  5
226
330
1F
100
AcDbEntity
  8
DEFAULT
100
AcDbSpline
210
0.0
220
0.0
230
1.0
 70
     8
 71
     3
 72
    20
 73
    16
 74
     0
 42
0.0000000001
 43
0.0000000001
 40
0.0
 40
0.0
 40
0.0
 40
0.0
 40
1.0
 40
2.0
 40
3.0
 40
4.0
 40
5.0
 40
6.0
 40
7.0
 40
8.0
 40
9.0
 40
10.0
 40
11.0
 40
12.0
 40
12.89674625480997
 40
12.89674625480997
 40
12.89674625480997
 40
12.89674625480997
 10
39.66492038683357
 20
15.943775
 30
0.0
 10
39.69422476091718
 20
16.24250826596734
 30
0.0
 10
39.75254357437201
 20
16.84000266344709
 30
0.0
 10
39.84110887416323
 20
17.73613797192746
 30
0.0
 10
39.92984158841357
 20
18.63225659619199
 30
0.0
 10
40.01817451563532
 20
19.52841473467436
 30
0.0
 10
40.1053717083537
 20
20.42468423064166
 30
0.0
 10
40.19129135291676
 20
21.32107731160112
 30
0.0
 10
40.27691282086998
 20
22.21749672431967
 30
0.0
 10
40.36459314307395
 20
23.11372745002664
 30
0.0
 10
40.45539059690402
 20
24.0096103367291
 30
0.0
 10
40.54409785009584
 20
24.90584399789963
 30
0.0
 10
40.621875049303
 20
25.80261060929323
 30
0.0
 10
40.65475519362917
 20
26.67363188076963
 30
0.0
 10
40.57145482800034
 20
27.23907306621467
 30
0.0
 10
40.52069404483912
 20
27.50334193809882
 30
0.0
  0
ARC
  5
227
330
1F
100
AcDbEntity
  8
DEFAULT
100
AcDbCircle
 10
51.64692697838115
 20
-87.4220389432324
 30
0.0
 40
106.3957987614154
100
AcDbArc
 50
90.4155621900968
 51
96.17416544932401
  0
ARC
  5
228
330
1F
100
AcDbEntity
  8
DEFAULT
100
AcDbCircle
 10
40.70026367169405
 20
17.40588691920112
 30
0.0
 40
1.072484053718654
100
AcDbArc
 50
117.5664021141845
 51
129.4542776131592
  0
ARC
  5
229
330
1F
100
AcDbEntity
  8
DEFAULT
100
AcDbCircle
 10
40.73967667802918
 20
17.35799730748819
 30
0.0
 40
1.1345066300791
100
AcDbArc
 50
129.4542776131595
 51
139.5322083155762
  0
SPLINE
  5
22A
330
1F
100
AcDbEntity
  8
DEFAULT
100
AcDbSpline
210
0.0
220
0.0
230
1.0
 70
     8
 71
     3
 72
    26
 73
    22
 74
     0
 42
0.0000000001
 43
0.0000000001
 40
0.0
 40
0.0
 40
0.0
 40
0.0
 40
1.0
 40
2.0
 40
3.0
 40
3.0
 40
3.0
 40
4.0
 40
5.0
 40
6.0
 40
7.0
 40
8.0
 40
9.0
 40
10.0
 40
11.0
 40
12.0
 40
12.0
 40
12.0
 40
13.0
 40
14.0
 40
15.0
 40
15.0
 40
15.0
 40
15.0
 10
12.466643
 20
40.03637500000001
 30
0.0
 10
13.0654454243969
 20
40.03637500000001
 30
0.0
 10
14.76667486915821
 20
40.03752635297528
 30
0.0
 10
16.56308215050541
 20
40.03663123876633
 30
0.0
 10
17.7606871925264
 20
40.03594477041401
 30
0.0
 10
18.3594895
 20
40.036686
 30
0.0
 10
18.56065665939181
 20
40.03691473363165
 30
0.0
 10
18.9631424816456
 20
40.03772568275119
 30
0.0
 10
19.56630456184945
 20
40.03695232229907
 30
0.0
 10
20.17126600413383
 20
40.03079022600171
 30
0.0
 10
20.7691974179757
 20
40.00505812181568
 30
0.0
 10
21.38874814965882
 20
39.93473637522787
 30
0.0
 10
21.84076102681038
 20
39.48924351906923
 30
0.0
 10
21.93717368213314
 20
38.87543108075941
 30
0.0
 10
21.97308464831639
 20
38.27735162935349
 30
0.0
 10
21.97879526418146
 20
37.8736382823243
 30
0.0
 10
21.98227850000001
 20
37.67271100000001
 30
0.0
 10
22.00103557873967
 20
36.58608240695199
 30
0.0
 10
22.06154865047017
 20
34.41329414551885
 30
0.0
 10
22.1063343151238
 20
31.15318852627672
 30
0.0
 10
22.15389711980529
 20
28.98010177086908
 30
0.0
 10
22.1870505
 20
27.893812
 30
0.0
  0
SPLINE
  5
22B
330
1F
100
AcDbEntity
  8
DEFAULT
100
AcDbSpline
210
0.0
220
0.0
230
1.0
 70
     8
 71
     3
 72
    26
 73
    22
 74
     0
 42
0.0000000001
 43
0.0000000001
 40
-15.0
 40
-15.0
 40
-15.0
 40
-15.0
 40
-14.0
 40
-13.0
 40
-12.0
 40
-12.0
 40
-12.0
 40
-11.0
 40
-10.0
 40
-9.0
 40
-8.0
 40
-7.0
 40
-6.0
 40
-5.0
 40
-4.0
 40
-3.0
 40
-3.0
 40
-3.0
 40
-2.0
 40
-1.0
 40
0.0
 40
0.0
 40
0.0
 40
0.0
 10
2.746235500000012
 20
27.893812
 30
0.0
 10
2.779388880194716
 20
28.98010177086908
 30
0.0
 10
2.826951684876207
 20
31.15318852627672
 30
0.0
 10
2.871737349529838
 20
34.41329414551885
 30
0.0
 10
2.932250421260335
 20
36.58608240695199
 30
0.0
 10
2.951007500000003
 20
37.67271100000001
 30
0.0
 10
2.954490735818553
 20
37.8736382823243
 30
0.0
 10
2.960201351683622
 20
38.27735162935349
 30
0.0
 10
2.996112317866874
 20
38.87543108075941
 30
0.0
 10
3.092524973189626
 20
39.48924351906923
 30
0.0
 10
3.544537850341186
 20
39.93473637522787
 30
0.0
 10
4.164088582024306
 20
40.00505812181568
 30
0.0
 10
4.762019995866183
 20
40.03079022600171
 30
0.0
 10
5.36698143815056
 20
40.03695232229907
 30
0.0
 10
5.970143518354405
 20
40.03772568275119
 30
0.0
 10
6.372629340608199
 20
40.03691473363165
 30
0.0
 10
6.573796500000014
 20
40.036686
 30
0.0
 10
7.172598807473605
 20
40.03594477041401
 30
0.0
 10
8.370203849494601
 20
40.03663123876633
 30
0.0
 10
10.1666111308418
 20
40.03752635297528
 30
0.0
 10
11.86784057560311
 20
40.03637500000001
 30
0.0
 10
12.466643
 20
40.03637500000001
 30
0.0
  0
LINE
  5
22C
330
1F
100
AcDbEntity
  8
DEFAULT
100
AcDbLine
 10
5.677136999999988
 20
0.0590609999999998
 30
0.0
 11
5.677136999999988
 21
1.510404000000008
 31
0.0
  0
ARC
  5
22D
330
1F
100
AcDbEntity
  8
DEFAULT
100
AcDbCircle
 10
13.23094207393311
 20
55.84690156774373
 30
0.0
 40
40.85448552498947
100
AcDbArc
 50
268.9280580005974
 51
283.5727846208085
  0
LINE
  5
22E
330
1F
100
AcDbEntity
  8
DEFAULT
100
AcDbLine
 10
3.771995000000004
 20
13.471728
 30
0.0
 11
3.771982000000008
 21
13.554242
 31
0.0
  0
LINE
  5
22F
330
1F
100
AcDbEntity
  8
DEFAULT
100
AcDbLine
 10
5.976709999999997
 20
3.086559000000008
 30
0.0
 11
5.987878999999992
 21
2.766536000000002
 31
0.0
  0
LINE
  5
230
330
1F
100
AcDbEntity
  8
DEFAULT
100
AcDbLine
 10
19.07837851625001
 20
1.814273533049999
 30
0.0
 11
18.99981536167999
 21
2.163334469540004
 31
0.0
  0
LINE
  5
231
330
1F
100
AcDbEntity
  8
DEFAULT
100
AcDbLine
 10
47.10684288683356
 20
6.722217000000001
 30
0.0
 11
47.29941088683356
 21
6.722633999999999
 31
0.0
  0
LINE
  5
232
330
1F
100
AcDbEntity
  8
DEFAULT
100
AcDbLine
 10
20.31559899999999
 20
2.559055000000001
 30
0.0
 11
20.49966000000001
 21
2.559055000000001
 31
0.0
  0
LINE
  5
233
330
1F
100
AcDbEntity
  8
DEFAULT
100
AcDbLine
 10
22.94288749999998
 20
17.0712255
 30
0.0
 11
22.82066127298404
 21
17.10597679805849
 31
0.0
  0
LINE
  5
234
330
1F
100
AcDbEntity
  8
DEFAULT
100
AcDbLine
 10
23.83245599999999
 20
17.07183449999999
 30
0.0
 11
22.94288749999998
 21
17.0712255
 31
0.0
  0
ARC
  5
235
330
1F
100
AcDbEntity
  8
DEFAULT
100
AcDbCircle
 10
23.82788953063045
 20
17.32231164205547
 30
0.0
 40
0.2505187644364857
100
AcDbArc
 50
271.0444483618186
 51
357.4981303503457
  0
LINE
  5
236
330
1F
100
AcDbEntity
  8
DEFAULT
100
AcDbLine
 10
24.46789099999999
 20
27.859161
 30
0.0
 11
24.07816949999999
 21
17.311376
 31
0.0
  0
ARC
  5
237
330
1F
100
AcDbEntity
  8
DEFAULT
100
AcDbCircle
 10
24.18579656093329
 20
27.90856630511406
 30
0.0
 40
0.2863881225291469
100
AcDbArc
 50
350.0661125149153
 51
75.47900799501905
  0
LINE
  5
238
330
1F
100
AcDbEntity
  8
DEFAULT
100
AcDbLine
 10
24.25754399999998
 20
28.185808
 30
0.0
 11
24.257604
 21
28.185806
 31
0.0
  0
LINE
  5
239
330
1F
100
AcDbEntity
  8
DEFAULT
100
AcDbLine
 10
22.37571650000001
 20
28.180896
 30
0.0
 11
24.25754399999998
 21
28.185808
 31
0.0
  0
LINE
  5
23A
330
1F
100
AcDbEntity
  8
DEFAULT
100
AcDbLine
 10
22.16915999999998
 20
27.992543
 30
0.0
 11
22.37571650000001
 21
28.180896
 31
0.0
  0
LINE
  5
23B
330
1F
100
AcDbEntity
  8
DEFAULT
100
AcDbLine
 10
35.69638488683356
 20
2.766536000000002
 30
0.0
 11
35.71605688683356
 21
3.329861000000008
 31
0.0
  0
LINE
  5
23C
330
1F
100
AcDbEntity
  8
DEFAULT
100
AcDbLine
 10
49.36285312233022
 20
2.699549020605588
 30
0.0
 11
49.37841888683356
 21
2.716536236396422
 31
0.0
  0
ARC
  5
23D
330
1F
100
AcDbEntity
  8
DEFAULT
100
AcDbCircle
 10
44.19516426841742
 20
2.581290506715381
 30
0.0
 40
2.13732084668347
100
AcDbArc
 50
48.7977497354427
 51
91.98117139473214
  0
LINE
  5
23E
330
1F
100
AcDbEntity
  8
DEFAULT
100
AcDbLine
 10
47.58049488683355
 20
4.373318999999995
 30
0.0
 11
47.41702488683356
 21
4.166141999999994
 31
0.0
  0
LINE
  5
23F
330
1F
100
AcDbEntity
  8
DEFAULT
100
AcDbLine
 10
58.50623788683356
 20
2.766536000000002
 30
0.0
 11
58.50591588683355
 21
2.951519000000005
 31
0.0
  0
LINE
  5
240
330
1F
100
AcDbEntity
  8
DEFAULT
100
AcDbLine
 10
59.19226188683355
 20
2.766536000000002
 30
0.0
 11
59.17251588683355
 21
3.331992999999997
 31
0.0
  0
ARC
  5
241
330
1F
100
AcDbEntity
  8
DEFAULT
100
AcDbCircle
 10
13.32590299999999
 20
0.1250000000000166
 30
0.0
 40
0.125000000000016
100
AcDbArc
 50
270.0000000000073
 51
359.9999999999924
  0
CIRCLE
  5
242
330
1F
100
AcDbEntity
  8
DEFAULT
100
AcDbCircle
 10
35.47984988683355
 20
1.279527999999999
 30
0.0
 40
1.279527000000002
  0
ARC
  5
243
330
1F
100
AcDbEntity
  8
DEFAULT
100
AcDbCircle
 10
12.46664300000001
 20
46.10936408218657
 30
0.0
 40
0.708661174853161
100
AcDbArc
 50
181.8306091687664
 51
358.1693882484777
  0
LINE
  5
244
330
1F
100
AcDbEntity
  8
DEFAULT
100
AcDbLine
 10
5.854907483749997
 20
1.814273533049999
 30
0.0
 11
5.933470638320017
 21
2.163334469540004
 31
0.0
  0
SPLINE
  5
245
330
1F
100
AcDbEntity
  8
DEFAULT
100
AcDbSpline
210
0.0
220
0.0
230
1.0
 70
     8
 71
     3
 72
    19
 73
    15
 74
     0
 42
0.0000000001
 43
0.0000000001
 40
0.0
 40
0.0
 40
0.0
 40
0.0
 40
0.1235919666214
 40
0.2451043183287
 40
0.3625079393068
 40
0.4738760400769
 40
0.5774394841606
 40
0.6716499905291
 40
0.7552606378014
 40
0.8274447239784
 40
0.8880009336909
 40
0.937747797675
 40
0.9792454826625
 40
1.0
 40
1.0
 40
1.0
 40
1.0
 10
12.46664252735999
 20
12.33299688516
 30
0.0
 10
12.41302163584001
 20
12.33299688516
 30
0.0
 10
12.30666808345998
 20
12.33076782654
 30
0.0
 10
12.14966296488998
 20
12.32077308052
 30
0.0
 10
11.99852730156002
 20
12.30432864715
 30
0.0
 10
11.85605646854
 20
12.28175091920001
 30
0.0
 10
11.72486802699999
 20
12.25347422501
 30
0.0
 10
11.60734790885999
 20
12.22004220709
 30
0.0
 10
11.50558582227001
 20
12.18208443348
 30
0.0
 10
11.42129621609999
 20
12.14028657017001
 30
0.0
 10
11.35574675377998
 20
12.09522605562
 30
0.0
 10
11.30976709046999
 20
12.04716685055
 30
0.0
 10
11.28813043925001
 20
12.00228729551999
 30
0.0
 10
11.28548938118999
 20
11.97497483116
 30
0.0
 10
11.28565204778999
 20
11.96589126526
 30
0.0
  0
LINE
  5
246
330
1F
100
AcDbEntity
  8
DEFAULT
100
AcDbLine
 10
12.46664252735999
 20
9.577842257100002
 30
0.0
 11
11.79165391551001
 21
9.685562854739999
 31
0.0
  0
LINE
  5
247
330
1F
100
AcDbEntity
  8
DEFAULT
100
AcDbLine
 10
52.65622988683356
 20
13.247173
 30
0.0
 11
52.65629188683356
 21
13.472173
 31
0.0
  0
LINE
  5
248
330
1F
100
AcDbEntity
  8
DEFAULT
100
AcDbLine
 10
37.20169880862855
 20
3.064590183044999
 30
0.0
 11
44.12127488683356
 21
4.717334000000008
 31
0.0
  0
LINE
  5
249
330
1F
100
AcDbEntity
  8
DEFAULT
100
AcDbLine
 10
37.08606592538355
 20
3.020493079800005
 30
0.0
 11
37.20169880862855
 21
3.064590183044999
 31
0.0
  0
LINE
  5
24A
330
1F
100
AcDbEntity
  8
DEFAULT
100
AcDbLine
 10
5.736192562149995
 20
1.603564519589995
 30
0.0
 11
5.854907483749997
 21
1.814273533049999
 31
0.0
  0
ARC
  5
24B
330
1F
100
AcDbEntity
  8
DEFAULT
100
AcDbCircle
 10
11.86706909275552
 20
10.09926686709704
 30
0.0
 40
0.4205216471837092
100
AcDbArc
 50
200.7859393382498
 51
259.6688401707985
  0
LINE
  5
24C
330
1F
100
AcDbEntity
  8
DEFAULT
100
AcDbLine
 10
11.47391802498001
 20
9.950033179019997
 30
0.0
 11
11.28556021058
 21
11.9658897735
 31
0.0
  0
LINE
  5
24D
330
1F
100
AcDbEntity
  8
DEFAULT
100
AcDbLine
 10
4.730863467330011
 20
1.814273533049999
 30
0.0
 11
4.849578388920008
 21
1.603564519589995
 31
0.0
  0
LINE
  5
24E
330
1F
100
AcDbEntity
  8
DEFAULT
100
AcDbLine
 10
45.25931488683355
 20
6.722296
 30
0.0
 11
45.36732488683356
 21
6.722588999999999
 31
0.0
  0
LINE
  5
24F
330
1F
100
AcDbEntity
  8
DEFAULT
100
AcDbLine
 10
57.79611088683356
 20
2.699549000000005
 30
0.0
 11
57.81059788683355
 21
2.533956000000003
 31
0.0
  0
SPLINE
  5
250
330
1F
100
AcDbEntity
  8
DEFAULT
100
AcDbSpline
210
0.0
220
0.0
230
1.0
 70
     8
 71
     3
 72
    19
 73
    15
 74
     0
 42
0.0000000001
 43
0.0000000001
 40
0.0
 40
0.0
 40
0.0
 40
0.0
 40
0.1011763222572
 40
0.2232144367775
 40
0.3481954240116
 40
0.4667307689401
 40
0.576165643506
 40
0.6750207307125
 40
0.7614810123431
 40
0.8349355497899
 40
0.8952186339714
 40
0.9440277832864
 40
0.9855573206089
 40
1.0
 40
1.0
 40
1.0
 40
1.0
 10
12.46664252735999
 20
10.27325674629999
 30
0.0
 10
12.42922092103001
 20
10.27325674629999
 30
0.0
 10
12.34665525582
 20
10.27181949254999
 30
0.0
 10
12.21803446278
 20
10.26455363124001
 30
0.0
 10
12.08348469273
 20
10.25069929214
 30
0.0
 10
11.95442939557
 20
10.23060495602
 30
0.0
 10
11.83621239719
 20
10.20497886796001
 30
0.0
 10
11.73144616411
 20
10.17442963664
 30
0.0
 10
11.64213705249
 20
10.13958817522
 30
0.0
 10
11.57001268312999
 20
10.10119057466
 30
0.0
 10
11.51620132093001
 20
10.05971954588
 30
0.0
 10
11.48135902865999
 20
10.01503083324
 30
0.0
 10
11.47115630780999
 20
9.976126304589997
 30
0.0
 10
11.47305168275
 20
9.955344243910005
 30
0.0
 10
11.47396730061999
 20
9.950041687679999
 30
0.0
  0
LINE
  5
251
330
1F
100
AcDbEntity
  8
DEFAULT
100
AcDbLine
 10
51.35116088683355
 20
14.00685700000001
 30
0.0
 11
51.32716588683355
 21
14.281115
 31
0.0
  0
LINE
  5
252
330
1F
100
AcDbEntity
  8
DEFAULT
100
AcDbLine
 10
5.078318999999993
 20
2.766536000000002
 30
0.0
 11
5.078318999999993
 21
2.716536000000005
 31
0.0
  0
LINE
  5
253
330
1F
100
AcDbEntity
  8
DEFAULT
100
AcDbLine
 10
9.15955600000001
 20
13.65912899999999
 30
0.0
 11
15.773729
 21
13.65912899999999
 31
0.0
  0
LINE
  5
254
330
1F
100
AcDbEntity
  8
DEFAULT
100
AcDbLine
 10
44.52305888683355
 20
11.781159
 30
0.0
 11
51.31938088683356
 21
14.30250600000001
 31
0.0
  0
LINE
  5
255
330
1F
100
AcDbEntity
  8
DEFAULT
100
AcDbLine
 10
46.21284388683355
 20
15.219854
 30
0.0
 11
45.29462388683355
 21
15.308268
 31
0.0
  0
LINE
  5
256
330
1F
100
AcDbEntity
  8
DEFAULT
100
AcDbLine
 10
13.44832700000001
 20
9.516961999999992
 30
0.0
 11
13.37819400000001
 21
6.722592000000006
 31
0.0
  0
LINE
  5
257
330
1F
100
AcDbEntity
  8
DEFAULT
100
AcDbLine
 10
18.65614100000002
 20
2.434055000000001
 30
0.0
 11
18.65614100000002
 21
0.125
 31
0.0
  0
CIRCLE
  5
258
330
1F
100
AcDbEntity
  8
DEFAULT
100
AcDbCircle
 10
49.12514688683356
 20
1.279527999999999
 30
0.0
 40
1.279527000000002
  0
LINE
  5
259
330
1F
100
AcDbEntity
  8
DEFAULT
100
AcDbLine
 10
24.7629945
 20
3.330465000000004
 30
0.0
 11
24.78268800000001
 21
2.766536000000002
 31
0.0
  0
ARC
  5
25A
330
1F
100
AcDbEntity
  8
DEFAULT
100
AcDbCircle
 10
24.36759869207188
 20
3.316200622558887
 30
0.0
 40
0.3956530265155508
100
AcDbArc
 50
2.066117849792249
 51
73.81468257186825
  0
SPLINE
  5
25B
330
1F
100
AcDbEntity
  8
DEFAULT
100
AcDbSpline
210
0.0
220
0.0
230
1.0
 70
     8
 71
     3
 72
    19
 73
    15
 74
     0
 42
0.0000000001
 43
0.0000000001
 40
0.0
 40
0.0
 40
0.0
 40
0.0
 40
1.0
 40
2.0
 40
3.0
 40
4.0
 40
5.0
 40
6.0
 40
7.0
 40
8.0
 40
9.0
 40
10.0
 40
11.0
 40
12.0
 40
12.0
 40
12.0
 40
12.0
 10
13.48958908969999
 20
6.7226909014
 30
0.0
 10
13.8079204609727
 20
6.725051837828957
 30
0.0
 10
14.43025110434252
 20
6.588448271959777
 30
0.0
 10
15.3388335202601
 20
6.311658357378448
 30
0.0
 10
16.25306888905016
 20
6.050474051302089
 30
0.0
 10
17.16681177429746
 20
5.788655795608761
 30
0.0
 10
18.08068815359746
 20
5.527012520050405
 30
0.0
 10
18.99452487593553
 20
5.265309115571895
 30
0.0
 10
19.90837532062287
 20
5.003632307439133
 30
0.0
 10
20.82221070433164
 20
4.741909193745173
 30
0.0
 10
21.73609214490756
 20
4.480344839021171
 30
0.0
 10
22.64998198520078
 20
4.218810227158642
 30
0.0
 10
23.56394249966095
 20
3.957522239830254
 30
0.0
 10
24.17323196166517
 20
3.783269947946053
 30
0.0
 10
24.477885
 20
3.696172000000004
 30
0.0
  0
LINE
  5
25C
330
1F
100
AcDbEntity
  8
DEFAULT
100
AcDbLine
 10
23.214766
 20
0.0
 30
0.0
 11
23.630719
 21
0.0
 31
0.0
  0
LINE
  5
25D
330
1F
100
AcDbEntity
  8
DEFAULT
100
AcDbLine
 10
20.38125199999999
 20
13.471692
 30
0.0
 11
20.181274
 21
13.47177499999999
 31
0.0
  0
ARC
  5
25E
330
1F
100
AcDbEntity
  8
DEFAULT
100
AcDbCircle
 10
18.78114100000001
 20
2.434055000000015
 30
0.0
 40
0.1249999999999858
100
AcDbArc
 50
89.99999999999349
 51
180.0000000000065
  0
LINE
  5
25F
330
1F
100
AcDbEntity
  8
DEFAULT
100
AcDbLine
 10
23.689774
 20
0.0590550000000007
 30
0.0
 11
23.630719
 21
0.0
 31
0.0
  0
LINE
  5
260
330
1F
100
AcDbEntity
  8
DEFAULT
100
AcDbLine
 10
20.28100780021001
 20
2.163622138060006
 30
0.0
 11
20.20242253267
 21
1.814273533049999
 31
0.0
  0
ARC
  5
261
330
1F
100
AcDbEntity
  8
DEFAULT
100
AcDbCircle
 10
19.64040052446
 20
2.050758743568568
 30
0.0
 40
0.6342236987375472
100
AcDbArc
 50
235.4844523428097
 51
304.5155476571907
  0
LINE
  5
262
330
1F
100
AcDbEntity
  8
DEFAULT
100
AcDbLine
 10
20.20242253267
 20
1.814273533049999
 30
0.0
 11
20.08370761108
 21
1.603564519589995
 31
0.0
  0
LINE
  5
263
330
1F
100
AcDbEntity
  8
DEFAULT
100
AcDbLine
 10
52.02132788683355
 20
13.246756
 30
0.0
 11
44.80069088683355
 21
10.900627
 31
0.0
  0
ARC
  5
264
330
1F
100
AcDbEntity
  8
DEFAULT
100
AcDbCircle
 10
53.41281388683355
 20
14.04117000000002
 30
0.0
 40
0.3937009409970643
100
AcDbArc
 50
283.9790277952811
 51
355.0000458564627
  0
LINE
  5
265
330
1F
100
AcDbEntity
  8
DEFAULT
100
AcDbLine
 10
58.26903388683355
 20
2.766536000000002
 30
0.0
 11
58.26903388683355
 21
2.716536000000005
 31
0.0
  0
LINE
  5
266
330
1F
100
AcDbEntity
  8
DEFAULT
100
AcDbLine
 10
14.913072
 20
13.217547
 30
0.0
 11
14.27038899999999
 21
12.561849
 31
0.0
  0
LINE
  5
267
330
1F
100
AcDbEntity
  8
DEFAULT
100
AcDbLine
 10
57.79611062612938
 20
2.699548977187334
 30
0.0
 11
57.81167588683356
 21
2.716535738299612
 31
0.0
  0
SPLINE
  5
268
330
1F
100
AcDbEntity
  8
DEFAULT
100
AcDbSpline
210
0.0
220
0.0
230
1.0
 70
     8
 71
     3
 72
    16
 73
    12
 74
     0
 42
0.0000000001
 43
0.0000000001
 40
0.0
 40
0.0
 40
0.0
 40
0.0
 40
1.0
 40
2.0
 40
3.0
 40
4.0
 40
5.0
 40
6.0
 40
7.0
 40
8.0
 40
9.0
 40
9.0
 40
9.0
 40
9.0
 10
38.90392088683355
 20
27.580464
 30
0.0
 10
38.97548158760458
 20
27.5786602751336
 30
0.0
 10
39.11834000934563
 20
27.55412516112624
 30
0.0
 10
39.30829287300126
 20
27.44920379424533
 30
0.0
 10
39.47785970587321
 20
27.3183289187477
 30
0.0
 10
39.66477277970529
 20
27.20783827920691
 30
0.0
 10
39.88716079006252
 20
27.19718910510113
 30
0.0
 10
40.08788875554515
 20
27.27914571664524
 30
0.0
 10
40.27145640592033
 20
27.39024411039939
 30
0.0
 10
40.46116310186957
 20
27.49197736360949
 30
0.0
 10
40.60172300048589
 20
27.52768185127324
 30
0.0
 10
40.67356388683355
 20
27.528378
 30
0.0
  0
ARC
  5
269
330
1F
100
AcDbEntity
  8
DEFAULT
100
AcDbCircle
 10
50.60830488683356
 20
14.49709500000001
 30
0.0
 40
0.3937004300065506
100
AcDbArc
 50
188.1083891567755
 51
357.3499443167881
  0
LINE
  5
26A
330
1F
100
AcDbEntity
  8
DEFAULT
100
AcDbLine
 10
53.03201488683355
 20
13.217547
 30
0.0
 11
53.40699588683356
 21
13.634005
 31
0.0
  0
SPLINE
  5
26B
330
1F
100
AcDbEntity
  8
DEFAULT
100
AcDbSpline
210
0.0
220
0.0
230
1.0
 70
     8
 71
     3
 72
    12
 73
     8
 74
     0
 42
0.0000000001
 43
0.0000000001
 40
0.0
 40
0.0
 40
0.0
 40
0.0
 40
1.0
 40
2.0
 40
3.0
 40
4.0
 40
5.0
 40
5.0
 40
5.0
 40
5.0
 10
55.79278000712355
 20
14.99956585096
 30
0.0
 10
55.70136303846293
 20
15.01356858196085
 30
0.0
 10
55.51857964033408
 20
15.03768778833712
 30
0.0
 10
55.24049930924667
 20
15.06052611455465
 30
0.0
 10
54.96967937908363
 20
15.07157711702212
 30
0.0
 10
54.66917031092278
 20
15.06971330346376
 30
0.0
 10
54.58762515448851
 20
15.27891211073312
 30
0.0
 10
54.60068088683356
 20
15.36861
 30
0.0
  0
LINE
  5
26C
330
1F
100
AcDbEntity
  8
DEFAULT
100
AcDbLine
 10
47.29941088683356
 20
6.722633999999999
 30
0.0
 11
47.30187188683355
 21
6.722663999999995
 31
0.0
  0
LINE
  5
26D
330
1F
100
AcDbEntity
  8
DEFAULT
100
AcDbLine
 10
13.34853000000001
 20
9.619288999999995
 30
0.0
 11
13.44832399999999
 21
9.516958000000002
 31
0.0
  0
ARC
  5
26E
330
1F
100
AcDbEntity
  8
DEFAULT
100
AcDbCircle
 10
12.33419450429204
 20
3.256624503226579
 30
0.0
 40
0.5657138631049456
100
AcDbArc
 50
76.45992226494391
 51
169.000366358217
  0
LINE
  5
26F
330
1F
100
AcDbEntity
  8
DEFAULT
100
AcDbLine
 10
13.13856799999999
 20
2.716536236396422
 30
0.0
 11
13.15413376450334
 21
2.699549020605588
 31
0.0
  0
LINE
  5
270
330
1F
100
AcDbEntity
  8
DEFAULT
100
AcDbLine
 10
37.09502488683356
 20
2.766536000000002
 30
0.0
 11
35.69639888683355
 21
2.766536000000002
 31
0.0
  0
LINE
  5
271
330
1F
100
AcDbEntity
  8
DEFAULT
100
AcDbLine
 10
49.58527488683356
 20
4.607807999999991
 30
0.0
 11
57.67075688683356
 21
3.045417999999998
 31
0.0
  0
LINE
  5
272
330
1F
100
AcDbEntity
  8
DEFAULT
100
AcDbLine
 10
52.10235153264253
 20
10.27325694470593
 30
0.0
 11
52.06671113285087
 21
10.1691327392622
 31
0.0
  0
LINE
  5
273
330
1F
100
AcDbEntity
  8
DEFAULT
100
AcDbLine
 10
47.10617288683355
 20
6.722664999999992
 30
0.0
 11
45.96217888683356
 21
6.722218999999996
 31
0.0
  0
LINE
  5
274
330
1F
100
AcDbEntity
  8
DEFAULT
100
AcDbLine
 10
59.19220988683355
 20
2.766536000000002
 30
0.0
 11
57.79799488683355
 21
2.766536000000002
 31
0.0
  0
ARC
  5
275
330
1F
100
AcDbEntity
  8
DEFAULT
100
AcDbCircle
 10
57.63179388683358
 20
2.879802000000032
 30
0.0
 40
0.1699991461284226
100
AcDbArc
 50
358.000976487502
 51
76.76274155546606
  0
CIRCLE
  5
276
330
1F
100
AcDbEntity
  8
DEFAULT
100
AcDbCircle
 10
57.55840388683356
 20
1.279527999999999
 30
0.0
 40
1.0625
  0
LINE
  5
277
330
1F
100
AcDbEntity
  8
DEFAULT
100
AcDbLine
 10
50.26490988683355
 20
2.766536000000002
 30
0.0
 11
50.26490988683355
 21
2.716536000000005
 31
0.0
  0
LINE
  5
278
330
1F
100
AcDbEntity
  8
DEFAULT
100
AcDbLine
 10
54.23052288683355
 20
15.384259
 30
0.0
 11
53.79691288683355
 21
14.192926
 31
0.0
  0
LINE
  5
279
330
1F
100
AcDbEntity
  8
DEFAULT
100
AcDbLine
 10
44.80068988683355
 20
10.900628
 30
0.0
 11
44.52305888683355
 21
11.781159
 31
0.0
  0
LINE
  5
27A
330
1F
100
AcDbEntity
  8
DEFAULT
100
AcDbLine
 10
53.82901088683356
 20
14.281115
 30
0.0
 11
53.80501688683356
 21
14.00685700000001
 31
0.0
  0
LINE
  5
27B
330
1F
100
AcDbEntity
  8
DEFAULT
100
AcDbLine
 10
59.17109088683355
 20
2.699549000000005
 30
0.0
 11
59.09363888683356
 21
1.814273999999997
 31
0.0
  0
LINE
  5
27C
330
1F
100
AcDbEntity
  8
DEFAULT
100
AcDbLine
 10
57.80164388683356
 20
2.872697000000002
 30
0.0
 11
57.79793788683355
 21
2.766536000000002
 31
0.0
  0
LINE
  5
27D
330
1F
100
AcDbEntity
  8
DEFAULT
100
AcDbLine
 10
45.36732488683356
 20
6.722588999999999
 30
0.0
 11
45.25584888683355
 21
6.722218999999996
 31
0.0
  0
LINE
  5
27E
330
1F
100
AcDbEntity
  8
DEFAULT
100
AcDbLine
 10
45.30290488683355
 20
4.166141999999994
 30
0.0
 11
45.42053388683355
 21
4.166141999999994
 31
0.0
  0
LINE
  5
27F
330
1F
100
AcDbEntity
  8
DEFAULT
100
AcDbLine
 10
45.14078488683356
 20
4.166141999999994
 30
0.0
 11
45.30290488683355
 21
4.166141999999994
 31
0.0
  0
LINE
  5
280
330
1F
100
AcDbEntity
  8
DEFAULT
100
AcDbLine
 10
4.849578388920008
 20
1.603564519589995
 30
0.0
 11
4.908633507030004
 21
1.510403866540003
 31
0.0
  0
LINE
  5
281
330
1F
100
AcDbEntity
  8
DEFAULT
100
AcDbLine
 10
51.15883188683355
 20
14.74360900000001
 30
0.0
 11
47.19194288683356
 21
15.12557700000001
 31
0.0
  0
LINE
  5
282
330
1F
100
AcDbEntity
  8
DEFAULT
100
AcDbLine
 10
49.36439988683355
 20
3.206648999999999
 30
0.0
 11
49.34903888683355
 21
2.766536000000002
 31
0.0
  0
LINE
  5
283
330
1F
100
AcDbEntity
  8
DEFAULT
100
AcDbLine
 10
36.99971088683355
 20
3.294561000000002
 30
0.0
 11
45.09021119236355
 21
5.885826964909995
 31
0.0
  0
LINE
  5
284
330
1F
100
AcDbEntity
  8
DEFAULT
100
AcDbLine
 10
20.62466000000001
 20
2.434055000000001
 30
0.0
 11
20.62466000000001
 21
0.125
 31
0.0
  0
LINE
  5
285
330
1F
100
AcDbEntity
  8
DEFAULT
100
AcDbLine
 10
12.023335
 20
-0.0000004999999987
 30
0.0
 11
12.0823905
 21
0.0590550000000007
 31
0.0
  0
LINE
  5
286
330
1F
100
AcDbEntity
  8
DEFAULT
100
AcDbLine
 10
0.4159530000000018
 20
0.0
 30
0.0
 11
0.4750080000000025
 21
0.0590550000000007
 31
0.0
  0
LINE
  5
287
330
1F
100
AcDbEntity
  8
DEFAULT
100
AcDbLine
 10
6.15214499999999
 20
2.559055000000001
 30
0.0
 11
6.15214499999999
 21
0.0
 31
0.0
  0
LINE
  5
288
330
1F
100
AcDbEntity
  8
DEFAULT
100
AcDbLine
 10
19.25614855596001
 20
1.510403866540003
 30
0.0
 11
19.19709343784999
 21
1.603564519589995
 31
0.0
  0
LINE
  5
289
330
1F
100
AcDbEntity
  8
DEFAULT
100
AcDbLine
 10
5.736192999999986
 20
0.0
 30
0.0
 11
5.736192999999986
 21
1.603565000000003
 31
0.0
  0
LINE
  5
28A
330
1F
100
AcDbEntity
  8
DEFAULT
100
AcDbLine
 10
6.27714499999999
 20
2.434055000000001
 30
0.0
 11
6.27714499999999
 21
0.125
 31
0.0
  0
LINE
  5
28B
330
1F
100
AcDbEntity
  8
DEFAULT
100
AcDbLine
 10
20.08370761108
 20
1.603564519589995
 30
0.0
 11
20.02465249297001
 21
1.510403866540003
 31
0.0
  0
ARC
  5
28C
330
1F
100
AcDbEntity
  8
DEFAULT
100
AcDbCircle
 10
4.433625999999998
 20
2.434055000000007
 30
0.0
 40
0.1249999999999942
100
AcDbArc
 50
89.99999999999714
 51
180.0000000000026
  0
LINE
  5
28D
330
1F
100
AcDbEntity
  8
DEFAULT
100
AcDbLine
 10
1.243511999999981
 20
0.0590550000000007
 30
0.0
 11
1.302566999999982
 21
0.0
 31
0.0
  0
LINE
  5
28E
330
1F
100
AcDbEntity
  8
DEFAULT
100
AcDbLine
 10
23.71465600000001
 20
0.8420260000000042
 30
0.0
 11
23.71465600000001
 21
1.528176000000002
 31
0.0
  0
LINE
  5
28F
330
1F
100
AcDbEntity
  8
DEFAULT
100
AcDbLine
 10
18.945459
 20
2.766536000000002
 30
0.0
 11
20.34900999999999
 21
2.766536000000002
 31
0.0
  0
LINE
  5
290
330
1F
100
AcDbEntity
  8
DEFAULT
100
AcDbLine
 10
24.749225
 20
2.559055000000001
 30
0.0
 11
24.93328600000001
 21
2.559055000000001
 31
0.0
  0
LINE
  5
291
330
1F
100
AcDbEntity
  8
DEFAULT
100
AcDbLine
 10
59.15552488683355
 20
2.716536236396422
 30
0.0
 11
59.17109065133688
 21
2.699549020605588
 31
0.0
  0
LINE
  5
292
330
1F
100
AcDbEntity
  8
DEFAULT
100
AcDbLine
 10
45.29462388683355
 20
15.308268
 30
0.0
 11
45.29462388683355
 21
15.376316
 31
0.0
  0
LINE
  5
293
330
1F
100
AcDbEntity
  8
DEFAULT
100
AcDbLine
 10
20.31231499999998
 20
2.716536000000005
 30
0.0
 11
18.96848700000001
 21
2.716536000000005
 31
0.0
  0
LINE
  5
294
330
1F
100
AcDbEntity
  8
DEFAULT
100
AcDbLine
 10
35.71606888683355
 20
3.330112
 30
0.0
 11
35.71801788683355
 21
3.357725000000002
 31
0.0
  0
LINE
  5
295
330
1F
100
AcDbEntity
  8
DEFAULT
100
AcDbLine
 10
51.35926488683356
 20
14.192926
 30
0.0
 11
51.15883188683355
 21
14.74360900000001
 31
0.0
  0
ARC
  5
296
330
1F
100
AcDbEntity
  8
DEFAULT
100
AcDbCircle
 10
45.35211579804587
 20
3.46177694675396
 30
0.0
 40
3.262335394286235
100
AcDbArc
 50
91.69226266792415
 51
111.5161964982193
  0
ARC
  5
297
330
1F
100
AcDbEntity
  8
DEFAULT
100
AcDbCircle
 10
-116.4354711268578
 20
460.6569443457831
 30
0.0
 40
481.7166759575724
100
AcDbArc
 50
288.4459068809827
 51
289.4735991548085
  0
LINE
  5
298
330
1F
100
AcDbEntity
  8
DEFAULT
100
AcDbLine
 10
4.604006999999996
 20
3.332634999999996
 30
0.0
 11
4.584224000000006
 21
2.766536000000002
 31
0.0
  0
ARC
  5
299
330
1F
100
AcDbEntity
  8
DEFAULT
100
AcDbCircle
 10
5.013052989029195
 20
3.313137851180829
 30
0.0
 40
0.4095103905311225
100
AcDbArc
 50
110.3431536445801
 51
177.2710660388445
  0
LINE
  5
29A
330
1F
100
AcDbEntity
  8
DEFAULT
100
AcDbLine
 10
22.34117700000002
 20
13.47129
 30
0.0
 11
20.996092
 21
13.471141
 31
0.0
  0
LINE
  5
29B
330
1F
100
AcDbEntity
  8
DEFAULT
100
AcDbLine
 10
13.45090300000001
 20
2.434055000000001
 30
0.0
 11
13.45090300000001
 21
0.125
 31
0.0
  0
LINE
  5
29C
330
1F
100
AcDbEntity
  8
DEFAULT
100
AcDbLine
 10
2.164278163087999
 20
25.990442207
 30
0.0
 11
2.230373430070784
 21
18.87210978166412
 31
0.0
  0
LINE
  5
29D
330
1F
100
AcDbEntity
  8
DEFAULT
100
AcDbLine
 10
2.198117500786026
 20
27.60899500347
 30
0.0
 11
2.164278163087999
 21
25.990442207
 31
0.0
  0
LINE
  5
29E
330
1F
100
AcDbEntity
  8
DEFAULT
100
AcDbLine
 10
2.228481903078006
 20
27.77834489293
 30
0.0
 11
2.198117500786026
 21
27.60899500347
 31
0.0
  0
LINE
  5
29F
330
1F
100
AcDbEntity
  8
DEFAULT
100
AcDbLine
 10
24.63604821773001
 20
1.814273533049999
 30
0.0
 11
24.51733329613
 21
1.603564519589995
 31
0.0
  0
LINE
  5
2A0
330
1F
100
AcDbEntity
  8
DEFAULT
100
AcDbLine
 10
0.218652514729996
 20
2.163622138060006
 30
0.0
 11
0.2972377822700025
 21
1.814273533049999
 31
0.0
  0
LINE
  5
2A1
330
1F
100
AcDbEntity
  8
DEFAULT
100
AcDbLine
 10
0.2972377822700025
 20
1.814273533049999
 30
0.0
 11
0.4159527038700048
 21
1.603564519589995
 31
0.0
  0
LINE
  5
2A2
330
1F
100
AcDbEntity
  8
DEFAULT
100
AcDbLine
 10
20.996092
 20
13.471141
 30
0.0
 11
20.38125199999999
 21
13.471481
 31
0.0
  0
LINE
  5
2A3
330
1F
100
AcDbEntity
  8
DEFAULT
100
AcDbLine
 10
24.51733300000001
 20
0.0
 30
0.0
 11
24.93328600000001
 21
0.0
 31
0.0
  0
SPLINE
  5
2A4
330
1F
100
AcDbEntity
  8
DEFAULT
100
AcDbSpline
210
0.0
220
0.0
230
1.0
 70
     8
 71
     3
 72
    12
 73
     8
 74
     0
 42
0.0000000001
 43
0.0000000001
 40
0.0
 40
0.0
 40
0.0
 40
0.0
 40
1.0
 40
2.0
 40
3.0
 40
4.0
 40
5.0
 40
5.0
 40
5.0
 40
5.0
 10
10.12469309828001
 20
4.729964216949995
 30
0.0
 10
10.21773133886737
 20
4.723555779165522
 30
0.0
 10
10.40272229323031
 20
4.696962308048541
 30
0.0
 10
10.67388113975412
 20
4.627773619713778
 30
0.0
 10
10.93744069235726
 20
4.529954111294913
 30
0.0
 10
11.18306579328427
 20
4.402255900551779
 30
0.0
 10
11.32798860154131
 20
4.264480940083018
 30
0.0
 10
11.328495
 20
4.166141999999994
 30
0.0
  0
LINE
  5
2A5
330
1F
100
AcDbEntity
  8
DEFAULT
100
AcDbLine
 10
1.843519999999984
 20
2.434055000000001
 30
0.0
 11
1.843519999999984
 21
0.125
 31
0.0
  0
LINE
  5
2A6
330
1F
100
AcDbEntity
  8
DEFAULT
100
AcDbLine
 10
19.07837900000001
 20
1.814273999999997
 30
0.0
 11
20.20242300000001
 21
1.814273999999997
 31
0.0
  0
LINE
  5
2A7
330
1F
100
AcDbEntity
  8
DEFAULT
100
AcDbLine
 10
13.348533
 20
9.619292000000002
 30
0.0
 11
12.88817400000002
 21
9.619292000000002
 31
0.0
  0
LINE
  5
2A8
330
1F
100
AcDbEntity
  8
DEFAULT
100
AcDbLine
 10
50.72226788683355
 20
2.716536236396422
 30
0.0
 11
50.73783365133689
 21
2.699549020605588
 31
0.0
  0
LINE
  5
2A9
330
1F
100
AcDbEntity
  8
DEFAULT
100
AcDbLine
 10
22.441336833067
 20
27.55938778734
 30
0.0
 11
22.73822699999999
 21
27.559386
 31
0.0
  0
ARC
  5
2AA
330
1F
100
AcDbEntity
  8
DEFAULT
100
AcDbCircle
 10
22.45902349012804
 20
27.77858979312403
 30
0.0
 40
0.2199143860181468
100
AcDbArc
 50
180.006057655069
 51
265.3869937149785
  0
LINE
  5
2AB
330
1F
100
AcDbEntity
  8
DEFAULT
100
AcDbLine
 10
45.39698988683355
 20
9.619288999999995
 30
0.0
 11
45.29719588683355
 21
9.516958000000002
 31
0.0
  0
CIRCLE
  5
2AC
330
1F
100
AcDbEntity
  8
DEFAULT
100
AcDbCircle
 10
57.55840388683356
 20
1.279527999999999
 30
0.0
 40
1.279527000000002
  0
LINE
  5
2AD
330
1F
100
AcDbEntity
  8
DEFAULT
100
AcDbLine
 10
18.95291
 20
2.699549000000005
 30
0.0
 11
18.999953
 21
2.161844000000002
 31
0.0
  0
LINE
  5
2AE
330
1F
100
AcDbEntity
  8
DEFAULT
100
AcDbLine
 10
13.154134
 20
2.699549000000005
 30
0.0
 11
13.10712700000002
 21
2.162261999999998
 31
0.0
  0
SPLINE
  5
2AF
330
1F
100
AcDbEntity
  8
DEFAULT
100
AcDbSpline
210
0.0
220
0.0
230
1.0
 70
     8
 71
     3
 72
    16
 73
    12
 74
     0
 42
0.0000000001
 43
0.0000000001
 40
0.0
 40
0.0
 40
0.0
 40
0.0
 40
0.2341619387177
 40
0.4361470240471
 40
0.6001935609847
 40
0.7271726137984
 40
0.8208191896425
 40
0.8860680961386
 40
0.9277143745084
 40
0.9566562139274
 40
1.0
 40
1.0
 40
1.0
 40
1.0
 10
11.32126521872001
 20
11.20753179182999
 30
0.0
 10
11.25003577341002
 20
11.24733866104999
 30
0.0
 10
11.11633174198002
 20
11.31968863574001
 30
0.0
 10
10.92918313349
 20
11.41304273954
 30
0.0
 10
10.77230886127998
 20
11.48355667217
 30
0.0
 10
10.64747044011
 20
11.53166482448999
 30
0.0
 10
10.55134038713001
 20
11.56113397822
 30
0.0
 10
10.48359551336
 20
11.57165414347
 30
0.0
 10
10.43270223407998
 20
11.5713998157
 30
0.0
 10
10.40515717404
 20
11.53505885723
 30
0.0
 10
10.41744034389001
 20
11.50866398482999
 30
0.0
 10
10.42400888285999
 20
11.4950632802
 30
0.0
  0
LINE
  5
2B0
330
1F
100
AcDbEntity
  8
DEFAULT
100
AcDbLine
 10
23.390693
 20
2.864996000000005
 30
0.0
 11
23.38725600000001
 21
2.766536000000002
 31
0.0
  0
LINE
  5
2B1
330
1F
100
AcDbEntity
  8
DEFAULT
100
AcDbLine
 10
18.95291023549666
 20
2.699549020605588
 30
0.0
 11
18.96847600000001
 21
2.716536236396422
 31
0.0
  0
LINE
  5
2B2
330
1F
100
AcDbEntity
  8
DEFAULT
100
AcDbLine
 10
20.61124700000002
 20
13.164242
 30
0.0
 11
21.16126599999998
 21
13.164242
 31
0.0
  0
LINE
  5
2B3
330
1F
100
AcDbEntity
  8
DEFAULT
100
AcDbLine
 10
22.34117700000002
 20
13.47129
 30
0.0
 11
22.34115500000001
 21
13.24629
 31
0.0
  0
ARC
  5
2B4
330
1F
100
AcDbEntity
  8
DEFAULT
100
AcDbCircle
 10
12.46664300000035
 20
41.67413900000142
 30
0.0
 40
27.33464376152645
100
AcDbArc
 50
251.5831599870453
 51
262.5531363585924
  0
ARC
  5
2B5
330
1F
100
AcDbEntity
  8
DEFAULT
100
AcDbCircle
 10
6.152144999999993
 20
2.434055000000004
 30
0.0
 40
0.1249999999999973
100
AcDbArc
 50
359.9999999999984
 51
90.00000000000122
  0
ENDSEC
  0
SECTION
  2
OBJECTS
  0
DICTIONARY
  5
C
330
0
100
AcDbDictionary
  3
ACAD_GROUP
350
D
  3
ACAD_LAYOUT
350
1A
  3
ACAD_MLEADERSTYLE
350
2D8
  3
ACAD_MLINESTYLE
350
17
  3
ACAD_PLOTSETTINGS
350
19
  3
ACAD_VISUALSTYLE
350
2A
  3
ACDBHEADERROUNDTRIPXREC
350
2B6
  3
ACDBVARIABLEDICTIONARY
350
2D6
  0
DICTIONARY
  5
D
102
{ACAD_REACTORS
330
C
102
}
330
C
100
AcDbDictionary
  0
DICTIONARY
  5
1A
102
{ACAD_REACTORS
330
C
102
}
330
C
100
AcDbDictionary
  0
DICTIONARY
  5
2D8
102
{ACAD_REACTORS
330
C
102
}
330
C
100
AcDbDictionary
  0
DICTIONARY
  5
17
102
{ACAD_REACTORS
330
C
102
}
330
C
100
AcDbDictionary
  3
STANDARD
350
18
  0
DICTIONARY
  5
19
102
{ACAD_REACTORS
330
C
102
}
330
C
100
AcDbDictionary
  0
DICTIONARY
  5
2A
102
{ACAD_REACTORS
330
C
102
}
330
C
100
AcDbDictionary
  3
2DWIREFRAME
350
2F
  3
3D_HIDDEN
350
31
  3
3DWIREFRAME
350
30
  3
BASIC
350
32
  3
BRIGHTEN
350
36
  3
COLORCHANGE
350
3A
  3
CONCEPTUAL
350
34
  3
DIM
350
35
  3
FACEPATTERN
350
39
  3
FLAT
350
2B
  3
FLATWITHEDGES
350
2C
  3
GOURAUD
350
2D
  3
GOURAUDWITHEDGES
350
2E
  3
LINEPATTERN
350
38
  3
REALISTIC
350
33
  3
THICKEN
350
37
  0
DICTIONARY
  5
2B6
102
{ACAD_REACTORS
330
C
102
}
330
C
100
AcDbDictionary
  3
CEPSNTYPE
350
2BF
  3
DIMSTYLEDATA
350
2D5
  3
FINGERPRINTGUID
350
2C0
  3
HYPERLINKBASE
350
2B9
  3
INSUNITS
350
2BE
  3
LAYOUTDICT
350
2BB
  3
LWETCUNION
350
2BD
  3
PLOTSETDICT
350
2BC
  3
PSVPSCALE
350
2C2
  3
PUCSBASE
350
2C5
  3
PUCSORGBACK
350
2CB
  3
PUCSORGBOTTOM
350
2C7
  3
PUCSORGFRONT
350
2CA
  3
PUCSORGLEFT
350
2C8
  3
PUCSORGRIGHT
350
2C9
  3
PUCSORGTOP
350
2C6
  3
PUCSORTHOREF
350
2C3
  3
PUCSORTHOVIEW
350
2C4
  3
STYLESHEET
350
2BA
  3
TSTACKALIGN
350
2B7
  3
TSTACKSIZE
350
2B8
  3
UCSBASE
350
2CE
  3
UCSORGBACK
350
2D4
  3
UCSORGBOTTOM
350
2D0
  3
UCSORGFRONT
350
2D3
  3
UCSORGLEFT
350
2D1
  3
UCSORGRIGHT
350
2D2
  3
UCSORGTOP
350
2CF
  3
UCSORTHOREF
350
2CC
  3
UCSORTHOVIEW
350
2CD
  3
VERSIONGUID
350
2C1
  0
DICTIONARY
  5
2D6
102
{ACAD_REACTORS
330
C
102
}
330
C
100
AcDbDictionary
  0
MLINESTYLE
  5
18
102
{ACAD_REACTORS
330
17
102
}
330
17
100
AcDbMlineStyle
  2
Standard
 70
     0
  3

 62
   256
 51
90.0
 52
90.0
 71
     2
 49
0.5
 62
   256
  6
BYLAYER
 49
-0.5
 62
   256
  6
BYLAYER
  0
ACAD_PROXY_OBJECT
  5
2F
102
{ACAD_REACTORS
330
2A
102
}
330
2A
100
AcDbProxyObject
 90
      499
 91
      501
 93
      436
310
42CC9915DA5C99599C985B595049028333333333333E3BF0000000000000FB0107901411070040501600405405064090741402480A0340
1001
ACAD
1000
AcDbSavedByObjectVersion
1070
     0
  0
ACAD_PROXY_OBJECT
  5
31
102
{ACAD_REACTORS
330
2A
102
}
330
2A
100
AcDbProxyObject
 90
      499
 91
      501
 93
      500
310
424CD108121A5919195B90640502408333333333333E3BF0000000000000FB01079024090700405020000000000001110200405405064090740C02480A0340
1001
ACAD
1000
AcDbSavedByObjectVersion
1070
     0
  0
ACAD_PROXY_OBJECT
  5
30
102
{ACAD_REACTORS
330
2A
102
}
330
2A
100
AcDbProxyObject
 90
      499
 91
      501
 93
      436
310
42CCD915DA5C99599C985B595059028333333333333E3BF0000000000000FB0107901411070040501600405405064090741402480A0340
1001
ACAD
1000
AcDbSavedByObjectVersion
1070
     0
  0
ACAD_PROXY_OBJECT
  5
32
102
{ACAD_REACTORS
330
2A
102
}
330
2A
100
AcDbProxyObject
 90
      499
 91
      501
 93
      388
310
4150985CDA58D07406404333333333333E3BF0000000000000FB0107A41107004050150841D405064090741402480A0350
1001
ACAD
1000
AcDbSavedByObjectVersion
1070
     0
  0
ACAD_PROXY_OBJECT
  5
36
102
{ACAD_REACTORS
330
2A
102
}
330
2A
100
AcDbProxyObject
 90
      499
 91
      501
 93
      428
310
42109C9A59DA1D195B90C409028333333333333E3BF0000000000000FB010790141107004050150841D405064090741402480A029950
1001
ACAD
1000
AcDbSavedByObjectVersion
1070
     0
  0
ACAD_PROXY_OBJECT
  5
3A
102
{ACAD_REACTORS
330
2A
102
}
330
2A
100
AcDbProxyObject
 90
      499
 91
      501
 93
      452
310
42D0DBDB1BDC90DA185B99D95104090240C333333333333E3BF0000000000000FB0108901411070040501508421405064090741402480A0350
1001
ACAD
1000
AcDbSavedByObjectVersion
1070
     0
  0
ACAD_PROXY_OBJECT
  5
34
102
{ACAD_REACTORS
330
2A
102
}
330
2A
100
AcDbProxyObject
 90
      499
 91
      501
 93
      500
310
4290DBDB98D95C1D1D585B10940D028333333333333E3BF0000000000000FB0107902409070040501000000000000111010841D405064090740C02480A0340
1001
ACAD
1000
AcDbSavedByObjectVersion
1070
     0
  0
ACAD_PROXY_OBJECT
  5
35
102
{ACAD_REACTORS
330
2A
102
}
330
2A
100
AcDbProxyObject
 90
      499
 91
      501
 93
      412
310
40D11A5B50B409028333333333333E3BF0000000000000FB010790141107004050150841D405064090741402480A02677FFFFFD0
1001
ACAD
1000
AcDbSavedByObjectVersion
1070
     0
  0
ACAD_PROXY_OBJECT
  5
39
102
{ACAD_REACTORS
330
2A
102
}
330
2A
100
AcDbProxyObject
 90
      499
 91
      501
 93
      444
310
42D19858D95C185D1D195C9B90F409028333333333333E3BF0000000000000FB010790141107004050150841D405064090741402480A0350
1001
ACAD
1000
AcDbSavedByObjectVersion
1070
     0
  0
ACAD_PROXY_OBJECT
  5
2B
102
{ACAD_REACTORS
330
2A
102
}
330
2A
100
AcDbProxyObject
 90
      499
 91
      501
 93
      388
310
41119B185D240901404333333333333E3BF0000000000000F9010740A41107004050150841D405064090741402480A1B50
1001
ACAD
1000
AcDbSavedByObjectVersion
1070
     0
  0
ACAD_PROXY_OBJECT
  5
2C
102
{ACAD_REACTORS
330
2A
102
}
330
2A
100
AcDbProxyObject
 90
      499
 91
      501
 93
      476
310
43519B185D15DA5D1A115919D95CD0140901404333333333333E3BF0000000000000F9010740901411070040501600405405064090741402480A1B50
1001
ACAD
1000
AcDbSavedByObjectVersion
1070
     0
  0
ACAD_PROXY_OBJECT
  5
2D
102
{ACAD_REACTORS
330
2A
102
}
330
2A
100
AcDbProxyObject
 90
      499
 91
      501
 93
      412
310
41D1DBDD5C985D5910240902404333333333333E3BF0000000000000F9010740A411070040501641D405064090741402480A1B50
1001
ACAD
1000
AcDbSavedByObjectVersion
1070
     0
  0
ACAD_PROXY_OBJECT
  5
2E
102
{ACAD_REACTORS
330
2A
102
}
330
2A
100
AcDbProxyObject
 90
      499
 91
      501
 93
      500
310
4411DBDD5C985D5915DA5D1A115919D95CD0340902404333333333333E3BF0000000000000F9010740901411070040501600405405064090741402480A1B50
1001
ACAD
1000
AcDbSavedByObjectVersion
1070
     0
  0
ACAD_PROXY_OBJECT
  5
38
102
{ACAD_REACTORS
330
2A
102
}
330
2A
100
AcDbProxyObject
 90
      499
 91
      501
 93
      444
310
42D31A5B995C185D1D195C9B90E409028333333333333E3BF0000000000000FB010790141107004050750841D405064090741402483A0350
1001
ACAD
1000
AcDbSavedByObjectVersion
1070
     0
  0
ACAD_PROXY_OBJECT
  5
33
102
{ACAD_REACTORS
330
2A
102
}
330
2A
100
AcDbProxyObject
 90
      499
 91
      501
 93
      420
310
425499585B1A5CDD1A58D08409028333333333333E3BF0000000000000FB01079019070040501508421405064090741402480A1B40
1001
ACAD
1000
AcDbSavedByObjectVersion
1070
     0
  0
ACAD_PROXY_OBJECT
  5
37
102
{ACAD_REACTORS
330
2A
102
}
330
2A
100
AcDbProxyObject
 90
      499
 91
      501
 93
      412
310
41D51A1A58DAD95B90D409028333333333333E3BF0000000000000FB010790141107004050150C41D405064090741402480A0350
1001
ACAD
1000
AcDbSavedByObjectVersion
1070
     0
  0
ACAD_PROXY_OBJECT
  5
2BF
102
{ACAD_REACTORS
330
2B6
102
}
330
2B6
100
AcDbProxyObject
 90
      499
 91
      502
 93
       58
310
4196800000000000
  0
ACAD_PROXY_OBJECT
  5
2D5
102
{ACAD_REACTORS
330
2B6
102
}
330
2B6
100
AcDbProxyObject
 90
      499
 91
      502
 93
      370
310
4B7A00C180079114D51653117A80C040079ECB8105C0518000800B811500550044400000000000003A80C040079F40
  0
ACAD_PROXY_OBJECT
  5
2C0
102
{ACAD_REACTORS
330
2B6
102
}
330
2B6
100
AcDbProxyObject
 90
      499
 91
      502
 93
      354
310
4AC0400980079ED04E4D4C90508C518B4C4D0E508B4D1051118B509191104B504C4CCD8D4CCC104CD0D0D05F40
  0
ACAD_PROXY_OBJECT
  5
2B9
102
{ACAD_REACTORS
330
2B6
102
}
330
2B6
100
AcDbProxyObject
 90
      499
 91
      502
 93
       50
310
41404000000780
  0
ACAD_PROXY_OBJECT
  5
2BE
102
{ACAD_REACTORS
330
2B6
102
}
330
2B6
100
AcDbProxyObject
 90
      499
 91
      502
 93
       58
310
4196800040000000
  0
ACAD_PROXY_OBJECT
  5
2BB
102
{ACAD_REACTORS
330
2B6
102
}
330
2B6
100
AcDbProxyObject
 90
      499
 91
      502
 93
       90
310
429500468000000000000000
  0
ACAD_PROXY_OBJECT
  5
2BD
102
{ACAD_REACTORS
330
2B6
102
}
330
2B6
100
AcDbProxyObject
 90
      499
 91
      502
 93
       58
310
419680074A800000
  0
ACAD_PROXY_OBJECT
  5
2BC
102
{ACAD_REACTORS
330
2B6
102
}
330
2B6
100
AcDbProxyObject
 90
      499
 91
      502
 93
       90
310
429500464000000000000000
  0
ACAD_PROXY_OBJECT
  5
2C2
102
{ACAD_REACTORS
330
2B6
102
}
330
2B6
100
AcDbProxyObject
 90
      499
 91
      502
 93
       90
310
428A00000000000000000000
  0
ACAD_PROXY_OBJECT
  5
2C5
102
{ACAD_REACTORS
330
2B6
102
}
330
2B6
100
AcDbProxyObject
 90
      499
 91
      502
 93
       90
310
429500400000000000000000
  0
ACAD_PROXY_OBJECT
  5
2CB
102
{ACAD_REACTORS
330
2B6
102
}
330
2B6
100
AcDbProxyObject
 90
      499
 91
      502
 93
      218
310
46828000000000000000000000000000000000000000000000000000
  0
ACAD_PROXY_OBJECT
  5
2C7
102
{ACAD_REACTORS
330
2B6
102
}
330
2B6
100
AcDbProxyObject
 90
      499
 91
      502
 93
      218
310
46828000000000000000000000000000000000000000000000000000
  0
ACAD_PROXY_OBJECT
  5
2CA
102
{ACAD_REACTORS
330
2B6
102
}
330
2B6
100
AcDbProxyObject
 90
      499
 91
      502
 93
      218
310
46828000000000000000000000000000000000000000000000000000
  0
ACAD_PROXY_OBJECT
  5
2C8
102
{ACAD_REACTORS
330
2B6
102
}
330
2B6
100
AcDbProxyObject
 90
      499
 91
      502
 93
      218
310
46828000000000000000000000000000000000000000000000000000
  0
ACAD_PROXY_OBJECT
  5
2C9
102
{ACAD_REACTORS
330
2B6
102
}
330
2B6
100
AcDbProxyObject
 90
      499
 91
      502
 93
      218
310
46828000000000000000000000000000000000000000000000000000
  0
ACAD_PROXY_OBJECT
  5
2C6
102
{ACAD_REACTORS
330
2B6
102
}
330
2B6
100
AcDbProxyObject
 90
      499
 91
      502
 93
      218
310
46828000000000000000000000000000000000000000000000000000
  0
ACAD_PROXY_OBJECT
  5
2C3
102
{ACAD_REACTORS
330
2B6
102
}
330
2B6
100
AcDbProxyObject
 90
      499
 91
      502
 93
       90
310
429500400000000000000000
  0
ACAD_PROXY_OBJECT
  5
2C4
102
{ACAD_REACTORS
330
2B6
102
}
330
2B6
100
AcDbProxyObject
 90
      499
 91
      502
 93
       42
310
411180000000
  0
ACAD_PROXY_OBJECT
  5
2BA
102
{ACAD_REACTORS
330
2B6
102
}
330
2B6
100
AcDbProxyObject
 90
      499
 91
      502
 93
       50
310
41404000000780
  0
ACAD_PROXY_OBJECT
  5
2B7
102
{ACAD_REACTORS
330
2B6
102
}
330
2B6
100
AcDbProxyObject
 90
      499
 91
      502
 93
       58
310
4196800040000000
  0
ACAD_PROXY_OBJECT
  5
2B8
102
{ACAD_REACTORS
330
2B6
102
}
330
2B6
100
AcDbProxyObject
 90
      499
 91
      502
 93
       58
310
4196801180000000
  0
ACAD_PROXY_OBJECT
  5
2CE
102
{ACAD_REACTORS
330
2B6
102
}
330
2B6
100
AcDbProxyObject
 90
      499
 91
      502
 93
       90
310
429500400000000000000000
  0
ACAD_PROXY_OBJECT
  5
2D4
102
{ACAD_REACTORS
330
2B6
102
}
330
2B6
100
AcDbProxyObject
 90
      499
 91
      502
 93
      218
310
46828000000000000000000000000000000000000000000000000000
  0
ACAD_PROXY_OBJECT
  5
2D0
102
{ACAD_REACTORS
330
2B6
102
}
330
2B6
100
AcDbProxyObject
 90
      499
 91
      502
 93
      218
310
46828000000000000000000000000000000000000000000000000000
  0
ACAD_PROXY_OBJECT
  5
2D3
102
{ACAD_REACTORS
330
2B6
102
}
330
2B6
100
AcDbProxyObject
 90
      499
 91
      502
 93
      218
310
46828000000000000000000000000000000000000000000000000000
  0
ACAD_PROXY_OBJECT
  5
2D1
102
{ACAD_REACTORS
330
2B6
102
}
330
2B6
100
AcDbProxyObject
 90
      499
 91
      502
 93
      218
310
46828000000000000000000000000000000000000000000000000000
  0
ACAD_PROXY_OBJECT
  5
2D2
102
{ACAD_REACTORS
330
2B6
102
}
330
2B6
100
AcDbProxyObject
 90
      499
 91
      502
 93
      218
310
46828000000000000000000000000000000000000000000000000000
  0
ACAD_PROXY_OBJECT
  5
2CF
102
{ACAD_REACTORS
330
2B6
102
}
330
2B6
100
AcDbProxyObject
 90
      499
 91
      502
 93
      218
310
46828000000000000000000000000000000000000000000000000000
  0
ACAD_PROXY_OBJECT
  5
2CC
102
{ACAD_REACTORS
330
2B6
102
}
330
2B6
100
AcDbProxyObject
 90
      499
 91
      502
 93
       90
310
429500400000000000000000
  0
ACAD_PROXY_OBJECT
  5
2CD
102
{ACAD_REACTORS
330
2B6
102
}
330
2B6
100
AcDbProxyObject
 90
      499
 91
      502
 93
       42
310
411180000000
  0
ACAD_PROXY_OBJECT
  5
2C1
102
{ACAD_REACTORS
330
2B6
102
}
330
2B6
100
AcDbProxyObject
 90
      499
 91
      502
 93
      354
310
4AC0400980079ED19051508C50CCCC8B514C0C4E4B4C4C510D4B4E4C8E508B4C0C10CC11118C8D4D9150CD1F40
  0
ENDSEC
  0
EOF
