  0
SECTION
  2
HEADER
  9
$ACADVER
  1
AC1014
  9
$ACADMAINTVER
 70
     9
  9
$DWGCODEPAGE
  3
ANSI_1252
  9
$INSBASE
 10
0.0
 20
0.0
 30
0.0
  9
$EXTMIN
 10
-0.1249999999999777
 20
-0.0000005000000005
 30
0.0
  9
$EXTMAX
 10
59.19226188683358
 20
70.39264258218657
 30
0.0
  9
$LIMMIN
 10
0.0
 20
0.0
  9
$LIMMAX
 10
12.0
 20
9.0
  9
$ORTHOMODE
 70
     0
  9
$REGENMODE
 70
     1
  9
$FILLMODE
 70
     1
  9
$QTEXTMODE
 70
     0
  9
$MIRRTEXT
 70
     1
  9
$DRAGMODE
 70
     2
  9
$LTSCALE
 40
0.0393700787401575
  9
$OSMODE
 70
    37
  9
$ATTMODE
 70
     1
  9
$TEXTSIZE
 40
0.2
  9
$TRACEWID
 40
0.05
  9
$TEXTSTYLE
  7
STANDARD
  9
$CLAYER
  8
DEFAULT
  9
$CELTYPE
  6
BYLAYER
  9
$CECOLOR
 62
   256
  9
$CELTSCALE
 40
1.0
  9
$DELOBJ
 70
     1
  9
$DISPSILH
 70
     0
  9
$DIMSCALE
 40
1.0
  9
$DIMASZ
 40
0.18
  9
$DIMEXO
 40
0.0625
  9
$DIMDLI
 40
0.38
  9
$DIMRND
 40
0.0
  9
$DIMDLE
 40
0.0
  9
$DIMEXE
 40
0.18
  9
$DIMTP
 40
0.0
  9
$DIMTM
 40
0.0
  9
$DIMTXT
 40
0.18
  9
$DIMCEN
 40
0.09
  9
$DIMTSZ
 40
0.0
  9
$DIMTOL
 70
     0
  9
$DIMLIM
 70
     0
  9
$DIMTIH
 70
     1
  9
$DIMTOH
 70
     1
  9
$DIMSE1
 70
     0
  9
$DIMSE2
 70
     0
  9
$DIMTAD
 70
     0
  9
$DIMZIN
 70
     0
  9
$DIMBLK
  1

  9
$DIMASO
 70
     1
  9
$DIMSHO
 70
     1
  9
$DIMPOST
  1

  9
$DIMAPOST
  1

  9
$DIMALT
 70
     0
  9
$DIMALTD
 70
     2
  9
$DIMALTF
 40
25.4
  9
$DIMLFAC
 40
1.0
  9
$DIMTOFL
 70
     0
  9
$DIMTVP
 40
0.0
  9
$DIMTIX
 70
     0
  9
$DIMSOXD
 70
     0
  9
$DIMSAH
 70
     0
  9
$DIMBLK1
  1

  9
$DIMBLK2
  1

  9
$DIMSTYLE
  2
STANDARD
  9
$DIMCLRD
 70
     0
  9
$DIMCLRE
 70
     0
  9
$DIMCLRT
 70
     0
  9
$DIMTFAC
 40
1.0
  9
$DIMGAP
 40
0.09
  9
$DIMJUST
 70
     0
  9
$DIMSD1
 70
     0
  9
$DIMSD2
 70
     0
  9
$DIMTOLJ
 70
     1
  9
$DIMTZIN
 70
     0
  9
$DIMALTZ
 70
     0
  9
$DIMALTTZ
 70
     0
  9
$DIMFIT
 70
     5
  9
$DIMUPT
 70
     0
  9
$DIMUNIT
 70
     2
  9
$DIMDEC
 70
     4
  9
$DIMTDEC
 70
     4
  9
$DIMALTU
 70
     2
  9
$DIMALTTD
 70
     2
  9
$DIMTXSTY
  7
STANDARD
  9
$DIMAUNIT
 70
     0
  9
$LUNITS
 70
     2
  9
$LUPREC
 70
     3
  9
$SKETCHINC
 40
0.1
  9
$FILLETRAD
 40
0.5
  9
$AUNITS
 70
     0
  9
$AUPREC
 70
     0
  9
$MENU
  1
.
  9
$ELEVATION
 40
0.0
  9
$PELEVATION
 40
0.0
  9
$THICKNESS
 40
0.0
  9
$LIMCHECK
 70
     0
  9
$CHAMFERA
 40
0.5
  9
$CHAMFERB
 40
0.5
  9
$CHAMFERC
 40
1.0
  9
$CHAMFERD
 40
0.0
  9
$SKPOLY
 70
     0
  9
$TDCREATE
 40
2455247.364375798
  9
$TDUPDATE
 40
2455247.36437581
  9
$TDINDWG
 40
0.0000000116
  9
$TDUSRTIMER
 40
0.0000000116
  9
$USRTIMER
 70
     1
  9
$ANGBASE
 50
0.0
  9
$ANGDIR
 70
     0
  9
$PDMODE
 70
     0
  9
$PDSIZE
 40
0.0
  9
$PLINEWID
 40
0.0
  9
$COORDS
 70
     1
  9
$SPLFRAME
 70
     0
  9
$SPLINETYPE
 70
     6
  9
$SPLINESEGS
 70
     8
  9
$ATTDIA
 70
     0
  9
$ATTREQ
 70
     1
  9
$HANDLING
 70
     1
  9
$HANDSEED
  5
30E
  9
$SURFTAB1
 70
     6
  9
$SURFTAB2
 70
     6
  9
$SURFTYPE
 70
     6
  9
$SURFU
 70
     6
  9
$SURFV
 70
     6
  9
$UCSNAME
  2

  9
$UCSORG
 10
0.0
 20
0.0
 30
0.0
  9
$UCSXDIR
 10
1.0
 20
0.0
 30
0.0
  9
$UCSYDIR
 10
0.0
 20
1.0
 30
0.0
  9
$PUCSNAME
  2

  9
$PUCSORG
 10
0.0
 20
0.0
 30
0.0
  9
$PUCSXDIR
 10
1.0
 20
0.0
 30
0.0
  9
$PUCSYDIR
 10
0.0
 20
1.0
 30
0.0
  9
$USERI1
 70
     0
  9
$USERI2
 70
     0
  9
$USERI3
 70
     0
  9
$USERI4
 70
     0
  9
$USERI5
 70
     0
  9
$USERR1
 40
0.0
  9
$USERR2
 40
0.0
  9
$USERR3
 40
0.0
  9
$USERR4
 40
0.0
  9
$USERR5
 40
0.0
  9
$WORLDVIEW
 70
     1
  9
$SHADEDGE
 70
     3
  9
$SHADEDIF
 70
    70
  9
$TILEMODE
 70
     1
  9
$MAXACTVP
 70
    64
  9
$PINSBASE
 10
0.0
 20
0.0
 30
0.0
  9
$PLIMCHECK
 70
     0
  9
$PEXTMIN
 10
1.000000000000000E+20
 20
1.000000000000000E+20
 30
1.000000000000000E+20
  9
$PEXTMAX
 10
-1.000000000000000E+20
 20
-1.000000000000000E+20
 30
-1.000000000000000E+20
  9
$PLIMMIN
 10
0.0
 20
0.0
  9
$PLIMMAX
 10
12.0
 20
9.0
  9
$UNITMODE
 70
     0
  9
$VISRETAIN
 70
     1
  9
$PLINEGEN
 70
     0
  9
$PSLTSCALE
 70
     1
  9
$TREEDEPTH
 70
  3020
  9
$PICKSTYLE
 70
     1
  9
$CMLSTYLE
  2
STANDARD
  9
$CMLJUST
 70
     0
  9
$CMLSCALE
 40
1.0
  9
$PROXYGRAPHICS
 70
     1
  9
$MEASUREMENT
 70
     0
  0
ENDSEC
  0
SECTION
  2
CLASSES
  0
CLASS
  1
ACDBDICTIONARYWDFLT
  2
AcDbDictionaryWithDefault
  3
ObjectDBX Classes
 90
        0
280
     0
281
     0
  0
CLASS
  1
VISUALSTYLE
  2
AcDbVisualStyle
  3
ObjectDBX Classes
 90
     4095
280
     0
281
     0
  0
CLASS
  1
XRECORD
  2
AcDbXrecord
  3
AutoCAD 2000
 90
        0
280
     0
281
     0
  0
CLASS
  1
LWPOLYLINE
  2
AcDbPolyline
  3
AutoCAD 2000
 90
        0
280
     0
281
     1
  0
CLASS
  1
HATCH
  2
AcDbHatch
  3
AutoCAD 2000
 90
        0
280
     0
281
     1
  0
CLASS
  1
ACDBPLACEHOLDER
  2
AcDbPlaceHolder
  3
ObjectDBX Classes
 90
        0
280
     0
281
     0
  0
CLASS
  1
LAYOUT
  2
AcDbLayout
  3
ObjectDBX Classes
 90
        0
280
     0
281
     0
  0
ENDSEC
  0
SECTION
  2
TABLES
  0
TABLE
  2
VPORT
  5
8
330
0
100
AcDbSymbolTable
 70
     1
  0
VPORT
  5
29
330
8
100
AcDbSymbolTableRecord
100
AcDbViewportTableRecord
  2
*ACTIVE
 70
     0
 10
0.0
 20
0.0
 11
1.0
 21
1.0
 12
29.5336309434168
 22
35.19632104109328
 13
0.0
 23
0.0
 14
0.5
 24
0.5
 15
0.5
 25
0.5
 16
0.0
 26
0.0
 36
1.0
 17
0.0
 27
0.0
 37
0.0
 40
71.8004959438303
 41
0.8426628023837377
 42
50.0
 43
0.0
 44
0.0
 50
0.0
 51
0.0
 71
     0
 72
   100
 73
     1
 74
     3
 75
     0
 76
     0
 77
     0
 78
     0
  0
ENDTAB
  0
TABLE
  2
LTYPE
  5
5
330
0
100
AcDbSymbolTable
 70
     1
  0
LTYPE
  5
14
330
5
100
AcDbSymbolTableRecord
100
AcDbLinetypeTableRecord
  2
BYBLOCK
 70
     0
  3

 72
    65
 73
     0
 40
0.0
  0
LTYPE
  5
15
330
5
100
AcDbSymbolTableRecord
100
AcDbLinetypeTableRecord
  2
BYLAYER
 70
     0
  3

 72
    65
 73
     0
 40
0.0
  0
LTYPE
  5
16
330
5
100
AcDbSymbolTableRecord
100
AcDbLinetypeTableRecord
  2
CONTINUOUS
 70
     0
  3
Solid line
 72
    65
 73
     0
 40
0.0
  0
ENDTAB
  0
TABLE
  2
LAYER
  5
2
330
0
100
AcDbSymbolTable
 70
     2
  0
LAYER
  5
10
330
2
100
AcDbSymbolTableRecord
100
AcDbLayerTableRecord
  2
0
 70
     0
 62
     7
  6
CONTINUOUS
  0
LAYER
  5
3B
330
2
100
AcDbSymbolTableRecord
100
AcDbLayerTableRecord
  2
DEFAULT
 70
     0
 62
     7
  6
CONTINUOUS
  0
ENDTAB
  0
TABLE
  2
STYLE
  5
3
330
0
100
AcDbSymbolTable
 70
     1
  0
STYLE
  5
11
330
3
100
AcDbSymbolTableRecord
100
AcDbTextStyleTableRecord
  2
STANDARD
 70
     0
 40
0.0
 41
1.0
 50
0.0
 71
     0
 42
0.2
  3
txt
  4

  0
ENDTAB
  0
TABLE
  2
VIEW
  5
6
330
0
100
AcDbSymbolTable
 70
     0
  0
ENDTAB
  0
TABLE
  2
UCS
  5
7
330
0
100
AcDbSymbolTable
 70
     0
  0
ENDTAB
  0
TABLE
  2
APPID
  5
9
330
0
100
AcDbSymbolTable
 70
     1
  0
APPID
  5
12
330
9
100
AcDbSymbolTableRecord
100
AcDbRegAppTableRecord
  2
ACAD
 70
     0
  0
ENDTAB
  0
TABLE
  2
DIMSTYLE
  5
A
330
0
100
AcDbSymbolTable
 70
     1
  0
DIMSTYLE
105
27
330
A
100
AcDbSymbolTableRecord
100
AcDbDimStyleTableRecord
  2
STANDARD
 70
     0
  3

  4

  5

  6

  7

 40
1.0
 41
0.18
 42
0.0625
 43
0.38
 44
0.18
 45
0.0
 46
0.0
 47
0.0
 48
0.0
140
0.18
141
0.09
142
0.0
143
25.4
144
1.0
145
0.0
146
1.0
147
0.09
 71
     0
 72
     0
 73
     1
 74
     1
 75
     0
 76
     0
 77
     0
 78
     0
170
     0
171
     2
172
     0
173
     0
174
     0
175
     0
176
     0
177
     0
178
     0
270
     2
271
     4
272
     4
273
     2
274
     2
340
11
275
     0
280
     0
281
     0
282
     0
283
     1
284
     0
285
     0
286
     0
287
     3
288
     0
  0
ENDTAB
  0
TABLE
  2
BLOCK_RECORD
  5
1
330
0
100
AcDbSymbolTable
 70
     1
  0
BLOCK_RECORD
  5
1F
330
1
100
AcDbSymbolTableRecord
100
AcDbBlockTableRecord
  2
*MODEL_SPACE
  0
BLOCK_RECORD
  5
1B
330
1
100
AcDbSymbolTableRecord
100
AcDbBlockTableRecord
  2
*PAPER_SPACE
  0
ENDTAB
  0
ENDSEC
  0
SECTION
  2
BLOCKS
  0
BLOCK
  5
20
330
1F
100
AcDbEntity
  8
0
100
AcDbBlockBegin
  2
*MODEL_SPACE
 70
     0
 10
0.0
 20
0.0
 30
0.0
  3
*MODEL_SPACE
  1

  0
ENDBLK
  5
21
330
1F
100
AcDbEntity
  8
0
100
AcDbBlockEnd
  0
BLOCK
  5
1C
330
1B
100
AcDbEntity
 67
     1
  8
0
100
AcDbBlockBegin
  2
*PAPER_SPACE
 70
     0
 10
0.0
 20
0.0
 30
0.0
  3
*PAPER_SPACE
  1

  0
ENDBLK
  5
1D
330
1B
100
AcDbEntity
 67
     1
  8
0
100
AcDbBlockEnd
  0
ENDSEC
  0
SECTION
  2
ENTITIES
  0
CIRCLE
  5
3C
330
1F
100
AcDbEntity
  8
DEFAULT
100
AcDbCircle
 10
35.47984988683358
 20
1.279527999999998
 30
0.0
 40
1.154527000000003
  0
LINE
  5
3D
330
1F
100
AcDbEntity
  8
DEFAULT
100
AcDbLine
 10
58.25535744300258
 20
3.294561197579998
 30
0.0
 11
48.19605865063357
 21
5.951599063980002
 31
0.0
  0
ARC
  5
3E
330
1F
100
AcDbEntity
  8
DEFAULT
100
AcDbCircle
 10
47.09905283931167
 20
4.423758994768047
 30
0.0
 40
0.2823036216081345
100
AcDbArc
 50
99.51517458890979
 51
236.1204695289047
  0
LINE
  5
3F
330
1F
100
AcDbEntity
  8
DEFAULT
100
AcDbLine
 10
38.49542573002269
 20
14.39634115234505
 30
0.0
 11
38.36094188683359
 21
14.33949478137092
 31
0.0
  0
ARC
  5
40
330
1F
100
AcDbEntity
  8
DEFAULT
100
AcDbCircle
 10
0.0000000000000223
 20
56.62234508218658
 30
0.0
 40
0.125
100
AcDbArc
 50
89.99999999999719
 51
180.0
  0
ARC
  5
41
330
1F
100
AcDbEntity
  8
DEFAULT
100
AcDbCircle
 10
13.32590300000003
 20
2.434055000000019
 30
0.0
 40
0.1249999999999822
100
AcDbArc
 50
359.9999999999919
 51
90.00000000000814
  0
LINE
  5
42
330
1F
100
AcDbEntity
  8
DEFAULT
100
AcDbLine
 10
24.45827200000002
 20
56.68829008218658
 30
0.0
 11
24.51732700000002
 21
56.74734508218658
 31
0.0
  0
ARC
  5
43
330
1F
100
AcDbEntity
  8
DEFAULT
100
AcDbCircle
 10
24.93328000000005
 20
56.62234508218661
 30
0.0
 40
0.1249999999999716
100
AcDbArc
 50
359.999999999987
 51
90.00000000001303
  0
ARC
  5
44
330
1F
100
AcDbEntity
  8
DEFAULT
100
AcDbCircle
 10
23.21476600000003
 20
2.434054999999994
 30
0.0
 40
0.1250000000000071
100
AcDbArc
 50
90.00000000000325
 51
179.9999999999967
  0
LINE
  5
45
330
1F
100
AcDbEntity
  8
DEFAULT
100
AcDbLine
 10
20.18125200000003
 20
13.246775
 30
0.0
 11
20.38115500000004
 21
13.246693
 31
0.0
  0
ARC
  5
46
330
1F
100
AcDbEntity
  8
DEFAULT
100
AcDbCircle
 10
20.49966000000004
 20
0.1249999999999883
 30
0.0
 40
0.1249999999999893
100
AcDbArc
 50
269.9999999999951
 51
0.0000000000053942
  0
ARC
  5
47
330
1F
100
AcDbEntity
  8
DEFAULT
100
AcDbCircle
 10
24.93328600000004
 20
2.434055000000003
 30
0.0
 40
0.1249999999999978
100
AcDbArc
 50
359.999999999999
 51
90.00000000000163
  0
LINE
  5
48
330
1F
100
AcDbEntity
  8
DEFAULT
100
AcDbLine
 10
3.937194000000034
 20
13.471141
 30
0.0
 11
4.55203400000002
 21
13.471481
 31
0.0
  0
LINE
  5
49
330
1F
100
AcDbEntity
  8
DEFAULT
100
AcDbLine
 10
11.48495900000003
 20
9.516962
 30
0.0
 11
13.44832600000004
 21
9.516962
 31
0.0
  0
LINE
  5
4A
330
1F
100
AcDbEntity
  8
DEFAULT
100
AcDbLine
 10
24.28859300000003
 20
2.766535999999999
 30
0.0
 11
24.28859300000003
 21
2.716536000000001
 31
0.0
  0
SPLINE
  5
4B
330
1F
100
AcDbEntity
  8
DEFAULT
100
AcDbSpline
210
0.0
220
0.0
230
1.0
 70
     8
 71
     3
 72
    24
 73
    20
 74
     0
 42
0.0000000001
 43
0.0000000001
 40
0.0
 40
0.0
 40
0.0
 40
0.0
 40
0.07715671941002
 40
0.1702225681787
 40
0.2655326468086
 40
0.3559272967056
 40
0.4393819603914
 40
0.5147685145828
 40
0.5807028313599
 40
0.6367190125566
 40
0.6826906877213
 40
0.7199123792478
 40
0.7515826633142
 40
0.7832529474155
 40
0.8204746391833
 40
0.8664463143469
 40
0.9224624960007
 40
0.9883968126878
 40
1.0
 40
1.0
 40
1.0
 40
1.0
 10
12.46664347264002
 20
10.16913266352
 30
0.0
 10
12.50157780490002
 20
10.16913266352
 30
0.0
 10
12.57865563855003
 20
10.16779094048
 30
0.0
 10
12.69872748762003
 20
10.16100799369
 30
0.0
 10
12.82433424003003
 20
10.14807452431
 30
0.0
 10
12.94481171426003
 20
10.12931577296
 30
0.0
 10
13.05517127170003
 20
10.10539295835
 30
0.0
 10
13.15297408658003
 20
10.07687422145
 30
0.0
 10
13.23634715586005
 20
10.0443485401
 30
0.0
 10
13.30367768970004
 20
10.00850308599
 30
0.0
 10
13.35391241204005
 20
9.969788480480002
 30
0.0
 10
13.38643886831002
 20
9.928070059629999
 30
0.0
 10
13.39842563704005
 20
9.882362684450001
 30
0.0
 10
13.38643886822004
 20
9.836655309240001
 30
0.0
 10
13.35391241223002
 20
9.79493688797
 30
0.0
 10
13.30367768933004
 20
9.75622228273
 30
0.0
 10
13.23634715637004
 20
9.72037682665
 30
0.0
 10
13.17992196582003
 20
9.69836411087
 30
0.0
 10
13.14662610343004
 20
9.687198464529999
 30
0.0
 10
13.14163233039002
 20
9.685562185639998
 30
0.0
  0
LINE
  5
4C
330
1F
100
AcDbEntity
  8
DEFAULT
100
AcDbLine
 10
23.71465600000003
 20
0.8420279999999991
 30
0.0
 11
24.43339600000003
 21
0.8420279999999991
 31
0.0
  0
LINE
  5
4D
330
1F
100
AcDbEntity
  8
DEFAULT
100
AcDbLine
 10
20.08370800000003
 20
1.603565
 30
0.0
 11
20.08370800000003
 21
0.0
 31
0.0
  0
LINE
  5
4E
330
1F
100
AcDbEntity
  8
DEFAULT
100
AcDbLine
 10
12.90995100000004
 20
0.0
 30
0.0
 11
13.32590300000001
 21
0.0
 31
0.0
  0
LINE
  5
4F
330
1F
100
AcDbEntity
  8
DEFAULT
100
AcDbLine
 10
18.78114100000002
 20
0.0
 30
0.0
 11
19.19709300000002
 21
0.0
 31
0.0
  0
LINE
  5
50
330
1F
100
AcDbEntity
  8
DEFAULT
100
AcDbLine
 10
24.74595100000003
 20
2.716535738299618
 30
0.0
 11
24.76151626070421
 21
2.699548977187338
 31
0.0
  0
ARC
  5
51
330
1F
100
AcDbEntity
  8
DEFAULT
100
AcDbCircle
 10
23.21476600000003
 20
0.1250000000000071
 30
0.0
 40
0.1250000000000071
100
AcDbArc
 50
180.0000000000033
 51
269.9999999999968
  0
LINE
  5
52
330
1F
100
AcDbEntity
  8
DEFAULT
100
AcDbLine
 10
19.19709343785004
 20
1.603564519590002
 30
0.0
 11
19.07837851625001
 21
1.814273533049999
 31
0.0
  0
LINE
  5
53
330
1F
100
AcDbEntity
  8
DEFAULT
100
AcDbLine
 10
10.66289700000002
 20
12.561849
 30
0.0
 11
14.27038800000003
 21
12.561849
 31
0.0
  0
LINE
  5
54
330
1F
100
AcDbEntity
  8
DEFAULT
100
AcDbLine
 10
16.00552100000002
 20
13.834828
 30
0.0
 11
20.31136000000004
 21
13.834405
 31
0.0
  0
LINE
  5
55
330
1F
100
AcDbEntity
  8
DEFAULT
100
AcDbLine
 10
4.55203400000002
 20
13.471692
 30
0.0
 11
4.752012000000036
 21
13.471775
 31
0.0
  0
LINE
  5
56
330
1F
100
AcDbEntity
  8
DEFAULT
100
AcDbLine
 10
1.546750000000031
 20
2.699549000000001
 30
0.0
 11
1.499707000000029
 21
2.161843999999999
 31
0.0
  0
LINE
  5
57
330
1F
100
AcDbEntity
  8
DEFAULT
100
AcDbLine
 10
4.849578000000037
 20
0.0
 30
0.0
 11
4.433626000000032
 21
0.0
 31
0.0
  0
LINE
  5
58
330
1F
100
AcDbEntity
  8
DEFAULT
100
AcDbLine
 10
11.48238300000003
 20
2.434055000000001
 30
0.0
 11
11.48238300000003
 21
0.125
 31
0.0
  0
LINE
  5
59
330
1F
100
AcDbEntity
  8
DEFAULT
100
AcDbLine
 10
9.159556000000038
 20
14.383071
 30
0.0
 11
15.77372900000003
 21
14.383071
 31
0.0
  0
LINE
  5
5A
330
1F
100
AcDbEntity
  8
DEFAULT
100
AcDbLine
 10
4.308626000000032
 20
2.434055000000001
 30
0.0
 11
4.308626000000032
 21
0.125
 31
0.0
  0
LINE
  5
5B
330
1F
100
AcDbEntity
  8
DEFAULT
100
AcDbLine
 10
13.02866548086004
 20
1.814273533049999
 30
0.0
 11
12.90995055926001
 21
1.603564519590002
 31
0.0
  0
LINE
  5
5C
330
1F
100
AcDbEntity
  8
DEFAULT
100
AcDbLine
 10
9.075402000000025
 20
13.615355
 30
0.0
 11
8.927765000000022
 21
13.615355
 31
0.0
  0
SPLINE
  5
5D
330
1F
100
AcDbEntity
  8
DEFAULT
100
AcDbSpline
210
0.0
220
0.0
230
1.0
 70
     8
 71
     3
 72
    19
 73
    15
 74
     0
 42
0.0000000001
 43
0.0000000001
 40
0.0
 40
0.0
 40
0.0
 40
0.0
 40
0.1011763222572
 40
0.2232144367775
 40
0.3481954240116
 40
0.4667307689401
 40
0.576165643506
 40
0.6750207307125
 40
0.7614810123431
 40
0.8349355497899
 40
0.8952186339714
 40
0.9440277832864
 40
0.9855573206089
 40
1.0
 40
1.0
 40
1.0
 40
1.0
 10
12.46664347264002
 20
10.2732567463
 30
0.0
 10
12.50406507897003
 20
10.2732567463
 30
0.0
 10
12.58663074418004
 20
10.27181949255
 30
0.0
 10
12.71525153722004
 20
10.26455363124
 30
0.0
 10
12.84980130727004
 20
10.25069929214
 30
0.0
 10
12.97885660443004
 20
10.23060495602
 30
0.0
 10
13.09707360281001
 20
10.20497886796
 30
0.0
 10
13.20183983589001
 20
10.17442963664
 30
0.0
 10
13.29114894751004
 20
10.13958817522
 30
0.0
 10
13.36327331687002
 20
10.10119057466
 30
0.0
 10
13.41708467907003
 20
10.05971954588
 30
0.0
 10
13.45192697134004
 20
10.01503083324
 30
0.0
 10
13.46212969219002
 20
9.97612630459
 30
0.0
 10
13.46023431725004
 20
9.955344243910002
 30
0.0
 10
13.45931869938002
 20
9.950041687679999
 30
0.0
  0
LINE
  5
5E
330
1F
100
AcDbEntity
  8
DEFAULT
100
AcDbLine
 10
24.51733300000004
 20
0.0
 30
0.0
 11
24.45827800000004
 21
0.0590550000000007
 31
0.0
  0
LINE
  5
5F
330
1F
100
AcDbEntity
  8
DEFAULT
100
AcDbLine
 10
9.722019000000017
 20
12.884905
 30
0.0
 11
4.622008000000022
 21
12.884405
 31
0.0
  0
LINE
  5
60
330
1F
100
AcDbEntity
  8
DEFAULT
100
AcDbLine
 10
12.85089500000004
 20
1.510404000000001
 30
0.0
 11
12.85089500000004
 21
0.0590609999999998
 31
0.0
  0
LINE
  5
61
330
1F
100
AcDbEntity
  8
DEFAULT
100
AcDbLine
 10
20.61128500000004
 20
13.554242
 30
0.0
 11
20.31136000000004
 21
13.834405
 31
0.0
  0
LINE
  5
62
330
1F
100
AcDbEntity
  8
DEFAULT
100
AcDbLine
 10
20.18125200000003
 20
13.246775
 30
0.0
 11
20.18127400000003
 21
13.471775
 31
0.0
  0
LINE
  5
63
330
1F
100
AcDbEntity
  8
DEFAULT
100
AcDbLine
 10
19.02340215744502
 20
3.064590183044999
 30
0.0
 11
14.27225800000002
 21
4.626526000000002
 31
0.0
  0
LINE
  5
64
330
1F
100
AcDbEntity
  8
DEFAULT
100
AcDbLine
 10
19.07482377829004
 20
3.045418324300002
 30
0.0
 11
19.02340215744502
 21
3.064590183044999
 31
0.0
  0
LINE
  5
65
330
1F
100
AcDbEntity
  8
DEFAULT
100
AcDbLine
 10
19.06665605450004
 20
2.863356318769998
 30
0.0
 11
19.07482377829004
 21
3.045418324300002
 31
0.0
  0
LINE
  5
66
330
1F
100
AcDbEntity
  8
DEFAULT
100
AcDbLine
 10
1.665856553720033
 20
3.045418127809999
 30
0.0
 11
1.54257000000004
 21
2.865670000000001
 31
0.0
  0
LINE
  5
67
330
1F
100
AcDbEntity
  8
DEFAULT
100
AcDbLine
 10
9.89203319314501
 20
4.717333876135001
 30
0.0
 11
1.665856553720033
 21
3.045418127809999
 31
0.0
  0
ARC
  5
68
330
1F
100
AcDbEntity
  8
DEFAULT
100
AcDbCircle
 10
10.06028898514587
 20
2.404666518010696
 30
0.0
 40
2.318779920750456
100
AcDbArc
 50
50.3245367847106
 51
94.16116537244173
  0
LINE
  5
69
330
1F
100
AcDbEntity
  8
DEFAULT
100
AcDbLine
 10
19.28103000000002
 20
0.8420279999999991
 30
0.0
 11
19.99977100000004
 21
0.8420279999999991
 31
0.0
  0
LINE
  5
6A
330
1F
100
AcDbEntity
  8
DEFAULT
100
AcDbLine
 10
25.05828600000004
 20
2.434055000000001
 30
0.0
 11
25.05828600000004
 21
0.125
 31
0.0
  0
ARC
  5
6B
330
1F
100
AcDbEntity
  8
DEFAULT
100
AcDbCircle
 10
12.46664252736002
 20
2.050758743568553
 30
0.0
 40
0.6342236987375338
100
AcDbArc
 50
235.4844523428085
 51
304.5155476571915
  0
LINE
  5
6C
330
1F
100
AcDbEntity
  8
DEFAULT
100
AcDbLine
 10
13.10725074840005
 20
2.163622138059999
 30
0.0
 11
13.02866548086004
 21
1.814273533049999
 31
0.0
  0
LINE
  5
6D
330
1F
100
AcDbEntity
  8
DEFAULT
100
AcDbLine
 10
1.421281798690046
 20
1.814273533049999
 30
0.0
 11
1.499844953260038
 21
2.163334469540001
 31
0.0
  0
LINE
  5
6E
330
1F
100
AcDbEntity
  8
DEFAULT
100
AcDbLine
 10
0.4159527038700332
 20
1.603564519590002
 30
0.0
 11
0.4750078219800287
 21
1.510403866539999
 31
0.0
  0
ARC
  5
6F
330
1F
100
AcDbEntity
  8
DEFAULT
100
AcDbCircle
 10
0.0000000000000453
 20
54.3132900821866
 30
0.0
 40
0.1250000000000169
100
AcDbArc
 50
180.000000000013
 51
269.9999999999923
  0
LINE
  5
70
330
1F
100
AcDbEntity
  8
DEFAULT
100
AcDbLine
 10
11.77100200000004
 20
46.27463508218656
 30
0.0
 11
11.76908900000004
 21
46.33760708218657
 31
0.0
  0
ARC
  5
71
330
1F
100
AcDbEntity
  8
DEFAULT
100
AcDbCircle
 10
11.60738300000005
 20
45.8800330821866
 30
0.0
 40
0.1250000000000213
100
AcDbArc
 50
180.000000000013
 51
269.9999999999902
  0
LINE
  5
72
330
1F
100
AcDbEntity
  8
DEFAULT
100
AcDbLine
 10
1.990397500000029
 20
17.0712255
 30
0.0
 11
2.112624738536965
 21
17.1059773625515
 31
0.0
  0
LINE
  5
73
330
1F
100
AcDbEntity
  8
DEFAULT
100
AcDbLine
 10
1.100829000000033
 20
17.0718345
 30
0.0
 11
1.990397500000029
 21
17.0712255
 31
0.0
  0
ARC
  5
74
330
1F
100
AcDbEntity
  8
DEFAULT
100
AcDbCircle
 10
1.105395469369588
 20
17.32231164205549
 30
0.0
 40
0.2505187644364944
100
AcDbArc
 50
182.5018696496567
 51
268.9555516381796
  0
LINE
  5
75
330
1F
100
AcDbEntity
  8
DEFAULT
100
AcDbLine
 10
0.4653940000000318
 20
27.859161
 30
0.0
 11
0.8551155000000392
 21
17.311376
 31
0.0
  0
ARC
  5
76
330
1F
100
AcDbEntity
  8
DEFAULT
100
AcDbCircle
 10
0.7474884390667758
 20
27.90856630511403
 30
0.0
 40
0.2863881225291811
100
AcDbArc
 50
104.5209920049875
 51
189.9338874850784
  0
LINE
  5
77
330
1F
100
AcDbEntity
  8
DEFAULT
100
AcDbLine
 10
0.6757410000000448
 20
28.185808
 30
0.0
 11
0.6756810000000257
 21
28.185806
 31
0.0
  0
LINE
  5
78
330
1F
100
AcDbEntity
  8
DEFAULT
100
AcDbLine
 10
2.557568500000031
 20
28.180896
 30
0.0
 11
0.6757410000000448
 21
28.185808
 31
0.0
  0
LINE
  5
79
330
1F
100
AcDbEntity
  8
DEFAULT
100
AcDbLine
 10
2.764125000000035
 20
27.992543
 30
0.0
 11
2.557568500000031
 21
28.180896
 31
0.0
  0
ARC
  5
7A
330
1F
100
AcDbEntity
  8
DEFAULT
100
AcDbCircle
 10
49.78919627991459
 20
-145.2639314587782
 30
0.0
 40
160.7075543923098
100
AcDbArc
 50
88.34522170892824
 51
91.79767687012867
  0
LINE
  5
7B
330
1F
100
AcDbEntity
  8
DEFAULT
100
AcDbLine
 10
0.5594518104253723
 20
56.74734508218658
 30
0.0
 11
0.4998900000000219
 21
56.74734508218658
 31
0.0
  0
LINE
  5
7C
330
1F
100
AcDbEntity
  8
DEFAULT
100
AcDbLine
 10
2.767854000000028
 20
66.24606808218655
 30
0.0
 11
2.53022500000003
 21
66.17775408218657
 31
0.0
  0
ARC
  5
7D
330
1F
100
AcDbEntity
  8
DEFAULT
100
AcDbCircle
 10
20.49965400000004
 20
70.26764208218657
 30
0.0
 40
0.1250001078498997
100
AcDbArc
 50
6.123495590119568
 51
89.99999999999675
  0
ARC
  5
7E
330
1F
100
AcDbEntity
  8
DEFAULT
100
AcDbCircle
 10
125.841705796661
 20
71.37704513873727
 30
0.0
 40
103.9024984996978
100
AcDbArc
 50
180.602461683252
 51
184.09327048613
  0
LINE
  5
7F
330
1F
100
AcDbEntity
  8
DEFAULT
100
AcDbLine
 10
0.475008000000031
 20
56.68827908218658
 30
0.0
 11
0.475008000000031
 21
55.13778108218656
 31
0.0
  0
LINE
  5
80
330
1F
100
AcDbEntity
  8
DEFAULT
100
AcDbLine
 10
13.16227800000004
 20
46.27463508218656
 30
0.0
 11
13.16419100000005
 21
46.33760708218657
 31
0.0
  0
ARC
  5
81
330
1F
100
AcDbEntity
  8
DEFAULT
100
AcDbCircle
 10
12.46664299999992
 20
41.67413900000047
 30
0.0
 40
27.33464376152548
100
AcDbArc
 50
277.4468636414074
 51
288.4168400129548
  0
SPLINE
  5
82
330
1F
100
AcDbEntity
  8
DEFAULT
100
AcDbSpline
210
0.0
220
0.0
230
1.0
 70
     8
 71
     3
 72
    14
 73
    10
 74
     0
 42
0.0000000001
 43
0.0000000001
 40
0.0
 40
0.0
 40
0.0
 40
0.0
 40
1.0
 40
2.0
 40
3.0
 40
4.0
 40
5.0
 40
6.0
 40
7.0
 40
7.0
 40
7.0
 40
7.0
 10
23.7281201632851
 20
3.251948988540001
 30
0.0
 10
23.25225436828632
 20
3.413754867869647
 30
0.0
 10
22.27477251480357
 20
3.67354500673239
 30
0.0
 10
20.81921788343791
 20
4.08942133634804
 30
0.0
 10
19.36011903481997
 20
4.497550052257092
 30
0.0
 10
17.90093076592635
 20
4.897675052305334
 30
0.0
 10
16.44131590241059
 20
5.322010031496397
 30
0.0
 10
14.98538480087495
 20
5.664125288711947
 30
0.0
 10
13.99119541987253
 20
6.044233048359406
 30
0.0
 10
13.52179268781009
 20
5.88586085499
 30
0.0
  0
ARC
  5
83
330
1F
100
AcDbEntity
  8
DEFAULT
100
AcDbCircle
 10
23.40780626705973
 20
2.888479601164981
 30
0.0
 40
0.484469800579816
100
AcDbArc
 50
345.4215558485475
 51
48.61130840106355
  0
LINE
  5
84
330
1F
100
AcDbEntity
  8
DEFAULT
100
AcDbLine
 10
5.748080143120035
 20
3.064590183044999
 30
0.0
 11
5.469307973140047
 21
2.863356444219999
 31
0.0
  0
LINE
  5
85
330
1F
100
AcDbEntity
  8
DEFAULT
100
AcDbLine
 10
10.57485700000004
 20
4.651389999999999
 30
0.0
 11
5.748080143120035
 21
3.064590183044999
 31
0.0
  0
SPLINE
  5
86
330
1F
100
AcDbEntity
  8
DEFAULT
100
AcDbSpline
210
0.0
220
0.0
230
1.0
 70
     8
 71
     3
 72
    12
 73
     8
 74
     0
 42
0.0000000001
 43
0.0000000001
 40
0.0
 40
0.0
 40
0.0
 40
0.0
 40
1.0
 40
2.0
 40
3.0
 40
4.0
 40
5.0
 40
5.0
 40
5.0
 40
5.0
 10
14.80859290172003
 20
4.729964216950002
 30
0.0
 10
14.71555466113264
 20
4.72355577916553
 30
0.0
 10
14.53056370676973
 20
4.696962308048541
 30
0.0
 10
14.25940486024592
 20
4.627773619713771
 30
0.0
 10
13.99584530764278
 20
4.529954111294916
 30
0.0
 10
13.75022020671574
 20
4.402255900551779
 30
0.0
 10
13.60529739845873
 20
4.264480940083022
 30
0.0
 10
13.60479100000003
 20
4.166142000000001
 30
0.0
  0
ARC
  5
87
330
1F
100
AcDbEntity
  8
DEFAULT
100
AcDbCircle
 10
11.18477792764757
 20
137.7146629716352
 30
0.0
 40
89.91366288646684
100
AcDbArc
 50
264.2103203859313
 51
270.8168719235885
  0
LINE
  5
88
330
1F
100
AcDbEntity
  8
DEFAULT
100
AcDbLine
 10
24.37383415762996
 20
56.74734508218658
 30
0.0
 11
24.43339000000003
 21
56.74734508218658
 31
0.0
  0
SPLINE
  5
89
330
1F
100
AcDbEntity
  8
DEFAULT
100
AcDbSpline
210
0.0
220
0.0
230
1.0
 70
     8
 71
     3
 72
    19
 73
    15
 74
     0
 42
0.0000000001
 43
0.0000000001
 40
-12.0
 40
-12.0
 40
-12.0
 40
-12.0
 40
-11.0
 40
-10.0
 40
-9.0
 40
-8.0
 40
-7.0
 40
-6.0
 40
-5.0
 40
-4.0
 40
-3.0
 40
-2.0
 40
-1.0
 40
0.0
 40
0.0
 40
0.0
 40
0.0
 10
2.30466474008503
 20
18.97124582819
 30
0.0
 10
2.587894410051746
 20
18.97043343682859
 30
0.0
 10
3.154390185207973
 20
18.96251081591258
 30
0.0
 10
4.00314091018177
 20
18.91911390561205
 30
0.0
 10
4.849724244302308
 20
18.84513789427253
 30
0.0
 10
5.694105558772407
 20
18.74981002159399
 30
0.0
 10
6.537189487912997
 20
18.64390869743002
 30
0.0
 10
7.380310534008146
 20
18.53825471139147
 30
0.0
 10
8.224677585914975
 20
18.44295865778832
 30
0.0
 10
9.070720405010178
 20
18.36344223226774
 30
0.0
 10
9.918569773891278
 20
18.30632882355888
 30
0.0
 10
10.76743437207318
 20
18.26742393890574
 30
0.0
 10
11.61694212141427
 20
18.24718122036217
 30
0.0
 10
12.18340562186475
 20
18.24236268146365
 30
0.0
 10
12.46664300000003
 20
18.242289
 30
0.0
  0
SPLINE
  5
8A
330
1F
100
AcDbEntity
  8
DEFAULT
100
AcDbSpline
210
0.0
220
0.0
230
1.0
 70
     8
 71
     3
 72
    19
 73
    15
 74
     0
 42
0.0000000001
 43
0.0000000001
 40
0.0
 40
0.0
 40
0.0
 40
0.0
 40
1.0
 40
2.0
 40
3.0
 40
4.0
 40
5.0
 40
6.0
 40
7.0
 40
8.0
 40
9.0
 40
10.0
 40
11.0
 40
12.0
 40
12.0
 40
12.0
 40
12.0
 10
2.114597000000032
 20
16.133376
 30
0.0
 10
2.113388263889391
 20
16.21321062021278
 30
0.0
 10
2.110632417182075
 20
16.37287389933493
 30
0.0
 10
2.107767559587188
 20
16.61239065323156
 30
0.0
 10
2.108495285334783
 20
16.85192699782272
 30
0.0
 10
2.11188785062123
 20
17.09143748326489
 30
0.0
 10
2.117949303504332
 20
17.33089256367683
 30
0.0
 10
2.12586922474361
 20
17.57030247404123
 30
0.0
 10
2.135450443545409
 20
17.8096107115204
 30
0.0
 10
2.146475993981909
 20
18.04900926666603
 30
0.0
 10
2.160181253811743
 20
18.28770820964376
 30
0.0
 10
2.176857961334491
 20
18.52831550629372
 30
0.0
 10
2.209395400691648
 20
18.75987529725518
 30
0.0
 10
2.232448546821644
 20
18.93220506665516
 30
0.0
 10
2.30466474008503
 20
18.97124582819
 30
0.0
  0
ARC
  5
8B
330
1F
100
AcDbEntity
  8
DEFAULT
100
AcDbCircle
 10
51.74336288683359
 20
14.04117
 30
0.0
 40
0.3937003221169116
100
AcDbArc
 50
184.9999668273257
 51
256.0211134260711
  0
LINE
  5
8C
330
1F
100
AcDbEntity
  8
DEFAULT
100
AcDbLine
 10
22.37662700000001
 20
28.180938
 30
0.0
 11
22.90507000000002
 21
28.184911
 31
0.0
  0
LINE
  5
8D
330
1F
100
AcDbEntity
  8
DEFAULT
100
AcDbLine
 10
47.26055988683359
 20
9.516962
 30
0.0
 11
45.29719288683359
 21
9.516962
 31
0.0
  0
ARC
  5
8E
330
1F
100
AcDbEntity
  8
DEFAULT
100
AcDbCircle
 10
28.15284557067734
 20
23.06327075037639
 30
0.0
 40
13.49387422752021
100
AcDbArc
 50
320.0375280446812
 51
329.999129056985
  0
LINE
  5
8F
330
1F
100
AcDbEntity
  8
DEFAULT
100
AcDbLine
 10
50.75898488683359
 20
2.766535999999999
 30
0.0
 11
49.34907888683358
 21
2.766535999999999
 31
0.0
  0
LINE
  5
90
330
1F
100
AcDbEntity
  8
DEFAULT
100
AcDbLine
 10
35.73312188683359
 20
2.716536000000001
 30
0.0
 11
37.07697088683358
 21
2.716536000000001
 31
0.0
  0
CIRCLE
  5
91
330
1F
100
AcDbEntity
  8
DEFAULT
100
AcDbCircle
 10
50.60830488683358
 20
14.497095
 30
0.0
 40
0.1968499999999977
  0
ARC
  5
92
330
1F
100
AcDbEntity
  8
DEFAULT
100
AcDbCircle
 10
38.93592790788099
 20
27.79878050826297
 30
0.0
 40
0.2206008769396128
100
AcDbArc
 50
180.1596039687918
 51
268.4824979342297
  0
LINE
  5
93
330
1F
100
AcDbEntity
  8
DEFAULT
100
AcDbLine
 10
38.71530988683359
 20
27.9706055
 30
0.0
 11
38.71532788683358
 21
27.798166
 31
0.0
  0
ARC
  5
94
330
1F
100
AcDbEntity
  8
DEFAULT
100
AcDbCircle
 10
39.07028592789116
 20
27.86255789442033
 30
0.0
 40
0.3710556222406564
100
AcDbArc
 50
70.85686789375913
 51
163.0708000639538
  0
LINE
  5
95
330
1F
100
AcDbEntity
  8
DEFAULT
100
AcDbLine
 10
51.27812588683359
 20
28.215065
 30
0.0
 11
39.19196588683359
 21
28.213095
 31
0.0
  0
LINE
  5
96
330
1F
100
AcDbEntity
  8
DEFAULT
100
AcDbLine
 10
45.39698988683358
 20
9.619288999999998
 30
0.0
 11
45.29719588683358
 21
9.516957999999999
 31
0.0
  0
CIRCLE
  5
97
330
1F
100
AcDbEntity
  8
DEFAULT
100
AcDbCircle
 10
57.55840388683358
 20
1.279528
 30
0.0
 40
1.279527000000001
  0
LINE
  5
98
330
1F
100
AcDbEntity
  8
DEFAULT
100
AcDbLine
 10
18.95291000000003
 20
2.699549000000001
 30
0.0
 11
18.99995300000003
 21
2.161843999999999
 31
0.0
  0
LINE
  5
99
330
1F
100
AcDbEntity
  8
DEFAULT
100
AcDbLine
 10
13.15413400000003
 20
2.699549000000001
 30
0.0
 11
13.10712700000002
 21
2.162262000000002
 31
0.0
  0
SPLINE
  5
9A
330
1F
100
AcDbEntity
  8
DEFAULT
100
AcDbSpline
210
0.0
220
0.0
230
1.0
 70
     8
 71
     3
 72
    16
 73
    12
 74
     0
 42
0.0000000001
 43
0.0000000001
 40
0.0
 40
0.0
 40
0.0
 40
0.0
 40
0.2341619387177
 40
0.4361470240471
 40
0.6001935609847
 40
0.7271726137984
 40
0.8208191896425
 40
0.8860680961386
 40
0.9277143745084
 40
0.9566562139274
 40
1.0
 40
1.0
 40
1.0
 40
1.0
 10
11.32126521872001
 20
11.20753179183
 30
0.0
 10
11.25003577341002
 20
11.24733866105
 30
0.0
 10
11.11633174198002
 20
11.31968863574
 30
0.0
 10
10.92918313349003
 20
11.41304273954
 30
0.0
 10
10.77230886128004
 20
11.48355667217
 30
0.0
 10
10.64747044011003
 20
11.53166482449
 30
0.0
 10
10.55134038713001
 20
11.56113397822
 30
0.0
 10
10.48359551336003
 20
11.57165414347
 30
0.0
 10
10.43270223408004
 20
11.5713998157
 30
0.0
 10
10.40515717404003
 20
11.53505885723
 30
0.0
 10
10.41744034389004
 20
11.50866398483
 30
0.0
 10
10.42400888286002
 20
11.4950632802
 30
0.0
  0
LINE
  5
9B
330
1F
100
AcDbEntity
  8
DEFAULT
100
AcDbLine
 10
23.39069300000003
 20
2.864996000000001
 30
0.0
 11
23.38725600000004
 21
2.766535999999999
 31
0.0
  0
LINE
  5
9C
330
1F
100
AcDbEntity
  8
DEFAULT
100
AcDbLine
 10
18.95291023549669
 20
2.699549020605581
 30
0.0
 11
18.96847600000004
 21
2.716536236396425
 31
0.0
  0
LINE
  5
9D
330
1F
100
AcDbEntity
  8
DEFAULT
100
AcDbLine
 10
23.21476600000003
 20
0.0
 30
0.0
 11
23.63071900000003
 21
0.0
 31
0.0
  0
LINE
  5
9E
330
1F
100
AcDbEntity
  8
DEFAULT
100
AcDbLine
 10
20.38125200000005
 20
13.471692
 30
0.0
 11
20.18127400000003
 21
13.471775
 31
0.0
  0
ARC
  5
9F
330
1F
100
AcDbEntity
  8
DEFAULT
100
AcDbCircle
 10
18.78114100000002
 20
2.434054999999996
 30
0.0
 40
0.1250000000000036
100
AcDbArc
 50
90.00000000000163
 51
179.999999999998
  0
LINE
  5
A0
330
1F
100
AcDbEntity
  8
DEFAULT
100
AcDbLine
 10
23.68977400000003
 20
0.0590550000000008
 30
0.0
 11
23.63071900000003
 21
0.0
 31
0.0
  0
LINE
  5
A1
330
1F
100
AcDbEntity
  8
DEFAULT
100
AcDbLine
 10
20.28100780021003
 20
2.163622138059999
 30
0.0
 11
20.20242253267003
 21
1.814273533049999
 31
0.0
  0
ARC
  5
A2
330
1F
100
AcDbEntity
  8
DEFAULT
100
AcDbCircle
 10
19.64040052446003
 20
2.050758743568547
 30
0.0
 40
0.6342236987375292
100
AcDbArc
 50
235.4844523428082
 51
304.5155476571917
  0
LINE
  5
A3
330
1F
100
AcDbEntity
  8
DEFAULT
100
AcDbLine
 10
20.20242253267003
 20
1.814273533049999
 30
0.0
 11
20.08370761108003
 21
1.603564519590002
 31
0.0
  0
LINE
  5
A4
330
1F
100
AcDbEntity
  8
DEFAULT
100
AcDbLine
 10
22.40467227098003
 20
66.14351791996657
 30
0.0
 11
22.40655932147004
 21
66.00134365018656
 31
0.0
  0
LINE
  5
A5
330
1F
100
AcDbEntity
  8
DEFAULT
100
AcDbLine
 10
22.36141000000003
 20
66.18979308218655
 30
0.0
 11
22.40286100000003
 21
66.17758208218655
 31
0.0
  0
LINE
  5
A6
330
1F
100
AcDbEntity
  8
DEFAULT
100
AcDbLine
 10
2.526780000000031
 20
65.83746708218655
 30
0.0
 11
2.526721000000038
 21
66.00134408218656
 31
0.0
  0
ARC
  5
A7
330
1F
100
AcDbEntity
  8
DEFAULT
100
AcDbCircle
 10
18.78113499999999
 20
70.26764208218663
 30
0.0
 40
0.1250003616148933
100
AcDbArc
 50
89.99999999997883
 51
176.9357539951673
  0
LINE
  5
A8
330
1F
100
AcDbEntity
  8
DEFAULT
100
AcDbLine
 10
52.02132788683357
 20
13.246756
 30
0.0
 11
44.80069088683358
 21
10.900627
 31
0.0
  0
LINE
  5
A9
330
1F
100
AcDbEntity
  8
DEFAULT
100
AcDbLine
 10
51.62974888683358
 20
12.332997
 30
0.0
 11
49.38315788683359
 21
11.603035
 31
0.0
  0
SPLINE
  5
AA
330
1F
100
AcDbEntity
  8
DEFAULT
100
AcDbSpline
210
0.0
220
0.0
230
1.0
 70
     8
 71
     2
 72
    13
 73
    10
 74
     0
 42
0.0000000001
 43
0.0000000001
 40
0.0
 40
0.0
 40
0.0
 40
1.0
 40
2.0
 40
3.0
 40
4.0
 40
5.0
 40
6.0
 40
7.0
 40
8.0
 40
8.0
 40
8.0
 10
22.20424500000004
 20
63.96045408218655
 30
0.0
 10
21.59445013685229
 20
63.96264068290109
 30
0.0
 10
20.37581949997724
 20
64.01260460777522
 30
0.0
 10
19.16077224858915
 20
64.1177595204037
 30
0.0
 10
17.94666935497739
 20
64.23208818209818
 30
0.0
 10
16.73087997337129
 20
64.32725352958357
 30
0.0
 10
15.51387530036754
 20
64.40526260448681
 30
0.0
 10
14.29559516214877
 20
64.46010440149664
 30
0.0
 10
13.07641066819033
 20
64.48926153493716
 30
0.0
 10
12.46663700000002
 20
64.48935308218657
 30
0.0
  0
LINE
  5
AB
330
1F
100
AcDbEntity
  8
DEFAULT
100
AcDbLine
 10
50.76429888683359
 20
13.165177
 30
0.0
 11
49.89804288683358
 21
13.165417
 31
0.0
  0
LINE
  5
AC
330
1F
100
AcDbEntity
  8
DEFAULT
100
AcDbLine
 10
0.4998900000000219
 20
55.15280708218657
 30
0.0
 11
0.4998900000000219
 21
56.74734508218658
 31
0.0
  0
LINE
  5
AD
330
1F
100
AcDbEntity
  8
DEFAULT
100
AcDbLine
 10
22.20424453510003
 20
63.96045443018657
 30
0.0
 11
22.23839327564005
 21
64.04822040472655
 31
0.0
  0
LINE
  5
AE
330
1F
100
AcDbEntity
  8
DEFAULT
100
AcDbLine
 10
12.10727200000002
 20
0.8420260000000006
 30
0.0
 11
12.10727200000002
 21
1.528175999999998
 31
0.0
  0
SPLINE
  5
AF
330
1F
100
AcDbEntity
  8
DEFAULT
100
AcDbSpline
210
0.0
220
0.0
230
1.0
 70
     8
 71
     3
 72
    14
 73
    10
 74
     0
 42
0.0000000001
 43
0.0000000001
 40
0.0
 40
0.0
 40
0.0
 40
0.0
 40
1.0
 40
2.0
 40
3.0
 40
4.0
 40
5.0
 40
6.0
 40
7.0
 40
7.0
 40
7.0
 40
7.0
 10
1.205164883485025
 20
3.251948988540001
 30
0.0
 10
1.681030678483808
 20
3.413754867869647
 30
0.0
 10
2.658512531966579
 20
3.67354500673239
 30
0.0
 10
4.11406716333218
 20
4.08942133634804
 30
0.0
 10
5.57316601195015
 20
4.497550052257092
 30
0.0
 10
7.032354280843748
 20
4.897675052305334
 30
0.0
 10
8.49196914435953
 20
5.322010031496397
 30
0.0
 10
9.94790024589517
 20
5.664125288711947
 30
0.0
 10
10.94208962689757
 20
6.044233048359406
 30
0.0
 10
11.41149235896003
 20
5.88586085499
 30
0.0
  0
ARC
  5
B0
330
1F
100
AcDbEntity
  8
DEFAULT
100
AcDbCircle
 10
1.525478779710379
 20
2.88847960116497
 30
0.0
 40
0.484469800579816
100
AcDbArc
 50
131.3886915989346
 51
194.5784441514511
  0
LINE
  5
B1
330
1F
100
AcDbEntity
  8
DEFAULT
100
AcDbLine
 10
9.075402000000025
 20
13.615355
 30
0.0
 11
9.075402000000025
 21
15.093577
 31
0.0
  0
LINE
  5
B2
330
1F
100
AcDbEntity
  8
DEFAULT
100
AcDbLine
 10
9.456126000000012
 20
13.634005
 30
0.0
 11
9.479844000000043
 21
13.427658
 31
0.0
  0
LINE
  5
B3
330
1F
100
AcDbEntity
  8
DEFAULT
100
AcDbLine
 10
12.08239100000003
 20
1.510404000000001
 30
0.0
 11
12.08239100000003
 21
0.0590609999999998
 31
0.0
  0
LINE
  5
B4
330
1F
100
AcDbEntity
  8
DEFAULT
100
AcDbLine
 10
11.59065800000005
 20
4.166142000000001
 30
0.0
 11
11.59065800000005
 21
2.557811999999998
 31
0.0
  0
SPLINE
  5
B5
330
1F
100
AcDbEntity
  8
DEFAULT
100
AcDbSpline
210
0.0
220
0.0
230
1.0
 70
     8
 71
     3
 72
    19
 73
    15
 74
     0
 42
0.0000000001
 43
0.0000000001
 40
0.0
 40
0.0
 40
0.0
 40
0.0
 40
0.1235919666214
 40
0.2451043183287
 40
0.3625079393068
 40
0.4738760400769
 40
0.5774394841606
 40
0.6716499905291
 40
0.7552606378014
 40
0.8274447239784
 40
0.8880009336909
 40
0.937747797675
 40
0.9792454826625
 40
1.0
 40
1.0
 40
1.0
 40
1.0
 10
12.46664347264002
 20
12.33299688516
 30
0.0
 10
12.52026436416003
 20
12.33299688516
 30
0.0
 10
12.62661791654003
 20
12.33076782654
 30
0.0
 10
12.78362303511003
 20
12.32077308052
 30
0.0
 10
12.93475869844005
 20
12.30432864715
 30
0.0
 10
13.07722953146003
 20
12.2817509192
 30
0.0
 10
13.20841797300002
 20
12.25347422501
 30
0.0
 10
13.32593809114005
 20
12.22004220709
 30
0.0
 10
13.42770017773003
 20
12.18208443348
 30
0.0
 10
13.51198978390002
 20
12.14028657017
 30
0.0
 10
13.57753924622003
 20
12.09522605562
 30
0.0
 10
13.62351890953002
 20
12.04716685055
 30
0.0
 10
13.64515556075003
 20
12.00228729552
 30
0.0
 10
13.64779661881002
 20
11.97497483116
 30
0.0
 10
13.64763395221004
 20
11.96589126526
 30
0.0
  0
LINE
  5
B6
330
1F
100
AcDbEntity
  8
DEFAULT
100
AcDbLine
 10
23.38653623549669
 20
2.699549020605581
 30
0.0
 11
23.40210200000004
 21
2.716536236396425
 31
0.0
  0
LINE
  5
B7
330
1F
100
AcDbEntity
  8
DEFAULT
100
AcDbLine
 10
5.736193000000043
 20
70.39264258218657
 30
0.0
 11
5.677137500000043
 21
70.33358708218657
 31
0.0
  0
LINE
  5
B8
330
1F
100
AcDbEntity
  8
DEFAULT
100
AcDbLine
 10
19.99976500000002
 20
70.27897708218657
 30
0.0
 11
19.99976500000002
 21
70.39264208218657
 31
0.0
  0
LINE
  5
B9
330
1F
100
AcDbEntity
  8
DEFAULT
100
AcDbLine
 10
11.77166900000003
 20
46.24725908218656
 30
0.0
 11
11.77100200000004
 21
46.27463508218656
 31
0.0
  0
LINE
  5
BA
330
1F
100
AcDbEntity
  8
DEFAULT
100
AcDbLine
 10
19.28102400000003
 20
70.39264208218657
 30
0.0
 11
19.28102400000003
 21
70.27641508218656
 31
0.0
  0
LINE
  5
BB
330
1F
100
AcDbEntity
  8
DEFAULT
100
AcDbLine
 10
13.45089700000003
 20
45.88003308218657
 30
0.0
 11
13.45089700000003
 21
47.81418308218656
 31
0.0
  0
LINE
  5
BC
330
1F
100
AcDbEntity
  8
DEFAULT
100
AcDbLine
 10
25.05828000000002
 20
54.31329008218657
 30
0.0
 11
25.05828000000002
 21
56.62234508218658
 31
0.0
  0
SPLINE
  5
BD
330
1F
100
AcDbEntity
  8
DEFAULT
100
AcDbSpline
210
0.0
220
0.0
230
1.0
 70
     8
 71
     2
 72
    13
 73
    10
 74
     0
 42
0.0000000001
 43
0.0000000001
 40
0.0
 40
0.0
 40
0.0
 40
1.0
 40
2.0
 40
3.0
 40
4.0
 40
5.0
 40
6.0
 40
7.0
 40
8.0
 40
8.0
 40
8.0
 10
2.729035000000039
 20
63.96045408218655
 30
0.0
 10
3.338829863147765
 20
63.96264068290109
 30
0.0
 10
4.557460500022813
 20
64.01260460777522
 30
0.0
 10
5.772507751410899
 20
64.1177595204037
 30
0.0
 10
6.986610645022694
 20
64.23208818209818
 30
0.0
 10
8.202400026628794
 20
64.32725352958357
 30
0.0
 10
9.419404699632508
 20
64.40526260448681
 30
0.0
 10
10.63768483785131
 20
64.46010440149664
 30
0.0
 10
11.85686933180975
 20
64.48926153493716
 30
0.0
 10
12.46664300000003
 20
64.48935308218657
 30
0.0
  0
LINE
  5
BE
330
1F
100
AcDbEntity
  8
DEFAULT
100
AcDbLine
 10
13.16419100000005
 20
46.33760708218657
 30
0.0
 11
13.21809500000003
 21
47.81322608218656
 31
0.0
  0
LINE
  5
BF
330
1F
100
AcDbEntity
  8
DEFAULT
100
AcDbLine
 10
13.07989100000003
 20
45.75503308218657
 30
0.0
 11
13.32589700000003
 21
45.75503308218657
 31
0.0
  0
LINE
  5
C0
330
1F
100
AcDbEntity
  8
DEFAULT
100
AcDbLine
 10
2.114432636220016
 20
48.25976567091656
 30
0.0
 11
2.380727258590042
 21
56.83937614338655
 31
0.0
  0
LINE
  5
C1
330
1F
100
AcDbEntity
  8
DEFAULT
100
AcDbLine
 10
35.71755662612941
 20
2.699548977187338
 30
0.0
 11
35.73312188683359
 21
2.71653573829962
 31
0.0
  0
ARC
  5
C2
330
1F
100
AcDbEntity
  8
DEFAULT
100
AcDbCircle
 10
46.70407288683359
 20
15.190158
 30
0.0
 40
0.6889765647687133
100
AcDbArc
 50
216.9808008483569
 51
317.7192122154563
  0
LINE
  5
C3
330
1F
100
AcDbEntity
  8
DEFAULT
100
AcDbLine
 10
12.46663700000002
 20
70.26647908218655
 30
0.0
 11
21.94495700000002
 21
70.28453808218657
 31
0.0
  0
LINE
  5
C4
330
1F
100
AcDbEntity
  8
DEFAULT
100
AcDbLine
 10
24.43339000000003
 20
55.15280708218657
 30
0.0
 11
24.43339000000003
 21
56.74734508218658
 31
0.0
  0
LINE
  5
C5
330
1F
100
AcDbEntity
  8
DEFAULT
100
AcDbLine
 10
20.08370200000005
 20
70.39264208218657
 30
0.0
 11
20.49965400000005
 21
70.39264208218657
 31
0.0
  0
LINE
  5
C6
330
1F
100
AcDbEntity
  8
DEFAULT
100
AcDbLine
 10
19.28102400000003
 20
70.39264208218657
 30
0.0
 11
19.99976500000002
 21
70.39264208218657
 31
0.0
  0
ARC
  5
C7
330
1F
100
AcDbEntity
  8
DEFAULT
100
AcDbCircle
 10
-100.9084257966305
 20
71.37704513873602
 30
0.0
 40
103.9024984996674
100
AcDbArc
 50
355.9067295138695
 51
359.3975383167486
  0
LINE
  5
C8
330
1F
100
AcDbEntity
  8
DEFAULT
100
AcDbLine
 10
24.51732700000002
 20
56.74734508218658
 30
0.0
 11
24.93328000000002
 21
56.74734508218658
 31
0.0
  0
LINE
  5
C9
330
1F
100
AcDbEntity
  8
DEFAULT
100
AcDbLine
 10
2.491948166933042
 20
27.55938778734
 30
0.0
 11
2.195058000000046
 21
27.559386
 31
0.0
  0
ARC
  5
CA
330
1F
100
AcDbEntity
  8
DEFAULT
100
AcDbCircle
 10
2.474261509871966
 20
27.77858979312403
 30
0.0
 40
0.2199143860181499
100
AcDbArc
 50
274.6130062850297
 51
359.9939423449301
  0
LINE
  5
CB
330
1F
100
AcDbEntity
  8
DEFAULT
100
AcDbLine
 10
49.86974688683358
 20
13.247946
 30
0.0
 11
52.65622988683359
 21
13.247173
 31
0.0
  0
LINE
  5
CC
330
1F
100
AcDbEntity
  8
DEFAULT
100
AcDbLine
 10
5.98782700000001
 20
2.766535999999999
 30
0.0
 11
4.584276000000017
 21
2.766535999999999
 31
0.0
  0
LINE
  5
CD
330
1F
100
AcDbEntity
  8
DEFAULT
100
AcDbLine
 10
15.47716000000003
 20
13.634005
 30
0.0
 11
15.45344200000002
 21
13.427658
 31
0.0
  0
LINE
  5
CE
330
1F
100
AcDbEntity
  8
DEFAULT
100
AcDbLine
 10
19.28103000000002
 20
0.8420260000000006
 30
0.0
 11
19.28103000000002
 21
1.528175999999998
 31
0.0
  0
LINE
  5
CF
330
1F
100
AcDbEntity
  8
DEFAULT
100
AcDbLine
 10
37.07697088683358
 20
2.716536236396425
 30
0.0
 11
37.09253665133691
 21
2.699549020605581
 31
0.0
  0
ARC
  5
D0
330
1F
100
AcDbEntity
  8
DEFAULT
100
AcDbCircle
 10
1.718520000000031
 20
2.434054999999991
 30
0.0
 40
0.1250000000000098
100
AcDbArc
 50
0.0000000000044782
 51
89.99999999999552
  0
LINE
  5
D1
330
1F
100
AcDbEntity
  8
DEFAULT
100
AcDbLine
 10
11.82603525160002
 20
2.163622138059999
 30
0.0
 11
11.90462051914002
 21
1.814273533049999
 31
0.0
  0
LINE
  5
D2
330
1F
100
AcDbEntity
  8
DEFAULT
100
AcDbLine
 10
19.18520585688003
 20
3.064590183044999
 30
0.0
 11
19.46397802686002
 21
2.863356444219999
 31
0.0
  0
LINE
  5
D3
330
1F
100
AcDbEntity
  8
DEFAULT
100
AcDbLine
 10
14.35842900000003
 20
4.651389999999999
 30
0.0
 11
19.18520585688003
 21
3.064590183044999
 31
0.0
  0
SPLINE
  5
D4
330
1F
100
AcDbEntity
  8
DEFAULT
100
AcDbSpline
210
0.0
220
0.0
230
1.0
 70
     8
 71
     3
 72
    14
 73
    10
 74
     0
 42
0.0000000001
 43
0.0000000001
 40
0.0
 40
0.0
 40
0.0
 40
0.0
 40
1.0
 40
2.0
 40
3.0
 40
4.0
 40
5.0
 40
6.0
 40
7.0
 40
7.0
 40
7.0
 40
7.0
 10
45.19839113231359
 20
4.18936889786
 30
0.0
 10
45.23157758703975
 20
4.242283194549813
 30
0.0
 10
45.18958801133036
 20
4.365288974457712
 30
0.0
 10
45.04794931491558
 20
4.469306199484574
 30
0.0
 10
44.89461674527143
 20
4.552411738224155
 30
0.0
 10
44.73393892960618
 20
4.620638521907757
 30
0.0
 10
44.56802141383068
 20
4.674663767373929
 30
0.0
 10
44.39799584674033
 20
4.714068733085163
 30
0.0
 10
44.28250433535584
 20
4.728709774857553
 30
0.0
 10
44.22446994220358
 20
4.73198823221
 30
0.0
  0
LINE
  5
D5
330
1F
100
AcDbEntity
  8
DEFAULT
100
AcDbLine
 10
19.25614300000004
 20
70.27632608218656
 30
0.0
 11
19.25614300000004
 21
70.33357608218657
 31
0.0
  0
LINE
  5
D6
330
1F
100
AcDbEntity
  8
DEFAULT
100
AcDbLine
 10
21.16133500000004
 20
13.246916
 30
0.0
 11
21.16132200000001
 21
13.164402
 31
0.0
  0
LINE
  5
D7
330
1F
100
AcDbEntity
  8
DEFAULT
100
AcDbLine
 10
12.68121000000002
 20
2.766535999999999
 30
0.0
 11
12.68121000000002
 21
2.716536000000001
 31
0.0
  0
LINE
  5
D8
330
1F
100
AcDbEntity
  8
DEFAULT
100
AcDbLine
 10
18.95657600000001
 20
3.086559000000001
 30
0.0
 11
18.94540700000002
 21
2.766535999999999
 31
0.0
  0
LINE
  5
D9
330
1F
100
AcDbEntity
  8
DEFAULT
100
AcDbLine
 10
50.21149888683358
 20
9.658881999999998
 30
0.0
 11
52.10235188683359
 21
10.273257
 31
0.0
  0
ARC
  5
DA
330
1F
100
AcDbEntity
  8
DEFAULT
100
AcDbCircle
 10
58.59554188683359
 20
1.857850999999997
 30
0.0
 40
0.499999602881837
100
AcDbArc
 50
298.2160973788385
 51
355.0000959861698
  0
LINE
  5
DB
330
1F
100
AcDbEntity
  8
DEFAULT
100
AcDbLine
 10
49.86980888683358
 20
13.472946
 30
0.0
 11
50.02127788683359
 21
13.472934
 31
0.0
  0
LINE
  5
DC
330
1F
100
AcDbEntity
  8
DEFAULT
100
AcDbLine
 10
47.03035188683359
 20
4.717334000000001
 30
0.0
 11
49.31337188683358
 21
3.289719000000002
 31
0.0
  0
ARC
  5
DD
330
1F
100
AcDbEntity
  8
DEFAULT
100
AcDbCircle
 10
11.70234392606681
 20
55.84690156774338
 30
0.0
 40
40.85448552498912
100
AcDbArc
 50
256.4272153791915
 51
271.0719419994027
  0
LINE
  5
DE
330
1F
100
AcDbEntity
  8
DEFAULT
100
AcDbLine
 10
15.77373000000003
 20
15.088775
 30
0.0
 11
15.77373000000003
 21
13.427658
 31
0.0
  0
SPLINE
  5
DF
330
1F
100
AcDbEntity
  8
DEFAULT
100
AcDbSpline
210
0.0
220
0.0
230
1.0
 70
     8
 71
     3
 72
    16
 73
    12
 74
     0
 42
0.0000000001
 43
0.0000000001
 40
0.0
 40
0.0
 40
0.0
 40
0.0
 40
1.0
 40
2.0
 40
3.0
 40
4.0
 40
5.0
 40
6.0
 40
7.0
 40
8.0
 40
9.0
 40
9.0
 40
9.0
 40
9.0
 10
2.752151000000055
 20
27.685481
 30
0.0
 10
2.750426792189728
 20
27.66424170117405
 30
0.0
 10
2.747246077373092
 20
27.62150263177101
 30
0.0
 10
2.742394458229313
 20
27.55830113691994
 30
0.0
 10
2.741511644305916
 20
27.49193449582319
 30
0.0
 10
2.726470662847731
 20
27.43721689342261
 30
0.0
 10
2.722966081810057
 20
27.53269691985767
 30
0.0
 10
2.717877778858139
 20
27.58801934958423
 30
0.0
 10
2.713298912620786
 20
27.6542960314284
 30
0.0
 10
2.707451817605573
 20
27.71685140748205
 30
0.0
 10
2.702744088213166
 20
27.76084856031212
 30
0.0
 10
2.69417589635205
 20
27.77856654245
 30
0.0
  0
LINE
  5
E0
330
1F
100
AcDbEntity
  8
DEFAULT
100
AcDbLine
 10
18.78114100000002
 20
2.559055000000001
 30
0.0
 11
18.96520200000003
 21
2.559055000000001
 31
0.0
  0
LINE
  5
E1
330
1F
100
AcDbEntity
  8
DEFAULT
100
AcDbLine
 10
1.542593000000039
 20
2.864996000000001
 30
0.0
 11
1.54603000000003
 21
2.766535999999999
 31
0.0
  0
LINE
  5
E2
330
1F
100
AcDbEntity
  8
DEFAULT
100
AcDbLine
 10
4.62202000000002
 20
12.884405
 30
0.0
 11
4.322039000000046
 21
13.164242
 31
0.0
  0
LINE
  5
E3
330
1F
100
AcDbEntity
  8
DEFAULT
100
AcDbLine
 10
19.25614900000002
 20
0.0590609999999998
 30
0.0
 11
19.25614900000002
 21
1.510404000000001
 31
0.0
  0
LINE
  5
E4
330
1F
100
AcDbEntity
  8
DEFAULT
100
AcDbLine
 10
14.27038900000002
 20
12.561849
 30
0.0
 11
13.61263300000005
 21
11.2155
 31
0.0
  0
LINE
  5
E5
330
1F
100
AcDbEntity
  8
DEFAULT
100
AcDbLine
 10
45.59566388683358
 20
5.962693000000002
 30
0.0
 11
45.60064988683358
 21
5.962693000000002
 31
0.0
  0
LINE
  5
E6
330
1F
100
AcDbEntity
  8
DEFAULT
100
AcDbLine
 10
45.60064988683358
 20
5.962693000000002
 30
0.0
 11
45.59566388683358
 21
5.962693000000002
 31
0.0
  0
LINE
  5
E7
330
1F
100
AcDbEntity
  8
DEFAULT
100
AcDbLine
 10
45.40289188683359
 20
4.166142000000001
 30
0.0
 11
45.40289188683359
 21
2.418503999999999
 31
0.0
  0
ARC
  5
E8
330
1F
100
AcDbEntity
  8
DEFAULT
100
AcDbCircle
 10
50.02365688683359
 20
14.41380000000001
 30
0.0
 40
0.1968507006780883
100
AcDbArc
 50
8.10836863019204
 51
87.35009642109458
  0
ARC
  5
E9
330
1F
100
AcDbEntity
  8
DEFAULT
100
AcDbCircle
 10
12.33419450429204
 20
3.256624503226614
 30
0.0
 40
0.5657138631049169
100
AcDbArc
 50
76.45992226494063
 51
169.0003663582197
  0
LINE
  5
EA
330
1F
100
AcDbEntity
  8
DEFAULT
100
AcDbLine
 10
13.13856800000005
 20
2.716536236396425
 30
0.0
 11
13.15413376450337
 21
2.699549020605581
 31
0.0
  0
LINE
  5
EB
330
1F
100
AcDbEntity
  8
DEFAULT
100
AcDbLine
 10
37.09502488683358
 20
2.766535999999999
 30
0.0
 11
35.69639888683358
 21
2.766535999999999
 31
0.0
  0
LINE
  5
EC
330
1F
100
AcDbEntity
  8
DEFAULT
100
AcDbLine
 10
49.58527488683359
 20
4.607807999999999
 30
0.0
 11
57.67075688683359
 21
3.045418000000002
 31
0.0
  0
LINE
  5
ED
330
1F
100
AcDbEntity
  8
DEFAULT
100
AcDbLine
 10
52.10235153264256
 20
10.27325694470593
 30
0.0
 11
52.0667111328509
 21
10.16913273926219
 31
0.0
  0
LINE
  5
EE
330
1F
100
AcDbEntity
  8
DEFAULT
100
AcDbLine
 10
47.10617288683358
 20
6.722664999999999
 30
0.0
 11
45.96217888683358
 21
6.722218999999999
 31
0.0
  0
LINE
  5
EF
330
1F
100
AcDbEntity
  8
DEFAULT
100
AcDbLine
 10
59.19220988683358
 20
2.766535999999999
 30
0.0
 11
57.79799488683358
 21
2.766535999999999
 31
0.0
  0
ARC
  5
F0
330
1F
100
AcDbEntity
  8
DEFAULT
100
AcDbCircle
 10
57.63179388683361
 20
2.879802000000032
 30
0.0
 40
0.169999146128414
100
AcDbArc
 50
358.0009764875039
 51
76.76274155546784
  0
CIRCLE
  5
F1
330
1F
100
AcDbEntity
  8
DEFAULT
100
AcDbCircle
 10
57.55840388683359
 20
1.279528000000005
 30
0.0
 40
1.062499999999994
  0
LINE
  5
F2
330
1F
100
AcDbEntity
  8
DEFAULT
100
AcDbLine
 10
50.26490988683358
 20
2.766535999999999
 30
0.0
 11
50.26490988683358
 21
2.716536000000001
 31
0.0
  0
LINE
  5
F3
330
1F
100
AcDbEntity
  8
DEFAULT
100
AcDbLine
 10
54.23052288683358
 20
15.384259
 30
0.0
 11
53.79691288683358
 21
14.192926
 31
0.0
  0
LINE
  5
F4
330
1F
100
AcDbEntity
  8
DEFAULT
100
AcDbLine
 10
44.80068988683358
 20
10.900628
 30
0.0
 11
44.52305888683358
 21
11.781159
 31
0.0
  0
LINE
  5
F5
330
1F
100
AcDbEntity
  8
DEFAULT
100
AcDbLine
 10
53.82901088683359
 20
14.281115
 30
0.0
 11
53.80501688683358
 21
14.006857
 31
0.0
  0
LINE
  5
F6
330
1F
100
AcDbEntity
  8
DEFAULT
100
AcDbLine
 10
59.17109088683358
 20
2.699549000000001
 30
0.0
 11
59.09363888683359
 21
1.814274000000001
 31
0.0
  0
LINE
  5
F7
330
1F
100
AcDbEntity
  8
DEFAULT
100
AcDbLine
 10
57.80164388683359
 20
2.872696999999999
 30
0.0
 11
57.79793788683358
 21
2.766535999999999
 31
0.0
  0
LINE
  5
F8
330
1F
100
AcDbEntity
  8
DEFAULT
100
AcDbLine
 10
45.36732488683359
 20
6.722588999999999
 30
0.0
 11
45.25584888683358
 21
6.722218999999999
 31
0.0
  0
LINE
  5
F9
330
1F
100
AcDbEntity
  8
DEFAULT
100
AcDbLine
 10
45.30290488683357
 20
4.166142000000001
 30
0.0
 11
45.42053388683358
 21
4.166142000000001
 31
0.0
  0
LINE
  5
FA
330
1F
100
AcDbEntity
  8
DEFAULT
100
AcDbLine
 10
45.14078488683359
 20
4.166142000000001
 30
0.0
 11
45.30290488683357
 21
4.166142000000001
 31
0.0
  0
LINE
  5
FB
330
1F
100
AcDbEntity
  8
DEFAULT
100
AcDbLine
 10
18.78114100000002
 20
2.559055000000001
 30
0.0
 11
18.78114100000002
 21
0.0
 31
0.0
  0
LINE
  5
FC
330
1F
100
AcDbEntity
  8
DEFAULT
100
AcDbLine
 10
20.31559900000005
 20
2.559055000000001
 30
0.0
 11
20.49966000000003
 21
2.559055000000001
 31
0.0
  0
LINE
  5
FD
330
1F
100
AcDbEntity
  8
DEFAULT
100
AcDbLine
 10
21.16129100000003
 20
13.471728
 30
0.0
 11
21.16130400000003
 21
13.554242
 31
0.0
  0
LINE
  5
FE
330
1F
100
AcDbEntity
  8
DEFAULT
100
AcDbLine
 10
13.52179138100504
 20
5.885843982455
 30
0.0
 11
13.16188059950002
 21
3.16573192193
 31
0.0
  0
ARC
  5
FF
330
1F
100
AcDbEntity
  8
DEFAULT
100
AcDbCircle
 10
13.04615831821621
 20
5.960158123896879
 30
0.0
 40
0.481403575013867
100
AcDbArc
 50
351.1197553143427
 51
81.90984815795353
  0
LINE
  5
100
330
1F
100
AcDbEntity
  8
DEFAULT
100
AcDbLine
 10
4.617687000000018
 20
2.559055000000001
 30
0.0
 11
4.433626000000032
 21
2.559055000000001
 31
0.0
  0
LINE
  5
101
330
1F
100
AcDbEntity
  8
DEFAULT
100
AcDbLine
 10
14.42514338965503
 20
11.38093899793
 30
0.0
 11
13.56900600000003
 21
10.524804
 31
0.0
  0
LINE
  5
102
330
1F
100
AcDbEntity
  8
DEFAULT
100
AcDbLine
 10
14.50891461334001
 20
11.49432076631
 30
0.0
 11
14.42514338965503
 21
11.38093899793
 31
0.0
  0
LINE
  5
103
330
1F
100
AcDbEntity
  8
DEFAULT
100
AcDbLine
 10
15.45344200000002
 20
13.427658
 30
0.0
 11
14.50891461334001
 21
11.49432076631
 31
0.0
  0
LINE
  5
104
330
1F
100
AcDbEntity
  8
DEFAULT
100
AcDbLine
 10
11.79472800000002
 20
2.716536000000001
 30
0.0
 11
13.13855700000002
 21
2.716536000000001
 31
0.0
  0
LINE
  5
105
330
1F
100
AcDbEntity
  8
DEFAULT
100
AcDbLine
 10
20.32927900000001
 20
3.332635
 30
0.0
 11
20.34906200000003
 21
2.766535999999999
 31
0.0
  0
ARC
  5
106
330
1F
100
AcDbEntity
  8
DEFAULT
100
AcDbCircle
 10
19.92023301097093
 20
3.313137851180911
 30
0.0
 40
0.4095103905310015
100
AcDbArc
 50
2.72893396114527
 51
69.65684635543111
  0
LINE
  5
107
330
1F
100
AcDbEntity
  8
DEFAULT
100
AcDbLine
 10
1.718520000000041
 20
2.559055000000001
 30
0.0
 11
1.534458000000029
 21
2.559055000000001
 31
0.0
  0
LINE
  5
108
330
1F
100
AcDbEntity
  8
DEFAULT
100
AcDbLine
 10
6.152145000000047
 20
2.559055000000001
 30
0.0
 11
5.968084000000033
 21
2.559055000000001
 31
0.0
  0
ARC
  5
109
330
1F
100
AcDbEntity
  8
DEFAULT
100
AcDbCircle
 10
12.59909149570801
 20
3.25662450322659
 30
0.0
 40
0.5657138631049423
100
AcDbArc
 50
10.99963364178233
 51
103.5400777350595
  0
LINE
  5
10A
330
1F
100
AcDbEntity
  8
DEFAULT
100
AcDbLine
 10
0.1873460000000193
 20
2.716536000000001
 30
0.0
 11
1.531174000000021
 21
2.716536000000001
 31
0.0
  0
LINE
  5
10B
330
1F
100
AcDbEntity
  8
DEFAULT
100
AcDbLine
 10
23.26742944628003
 20
3.045418127809999
 30
0.0
 11
23.39071600000003
 21
2.865670000000001
 31
0.0
  0
LINE
  5
10C
330
1F
100
AcDbEntity
  8
DEFAULT
100
AcDbLine
 10
15.04125280685503
 20
4.717333876135001
 30
0.0
 11
23.26742944628003
 21
3.045418127809999
 31
0.0
  0
ARC
  5
10D
330
1F
100
AcDbEntity
  8
DEFAULT
100
AcDbCircle
 10
14.87299701485419
 20
2.404666518010712
 30
0.0
 40
2.318779920750438
100
AcDbArc
 50
85.83883462755873
 51
129.6754632152895
  0
LINE
  5
10E
330
1F
100
AcDbEntity
  8
DEFAULT
100
AcDbLine
 10
0.184061000000014
 20
2.559055000000001
 30
0.0
 11
0.0000000000000284
 21
2.559055000000001
 31
0.0
  0
LINE
  5
10F
330
1F
100
AcDbEntity
  8
DEFAULT
100
AcDbLine
 10
23.21476600000003
 20
2.559055000000001
 30
0.0
 11
23.39882800000004
 21
2.559055000000001
 31
0.0
  0
LINE
  5
110
330
1F
100
AcDbEntity
  8
DEFAULT
100
AcDbLine
 10
8.927765000000022
 20
14.855512
 30
0.0
 11
8.923335000000037
 21
14.855512
 31
0.0
  0
LINE
  5
111
330
1F
100
AcDbEntity
  8
DEFAULT
100
AcDbLine
 10
11.79144400000004
 20
2.559055000000001
 30
0.0
 11
11.60738300000003
 21
2.559055000000001
 31
0.0
  0
LINE
  5
112
330
1F
100
AcDbEntity
  8
DEFAULT
100
AcDbLine
 10
13.15437500000004
 20
3.365513
 30
0.0
 11
13.17494300000001
 21
2.766535999999999
 31
0.0
  0
LINE
  5
113
330
1F
100
AcDbEntity
  8
DEFAULT
100
AcDbLine
 10
11.75834300000002
 20
2.766535999999999
 30
0.0
 11
13.17494200000002
 21
2.766535999999999
 31
0.0
  0
LINE
  5
114
330
1F
100
AcDbEntity
  8
DEFAULT
100
AcDbLine
 10
15.85788400000004
 20
13.615355
 30
0.0
 11
16.00552100000002
 21
13.615355
 31
0.0
  0
LINE
  5
115
330
1F
100
AcDbEntity
  8
DEFAULT
100
AcDbLine
 10
4.752034000000037
 20
13.246775
 30
0.0
 11
4.552131000000031
 21
13.246693
 31
0.0
  0
LINE
  5
116
330
1F
100
AcDbEntity
  8
DEFAULT
100
AcDbLine
 10
16.00552100000002
 20
13.615355
 30
0.0
 11
16.00552100000002
 21
15.102307
 31
0.0
  0
ARC
  5
117
330
1F
100
AcDbEntity
  8
DEFAULT
100
AcDbCircle
 10
0.0000000000000326
 20
2.434054999999997
 30
0.0
 40
0.125000000000004
100
AcDbArc
 50
90.0000000000019
 51
179.9999999999982
  0
LINE
  5
118
330
1F
100
AcDbEntity
  8
DEFAULT
100
AcDbLine
 10
13.14184200000003
 20
2.559055000000001
 30
0.0
 11
13.32590300000001
 21
2.559055000000001
 31
0.0
  0
LINE
  5
119
330
1F
100
AcDbEntity
  8
DEFAULT
100
AcDbLine
 10
24.68735400000003
 20
54.18829008218657
 30
0.0
 11
24.93328000000002
 21
54.18829008218657
 31
0.0
  0
LINE
  5
11A
330
1F
100
AcDbEntity
  8
DEFAULT
100
AcDbLine
 10
21.95510483955005
 20
70.16870684091657
 30
0.0
 11
21.94495118004002
 21
70.28453673448655
 31
0.0
  0
LINE
  5
11B
330
1F
100
AcDbEntity
  8
DEFAULT
100
AcDbLine
 10
20.02464700000004
 20
70.33357608218657
 30
0.0
 11
20.02464700000004
 21
70.27906608218655
 31
0.0
  0
LINE
  5
11C
330
1F
100
AcDbEntity
  8
DEFAULT
100
AcDbLine
 10
47.2138168754126
 20
14.72663901038545
 30
0.0
 11
47.24476488611997
 21
14.73947998457965
 31
0.0
  0
LINE
  5
11D
330
1F
100
AcDbEntity
  8
DEFAULT
100
AcDbLine
 10
22.16542600000002
 20
66.24606808218655
 30
0.0
 11
22.40305500000002
 21
66.17775408218657
 31
0.0
  0
ARC
  5
11E
330
1F
100
AcDbEntity
  8
DEFAULT
100
AcDbCircle
 10
58.15195647737263
 20
2.956011868169874
 30
0.0
 40
0.3539878643926198
100
AcDbArc
 50
359.2727799687484
 51
73.01609020520691
  0
LINE
  5
11F
330
1F
100
AcDbEntity
  8
DEFAULT
100
AcDbLine
 10
44.74891488683357
 20
15.364598
 30
0.0
 11
38.97666688683358
 21
14.982718
 31
0.0
  0
ARC
  5
120
330
1F
100
AcDbEntity
  8
DEFAULT
100
AcDbCircle
 10
37.32074788683556
 20
7.965737000000454
 30
0.0
 40
14.96063058311207
100
AcDbArc
 50
8.872691761932877
 51
16.97274924238774
  0
LINE
  5
121
330
1F
100
AcDbEntity
  8
DEFAULT
100
AcDbLine
 10
54.80732688683358
 20
15.358934
 30
0.0
 11
54.42224888683359
 21
15.376915
 31
0.0
  0
LINE
  5
122
330
1F
100
AcDbEntity
  8
DEFAULT
100
AcDbLine
 10
22.94288750000001
 20
17.0712255
 30
0.0
 11
22.82066127298407
 21
17.10597679805849
 31
0.0
  0
LINE
  5
123
330
1F
100
AcDbEntity
  8
DEFAULT
100
AcDbLine
 10
23.83245600000002
 20
17.0718345
 30
0.0
 11
22.94288750000001
 21
17.0712255
 31
0.0
  0
ARC
  5
124
330
1F
100
AcDbEntity
  8
DEFAULT
100
AcDbCircle
 10
23.8278895306305
 20
17.32231164205546
 30
0.0
 40
0.2505187644364636
100
AcDbArc
 50
271.0444483618138
 51
357.4981303503495
  0
LINE
  5
125
330
1F
100
AcDbEntity
  8
DEFAULT
100
AcDbLine
 10
24.46789100000002
 20
27.859161
 30
0.0
 11
24.07816950000002
 21
17.311376
 31
0.0
  0
ARC
  5
126
330
1F
100
AcDbEntity
  8
DEFAULT
100
AcDbCircle
 10
24.18579656093332
 20
27.90856630511406
 30
0.0
 40
0.2863881225291469
100
AcDbArc
 50
350.0661125149153
 51
75.47900799501905
  0
LINE
  5
127
330
1F
100
AcDbEntity
  8
DEFAULT
100
AcDbLine
 10
24.25754400000001
 20
28.185808
 30
0.0
 11
24.25760400000003
 21
28.185806
 31
0.0
  0
LINE
  5
128
330
1F
100
AcDbEntity
  8
DEFAULT
100
AcDbLine
 10
22.37571650000004
 20
28.180896
 30
0.0
 11
24.25754400000001
 21
28.185808
 31
0.0
  0
LINE
  5
129
330
1F
100
AcDbEntity
  8
DEFAULT
100
AcDbLine
 10
22.16916000000001
 20
27.992543
 30
0.0
 11
22.37571650000004
 21
28.180896
 31
0.0
  0
LINE
  5
12A
330
1F
100
AcDbEntity
  8
DEFAULT
100
AcDbLine
 10
35.69638488683358
 20
2.766535999999999
 30
0.0
 11
35.71605688683358
 21
3.329861000000001
 31
0.0
  0
ARC
  5
12B
330
1F
100
AcDbEntity
  8
DEFAULT
100
AcDbCircle
 10
38.59054808289451
 20
16.38647694049699
 30
0.0
 40
0.1756618493245992
100
AcDbArc
 50
175.6928346753095
 51
270.3498788345206
  0
LINE
  5
12C
330
1F
100
AcDbEntity
  8
DEFAULT
100
AcDbLine
 10
49.36285312233025
 20
2.699549020605581
 30
0.0
 11
49.37841888683359
 21
2.716536236396425
 31
0.0
  0
ARC
  5
12D
330
1F
100
AcDbEntity
  8
DEFAULT
100
AcDbCircle
 10
44.1951642684174
 20
2.581290506715263
 30
0.0
 40
2.137320846683592
100
AcDbArc
 50
48.79774973544377
 51
91.9811713947307
  0
LINE
  5
12E
330
1F
100
AcDbEntity
  8
DEFAULT
100
AcDbLine
 10
47.58049488683358
 20
4.373318999999999
 30
0.0
 11
47.41702488683359
 21
4.166142000000001
 31
0.0
  0
LINE
  5
12F
330
1F
100
AcDbEntity
  8
DEFAULT
100
AcDbLine
 10
58.50623788683359
 20
2.766535999999999
 30
0.0
 11
58.50591588683358
 21
2.951519000000001
 31
0.0
  0
LINE
  5
130
330
1F
100
AcDbEntity
  8
DEFAULT
100
AcDbLine
 10
59.19226188683358
 20
2.766535999999999
 30
0.0
 11
59.17251588683358
 21
3.331993000000001
 31
0.0
  0
SPLINE
  5
131
330
1F
100
AcDbEntity
  8
DEFAULT
100
AcDbSpline
210
0.0
220
0.0
230
1.0
 70
     8
 71
     3
 72
    16
 73
    12
 74
     0
 42
0.0000000001
 43
0.0000000001
 40
0.0
 40
0.0
 40
0.0
 40
0.0
 40
1.0
 40
2.0
 40
3.0
 40
4.0
 40
5.0
 40
6.0
 40
7.0
 40
8.0
 40
9.0
 40
9.0
 40
9.0
 40
9.0
 10
36.79143431970358
 20
14.54867384695
 30
0.0
 10
36.89795523107833
 20
15.46379994539337
 30
0.0
 10
37.11184936572106
 20
17.29369904184367
 30
0.0
 10
37.42960815959424
 20
20.03986026251528
 30
0.0
 10
37.71418903637365
 20
22.7867510778304
 30
0.0
 10
37.85424363183205
 20
25.55816439013395
 30
0.0
 10
37.38493508183262
 20
28.29302263156176
 30
0.0
 10
36.63952615827634
 20
30.954499502696
 30
0.0
 10
35.89949147259946
 20
33.61737885310821
 30
0.0
 10
35.15208837565902
 20
36.27823426794353
 30
0.0
 10
34.66483064588796
 20
38.05519785994054
 30
0.0
 10
34.42425757111359
 20
38.94450560006
 30
0.0
  0
ARC
  5
132
330
1F
100
AcDbEntity
  8
DEFAULT
100
AcDbCircle
 10
13.32590300000003
 20
0.1249999999999829
 30
0.0
 40
0.124999999999984
100
AcDbArc
 50
269.9999999999927
 51
0.0000000000078623
  0
CIRCLE
  5
133
330
1F
100
AcDbEntity
  8
DEFAULT
100
AcDbCircle
 10
35.47984988683358
 20
1.279527999999998
 30
0.0
 40
1.279527000000003
  0
ARC
  5
134
330
1F
100
AcDbEntity
  8
DEFAULT
100
AcDbCircle
 10
53.41281388683358
 20
14.04117000000001
 30
0.0
 40
0.3937009409970637
100
AcDbArc
 50
283.9790277952811
 51
355.0000458564638
  0
LINE
  5
135
330
1F
100
AcDbEntity
  8
DEFAULT
100
AcDbLine
 10
39.66192488683359
 20
16.210667
 30
0.0
 11
38.59162088683358
 21
16.210818
 31
0.0
  0
LINE
  5
136
330
1F
100
AcDbEntity
  8
DEFAULT
100
AcDbLine
 10
58.26903388683358
 20
2.766535999999999
 30
0.0
 11
58.26903388683358
 21
2.716536000000001
 31
0.0
  0
LINE
  5
137
330
1F
100
AcDbEntity
  8
DEFAULT
100
AcDbLine
 10
14.91307200000003
 20
13.217547
 30
0.0
 11
14.27038900000002
 21
12.561849
 31
0.0
  0
LINE
  5
138
330
1F
100
AcDbEntity
  8
DEFAULT
100
AcDbLine
 10
57.7961106261294
 20
2.699548977187338
 30
0.0
 11
57.81167588683358
 21
2.716535738299619
 31
0.0
  0
SPLINE
  5
139
330
1F
100
AcDbEntity
  8
DEFAULT
100
AcDbSpline
210
0.0
220
0.0
230
1.0
 70
     8
 71
     3
 72
    16
 73
    12
 74
     0
 42
0.0000000001
 43
0.0000000001
 40
0.0
 40
0.0
 40
0.0
 40
0.0
 40
1.0
 40
2.0
 40
3.0
 40
4.0
 40
5.0
 40
6.0
 40
7.0
 40
8.0
 40
9.0
 40
9.0
 40
9.0
 40
9.0
 10
38.90392088683357
 20
27.580464
 30
0.0
 10
38.97548158760461
 20
27.5786602751336
 30
0.0
 10
39.11834000934566
 20
27.55412516112624
 30
0.0
 10
39.30829287300129
 20
27.44920379424533
 30
0.0
 10
39.47785970587324
 20
27.31832891874769
 30
0.0
 10
39.66477277970532
 20
27.20783827920691
 30
0.0
 10
39.88716079006255
 20
27.19718910510113
 30
0.0
 10
40.08788875554518
 20
27.27914571664524
 30
0.0
 10
40.27145640592036
 20
27.39024411039939
 30
0.0
 10
40.4611631018696
 20
27.4919773636095
 30
0.0
 10
40.60172300048592
 20
27.52768185127325
 30
0.0
 10
40.67356388683358
 20
27.528378
 30
0.0
  0
ARC
  5
13A
330
1F
100
AcDbEntity
  8
DEFAULT
100
AcDbCircle
 10
14.89691282577891
 20
26.47441225899492
 30
0.0
 40
24.48119009626342
100
AcDbArc
 50
15.52379290243445
 51
31.52999247538206
  0
ARC
  5
13B
330
1F
100
AcDbEntity
  8
DEFAULT
100
AcDbCircle
 10
50.60830488683359
 20
14.49709500000001
 30
0.0
 40
0.3937004300065508
100
AcDbArc
 50
188.1083891567756
 51
357.3499443167879
  0
LINE
  5
13C
330
1F
100
AcDbEntity
  8
DEFAULT
100
AcDbLine
 10
53.03201488683358
 20
13.217547
 30
0.0
 11
53.40699588683358
 21
13.634005
 31
0.0
  0
SPLINE
  5
13D
330
1F
100
AcDbEntity
  8
DEFAULT
100
AcDbSpline
210
0.0
220
0.0
230
1.0
 70
     8
 71
     3
 72
    12
 73
     8
 74
     0
 42
0.0000000001
 43
0.0000000001
 40
0.0
 40
0.0
 40
0.0
 40
0.0
 40
1.0
 40
2.0
 40
3.0
 40
4.0
 40
5.0
 40
5.0
 40
5.0
 40
5.0
 10
55.79278000712358
 20
14.99956585096
 30
0.0
 10
55.70136303846296
 20
15.01356858196085
 30
0.0
 10
55.51857964033411
 20
15.03768778833713
 30
0.0
 10
55.2404993092467
 20
15.06052611455465
 30
0.0
 10
54.96967937908366
 20
15.07157711702212
 30
0.0
 10
54.66917031092281
 20
15.06971330346376
 30
0.0
 10
54.58762515448853
 20
15.27891211073312
 30
0.0
 10
54.60068088683359
 20
15.36861
 30
0.0
  0
LINE
  5
13E
330
1F
100
AcDbEntity
  8
DEFAULT
100
AcDbLine
 10
47.29941088683358
 20
6.722633999999999
 30
0.0
 11
47.30187188683358
 21
6.722664000000002
 31
0.0
  0
LINE
  5
13F
330
1F
100
AcDbEntity
  8
DEFAULT
100
AcDbLine
 10
13.34853000000001
 20
9.619288999999998
 30
0.0
 11
13.44832400000004
 21
9.516957999999999
 31
0.0
  0
ARC
  5
140
330
1F
100
AcDbEntity
  8
DEFAULT
100
AcDbCircle
 10
50.16228488683362
 20
1.857850999999963
 30
0.0
 40
0.499999366483007
100
AcDbArc
 50
298.2159964039491
 51
355.0000959861733
  0
ARC
  5
141
330
1F
100
AcDbEntity
  8
DEFAULT
100
AcDbCircle
 10
63.52639388682964
 20
16.48046799999824
 30
0.0
 40
14.96063069588558
100
AcDbArc
 50
199.0272536426716
 51
207.1273085515974
  0
LINE
  5
142
330
1F
100
AcDbEntity
  8
DEFAULT
100
AcDbLine
 10
20.31231500000004
 20
2.716536000000001
 30
0.0
 11
18.96848700000004
 21
2.716536000000001
 31
0.0
  0
LINE
  5
143
330
1F
100
AcDbEntity
  8
DEFAULT
100
AcDbLine
 10
45.29462388683358
 20
15.308268
 30
0.0
 11
45.29462388683358
 21
15.376316
 31
0.0
  0
LINE
  5
144
330
1F
100
AcDbEntity
  8
DEFAULT
100
AcDbLine
 10
59.15552488683358
 20
2.716536236396425
 30
0.0
 11
59.17109065133691
 21
2.699549020605581
 31
0.0
  0
ARC
  5
145
330
1F
100
AcDbEntity
  8
DEFAULT
100
AcDbCircle
 10
45.35211579804596
 20
3.461776946753756
 30
0.0
 40
3.262335394286445
100
AcDbArc
 50
91.69226266792516
 51
111.516196498219
  0
ARC
  5
146
330
1F
100
AcDbEntity
  8
DEFAULT
100
AcDbCircle
 10
-116.4354711268776
 20
460.6569443458422
 30
0.0
 40
481.7166759576346
100
AcDbArc
 50
288.4459068809828
 51
289.4735991548084
  0
LINE
  5
147
330
1F
100
AcDbEntity
  8
DEFAULT
100
AcDbLine
 10
51.35926488683359
 20
14.192926
 30
0.0
 11
51.15883188683358
 21
14.743609
 31
0.0
  0
LINE
  5
148
330
1F
100
AcDbEntity
  8
DEFAULT
100
AcDbLine
 10
22.44133683306703
 20
27.55938778734
 30
0.0
 11
22.73822700000002
 21
27.559386
 31
0.0
  0
ARC
  5
149
330
1F
100
AcDbEntity
  8
DEFAULT
100
AcDbCircle
 10
22.45902349012808
 20
27.77858979312404
 30
0.0
 40
0.2199143860181539
100
AcDbArc
 50
180.0060576550718
 51
265.3869937149768
  0
LINE
  5
14A
330
1F
100
AcDbEntity
  8
DEFAULT
100
AcDbLine
 10
50.72226788683358
 20
2.716536236396425
 30
0.0
 11
50.73783365133691
 21
2.699549020605581
 31
0.0
  0
LINE
  5
14B
330
1F
100
AcDbEntity
  8
DEFAULT
100
AcDbLine
 10
36.61961388683358
 20
2.766535999999999
 30
0.0
 11
36.61961388683358
 21
2.716536000000001
 31
0.0
  0
LINE
  5
14C
330
1F
100
AcDbEntity
  8
DEFAULT
100
AcDbLine
 10
9.159556000000038
 20
13.427658
 30
0.0
 11
9.479844000000043
 21
13.427658
 31
0.0
  0
LINE
  5
14D
330
1F
100
AcDbEntity
  8
DEFAULT
100
AcDbLine
 10
19.25614850000002
 20
0.0590550000000008
 30
0.0
 11
19.19709300000002
 21
-0.0000004999999987
 31
0.0
  0
SPLINE
  5
14E
330
1F
100
AcDbEntity
  8
DEFAULT
100
AcDbSpline
210
0.0
220
0.0
230
1.0
 70
     8
 71
     3
 72
    16
 73
    12
 74
     0
 42
0.0000000001
 43
0.0000000001
 40
0.0
 40
0.0
 40
0.0
 40
0.0
 40
1.0
 40
2.0
 40
3.0
 40
4.0
 40
5.0
 40
6.0
 40
7.0
 40
8.0
 40
9.0
 40
9.0
 40
9.0
 40
9.0
 10
22.18113400000001
 20
27.685481
 30
0.0
 10
22.18285820781031
 20
27.66424170117405
 30
0.0
 10
22.18603892262698
 20
27.62150263177101
 30
0.0
 10
22.19089054177076
 20
27.55830113691994
 30
0.0
 10
22.19177335569415
 20
27.49193449582319
 30
0.0
 10
22.20681433715234
 20
27.43721689342261
 30
0.0
 10
22.21031891818998
 20
27.53269691985767
 30
0.0
 10
22.2154072211419
 20
27.58801934958423
 30
0.0
 10
22.21998608737925
 20
27.6542960314284
 30
0.0
 10
22.22583318239447
 20
27.71685140748205
 30
0.0
 10
22.2305409117869
 20
27.76084856031212
 30
0.0
 10
22.23910910364802
 20
27.77856654245
 30
0.0
  0
LINE
  5
14F
330
1F
100
AcDbEntity
  8
DEFAULT
100
AcDbLine
 10
35.71755688683358
 20
2.699549000000001
 30
0.0
 11
35.73204388683358
 21
2.533956
 31
0.0
  0
LINE
  5
150
330
1F
100
AcDbEntity
  8
DEFAULT
100
AcDbLine
 10
46.72448288683358
 20
4.166142000000001
 30
0.0
 11
47.41263288683358
 21
4.166142000000001
 31
0.0
  0
ARC
  5
151
330
1F
100
AcDbEntity
  8
DEFAULT
100
AcDbCircle
 10
50.33193068041361
 20
13.36023864261201
 30
0.0
 40
0.4756674263716285
100
AcDbArc
 50
193.6560388564143
 51
346.313281180147
  0
SPLINE
  5
152
330
1F
100
AcDbEntity
  8
DEFAULT
100
AcDbSpline
210
0.0
220
0.0
230
1.0
 70
     8
 71
     3
 72
     9
 73
     5
 74
     0
 42
0.0000000001
 43
0.0000000001
 40
0.0
 40
0.0
 40
0.0
 40
0.0
 40
0.3894521512621
 40
1.0
 40
1.0
 40
1.0
 40
1.0
 10
2.530377442590037
 20
66.17766753392655
 30
0.0
 10
2.528760364060048
 20
66.18090724634655
 30
0.0
 10
2.529097476470014
 20
66.16010197962655
 30
0.0
 10
2.528842255310025
 20
66.14887141479656
 30
0.0
 10
2.528607729020024
 20
66.14351791996657
 30
0.0
  0
ARC
  5
153
330
1F
100
AcDbEntity
  8
DEFAULT
100
AcDbCircle
 10
22.92459170769276
 20
27.96586110792148
 30
0.0
 40
0.2199134591987553
100
AcDbArc
 50
95.09183357819126
 51
180.0623026967257
  0
LINE
  5
154
330
1F
100
AcDbEntity
  8
DEFAULT
100
AcDbLine
 10
23.551181594707
 20
28.21498296572
 30
0.0
 11
22.90507387594752
 21
28.18490672824
 31
0.0
  0
ARC
  5
155
330
1F
100
AcDbEntity
  8
DEFAULT
100
AcDbCircle
 10
11.60738300000003
 20
0.1250000000000072
 30
0.0
 40
0.1250000000000071
100
AcDbArc
 50
180.0000000000033
 51
269.9999999999968
  0
ARC
  5
156
330
1F
100
AcDbEntity
  8
DEFAULT
100
AcDbCircle
 10
20.49966000000005
 20
2.434055000000016
 30
0.0
 40
0.1249999999999849
100
AcDbArc
 50
359.9999999999931
 51
90.00000000000651
  0
LINE
  5
157
330
1F
100
AcDbEntity
  8
DEFAULT
100
AcDbLine
 10
45.59813491894359
 20
5.962692806229999
 30
0.0
 11
45.09032123568358
 21
5.88586085499
 31
0.0
  0
LINE
  5
158
330
1F
100
AcDbEntity
  8
DEFAULT
100
AcDbLine
 10
45.72371343988358
 20
5.956638239589999
 30
0.0
 11
45.59813491894359
 21
5.962692806229999
 31
0.0
  0
LINE
  5
159
330
1F
100
AcDbEntity
  8
DEFAULT
100
AcDbLine
 10
45.96625228524358
 20
5.88586085499
 30
0.0
 11
45.72371343988358
 21
5.956638239589999
 31
0.0
  0
ARC
  5
15A
330
1F
100
AcDbEntity
  8
DEFAULT
100
AcDbCircle
 10
46.99861530418528
 20
10.85590705324096
 30
0.0
 40
0.7377468007110994
100
AcDbArc
 50
28.24211602688051
 51
119.961350790388
  0
LINE
  5
15B
330
1F
100
AcDbEntity
  8
DEFAULT
100
AcDbLine
 10
49.36285288683358
 20
2.699549000000001
 30
0.0
 11
49.37734088683358
 21
2.533956
 31
0.0
  0
ARC
  5
15C
330
1F
100
AcDbEntity
  8
DEFAULT
100
AcDbCircle
 10
4.433626000000035
 20
70.26764208218657
 30
0.0
 40
0.1250001078498997
100
AcDbArc
 50
90.00000000000122
 51
173.8765044098805
  0
LINE
  5
15D
330
1F
100
AcDbEntity
  8
DEFAULT
100
AcDbLine
 10
49.31639969157358
 20
3.294561197579998
 30
0.0
 11
45.96629786287357
 21
5.885826964909999
 31
0.0
  0
ARC
  5
15E
330
1F
100
AcDbEntity
  8
DEFAULT
100
AcDbCircle
 10
52.57808888683358
 20
15.190158
 30
0.0
 40
1.574802719327088
100
AcDbArc
 50
219.2897550071298
 51
320.7102449928702
  0
SPLINE
  5
15F
330
1F
100
AcDbEntity
  8
DEFAULT
100
AcDbSpline
210
0.0
220
0.0
230
1.0
 70
     8
 71
     3
 72
    14
 73
    10
 74
     0
 42
0.0000000001
 43
0.0000000001
 40
0.0
 40
0.0
 40
0.0
 40
0.0
 40
1.0
 40
2.0
 40
3.0
 40
4.0
 40
5.0
 40
6.0
 40
7.0
 40
7.0
 40
7.0
 40
7.0
 10
47.03035230818358
 20
4.717333752270001
 30
0.0
 10
46.9897979593012
 20
4.742215495755776
 30
0.0
 10
46.89296273450088
 20
4.728823684303347
 30
0.0
 10
46.78014365202446
 20
4.650039932725033
 30
0.0
 10
46.68354272167258
 20
4.551484842220521
 30
0.0
 10
46.61798159377177
 20
4.429827139036767
 30
0.0
 10
46.51920137838911
 20
4.333599694328043
 30
0.0
 10
46.40818875853213
 20
4.253186100607106
 30
0.0
 10
46.32812834199004
 20
4.208969549646124
 30
0.0
 10
46.28691735567358
 20
4.18936889786
 30
0.0
  0
LINE
  5
160
330
1F
100
AcDbEntity
  8
DEFAULT
100
AcDbLine
 10
18.78113500000003
 20
70.39264208218657
 30
0.0
 11
19.19708700000004
 21
70.39264208218657
 31
0.0
  0
LINE
  5
161
330
1F
100
AcDbEntity
  8
DEFAULT
100
AcDbLine
 10
13.16161100000002
 20
46.24725908218656
 30
0.0
 11
13.16227800000004
 21
46.27463508218656
 31
0.0
  0
LINE
  5
162
330
1F
100
AcDbEntity
  8
DEFAULT
100
AcDbLine
 10
22.81884736378004
 20
48.25976567091656
 30
0.0
 11
22.55255274141004
 21
56.83937614338655
 31
0.0
  0
ARC
  5
163
330
1F
100
AcDbEntity
  8
DEFAULT
100
AcDbCircle
 10
24.07402001080722
 20
54.54262101102917
 30
0.0
 40
0.7086614608791791
100
AcDbArc
 50
302.02446864848
 51
60.78779463854126
  0
LINE
  5
164
330
1F
100
AcDbEntity
  8
DEFAULT
100
AcDbLine
 10
4.908633000000037
 20
70.33358708218657
 30
0.0
 11
4.849578000000037
 21
70.39264208218657
 31
0.0
  0
ARC
  5
165
330
1F
100
AcDbEntity
  8
DEFAULT
100
AcDbCircle
 10
1.318052814105722
 20
65.32726968291263
 30
0.0
 40
0.5503775068893139
100
AcDbArc
 50
87.5231296686948
 51
178.561131248881
  0
ARC
  5
166
330
1F
100
AcDbEntity
  8
DEFAULT
100
AcDbCircle
 10
1262.62809756157
 20
31.68997599198668
 30
0.0
 40
1262.308870579833
100
AcDbArc
 50
178.4724061692198
 51
179.0865617904725
  0
ARC
  5
167
330
1F
100
AcDbEntity
  8
DEFAULT
100
AcDbCircle
 10
0.775089197653924
 20
51.75171025369353
 30
0.0
 40
0.3018389427554578
100
AcDbArc
 50
168.1897304798942
 51
254.0606855146727
  0
LINE
  5
168
330
1F
100
AcDbEntity
  8
DEFAULT
100
AcDbLine
 10
1.945365968055285
 20
51.40582958218656
 30
0.0
 11
0.6921984680552953
 21
51.46147608218656
 31
0.0
  0
ARC
  5
169
330
1F
100
AcDbEntity
  8
DEFAULT
100
AcDbCircle
 10
1.933853072766583
 20
51.62648596626143
 30
0.0
 40
0.2209565264728084
100
AcDbArc
 50
272.9867375412938
 51
357.2544643345962
  0
LINE
  5
16A
330
1F
100
AcDbEntity
  8
DEFAULT
100
AcDbLine
 10
2.766438201682291
 20
65.51423427577154
 30
0.0
 11
2.154555968055291
 21
51.61590208218655
 31
0.0
  0
ARC
  5
16B
330
1F
100
AcDbEntity
  8
DEFAULT
100
AcDbCircle
 10
2.466531166041315
 20
65.52722629567714
 30
0.0
 40
0.3001883119113389
100
AcDbArc
 50
357.5194887256473
 51
87.44750323275989
  0
LINE
  5
16C
330
1F
100
AcDbEntity
  8
DEFAULT
100
AcDbLine
 10
1.341837972017288
 20
65.87713299897655
 30
0.0
 11
2.479899973954275
 21
65.82711677165656
 31
0.0
  0
CIRCLE
  5
16D
330
1F
100
AcDbEntity
  8
DEFAULT
100
AcDbCircle
 10
49.12514688683359
 20
1.279528000000005
 30
0.0
 40
1.062499999999994
  0
LINE
  5
16E
330
1F
100
AcDbEntity
  8
DEFAULT
100
AcDbLine
 10
-0.1249999999999716
 20
54.31329008218657
 30
0.0
 11
-0.1249999999999716
 21
56.62234508218658
 31
0.0
  0
ARC
  5
16F
330
1F
100
AcDbEntity
  8
DEFAULT
100
AcDbCircle
 10
24.93328000000002
 20
54.31329008218658
 30
0.0
 40
0.125
100
AcDbArc
 50
270.0
 51
359.9999999999968
  0
LINE
  5
170
330
1F
100
AcDbEntity
  8
DEFAULT
100
AcDbLine
 10
11.85338900000002
 20
45.75503308218657
 30
0.0
 11
11.60738300000003
 21
45.75503308218657
 31
0.0
  0
LINE
  5
171
330
1F
100
AcDbEntity
  8
DEFAULT
100
AcDbLine
 10
11.48238300000003
 20
45.88003308218657
 30
0.0
 11
11.48238300000003
 21
47.81418308218656
 31
0.0
  0
LINE
  5
172
330
1F
100
AcDbEntity
  8
DEFAULT
100
AcDbLine
 10
21.95510483955005
 20
70.16870684091657
 30
0.0
 11
22.23230434253003
 21
65.85168508517657
 31
0.0
  0
LINE
  5
173
330
1F
100
AcDbEntity
  8
DEFAULT
100
AcDbLine
 10
2.571870000000018
 20
66.18979308218655
 30
0.0
 11
2.530419000000023
 21
66.17758208218655
 31
0.0
  0
LINE
  5
174
330
1F
100
AcDbEntity
  8
DEFAULT
100
AcDbLine
 10
2.700975657470025
 20
65.85168508517657
 30
0.0
 11
2.530419244880022
 21
66.17758206522655
 31
0.0
  0
LINE
  5
175
330
1F
100
AcDbEntity
  8
DEFAULT
100
AcDbLine
 10
46.12406288184472
 20
14.79135089219686
 30
0.0
 11
46.15369297304258
 21
14.77570606491853
 31
0.0
  0
LINE
  5
176
330
1F
100
AcDbEntity
  8
DEFAULT
100
AcDbLine
 10
13.16130759381335
 20
46.22500929516401
 30
0.0
 11
13.16161100000002
 21
46.24725908218656
 31
0.0
  0
LINE
  5
177
330
1F
100
AcDbEntity
  8
DEFAULT
100
AcDbLine
 10
13.17493741712565
 20
46.08672608218656
 30
0.0
 11
13.16130759381335
 21
46.22500929516401
 31
0.0
  0
CIRCLE
  5
178
330
1F
100
AcDbEntity
  8
DEFAULT
100
AcDbCircle
 10
46.7040728868336
 20
15.190158
 30
0.0
 40
0.1968500000000031
  0
ARC
  5
179
330
1F
100
AcDbEntity
  8
DEFAULT
100
AcDbCircle
 10
13.74850207235248
 20
137.7146629716357
 30
0.0
 40
89.91366288646738
100
AcDbArc
 50
269.1831280764115
 51
275.7896796140687
  0
ARC
  5
17A
330
1F
100
AcDbEntity
  8
DEFAULT
100
AcDbCircle
 10
36.97767688683359
 20
14.52699500000001
 30
0.0
 40
0.187500245453025
100
AcDbArc
 50
173.3605535705788
 51
269.9999999999978
  0
ARC
  5
17B
330
1F
100
AcDbEntity
  8
DEFAULT
100
AcDbCircle
 10
22.14184779023451
 20
66.14701839759739
 30
0.0
 40
0.2628477905990409
100
AcDbArc
 50
359.2369404245716
 51
6.696157112660193
  0
LINE
  5
17C
330
1F
100
AcDbEntity
  8
DEFAULT
100
AcDbLine
 10
22.40286100000003
 20
66.17758208218655
 30
0.0
 11
22.40305400000003
 21
66.17759208218655
 31
0.0
  0
ARC
  5
17D
330
1F
100
AcDbEntity
  8
DEFAULT
100
AcDbCircle
 10
6.152145000000076
 20
70.26764208218661
 30
0.0
 40
0.1250003616149109
100
AcDbArc
 50
3.064246004838844
 51
90.00000000001343
  0
LINE
  5
17E
330
1F
100
AcDbEntity
  8
DEFAULT
100
AcDbLine
 10
2.978175160450036
 20
70.16870684091657
 30
0.0
 11
2.700975657470025
 21
65.85168508517657
 31
0.0
  0
ARC
  5
17F
330
1F
100
AcDbEntity
  8
DEFAULT
100
AcDbCircle
 10
12.46664300000002
 20
46.10936408218655
 30
0.0
 40
0.7086611748531394
100
AcDbArc
 50
181.8306091687653
 51
358.1693882484789
  0
ARC
  5
180
330
1F
100
AcDbEntity
  8
DEFAULT
100
AcDbCircle
 10
50.33193068041361
 20
13.36023864261201
 30
0.0
 40
0.4756674263716318
100
AcDbArc
 50
13.6771848940861
 51
193.6560388564147
  0
LINE
  5
181
330
1F
100
AcDbEntity
  8
DEFAULT
100
AcDbLine
 10
24.45827200000002
 20
56.68827908218658
 30
0.0
 11
24.45827200000002
 21
55.13778108218656
 31
0.0
  0
LINE
  5
182
330
1F
100
AcDbEntity
  8
DEFAULT
100
AcDbLine
 10
22.40650000000002
 20
65.83746708218655
 30
0.0
 11
22.40655900000004
 21
66.00134408218656
 31
0.0
  0
LINE
  5
183
330
1F
100
AcDbEntity
  8
DEFAULT
100
AcDbLine
 10
0.475008000000031
 20
56.68829008218658
 30
0.0
 11
0.4159530000000302
 21
56.74734508218658
 31
0.0
  0
LINE
  5
184
330
1F
100
AcDbEntity
  8
DEFAULT
100
AcDbLine
 10
22.23230434253003
 20
65.85168508517657
 30
0.0
 11
22.40286075512003
 21
66.17758206522655
 31
0.0
  0
LINE
  5
185
330
1F
100
AcDbEntity
  8
DEFAULT
100
AcDbLine
 10
5.677137000000045
 20
70.27632608218656
 30
0.0
 11
5.677137000000045
 21
70.33357608218657
 31
0.0
  0
ARC
  5
186
330
1F
100
AcDbEntity
  8
DEFAULT
100
AcDbCircle
 10
36.51698788683362
 20
1.85785099999997
 30
0.0
 40
0.4999996028817993
100
AcDbArc
 50
298.216097378838
 51
355.0000959861725
  0
LINE
  5
187
330
1F
100
AcDbEntity
  8
DEFAULT
100
AcDbLine
 10
11.77166900000003
 20
46.24725908218656
 30
0.0
 11
11.77224200000003
 21
46.24920208218657
 31
0.0
  0
LINE
  5
188
330
1F
100
AcDbEntity
  8
DEFAULT
100
AcDbLine
 10
2.114432636220016
 20
48.25976567091656
 30
0.0
 11
2.250494000000032
 21
53.85091108218657
 31
0.0
  0
LINE
  5
189
330
1F
100
AcDbEntity
  8
DEFAULT
100
AcDbLine
 10
46.62788588683358
 20
11.494319
 30
0.0
 11
46.31951188683358
 21
12.447619
 31
0.0
  0
ARC
  5
18A
330
1F
100
AcDbEntity
  8
DEFAULT
100
AcDbCircle
 10
0.8592599891928899
 20
54.54262101102918
 30
0.0
 40
0.7086614608792318
100
AcDbArc
 50
119.211643574176
 51
237.9760937945728
  0
LINE
  5
18B
330
1F
100
AcDbEntity
  8
DEFAULT
100
AcDbLine
 10
35.71606888683358
 20
3.330112
 30
0.0
 11
35.71801788683358
 21
3.357724999999999
 31
0.0
  0
LINE
  5
18C
330
1F
100
AcDbEntity
  8
DEFAULT
100
AcDbLine
 10
2.729035464900022
 20
63.96045443018657
 30
0.0
 11
2.694886724360032
 21
64.04822040472655
 31
0.0
  0
ARC
  5
18D
330
1F
100
AcDbEntity
  8
DEFAULT
100
AcDbCircle
 10
47.0524978868336
 20
2.418503999999976
 30
0.0
 40
0.1023624999999768
100
AcDbArc
 50
269.9999999999881
 51
0.0000000000129257
  0
LINE
  5
18E
330
1F
100
AcDbEntity
  8
DEFAULT
100
AcDbLine
 10
50.3015358521769
 20
9.595592730801082
 30
0.0
 11
50.21149912839751
 21
9.6588821237579
 31
0.0
  0
CIRCLE
  5
18F
330
1F
100
AcDbEntity
  8
DEFAULT
100
AcDbCircle
 10
57.55840388683358
 20
1.279528
 30
0.0
 40
1.154527000000001
  0
LINE
  5
190
330
1F
100
AcDbEntity
  8
DEFAULT
100
AcDbLine
 10
47.64853788683358
 20
11.205008
 30
0.0
 11
51.82446488683358
 21
12.561849
 31
0.0
  0
LINE
  5
191
330
1F
100
AcDbEntity
  8
DEFAULT
100
AcDbLine
 10
50.76440688683358
 20
13.555177
 30
0.0
 11
49.89815088683358
 21
13.555417
 31
0.0
  0
LINE
  5
192
330
1F
100
AcDbEntity
  8
DEFAULT
100
AcDbLine
 10
53.50791888683358
 20
13.659129
 30
0.0
 11
52.65628488683359
 21
13.447124
 31
0.0
  0
LINE
  5
193
330
1F
100
AcDbEntity
  8
DEFAULT
100
AcDbLine
 10
48.26017588683358
 20
11.403741
 30
0.0
 11
47.38123788683359
 21
10.524804
 31
0.0
  0
LINE
  5
194
330
1F
100
AcDbEntity
  8
DEFAULT
100
AcDbLine
 10
11.77197240618671
 20
46.22500929516401
 30
0.0
 11
11.77166900000003
 21
46.24725908218656
 31
0.0
  0
LINE
  5
195
330
1F
100
AcDbEntity
  8
DEFAULT
100
AcDbLine
 10
11.75834258287441
 20
46.08672608218656
 30
0.0
 11
11.77197240618671
 21
46.22500929516401
 31
0.0
  0
LINE
  5
196
330
1F
100
AcDbEntity
  8
DEFAULT
100
AcDbLine
 10
11.76908900000004
 20
46.33760708218657
 30
0.0
 11
11.71518500000005
 21
47.81322608218656
 31
0.0
  0
LINE
  5
197
330
1F
100
AcDbEntity
  8
DEFAULT
100
AcDbLine
 10
47.16074188683358
 20
9.619292000000002
 30
0.0
 11
45.39701088683358
 21
9.619292000000002
 31
0.0
  0
LINE
  5
198
330
1F
100
AcDbEntity
  8
DEFAULT
100
AcDbLine
 10
45.96212288683358
 20
6.722218000000002
 30
0.0
 11
47.10649388683359
 21
6.722664000000002
 31
0.0
  0
LINE
  5
199
330
1F
100
AcDbEntity
  8
DEFAULT
100
AcDbLine
 10
49.37841888683359
 20
2.716536000000001
 30
0.0
 11
50.72226788683358
 21
2.716536000000001
 31
0.0
  0
CIRCLE
  5
19A
330
1F
100
AcDbEntity
  8
DEFAULT
100
AcDbCircle
 10
35.47984988683358
 20
1.279527999999998
 30
0.0
 40
1.062500000000001
  0
LINE
  5
19B
330
1F
100
AcDbEntity
  8
DEFAULT
100
AcDbLine
 10
47.15486088683357
 20
4.166142000000001
 30
0.0
 11
47.15486088683357
 21
2.418503999999999
 31
0.0
  0
SPLINE
  5
19C
330
1F
100
AcDbEntity
  8
DEFAULT
100
AcDbSpline
210
0.0
220
0.0
230
1.0
 70
     8
 71
     3
 72
    12
 73
     8
 74
     0
 42
0.0000000001
 43
0.0000000001
 40
-5.0
 40
-5.0
 40
-5.0
 40
-5.0
 40
-4.0
 40
-3.0
 40
-2.0
 40
-1.0
 40
0.0
 40
0.0
 40
0.0
 40
0.0
 10
40.71025349579358
 20
16.21659531658
 30
0.0
 10
41.68814852520404
 20
16.29997818198324
 30
0.0
 10
43.64423774604114
 20
16.46367767229695
 30
0.0
 10
46.58137238834496
 20
16.67054227208724
 30
0.0
 10
49.5239960999011
 20
16.79203929954488
 30
0.0
 10
52.46936463835097
 20
16.7402746310355
 30
0.0
 10
54.4212344267934
 20
16.45119401748951
 30
0.0
 10
55.35253338102358
 20
16.13326938637
 30
0.0
  0
ARC
  5
19D
330
1F
100
AcDbEntity
  8
DEFAULT
100
AcDbCircle
 10
40.75812431697673
 20
14.58955119212255
 30
0.0
 40
1.627748198724927
100
AcDbArc
 50
91.68526775029493
 51
119.1243760036956
  0
LINE
  5
19E
330
1F
100
AcDbEntity
  8
DEFAULT
100
AcDbLine
 10
39.02813801856358
 20
15.02296307518
 30
0.0
 11
39.96588775171358
 21
16.01149543263
 31
0.0
  0
LINE
  5
19F
330
1F
100
AcDbEntity
  8
DEFAULT
100
AcDbLine
 10
38.97765629823358
 20
14.98313324452
 30
0.0
 11
39.02813801856358
 21
15.02296307518
 31
0.0
  0
LINE
  5
1A0
330
1F
100
AcDbEntity
  8
DEFAULT
100
AcDbLine
 10
57.81167588683358
 20
2.716536000000001
 30
0.0
 11
59.15552488683358
 21
2.716536000000001
 31
0.0
  0
CIRCLE
  5
1A1
330
1F
100
AcDbEntity
  8
DEFAULT
100
AcDbCircle
 10
52.57808888683358
 20
14.383071
 30
0.0
 40
0.4724410000000017
  0
LINE
  5
1A2
330
1F
100
AcDbEntity
  8
DEFAULT
100
AcDbLine
 10
50.63611662759573
 20
13.24772109573137
 30
0.0
 11
50.59118610786685
 21
13.1652338341294
 31
0.0
  0
CIRCLE
  5
1A3
330
1F
100
AcDbEntity
  8
DEFAULT
100
AcDbCircle
 10
49.12514688683359
 20
1.279528000000005
 30
0.0
 40
1.154526999999996
  0
LINE
  5
1A4
330
1F
100
AcDbEntity
  8
DEFAULT
100
AcDbLine
 10
50.9526158205226
 20
14.76359097298123
 30
0.0
 11
51.00158395836121
 21
14.47889199668944
 31
0.0
  0
LINE
  5
1A5
330
1F
100
AcDbEntity
  8
DEFAULT
100
AcDbLine
 10
50.02636354359042
 20
13.47289012675215
 30
0.0
 11
50.07129417949187
 21
13.55537778037963
 31
0.0
  0
LINE
  5
1A6
330
1F
100
AcDbEntity
  8
DEFAULT
100
AcDbLine
 10
50.59129383626677
 20
13.55523396209676
 30
0.0
 11
50.63617894612818
 21
13.47272102185881
 31
0.0
  0
LINE
  5
1A7
330
1F
100
AcDbEntity
  8
DEFAULT
100
AcDbLine
 10
1.546007000000031
 20
2.766535999999999
 30
0.0
 11
0.1506150000000446
 21
2.766535999999999
 31
0.0
  0
LINE
  5
1A8
330
1F
100
AcDbEntity
  8
DEFAULT
100
AcDbLine
 10
5.854907000000026
 20
1.814274000000001
 30
0.0
 11
4.730863000000028
 21
1.814274000000001
 31
0.0
  0
LINE
  5
1A9
330
1F
100
AcDbEntity
  8
DEFAULT
100
AcDbLine
 10
2.556658000000056
 20
28.180938
 30
0.0
 11
2.028215000000017
 21
28.184911
 31
0.0
  0
ARC
  5
1AA
330
1F
100
AcDbEntity
  8
DEFAULT
100
AcDbCircle
 10
2.502580419840748
 20
27.46392568789014
 30
0.0
 40
0.2372349745773609
100
AcDbArc
 50
274.235094971631
 51
4.509465354669741
  0
LINE
  5
1AB
330
1F
100
AcDbEntity
  8
DEFAULT
100
AcDbLine
 10
2.297458000000034
 20
27.220075
 30
0.0
 11
2.520100000000042
 21
27.2273385
 31
0.0
  0
LINE
  5
1AC
330
1F
100
AcDbEntity
  8
DEFAULT
100
AcDbLine
 10
2.177560000000028
 20
27.217109
 30
0.0
 11
2.297458000000034
 21
27.220075
 31
0.0
  0
LINE
  5
1AD
330
1F
100
AcDbEntity
  8
DEFAULT
100
AcDbLine
 10
23.51200420131002
 20
1.814273533049999
 30
0.0
 11
23.43344104674003
 21
2.163334469540001
 31
0.0
  0
LINE
  5
1AE
330
1F
100
AcDbEntity
  8
DEFAULT
100
AcDbLine
 10
11.36428000000004
 20
10.524804
 30
0.0
 11
11.38953300000003
 21
10.524804
 31
0.0
  0
LINE
  5
1AF
330
1F
100
AcDbEntity
  8
DEFAULT
100
AcDbLine
 10
15.85788400000004
 20
13.615355
 30
0.0
 11
15.85788400000004
 21
15.093577
 31
0.0
  0
LINE
  5
1B0
330
1F
100
AcDbEntity
  8
DEFAULT
100
AcDbLine
 10
24.43339600000003
 20
0.8420260000000006
 30
0.0
 11
24.43339600000003
 21
1.528175999999998
 31
0.0
  0
ARC
  5
1B1
330
1F
100
AcDbEntity
  8
DEFAULT
100
AcDbCircle
 10
18.78114100000002
 20
0.1250000000000041
 30
0.0
 40
0.1250000000000041
100
AcDbArc
 50
180.0000000000018
 51
269.9999999999984
  0
LINE
  5
1B2
330
1F
100
AcDbEntity
  8
DEFAULT
100
AcDbLine
 10
23.85945900000003
 20
2.766535999999999
 30
0.0
 11
23.85945900000003
 21
2.716536000000001
 31
0.0
  0
LINE
  5
1B3
330
1F
100
AcDbEntity
  8
DEFAULT
100
AcDbLine
 10
11.58475300000003
 20
9.619292000000002
 30
0.0
 11
12.04511200000005
 21
9.619292000000002
 31
0.0
  0
LINE
  5
1B4
330
1F
100
AcDbEntity
  8
DEFAULT
100
AcDbLine
 10
5.98037576450335
 20
2.699549020605581
 30
0.0
 11
5.964810000000028
 21
2.716536236396425
 31
0.0
  0
LINE
  5
1B5
330
1F
100
AcDbEntity
  8
DEFAULT
100
AcDbLine
 10
4.322039000000046
 20
13.164242
 30
0.0
 11
3.772020000000026
 21
13.164242
 31
0.0
  0
ARC
  5
1B6
330
1F
100
AcDbEntity
  8
DEFAULT
100
AcDbCircle
 10
2.008693292307259
 20
27.96586110792142
 30
0.0
 40
0.2199134591988132
100
AcDbArc
 50
359.9376973032882
 51
84.90816642179593
  0
LINE
  5
1B7
330
1F
100
AcDbEntity
  8
DEFAULT
100
AcDbLine
 10
1.382103405293037
 20
28.21498296572
 30
0.0
 11
2.028211124052547
 21
28.18490672824
 31
0.0
  0
LINE
  5
1B8
330
1F
100
AcDbEntity
  8
DEFAULT
100
AcDbLine
 10
5.677137500000043
 20
0.0590550000000008
 30
0.0
 11
5.736193000000043
 21
-0.0000004999999987
 31
0.0
  0
LINE
  5
1B9
330
1F
100
AcDbEntity
  8
DEFAULT
100
AcDbLine
 10
10.66289700000002
 20
12.561849
 30
0.0
 11
11.32065300000002
 21
11.2155
 31
0.0
  0
ARC
  5
1BA
330
1F
100
AcDbEntity
  8
DEFAULT
100
AcDbCircle
 10
11.60738300000004
 20
2.434054999999993
 30
0.0
 40
0.1250000000000075
100
AcDbArc
 50
90.00000000000406
 51
179.9999999999965
  0
LINE
  5
1BB
330
1F
100
AcDbEntity
  8
DEFAULT
100
AcDbLine
 10
4.752034000000037
 20
13.246775
 30
0.0
 11
4.752012000000036
 21
13.471775
 31
0.0
  0
LINE
  5
1BC
330
1F
100
AcDbEntity
  8
DEFAULT
100
AcDbLine
 10
19.19709300000002
 20
0.0
 30
0.0
 11
19.19709300000002
 21
1.603565
 31
0.0
  0
LINE
  5
1BD
330
1F
100
AcDbEntity
  8
DEFAULT
100
AcDbLine
 10
14.91307100000003
 20
13.217547
 30
0.0
 11
10.02021400000004
 21
13.217547
 31
0.0
  0
LINE
  5
1BE
330
1F
100
AcDbEntity
  8
DEFAULT
100
AcDbLine
 10
4.620971000000026
 20
2.716536000000001
 30
0.0
 11
5.964799000000028
 21
2.716536000000001
 31
0.0
  0
LINE
  5
1BF
330
1F
100
AcDbEntity
  8
DEFAULT
100
AcDbLine
 10
21.16126600000004
 20
13.164242
 30
0.0
 11
21.16132200000001
 21
13.164402
 31
0.0
  0
LINE
  5
1C0
330
1F
100
AcDbEntity
  8
DEFAULT
100
AcDbLine
 10
20.32789100000002
 20
2.699549000000001
 30
0.0
 11
20.28088400000004
 21
2.162262000000002
 31
0.0
  0
LINE
  5
1C1
330
1F
100
AcDbEntity
  8
DEFAULT
100
AcDbLine
 10
21.16130400000003
 20
13.554242
 30
0.0
 11
21.16136100000003
 21
13.554402
 31
0.0
  0
LINE
  5
1C2
330
1F
100
AcDbEntity
  8
DEFAULT
100
AcDbLine
 10
16.00552100000002
 20
14.855512
 30
0.0
 11
16.00995100000003
 21
14.855512
 31
0.0
  0
LINE
  5
1C3
330
1F
100
AcDbEntity
  8
DEFAULT
100
AcDbLine
 10
13.28199000000004
 20
4.166142000000001
 30
0.0
 11
13.60477800000004
 21
4.166142000000001
 31
0.0
  0
LINE
  5
1C4
330
1F
100
AcDbEntity
  8
DEFAULT
100
AcDbLine
 10
23.38653600000004
 20
2.699549000000001
 30
0.0
 11
23.43357900000004
 21
2.161843999999999
 31
0.0
  0
LINE
  5
1C5
330
1F
100
AcDbEntity
  8
DEFAULT
100
AcDbLine
 10
5.652256000000023
 20
70.39264208218657
 30
0.0
 11
5.652256000000023
 21
70.27641508218656
 31
0.0
  0
LINE
  5
1C6
330
1F
100
AcDbEntity
  8
DEFAULT
100
AcDbLine
 10
4.849578000000037
 20
70.39264208218657
 30
0.0
 11
4.433626000000032
 21
70.39264208218657
 31
0.0
  0
LINE
  5
1C7
330
1F
100
AcDbEntity
  8
DEFAULT
100
AcDbLine
 10
4.933515000000028
 20
70.27897708218657
 30
0.0
 11
4.933515000000028
 21
70.39264208218657
 31
0.0
  0
LINE
  5
1C8
330
1F
100
AcDbEntity
  8
DEFAULT
100
AcDbLine
 10
2.528607729020024
 20
66.14351791996657
 30
0.0
 11
2.52672067853004
 21
66.00134365018656
 31
0.0
  0
LINE
  5
1C9
330
1F
100
AcDbEntity
  8
DEFAULT
100
AcDbLine
 10
4.908633000000037
 20
70.33357608218657
 30
0.0
 11
4.908633000000037
 21
70.27906608218655
 31
0.0
  0
LINE
  5
1CA
330
1F
100
AcDbEntity
  8
DEFAULT
100
AcDbLine
 10
0.2459260000000256
 20
54.18829008218657
 30
0.0
 11
0.0000000000000284
 21
54.18829008218657
 31
0.0
  0
LINE
  5
1CB
330
1F
100
AcDbEntity
  8
DEFAULT
100
AcDbLine
 10
19.19708700000004
 20
70.39264258218657
 30
0.0
 11
19.25614250000004
 21
70.33358708218657
 31
0.0
  0
LINE
  5
1CC
330
1F
100
AcDbEntity
  8
DEFAULT
100
AcDbLine
 10
13.16161100000002
 20
46.24725908218656
 30
0.0
 11
13.16103800000005
 21
46.24920208218657
 31
0.0
  0
LINE
  5
1CD
330
1F
100
AcDbEntity
  8
DEFAULT
100
AcDbLine
 10
22.81884736378004
 20
48.25976567091656
 30
0.0
 11
22.68278600000005
 21
53.85091108218657
 31
0.0
  0
LINE
  5
1CE
330
1F
100
AcDbEntity
  8
DEFAULT
100
AcDbLine
 10
5.652256000000023
 20
70.39264208218657
 30
0.0
 11
4.933515000000028
 21
70.39264208218657
 31
0.0
  0
LINE
  5
1CF
330
1F
100
AcDbEntity
  8
DEFAULT
100
AcDbLine
 10
2.530419000000023
 20
66.17758208218655
 30
0.0
 11
2.530226000000027
 21
66.17759208218655
 31
0.0
  0
LINE
  5
1D0
330
1F
100
AcDbEntity
  8
DEFAULT
100
AcDbLine
 10
20.31126600000002
 20
12.884405
 30
0.0
 11
20.61124700000002
 21
13.164242
 31
0.0
  0
LINE
  5
1D1
330
1F
100
AcDbEntity
  8
DEFAULT
100
AcDbLine
 10
4.604007000000024
 20
3.332635
 30
0.0
 11
4.584224000000034
 21
2.766535999999999
 31
0.0
  0
ARC
  5
1D2
330
1F
100
AcDbEntity
  8
DEFAULT
100
AcDbCircle
 10
5.013052989029158
 20
3.313137851180873
 30
0.0
 40
0.4095103905310555
100
AcDbArc
 50
110.3431536445739
 51
177.2710660388497
  0
LINE
  5
1D3
330
1F
100
AcDbEntity
  8
DEFAULT
100
AcDbLine
 10
22.34117700000004
 20
13.47129
 30
0.0
 11
20.99609200000003
 21
13.471141
 31
0.0
  0
LINE
  5
1D4
330
1F
100
AcDbEntity
  8
DEFAULT
100
AcDbLine
 10
13.45090300000001
 20
2.434055000000001
 30
0.0
 11
13.45090300000001
 21
0.125
 31
0.0
  0
LINE
  5
1D5
330
1F
100
AcDbEntity
  8
DEFAULT
100
AcDbLine
 10
2.164278163088028
 20
25.990442207
 30
0.0
 11
2.230373430070813
 21
18.87210978166413
 31
0.0
  0
LINE
  5
1D6
330
1F
100
AcDbEntity
  8
DEFAULT
100
AcDbLine
 10
2.198117500786026
 20
27.60899500347
 30
0.0
 11
2.164278163088028
 21
25.990442207
 31
0.0
  0
LINE
  5
1D7
330
1F
100
AcDbEntity
  8
DEFAULT
100
AcDbLine
 10
2.228481903078034
 20
27.77834489293
 30
0.0
 11
2.198117500786026
 21
27.60899500347
 31
0.0
  0
LINE
  5
1D8
330
1F
100
AcDbEntity
  8
DEFAULT
100
AcDbLine
 10
24.63604821773004
 20
1.814273533049999
 30
0.0
 11
24.51733329613003
 21
1.603564519590002
 31
0.0
  0
LINE
  5
1D9
330
1F
100
AcDbEntity
  8
DEFAULT
100
AcDbLine
 10
0.2186525147300244
 20
2.163622138059999
 30
0.0
 11
0.2972377822700309
 21
1.814273533049999
 31
0.0
  0
LINE
  5
1DA
330
1F
100
AcDbEntity
  8
DEFAULT
100
AcDbLine
 10
0.2972377822700309
 20
1.814273533049999
 30
0.0
 11
0.4159527038700332
 21
1.603564519590002
 31
0.0
  0
LINE
  5
1DB
330
1F
100
AcDbEntity
  8
DEFAULT
100
AcDbLine
 10
20.99609200000003
 20
13.471141
 30
0.0
 11
20.38125200000005
 21
13.471481
 31
0.0
  0
LINE
  5
1DC
330
1F
100
AcDbEntity
  8
DEFAULT
100
AcDbLine
 10
0.1702915000000473
 20
3.330465
 30
0.0
 11
0.1505980000000307
 21
2.766535999999999
 31
0.0
  0
ARC
  5
1DD
330
1F
100
AcDbEntity
  8
DEFAULT
100
AcDbCircle
 10
0.5656873079280718
 20
3.316200622558969
 30
0.0
 40
0.3956530265154498
100
AcDbArc
 50
106.1853174281257
 51
177.9338821502196
  0
SPLINE
  5
1DE
330
1F
100
AcDbEntity
  8
DEFAULT
100
AcDbSpline
210
0.0
220
0.0
230
1.0
 70
     8
 71
     3
 72
    19
 73
    15
 74
     0
 42
0.0000000001
 43
0.0000000001
 40
0.0
 40
0.0
 40
0.0
 40
0.0
 40
1.0
 40
2.0
 40
3.0
 40
4.0
 40
5.0
 40
6.0
 40
7.0
 40
8.0
 40
9.0
 40
10.0
 40
11.0
 40
12.0
 40
12.0
 40
12.0
 40
12.0
 10
11.44369691030002
 20
6.7226909014
 30
0.0
 10
11.12536553902734
 20
6.725051837828964
 30
0.0
 10
10.50303489565752
 20
6.588448271959781
 30
0.0
 10
9.594452479739942
 20
6.311658357378441
 30
0.0
 10
8.680217110949883
 20
6.050474051302096
 30
0.0
 10
7.766474225702581
 20
5.788655795608754
 30
0.0
 10
6.852597846402574
 20
5.527012520050409
 30
0.0
 10
5.938761124064541
 20
5.265309115571892
 30
0.0
 10
5.024910679377143
 20
5.003632307439126
 30
0.0
 10
4.1110752956684
 20
4.741909193745176
 30
0.0
 10
3.197193855092479
 20
4.480344839021168
 30
0.0
 10
2.283304014799228
 20
4.218810227158649
 30
0.0
 10
1.369343500339085
 20
3.957522239830254
 30
0.0
 10
0.7600540383348573
 20
3.783269947946049
 30
0.0
 10
0.4554010000000233
 20
3.696172000000001
 30
0.0
  0
LINE
  5
1DF
330
1F
100
AcDbEntity
  8
DEFAULT
100
AcDbLine
 10
13.34853300000003
 20
9.619292000000002
 30
0.0
 11
12.88817400000002
 21
9.619292000000002
 31
0.0
  0
LINE
  5
1E0
330
1F
100
AcDbEntity
  8
DEFAULT
100
AcDbLine
 10
19.07837900000001
 20
1.814274000000001
 30
0.0
 11
20.20242300000004
 21
1.814274000000001
 31
0.0
  0
LINE
  5
1E1
330
1F
100
AcDbEntity
  8
DEFAULT
100
AcDbLine
 10
1.843520000000041
 20
2.434055000000001
 30
0.0
 11
1.843520000000041
 21
0.125
 31
0.0
  0
SPLINE
  5
1E2
330
1F
100
AcDbEntity
  8
DEFAULT
100
AcDbSpline
210
0.0
220
0.0
230
1.0
 70
     8
 71
     3
 72
    12
 73
     8
 74
     0
 42
0.0000000001
 43
0.0000000001
 40
0.0
 40
0.0
 40
0.0
 40
0.0
 40
1.0
 40
2.0
 40
3.0
 40
4.0
 40
5.0
 40
5.0
 40
5.0
 40
5.0
 10
10.12469309828003
 20
4.729964216950002
 30
0.0
 10
10.21773133886742
 20
4.72355577916553
 30
0.0
 10
10.40272229323034
 20
4.696962308048541
 30
0.0
 10
10.67388113975414
 20
4.627773619713771
 30
0.0
 10
10.93744069235728
 20
4.529954111294916
 30
0.0
 10
11.18306579328433
 20
4.402255900551779
 30
0.0
 10
11.32798860154131
 20
4.264480940083022
 30
0.0
 10
11.32849500000003
 20
4.166142000000001
 30
0.0
  0
LINE
  5
1E3
330
1F
100
AcDbEntity
  8
DEFAULT
100
AcDbLine
 10
24.51733300000004
 20
0.0
 30
0.0
 11
24.93328600000004
 21
0.0
 31
0.0
  0
LINE
  5
1E4
330
1F
100
AcDbEntity
  8
DEFAULT
100
AcDbLine
 10
23.38727900000004
 20
2.766535999999999
 30
0.0
 11
24.78267100000002
 21
2.766535999999999
 31
0.0
  0
LINE
  5
1E5
330
1F
100
AcDbEntity
  8
DEFAULT
100
AcDbLine
 10
24.45827800000004
 20
1.510404000000001
 30
0.0
 11
24.45827800000004
 21
0.0590609999999998
 31
0.0
  0
LINE
  5
1E6
330
1F
100
AcDbEntity
  8
DEFAULT
100
AcDbLine
 10
20.38125200000005
 20
13.471481
 30
0.0
 11
20.38117700000004
 21
13.471482
 31
0.0
  0
LINE
  5
1E7
330
1F
100
AcDbEntity
  8
DEFAULT
100
AcDbLine
 10
13.56900600000003
 20
10.524804
 30
0.0
 11
13.54375300000004
 21
10.524804
 31
0.0
  0
LINE
  5
1E8
330
1F
100
AcDbEntity
  8
DEFAULT
100
AcDbLine
 10
23.68977400000003
 20
0.0590609999999998
 30
0.0
 11
23.68977400000003
 21
1.510404000000001
 31
0.0
  0
LINE
  5
1E9
330
1F
100
AcDbEntity
  8
DEFAULT
100
AcDbLine
 10
20.08370800000003
 20
0.0
 30
0.0
 11
20.49966000000003
 21
0.0
 31
0.0
  0
LINE
  5
1EA
330
1F
100
AcDbEntity
  8
DEFAULT
100
AcDbLine
 10
24.76151600000003
 20
2.699549000000001
 30
0.0
 11
24.71451000000003
 21
2.162262000000002
 31
0.0
  0
LINE
  5
1EB
330
1F
100
AcDbEntity
  8
DEFAULT
100
AcDbLine
 10
11.44369691030002
 20
6.7226909014
 30
0.0
 11
13.48958908970005
 21
6.7226909014
 31
0.0
  0
LINE
  5
1EC
330
1F
100
AcDbEntity
  8
DEFAULT
100
AcDbLine
 10
23.08976600000003
 20
2.434055000000001
 30
0.0
 11
23.08976600000003
 21
0.125
 31
0.0
  0
SPLINE
  5
1ED
330
1F
100
AcDbEntity
  8
DEFAULT
100
AcDbSpline
210
0.0
220
0.0
230
1.0
 70
     8
 71
     3
 72
    16
 73
    12
 74
     0
 42
0.0000000001
 43
0.0000000001
 40
0.0
 40
0.0
 40
0.0
 40
0.0
 40
0.2341619387177
 40
0.4361470240471
 40
0.6001935609847
 40
0.7271726137984
 40
0.8208191896425
 40
0.8860680961386
 40
0.9277143745084
 40
0.9566562139274
 40
1.0
 40
1.0
 40
1.0
 40
1.0
 10
13.61202078128002
 20
11.20753179183
 30
0.0
 10
13.68325022659005
 20
11.24733866105
 30
0.0
 10
13.81695425802005
 20
11.31968863574
 30
0.0
 10
14.00410286651004
 20
11.41304273954
 30
0.0
 10
14.16097713872003
 20
11.48355667217
 30
0.0
 10
14.28581555989004
 20
11.53166482449
 30
0.0
 10
14.38194561287003
 20
11.56113397822
 30
0.0
 10
14.44969048664004
 20
11.57165414347
 30
0.0
 10
14.50058376592003
 20
11.5713998157
 30
0.0
 10
14.52812882596004
 20
11.53505885723
 30
0.0
 10
14.51584565611003
 20
11.50866398483
 30
0.0
 10
14.50927711714004
 20
11.4950632802
 30
0.0
  0
LINE
  5
1EE
330
1F
100
AcDbEntity
  8
DEFAULT
100
AcDbLine
 10
10.50814261034503
 20
11.38093899793
 30
0.0
 11
11.36428000000004
 21
10.524804
 31
0.0
  0
LINE
  5
1EF
330
1F
100
AcDbEntity
  8
DEFAULT
100
AcDbLine
 10
10.42437138666003
 20
11.49432076631
 30
0.0
 11
10.50814261034503
 21
11.38093899793
 31
0.0
  0
LINE
  5
1F0
330
1F
100
AcDbEntity
  8
DEFAULT
100
AcDbLine
 10
9.479844000000043
 20
13.427658
 30
0.0
 11
10.42437138666003
 21
11.49432076631
 31
0.0
  0
LINE
  5
1F1
330
1F
100
AcDbEntity
  8
DEFAULT
100
AcDbLine
 10
24.74922500000002
 20
2.559055000000001
 30
0.0
 11
24.93328600000004
 21
2.559055000000001
 31
0.0
  0
LINE
  5
1F2
330
1F
100
AcDbEntity
  8
DEFAULT
100
AcDbLine
 10
23.71465600000003
 20
0.8420260000000006
 30
0.0
 11
23.71465600000003
 21
1.528175999999998
 31
0.0
  0
LINE
  5
1F3
330
1F
100
AcDbEntity
  8
DEFAULT
100
AcDbLine
 10
18.94545900000003
 20
2.766535999999999
 30
0.0
 11
20.34901000000005
 21
2.766535999999999
 31
0.0
  0
LINE
  5
1F4
330
1F
100
AcDbEntity
  8
DEFAULT
100
AcDbLine
 10
1.243512000000038
 20
0.0590550000000008
 30
0.0
 11
1.302567000000039
 21
0.0
 31
0.0
  0
ARC
  5
1F5
330
1F
100
AcDbEntity
  8
DEFAULT
100
AcDbCircle
 10
4.433626000000028
 20
2.434055000000006
 30
0.0
 40
0.1249999999999947
100
AcDbArc
 50
89.99999999999797
 51
180.0000000000024
  0
LINE
  5
1F6
330
1F
100
AcDbEntity
  8
DEFAULT
100
AcDbLine
 10
20.08370761108003
 20
1.603564519590002
 30
0.0
 11
20.02465249297003
 21
1.510403866539999
 31
0.0
  0
LINE
  5
1F7
330
1F
100
AcDbEntity
  8
DEFAULT
100
AcDbLine
 10
6.277145000000047
 20
2.434055000000001
 30
0.0
 11
6.277145000000047
 21
0.125
 31
0.0
  0
LINE
  5
1F8
330
1F
100
AcDbEntity
  8
DEFAULT
100
AcDbLine
 10
5.736193000000043
 20
0.0
 30
0.0
 11
5.736193000000043
 21
1.603565
 31
0.0
  0
LINE
  5
1F9
330
1F
100
AcDbEntity
  8
DEFAULT
100
AcDbLine
 10
19.25614855596004
 20
1.510403866539999
 30
0.0
 11
19.19709343785004
 21
1.603564519590002
 31
0.0
  0
LINE
  5
1FA
330
1F
100
AcDbEntity
  8
DEFAULT
100
AcDbLine
 10
6.152145000000047
 20
2.559055000000001
 30
0.0
 11
6.152145000000047
 21
0.0
 31
0.0
  0
LINE
  5
1FB
330
1F
100
AcDbEntity
  8
DEFAULT
100
AcDbLine
 10
0.4159530000000302
 20
0.0
 30
0.0
 11
0.475008000000031
 21
0.0590550000000007
 31
0.0
  0
LINE
  5
1FC
330
1F
100
AcDbEntity
  8
DEFAULT
100
AcDbLine
 10
12.02333500000003
 20
-0.0000005000000005
 30
0.0
 11
12.08239050000003
 21
0.0590550000000007
 31
0.0
  0
LINE
  5
1FD
330
1F
100
AcDbEntity
  8
DEFAULT
100
AcDbLine
 10
20.62466000000003
 20
2.434055000000001
 30
0.0
 11
20.62466000000003
 21
0.125
 31
0.0
  0
LINE
  5
1FE
330
1F
100
AcDbEntity
  8
DEFAULT
100
AcDbLine
 10
23.68977424101003
 20
1.510403866539999
 30
0.0
 11
23.63071912290003
 21
1.603564519590002
 31
0.0
  0
ARC
  5
1FF
330
1F
100
AcDbEntity
  8
DEFAULT
100
AcDbCircle
 10
6.152145000000043
 20
2.434054999999998
 30
0.0
 40
0.1250000000000044
100
AcDbArc
 50
0.0000000000014249
 51
89.99999999999797
  0
LINE
  5
200
330
1F
100
AcDbEntity
  8
DEFAULT
100
AcDbLine
 10
20.61124700000002
 20
13.164242
 30
0.0
 11
21.16126600000004
 21
13.164242
 31
0.0
  0
ARC
  5
201
330
1F
100
AcDbEntity
  8
DEFAULT
100
AcDbCircle
 10
12.46664300000004
 20
41.67413900000001
 30
0.0
 40
27.33464376152501
100
AcDbArc
 50
251.5831599870451
 51
262.5531363585927
  0
LINE
  5
202
330
1F
100
AcDbEntity
  8
DEFAULT
100
AcDbLine
 10
22.34117700000004
 20
13.47129
 30
0.0
 11
22.34115500000004
 21
13.24629
 31
0.0
  0
LINE
  5
203
330
1F
100
AcDbEntity
  8
DEFAULT
100
AcDbLine
 10
0.1873350000000471
 20
2.716535738299618
 30
0.0
 11
0.1717697392958542
 21
2.699548977187338
 31
0.0
  0
LINE
  5
204
330
1F
100
AcDbEntity
  8
DEFAULT
100
AcDbLine
 10
53.03201488683358
 20
13.217547
 30
0.0
 11
51.82446488683358
 21
12.561849
 31
0.0
  0
SPLINE
  5
205
330
1F
100
AcDbEntity
  8
DEFAULT
100
AcDbSpline
210
0.0
220
0.0
230
1.0
 70
     8
 71
     3
 72
    16
 73
    12
 74
     0
 42
0.0000000001
 43
0.0000000001
 40
0.0
 40
0.0
 40
0.0
 40
0.0
 40
1.0
 40
2.0
 40
3.0
 40
4.0
 40
5.0
 40
6.0
 40
7.0
 40
8.0
 40
9.0
 40
9.0
 40
9.0
 40
9.0
 10
34.42425757111359
 20
38.94450560006
 30
0.0
 10
34.74579215502492
 20
38.14401584230141
 30
0.0
 10
35.38925378455485
 20
36.54316167830638
 30
0.0
 10
36.34792894269754
 20
34.1393839842617
 30
0.0
 10
37.27976744723864
 20
31.72459412079483
 30
0.0
 10
38.13375577347719
 20
29.28197342856798
 30
0.0
 10
38.73523390137584
 20
26.75225930846256
 30
0.0
 10
38.75785591627212
 20
24.15462931849376
 30
0.0
 10
38.62489730964029
 20
21.57174813207846
 30
0.0
 10
38.52451561022146
 20
18.98521575050531
 30
0.0
 10
38.4508775418185
 20
17.26161916438986
 30
0.0
 10
38.41538234717359
 20
16.39966974836
 30
0.0
  0
SPLINE
  5
206
330
1F
100
AcDbEntity
  8
DEFAULT
100
AcDbSpline
210
0.0
220
0.0
230
1.0
 70
     8
 71
     3
 72
    12
 73
     8
 74
     0
 42
0.0000000001
 43
0.0000000001
 40
0.0409056358384266
 40
0.0409056358384266
 40
0.0409056358384266
 40
0.0409056358384266
 40
1.0
 40
2.0
 40
3.0
 40
4.0
 40
5.0
 40
5.0
 40
5.0
 40
5.0
 10
40.52355595188926
 20
27.50420185006385
 30
0.0
 10
40.66881203095483
 20
26.79805232072018
 30
0.0
 10
40.61572704480156
 20
25.32489930044909
 30
0.0
 10
40.41829540928045
 20
23.12204596957493
 30
0.0
 10
40.23827288843209
 20
20.88349884819262
 30
0.0
 10
40.05251842216089
 20
18.64639576484096
 30
0.0
 10
39.92994593436771
 20
17.1546869133896
 30
0.0
 10
39.86838885369357
 20
16.40889540398
 30
0.0
  0
LINE
  5
207
330
1F
100
AcDbEntity
  8
DEFAULT
100
AcDbLine
 10
52.39882888683358
 20
13.472283
 30
0.0
 11
51.64825888683359
 21
13.659129
 31
0.0
  0
LINE
  5
208
330
1F
100
AcDbEntity
  8
DEFAULT
100
AcDbLine
 10
45.25566788683358
 20
6.722218000000002
 30
0.0
 11
45.25931488683358
 21
6.722296
 31
0.0
  0
LINE
  5
209
330
1F
100
AcDbEntity
  8
DEFAULT
100
AcDbLine
 10
47.22979388683359
 20
6.722722999999998
 30
0.0
 11
47.27916688683358
 21
6.722719000000001
 31
0.0
  0
LINE
  5
20A
330
1F
100
AcDbEntity
  8
DEFAULT
100
AcDbLine
 10
37.09253688683359
 20
2.699549000000001
 30
0.0
 11
37.01508488683358
 21
1.814274000000001
 31
0.0
  0
SPLINE
  5
20B
330
1F
100
AcDbEntity
  8
DEFAULT
100
AcDbSpline
210
0.0
220
0.0
230
1.0
 70
     8
 71
     3
 72
    20
 73
    16
 74
     0
 42
0.0000000001
 43
0.0000000001
 40
0.0
 40
0.0
 40
0.0
 40
0.0
 40
1.0
 40
2.0
 40
3.0
 40
4.0
 40
5.0
 40
6.0
 40
7.0
 40
8.0
 40
9.0
 40
10.0
 40
11.0
 40
12.0
 40
13.0
 40
13.0
 40
13.0
 40
13.0
 10
47.61820627290358
 20
6.436770703899999
 30
0.0
 10
47.72714552261428
 20
6.425652169010025
 30
0.0
 10
47.89644988565537
 20
6.287160519388188
 30
0.0
 10
48.09795142236696
 20
6.043643250328643
 30
0.0
 10
48.32591209530668
 20
5.821417532002691
 30
0.0
 10
48.55273546524293
 20
5.599409447653986
 30
0.0
 10
48.78347047096162
 20
5.381084567950001
 30
0.0
 10
49.01298659857002
 20
5.161593169052185
 30
0.0
 10
49.24187862386154
 20
4.941421084993536
 30
0.0
 10
49.46974998326442
 20
4.720200621431704
 30
0.0
 10
49.6973457610929
 20
4.498695504518771
 30
0.0
 10
49.92535244916687
 20
4.27761384330908
 30
0.0
 10
50.15418462165357
 20
4.057383693544679
 30
0.0
 10
50.3842556837035
 20
3.83845429597925
 30
0.0
 10
50.53724400792612
 20
3.692077722353009
 30
0.0
 10
50.61537788683358
 20
3.620639000000001
 30
0.0
  0
SPLINE
  5
20C
330
1F
100
AcDbEntity
  8
DEFAULT
100
AcDbSpline
210
0.0
220
0.0
230
1.0
 70
     8
 71
     3
 72
    29
 73
    25
 74
     0
 42
0.0000000001
 43
0.0000000001
 40
0.2003447683664201
 40
0.2003447683664201
 40
0.2003447683664201
 40
0.2003447683664201
 40
1.0
 40
2.0
 40
3.0
 40
4.0
 40
5.0
 40
6.0
 40
7.0
 40
8.0
 40
9.0
 40
10.0
 40
11.0
 40
12.0
 40
13.0
 40
14.0
 40
15.0
 40
16.0
 40
17.0
 40
18.0
 40
19.0
 40
20.0
 40
21.0
 40
22.0
 40
22.0
 40
22.0
 40
22.0
 10
51.57982086584347
 20
18.96481045737787
 30
0.0
 10
51.6809603540851
 20
18.96319076235288
 30
0.0
 10
51.90856769126093
 20
18.95885060358727
 30
0.0
 10
52.26256845433358
 20
18.9485117597603
 30
0.0
 10
52.64168709672764
 20
18.93148028716681
 30
0.0
 10
53.02039424033291
 20
18.90685941666214
 30
0.0
 10
53.39837169471339
 20
18.87267739275039
 30
0.0
 10
53.77512778026212
 20
18.82682881243146
 30
0.0
 10
54.15008120752309
 20
18.76805171725259
 30
0.0
 10
54.52252551869429
 20
18.69457503390441
 30
0.0
 10
54.8898868523782
 20
18.59874122655945
 30
0.0
 10
55.24842746329382
 20
18.4723352007316
 30
0.0
 10
55.58694268006906
 20
18.29931600104243
 30
0.0
 10
55.90542445782621
 20
18.09180577555333
 30
0.0
 10
56.18921801751699
 20
17.83720250167394
 30
0.0
 10
56.40889127566814
 20
17.52439914686774
 30
0.0
 10
56.55881247083401
 20
17.1748241669399
 30
0.0
 10
56.68246292325868
 20
16.81624635487041
 30
0.0
 10
56.78510209237906
 20
16.44941237511681
 30
0.0
 10
56.78944634152381
 20
16.06719463526679
 30
0.0
 10
56.69359561985431
 20
15.69216987525115
 30
0.0
 10
56.44013261462035
 20
15.3990156275634
 30
0.0
 10
56.10617224357348
 20
15.2128777954992
 30
0.0
 10
55.89935365298491
 20
15.06788292902321
 30
0.0
 10
55.79277988683359
 20
14.999566
 30
0.0
  0
LINE
  5
20D
330
1F
100
AcDbEntity
  8
DEFAULT
100
AcDbLine
 10
46.12406288683358
 20
14.791351
 30
0.0
 11
41.32935988683359
 21
15.01327
 31
0.0
  0
LINE
  5
20E
330
1F
100
AcDbEntity
  8
DEFAULT
100
AcDbLine
 10
36.97767688683358
 20
14.339495
 30
0.0
 11
38.36094188683359
 21
14.339495
 31
0.0
  0
ARC
  5
20F
330
1F
100
AcDbEntity
  8
DEFAULT
100
AcDbCircle
 10
50.57843588683359
 20
11.74647699999997
 30
0.0
 40
2.168634612079307
100
AcDbArc
 50
262.6642181148978
 51
313.3357871462977
  0
LINE
  5
210
330
1F
100
AcDbEntity
  8
DEFAULT
100
AcDbLine
 10
47.05249788683358
 20
2.316141999999999
 30
0.0
 11
45.50527488683358
 21
2.316141999999999
 31
0.0
  0
LINE
  5
211
330
1F
100
AcDbEntity
  8
DEFAULT
100
AcDbLine
 10
44.80069088683358
 20
10.900627
 30
0.0
 11
45.17651388683359
 21
10.524804
 31
0.0
  0
LINE
  5
212
330
1F
100
AcDbEntity
  8
DEFAULT
100
AcDbLine
 10
37.07574588683357
 20
3.319126000000001
 30
0.0
 11
37.09503188683358
 21
2.766535999999999
 31
0.0
  0
ARC
  5
213
330
1F
100
AcDbEntity
  8
DEFAULT
100
AcDbCircle
 10
36.10924107610704
 20
3.316569908370236
 30
0.0
 40
0.3933819078101489
100
AcDbArc
 50
108.5464320006026
 51
173.9948030946295
  0
ARC
  5
214
330
1F
100
AcDbEntity
  8
DEFAULT
100
AcDbCircle
 10
45.50525388683361
 20
2.418504000000018
 30
0.0
 40
0.1023620000000185
100
AcDbArc
 50
180.0000000000107
 51
269.9999999999881
  0
LINE
  5
215
330
1F
100
AcDbEntity
  8
DEFAULT
100
AcDbLine
 10
50.61537788683358
 20
3.620639000000001
 30
0.0
 11
50.73887888683359
 21
3.342238999999999
 31
0.0
  0
LINE
  5
216
330
1F
100
AcDbEntity
  8
DEFAULT
100
AcDbLine
 10
20.38115500000004
 20
13.246482
 30
0.0
 11
21.72607400000001
 21
13.246069
 31
0.0
  0
LINE
  5
217
330
1F
100
AcDbEntity
  8
DEFAULT
100
AcDbLine
 10
19.42583400000004
 20
2.766535999999999
 30
0.0
 11
19.42583400000004
 21
2.716536000000001
 31
0.0
  0
LINE
  5
218
330
1F
100
AcDbEntity
  8
DEFAULT
100
AcDbLine
 10
13.34262800000002
 20
4.166142000000001
 30
0.0
 11
13.34262800000002
 21
2.557811999999998
 31
0.0
  0
LINE
  5
219
330
1F
100
AcDbEntity
  8
DEFAULT
100
AcDbLine
 10
16.00552100000002
 20
14.192926
 30
0.0
 11
15.85788400000004
 21
14.192926
 31
0.0
  0
LINE
  5
21A
330
1F
100
AcDbEntity
  8
DEFAULT
100
AcDbLine
 10
13.01782500000004
 20
9.64912
 30
0.0
 11
13.01782500000004
 21
9.619292000000002
 31
0.0
  0
LINE
  5
21B
330
1F
100
AcDbEntity
  8
DEFAULT
100
AcDbLine
 10
15.77373000000003
 20
13.427658
 30
0.0
 11
15.45344200000002
 21
13.427658
 31
0.0
  0
LINE
  5
21C
330
1F
100
AcDbEntity
  8
DEFAULT
100
AcDbLine
 10
15.77373000000003
 20
13.83485
 30
0.0
 11
15.85788400000004
 21
13.834842
 31
0.0
  0
LINE
  5
21D
330
1F
100
AcDbEntity
  8
DEFAULT
100
AcDbLine
 10
19.99977100000004
 20
0.8420260000000006
 30
0.0
 11
19.99977100000004
 21
1.528175999999998
 31
0.0
  0
LINE
  5
21E
330
1F
100
AcDbEntity
  8
DEFAULT
100
AcDbLine
 10
20.02465300000003
 20
1.510404000000001
 30
0.0
 11
20.02465300000003
 21
0.0590609999999998
 31
0.0
  0
LINE
  5
21F
330
1F
100
AcDbEntity
  8
DEFAULT
100
AcDbLine
 10
15.21126700000005
 20
12.884905
 30
0.0
 11
20.31127800000004
 21
12.884405
 31
0.0
  0
LINE
  5
220
330
1F
100
AcDbEntity
  8
DEFAULT
100
AcDbLine
 10
19.85496700000002
 20
2.766535999999999
 30
0.0
 11
19.85496700000002
 21
2.716536000000001
 31
0.0
  0
LINE
  5
221
330
1F
100
AcDbEntity
  8
DEFAULT
100
AcDbLine
 10
11.77891100000002
 20
3.365513
 30
0.0
 11
11.75834300000002
 21
2.766535999999999
 31
0.0
  0
LINE
  5
222
330
1F
100
AcDbEntity
  8
DEFAULT
100
AcDbLine
 10
12.82601400000001
 20
0.8420260000000006
 30
0.0
 11
12.82601400000001
 21
1.528175999999998
 31
0.0
  0
LINE
  5
223
330
1F
100
AcDbEntity
  8
DEFAULT
100
AcDbLine
 10
11.65129600000003
 20
4.166142000000001
 30
0.0
 11
11.32850800000003
 21
4.166142000000001
 31
0.0
  0
LINE
  5
224
330
1F
100
AcDbEntity
  8
DEFAULT
100
AcDbLine
 10
11.41149461899502
 20
5.885843982455
 30
0.0
 11
11.77140540050002
 21
3.16573192193
 31
0.0
  0
ARC
  5
225
330
1F
100
AcDbEntity
  8
DEFAULT
100
AcDbCircle
 10
11.88712768178384
 20
5.960158123896899
 30
0.0
 40
0.4814035750138487
100
AcDbArc
 50
98.09015184204763
 51
188.88024468566
  0
LINE
  5
226
330
1F
100
AcDbEntity
  8
DEFAULT
100
AcDbLine
 10
22.76900683691204
 20
25.990442207
 30
0.0
 11
22.70291159874373
 21
18.87211288492619
 31
0.0
  0
LINE
  5
227
330
1F
100
AcDbEntity
  8
DEFAULT
100
AcDbLine
 10
22.73516749921401
 20
27.60899500347
 30
0.0
 11
22.76900683691204
 21
25.990442207
 31
0.0
  0
LINE
  5
228
330
1F
100
AcDbEntity
  8
DEFAULT
100
AcDbLine
 10
22.70480309692201
 20
27.77834489293
 30
0.0
 11
22.73516749921401
 21
27.60899500347
 31
0.0
  0
LINE
  5
229
330
1F
100
AcDbEntity
  8
DEFAULT
100
AcDbLine
 10
4.849578000000037
 20
1.603565
 30
0.0
 11
4.849578000000037
 21
0.0
 31
0.0
  0
LINE
  5
22A
330
1F
100
AcDbEntity
  8
DEFAULT
100
AcDbLine
 10
11.58475600000003
 20
9.619288999999998
 30
0.0
 11
11.48496200000002
 21
9.516957999999999
 31
0.0
  0
LINE
  5
22B
330
1F
100
AcDbEntity
  8
DEFAULT
100
AcDbLine
 10
0.4159530000000302
 20
0.0
 30
0.0
 11
0.0000000000000284
 21
0.0
 31
0.0
  0
LINE
  5
22C
330
1F
100
AcDbEntity
  8
DEFAULT
100
AcDbLine
 10
11.90462051914002
 20
1.814273533049999
 30
0.0
 11
12.02333544074003
 21
1.603564519590002
 31
0.0
  0
LINE
  5
22D
330
1F
100
AcDbEntity
  8
DEFAULT
100
AcDbLine
 10
4.322001000000029
 20
13.554242
 30
0.0
 11
4.62192600000003
 21
13.834405
 31
0.0
  0
LINE
  5
22E
330
1F
100
AcDbEntity
  8
DEFAULT
100
AcDbLine
 10
12.02333544074003
 20
1.603564519590002
 30
0.0
 11
12.08239055885002
 21
1.510403866539999
 31
0.0
  0
LINE
  5
22F
330
1F
100
AcDbEntity
  8
DEFAULT
100
AcDbLine
 10
5.507452000000029
 20
2.766535999999999
 30
0.0
 11
5.507452000000029
 21
2.716536000000001
 31
0.0
  0
LINE
  5
230
330
1F
100
AcDbEntity
  8
DEFAULT
100
AcDbLine
 10
4.849578000000037
 20
0.0
 30
0.0
 11
4.908633000000037
 21
0.0590550000000007
 31
0.0
  0
ARC
  5
231
330
1F
100
AcDbEntity
  8
DEFAULT
100
AcDbCircle
 10
24.93328600000004
 20
0.1249999999999992
 30
0.0
 40
0.125
100
AcDbArc
 50
270.0
 51
0.0000000000004007
  0
LINE
  5
232
330
1F
100
AcDbEntity
  8
DEFAULT
100
AcDbLine
 10
24.74594000000003
 20
2.716536000000001
 30
0.0
 11
23.40211200000002
 21
2.716536000000001
 31
0.0
  0
LINE
  5
233
330
1F
100
AcDbEntity
  8
DEFAULT
100
AcDbLine
 10
4.55203400000002
 20
13.471481
 30
0.0
 11
4.55210900000003
 21
13.471482
 31
0.0
  0
ARC
  5
234
330
1F
100
AcDbEntity
  8
DEFAULT
100
AcDbCircle
 10
6.152145000000043
 20
0.1250000000000035
 30
0.0
 40
0.1250000000000035
100
AcDbArc
 50
270.0000000000016
 51
359.9999999999984
  0
LINE
  5
235
330
1F
100
AcDbEntity
  8
DEFAULT
100
AcDbLine
 10
3.771982000000037
 20
13.554242
 30
0.0
 11
4.322001000000029
 21
13.554242
 31
0.0
  0
LINE
  5
236
330
1F
100
AcDbEntity
  8
DEFAULT
100
AcDbLine
 10
11.79471800000002
 20
2.716536236396425
 30
0.0
 11
11.7791522354967
 21
2.699549020605581
 31
0.0
  0
LINE
  5
237
330
1F
100
AcDbEntity
  8
DEFAULT
100
AcDbLine
 10
4.908633000000037
 20
1.510404000000001
 30
0.0
 11
4.908633000000037
 21
0.0590609999999998
 31
0.0
  0
LINE
  5
238
330
1F
100
AcDbEntity
  8
DEFAULT
100
AcDbLine
 10
24.51733329613003
 20
1.603564519590002
 30
0.0
 11
24.45827817802004
 21
1.510403866539999
 31
0.0
  0
LINE
  5
239
330
1F
100
AcDbEntity
  8
DEFAULT
100
AcDbLine
 10
4.620961000000023
 20
2.716536236396425
 30
0.0
 11
4.605395235496673
 21
2.699549020605581
 31
0.0
  0
LINE
  5
23A
330
1F
100
AcDbEntity
  8
DEFAULT
100
AcDbLine
 10
9.159556000000038
 20
13.83485
 30
0.0
 11
9.075402000000025
 21
13.834842
 31
0.0
  0
LINE
  5
23B
330
1F
100
AcDbEntity
  8
DEFAULT
100
AcDbLine
 10
20.08370800000003
 20
0.0
 30
0.0
 11
20.02465300000003
 21
0.0590550000000007
 31
0.0
  0
LINE
  5
23C
330
1F
100
AcDbEntity
  8
DEFAULT
100
AcDbLine
 10
46.53417788683359
 20
4.166142000000001
 30
0.0
 11
46.72448288683358
 21
4.166142000000001
 31
0.0
  0
LINE
  5
23D
330
1F
100
AcDbEntity
  8
DEFAULT
100
AcDbLine
 10
51.17733188683358
 20
28.110484
 30
0.0
 11
51.17722888683357
 21
28.110485
 31
0.0
  0
LINE
  5
23E
330
1F
100
AcDbEntity
  8
DEFAULT
100
AcDbLine
 10
36.19047988683359
 20
2.766535999999999
 30
0.0
 11
36.19047988683359
 21
2.716536000000001
 31
0.0
  0
SPLINE
  5
23F
330
1F
100
AcDbEntity
  8
DEFAULT
100
AcDbSpline
210
0.0
220
0.0
230
1.0
 70
     8
 71
     3
 72
    20
 73
    16
 74
     0
 42
0.0000000001
 43
0.0000000001
 40
0.0
 40
0.0
 40
0.0
 40
0.0
 40
1.0
 40
2.0
 40
3.0
 40
4.0
 40
5.0
 40
6.0
 40
7.0
 40
8.0
 40
9.0
 40
10.0
 40
11.0
 40
12.0
 40
13.0
 40
13.0
 40
13.0
 40
13.0
 10
58.88220488683358
 20
3.698283
 30
0.0
 10
58.58585776301382
 20
3.778829060580065
 30
0.0
 10
57.99315500517822
 20
3.939890325405361
 30
0.0
 10
57.10410197714943
 20
4.181487676130232
 30
0.0
 10
56.21504870513887
 20
4.423081778411127
 30
0.0
 10
55.325996925384
 20
4.664682979380654
 30
0.0
 10
54.43693842246229
 20
4.906259305275416
 30
0.0
 10
53.5479056378171
 20
5.147927946402444
 30
0.0
 10
52.6588702495979
 20
5.389595657319855
 30
0.0
 10
51.76982991615796
 20
5.631216415829872
 30
0.0
 10
50.88081273647688
 20
5.873025705065363
 30
0.0
 10
49.99163268360434
 20
6.113850729153576
 30
0.0
 10
49.10279356111701
 20
6.357371358128148
 30
0.0
 10
48.21258884587726
 20
6.590480270515528
 30
0.0
 10
47.61063026880066
 20
6.726288777104692
 30
0.0
 10
47.30187202233358
 20
6.72269044834
 30
0.0
  0
LINE
  5
240
330
1F
100
AcDbEntity
  8
DEFAULT
100
AcDbLine
 10
45.42053388683358
 20
4.166142000000001
 30
0.0
 11
46.53417788683359
 21
4.166142000000001
 31
0.0
  0
LINE
  5
241
330
1F
100
AcDbEntity
  8
DEFAULT
100
AcDbLine
 10
47.41263288683358
 20
4.166142000000001
 30
0.0
 11
47.41702488683359
 21
4.166142000000001
 31
0.0
  0
LINE
  5
242
330
1F
100
AcDbEntity
  8
DEFAULT
100
AcDbLine
 10
47.16076288683358
 20
9.619288999999998
 30
0.0
 11
47.26055688683358
 21
9.516957999999999
 31
0.0
  0
LINE
  5
243
330
1F
100
AcDbEntity
  8
DEFAULT
100
AcDbLine
 10
45.36732488683359
 20
6.722588999999999
 30
0.0
 11
45.96219088683358
 21
6.722664000000002
 31
0.0
  0
LINE
  5
244
330
1F
100
AcDbEntity
  8
DEFAULT
100
AcDbLine
 10
11.48495900000003
 20
9.516962
 30
0.0
 11
11.55509200000003
 21
6.722591999999999
 31
0.0
  0
LINE
  5
245
330
1F
100
AcDbEntity
  8
DEFAULT
100
AcDbLine
 10
6.152145000000047
 20
0.0
 30
0.0
 11
5.736193000000043
 21
0.0
 31
0.0
  0
ARC
  5
246
330
1F
100
AcDbEntity
  8
DEFAULT
100
AcDbCircle
 10
1.71852000000003
 20
0.1250000000000102
 30
0.0
 40
0.1250000000000102
100
AcDbArc
 50
270.0000000000047
 51
359.9999999999953
  0
LINE
  5
247
330
1F
100
AcDbEntity
  8
DEFAULT
100
AcDbLine
 10
20.49966000000003
 20
2.559055000000001
 30
0.0
 11
20.49966000000003
 21
0.0
 31
0.0
  0
LINE
  5
248
330
1F
100
AcDbEntity
  8
DEFAULT
100
AcDbLine
 10
2.592109000000022
 20
13.47129
 30
0.0
 11
2.592131000000023
 21
13.24629
 31
0.0
  0
LINE
  5
249
330
1F
100
AcDbEntity
  8
DEFAULT
100
AcDbLine
 10
12.82601300000002
 20
0.8420279999999991
 30
0.0
 11
12.10727200000002
 21
0.8420279999999991
 31
0.0
  0
LINE
  5
24A
330
1F
100
AcDbEntity
  8
DEFAULT
100
AcDbLine
 10
1.243512000000038
 20
0.0590609999999998
 30
0.0
 11
1.243512000000038
 21
1.510404000000001
 31
0.0
  0
ARC
  5
24B
330
1F
100
AcDbEntity
  8
DEFAULT
100
AcDbCircle
 10
4.433626000000028
 20
0.1249999999999957
 30
0.0
 40
0.1249999999999956
100
AcDbArc
 50
179.999999999998
 51
270.000000000002
  0
ARC
  5
24C
330
1F
100
AcDbEntity
  8
DEFAULT
100
AcDbCircle
 10
0.0000000000000328
 20
0.1250000000000044
 30
0.0
 40
0.1250000000000044
100
AcDbArc
 50
180.000000000002
 51
269.999999999998
  0
LINE
  5
24D
330
1F
100
AcDbEntity
  8
DEFAULT
100
AcDbLine
 10
39.86838885342358
 20
16.408895404
 30
0.0
 11
39.83878413288357
 21
16.31615346721
 31
0.0
  0
LINE
  5
24E
330
1F
100
AcDbEntity
  8
DEFAULT
100
AcDbLine
 10
45.13488488683359
 20
4.398973000000002
 30
0.0
 11
45.14072888683359
 21
4.166142000000001
 31
0.0
  0
LINE
  5
24F
330
1F
100
AcDbEntity
  8
DEFAULT
100
AcDbLine
 10
38.41538234660358
 20
16.39966974541
 30
0.0
 11
36.79143431970358
 21
14.54867384695
 31
0.0
  0
LINE
  5
250
330
1F
100
AcDbEntity
  8
DEFAULT
100
AcDbLine
 10
50.07118579901416
 20
13.16537793417342
 30
0.0
 11
50.02630098981047
 21
13.24789003796251
 31
0.0
  0
ARC
  5
251
330
1F
100
AcDbEntity
  8
DEFAULT
100
AcDbCircle
 10
46.70407288683359
 20
15.19015799999999
 30
0.0
 40
0.4921258097875004
100
AcDbArc
 50
176.5405394526423
 51
352.459404069792
  0
LINE
  5
252
330
1F
100
AcDbEntity
  8
DEFAULT
100
AcDbLine
 10
45.29719288683359
 20
9.516962
 30
0.0
 11
45.36732488683359
 21
6.722588999999999
 31
0.0
  0
LINE
  5
253
330
1F
100
AcDbEntity
  8
DEFAULT
100
AcDbLine
 10
45.72769488683358
 20
10.524804
 30
0.0
 11
45.72769488683358
 21
9.619292000000002
 31
0.0
  0
ARC
  5
254
330
1F
100
AcDbEntity
  8
DEFAULT
100
AcDbCircle
 10
51.64692697838118
 20
-87.4220389432324
 30
0.0
 40
106.3957987614154
100
AcDbArc
 50
90.4155621900968
 51
96.17416544932401
  0
LINE
  5
255
330
1F
100
AcDbEntity
  8
DEFAULT
100
AcDbLine
 10
40.01874053473358
 20
18.23398610364
 30
0.0
 11
40.20394347886358
 21
18.356617328765
 31
0.0
  0
LINE
  5
256
330
1F
100
AcDbEntity
  8
DEFAULT
100
AcDbLine
 10
38.59162076220358
 20
16.21081836636
 30
0.0
 11
36.97767687910358
 21
14.33949530755
 31
0.0
  0
LINE
  5
257
330
1F
100
AcDbEntity
  8
DEFAULT
100
AcDbLine
 10
49.83577688683359
 20
2.766535999999999
 30
0.0
 11
49.83577688683359
 21
2.716536000000001
 31
0.0
  0
ARC
  5
258
330
1F
100
AcDbEntity
  8
DEFAULT
100
AcDbCircle
 10
51.28653143940347
 20
26.30847444940569
 30
0.0
 40
1.906553093505932
100
AcDbArc
 50
347.4990662702943
 51
89.82847939609957
  0
LINE
  5
259
330
1F
100
AcDbEntity
  8
DEFAULT
100
AcDbLine
 10
51.18457088683358
 20
17.217771
 30
0.0
 11
53.14788488683358
 21
25.8957905
 31
0.0
  0
LINE
  5
25A
330
1F
100
AcDbEntity
  8
DEFAULT
100
AcDbLine
 10
50.96054188683358
 20
17.067674
 30
0.0
 11
51.18457088683358
 21
17.217771
 31
0.0
  0
LINE
  5
25B
330
1F
100
AcDbEntity
  8
DEFAULT
100
AcDbLine
 10
50.63531488683357
 20
17.136384
 30
0.0
 11
50.96054188683358
 21
17.067674
 31
0.0
  0
SPLINE
  5
25C
330
1F
100
AcDbEntity
  8
DEFAULT
100
AcDbSpline
210
0.0
220
0.0
230
1.0
 70
     8
 71
     3
 72
    20
 73
    16
 74
     0
 42
0.0000000001
 43
0.0000000001
 40
0.0
 40
0.0
 40
0.0
 40
0.0
 40
0.9999534735080793
 40
1.999957350715739
 40
2.9999612279234
 40
3.999965105131059
 40
4.99996898233872
 40
5.999972859546379
 40
6.999976736754039
 40
7.9999806139617
 40
8.99998449116936
 40
9.99998836837702
 40
10.99999224558468
 40
11.99999612279234
 40
13.0
 40
13.0
 40
13.0
 40
13.0
 10
50.79993838683357
 20
18.6362855
 30
0.0
 10
50.79033310988964
 20
18.59381631902448
 30
0.0
 10
50.7615562974256
 20
18.51119891645617
 30
0.0
 10
50.69712117590952
 20
18.39721314914261
 30
0.0
 10
50.62128660120595
 20
18.29084927883184
 30
0.0
 10
50.54292728439347
 20
18.18637786489004
 30
0.0
 10
50.46861850403496
 20
18.07898669393993
 30
0.0
 10
50.40580742008981
 20
17.96385195263804
 30
0.0
 10
50.37305965279859
 20
17.83626928305637
 30
0.0
 10
50.37556641886395
 20
17.70442555286415
 30
0.0
 10
50.4109940155405
 20
17.57828435024758
 30
0.0
 10
50.44266746347543
 20
17.45152454650665
 30
0.0
 10
50.47350348685879
 20
17.32533141737713
 30
0.0
 10
50.51481696491069
 20
17.19835413353092
 30
0.0
 10
50.5942101050431
 20
17.14900198055263
 30
0.0
 10
50.63531488683357
 20
17.136384
 30
0.0
  0
LINE
  5
25D
330
1F
100
AcDbEntity
  8
DEFAULT
100
AcDbLine
 10
52.4670488868336
 20
26.044468
 30
0.0
 11
50.79993838683357
 21
18.6362855
 31
0.0
  0
ARC
  5
25E
330
1F
100
AcDbEntity
  8
DEFAULT
100
AcDbCircle
 10
51.27621901608686
 20
26.30998958583053
 30
0.0
 40
1.220072741112048
100
AcDbArc
 50
347.430267354558
 51
89.88809804603554
  0
LINE
  5
25F
330
1F
100
AcDbEntity
  8
DEFAULT
100
AcDbLine
 10
40.67651388683358
 20
27.528393
 30
0.0
 11
51.27860188683358
 21
27.53006
 31
0.0
  0
SPLINE
  5
260
330
1F
100
AcDbEntity
  8
DEFAULT
100
AcDbSpline
210
0.0
220
0.0
230
1.0
 70
     8
 71
     3
 72
    19
 73
    15
 74
     0
 42
0.0000000001
 43
0.0000000001
 40
0.0
 40
0.0
 40
0.0
 40
0.0
 40
1.0
 40
2.0
 40
3.0
 40
4.0
 40
5.0
 40
6.0
 40
7.0
 40
8.0
 40
9.0
 40
10.0
 40
11.0
 40
12.0
 40
12.0
 40
12.0
 40
12.0
 10
55.37029869128358
 20
18.4074197918
 30
0.0
 10
55.44836559180001
 20
18.3692729693116
 30
0.0
 10
55.60085013135591
 20
18.28519728318415
 30
0.0
 10
55.81108615441325
 20
18.12989060246021
 30
0.0
 10
55.9960120465789
 20
17.94520393987352
 30
0.0
 10
56.15508023387194
 20
17.73779968765279
 30
0.0
 10
56.27847151379537
 20
17.50705362523673
 30
0.0
 10
56.34745546767677
 20
17.25244063682831
 30
0.0
 10
56.31785375233902
 20
16.98750565976432
 30
0.0
 10
56.18247329370219
 20
16.75977982166904
 30
0.0
 10
55.99971365594108
 20
16.57267326689903
 30
0.0
 10
55.78992487801327
 20
16.41710251071115
 30
0.0
 10
55.56989128036047
 20
16.27723745725847
 30
0.0
 10
55.42526010462934
 20
16.18083765013914
 30
0.0
 10
55.35253288683359
 20
16.133269
 30
0.0
  0
LINE
  5
261
330
1F
100
AcDbEntity
  8
DEFAULT
100
AcDbLine
 10
46.83005688683357
 20
10.524804
 30
0.0
 11
46.83005688683357
 21
9.619292000000002
 31
0.0
  0
LINE
  5
262
330
1F
100
AcDbEntity
  8
DEFAULT
100
AcDbLine
 10
5.980376000000035
 20
2.699549000000001
 30
0.0
 11
5.933333000000033
 21
2.161843999999999
 31
0.0
  0
LINE
  5
263
330
1F
100
AcDbEntity
  8
DEFAULT
100
AcDbLine
 10
12.02333500000003
 20
0.0
 30
0.0
 11
11.60738300000003
 21
0.0
 31
0.0
  0
LINE
  5
264
330
1F
100
AcDbEntity
  8
DEFAULT
100
AcDbLine
 10
5.652256000000023
 20
0.8420279999999991
 30
0.0
 11
4.933515000000028
 21
0.8420279999999991
 31
0.0
  0
LINE
  5
265
330
1F
100
AcDbEntity
  8
DEFAULT
100
AcDbLine
 10
47.10684288683359
 20
6.722217000000001
 30
0.0
 11
47.29941088683358
 21
6.722633999999999
 31
0.0
  0
ARC
  5
266
330
1F
100
AcDbEntity
  8
DEFAULT
100
AcDbCircle
 10
58.77893494067402
 20
3.318243217569859
 30
0.0
 40
0.3938210204865732
100
AcDbArc
 50
2.000881852295115
 51
74.7978910129025
  0
LINE
  5
267
330
1F
100
AcDbEntity
  8
DEFAULT
100
AcDbLine
 10
11.77915200000004
 20
2.699549000000001
 30
0.0
 11
11.82615900000005
 21
2.162262000000002
 31
0.0
  0
LINE
  5
268
330
1F
100
AcDbEntity
  8
DEFAULT
100
AcDbLine
 10
11.91546100000002
 20
9.64912
 30
0.0
 11
11.91546100000002
 21
9.619292000000002
 31
0.0
  0
LINE
  5
269
330
1F
100
AcDbEntity
  8
DEFAULT
100
AcDbLine
 10
9.159556000000038
 20
15.088775
 30
0.0
 11
9.159556000000038
 21
13.427658
 31
0.0
  0
LINE
  5
26A
330
1F
100
AcDbEntity
  8
DEFAULT
100
AcDbLine
 10
50.03275788683358
 20
14.61044
 30
0.0
 11
47.24476488683358
 21
14.73948
 31
0.0
  0
LINE
  5
26B
330
1F
100
AcDbEntity
  8
DEFAULT
100
AcDbLine
 10
38.49543188683359
 20
14.396348
 30
0.0
 11
38.49542588683359
 21
14.396341
 31
0.0
  0
LINE
  5
26C
330
1F
100
AcDbEntity
  8
DEFAULT
100
AcDbLine
 10
47.26055988683359
 20
9.516962
 30
0.0
 11
47.19042188683358
 21
6.722366000000001
 31
0.0
  0
LINE
  5
26D
330
1F
100
AcDbEntity
  8
DEFAULT
100
AcDbLine
 10
4.433626000000032
 20
2.559055000000001
 30
0.0
 11
4.433626000000032
 21
0.0
 31
0.0
  0
LINE
  5
26E
330
1F
100
AcDbEntity
  8
DEFAULT
100
AcDbLine
 10
45.96231288683359
 20
6.722666
 30
0.0
 11
45.36732488683359
 21
6.722588999999999
 31
0.0
  0
LINE
  5
26F
330
1F
100
AcDbEntity
  8
DEFAULT
100
AcDbLine
 10
49.38370588683358
 20
2.766535999999999
 30
0.0
 11
49.31639988683358
 21
3.294561000000002
 31
0.0
  0
ARC
  5
270
330
1F
100
AcDbEntity
  8
DEFAULT
100
AcDbCircle
 10
37.24163291641118
 20
2.903831954892201
 30
0.0
 40
0.459560229303606
100
AcDbArc
 50
121.7639336087278
 51
197.382845923465
  0
LINE
  5
271
330
1F
100
AcDbEntity
  8
DEFAULT
100
AcDbLine
 10
50.73889088683359
 20
3.34252
 30
0.0
 11
50.73889188683358
 21
3.342473000000002
 31
0.0
  0
SPLINE
  5
272
330
1F
100
AcDbEntity
  8
DEFAULT
100
AcDbSpline
210
0.0
220
0.0
230
1.0
 70
     8
 71
     3
 72
    16
 73
    12
 74
     0
 42
0.0000000001
 43
0.0000000001
 40
0.0
 40
0.0
 40
0.0
 40
0.0
 40
1.0
 40
2.0
 40
3.0
 40
4.0
 40
5.0
 40
6.0
 40
7.0
 40
8.0
 40
9.0
 40
9.0
 40
9.0
 40
9.0
 10
34.42425757111359
 20
38.94450560006
 30
0.0
 10
34.39857454436653
 20
39.00836285669946
 30
0.0
 10
34.35313821601873
 20
39.13848572114555
 30
0.0
 10
34.30935908516759
 20
39.34091615022486
 30
0.0
 10
34.30362247189849
 20
39.54845821896663
 30
0.0
 10
34.35917570775842
 20
39.75167238655309
 30
0.0
 10
34.49882579196239
 20
39.91042836317968
 30
0.0
 10
34.68373461720432
 20
40.00721554479278
 30
0.0
 10
34.88608644373949
 20
40.05587885623377
 30
0.0
 10
35.09526159818068
 20
40.04265805520802
 30
0.0
 10
35.22202257618083
 20
39.98308339048754
 30
0.0
 10
35.27964254666358
 20
39.94573235934
 30
0.0
  0
LINE
  5
273
330
1F
100
AcDbEntity
  8
DEFAULT
100
AcDbLine
 10
45.17651388683359
 20
10.524804
 30
0.0
 11
47.38123788683359
 21
10.524804
 31
0.0
  0
SPLINE
  5
274
330
1F
100
AcDbEntity
  8
DEFAULT
100
AcDbSpline
210
0.0
220
0.0
230
1.0
 70
     8
 71
     3
 72
    12
 73
     8
 74
     0
 42
0.0000000001
 43
0.0000000001
 40
0.0
 40
0.0
 40
0.0
 40
0.0
 40
1.0
 40
2.0
 40
3.0
 40
4.0
 40
5.0
 40
5.0
 40
5.0
 40
5.0
 10
55.35253288683359
 20
16.133269
 30
0.0
 10
55.39634076587448
 20
16.06110242423908
 30
0.0
 10
55.48486885247812
 20
15.91736758489806
 30
0.0
 10
55.61583101742029
 20
15.70048910392736
 30
0.0
 10
55.73591241819874
 20
15.47764296607018
 30
0.0
 10
55.84631266696773
 20
15.24890832363415
 30
0.0
 10
55.84623216774683
 20
15.06905602130725
 30
0.0
 10
55.79278000712358
 20
14.99956585096
 30
0.0
  0
LINE
  5
275
330
1F
100
AcDbEntity
  8
DEFAULT
100
AcDbLine
 10
58.69816788683359
 20
2.766535999999999
 30
0.0
 11
58.69816788683359
 21
2.716536000000001
 31
0.0
  0
LINE
  5
276
330
1F
100
AcDbEntity
  8
DEFAULT
100
AcDbLine
 10
41.32935988683359
 20
15.01327
 30
0.0
 11
41.33308588683359
 21
15.093787
 31
0.0
  0
LINE
  5
277
330
1F
100
AcDbEntity
  8
DEFAULT
100
AcDbLine
 10
4.933515000000028
 20
0.8420260000000006
 30
0.0
 11
4.933515000000028
 21
1.528175999999998
 31
0.0
  0
LINE
  5
278
330
1F
100
AcDbEntity
  8
DEFAULT
100
AcDbLine
 10
10.02021400000004
 20
13.217547
 30
0.0
 11
9.456126000000012
 21
13.634005
 31
0.0
  0
LINE
  5
279
330
1F
100
AcDbEntity
  8
DEFAULT
100
AcDbLine
 10
12.90995055926001
 20
1.603564519590002
 30
0.0
 11
12.85089544115002
 21
1.510403866539999
 31
0.0
  0
LINE
  5
27A
330
1F
100
AcDbEntity
  8
DEFAULT
100
AcDbLine
 10
1.218630000000047
 20
0.8420279999999991
 30
0.0
 11
0.4998900000000219
 21
0.8420279999999991
 31
0.0
  0
LINE
  5
27B
330
1F
100
AcDbEntity
  8
DEFAULT
100
AcDbLine
 10
4.605395000000016
 20
2.699549000000001
 30
0.0
 11
4.652402000000023
 21
2.162262000000002
 31
0.0
  0
LINE
  5
27C
330
1F
100
AcDbEntity
  8
DEFAULT
100
AcDbLine
 10
3.771982000000037
 20
13.554242
 30
0.0
 11
3.771925000000039
 21
13.554402
 31
0.0
  0
LINE
  5
27D
330
1F
100
AcDbEntity
  8
DEFAULT
100
AcDbLine
 10
0.4998900000000219
 20
0.8420260000000006
 30
0.0
 11
0.4998900000000219
 21
1.528175999999998
 31
0.0
  0
LINE
  5
27E
330
1F
100
AcDbEntity
  8
DEFAULT
100
AcDbLine
 10
23.63071912290003
 20
1.603564519590002
 30
0.0
 11
23.51200420131002
 21
1.814273533049999
 31
0.0
  0
ARC
  5
27F
330
1F
100
AcDbEntity
  8
DEFAULT
100
AcDbCircle
 10
0.8592597904800243
 20
2.050758743568553
 30
0.0
 40
0.6342236987375336
100
AcDbArc
 50
235.4844523428085
 51
304.5155476571915
  0
LINE
  5
280
330
1F
100
AcDbEntity
  8
DEFAULT
100
AcDbLine
 10
1.243511758990024
 20
1.510403866539999
 30
0.0
 11
1.30256687710002
 21
1.603564519590002
 31
0.0
  0
LINE
  5
281
330
1F
100
AcDbEntity
  8
DEFAULT
100
AcDbLine
 10
1.30256687710002
 20
1.603564519590002
 30
0.0
 11
1.421281798690046
 21
1.814273533049999
 31
0.0
  0
LINE
  5
282
330
1F
100
AcDbEntity
  8
DEFAULT
100
AcDbLine
 10
24.71463348527003
 20
2.163622138059999
 30
0.0
 11
24.63604821773004
 21
1.814273533049999
 31
0.0
  0
LINE
  5
283
330
1F
100
AcDbEntity
  8
DEFAULT
100
AcDbLine
 10
0.475008000000031
 20
1.510404000000001
 30
0.0
 11
0.475008000000031
 21
0.0590609999999998
 31
0.0
  0
LINE
  5
284
330
1F
100
AcDbEntity
  8
DEFAULT
100
AcDbLine
 10
-0.1249999999999716
 20
2.434055000000001
 30
0.0
 11
-0.1249999999999716
 21
0.125
 31
0.0
  0
LINE
  5
285
330
1F
100
AcDbEntity
  8
DEFAULT
100
AcDbLine
 10
3.207212000000027
 20
13.246069
 30
0.0
 11
2.592131000000023
 21
13.24629
 31
0.0
  0
LINE
  5
286
330
1F
100
AcDbEntity
  8
DEFAULT
100
AcDbLine
 10
10.02021400000004
 20
13.217547
 30
0.0
 11
10.66289700000002
 21
12.561849
 31
0.0
  0
LINE
  5
287
330
1F
100
AcDbEntity
  8
DEFAULT
100
AcDbLine
 10
1.073827000000023
 20
2.766535999999999
 30
0.0
 11
1.073827000000023
 21
2.716536000000001
 31
0.0
  0
LINE
  5
288
330
1F
100
AcDbEntity
  8
DEFAULT
100
AcDbLine
 10
0.6446930000000464
 20
2.766535999999999
 30
0.0
 11
0.6446930000000464
 21
2.716536000000001
 31
0.0
  0
LINE
  5
289
330
1F
100
AcDbEntity
  8
DEFAULT
100
AcDbLine
 10
8.927765000000022
 20
13.834828
 30
0.0
 11
4.62192600000003
 21
13.834405
 31
0.0
  0
LINE
  5
28A
330
1F
100
AcDbEntity
  8
DEFAULT
100
AcDbLine
 10
15.47715900000003
 20
13.634005
 30
0.0
 11
9.456126000000012
 21
13.634005
 31
0.0
  0
LINE
  5
28B
330
1F
100
AcDbEntity
  8
DEFAULT
100
AcDbLine
 10
3.77195100000003
 20
13.246916
 30
0.0
 11
3.771964000000025
 21
13.164402
 31
0.0
  0
LINE
  5
28C
330
1F
100
AcDbEntity
  8
DEFAULT
100
AcDbLine
 10
20.31232500000002
 20
2.716536236396425
 30
0.0
 11
20.32789076450337
 21
2.699549020605581
 31
0.0
  0
LINE
  5
28D
330
1F
100
AcDbEntity
  8
DEFAULT
100
AcDbLine
 10
2.750249000000025
 20
27.393358
 30
0.0
 11
2.582229000000012
 21
18.96937
 31
0.0
  0
LINE
  5
28E
330
1F
100
AcDbEntity
  8
DEFAULT
100
AcDbLine
 10
2.987143000000032
 20
39.371079
 30
0.0
 11
2.750249000000025
 21
27.393358
 31
0.0
  0
LINE
  5
28F
330
1F
100
AcDbEntity
  8
DEFAULT
100
AcDbLine
 10
3.000357500000035
 20
40.048206
 30
0.0
 11
2.987143000000032
 21
39.371079
 31
0.0
  0
LINE
  5
290
330
1F
100
AcDbEntity
  8
DEFAULT
100
AcDbLine
 10
5.422758000000016
 20
40.052551
 30
0.0
 11
3.000357500000035
 21
40.048206
 31
0.0
  0
LINE
  5
291
330
1F
100
AcDbEntity
  8
DEFAULT
100
AcDbLine
 10
12.46664300000003
 20
40.042443
 30
0.0
 11
5.422758000000016
 21
40.052551
 31
0.0
  0
LINE
  5
292
330
1F
100
AcDbEntity
  8
DEFAULT
100
AcDbLine
 10
8.927765000000022
 20
14.192926
 30
0.0
 11
9.075402000000025
 21
14.192926
 31
0.0
  0
LINE
  5
293
330
1F
100
AcDbEntity
  8
DEFAULT
100
AcDbLine
 10
1.546749764503346
 20
2.699549020605581
 30
0.0
 11
1.531184000000025
 21
2.716536236396425
 31
0.0
  0
LINE
  5
294
330
1F
100
AcDbEntity
  8
DEFAULT
100
AcDbLine
 10
5.652256000000023
 20
0.8420260000000006
 30
0.0
 11
5.652256000000023
 21
1.528175999999998
 31
0.0
  0
LINE
  5
295
330
1F
100
AcDbEntity
  8
DEFAULT
100
AcDbLine
 10
4.849578388920037
 20
1.603564519590002
 30
0.0
 11
4.908633507030032
 21
1.510403866539999
 31
0.0
  0
LINE
  5
296
330
1F
100
AcDbEntity
  8
DEFAULT
100
AcDbLine
 10
5.677137444040028
 20
1.510403866539999
 30
0.0
 11
5.736192562150023
 21
1.603564519590002
 31
0.0
  0
LINE
  5
297
330
1F
100
AcDbEntity
  8
DEFAULT
100
AcDbLine
 10
22.18303700000004
 20
27.393358
 30
0.0
 11
22.35105700000003
 21
18.96937
 31
0.0
  0
LINE
  5
298
330
1F
100
AcDbEntity
  8
DEFAULT
100
AcDbLine
 10
21.94614300000003
 20
39.371079
 30
0.0
 11
22.18303700000004
 21
27.393358
 31
0.0
  0
LINE
  5
299
330
1F
100
AcDbEntity
  8
DEFAULT
100
AcDbLine
 10
21.93292850000003
 20
40.048206
 30
0.0
 11
21.94614300000003
 21
39.371079
 31
0.0
  0
LINE
  5
29A
330
1F
100
AcDbEntity
  8
DEFAULT
100
AcDbLine
 10
19.51052800000002
 20
40.052551
 30
0.0
 11
21.93292850000003
 21
40.048206
 31
0.0
  0
LINE
  5
29B
330
1F
100
AcDbEntity
  8
DEFAULT
100
AcDbLine
 10
12.46664300000003
 20
40.042443
 30
0.0
 11
19.51052800000002
 21
40.052551
 31
0.0
  0
ARC
  5
29C
330
1F
100
AcDbEntity
  8
DEFAULT
100
AcDbCircle
 10
22.43070458015929
 20
27.46392568789013
 30
0.0
 40
0.2372349745773548
100
AcDbArc
 50
175.4905346453293
 51
265.7649050283774
  0
LINE
  5
29D
330
1F
100
AcDbEntity
  8
DEFAULT
100
AcDbLine
 10
22.63582700000003
 20
27.220075
 30
0.0
 11
22.41318500000003
 21
27.2273385
 31
0.0
  0
LINE
  5
29E
330
1F
100
AcDbEntity
  8
DEFAULT
100
AcDbLine
 10
22.75572500000001
 20
27.217109
 30
0.0
 11
22.63582700000003
 21
27.220075
 31
0.0
  0
ARC
  5
29F
330
1F
100
AcDbEntity
  8
DEFAULT
100
AcDbCircle
 10
13.32589700000002
 20
45.88003308218659
 30
0.0
 40
0.1250000000000071
100
AcDbArc
 50
270.0000000000032
 51
359.9999999999935
  0
LINE
  5
2A0
330
1F
100
AcDbEntity
  8
DEFAULT
100
AcDbLine
 10
21.72607400000001
 20
13.246069
 30
0.0
 11
22.34115500000004
 21
13.24629
 31
0.0
  0
ARC
  5
2A1
330
1F
100
AcDbEntity
  8
DEFAULT
100
AcDbCircle
 10
5.292885475540031
 20
2.050758743568553
 30
0.0
 40
0.6342236987375345
100
AcDbArc
 50
235.4844523428086
 51
304.5155476571916
  0
SPLINE
  5
2A2
330
1F
100
AcDbEntity
  8
DEFAULT
100
AcDbSpline
210
0.0
220
0.0
230
1.0
 70
     8
 71
     3
 72
    24
 73
    20
 74
     0
 42
0.0000000001
 43
0.0000000001
 40
0.0
 40
0.0
 40
0.0
 40
0.0
 40
0.07715671941002
 40
0.1702225681787
 40
0.2655326468086
 40
0.3559272967056
 40
0.4393819603914
 40
0.5147685145828
 40
0.5807028313599
 40
0.6367190125566
 40
0.6826906877213
 40
0.7199123792478
 40
0.7515826633142
 40
0.7832529474155
 40
0.8204746391833
 40
0.8664463143469
 40
0.9224624960007
 40
0.9883968126878
 40
1.0
 40
1.0
 40
1.0
 40
1.0
 10
12.46664252736002
 20
10.16913266352
 30
0.0
 10
12.43170819510001
 20
10.16913266352
 30
0.0
 10
12.35463036145003
 20
10.16779094048
 30
0.0
 10
12.23455851238003
 20
10.16100799369
 30
0.0
 10
12.10895175997004
 20
10.14807452431
 30
0.0
 10
11.98847428574001
 20
10.12931577296
 30
0.0
 10
11.87811472830003
 20
10.10539295835
 30
0.0
 10
11.78031191342004
 20
10.07687422145
 30
0.0
 10
11.69693884414002
 20
10.0443485401
 30
0.0
 10
11.62960831030003
 20
10.00850308599
 30
0.0
 10
11.57937358796002
 20
9.969788480480002
 30
0.0
 10
11.54684713169004
 20
9.928070059629999
 30
0.0
 10
11.53486036296002
 20
9.882362684450001
 30
0.0
 10
11.54684713178003
 20
9.836655309240001
 30
0.0
 10
11.57937358777002
 20
9.79493688797
 30
0.0
 10
11.62960831067002
 20
9.75622228273
 30
0.0
 10
11.69693884363002
 20
9.72037682665
 30
0.0
 10
11.75336403418004
 20
9.69836411087
 30
0.0
 10
11.78665989657003
 20
9.687198464529999
 30
0.0
 10
11.79165366961004
 20
9.685562185639998
 30
0.0
  0
LINE
  5
2A3
330
1F
100
AcDbEntity
  8
DEFAULT
100
AcDbLine
 10
14.91307200000003
 20
13.217547
 30
0.0
 11
15.47716000000003
 21
13.634005
 31
0.0
  0
LINE
  5
2A4
330
1F
100
AcDbEntity
  8
DEFAULT
100
AcDbLine
 10
50.73783388683358
 20
2.699549000000001
 30
0.0
 11
50.66038188683358
 21
1.814274000000001
 31
0.0
  0
LINE
  5
2A5
330
1F
100
AcDbEntity
  8
DEFAULT
100
AcDbLine
 10
5.677137000000045
 20
0.0590609999999998
 30
0.0
 11
5.677137000000045
 21
1.510404000000001
 31
0.0
  0
LINE
  5
2A6
330
1F
100
AcDbEntity
  8
DEFAULT
100
AcDbLine
 10
21.16130400000003
 20
13.554242
 30
0.0
 11
20.61128500000004
 21
13.554242
 31
0.0
  0
LINE
  5
2A7
330
1F
100
AcDbEntity
  8
DEFAULT
100
AcDbLine
 10
39.83878413288357
 20
16.31615346721
 30
0.0
 11
39.66192535310358
 21
16.2106669675
 31
0.0
  0
ARC
  5
2A8
330
1F
100
AcDbEntity
  8
DEFAULT
100
AcDbCircle
 10
23.61523315394957
 20
65.3272696829126
 30
0.0
 40
0.5503775068893365
100
AcDbArc
 50
1.438868751121907
 51
92.47687033130279
  0
ARC
  5
2A9
330
1F
100
AcDbEntity
  8
DEFAULT
100
AcDbCircle
 10
-1237.69481159401
 20
31.6899759919748
 30
0.0
 40
1262.308870580328
100
AcDbArc
 50
0.9134382095276441
 51
1.527593830780115
  0
ARC
  5
2AA
330
1F
100
AcDbEntity
  8
DEFAULT
100
AcDbCircle
 10
24.15819677040136
 20
51.75171025369356
 30
0.0
 40
0.3018389427554975
100
AcDbArc
 50
285.939314485334
 51
11.8102695200987
  0
LINE
  5
2AB
330
1F
100
AcDbEntity
  8
DEFAULT
100
AcDbLine
 10
22.98792000000003
 20
51.40582958218656
 30
0.0
 11
24.24108750000003
 21
51.46147608218656
 31
0.0
  0
ARC
  5
2AC
330
1F
100
AcDbEntity
  8
DEFAULT
100
AcDbCircle
 10
22.99943289528874
 20
51.62648596626144
 30
0.0
 40
0.2209565264728145
100
AcDbArc
 50
182.7455356654056
 51
267.0132624587048
  0
LINE
  5
2AD
330
1F
100
AcDbEntity
  8
DEFAULT
100
AcDbLine
 10
22.16684776637302
 20
65.51423427577154
 30
0.0
 11
22.77873000000002
 21
51.61590208218655
 31
0.0
  0
ARC
  5
2AE
330
1F
100
AcDbEntity
  8
DEFAULT
100
AcDbCircle
 10
22.46675480201401
 20
65.52722629567712
 30
0.0
 40
0.3001883119113535
100
AcDbArc
 50
92.55249676724162
 51
182.4805112743499
  0
LINE
  5
2AF
330
1F
100
AcDbEntity
  8
DEFAULT
100
AcDbLine
 10
23.59144799603803
 20
65.87713299897655
 30
0.0
 11
22.45338599410104
 21
65.82711677165656
 31
0.0
  0
LINE
  5
2B0
330
1F
100
AcDbEntity
  8
DEFAULT
100
AcDbLine
 10
4.652278199790032
 20
2.163622138059999
 30
0.0
 11
4.730863467330011
 21
1.814273533049999
 31
0.0
  0
LINE
  5
2B1
330
1F
100
AcDbEntity
  8
DEFAULT
100
AcDbLine
 10
5.909883842555047
 20
3.064590183044999
 30
0.0
 11
10.66102800000002
 21
4.626526000000002
 31
0.0
  0
LINE
  5
2B2
330
1F
100
AcDbEntity
  8
DEFAULT
100
AcDbLine
 10
5.858462221710028
 20
3.045418324300002
 30
0.0
 11
5.909883842555047
 21
3.064590183044999
 31
0.0
  0
LINE
  5
2B3
330
1F
100
AcDbEntity
  8
DEFAULT
100
AcDbLine
 10
5.866629945500023
 20
2.863356318769998
 30
0.0
 11
5.858462221710028
 21
3.045418324300002
 31
0.0
  0
LINE
  5
2B4
330
1F
100
AcDbEntity
  8
DEFAULT
100
AcDbLine
 10
0.1717700000000377
 20
2.699549000000001
 30
0.0
 11
0.2187760000000196
 21
2.162262000000002
 31
0.0
  0
LINE
  5
2B5
330
1F
100
AcDbEntity
  8
DEFAULT
100
AcDbLine
 10
2.592109000000022
 20
13.47129
 30
0.0
 11
3.937194000000034
 21
13.471141
 31
0.0
  0
ARC
  5
2B6
330
1F
100
AcDbEntity
  8
DEFAULT
100
AcDbCircle
 10
13.23094207393325
 20
55.84690156774323
 30
0.0
 40
40.85448552498897
100
AcDbArc
 50
268.9280580005972
 51
283.5727846208085
  0
LINE
  5
2B7
330
1F
100
AcDbEntity
  8
DEFAULT
100
AcDbLine
 10
3.771995000000032
 20
13.471728
 30
0.0
 11
3.771982000000037
 21
13.554242
 31
0.0
  0
LINE
  5
2B8
330
1F
100
AcDbEntity
  8
DEFAULT
100
AcDbLine
 10
5.976710000000026
 20
3.086559000000001
 30
0.0
 11
5.987879000000021
 21
2.766535999999999
 31
0.0
  0
LINE
  5
2B9
330
1F
100
AcDbEntity
  8
DEFAULT
100
AcDbLine
 10
5.078319000000022
 20
2.766535999999999
 30
0.0
 11
5.078319000000022
 21
2.716536000000001
 31
0.0
  0
LINE
  5
2BA
330
1F
100
AcDbEntity
  8
DEFAULT
100
AcDbLine
 10
9.159556000000038
 20
13.659129
 30
0.0
 11
15.77372900000003
 21
13.659129
 31
0.0
  0
LINE
  5
2BB
330
1F
100
AcDbEntity
  8
DEFAULT
100
AcDbLine
 10
19.07837851625001
 20
1.814273533049999
 30
0.0
 11
18.99981536168005
 21
2.163334469540001
 31
0.0
  0
LINE
  5
2BC
330
1F
100
AcDbEntity
  8
DEFAULT
100
AcDbLine
 10
12.46664347264002
 20
9.577842257099999
 30
0.0
 11
13.14163208449003
 21
9.685562854739999
 31
0.0
  0
ARC
  5
2BD
330
1F
100
AcDbEntity
  8
DEFAULT
100
AcDbCircle
 10
13.06621690724454
 20
10.09926686709703
 30
0.0
 40
0.4205216471836811
100
AcDbArc
 50
280.3311598291953
 51
339.2140606617515
  0
LINE
  5
2BE
330
1F
100
AcDbEntity
  8
DEFAULT
100
AcDbLine
 10
13.45936797502003
 20
9.95003317902
 30
0.0
 11
13.64772578942004
 21
11.9658897735
 31
0.0
  0
LINE
  5
2BF
330
1F
100
AcDbEntity
  8
DEFAULT
100
AcDbLine
 10
12.90995100000004
 20
-0.0000005000000005
 30
0.0
 11
12.85089550000004
 21
0.0590550000000007
 31
0.0
  0
LINE
  5
2C0
330
1F
100
AcDbEntity
  8
DEFAULT
100
AcDbLine
 10
52.65629188683359
 20
13.472173
 30
0.0
 11
50.02127788683359
 21
13.472934
 31
0.0
  0
LINE
  5
2C1
330
1F
100
AcDbEntity
  8
DEFAULT
100
AcDbLine
 10
6.152145000000047
 20
70.39264208218657
 30
0.0
 11
5.736193000000043
 21
70.39264208218657
 31
0.0
  0
LINE
  5
2C2
330
1F
100
AcDbEntity
  8
DEFAULT
100
AcDbLine
 10
12.46664300000003
 20
70.26647908218655
 30
0.0
 11
2.988323000000037
 21
70.28453808218657
 31
0.0
  0
LINE
  5
2C3
330
1F
100
AcDbEntity
  8
DEFAULT
100
AcDbLine
 10
0.4159530000000302
 20
56.74734508218658
 30
0.0
 11
0.0000000000000284
 21
56.74734508218658
 31
0.0
  0
ARC
  5
2C4
330
1F
100
AcDbEntity
  8
DEFAULT
100
AcDbCircle
 10
24.07402620952003
 20
2.05075874356856
 30
0.0
 40
0.6342236987375398
100
AcDbArc
 50
235.4844523428089
 51
304.5155476571911
  0
LINE
  5
2C5
330
1F
100
AcDbEntity
  8
DEFAULT
100
AcDbLine
 10
3.772020000000026
 20
13.164242
 30
0.0
 11
3.771964000000025
 21
13.164402
 31
0.0
  0
LINE
  5
2C6
330
1F
100
AcDbEntity
  8
DEFAULT
100
AcDbLine
 10
8.927765000000022
 20
13.615355
 30
0.0
 11
8.927765000000022
 21
15.102307
 31
0.0
  0
LINE
  5
2C7
330
1F
100
AcDbEntity
  8
DEFAULT
100
AcDbLine
 10
1.218630000000047
 20
0.8420260000000006
 30
0.0
 11
1.218630000000047
 21
1.528175999999998
 31
0.0
  0
LINE
  5
2C8
330
1F
100
AcDbEntity
  8
DEFAULT
100
AcDbLine
 10
1.718520000000041
 20
0.0
 30
0.0
 11
1.302567000000039
 21
0.0
 31
0.0
  0
LINE
  5
2C9
330
1F
100
AcDbEntity
  8
DEFAULT
100
AcDbLine
 10
4.552131000000031
 20
13.246482
 30
0.0
 11
3.207212000000027
 21
13.246069
 31
0.0
  0
SPLINE
  5
2CA
330
1F
100
AcDbEntity
  8
DEFAULT
100
AcDbSpline
210
0.0
220
0.0
230
1.0
 70
     8
 71
     3
 72
    19
 73
    15
 74
     0
 42
0.0000000001
 43
0.0000000001
 40
-12.0
 40
-12.0
 40
-12.0
 40
-12.0
 40
-11.0
 40
-10.0
 40
-9.0
 40
-8.0
 40
-7.0
 40
-6.0
 40
-5.0
 40
-4.0
 40
-3.0
 40
-2.0
 40
-1.0
 40
0.0
 40
0.0
 40
0.0
 40
0.0
 10
22.62862125991504
 20
18.97124582819
 30
0.0
 10
22.34539158994829
 20
18.97043343682859
 30
0.0
 10
21.77889581479209
 20
18.96251081591258
 30
0.0
 10
20.93014508981827
 20
18.91911390561205
 30
0.0
 10
20.08356175569776
 20
18.84513789427253
 30
0.0
 10
19.23918044122766
 20
18.74981002159399
 30
0.0
 10
18.39609651208704
 20
18.64390869743002
 30
0.0
 10
17.55297546599192
 20
18.53825471139147
 30
0.0
 10
16.70860841408509
 20
18.44295865778832
 30
0.0
 10
15.86256559498989
 20
18.36344223226774
 30
0.0
 10
15.01471622610879
 20
18.30632882355888
 30
0.0
 10
14.16585162792686
 20
18.26742393890574
 30
0.0
 10
13.3163438785858
 20
18.24718122036217
 30
0.0
 10
12.74988037813532
 20
18.24236268146365
 30
0.0
 10
12.46664300000003
 20
18.242289
 30
0.0
  0
SPLINE
  5
2CB
330
1F
100
AcDbEntity
  8
DEFAULT
100
AcDbSpline
210
0.0
220
0.0
230
1.0
 70
     8
 71
     3
 72
    19
 73
    15
 74
     0
 42
0.0000000001
 43
0.0000000001
 40
0.0
 40
0.0
 40
0.0
 40
0.0
 40
1.0
 40
2.0
 40
3.0
 40
4.0
 40
5.0
 40
6.0
 40
7.0
 40
8.0
 40
9.0
 40
10.0
 40
11.0
 40
12.0
 40
12.0
 40
12.0
 40
12.0
 10
22.81868900000003
 20
16.133376
 30
0.0
 10
22.81989773611068
 20
16.21321062021278
 30
0.0
 10
22.82265358281799
 20
16.37287389933493
 30
0.0
 10
22.82551844041288
 20
16.61239065323156
 30
0.0
 10
22.82479071466528
 20
16.85192699782272
 30
0.0
 10
22.82139814937884
 20
17.09143748326489
 30
0.0
 10
22.81533669649573
 20
17.33089256367683
 30
0.0
 10
22.80741677525643
 20
17.57030247404123
 30
0.0
 10
22.79783555645466
 20
17.8096107115204
 30
0.0
 10
22.78681000601816
 20
18.04900926666603
 30
0.0
 10
22.7731047461883
 20
18.28770820964376
 30
0.0
 10
22.75642803866558
 20
18.52831550629372
 30
0.0
 10
22.72389059930842
 20
18.75987529725518
 30
0.0
 10
22.70083745317842
 20
18.93220506665516
 30
0.0
 10
22.62862125991504
 20
18.97124582819
 30
0.0
  0
LINE
  5
2CC
330
1F
100
AcDbEntity
  8
DEFAULT
100
AcDbLine
 10
12.25207600000002
 20
2.766535999999999
 30
0.0
 11
12.25207600000002
 21
2.716536000000001
 31
0.0
  0
LINE
  5
2CD
330
1F
100
AcDbEntity
  8
DEFAULT
100
AcDbLine
 10
49.36439988683358
 20
3.206648999999999
 30
0.0
 11
49.34903888683358
 21
2.766535999999999
 31
0.0
  0
LINE
  5
2CE
330
1F
100
AcDbEntity
  8
DEFAULT
100
AcDbLine
 10
36.99971088683358
 20
3.294561000000002
 30
0.0
 11
45.09021119236358
 21
5.885826964909999
 31
0.0
  0
LINE
  5
2CF
330
1F
100
AcDbEntity
  8
DEFAULT
100
AcDbLine
 10
46.21284388683358
 20
15.219854
 30
0.0
 11
45.29462388683358
 21
15.308268
 31
0.0
  0
LINE
  5
2D0
330
1F
100
AcDbEntity
  8
DEFAULT
100
AcDbLine
 10
44.52305888683358
 20
11.781159
 30
0.0
 11
51.31938088683359
 21
14.302506
 31
0.0
  0
LINE
  5
2D1
330
1F
100
AcDbEntity
  8
DEFAULT
100
AcDbLine
 10
51.15883188683358
 20
14.743609
 30
0.0
 11
47.19194288683359
 21
15.125577
 31
0.0
  0
SPLINE
  5
2D2
330
1F
100
AcDbEntity
  8
DEFAULT
100
AcDbSpline
210
0.0
220
0.0
230
1.0
 70
     8
 71
     3
 72
    16
 73
    12
 74
     0
 42
0.0000000001
 43
0.0000000001
 40
0.0
 40
0.0
 40
0.0
 40
0.0
 40
1.0
 40
2.0
 40
3.0
 40
4.0
 40
5.0
 40
6.0
 40
7.0
 40
8.0
 40
8.927271889391639
 40
8.927271889391639
 40
8.927271889391639
 40
8.927271889391639
 10
35.27964254666358
 20
39.94573235934
 30
0.0
 10
35.66433235309655
 20
39.63888189470115
 30
0.0
 10
35.95951222610381
 20
38.6979829134969
 30
0.0
 10
36.56417409293624
 20
37.40457159288076
 30
0.0
 10
37.1299730583433
 20
36.0815191829189
 30
0.0
 10
37.7108456957298
 20
34.76845121267355
 30
0.0
 10
38.29177177192759
 20
33.45450480447278
 30
0.0
 10
38.88058999271115
 20
32.14432321424793
 30
0.0
 10
39.45603568686495
 20
30.82807645050114
 30
0.0
 10
39.96984407986344
 20
29.52349180798452
 30
0.0
 10
40.24912289430432
 20
28.64314804635078
 30
0.0
 10
40.36040798075319
 20
28.21328545179982
 30
0.0
  0
LINE
  5
2D3
330
1F
100
AcDbEntity
  8
DEFAULT
100
AcDbLine
 10
2.978175160450036
 20
70.16870684091657
 30
0.0
 11
2.988328819960032
 21
70.28453673448655
 31
0.0
  0
LINE
  5
2D4
330
1F
100
AcDbEntity
  8
DEFAULT
100
AcDbLine
 10
24.76299450000003
 20
3.330465
 30
0.0
 11
24.78268800000004
 21
2.766535999999999
 31
0.0
  0
ARC
  5
2D5
330
1F
100
AcDbEntity
  8
DEFAULT
100
AcDbCircle
 10
24.36759869207192
 20
3.316200622558892
 30
0.0
 40
0.3956530265155401
100
AcDbArc
 50
2.066117849791148
 51
73.81468257186941
  0
SPLINE
  5
2D6
330
1F
100
AcDbEntity
  8
DEFAULT
100
AcDbSpline
210
0.0
220
0.0
230
1.0
 70
     8
 71
     3
 72
    19
 73
    15
 74
     0
 42
0.0000000001
 43
0.0000000001
 40
0.0
 40
0.0
 40
0.0
 40
0.0
 40
1.0
 40
2.0
 40
3.0
 40
4.0
 40
5.0
 40
6.0
 40
7.0
 40
8.0
 40
9.0
 40
10.0
 40
11.0
 40
12.0
 40
12.0
 40
12.0
 40
12.0
 10
13.48958908970005
 20
6.7226909014
 30
0.0
 10
13.80792046097272
 20
6.725051837828964
 30
0.0
 10
14.43025110434255
 20
6.588448271959781
 30
0.0
 10
15.33883352026012
 20
6.311658357378441
 30
0.0
 10
16.25306888905018
 20
6.050474051302096
 30
0.0
 10
17.16681177429749
 20
5.788655795608754
 30
0.0
 10
18.08068815359749
 20
5.527012520050409
 30
0.0
 10
18.99452487593553
 20
5.265309115571892
 30
0.0
 10
19.90837532062292
 20
5.003632307439126
 30
0.0
 10
20.82221070433167
 20
4.741909193745176
 30
0.0
 10
21.73609214490759
 20
4.480344839021168
 30
0.0
 10
22.64998198520081
 20
4.218810227158649
 30
0.0
 10
23.56394249966098
 20
3.957522239830254
 30
0.0
 10
24.17323196166519
 20
3.783269947946049
 30
0.0
 10
24.47788500000003
 20
3.696172000000001
 30
0.0
  0
LINE
  5
2D7
330
1F
100
AcDbEntity
  8
DEFAULT
100
AcDbLine
 10
18.65614100000002
 20
2.434055000000001
 30
0.0
 11
18.65614100000002
 21
0.125
 31
0.0
  0
LINE
  5
2D8
330
1F
100
AcDbEntity
  8
DEFAULT
100
AcDbLine
 10
13.44832700000003
 20
9.516962
 30
0.0
 11
13.37819400000004
 21
6.722591999999999
 31
0.0
  0
LINE
  5
2D9
330
1F
100
AcDbEntity
  8
DEFAULT
100
AcDbLine
 10
20.02464700000004
 20
70.33358708218657
 30
0.0
 11
20.08370200000005
 21
70.39264208218657
 31
0.0
  0
CIRCLE
  5
2DA
330
1F
100
AcDbEntity
  8
DEFAULT
100
AcDbCircle
 10
49.12514688683359
 20
1.279528000000005
 30
0.0
 40
1.279526999999996
  0
LINE
  5
2DB
330
1F
100
AcDbEntity
  8
DEFAULT
100
AcDbLine
 10
57.79611088683359
 20
2.699549000000001
 30
0.0
 11
57.81059788683358
 21
2.533956
 31
0.0
  0
LINE
  5
2DC
330
1F
100
AcDbEntity
  8
DEFAULT
100
AcDbLine
 10
45.25931488683358
 20
6.722296
 30
0.0
 11
45.36732488683359
 21
6.722588999999999
 31
0.0
  0
LINE
  5
2DD
330
1F
100
AcDbEntity
  8
DEFAULT
100
AcDbLine
 10
37.20169880862858
 20
3.064590183044999
 30
0.0
 11
44.12127488683359
 21
4.717334000000001
 31
0.0
  0
LINE
  5
2DE
330
1F
100
AcDbEntity
  8
DEFAULT
100
AcDbLine
 10
37.08606592538358
 20
3.020493079800001
 30
0.0
 11
37.20169880862858
 21
3.064590183044999
 31
0.0
  0
LINE
  5
2DF
330
1F
100
AcDbEntity
  8
DEFAULT
100
AcDbLine
 10
52.65622988683359
 20
13.247173
 30
0.0
 11
52.65629188683359
 21
13.472173
 31
0.0
  0
LINE
  5
2E0
330
1F
100
AcDbEntity
  8
DEFAULT
100
AcDbLine
 10
51.35116088683358
 20
14.006857
 30
0.0
 11
51.32716588683358
 21
14.281115
 31
0.0
  0
LINE
  5
2E1
330
1F
100
AcDbEntity
  8
DEFAULT
100
AcDbLine
 10
50.75900488683358
 20
2.766535999999999
 30
0.0
 11
50.73886988683358
 21
3.343129000000001
 31
0.0
  0
LINE
  5
2E2
330
1F
100
AcDbEntity
  8
DEFAULT
100
AcDbLine
 10
45.96224588683359
 20
6.722664999999999
 30
0.0
 11
45.96219088683358
 21
6.722664000000002
 31
0.0
  0
LINE
  5
2E3
330
1F
100
AcDbEntity
  8
DEFAULT
100
AcDbLine
 10
5.736192562150023
 20
1.603564519590002
 30
0.0
 11
5.854907483750026
 21
1.814273533049999
 31
0.0
  0
LINE
  5
2E4
330
1F
100
AcDbEntity
  8
DEFAULT
100
AcDbLine
 10
12.46664252736002
 20
9.577842257099999
 30
0.0
 11
11.79165391551001
 21
9.685562854739999
 31
0.0
  0
SPLINE
  5
2E5
330
1F
100
AcDbEntity
  8
DEFAULT
100
AcDbSpline
210
0.0
220
0.0
230
1.0
 70
     8
 71
     3
 72
    19
 73
    15
 74
     0
 42
0.0000000001
 43
0.0000000001
 40
0.0
 40
0.0
 40
0.0
 40
0.0
 40
0.1235919666214
 40
0.2451043183287
 40
0.3625079393068
 40
0.4738760400769
 40
0.5774394841606
 40
0.6716499905291
 40
0.7552606378014
 40
0.8274447239784
 40
0.8880009336909
 40
0.937747797675
 40
0.9792454826625
 40
1.0
 40
1.0
 40
1.0
 40
1.0
 10
12.46664252736002
 20
12.33299688516
 30
0.0
 10
12.41302163584001
 20
12.33299688516
 30
0.0
 10
12.30666808346004
 20
12.33076782654
 30
0.0
 10
12.14966296489004
 20
12.32077308052
 30
0.0
 10
11.99852730156002
 20
12.30432864715
 30
0.0
 10
11.85605646854003
 20
12.2817509192
 30
0.0
 10
11.72486802700004
 20
12.25347422501
 30
0.0
 10
11.60734790886002
 20
12.22004220709
 30
0.0
 10
11.50558582227004
 20
12.18208443348
 30
0.0
 10
11.42129621610005
 20
12.14028657017
 30
0.0
 10
11.35574675378004
 20
12.09522605562
 30
0.0
 10
11.30976709047005
 20
12.04716685055
 30
0.0
 10
11.28813043925001
 20
12.00228729552
 30
0.0
 10
11.28548938119005
 20
11.97497483116
 30
0.0
 10
11.28565204779002
 20
11.96589126526
 30
0.0
  0
ARC
  5
2E6
330
1F
100
AcDbEntity
  8
DEFAULT
100
AcDbCircle
 10
11.86706909275544
 20
10.09926686709692
 30
0.0
 40
0.4205216471835667
100
AcDbArc
 50
200.7859393382386
 51
259.6688401708092
  0
LINE
  5
2E7
330
1F
100
AcDbEntity
  8
DEFAULT
100
AcDbLine
 10
5.854907483750026
 20
1.814273533049999
 30
0.0
 11
5.933470638320017
 21
2.163334469540001
 31
0.0
  0
LINE
  5
2E8
330
1F
100
AcDbEntity
  8
DEFAULT
100
AcDbLine
 10
11.47391802498004
 20
9.95003317902
 30
0.0
 11
11.28556021058003
 21
11.9658897735
 31
0.0
  0
LINE
  5
2E9
330
1F
100
AcDbEntity
  8
DEFAULT
100
AcDbLine
 10
4.730863467330011
 20
1.814273533049999
 30
0.0
 11
4.849578388920037
 21
1.603564519590002
 31
0.0
  0
SPLINE
  5
2EA
330
1F
100
AcDbEntity
  8
DEFAULT
100
AcDbSpline
210
0.0
220
0.0
230
1.0
 70
     8
 71
     3
 72
    19
 73
    15
 74
     0
 42
0.0000000001
 43
0.0000000001
 40
0.0
 40
0.0
 40
0.0
 40
0.0
 40
0.1011763222572
 40
0.2232144367775
 40
0.3481954240116
 40
0.4667307689401
 40
0.576165643506
 40
0.6750207307125
 40
0.7614810123431
 40
0.8349355497899
 40
0.8952186339714
 40
0.9440277832864
 40
0.9855573206089
 40
1.0
 40
1.0
 40
1.0
 40
1.0
 10
12.46664252736002
 20
10.2732567463
 30
0.0
 10
12.42922092103004
 20
10.2732567463
 30
0.0
 10
12.34665525582002
 20
10.27181949255
 30
0.0
 10
12.21803446278003
 20
10.26455363124
 30
0.0
 10
12.08348469273002
 20
10.25069929214
 30
0.0
 10
11.95442939557003
 20
10.23060495602
 30
0.0
 10
11.83621239719002
 20
10.20497886796
 30
0.0
 10
11.73144616411003
 20
10.17442963664
 30
0.0
 10
11.64213705249003
 20
10.13958817522
 30
0.0
 10
11.57001268313005
 20
10.10119057466
 30
0.0
 10
11.51620132093004
 20
10.05971954588
 30
0.0
 10
11.48135902866002
 20
10.01503083324
 30
0.0
 10
11.47115630781005
 20
9.97612630459
 30
0.0
 10
11.47305168275003
 20
9.955344243910002
 30
0.0
 10
11.47396730062005
 20
9.950041687679999
 30
0.0
  0
ENDSEC
  0
SECTION
  2
OBJECTS
  0
DICTIONARY
  5
C
330
0
100
AcDbDictionary
  3
ACAD_GROUP
350
D
  3
ACAD_LAYOUT
350
1A
  3
ACAD_MLEADERSTYLE
350
30D
  3
ACAD_MLINESTYLE
350
17
  3
ACAD_PLOTSETTINGS
350
19
  3
ACAD_VISUALSTYLE
350
2A
  3
ACDBHEADERROUNDTRIPXREC
350
2EB
  3
ACDBVARIABLEDICTIONARY
350
30B
  0
DICTIONARY
  5
D
102
{ACAD_REACTORS
330
C
102
}
330
C
100
AcDbDictionary
  0
DICTIONARY
  5
1A
102
{ACAD_REACTORS
330
C
102
}
330
C
100
AcDbDictionary
  0
DICTIONARY
  5
30D
102
{ACAD_REACTORS
330
C
102
}
330
C
100
AcDbDictionary
  0
DICTIONARY
  5
17
102
{ACAD_REACTORS
330
C
102
}
330
C
100
AcDbDictionary
  3
STANDARD
350
18
  0
DICTIONARY
  5
19
102
{ACAD_REACTORS
330
C
102
}
330
C
100
AcDbDictionary
  0
DICTIONARY
  5
2A
102
{ACAD_REACTORS
330
C
102
}
330
C
100
AcDbDictionary
  3
2DWIREFRAME
350
2F
  3
3D_HIDDEN
350
31
  3
3DWIREFRAME
350
30
  3
BASIC
350
32
  3
BRIGHTEN
350
36
  3
COLORCHANGE
350
3A
  3
CONCEPTUAL
350
34
  3
DIM
350
35
  3
FACEPATTERN
350
39
  3
FLAT
350
2B
  3
FLATWITHEDGES
350
2C
  3
GOURAUD
350
2D
  3
GOURAUDWITHEDGES
350
2E
  3
LINEPATTERN
350
38
  3
REALISTIC
350
33
  3
THICKEN
350
37
  0
DICTIONARY
  5
2EB
102
{ACAD_REACTORS
330
C
102
}
330
C
100
AcDbDictionary
  3
CEPSNTYPE
350
2F4
  3
DIMSTYLEDATA
350
30A
  3
FINGERPRINTGUID
350
2F5
  3
HYPERLINKBASE
350
2EE
  3
INSUNITS
350
2F3
  3
LAYOUTDICT
350
2F0
  3
LWETCUNION
350
2F2
  3
PLOTSETDICT
350
2F1
  3
PSVPSCALE
350
2F7
  3
PUCSBASE
350
2FA
  3
PUCSORGBACK
350
300
  3
PUCSORGBOTTOM
350
2FC
  3
PUCSORGFRONT
350
2FF
  3
PUCSORGLEFT
350
2FD
  3
PUCSORGRIGHT
350
2FE
  3
PUCSORGTOP
350
2FB
  3
PUCSORTHOREF
350
2F8
  3
PUCSORTHOVIEW
350
2F9
  3
STYLESHEET
350
2EF
  3
TSTACKALIGN
350
2EC
  3
TSTACKSIZE
350
2ED
  3
UCSBASE
350
303
  3
UCSORGBACK
350
309
  3
UCSORGBOTTOM
350
305
  3
UCSORGFRONT
350
308
  3
UCSORGLEFT
350
306
  3
UCSORGRIGHT
350
307
  3
UCSORGTOP
350
304
  3
UCSORTHOREF
350
301
  3
UCSORTHOVIEW
350
302
  3
VERSIONGUID
350
2F6
  0
DICTIONARY
  5
30B
102
{ACAD_REACTORS
330
C
102
}
330
C
100
AcDbDictionary
  0
MLINESTYLE
  5
18
102
{ACAD_REACTORS
330
17
102
}
330
17
100
AcDbMlineStyle
  2
Standard
 70
     0
  3

 62
   256
 51
90.0
 52
90.0
 71
     2
 49
0.5
 62
   256
  6
BYLAYER
 49
-0.5
 62
   256
  6
BYLAYER
  0
ACAD_PROXY_OBJECT
  5
2F
102
{ACAD_REACTORS
330
2A
102
}
330
2A
100
AcDbProxyObject
 90
      499
 91
      501
 93
      436
310
42CC9915DA5C99599C985B595049028333333333333E3BF0000000000000FB0107901411070040501600405405064090741402480A0340
1001
ACAD
1000
AcDbSavedByObjectVersion
1070
     0
  0
ACAD_PROXY_OBJECT
  5
31
102
{ACAD_REACTORS
330
2A
102
}
330
2A
100
AcDbProxyObject
 90
      499
 91
      501
 93
      500
310
424CD108121A5919195B90640502408333333333333E3BF0000000000000FB01079024090700405020000000000001110200405405064090740C02480A0340
1001
ACAD
1000
AcDbSavedByObjectVersion
1070
     0
  0
ACAD_PROXY_OBJECT
  5
30
102
{ACAD_REACTORS
330
2A
102
}
330
2A
100
AcDbProxyObject
 90
      499
 91
      501
 93
      436
310
42CCD915DA5C99599C985B595059028333333333333E3BF0000000000000FB0107901411070040501600405405064090741402480A0340
1001
ACAD
1000
AcDbSavedByObjectVersion
1070
     0
  0
ACAD_PROXY_OBJECT
  5
32
102
{ACAD_REACTORS
330
2A
102
}
330
2A
100
AcDbProxyObject
 90
      499
 91
      501
 93
      388
310
4150985CDA58D07406404333333333333E3BF0000000000000FB0107A41107004050150841D405064090741402480A0350
1001
ACAD
1000
AcDbSavedByObjectVersion
1070
     0
  0
ACAD_PROXY_OBJECT
  5
36
102
{ACAD_REACTORS
330
2A
102
}
330
2A
100
AcDbProxyObject
 90
      499
 91
      501
 93
      428
310
42109C9A59DA1D195B90C409028333333333333E3BF0000000000000FB010790141107004050150841D405064090741402480A029950
1001
ACAD
1000
AcDbSavedByObjectVersion
1070
     0
  0
ACAD_PROXY_OBJECT
  5
3A
102
{ACAD_REACTORS
330
2A
102
}
330
2A
100
AcDbProxyObject
 90
      499
 91
      501
 93
      452
310
42D0DBDB1BDC90DA185B99D95104090240C333333333333E3BF0000000000000FB0108901411070040501508421405064090741402480A0350
1001
ACAD
1000
AcDbSavedByObjectVersion
1070
     0
  0
ACAD_PROXY_OBJECT
  5
34
102
{ACAD_REACTORS
330
2A
102
}
330
2A
100
AcDbProxyObject
 90
      499
 91
      501
 93
      500
310
4290DBDB98D95C1D1D585B10940D028333333333333E3BF0000000000000FB0107902409070040501000000000000111010841D405064090740C02480A0340
1001
ACAD
1000
AcDbSavedByObjectVersion
1070
     0
  0
ACAD_PROXY_OBJECT
  5
35
102
{ACAD_REACTORS
330
2A
102
}
330
2A
100
AcDbProxyObject
 90
      499
 91
      501
 93
      412
310
40D11A5B50B409028333333333333E3BF0000000000000FB010790141107004050150841D405064090741402480A02677FFFFFD0
1001
ACAD
1000
AcDbSavedByObjectVersion
1070
     0
  0
ACAD_PROXY_OBJECT
  5
39
102
{ACAD_REACTORS
330
2A
102
}
330
2A
100
AcDbProxyObject
 90
      499
 91
      501
 93
      444
310
42D19858D95C185D1D195C9B90F409028333333333333E3BF0000000000000FB010790141107004050150841D405064090741402480A0350
1001
ACAD
1000
AcDbSavedByObjectVersion
1070
     0
  0
ACAD_PROXY_OBJECT
  5
2B
102
{ACAD_REACTORS
330
2A
102
}
330
2A
100
AcDbProxyObject
 90
      499
 91
      501
 93
      388
310
41119B185D240901404333333333333E3BF0000000000000F9010740A41107004050150841D405064090741402480A1B50
1001
ACAD
1000
AcDbSavedByObjectVersion
1070
     0
  0
ACAD_PROXY_OBJECT
  5
2C
102
{ACAD_REACTORS
330
2A
102
}
330
2A
100
AcDbProxyObject
 90
      499
 91
      501
 93
      476
310
43519B185D15DA5D1A115919D95CD0140901404333333333333E3BF0000000000000F9010740901411070040501600405405064090741402480A1B50
1001
ACAD
1000
AcDbSavedByObjectVersion
1070
     0
  0
ACAD_PROXY_OBJECT
  5
2D
102
{ACAD_REACTORS
330
2A
102
}
330
2A
100
AcDbProxyObject
 90
      499
 91
      501
 93
      412
310
41D1DBDD5C985D5910240902404333333333333E3BF0000000000000F9010740A411070040501641D405064090741402480A1B50
1001
ACAD
1000
AcDbSavedByObjectVersion
1070
     0
  0
ACAD_PROXY_OBJECT
  5
2E
102
{ACAD_REACTORS
330
2A
102
}
330
2A
100
AcDbProxyObject
 90
      499
 91
      501
 93
      500
310
4411DBDD5C985D5915DA5D1A115919D95CD0340902404333333333333E3BF0000000000000F9010740901411070040501600405405064090741402480A1B50
1001
ACAD
1000
AcDbSavedByObjectVersion
1070
     0
  0
ACAD_PROXY_OBJECT
  5
38
102
{ACAD_REACTORS
330
2A
102
}
330
2A
100
AcDbProxyObject
 90
      499
 91
      501
 93
      444
310
42D31A5B995C185D1D195C9B90E409028333333333333E3BF0000000000000FB010790141107004050750841D405064090741402483A0350
1001
ACAD
1000
AcDbSavedByObjectVersion
1070
     0
  0
ACAD_PROXY_OBJECT
  5
33
102
{ACAD_REACTORS
330
2A
102
}
330
2A
100
AcDbProxyObject
 90
      499
 91
      501
 93
      420
310
425499585B1A5CDD1A58D08409028333333333333E3BF0000000000000FB01079019070040501508421405064090741402480A1B40
1001
ACAD
1000
AcDbSavedByObjectVersion
1070
     0
  0
ACAD_PROXY_OBJECT
  5
37
102
{ACAD_REACTORS
330
2A
102
}
330
2A
100
AcDbProxyObject
 90
      499
 91
      501
 93
      412
310
41D51A1A58DAD95B90D409028333333333333E3BF0000000000000FB010790141107004050150C41D405064090741402480A0350
1001
ACAD
1000
AcDbSavedByObjectVersion
1070
     0
  0
ACAD_PROXY_OBJECT
  5
2F4
102
{ACAD_REACTORS
330
2EB
102
}
330
2EB
100
AcDbProxyObject
 90
      499
 91
      502
 93
       58
310
4196800000000000
  0
ACAD_PROXY_OBJECT
  5
30A
102
{ACAD_REACTORS
330
2EB
102
}
330
2EB
100
AcDbProxyObject
 90
      499
 91
      502
 93
      370
310
4B7A00C180079114D51653117A80C040079ECB8105C0518000800B811500550044400000000000003A80C040079F40
  0
ACAD_PROXY_OBJECT
  5
2F5
102
{ACAD_REACTORS
330
2EB
102
}
330
2EB
100
AcDbProxyObject
 90
      499
 91
      502
 93
      354
310
4AC0400980079ECD904E0D11908DCD4B4CCC0DCD4B4D110D0DCB504E0C114B4E110C8C0DCCCD0D4C8CD10C1F40
  0
ACAD_PROXY_OBJECT
  5
2EE
102
{ACAD_REACTORS
330
2EB
102
}
330
2EB
100
AcDbProxyObject
 90
      499
 91
      502
 93
       50
310
41404000000780
  0
ACAD_PROXY_OBJECT
  5
2F3
102
{ACAD_REACTORS
330
2EB
102
}
330
2EB
100
AcDbProxyObject
 90
      499
 91
      502
 93
       58
310
4196800040000000
  0
ACAD_PROXY_OBJECT
  5
2F0
102
{ACAD_REACTORS
330
2EB
102
}
330
2EB
100
AcDbProxyObject
 90
      499
 91
      502
 93
       90
310
429500468000000000000000
  0
ACAD_PROXY_OBJECT
  5
2F2
102
{ACAD_REACTORS
330
2EB
102
}
330
2EB
100
AcDbProxyObject
 90
      499
 91
      502
 93
       58
310
419680074A800000
  0
ACAD_PROXY_OBJECT
  5
2F1
102
{ACAD_REACTORS
330
2EB
102
}
330
2EB
100
AcDbProxyObject
 90
      499
 91
      502
 93
       90
310
429500464000000000000000
  0
ACAD_PROXY_OBJECT
  5
2F7
102
{ACAD_REACTORS
330
2EB
102
}
330
2EB
100
AcDbProxyObject
 90
      499
 91
      502
 93
       90
310
428A00000000000000000000
  0
ACAD_PROXY_OBJECT
  5
2FA
102
{ACAD_REACTORS
330
2EB
102
}
330
2EB
100
AcDbProxyObject
 90
      499
 91
      502
 93
       90
310
429500400000000000000000
  0
ACAD_PROXY_OBJECT
  5
300
102
{ACAD_REACTORS
330
2EB
102
}
330
2EB
100
AcDbProxyObject
 90
      499
 91
      502
 93
      218
310
46828000000000000000000000000000000000000000000000000000
  0
ACAD_PROXY_OBJECT
  5
2FC
102
{ACAD_REACTORS
330
2EB
102
}
330
2EB
100
AcDbProxyObject
 90
      499
 91
      502
 93
      218
310
46828000000000000000000000000000000000000000000000000000
  0
ACAD_PROXY_OBJECT
  5
2FF
102
{ACAD_REACTORS
330
2EB
102
}
330
2EB
100
AcDbProxyObject
 90
      499
 91
      502
 93
      218
310
46828000000000000000000000000000000000000000000000000000
  0
ACAD_PROXY_OBJECT
  5
2FD
102
{ACAD_REACTORS
330
2EB
102
}
330
2EB
100
AcDbProxyObject
 90
      499
 91
      502
 93
      218
310
46828000000000000000000000000000000000000000000000000000
  0
ACAD_PROXY_OBJECT
  5
2FE
102
{ACAD_REACTORS
330
2EB
102
}
330
2EB
100
AcDbProxyObject
 90
      499
 91
      502
 93
      218
310
46828000000000000000000000000000000000000000000000000000
  0
ACAD_PROXY_OBJECT
  5
2FB
102
{ACAD_REACTORS
330
2EB
102
}
330
2EB
100
AcDbProxyObject
 90
      499
 91
      502
 93
      218
310
46828000000000000000000000000000000000000000000000000000
  0
ACAD_PROXY_OBJECT
  5
2F8
102
{ACAD_REACTORS
330
2EB
102
}
330
2EB
100
AcDbProxyObject
 90
      499
 91
      502
 93
       90
310
429500400000000000000000
  0
ACAD_PROXY_OBJECT
  5
2F9
102
{ACAD_REACTORS
330
2EB
102
}
330
2EB
100
AcDbProxyObject
 90
      499
 91
      502
 93
       42
310
411180000000
  0
ACAD_PROXY_OBJECT
  5
2EF
102
{ACAD_REACTORS
330
2EB
102
}
330
2EB
100
AcDbProxyObject
 90
      499
 91
      502
 93
       50
310
41404000000780
  0
ACAD_PROXY_OBJECT
  5
2EC
102
{ACAD_REACTORS
330
2EB
102
}
330
2EB
100
AcDbProxyObject
 90
      499
 91
      502
 93
       58
310
4196800040000000
  0
ACAD_PROXY_OBJECT
  5
2ED
102
{ACAD_REACTORS
330
2EB
102
}
330
2EB
100
AcDbProxyObject
 90
      499
 91
      502
 93
       58
310
4196801180000000
  0
ACAD_PROXY_OBJECT
  5
303
102
{ACAD_REACTORS
330
2EB
102
}
330
2EB
100
AcDbProxyObject
 90
      499
 91
      502
 93
       90
310
429500400000000000000000
  0
ACAD_PROXY_OBJECT
  5
309
102
{ACAD_REACTORS
330
2EB
102
}
330
2EB
100
AcDbProxyObject
 90
      499
 91
      502
 93
      218
310
46828000000000000000000000000000000000000000000000000000
  0
ACAD_PROXY_OBJECT
  5
305
102
{ACAD_REACTORS
330
2EB
102
}
330
2EB
100
AcDbProxyObject
 90
      499
 91
      502
 93
      218
310
46828000000000000000000000000000000000000000000000000000
  0
ACAD_PROXY_OBJECT
  5
308
102
{ACAD_REACTORS
330
2EB
102
}
330
2EB
100
AcDbProxyObject
 90
      499
 91
      502
 93
      218
310
46828000000000000000000000000000000000000000000000000000
  0
ACAD_PROXY_OBJECT
  5
306
102
{ACAD_REACTORS
330
2EB
102
}
330
2EB
100
AcDbProxyObject
 90
      499
 91
      502
 93
      218
310
46828000000000000000000000000000000000000000000000000000
  0
ACAD_PROXY_OBJECT
  5
307
102
{ACAD_REACTORS
330
2EB
102
}
330
2EB
100
AcDbProxyObject
 90
      499
 91
      502
 93
      218
310
46828000000000000000000000000000000000000000000000000000
  0
ACAD_PROXY_OBJECT
  5
304
102
{ACAD_REACTORS
330
2EB
102
}
330
2EB
100
AcDbProxyObject
 90
      499
 91
      502
 93
      218
310
46828000000000000000000000000000000000000000000000000000
  0
ACAD_PROXY_OBJECT
  5
301
102
{ACAD_REACTORS
330
2EB
102
}
330
2EB
100
AcDbProxyObject
 90
      499
 91
      502
 93
       90
310
429500400000000000000000
  0
ACAD_PROXY_OBJECT
  5
302
102
{ACAD_REACTORS
330
2EB
102
}
330
2EB
100
AcDbProxyObject
 90
      499
 91
      502
 93
       42
310
411180000000
  0
ACAD_PROXY_OBJECT
  5
2F6
102
{ACAD_REACTORS
330
2EB
102
}
330
2EB
100
AcDbProxyObject
 90
      499
 91
      502
 93
      354
310
4AC0400980079ED19051508C50CCCC8B514C0C4E4B4C4C510D4B4E4C8E508B4C0C10CC11118C8D4D9150CD1F40
  0
ENDSEC
  0
EOF
