  0
SECTION
  2
HEADER
  9
$ACADVER
  1
AC1014
  9
$ACADMAINTVER
 70
     9
  9
$DWGCODEPAGE
  3
ANSI_1252
  9
$INSBASE
 10
0.0
 20
0.0
 30
0.0
  9
$EXTMIN
 10
-0.1250000000000039
 20
-0.0000005000000005
 30
0.0
  9
$EXTMAX
 10
59.19226188683355
 20
70.39264258218657
 30
0.0
  9
$LIMMIN
 10
0.0
 20
0.0
  9
$LIMMAX
 10
12.0
 20
9.0
  9
$ORTHOMODE
 70
     0
  9
$REGENMODE
 70
     1
  9
$FILLMODE
 70
     1
  9
$QTEXTMODE
 70
     0
  9
$MIRRTEXT
 70
     1
  9
$DRAGMODE
 70
     2
  9
$LTSCALE
 40
0.0393700787401575
  9
$OSMODE
 70
    37
  9
$ATTMODE
 70
     1
  9
$TEXTSIZE
 40
0.2
  9
$TRACEWID
 40
0.05
  9
$TEXTSTYLE
  7
STANDARD
  9
$CLAYER
  8
DEFAULT
  9
$CELTYPE
  6
BYLAYER
  9
$CECOLOR
 62
   256
  9
$CELTSCALE
 40
1.0
  9
$DELOBJ
 70
     1
  9
$DISPSILH
 70
     0
  9
$DIMSCALE
 40
1.0
  9
$DIMASZ
 40
0.18
  9
$DIMEXO
 40
0.0625
  9
$DIMDLI
 40
0.38
  9
$DIMRND
 40
0.0
  9
$DIMDLE
 40
0.0
  9
$DIMEXE
 40
0.18
  9
$DIMTP
 40
0.0
  9
$DIMTM
 40
0.0
  9
$DIMTXT
 40
0.18
  9
$DIMCEN
 40
0.09
  9
$DIMTSZ
 40
0.0
  9
$DIMTOL
 70
     0
  9
$DIMLIM
 70
     0
  9
$DIMTIH
 70
     1
  9
$DIMTOH
 70
     1
  9
$DIMSE1
 70
     0
  9
$DIMSE2
 70
     0
  9
$DIMTAD
 70
     0
  9
$DIMZIN
 70
     0
  9
$DIMBLK
  1

  9
$DIMASO
 70
     1
  9
$DIMSHO
 70
     1
  9
$DIMPOST
  1

  9
$DIMAPOST
  1

  9
$DIMALT
 70
     0
  9
$DIMALTD
 70
     2
  9
$DIMALTF
 40
25.4
  9
$DIMLFAC
 40
1.0
  9
$DIMTOFL
 70
     0
  9
$DIMTVP
 40
0.0
  9
$DIMTIX
 70
     0
  9
$DIMSOXD
 70
     0
  9
$DIMSAH
 70
     0
  9
$DIMBLK1
  1

  9
$DIMBLK2
  1

  9
$DIMSTYLE
  2
STANDARD
  9
$DIMCLRD
 70
     0
  9
$DIMCLRE
 70
     0
  9
$DIMCLRT
 70
     0
  9
$DIMTFAC
 40
1.0
  9
$DIMGAP
 40
0.09
  9
$DIMJUST
 70
     0
  9
$DIMSD1
 70
     0
  9
$DIMSD2
 70
     0
  9
$DIMTOLJ
 70
     1
  9
$DIMTZIN
 70
     0
  9
$DIMALTZ
 70
     0
  9
$DIMALTTZ
 70
     0
  9
$DIMFIT
 70
     5
  9
$DIMUPT
 70
     0
  9
$DIMUNIT
 70
     2
  9
$DIMDEC
 70
     4
  9
$DIMTDEC
 70
     4
  9
$DIMALTU
 70
     2
  9
$DIMALTTD
 70
     2
  9
$DIMTXSTY
  7
STANDARD
  9
$DIMAUNIT
 70
     0
  9
$LUNITS
 70
     2
  9
$LUPREC
 70
     3
  9
$SKETCHINC
 40
0.1
  9
$FILLETRAD
 40
0.5
  9
$AUNITS
 70
     0
  9
$AUPREC
 70
     0
  9
$MENU
  1
.
  9
$ELEVATION
 40
0.0
  9
$PELEVATION
 40
0.0
  9
$THICKNESS
 40
0.0
  9
$LIMCHECK
 70
     0
  9
$CHAMFERA
 40
0.5
  9
$CHAMFERB
 40
0.5
  9
$CHAMFERC
 40
1.0
  9
$CHAMFERD
 40
0.0
  9
$SKPOLY
 70
     0
  9
$TDCREATE
 40
2455247.36397147
  9
$TDUPDATE
 40
2455247.363971482
  9
$TDINDWG
 40
0.0000000116
  9
$TDUSRTIMER
 40
0.0000000116
  9
$USRTIMER
 70
     1
  9
$ANGBASE
 50
0.0
  9
$ANGDIR
 70
     0
  9
$PDMODE
 70
     0
  9
$PDSIZE
 40
0.0
  9
$PLINEWID
 40
0.0
  9
$COORDS
 70
     1
  9
$SPLFRAME
 70
     0
  9
$SPLINETYPE
 70
     6
  9
$SPLINESEGS
 70
     8
  9
$ATTDIA
 70
     0
  9
$ATTREQ
 70
     1
  9
$HANDLING
 70
     1
  9
$HANDSEED
  5
33F
  9
$SURFTAB1
 70
     6
  9
$SURFTAB2
 70
     6
  9
$SURFTYPE
 70
     6
  9
$SURFU
 70
     6
  9
$SURFV
 70
     6
  9
$UCSNAME
  2

  9
$UCSORG
 10
0.0
 20
0.0
 30
0.0
  9
$UCSXDIR
 10
1.0
 20
0.0
 30
0.0
  9
$UCSYDIR
 10
0.0
 20
1.0
 30
0.0
  9
$PUCSNAME
  2

  9
$PUCSORG
 10
0.0
 20
0.0
 30
0.0
  9
$PUCSXDIR
 10
1.0
 20
0.0
 30
0.0
  9
$PUCSYDIR
 10
0.0
 20
1.0
 30
0.0
  9
$USERI1
 70
     0
  9
$USERI2
 70
     0
  9
$USERI3
 70
     0
  9
$USERI4
 70
     0
  9
$USERI5
 70
     0
  9
$USERR1
 40
0.0
  9
$USERR2
 40
0.0
  9
$USERR3
 40
0.0
  9
$USERR4
 40
0.0
  9
$USERR5
 40
0.0
  9
$WORLDVIEW
 70
     1
  9
$SHADEDGE
 70
     3
  9
$SHADEDIF
 70
    70
  9
$TILEMODE
 70
     1
  9
$MAXACTVP
 70
    64
  9
$PINSBASE
 10
0.0
 20
0.0
 30
0.0
  9
$PLIMCHECK
 70
     0
  9
$PEXTMIN
 10
1.000000000000000E+20
 20
1.000000000000000E+20
 30
1.000000000000000E+20
  9
$PEXTMAX
 10
-1.000000000000000E+20
 20
-1.000000000000000E+20
 30
-1.000000000000000E+20
  9
$PLIMMIN
 10
0.0
 20
0.0
  9
$PLIMMAX
 10
12.0
 20
9.0
  9
$UNITMODE
 70
     0
  9
$VISRETAIN
 70
     1
  9
$PLINEGEN
 70
     0
  9
$PSLTSCALE
 70
     1
  9
$TREEDEPTH
 70
  3020
  9
$PICKSTYLE
 70
     1
  9
$CMLSTYLE
  2
STANDARD
  9
$CMLJUST
 70
     0
  9
$CMLSCALE
 40
1.0
  9
$PROXYGRAPHICS
 70
     1
  9
$MEASUREMENT
 70
     0
  0
ENDSEC
  0
SECTION
  2
CLASSES
  0
CLASS
  1
ACDBDICTIONARYWDFLT
  2
AcDbDictionaryWithDefault
  3
ObjectDBX Classes
 90
        0
280
     0
281
     0
  0
CLASS
  1
VISUALSTYLE
  2
AcDbVisualStyle
  3
ObjectDBX Classes
 90
     4095
280
     0
281
     0
  0
CLASS
  1
XRECORD
  2
AcDbXrecord
  3
AutoCAD 2000
 90
        0
280
     0
281
     0
  0
CLASS
  1
LWPOLYLINE
  2
AcDbPolyline
  3
AutoCAD 2000
 90
        0
280
     0
281
     1
  0
CLASS
  1
HATCH
  2
AcDbHatch
  3
AutoCAD 2000
 90
        0
280
     0
281
     1
  0
CLASS
  1
ACDBPLACEHOLDER
  2
AcDbPlaceHolder
  3
ObjectDBX Classes
 90
        0
280
     0
281
     0
  0
CLASS
  1
LAYOUT
  2
AcDbLayout
  3
ObjectDBX Classes
 90
        0
280
     0
281
     0
  0
ENDSEC
  0
SECTION
  2
TABLES
  0
TABLE
  2
VPORT
  5
8
330
0
100
AcDbSymbolTable
 70
     1
  0
VPORT
  5
29
330
8
100
AcDbSymbolTableRecord
100
AcDbViewportTableRecord
  2
*ACTIVE
 70
     0
 10
0.0
 20
0.0
 11
1.0
 21
1.0
 12
29.53363094341677
 22
35.19632104109328
 13
0.0
 23
0.0
 14
0.5
 24
0.5
 15
0.5
 25
0.5
 16
0.0
 26
0.0
 36
1.0
 17
0.0
 27
0.0
 37
0.0
 40
71.8004959438303
 41
0.8426628023837377
 42
50.0
 43
0.0
 44
0.0
 50
0.0
 51
0.0
 71
     0
 72
   100
 73
     1
 74
     3
 75
     0
 76
     0
 77
     0
 78
     0
  0
ENDTAB
  0
TABLE
  2
LTYPE
  5
5
330
0
100
AcDbSymbolTable
 70
     1
  0
LTYPE
  5
14
330
5
100
AcDbSymbolTableRecord
100
AcDbLinetypeTableRecord
  2
BYBLOCK
 70
     0
  3

 72
    65
 73
     0
 40
0.0
  0
LTYPE
  5
15
330
5
100
AcDbSymbolTableRecord
100
AcDbLinetypeTableRecord
  2
BYLAYER
 70
     0
  3

 72
    65
 73
     0
 40
0.0
  0
LTYPE
  5
16
330
5
100
AcDbSymbolTableRecord
100
AcDbLinetypeTableRecord
  2
CONTINUOUS
 70
     0
  3
Solid line
 72
    65
 73
     0
 40
0.0
  0
ENDTAB
  0
TABLE
  2
LAYER
  5
2
330
0
100
AcDbSymbolTable
 70
     2
  0
LAYER
  5
10
330
2
100
AcDbSymbolTableRecord
100
AcDbLayerTableRecord
  2
0
 70
     0
 62
     7
  6
CONTINUOUS
  0
LAYER
  5
3B
330
2
100
AcDbSymbolTableRecord
100
AcDbLayerTableRecord
  2
DEFAULT
 70
     0
 62
     7
  6
CONTINUOUS
  0
ENDTAB
  0
TABLE
  2
STYLE
  5
3
330
0
100
AcDbSymbolTable
 70
     1
  0
STYLE
  5
11
330
3
100
AcDbSymbolTableRecord
100
AcDbTextStyleTableRecord
  2
STANDARD
 70
     0
 40
0.0
 41
1.0
 50
0.0
 71
     0
 42
0.2
  3
txt
  4

  0
ENDTAB
  0
TABLE
  2
VIEW
  5
6
330
0
100
AcDbSymbolTable
 70
     0
  0
ENDTAB
  0
TABLE
  2
UCS
  5
7
330
0
100
AcDbSymbolTable
 70
     0
  0
ENDTAB
  0
TABLE
  2
APPID
  5
9
330
0
100
AcDbSymbolTable
 70
     1
  0
APPID
  5
12
330
9
100
AcDbSymbolTableRecord
100
AcDbRegAppTableRecord
  2
ACAD
 70
     0
  0
ENDTAB
  0
TABLE
  2
DIMSTYLE
  5
A
330
0
100
AcDbSymbolTable
 70
     1
  0
DIMSTYLE
105
27
330
A
100
AcDbSymbolTableRecord
100
AcDbDimStyleTableRecord
  2
STANDARD
 70
     0
  3

  4

  5

  6

  7

 40
1.0
 41
0.18
 42
0.0625
 43
0.38
 44
0.18
 45
0.0
 46
0.0
 47
0.0
 48
0.0
140
0.18
141
0.09
142
0.0
143
25.4
144
1.0
145
0.0
146
1.0
147
0.09
 71
     0
 72
     0
 73
     1
 74
     1
 75
     0
 76
     0
 77
     0
 78
     0
170
     0
171
     2
172
     0
173
     0
174
     0
175
     0
176
     0
177
     0
178
     0
270
     2
271
     4
272
     4
273
     2
274
     2
340
11
275
     0
280
     0
281
     0
282
     0
283
     1
284
     0
285
     0
286
     0
287
     3
288
     0
  0
ENDTAB
  0
TABLE
  2
BLOCK_RECORD
  5
1
330
0
100
AcDbSymbolTable
 70
     1
  0
BLOCK_RECORD
  5
1F
330
1
100
AcDbSymbolTableRecord
100
AcDbBlockTableRecord
  2
*MODEL_SPACE
  0
BLOCK_RECORD
  5
1B
330
1
100
AcDbSymbolTableRecord
100
AcDbBlockTableRecord
  2
*PAPER_SPACE
  0
ENDTAB
  0
ENDSEC
  0
SECTION
  2
BLOCKS
  0
BLOCK
  5
20
330
1F
100
AcDbEntity
  8
0
100
AcDbBlockBegin
  2
*MODEL_SPACE
 70
     0
 10
0.0
 20
0.0
 30
0.0
  3
*MODEL_SPACE
  1

  0
ENDBLK
  5
21
330
1F
100
AcDbEntity
  8
0
100
AcDbBlockEnd
  0
BLOCK
  5
1C
330
1B
100
AcDbEntity
 67
     1
  8
0
100
AcDbBlockBegin
  2
*PAPER_SPACE
 70
     0
 10
0.0
 20
0.0
 30
0.0
  3
*PAPER_SPACE
  1

  0
ENDBLK
  5
1D
330
1B
100
AcDbEntity
 67
     1
  8
0
100
AcDbBlockEnd
  0
ENDSEC
  0
SECTION
  2
ENTITIES
  0
LINE
  5
3C
330
1F
100
AcDbEntity
  8
DEFAULT
100
AcDbLine
 10
20.312325
 20
2.716536236396425
 30
0.0
 11
20.32789076450334
 21
2.699549020605581
 31
0.0
  0
LINE
  5
3D
330
1F
100
AcDbEntity
  8
DEFAULT
100
AcDbLine
 10
19.28103
 20
0.8420260000000006
 30
0.0
 11
19.28103
 21
1.528175999999998
 31
0.0
  0
LINE
  5
3E
330
1F
100
AcDbEntity
  8
DEFAULT
100
AcDbLine
 10
4.752034000000009
 20
13.246775
 30
0.0
 11
4.552131000000003
 21
13.246693
 31
0.0
  0
LINE
  5
3F
330
1F
100
AcDbEntity
  8
DEFAULT
100
AcDbLine
 10
9.075401999999997
 20
13.615355
 30
0.0
 11
9.075401999999997
 21
15.093577
 31
0.0
  0
SPLINE
  5
40
330
1F
100
AcDbEntity
  8
DEFAULT
100
AcDbSpline
210
0.0
220
0.0
230
1.0
 70
     8
 71
     3
 72
    14
 73
    10
 74
     0
 42
0.0000000001
 43
0.0000000001
 40
0.0
 40
0.0
 40
0.0
 40
0.0
 40
1.0
 40
2.0
 40
3.0
 40
4.0
 40
5.0
 40
6.0
 40
7.0
 40
7.0
 40
7.0
 40
7.0
 10
1.205164883484997
 20
3.251948988540001
 30
0.0
 10
1.681030678483779
 20
3.413754867869647
 30
0.0
 10
2.658512531966537
 20
3.67354500673239
 30
0.0
 10
4.114067163332166
 20
4.08942133634804
 30
0.0
 10
5.573166011950121
 20
4.497550052257092
 30
0.0
 10
7.032354280843734
 20
4.897675052305334
 30
0.0
 10
8.491969144359501
 20
5.322010031496397
 30
0.0
 10
9.947900245895141
 20
5.664125288711947
 30
0.0
 10
10.94208962689756
 20
6.044233048359406
 30
0.0
 10
11.41149235896
 20
5.88586085499
 30
0.0
  0
ARC
  5
41
330
1F
100
AcDbEntity
  8
DEFAULT
100
AcDbCircle
 10
1.525478779710352
 20
2.888479601164983
 30
0.0
 40
0.484469800579807
100
AcDbArc
 50
131.3886915989357
 51
194.578444151453
  0
LINE
  5
42
330
1F
100
AcDbEntity
  8
DEFAULT
100
AcDbLine
 10
20.28100780021001
 20
2.163622138059999
 30
0.0
 11
20.20242253267
 21
1.814273533049999
 31
0.0
  0
LINE
  5
43
330
1F
100
AcDbEntity
  8
DEFAULT
100
AcDbLine
 10
4.552033999999992
 20
13.471692
 30
0.0
 11
4.752012000000008
 21
13.471775
 31
0.0
  0
LINE
  5
44
330
1F
100
AcDbEntity
  8
DEFAULT
100
AcDbLine
 10
23.089766
 20
2.434055000000001
 30
0.0
 11
23.089766
 21
0.125
 31
0.0
  0
LINE
  5
45
330
1F
100
AcDbEntity
  8
DEFAULT
100
AcDbLine
 10
2.685912500000001
 20
28.0611605
 30
0.0
 11
1.464134000000001
 21
28.11034
 31
0.0
  0
LINE
  5
46
330
1F
100
AcDbEntity
  8
DEFAULT
100
AcDbLine
 10
2.753264000000001
 20
27.987001
 30
0.0
 11
2.685912500000001
 21
28.0611605
 31
0.0
  0
LINE
  5
47
330
1F
100
AcDbEntity
  8
DEFAULT
100
AcDbLine
 10
2.759832000000003
 20
27.946963
 30
0.0
 11
2.753264000000001
 21
27.987001
 31
0.0
  0
LINE
  5
48
330
1F
100
AcDbEntity
  8
DEFAULT
100
AcDbLine
 10
23.71465600000001
 20
0.8420260000000006
 30
0.0
 11
23.71465600000001
 21
1.528175999999998
 31
0.0
  0
LINE
  5
49
330
1F
100
AcDbEntity
  8
DEFAULT
100
AcDbLine
 10
25.058286
 20
2.434055000000001
 30
0.0
 11
25.058286
 21
0.125
 31
0.0
  0
LINE
  5
4A
330
1F
100
AcDbEntity
  8
DEFAULT
100
AcDbLine
 10
22.295027
 20
28.073501
 30
0.0
 11
22.813776
 21
28.07401
 31
0.0
  0
LINE
  5
4B
330
1F
100
AcDbEntity
  8
DEFAULT
100
AcDbLine
 10
23.689774
 20
0.0590609999999998
 30
0.0
 11
23.689774
 21
1.510404000000001
 31
0.0
  0
LINE
  5
4C
330
1F
100
AcDbEntity
  8
DEFAULT
100
AcDbLine
 10
19.18520585688
 20
3.064590183044999
 30
0.0
 11
19.46397802686
 21
2.863356444219999
 31
0.0
  0
LINE
  5
4D
330
1F
100
AcDbEntity
  8
DEFAULT
100
AcDbLine
 10
14.358429
 20
4.651389999999999
 30
0.0
 11
19.18520585688
 21
3.064590183044999
 31
0.0
  0
LINE
  5
4E
330
1F
100
AcDbEntity
  8
DEFAULT
100
AcDbLine
 10
11.758343
 20
2.766535999999999
 30
0.0
 11
13.174942
 21
2.766535999999999
 31
0.0
  0
LINE
  5
4F
330
1F
100
AcDbEntity
  8
DEFAULT
100
AcDbLine
 10
4.617687000000004
 20
2.559055000000001
 30
0.0
 11
4.433626000000004
 21
2.559055000000001
 31
0.0
  0
LINE
  5
50
330
1F
100
AcDbEntity
  8
DEFAULT
100
AcDbLine
 10
11.791444
 20
2.559055000000001
 30
0.0
 11
11.607383
 21
2.559055000000001
 31
0.0
  0
LINE
  5
51
330
1F
100
AcDbEntity
  8
DEFAULT
100
AcDbLine
 10
11.79472799999999
 20
2.716536000000001
 30
0.0
 11
13.13855700000001
 21
2.716536000000001
 31
0.0
  0
LINE
  5
52
330
1F
100
AcDbEntity
  8
DEFAULT
100
AcDbLine
 10
0.1840609999999998
 20
2.559055000000001
 30
0.0
 11
0.0
 21
2.559055000000001
 31
0.0
  0
LINE
  5
53
330
1F
100
AcDbEntity
  8
DEFAULT
100
AcDbLine
 10
20.62466000000001
 20
2.434055000000001
 30
0.0
 11
20.62466000000001
 21
0.125
 31
0.0
  0
LINE
  5
54
330
1F
100
AcDbEntity
  8
DEFAULT
100
AcDbLine
 10
1.243511999999996
 20
0.0590550000000008
 30
0.0
 11
1.302566999999996
 21
0.0
 31
0.0
  0
LINE
  5
55
330
1F
100
AcDbEntity
  8
DEFAULT
100
AcDbLine
 10
2.677436
 20
27.368005
 30
0.0
 11
2.734059000000002
 21
27.495075
 31
0.0
  0
LINE
  5
56
330
1F
100
AcDbEntity
  8
DEFAULT
100
AcDbLine
 10
5.652255999999994
 20
0.8420260000000006
 30
0.0
 11
5.652255999999994
 21
1.528175999999998
 31
0.0
  0
LINE
  5
57
330
1F
100
AcDbEntity
  8
DEFAULT
100
AcDbLine
 10
22.75299100000001
 20
27.345545
 30
0.0
 11
22.255842
 21
27.368004
 31
0.0
  0
LINE
  5
58
330
1F
100
AcDbEntity
  8
DEFAULT
100
AcDbLine
 10
22.24737500000001
 20
28.061163
 30
0.0
 11
22.247371
 21
28.061161
 31
0.0
  0
LINE
  5
59
330
1F
100
AcDbEntity
  8
DEFAULT
100
AcDbLine
 10
18.95291
 20
2.699549000000001
 30
0.0
 11
18.999953
 21
2.161843999999999
 31
0.0
  0
LINE
  5
5A
330
1F
100
AcDbEntity
  8
DEFAULT
100
AcDbLine
 10
22.24737350000001
 20
28.0611605
 30
0.0
 11
23.469152
 21
28.11034
 31
0.0
  0
LINE
  5
5B
330
1F
100
AcDbEntity
  8
DEFAULT
100
AcDbLine
 10
22.18002200000001
 20
27.987001
 30
0.0
 11
22.24737350000001
 21
28.0611605
 31
0.0
  0
LINE
  5
5C
330
1F
100
AcDbEntity
  8
DEFAULT
100
AcDbLine
 10
22.17345400000001
 20
27.946963
 30
0.0
 11
22.18002200000001
 21
27.987001
 31
0.0
  0
LINE
  5
5D
330
1F
100
AcDbEntity
  8
DEFAULT
100
AcDbLine
 10
20.31559900000001
 20
2.559055000000001
 30
0.0
 11
20.49966000000001
 21
2.559055000000001
 31
0.0
  0
LINE
  5
5E
330
1F
100
AcDbEntity
  8
DEFAULT
100
AcDbLine
 10
21.16133500000001
 20
13.246916
 30
0.0
 11
21.161322
 21
13.164402
 31
0.0
  0
ARC
  5
5F
330
1F
100
AcDbEntity
  8
DEFAULT
100
AcDbCircle
 10
12.59909149570798
 20
3.256624503226594
 30
0.0
 40
0.5657138631049359
100
AcDbArc
 50
10.99963364178199
 51
103.5400777350585
  0
LINE
  5
60
330
1F
100
AcDbEntity
  8
DEFAULT
100
AcDbLine
 10
14.42514338965501
 20
11.38093899793
 30
0.0
 11
13.569006
 21
10.524804
 31
0.0
  0
LINE
  5
61
330
1F
100
AcDbEntity
  8
DEFAULT
100
AcDbLine
 10
14.50891461334
 20
11.49432076631
 30
0.0
 11
14.42514338965501
 21
11.38093899793
 31
0.0
  0
LINE
  5
62
330
1F
100
AcDbEntity
  8
DEFAULT
100
AcDbLine
 10
15.453442
 20
13.427658
 30
0.0
 11
14.50891461334
 21
11.49432076631
 31
0.0
  0
LINE
  5
63
330
1F
100
AcDbEntity
  8
DEFAULT
100
AcDbLine
 10
6.152145000000004
 20
2.559055000000001
 30
0.0
 11
5.968084000000005
 21
2.559055000000001
 31
0.0
  0
LINE
  5
64
330
1F
100
AcDbEntity
  8
DEFAULT
100
AcDbLine
 10
13.154375
 20
3.365513
 30
0.0
 11
13.174943
 21
2.766535999999999
 31
0.0
  0
LINE
  5
65
330
1F
100
AcDbEntity
  8
DEFAULT
100
AcDbLine
 10
1.718519999999998
 20
2.559055000000001
 30
0.0
 11
1.534458000000001
 21
2.559055000000001
 31
0.0
  0
LINE
  5
66
330
1F
100
AcDbEntity
  8
DEFAULT
100
AcDbLine
 10
12.10727199999999
 20
0.8420260000000006
 30
0.0
 11
12.10727199999999
 21
1.528175999999998
 31
0.0
  0
LINE
  5
67
330
1F
100
AcDbEntity
  8
DEFAULT
100
AcDbLine
 10
9.456125999999998
 20
13.634005
 30
0.0
 11
9.479844
 21
13.427658
 31
0.0
  0
ARC
  5
68
330
1F
100
AcDbEntity
  8
DEFAULT
100
AcDbCircle
 10
19.64040052446001
 20
2.050758743568549
 30
0.0
 40
0.6342236987375323
100
AcDbArc
 50
235.484452342808
 51
304.5155476571916
  0
LINE
  5
69
330
1F
100
AcDbEntity
  8
DEFAULT
100
AcDbLine
 10
21.16129100000001
 20
13.471728
 30
0.0
 11
21.161304
 21
13.554242
 31
0.0
  0
LINE
  5
6A
330
1F
100
AcDbEntity
  8
DEFAULT
100
AcDbLine
 10
4.552131000000003
 20
13.246482
 30
0.0
 11
3.207211999999998
 21
13.246069
 31
0.0
  0
LINE
  5
6B
330
1F
100
AcDbEntity
  8
DEFAULT
100
AcDbLine
 10
51.15883188683355
 20
14.743609
 30
0.0
 11
47.19194288683356
 21
15.125577
 31
0.0
  0
LINE
  5
6C
330
1F
100
AcDbEntity
  8
DEFAULT
100
AcDbLine
 10
46.21284388683355
 20
15.219854
 30
0.0
 11
45.29462388683355
 21
15.308268
 31
0.0
  0
ARC
  5
6D
330
1F
100
AcDbEntity
  8
DEFAULT
100
AcDbCircle
 10
50.33193068041358
 20
13.36023864261201
 30
0.0
 40
0.4756674263716285
100
AcDbArc
 50
193.6560388564143
 51
346.3132811801474
  0
SPLINE
  5
6E
330
1F
100
AcDbEntity
  8
DEFAULT
100
AcDbSpline
210
0.0
220
0.0
230
1.0
 70
     8
 71
     3
 72
    29
 73
    25
 74
     0
 42
0.0000000001
 43
0.0000000001
 40
0.0
 40
0.0
 40
0.0
 40
0.0
 40
1.0
 40
2.0
 40
3.0
 40
4.0
 40
5.0
 40
6.0
 40
7.0
 40
8.0
 40
9.0
 40
10.0
 40
11.0
 40
12.0
 40
13.0
 40
14.0
 40
15.0
 40
16.0
 40
17.0
 40
18.0
 40
19.0
 40
20.0
 40
21.0
 40
22.0
 40
22.0
 40
22.0
 40
22.0
 10
51.50380188683356
 20
18.965972
 30
0.0
 10
51.63028341659903
 20
18.96412851410844
 30
0.0
 10
51.88323521457664
 20
18.95959045656927
 30
0.0
 10
52.26256845433355
 20
18.9485117597603
 30
0.0
 10
52.64168709672761
 20
18.93148028716681
 30
0.0
 10
53.02039424033288
 20
18.90685941666214
 30
0.0
 10
53.39837169471336
 20
18.87267739275039
 30
0.0
 10
53.7751277802621
 20
18.82682881243146
 30
0.0
 10
54.15008120752306
 20
18.76805171725259
 30
0.0
 10
54.52252551869427
 20
18.69457503390441
 30
0.0
 10
54.88988685237817
 20
18.59874122655945
 30
0.0
 10
55.24842746329379
 20
18.4723352007316
 30
0.0
 10
55.58694268006903
 20
18.29931600104243
 30
0.0
 10
55.90542445782619
 20
18.09180577555333
 30
0.0
 10
56.18921801751696
 20
17.83720250167394
 30
0.0
 10
56.40889127566811
 20
17.52439914686774
 30
0.0
 10
56.55881247083398
 20
17.1748241669399
 30
0.0
 10
56.68246292325865
 20
16.81624635487041
 30
0.0
 10
56.78510209237903
 20
16.44941237511681
 30
0.0
 10
56.78944634152379
 20
16.06719463526679
 30
0.0
 10
56.69359561985428
 20
15.69216987525115
 30
0.0
 10
56.44013261462032
 20
15.3990156275634
 30
0.0
 10
56.10617224357345
 20
15.2128777954992
 30
0.0
 10
55.89935365298489
 20
15.06788292902321
 30
0.0
 10
55.79277988683356
 20
14.999566
 30
0.0
  0
LINE
  5
6F
330
1F
100
AcDbEntity
  8
DEFAULT
100
AcDbLine
 10
37.07697088683355
 20
2.716536236396425
 30
0.0
 11
37.09253665133689
 21
2.699549020605581
 31
0.0
  0
LINE
  5
70
330
1F
100
AcDbEntity
  8
DEFAULT
100
AcDbLine
 10
41.32935988683356
 20
15.01327
 30
0.0
 11
41.33308588683356
 21
15.093787
 31
0.0
  0
LINE
  5
71
330
1F
100
AcDbEntity
  8
DEFAULT
100
AcDbLine
 10
47.26055988683355
 20
9.516962
 30
0.0
 11
47.19042188683355
 21
6.722366000000001
 31
0.0
  0
CIRCLE
  5
72
330
1F
100
AcDbEntity
  8
DEFAULT
100
AcDbCircle
 10
52.57808888683356
 20
14.383071
 30
0.0
 40
0.4724409999999963
  0
SPLINE
  5
73
330
1F
100
AcDbEntity
  8
DEFAULT
100
AcDbSpline
210
0.0
220
0.0
230
1.0
 70
     8
 71
     3
 72
    20
 73
    16
 74
     0
 42
0.0000000001
 43
0.0000000001
 40
0.0
 40
0.0
 40
0.0
 40
0.0
 40
1.0
 40
2.0
 40
3.0
 40
4.0
 40
5.0
 40
6.0
 40
7.0
 40
8.0
 40
9.0
 40
10.0
 40
11.0
 40
12.0
 40
13.0
 40
13.0
 40
13.0
 40
13.0
 10
47.61820627290355
 20
6.436770703899999
 30
0.0
 10
47.72714552261425
 20
6.425652169010025
 30
0.0
 10
47.89644988565534
 20
6.287160519388188
 30
0.0
 10
48.09795142236693
 20
6.043643250328643
 30
0.0
 10
48.32591209530665
 20
5.821417532002691
 30
0.0
 10
48.55273546524291
 20
5.599409447653986
 30
0.0
 10
48.7834704709616
 20
5.381084567950001
 30
0.0
 10
49.01298659857
 20
5.161593169052185
 30
0.0
 10
49.2418786238615
 20
4.941421084993536
 30
0.0
 10
49.46974998326439
 20
4.720200621431704
 30
0.0
 10
49.69734576109288
 20
4.498695504518771
 30
0.0
 10
49.92535244916684
 20
4.27761384330908
 30
0.0
 10
50.15418462165355
 20
4.057383693544679
 30
0.0
 10
50.38425568370347
 20
3.83845429597925
 30
0.0
 10
50.53724400792609
 20
3.692077722353009
 30
0.0
 10
50.61537788683356
 20
3.620639000000001
 30
0.0
  0
LINE
  5
74
330
1F
100
AcDbEntity
  8
DEFAULT
100
AcDbLine
 10
50.61537788683356
 20
3.620639000000001
 30
0.0
 11
50.73887888683355
 21
3.342238999999999
 31
0.0
  0
SPLINE
  5
75
330
1F
100
AcDbEntity
  8
DEFAULT
100
AcDbSpline
210
0.0
220
0.0
230
1.0
 70
     8
 71
     3
 72
    12
 73
     8
 74
     0
 42
0.0000000001
 43
0.0000000001
 40
-5.0
 40
-5.0
 40
-5.0
 40
-5.0
 40
-4.0
 40
-3.0
 40
-2.0
 40
-1.0
 40
0.0
 40
0.0
 40
0.0
 40
0.0
 10
40.71025349579355
 20
16.21659531658
 30
0.0
 10
41.68814852520402
 20
16.29997818198324
 30
0.0
 10
43.64423774604111
 20
16.46367767229695
 30
0.0
 10
46.58137238834493
 20
16.67054227208724
 30
0.0
 10
49.52399609990107
 20
16.79203929954488
 30
0.0
 10
52.46936463835094
 20
16.7402746310355
 30
0.0
 10
54.42123442679337
 20
16.45119401748951
 30
0.0
 10
55.35253338102355
 20
16.13326938637
 30
0.0
  0
ARC
  5
76
330
1F
100
AcDbEntity
  8
DEFAULT
100
AcDbCircle
 10
40.75812431697671
 20
14.58955119212251
 30
0.0
 40
1.627748198724975
100
AcDbArc
 50
91.6852677502954
 51
119.1243760036952
  0
LINE
  5
77
330
1F
100
AcDbEntity
  8
DEFAULT
100
AcDbLine
 10
39.02813801856355
 20
15.02296307518
 30
0.0
 11
39.96588775171355
 21
16.01149543263
 31
0.0
  0
LINE
  5
78
330
1F
100
AcDbEntity
  8
DEFAULT
100
AcDbLine
 10
38.97765629823355
 20
14.98313324452
 30
0.0
 11
39.02813801856355
 21
15.02296307518
 31
0.0
  0
LINE
  5
79
330
1F
100
AcDbEntity
  8
DEFAULT
100
AcDbLine
 10
49.38370588683355
 20
2.766535999999999
 30
0.0
 11
49.31639988683355
 21
3.294561000000002
 31
0.0
  0
LINE
  5
7A
330
1F
100
AcDbEntity
  8
DEFAULT
100
AcDbLine
 10
21.161304
 20
13.554242
 30
0.0
 11
20.61128500000001
 21
13.554242
 31
0.0
  0
SPLINE
  5
7B
330
1F
100
AcDbEntity
  8
DEFAULT
100
AcDbSpline
210
0.0
220
0.0
230
1.0
 70
     8
 71
     3
 72
    12
 73
     8
 74
     0
 42
0.0000000001
 43
0.0000000001
 40
0.0
 40
0.0
 40
0.0
 40
0.0
 40
1.0
 40
2.0
 40
3.0
 40
4.0
 40
5.0
 40
5.0
 40
5.0
 40
5.0
 10
10.12469309828001
 20
4.729964216950002
 30
0.0
 10
10.21773133886738
 20
4.72355577916553
 30
0.0
 10
10.40272229323031
 20
4.696962308048541
 30
0.0
 10
10.67388113975412
 20
4.627773619713771
 30
0.0
 10
10.93744069235726
 20
4.529954111294916
 30
0.0
 10
11.18306579328429
 20
4.402255900551779
 30
0.0
 10
11.32798860154129
 20
4.264480940083022
 30
0.0
 10
11.328495
 20
4.166142000000001
 30
0.0
  0
LINE
  5
7C
330
1F
100
AcDbEntity
  8
DEFAULT
100
AcDbLine
 10
11.584756
 20
9.619288999999998
 30
0.0
 11
11.484962
 21
9.516957999999999
 31
0.0
  0
LINE
  5
7D
330
1F
100
AcDbEntity
  8
DEFAULT
100
AcDbLine
 10
4.433626000000004
 20
2.559055000000001
 30
0.0
 11
4.433626000000004
 21
0.0
 31
0.0
  0
LINE
  5
7E
330
1F
100
AcDbEntity
  8
DEFAULT
100
AcDbLine
 10
1.218630000000005
 20
0.8420279999999991
 30
0.0
 11
0.4998899999999935
 21
0.8420279999999991
 31
0.0
  0
LINE
  5
7F
330
1F
100
AcDbEntity
  8
DEFAULT
100
AcDbLine
 10
12.90995055926
 20
1.603564519590002
 30
0.0
 11
12.85089544115
 21
1.510403866539999
 31
0.0
  0
LINE
  5
80
330
1F
100
AcDbEntity
  8
DEFAULT
100
AcDbLine
 10
24.63604821773
 20
1.814273533049999
 30
0.0
 11
24.51733329613
 21
1.603564519590002
 31
0.0
  0
LINE
  5
81
330
1F
100
AcDbEntity
  8
DEFAULT
100
AcDbLine
 10
23.6307191229
 20
1.603564519590002
 30
0.0
 11
23.51200420131001
 21
1.814273533049999
 31
0.0
  0
LINE
  5
82
330
1F
100
AcDbEntity
  8
DEFAULT
100
AcDbLine
 10
4.752034000000009
 20
13.246775
 30
0.0
 11
4.752012000000008
 21
13.471775
 31
0.0
  0
LINE
  5
83
330
1F
100
AcDbEntity
  8
DEFAULT
100
AcDbLine
 10
24.71463348527
 20
2.163622138059999
 30
0.0
 11
24.63604821773
 21
1.814273533049999
 31
0.0
  0
LINE
  5
84
330
1F
100
AcDbEntity
  8
DEFAULT
100
AcDbLine
 10
20.083708
 20
0.0
 30
0.0
 11
20.024653
 21
0.0590550000000007
 31
0.0
  0
LINE
  5
85
330
1F
100
AcDbEntity
  8
DEFAULT
100
AcDbLine
 10
20.381252
 20
13.471692
 30
0.0
 11
20.181274
 21
13.471775
 31
0.0
  0
LINE
  5
86
330
1F
100
AcDbEntity
  8
DEFAULT
100
AcDbLine
 10
1.665856553720005
 20
3.045418127809999
 30
0.0
 11
1.542569999999998
 21
2.865670000000001
 31
0.0
  0
LINE
  5
87
330
1F
100
AcDbEntity
  8
DEFAULT
100
AcDbLine
 10
9.892033193144997
 20
4.717333876135001
 30
0.0
 11
1.665856553720005
 21
3.045418127809999
 31
0.0
  0
ARC
  5
88
330
1F
100
AcDbEntity
  8
DEFAULT
100
AcDbCircle
 10
10.06028898514584
 20
2.404666518010674
 30
0.0
 40
2.318779920750476
100
AcDbArc
 50
50.32453678471084
 51
94.16116537244122
  0
LINE
  5
89
330
1F
100
AcDbEntity
  8
DEFAULT
100
AcDbLine
 10
18.78114100000001
 20
0.0
 30
0.0
 11
19.197093
 21
0.0
 31
0.0
  0
LINE
  5
8A
330
1F
100
AcDbEntity
  8
DEFAULT
100
AcDbLine
 10
12.90995100000001
 20
0.0
 30
0.0
 11
13.325903
 21
0.0
 31
0.0
  0
LINE
  5
8B
330
1F
100
AcDbEntity
  8
DEFAULT
100
AcDbLine
 10
23.390693
 20
2.864996000000001
 30
0.0
 11
23.387256
 21
2.766535999999999
 31
0.0
  0
ARC
  5
8C
330
1F
100
AcDbEntity
  8
DEFAULT
100
AcDbCircle
 10
18.78114100000001
 20
2.434055000000002
 30
0.0
 40
0.125
100
AcDbArc
 50
90.0
 51
180.0000000000004
  0
LINE
  5
8D
330
1F
100
AcDbEntity
  8
DEFAULT
100
AcDbLine
 10
23.689774
 20
0.0590550000000008
 30
0.0
 11
23.630719
 21
0.0
 31
0.0
  0
SPLINE
  5
8E
330
1F
100
AcDbEntity
  8
DEFAULT
100
AcDbSpline
210
0.0
220
0.0
230
1.0
 70
     8
 71
     3
 72
    24
 73
    20
 74
     0
 42
0.0000000001
 43
0.0000000001
 40
0.0
 40
0.0
 40
0.0
 40
0.0
 40
0.07715671941002
 40
0.1702225681787
 40
0.2655326468086
 40
0.3559272967056
 40
0.4393819603914
 40
0.5147685145828
 40
0.5807028313599
 40
0.6367190125566
 40
0.6826906877213
 40
0.7199123792478
 40
0.7515826633142
 40
0.7832529474155
 40
0.8204746391833
 40
0.8664463143469
 40
0.9224624960007
 40
0.9883968126878
 40
1.0
 40
1.0
 40
1.0
 40
1.0
 10
12.46664347264
 20
10.16913266352
 30
0.0
 10
12.50157780489999
 20
10.16913266352
 30
0.0
 10
12.57865563855
 20
10.16779094048
 30
0.0
 10
12.69872748762
 20
10.16100799369
 30
0.0
 10
12.82433424003
 20
10.14807452431
 30
0.0
 10
12.94481171426
 20
10.12931577296
 30
0.0
 10
13.0551712717
 20
10.10539295835
 30
0.0
 10
13.15297408658
 20
10.07687422145
 30
0.0
 10
13.23634715586
 20
10.0443485401
 30
0.0
 10
13.30367768970001
 20
10.00850308599
 30
0.0
 10
13.35391241204
 20
9.969788480480002
 30
0.0
 10
13.38643886830999
 20
9.928070059629999
 30
0.0
 10
13.39842563704001
 20
9.882362684450001
 30
0.0
 10
13.38643886822
 20
9.836655309240001
 30
0.0
 10
13.35391241223
 20
9.79493688797
 30
0.0
 10
13.30367768933
 20
9.75622228273
 30
0.0
 10
13.23634715637
 20
9.72037682665
 30
0.0
 10
13.17992196582
 20
9.69836411087
 30
0.0
 10
13.14662610343001
 20
9.687198464529999
 30
0.0
 10
13.14163233039
 20
9.685562185639998
 30
0.0
  0
LINE
  5
8F
330
1F
100
AcDbEntity
  8
DEFAULT
100
AcDbLine
 10
20.312315
 20
2.716536000000001
 30
0.0
 11
18.96848700000001
 21
2.716536000000001
 31
0.0
  0
LINE
  5
90
330
1F
100
AcDbEntity
  8
DEFAULT
100
AcDbLine
 10
19.25614849999999
 20
0.0590550000000008
 30
0.0
 11
19.197093
 21
-0.0000004999999987
 31
0.0
  0
ARC
  5
91
330
1F
100
AcDbEntity
  8
DEFAULT
100
AcDbCircle
 10
12.46664300000003
 20
41.67413899999993
 30
0.0
 40
27.33464376152493
100
AcDbArc
 50
277.4468636414072
 51
288.4168400129549
  0
ARC
  5
92
330
1F
100
AcDbEntity
  8
DEFAULT
100
AcDbCircle
 10
20.49966000000001
 20
2.434055000000003
 30
0.0
 40
0.1249999999999982
100
AcDbArc
 50
359.9999999999992
 51
90.00000000000163
  0
LINE
  5
93
330
1F
100
AcDbEntity
  8
DEFAULT
100
AcDbLine
 10
24.28859300000001
 20
2.766535999999999
 30
0.0
 11
24.28859300000001
 21
2.716536000000001
 31
0.0
  0
LINE
  5
94
330
1F
100
AcDbEntity
  8
DEFAULT
100
AcDbLine
 10
14.913072
 20
13.217547
 30
0.0
 11
15.47716
 21
13.634005
 31
0.0
  0
LINE
  5
95
330
1F
100
AcDbEntity
  8
DEFAULT
100
AcDbLine
 10
14.913072
 20
13.217547
 30
0.0
 11
14.27038899999999
 21
12.561849
 31
0.0
  0
LINE
  5
96
330
1F
100
AcDbEntity
  8
DEFAULT
100
AcDbLine
 10
0.1873460000000051
 20
2.716536000000001
 30
0.0
 11
1.531173999999993
 21
2.716536000000001
 31
0.0
  0
LINE
  5
97
330
1F
100
AcDbEntity
  8
DEFAULT
100
AcDbLine
 10
23.26742944628
 20
3.045418127809999
 30
0.0
 11
23.390716
 21
2.865670000000001
 31
0.0
  0
LINE
  5
98
330
1F
100
AcDbEntity
  8
DEFAULT
100
AcDbLine
 10
15.041252806855
 20
4.717333876135001
 30
0.0
 11
23.26742944628
 21
3.045418127809999
 31
0.0
  0
ARC
  5
99
330
1F
100
AcDbEntity
  8
DEFAULT
100
AcDbCircle
 10
14.87299701485416
 20
2.404666518010712
 30
0.0
 40
2.318779920750438
100
AcDbArc
 50
85.83883462755873
 51
129.6754632152895
  0
ARC
  5
9A
330
1F
100
AcDbEntity
  8
DEFAULT
100
AcDbCircle
 10
11.18477792764755
 20
137.7146629716357
 30
0.0
 40
89.91366288646732
100
AcDbArc
 50
264.2103203859313
 51
270.8168719235885
  0
LINE
  5
9B
330
1F
100
AcDbEntity
  8
DEFAULT
100
AcDbLine
 10
13.164191
 20
46.33760708218657
 30
0.0
 11
13.21809500000001
 21
47.81322608218656
 31
0.0
  0
LINE
  5
9C
330
1F
100
AcDbEntity
  8
DEFAULT
100
AcDbLine
 10
0.4750080000000025
 20
56.68829008218658
 30
0.0
 11
0.4159530000000018
 21
56.74734508218658
 31
0.0
  0
LINE
  5
9D
330
1F
100
AcDbEntity
  8
DEFAULT
100
AcDbLine
 10
2.729035464899994
 20
63.96045443018657
 30
0.0
 11
2.694886724360003
 21
64.04822040472655
 31
0.0
  0
SPLINE
  5
9E
330
1F
100
AcDbEntity
  8
DEFAULT
100
AcDbSpline
210
0.0
220
0.0
230
1.0
 70
     8
 71
     2
 72
    13
 73
    10
 74
     0
 42
0.0000000001
 43
0.0000000001
 40
0.0
 40
0.0
 40
0.0
 40
1.0
 40
2.0
 40
3.0
 40
4.0
 40
5.0
 40
6.0
 40
7.0
 40
8.0
 40
8.0
 40
8.0
 10
2.729034999999996
 20
63.96045408218655
 30
0.0
 10
3.338829863147737
 20
63.96264068290109
 30
0.0
 10
4.557460500022785
 20
64.01260460777522
 30
0.0
 10
5.77250775141087
 20
64.1177595204037
 30
0.0
 10
6.986610645022665
 20
64.23208818209818
 30
0.0
 10
8.202400026628766
 20
64.32725352958357
 30
0.0
 10
9.419404699632494
 20
64.40526260448681
 30
0.0
 10
10.63768483785128
 20
64.46010440149664
 30
0.0
 10
11.8568693318097
 20
64.48926153493716
 30
0.0
 10
12.466643
 20
64.48935308218657
 30
0.0
  0
LINE
  5
9F
330
1F
100
AcDbEntity
  8
DEFAULT
100
AcDbLine
 10
2.978175160450007
 20
70.16870684091657
 30
0.0
 11
2.700975657469996
 21
65.85168508517657
 31
0.0
  0
ARC
  5
A0
330
1F
100
AcDbEntity
  8
DEFAULT
100
AcDbCircle
 10
24.07402001080716
 20
54.54262101102918
 30
0.0
 40
0.7086614608791953
100
AcDbArc
 50
278.6359040771111
 51
70.16945593337532
  0
LINE
  5
A1
330
1F
100
AcDbEntity
  8
DEFAULT
100
AcDbLine
 10
24.17870137948202
 20
55.23902745199554
 30
0.0
 11
24.31442593537183
 21
55.20925888691808
 31
0.0
  0
LINE
  5
A2
330
1F
100
AcDbEntity
  8
DEFAULT
100
AcDbLine
 10
24.15284085584386
 20
55.24782172535538
 30
0.0
 11
24.17870137948202
 21
55.23902745199554
 31
0.0
  0
LINE
  5
A3
330
1F
100
AcDbEntity
  8
DEFAULT
100
AcDbLine
 10
22.81884736378001
 20
48.25976567091656
 30
0.0
 11
22.55255274141001
 21
56.83937614338655
 31
0.0
  0
LINE
  5
A4
330
1F
100
AcDbEntity
  8
DEFAULT
100
AcDbLine
 10
12.252076
 20
2.766535999999999
 30
0.0
 11
12.252076
 21
2.716536000000001
 31
0.0
  0
LINE
  5
A5
330
1F
100
AcDbEntity
  8
DEFAULT
100
AcDbLine
 10
5.980376000000007
 20
2.699549000000001
 30
0.0
 11
5.933333000000005
 21
2.161843999999999
 31
0.0
  0
LINE
  5
A6
330
1F
100
AcDbEntity
  8
DEFAULT
100
AcDbLine
 10
8.927764999999994
 20
13.615355
 30
0.0
 11
8.927764999999994
 21
15.102307
 31
0.0
  0
LINE
  5
A7
330
1F
100
AcDbEntity
  8
DEFAULT
100
AcDbLine
 10
12.082391
 20
1.510404000000001
 30
0.0
 11
12.082391
 21
0.0590609999999998
 31
0.0
  0
LINE
  5
A8
330
1F
100
AcDbEntity
  8
DEFAULT
100
AcDbLine
 10
11.590658
 20
4.166142000000001
 30
0.0
 11
11.590658
 21
2.557811999999998
 31
0.0
  0
LINE
  5
A9
330
1F
100
AcDbEntity
  8
DEFAULT
100
AcDbLine
 10
5.652255999999994
 20
0.8420279999999991
 30
0.0
 11
4.933515
 21
0.8420279999999991
 31
0.0
  0
LINE
  5
AA
330
1F
100
AcDbEntity
  8
DEFAULT
100
AcDbLine
 10
1.718519999999998
 20
0.0
 30
0.0
 11
1.302566999999996
 21
0.0
 31
0.0
  0
LINE
  5
AB
330
1F
100
AcDbEntity
  8
DEFAULT
100
AcDbLine
 10
12.023335
 20
0.0
 30
0.0
 11
11.607383
 21
0.0
 31
0.0
  0
LINE
  5
AC
330
1F
100
AcDbEntity
  8
DEFAULT
100
AcDbLine
 10
1.218630000000005
 20
0.8420260000000006
 30
0.0
 11
1.218630000000005
 21
1.528175999999998
 31
0.0
  0
LINE
  5
AD
330
1F
100
AcDbEntity
  8
DEFAULT
100
AcDbLine
 10
3.772019999999998
 20
13.164242
 30
0.0
 11
3.771963999999997
 21
13.164402
 31
0.0
  0
LINE
  5
AE
330
1F
100
AcDbEntity
  8
DEFAULT
100
AcDbLine
 10
1.843519999999998
 20
2.434055000000001
 30
0.0
 11
1.843519999999998
 21
0.125
 31
0.0
  0
LINE
  5
AF
330
1F
100
AcDbEntity
  8
DEFAULT
100
AcDbLine
 10
4.605395000000001
 20
2.699549000000001
 30
0.0
 11
4.652401999999995
 21
2.162262000000002
 31
0.0
  0
LINE
  5
B0
330
1F
100
AcDbEntity
  8
DEFAULT
100
AcDbLine
 10
3.771982000000008
 20
13.554242
 30
0.0
 11
3.771924999999996
 21
13.554402
 31
0.0
  0
LINE
  5
B1
330
1F
100
AcDbEntity
  8
DEFAULT
100
AcDbLine
 10
0.4159530000000018
 20
0.0
 30
0.0
 11
0.0
 21
0.0
 31
0.0
  0
LINE
  5
B2
330
1F
100
AcDbEntity
  8
DEFAULT
100
AcDbLine
 10
6.152145000000004
 20
0.0
 30
0.0
 11
5.736193
 21
0.0
 31
0.0
  0
LINE
  5
B3
330
1F
100
AcDbEntity
  8
DEFAULT
100
AcDbLine
 10
2.180295000000001
 20
27.345545
 30
0.0
 11
2.677444000000008
 21
27.368004
 31
0.0
  0
LINE
  5
B4
330
1F
100
AcDbEntity
  8
DEFAULT
100
AcDbLine
 10
11.484959
 20
9.516962
 30
0.0
 11
11.555092
 21
6.722591999999999
 31
0.0
  0
LINE
  5
B5
330
1F
100
AcDbEntity
  8
DEFAULT
100
AcDbLine
 10
2.592108999999994
 20
13.47129
 30
0.0
 11
2.592130999999995
 21
13.24629
 31
0.0
  0
LINE
  5
B6
330
1F
100
AcDbEntity
  8
DEFAULT
100
AcDbLine
 10
12.826013
 20
0.8420279999999991
 30
0.0
 11
12.10727199999999
 21
0.8420279999999991
 31
0.0
  0
LINE
  5
B7
330
1F
100
AcDbEntity
  8
DEFAULT
100
AcDbLine
 10
4.849578000000008
 20
0.0
 30
0.0
 11
4.433626000000004
 21
0.0
 31
0.0
  0
LINE
  5
B8
330
1F
100
AcDbEntity
  8
DEFAULT
100
AcDbLine
 10
1.243511999999996
 20
0.0590609999999998
 30
0.0
 11
1.243511999999996
 21
1.510404000000001
 31
0.0
  0
LINE
  5
B9
330
1F
100
AcDbEntity
  8
DEFAULT
100
AcDbLine
 10
1.546750000000003
 20
2.699549000000001
 30
0.0
 11
1.499707000000001
 21
2.161843999999999
 31
0.0
  0
ARC
  5
BA
330
1F
100
AcDbEntity
  8
DEFAULT
100
AcDbCircle
 10
-0.0000000000000016
 20
0.1249999999999985
 30
0.0
 40
0.1249999999999984
100
AcDbArc
 50
179.9999999999993
 51
270.0000000000007
  0
ARC
  5
BB
330
1F
100
AcDbEntity
  8
DEFAULT
100
AcDbCircle
 10
4.433626
 20
0.1249999999999961
 30
0.0
 40
0.1249999999999964
100
AcDbArc
 50
179.9999999999982
 51
270.0000000000016
  0
ARC
  5
BC
330
1F
100
AcDbEntity
  8
DEFAULT
100
AcDbCircle
 10
1.71852
 20
0.1249999999999985
 30
0.0
 40
0.1249999999999985
100
AcDbArc
 50
269.9999999999993
 51
0.0000000000006806
  0
LINE
  5
BD
330
1F
100
AcDbEntity
  8
DEFAULT
100
AcDbLine
 10
10.662897
 20
12.561849
 30
0.0
 11
11.32065299999999
 21
11.2155
 31
0.0
  0
LINE
  5
BE
330
1F
100
AcDbEntity
  8
DEFAULT
100
AcDbLine
 10
5.677137500000001
 20
0.0590550000000008
 30
0.0
 11
5.736193
 21
-0.0000004999999987
 31
0.0
  0
LINE
  5
BF
330
1F
100
AcDbEntity
  8
DEFAULT
100
AcDbLine
 10
2.685911000000004
 20
28.061163
 30
0.0
 11
2.685914999999994
 21
28.061161
 31
0.0
  0
LINE
  5
C0
330
1F
100
AcDbEntity
  8
DEFAULT
100
AcDbLine
 10
11.91546099999999
 20
9.64912
 30
0.0
 11
11.91546099999999
 21
9.619292000000002
 31
0.0
  0
LINE
  5
C1
330
1F
100
AcDbEntity
  8
DEFAULT
100
AcDbLine
 10
13.141842
 20
2.559055000000001
 30
0.0
 11
13.325903
 21
2.559055000000001
 31
0.0
  0
LINE
  5
C2
330
1F
100
AcDbEntity
  8
DEFAULT
100
AcDbLine
 10
2.750248999999997
 20
27.393358
 30
0.0
 11
2.582228999999998
 21
18.96937
 31
0.0
  0
LINE
  5
C3
330
1F
100
AcDbEntity
  8
DEFAULT
100
AcDbLine
 10
2.987143000000003
 20
39.371079
 30
0.0
 11
2.750248999999997
 21
27.393358
 31
0.0
  0
LINE
  5
C4
330
1F
100
AcDbEntity
  8
DEFAULT
100
AcDbLine
 10
3.000357500000007
 20
40.048206
 30
0.0
 11
2.987143000000003
 21
39.371079
 31
0.0
  0
LINE
  5
C5
330
1F
100
AcDbEntity
  8
DEFAULT
100
AcDbLine
 10
5.422758000000002
 20
40.052551
 30
0.0
 11
3.000357500000007
 21
40.048206
 31
0.0
  0
LINE
  5
C6
330
1F
100
AcDbEntity
  8
DEFAULT
100
AcDbLine
 10
12.466643
 20
40.042443
 30
0.0
 11
5.422758000000002
 21
40.052551
 31
0.0
  0
ARC
  5
C7
330
1F
100
AcDbEntity
  8
DEFAULT
100
AcDbCircle
 10
-205.3608821433653
 20
23.27259799133781
 30
0.0
 40
228.109411898847
100
AcDbArc
 50
358.8889349370056
 51
1.142135066686374
  0
ARC
  5
C8
330
1F
100
AcDbEntity
  8
DEFAULT
100
AcDbCircle
 10
12.46664300000005
 20
41.67413900000019
 30
0.0
 40
27.33464376152519
100
AcDbArc
 50
251.5831599870451
 51
262.5531363585927
  0
SPLINE
  5
C9
330
1F
100
AcDbEntity
  8
DEFAULT
100
AcDbSpline
210
0.0
220
0.0
230
1.0
 70
     8
 71
     3
 72
    24
 73
    20
 74
     0
 42
0.0000000001
 43
0.0000000001
 40
0.0
 40
0.0
 40
0.0
 40
0.0
 40
0.07715671941002
 40
0.1702225681787
 40
0.2655326468086
 40
0.3559272967056
 40
0.4393819603914
 40
0.5147685145828
 40
0.5807028313599
 40
0.6367190125566
 40
0.6826906877213
 40
0.7199123792478
 40
0.7515826633142
 40
0.7832529474155
 40
0.8204746391833
 40
0.8664463143469
 40
0.9224624960007
 40
0.9883968126878
 40
1.0
 40
1.0
 40
1.0
 40
1.0
 10
12.46664252735999
 20
10.16913266352
 30
0.0
 10
12.4317081951
 20
10.16913266352
 30
0.0
 10
12.35463036145001
 20
10.16779094048
 30
0.0
 10
12.23455851238
 20
10.16100799369
 30
0.0
 10
12.10895175997
 20
10.14807452431
 30
0.0
 10
11.98847428574
 20
10.12931577296
 30
0.0
 10
11.87811472830001
 20
10.10539295835
 30
0.0
 10
11.78031191342001
 20
10.07687422145
 30
0.0
 10
11.69693884413999
 20
10.0443485401
 30
0.0
 10
11.6296083103
 20
10.00850308599
 30
0.0
 10
11.57937358795999
 20
9.969788480480002
 30
0.0
 10
11.54684713169
 20
9.928070059629999
 30
0.0
 10
11.53486036296
 20
9.882362684450001
 30
0.0
 10
11.54684713178
 20
9.836655309240001
 30
0.0
 10
11.57937358776999
 20
9.79493688797
 30
0.0
 10
11.62960831066999
 20
9.75622228273
 30
0.0
 10
11.69693884362999
 20
9.72037682665
 30
0.0
 10
11.75336403418001
 20
9.69836411087
 30
0.0
 10
11.78665989657
 20
9.687198464529999
 30
0.0
 10
11.79165366961
 20
9.685562185639998
 30
0.0
  0
ARC
  5
CA
330
1F
100
AcDbEntity
  8
DEFAULT
100
AcDbCircle
 10
13.32590300000001
 20
2.43405500000001
 30
0.0
 40
0.1249999999999911
100
AcDbArc
 50
359.9999999999959
 51
90.00000000000406
  0
ARC
  5
CB
330
1F
100
AcDbEntity
  8
DEFAULT
100
AcDbCircle
 10
24.07402620952
 20
2.05075874356855
 30
0.0
 40
0.6342236987375317
100
AcDbArc
 50
235.4844523428084
 51
304.5155476571916
  0
SPLINE
  5
CC
330
1F
100
AcDbEntity
  8
DEFAULT
100
AcDbSpline
210
0.0
220
0.0
230
1.0
 70
     8
 71
     3
 72
    19
 73
    15
 74
     0
 42
0.0000000001
 43
0.0000000001
 40
0.0
 40
0.0
 40
0.0
 40
0.0
 40
0.1235919666214
 40
0.2451043183287
 40
0.3625079393068
 40
0.4738760400769
 40
0.5774394841606
 40
0.6716499905291
 40
0.7552606378014
 40
0.8274447239784
 40
0.8880009336909
 40
0.937747797675
 40
0.9792454826625
 40
1.0
 40
1.0
 40
1.0
 40
1.0
 10
12.46664347264
 20
12.33299688516
 30
0.0
 10
12.52026436416
 20
12.33299688516
 30
0.0
 10
12.62661791654
 20
12.33076782654
 30
0.0
 10
12.78362303511
 20
12.32077308052
 30
0.0
 10
12.93475869844001
 20
12.30432864715
 30
0.0
 10
13.07722953146001
 20
12.2817509192
 30
0.0
 10
13.208417973
 20
12.25347422501
 30
0.0
 10
13.32593809114
 20
12.22004220709
 30
0.0
 10
13.42770017773
 20
12.18208443348
 30
0.0
 10
13.51198978390001
 20
12.14028657017
 30
0.0
 10
13.57753924622
 20
12.09522605562
 30
0.0
 10
13.62351890953001
 20
12.04716685055
 30
0.0
 10
13.64515556075
 20
12.00228729552
 30
0.0
 10
13.64779661881001
 20
11.97497483116
 30
0.0
 10
13.64763395221
 20
11.96589126526
 30
0.0
  0
LINE
  5
CD
330
1F
100
AcDbEntity
  8
DEFAULT
100
AcDbLine
 10
19.19709343785
 20
1.603564519590002
 30
0.0
 11
19.07837851625
 21
1.814273533049999
 31
0.0
  0
ARC
  5
CE
330
1F
100
AcDbEntity
  8
DEFAULT
100
AcDbCircle
 10
13.325903
 20
0.1249999999999929
 30
0.0
 40
0.1249999999999929
100
AcDbArc
 50
269.9999999999968
 51
0.0000000000032696
  0
ARC
  5
CF
330
1F
100
AcDbEntity
  8
DEFAULT
100
AcDbCircle
 10
23.21476600000001
 20
0.1250000000000112
 30
0.0
 40
0.1250000000000112
100
AcDbArc
 50
180.0000000000051
 51
269.9999999999951
  0
LINE
  5
D0
330
1F
100
AcDbEntity
  8
DEFAULT
100
AcDbLine
 10
9.075401999999997
 20
13.615355
 30
0.0
 11
8.927764999999994
 21
13.615355
 31
0.0
  0
LINE
  5
D1
330
1F
100
AcDbEntity
  8
DEFAULT
100
AcDbLine
 10
23.38653623549666
 20
2.699549020605581
 30
0.0
 11
23.402102
 21
2.716536236396425
 31
0.0
  0
LINE
  5
D2
330
1F
100
AcDbEntity
  8
DEFAULT
100
AcDbLine
 10
13.45936797502
 20
9.95003317902
 30
0.0
 11
13.64772578942001
 21
11.9658897735
 31
0.0
  0
ARC
  5
D3
330
1F
100
AcDbEntity
  8
DEFAULT
100
AcDbCircle
 10
13.06621690724451
 20
10.09926686709702
 30
0.0
 40
0.4205216471836801
100
AcDbArc
 50
280.3311598291973
 51
339.2140606617519
  0
LINE
  5
D4
330
1F
100
AcDbEntity
  8
DEFAULT
100
AcDbLine
 10
12.46664347264
 20
9.577842257099999
 30
0.0
 11
13.14163208449
 21
9.685562854739999
 31
0.0
  0
LINE
  5
D5
330
1F
100
AcDbEntity
  8
DEFAULT
100
AcDbLine
 10
19.07837851625
 20
1.814273533049999
 30
0.0
 11
18.99981536168001
 21
2.163334469540001
 31
0.0
  0
LINE
  5
D6
330
1F
100
AcDbEntity
  8
DEFAULT
100
AcDbLine
 10
18.95291023549666
 20
2.699549020605581
 30
0.0
 11
18.96847600000001
 21
2.716536236396425
 31
0.0
  0
ARC
  5
D7
330
1F
100
AcDbEntity
  8
DEFAULT
100
AcDbCircle
 10
13.23094207393321
 20
55.84690156774349
 30
0.0
 40
40.85448552498923
100
AcDbArc
 50
268.9280580005973
 51
283.5727846208085
  0
SPLINE
  5
D8
330
1F
100
AcDbEntity
  8
DEFAULT
100
AcDbSpline
210
0.0
220
0.0
230
1.0
 70
     8
 71
     3
 72
    19
 73
    15
 74
     0
 42
0.0000000001
 43
0.0000000001
 40
0.0
 40
0.0
 40
0.0
 40
0.0
 40
0.1011763222572
 40
0.2232144367775
 40
0.3481954240116
 40
0.4667307689401
 40
0.576165643506
 40
0.6750207307125
 40
0.7614810123431
 40
0.8349355497899
 40
0.8952186339714
 40
0.9440277832864
 40
0.9855573206089
 40
1.0
 40
1.0
 40
1.0
 40
1.0
 10
12.46664347264
 20
10.2732567463
 30
0.0
 10
12.50406507897
 20
10.2732567463
 30
0.0
 10
12.58663074418
 20
10.27181949255
 30
0.0
 10
12.71525153722
 20
10.26455363124
 30
0.0
 10
12.84980130727
 20
10.25069929214
 30
0.0
 10
12.97885660443001
 20
10.23060495602
 30
0.0
 10
13.09707360281
 20
10.20497886796
 30
0.0
 10
13.20183983589
 20
10.17442963664
 30
0.0
 10
13.29114894751001
 20
10.13958817522
 30
0.0
 10
13.36327331686999
 20
10.10119057466
 30
0.0
 10
13.41708467907
 20
10.05971954588
 30
0.0
 10
13.45192697134
 20
10.01503083324
 30
0.0
 10
13.46212969219
 20
9.97612630459
 30
0.0
 10
13.46023431725
 20
9.955344243910002
 30
0.0
 10
13.45931869938001
 20
9.950041687679999
 30
0.0
  0
LINE
  5
D9
330
1F
100
AcDbEntity
  8
DEFAULT
100
AcDbLine
 10
2.073352
 20
17.097664
 30
0.0
 11
2.112742999999995
 21
17.109904
 31
0.0
  0
LINE
  5
DA
330
1F
100
AcDbEntity
  8
DEFAULT
100
AcDbLine
 10
2.039864499999993
 20
17.0940525
 30
0.0
 11
2.073352
 21
17.097664
 31
0.0
  0
LINE
  5
DB
330
1F
100
AcDbEntity
  8
DEFAULT
100
AcDbLine
 10
1.329809499999996
 20
17.0943485
 30
0.0
 11
2.039864499999993
 21
17.0940525
 31
0.0
  0
LINE
  5
DC
330
1F
100
AcDbEntity
  8
DEFAULT
100
AcDbLine
 10
1.303233000000006
 20
17.096788
 30
0.0
 11
1.329809499999996
 21
17.0943485
 31
0.0
  0
LINE
  5
DD
330
1F
100
AcDbEntity
  8
DEFAULT
100
AcDbLine
 10
1.183055999999993
 20
17.1628395
 30
0.0
 11
1.303233000000006
 21
17.096788
 31
0.0
  0
LINE
  5
DE
330
1F
100
AcDbEntity
  8
DEFAULT
100
AcDbLine
 10
1.132928000000007
 20
17.287283
 30
0.0
 11
1.183055999999993
 21
17.1628395
 31
0.0
  0
LINE
  5
DF
330
1F
100
AcDbEntity
  8
DEFAULT
100
AcDbLine
 10
0.7724979999999988
 20
26.402978
 30
0.0
 11
1.132928000000007
 21
17.287283
 31
0.0
  0
LINE
  5
E0
330
1F
100
AcDbEntity
  8
DEFAULT
100
AcDbLine
 10
0.7573710000000062
 20
26.860059
 30
0.0
 11
0.7724979999999988
 21
26.402978
 31
0.0
  0
LINE
  5
E1
330
1F
100
AcDbEntity
  8
DEFAULT
100
AcDbLine
 10
0.7483110000000011
 20
27.17607
 30
0.0
 11
0.7573710000000062
 21
26.860059
 31
0.0
  0
LINE
  5
E2
330
1F
100
AcDbEntity
  8
DEFAULT
100
AcDbLine
 10
0.7429089999999974
 20
27.399666
 30
0.0
 11
0.7483110000000011
 21
27.17607
 31
0.0
  0
LINE
  5
E3
330
1F
100
AcDbEntity
  8
DEFAULT
100
AcDbLine
 10
0.7402909999999991
 20
27.533338
 30
0.0
 11
0.7429089999999974
 21
27.399666
 31
0.0
  0
LINE
  5
E4
330
1F
100
AcDbEntity
  8
DEFAULT
100
AcDbLine
 10
0.738788999999997
 20
27.632657
 30
0.0
 11
0.7402909999999991
 21
27.533338
 31
0.0
  0
LINE
  5
E5
330
1F
100
AcDbEntity
  8
DEFAULT
100
AcDbLine
 10
0.7380380000000031
 20
27.70474
 30
0.0
 11
0.738788999999997
 21
27.632657
 31
0.0
  0
LINE
  5
E6
330
1F
100
AcDbEntity
  8
DEFAULT
100
AcDbLine
 10
0.7377510000000029
 20
27.755516
 30
0.0
 11
0.7380380000000031
 21
27.70474
 31
0.0
  0
LINE
  5
E7
330
1F
100
AcDbEntity
  8
DEFAULT
100
AcDbLine
 10
0.7377129999999994
 20
27.789627
 30
0.0
 11
0.7377510000000029
 21
27.755516
 31
0.0
  0
LINE
  5
E8
330
1F
100
AcDbEntity
  8
DEFAULT
100
AcDbLine
 10
0.7378230000000059
 20
27.8204
 30
0.0
 11
0.7377129999999994
 21
27.789627
 31
0.0
  0
LINE
  5
E9
330
1F
100
AcDbEntity
  8
DEFAULT
100
AcDbLine
 10
0.7380780000000016
 20
27.847927
 30
0.0
 11
0.7378230000000059
 21
27.8204
 31
0.0
  0
LINE
  5
EA
330
1F
100
AcDbEntity
  8
DEFAULT
100
AcDbLine
 10
0.7383260000000007
 20
27.864537
 30
0.0
 11
0.7380780000000016
 21
27.847927
 31
0.0
  0
LINE
  5
EB
330
1F
100
AcDbEntity
  8
DEFAULT
100
AcDbLine
 10
0.7386359999999996
 20
27.879815
 30
0.0
 11
0.7383260000000007
 21
27.864537
 31
0.0
  0
LINE
  5
EC
330
1F
100
AcDbEntity
  8
DEFAULT
100
AcDbLine
 10
0.7390089999999958
 20
27.893817
 30
0.0
 11
0.7386359999999996
 21
27.879815
 31
0.0
  0
LINE
  5
ED
330
1F
100
AcDbEntity
  8
DEFAULT
100
AcDbLine
 10
0.855952000000002
 20
28.074427
 30
0.0
 11
0.7390089999999958
 21
27.893817
 31
0.0
  0
LINE
  5
EE
330
1F
100
AcDbEntity
  8
DEFAULT
100
AcDbLine
 10
0.8559905000000043
 20
28.074429
 30
0.0
 11
0.855952000000002
 21
28.074427
 31
0.0
  0
LINE
  5
EF
330
1F
100
AcDbEntity
  8
DEFAULT
100
AcDbLine
 10
2.119507065099995
 20
28.0740084612
 30
0.0
 11
0.8559905000000043
 21
28.074429
 31
0.0
  0
LINE
  5
F0
330
1F
100
AcDbEntity
  8
DEFAULT
100
AcDbLine
 10
2.230117456089999
 20
27.94978697901
 30
0.0
 11
2.119507065099995
 21
28.0740084612
 31
0.0
  0
ARC
  5
F1
330
1F
100
AcDbEntity
  8
DEFAULT
100
AcDbCircle
 10
-0.000000000000011
 20
56.62234508218658
 30
0.0
 40
0.1249999999999929
100
AcDbArc
 50
89.99999999999496
 51
180.0000000000033
  0
ARC
  5
F2
330
1F
100
AcDbEntity
  8
DEFAULT
100
AcDbCircle
 10
6.152145000000034
 20
70.2676420821866
 30
0.0
 40
0.1250003616149258
100
AcDbArc
 50
3.064246004845
 51
90.00000000001343
  0
LINE
  5
F3
330
1F
100
AcDbEntity
  8
DEFAULT
100
AcDbLine
 10
37.20169880862856
 20
3.064590183044999
 30
0.0
 11
44.12127488683355
 21
4.717334000000001
 31
0.0
  0
LINE
  5
F4
330
1F
100
AcDbEntity
  8
DEFAULT
100
AcDbLine
 10
37.08606592538355
 20
3.020493079800001
 30
0.0
 11
37.20169880862856
 21
3.064590183044999
 31
0.0
  0
LINE
  5
F5
330
1F
100
AcDbEntity
  8
DEFAULT
100
AcDbLine
 10
13.16161100000001
 20
46.24725908218656
 30
0.0
 11
13.161038
 21
46.24920208218657
 31
0.0
  0
LINE
  5
F6
330
1F
100
AcDbEntity
  8
DEFAULT
100
AcDbLine
 10
13.450897
 20
45.88003308218657
 30
0.0
 11
13.450897
 21
47.81418308218656
 31
0.0
  0
LINE
  5
F7
330
1F
100
AcDbEntity
  8
DEFAULT
100
AcDbLine
 10
1.087469319489998
 20
65.66587844063656
 30
0.0
 11
1.005590540610001
 21
65.50958275180656
 31
0.0
  0
LINE
  5
F8
330
1F
100
AcDbEntity
  8
DEFAULT
100
AcDbLine
 10
22.81884736378001
 20
48.25976567091656
 30
0.0
 11
22.68278600000001
 21
53.85091108218657
 31
0.0
  0
LINE
  5
F9
330
1F
100
AcDbEntity
  8
DEFAULT
100
AcDbLine
 10
49.31639969157355
 20
3.294561197579998
 30
0.0
 11
45.96629786287355
 21
5.885826964909999
 31
0.0
  0
LINE
  5
FA
330
1F
100
AcDbEntity
  8
DEFAULT
100
AcDbLine
 10
45.59813491894356
 20
5.962692806229999
 30
0.0
 11
45.09032123568355
 21
5.88586085499
 31
0.0
  0
LINE
  5
FB
330
1F
100
AcDbEntity
  8
DEFAULT
100
AcDbLine
 10
45.72371343988355
 20
5.956638239589999
 30
0.0
 11
45.59813491894356
 21
5.962692806229999
 31
0.0
  0
LINE
  5
FC
330
1F
100
AcDbEntity
  8
DEFAULT
100
AcDbLine
 10
45.96625228524356
 20
5.88586085499
 30
0.0
 11
45.72371343988355
 21
5.956638239589999
 31
0.0
  0
SPLINE
  5
FD
330
1F
100
AcDbEntity
  8
DEFAULT
100
AcDbSpline
210
0.0
220
0.0
230
1.0
 70
     8
 71
     3
 72
    14
 73
    10
 74
     0
 42
0.0000000001
 43
0.0000000001
 40
0.0
 40
0.0
 40
0.0
 40
0.0
 40
1.0
 40
2.0
 40
3.0
 40
4.0
 40
5.0
 40
6.0
 40
7.0
 40
7.0
 40
7.0
 40
7.0
 10
47.03035230818355
 20
4.717333752270001
 30
0.0
 10
46.98979795930117
 20
4.742215495755776
 30
0.0
 10
46.89296273450086
 20
4.728823684303347
 30
0.0
 10
46.78014365202444
 20
4.650039932725033
 30
0.0
 10
46.68354272167255
 20
4.551484842220521
 30
0.0
 10
46.61798159377174
 20
4.429827139036767
 30
0.0
 10
46.51920137838908
 20
4.333599694328043
 30
0.0
 10
46.4081887585321
 20
4.253186100607106
 30
0.0
 10
46.32812834199002
 20
4.208969549646124
 30
0.0
 10
46.28691735567355
 20
4.18936889786
 30
0.0
  0
SPLINE
  5
FE
330
1F
100
AcDbEntity
  8
DEFAULT
100
AcDbSpline
210
0.0
220
0.0
230
1.0
 70
     8
 71
     3
 72
    12
 73
     8
 74
     0
 42
0.0000000001
 43
0.0000000001
 40
0.0
 40
0.0
 40
0.0
 40
0.0
 40
1.0
 40
2.0
 40
3.0
 40
4.0
 40
5.0
 40
5.0
 40
5.0
 40
5.0
 10
55.79278000712355
 20
14.99956585096
 30
0.0
 10
55.70136303846293
 20
15.01356858196085
 30
0.0
 10
55.51857964033408
 20
15.03768778833713
 30
0.0
 10
55.24049930924667
 20
15.06052611455465
 30
0.0
 10
54.96967937908363
 20
15.07157711702212
 30
0.0
 10
54.66917031092278
 20
15.06971330346376
 30
0.0
 10
54.58762515448851
 20
15.27891211073312
 30
0.0
 10
54.60068088683356
 20
15.36861
 30
0.0
  0
LINE
  5
FF
330
1F
100
AcDbEntity
  8
DEFAULT
100
AcDbLine
 10
44.52305888683355
 20
11.781159
 30
0.0
 11
51.31938088683356
 21
14.302506
 31
0.0
  0
LINE
  5
100
330
1F
100
AcDbEntity
  8
DEFAULT
100
AcDbLine
 10
52.39882888683356
 20
13.472283
 30
0.0
 11
51.64825888683355
 21
13.659129
 31
0.0
  0
LINE
  5
101
330
1F
100
AcDbEntity
  8
DEFAULT
100
AcDbLine
 10
36.97767688683355
 20
14.339495
 30
0.0
 11
38.36094188683356
 21
14.339495
 31
0.0
  0
SPLINE
  5
102
330
1F
100
AcDbEntity
  8
DEFAULT
100
AcDbSpline
210
0.0
220
0.0
230
1.0
 70
     8
 71
     3
 72
    16
 73
    12
 74
     0
 42
0.0000000001
 43
0.0000000001
 40
0.0
 40
0.0
 40
0.0
 40
0.0
 40
1.0
 40
2.0
 40
3.0
 40
4.0
 40
5.0
 40
6.0
 40
7.0
 40
8.0
 40
9.0
 40
9.0
 40
9.0
 40
9.0
 10
34.42425757111356
 20
38.94450560006
 30
0.0
 10
34.3985745443665
 20
39.00836285669946
 30
0.0
 10
34.35313821601871
 20
39.13848572114555
 30
0.0
 10
34.30935908516756
 20
39.34091615022486
 30
0.0
 10
34.30362247189846
 20
39.54845821896663
 30
0.0
 10
34.35917570775839
 20
39.75167238655309
 30
0.0
 10
34.49882579196235
 20
39.91042836317968
 30
0.0
 10
34.6837346172043
 20
40.00721554479278
 30
0.0
 10
34.88608644373947
 20
40.05587885623377
 30
0.0
 10
35.09526159818066
 20
40.04265805520802
 30
0.0
 10
35.22202257618081
 20
39.98308339048754
 30
0.0
 10
35.27964254666355
 20
39.94573235934
 30
0.0
  0
LINE
  5
103
330
1F
100
AcDbEntity
  8
DEFAULT
100
AcDbLine
 10
37.09253688683356
 20
2.699549000000001
 30
0.0
 11
37.01508488683355
 21
1.814274000000001
 31
0.0
  0
LINE
  5
104
330
1F
100
AcDbEntity
  8
DEFAULT
100
AcDbLine
 10
45.13488488683355
 20
4.398973000000002
 30
0.0
 11
45.14072888683356
 21
4.166142000000001
 31
0.0
  0
ARC
  5
105
330
1F
100
AcDbEntity
  8
DEFAULT
100
AcDbCircle
 10
-100.9084257966458
 20
71.37704513873665
 30
0.0
 40
103.9024984996827
100
AcDbArc
 50
355.9067295138698
 51
359.3975383167483
  0
LINE
  5
106
330
1F
100
AcDbEntity
  8
DEFAULT
100
AcDbLine
 10
2.767854
 20
66.24606808218655
 30
0.0
 11
2.530225000000002
 21
66.17775408218657
 31
0.0
  0
ARC
  5
107
330
1F
100
AcDbEntity
  8
DEFAULT
100
AcDbCircle
 10
20.499654
 20
70.26764208218655
 30
0.0
 40
0.1250001078499139
100
AcDbArc
 50
6.123495590125349
 51
89.99999999999675
  0
ARC
  5
108
330
1F
100
AcDbEntity
  8
DEFAULT
100
AcDbCircle
 10
125.8417057966457
 20
71.3770451387364
 30
0.0
 40
103.9024984996826
100
AcDbArc
 50
180.6024616832516
 51
184.0932704861301
  0
LINE
  5
109
330
1F
100
AcDbEntity
  8
DEFAULT
100
AcDbLine
 10
0.4750080000000025
 20
56.68827908218658
 30
0.0
 11
0.4750080000000025
 21
55.13778108218656
 31
0.0
  0
LINE
  5
10A
330
1F
100
AcDbEntity
  8
DEFAULT
100
AcDbLine
 10
13.162278
 20
46.27463508218656
 30
0.0
 11
13.164191
 21
46.33760708218657
 31
0.0
  0
LINE
  5
10B
330
1F
100
AcDbEntity
  8
DEFAULT
100
AcDbLine
 10
47.16076288683355
 20
9.619288999999998
 30
0.0
 11
47.26055688683356
 21
9.516957999999999
 31
0.0
  0
LINE
  5
10C
330
1F
100
AcDbEntity
  8
DEFAULT
100
AcDbLine
 10
45.42053388683355
 20
4.166142000000001
 30
0.0
 11
46.53417788683355
 21
4.166142000000001
 31
0.0
  0
LINE
  5
10D
330
1F
100
AcDbEntity
  8
DEFAULT
100
AcDbLine
 10
57.81167588683356
 20
2.716536000000001
 30
0.0
 11
59.15552488683355
 21
2.716536000000001
 31
0.0
  0
LINE
  5
10E
330
1F
100
AcDbEntity
  8
DEFAULT
100
AcDbLine
 10
50.75898488683355
 20
2.766535999999999
 30
0.0
 11
49.34907888683355
 21
2.766535999999999
 31
0.0
  0
LINE
  5
10F
330
1F
100
AcDbEntity
  8
DEFAULT
100
AcDbLine
 10
35.73312188683356
 20
2.716536000000001
 30
0.0
 11
37.07697088683355
 21
2.716536000000001
 31
0.0
  0
LINE
  5
110
330
1F
100
AcDbEntity
  8
DEFAULT
100
AcDbLine
 10
45.36732488683356
 20
6.722588999999999
 30
0.0
 11
45.25584888683355
 21
6.722218999999999
 31
0.0
  0
LINE
  5
111
330
1F
100
AcDbEntity
  8
DEFAULT
100
AcDbLine
 10
44.74891488683355
 20
15.364598
 30
0.0
 11
38.97666688683356
 21
14.982718
 31
0.0
  0
ARC
  5
112
330
1F
100
AcDbEntity
  8
DEFAULT
100
AcDbCircle
 10
37.32074788683282
 20
7.965736999999829
 30
0.0
 40
14.96063058311484
100
AcDbArc
 50
8.872691761933632
 51
16.972749242387
  0
LINE
  5
113
330
1F
100
AcDbEntity
  8
DEFAULT
100
AcDbLine
 10
38.49542573002265
 20
14.39634115234505
 30
0.0
 11
38.36094188683356
 21
14.33949478137092
 31
0.0
  0
CIRCLE
  5
114
330
1F
100
AcDbEntity
  8
DEFAULT
100
AcDbCircle
 10
35.47984988683355
 20
1.279528
 30
0.0
 40
1.154527000000001
  0
ARC
  5
115
330
1F
100
AcDbEntity
  8
DEFAULT
100
AcDbCircle
 10
38.59054808289449
 20
16.386476940497
 30
0.0
 40
0.1756618493246169
100
AcDbArc
 50
175.6928346753158
 51
270.3498788345159
  0
LINE
  5
116
330
1F
100
AcDbEntity
  8
DEFAULT
100
AcDbLine
 10
49.36285312233022
 20
2.699549020605581
 30
0.0
 11
49.37841888683356
 21
2.716536236396425
 31
0.0
  0
CIRCLE
  5
117
330
1F
100
AcDbEntity
  8
DEFAULT
100
AcDbCircle
 10
35.47984988683355
 20
1.279528
 30
0.0
 40
1.279527000000001
  0
CIRCLE
  5
118
330
1F
100
AcDbEntity
  8
DEFAULT
100
AcDbCircle
 10
49.12514688683356
 20
1.279527999999999
 30
0.0
 40
1.154527000000002
  0
LINE
  5
119
330
1F
100
AcDbEntity
  8
DEFAULT
100
AcDbLine
 10
52.65622988683356
 20
13.247173
 30
0.0
 11
52.65629188683356
 21
13.472173
 31
0.0
  0
CIRCLE
  5
11A
330
1F
100
AcDbEntity
  8
DEFAULT
100
AcDbCircle
 10
50.60830488683355
 20
14.497095
 30
0.0
 40
0.1968499999999977
  0
LINE
  5
11B
330
1F
100
AcDbEntity
  8
DEFAULT
100
AcDbLine
 10
50.75900488683355
 20
2.766535999999999
 30
0.0
 11
50.73886988683356
 21
3.343129000000001
 31
0.0
  0
LINE
  5
11C
330
1F
100
AcDbEntity
  8
DEFAULT
100
AcDbLine
 10
51.17733188683356
 20
28.110484
 30
0.0
 11
51.17722888683355
 21
28.110485
 31
0.0
  0
LINE
  5
11D
330
1F
100
AcDbEntity
  8
DEFAULT
100
AcDbLine
 10
50.73783388683356
 20
2.699549000000001
 30
0.0
 11
50.66038188683355
 21
1.814274000000001
 31
0.0
  0
LINE
  5
11E
330
1F
100
AcDbEntity
  8
DEFAULT
100
AcDbLine
 10
50.26490988683355
 20
2.766535999999999
 30
0.0
 11
50.26490988683355
 21
2.716536000000001
 31
0.0
  0
SPLINE
  5
11F
330
1F
100
AcDbEntity
  8
DEFAULT
100
AcDbSpline
210
0.0
220
0.0
230
1.0
 70
     8
 71
     3
 72
    12
 73
     8
 74
     0
 42
0.0000000001
 43
0.0000000001
 40
0.0
 40
0.0
 40
0.0
 40
0.0
 40
1.0
 40
2.0
 40
3.0
 40
4.0
 40
5.0
 40
5.0
 40
5.0
 40
5.0
 10
55.35253288683356
 20
16.133269
 30
0.0
 10
55.39634076587446
 20
16.06110242423908
 30
0.0
 10
55.48486885247809
 20
15.91736758489806
 30
0.0
 10
55.61583101742026
 20
15.70048910392736
 30
0.0
 10
55.73591241819871
 20
15.47764296607018
 30
0.0
 10
55.84631266696771
 20
15.24890832363415
 30
0.0
 10
55.84623216774681
 20
15.06905602130725
 30
0.0
 10
55.79278000712355
 20
14.99956585096
 30
0.0
  0
SPLINE
  5
120
330
1F
100
AcDbEntity
  8
DEFAULT
100
AcDbSpline
210
0.0
220
0.0
230
1.0
 70
     8
 71
     3
 72
    16
 73
    12
 74
     0
 42
0.0000000001
 43
0.0000000001
 40
0.0
 40
0.0
 40
0.0
 40
0.0
 40
1.0
 40
2.0
 40
3.0
 40
4.0
 40
5.0
 40
6.0
 40
7.0
 40
8.0
 40
9.0
 40
9.0
 40
9.0
 40
9.0
 10
35.27964254666355
 20
39.94573235934
 30
0.0
 10
35.66433235309653
 20
39.63888189470115
 30
0.0
 10
35.95951222610379
 20
38.6979829134969
 30
0.0
 10
36.56417409293621
 20
37.40457159288076
 30
0.0
 10
37.12997305834326
 20
36.0815191829189
 30
0.0
 10
37.71084569572977
 20
34.76845121267355
 30
0.0
 10
38.29177177192756
 20
33.45450480447278
 30
0.0
 10
38.88058999271112
 20
32.14432321424793
 30
0.0
 10
39.45603568686492
 20
30.82807645050114
 30
0.0
 10
39.98260965649909
 20
29.49107938448442
 30
0.0
 10
40.27011676799155
 20
28.57667570385935
 30
0.0
 10
40.38616245591355
 20
28.11202312045
 30
0.0
  0
LINE
  5
121
330
1F
100
AcDbEntity
  8
DEFAULT
100
AcDbLine
 10
51.62974888683355
 20
12.332997
 30
0.0
 11
49.38315788683356
 21
11.603035
 31
0.0
  0
LINE
  5
122
330
1F
100
AcDbEntity
  8
DEFAULT
100
AcDbLine
 10
50.76429888683356
 20
13.165177
 30
0.0
 11
49.89804288683355
 21
13.165417
 31
0.0
  0
LINE
  5
123
330
1F
100
AcDbEntity
  8
DEFAULT
100
AcDbLine
 10
52.65629188683356
 20
13.472173
 30
0.0
 11
50.02127788683355
 21
13.472934
 31
0.0
  0
ARC
  5
124
330
1F
100
AcDbEntity
  8
DEFAULT
100
AcDbCircle
 10
58.59554188683362
 20
1.857850999999966
 30
0.0
 40
0.4999996028817847
100
AcDbArc
 50
298.2160973788352
 51
355.0000959861729
  0
LINE
  5
125
330
1F
100
AcDbEntity
  8
DEFAULT
100
AcDbLine
 10
47.64853788683355
 20
11.205008
 30
0.0
 11
51.82446488683355
 21
12.561849
 31
0.0
  0
LINE
  5
126
330
1F
100
AcDbEntity
  8
DEFAULT
100
AcDbLine
 10
50.76440688683356
 20
13.555177
 30
0.0
 11
49.89815088683355
 21
13.555417
 31
0.0
  0
LINE
  5
127
330
1F
100
AcDbEntity
  8
DEFAULT
100
AcDbLine
 10
53.50791888683355
 20
13.659129
 30
0.0
 11
52.65628488683355
 21
13.447124
 31
0.0
  0
LINE
  5
128
330
1F
100
AcDbEntity
  8
DEFAULT
100
AcDbLine
 10
52.02132788683355
 20
13.246756
 30
0.0
 11
44.80069088683355
 21
10.900627
 31
0.0
  0
LINE
  5
129
330
1F
100
AcDbEntity
  8
DEFAULT
100
AcDbLine
 10
45.29462388683355
 20
15.308268
 30
0.0
 11
45.29462388683355
 21
15.376316
 31
0.0
  0
LINE
  5
12A
330
1F
100
AcDbEntity
  8
DEFAULT
100
AcDbLine
 10
49.83577688683356
 20
2.766535999999999
 30
0.0
 11
49.83577688683356
 21
2.716536000000001
 31
0.0
  0
LINE
  5
12B
330
1F
100
AcDbEntity
  8
DEFAULT
100
AcDbLine
 10
38.70737438683355
 20
27.9552705
 30
0.0
 11
38.81837388683356
 21
28.080512
 31
0.0
  0
LINE
  5
12C
330
1F
100
AcDbEntity
  8
DEFAULT
100
AcDbLine
 10
38.70735238683356
 20
27.809893
 30
0.0
 11
38.70737438683355
 21
27.9552705
 31
0.0
  0
SPLINE
  5
12D
330
1F
100
AcDbEntity
  8
DEFAULT
100
AcDbSpline
210
0.0
220
0.0
230
1.0
 70
     8
 71
     3
 72
    20
 73
    16
 74
     0
 42
0.0000000001
 43
0.0000000001
 40
0.0
 40
0.0
 40
0.0
 40
0.0
 40
1.0
 40
2.0
 40
3.0
 40
4.0
 40
5.0
 40
6.0
 40
7.0
 40
8.0
 40
9.0
 40
10.0
 40
11.0
 40
12.0
 40
13.0
 40
13.0
 40
13.0
 40
13.0
 10
40.32503288683355
 20
27.594521
 30
0.0
 10
40.27763816539536
 20
27.59416015526431
 30
0.0
 10
40.178204085716
 20
27.56681611694052
 30
0.0
 10
40.09522663695071
 20
27.44418947595175
 30
0.0
 10
39.97615269240023
 20
27.3602017553099
 30
0.0
 10
39.83361735685592
 20
27.32449526779813
 30
0.0
 10
39.6894800859554
 20
27.34400142842723
 30
0.0
 10
39.55651046115379
 20
27.4098134184924
 30
0.0
 10
39.47531137758959
 20
27.53265760321338
 30
0.0
 10
39.34360950056217
 20
27.60411035720918
 30
0.0
 10
39.1969275013283
 20
27.59031827392289
 30
0.0
 10
39.05346788961194
 20
27.6050149467253
 30
0.0
 10
38.91480238162013
 20
27.64197601969661
 30
0.0
 10
38.7738790746792
 20
27.68191691611534
 30
0.0
 10
38.70573499188875
 20
27.75894224413606
 30
0.0
 10
38.70735238683356
 20
27.809893
 30
0.0
  0
LINE
  5
12E
330
1F
100
AcDbEntity
  8
DEFAULT
100
AcDbLine
 10
38.59162076220355
 20
16.21081836636
 30
0.0
 11
36.97767687910356
 21
14.33949530755
 31
0.0
  0
LINE
  5
12F
330
1F
100
AcDbEntity
  8
DEFAULT
100
AcDbLine
 10
39.86838885342355
 20
16.408895404
 30
0.0
 11
39.83878413288355
 21
16.31615346721
 31
0.0
  0
SPLINE
  5
130
330
1F
100
AcDbEntity
  8
DEFAULT
100
AcDbSpline
210
0.0
220
0.0
230
1.0
 70
     8
 71
     3
 72
     9
 73
     5
 74
     0
 42
0.0000000001
 43
0.0000000001
 40
0.0
 40
0.0
 40
0.0
 40
0.0
 40
0.3894521512621
 40
1.0
 40
1.0
 40
1.0
 40
1.0
 10
2.530377442590009
 20
66.17766753392655
 30
0.0
 10
2.528760364060005
 20
66.18090724634655
 30
0.0
 10
2.52909747647
 20
66.16010197962655
 30
0.0
 10
2.528842255309996
 20
66.14887141479656
 30
0.0
 10
2.528607729019996
 20
66.14351791996657
 30
0.0
  0
SPLINE
  5
131
330
1F
100
AcDbEntity
  8
DEFAULT
100
AcDbSpline
210
0.0
220
0.0
230
1.0
 70
     8
 71
     3
 72
    19
 73
    15
 74
     0
 42
0.0000000001
 43
0.0000000001
 40
-12.0
 40
-12.0
 40
-12.0
 40
-12.0
 40
-11.0
 40
-10.0
 40
-9.0
 40
-8.0
 40
-7.0
 40
-6.0
 40
-5.0
 40
-4.0
 40
-3.0
 40
-2.0
 40
-1.0
 40
0.0
 40
0.0
 40
0.0
 40
0.0
 10
22.62862125991501
 20
18.97124582819
 30
0.0
 10
22.34539158994826
 20
18.97043343682859
 30
0.0
 10
21.77889581479207
 20
18.96251081591258
 30
0.0
 10
20.93014508981824
 20
18.91911390561205
 30
0.0
 10
20.08356175569773
 20
18.84513789427253
 30
0.0
 10
19.23918044122762
 20
18.74981002159399
 30
0.0
 10
18.39609651208703
 20
18.64390869743002
 30
0.0
 10
17.55297546599189
 20
18.53825471139147
 30
0.0
 10
16.70860841408506
 20
18.44295865778832
 30
0.0
 10
15.86256559498986
 20
18.36344223226774
 30
0.0
 10
15.01471622610875
 20
18.30632882355888
 30
0.0
 10
14.16585162792684
 20
18.26742393890574
 30
0.0
 10
13.31634387858577
 20
18.24718122036217
 30
0.0
 10
12.7498803781353
 20
18.24236268146365
 30
0.0
 10
12.466643
 20
18.242289
 30
0.0
  0
SPLINE
  5
132
330
1F
100
AcDbEntity
  8
DEFAULT
100
AcDbSpline
210
0.0
220
0.0
230
1.0
 70
     8
 71
     3
 72
    19
 73
    15
 74
     0
 42
0.0000000001
 43
0.0000000001
 40
0.0
 40
0.0
 40
0.0
 40
0.0
 40
1.0
 40
2.0
 40
3.0
 40
4.0
 40
5.0
 40
6.0
 40
7.0
 40
8.0
 40
9.0
 40
10.0
 40
11.0
 40
12.0
 40
12.0
 40
12.0
 40
12.0
 10
22.81868900000001
 20
16.133376
 30
0.0
 10
22.81989773611065
 20
16.21321062021278
 30
0.0
 10
22.82265358281796
 20
16.37287389933493
 30
0.0
 10
22.82551844041285
 20
16.61239065323156
 30
0.0
 10
22.82479071466524
 20
16.85192699782272
 30
0.0
 10
22.82139814937879
 20
17.09143748326489
 30
0.0
 10
22.81533669649571
 20
17.33089256367683
 30
0.0
 10
22.80741677525641
 20
17.57030247404123
 30
0.0
 10
22.79783555645461
 20
17.8096107115204
 30
0.0
 10
22.78681000601811
 20
18.04900926666603
 30
0.0
 10
22.77310474618828
 20
18.28770820964376
 30
0.0
 10
22.75642803866555
 20
18.52831550629372
 30
0.0
 10
22.72389059930839
 20
18.75987529725518
 30
0.0
 10
22.70083745317839
 20
18.93220506665516
 30
0.0
 10
22.62862125991501
 20
18.97124582819
 30
0.0
  0
LINE
  5
133
330
1F
100
AcDbEntity
  8
DEFAULT
100
AcDbLine
 10
9.15955600000001
 20
13.427658
 30
0.0
 11
9.479844
 21
13.427658
 31
0.0
  0
LINE
  5
134
330
1F
100
AcDbEntity
  8
DEFAULT
100
AcDbLine
 10
3.937194000000005
 20
13.471141
 30
0.0
 11
4.552033999999992
 21
13.471481
 31
0.0
  0
LINE
  5
135
330
1F
100
AcDbEntity
  8
DEFAULT
100
AcDbLine
 10
22.25585000000001
 20
27.368005
 30
0.0
 11
22.19922700000001
 21
27.495075
 31
0.0
  0
LINE
  5
136
330
1F
100
AcDbEntity
  8
DEFAULT
100
AcDbLine
 10
14.27038899999999
 20
12.561849
 30
0.0
 11
13.612633
 21
11.2155
 31
0.0
  0
LINE
  5
137
330
1F
100
AcDbEntity
  8
DEFAULT
100
AcDbLine
 10
18.65614100000001
 20
2.434055000000001
 30
0.0
 11
18.65614100000001
 21
0.125
 31
0.0
  0
LINE
  5
138
330
1F
100
AcDbEntity
  8
DEFAULT
100
AcDbLine
 10
20.083708
 20
0.0
 30
0.0
 11
20.49966000000001
 21
0.0
 31
0.0
  0
LINE
  5
139
330
1F
100
AcDbEntity
  8
DEFAULT
100
AcDbLine
 10
16.005521
 20
13.615355
 30
0.0
 11
16.005521
 21
15.102307
 31
0.0
  0
LINE
  5
13A
330
1F
100
AcDbEntity
  8
DEFAULT
100
AcDbLine
 10
8.927764999999994
 20
14.855512
 30
0.0
 11
8.923335000000009
 21
14.855512
 31
0.0
  0
LINE
  5
13B
330
1F
100
AcDbEntity
  8
DEFAULT
100
AcDbLine
 10
23.214766
 20
2.559055000000001
 30
0.0
 11
23.398828
 21
2.559055000000001
 31
0.0
  0
ARC
  5
13C
330
1F
100
AcDbEntity
  8
DEFAULT
100
AcDbCircle
 10
11.70234392606679
 20
55.84690156774349
 30
0.0
 40
40.85448552498924
100
AcDbArc
 50
256.4272153791915
 51
271.0719419994027
  0
LINE
  5
13D
330
1F
100
AcDbEntity
  8
DEFAULT
100
AcDbLine
 10
13.28199000000001
 20
4.166142000000001
 30
0.0
 11
13.60477800000001
 21
4.166142000000001
 31
0.0
  0
LINE
  5
13E
330
1F
100
AcDbEntity
  8
DEFAULT
100
AcDbLine
 10
2.638259000000005
 20
28.073501
 30
0.0
 11
2.119510000000005
 21
28.07401
 31
0.0
  0
SPLINE
  5
13F
330
1F
100
AcDbEntity
  8
DEFAULT
100
AcDbSpline
210
0.0
220
0.0
230
1.0
 70
     8
 71
     3
 72
    16
 73
    12
 74
     0
 42
0.0000000001
 43
0.0000000001
 40
0.0
 40
0.0
 40
0.0
 40
0.0
 40
0.2341619387177
 40
0.4361470240471
 40
0.6001935609847
 40
0.7271726137984
 40
0.8208191896425
 40
0.8860680961386
 40
0.9277143745084
 40
0.9566562139274
 40
1.0
 40
1.0
 40
1.0
 40
1.0
 10
11.32126521872
 20
11.20753179183
 30
0.0
 10
11.25003577341
 20
11.24733866105
 30
0.0
 10
11.11633174198001
 20
11.31968863574
 30
0.0
 10
10.92918313349
 20
11.41304273954
 30
0.0
 10
10.77230886128
 20
11.48355667217
 30
0.0
 10
10.64747044011
 20
11.53166482449
 30
0.0
 10
10.55134038713
 20
11.56113397822
 30
0.0
 10
10.48359551336
 20
11.57165414347
 30
0.0
 10
10.43270223408
 20
11.5713998157
 30
0.0
 10
10.40515717404
 20
11.53505885723
 30
0.0
 10
10.41744034389001
 20
11.50866398483
 30
0.0
 10
10.42400888285999
 20
11.4950632802
 30
0.0
  0
LINE
  5
140
330
1F
100
AcDbEntity
  8
DEFAULT
100
AcDbLine
 10
20.329279
 20
3.332635
 30
0.0
 11
20.349062
 21
2.766535999999999
 31
0.0
  0
ARC
  5
141
330
1F
100
AcDbEntity
  8
DEFAULT
100
AcDbCircle
 10
19.92023301097086
 20
3.313137851180869
 30
0.0
 40
0.4095103905310608
100
AcDbArc
 50
2.728933961150787
 51
69.6568463554257
  0
LINE
  5
142
330
1F
100
AcDbEntity
  8
DEFAULT
100
AcDbLine
 10
4.620970999999997
 20
2.716536000000001
 30
0.0
 11
5.964798999999999
 21
2.716536000000001
 31
0.0
  0
LINE
  5
143
330
1F
100
AcDbEntity
  8
DEFAULT
100
AcDbLine
 10
13.44832700000001
 20
9.516962
 30
0.0
 11
13.37819400000001
 21
6.722591999999999
 31
0.0
  0
LINE
  5
144
330
1F
100
AcDbEntity
  8
DEFAULT
100
AcDbLine
 10
16.005521
 20
14.855512
 30
0.0
 11
16.009951
 21
14.855512
 31
0.0
  0
LINE
  5
145
330
1F
100
AcDbEntity
  8
DEFAULT
100
AcDbLine
 10
14.913071
 20
13.217547
 30
0.0
 11
10.020214
 21
13.217547
 31
0.0
  0
LINE
  5
146
330
1F
100
AcDbEntity
  8
DEFAULT
100
AcDbLine
 10
22.32745448424001
 20
27.69960736413
 30
0.0
 11
22.25567820046
 21
27.368288022
 31
0.0
  0
LINE
  5
147
330
1F
100
AcDbEntity
  8
DEFAULT
100
AcDbLine
 10
13.521791381005
 20
5.885843982455
 30
0.0
 11
13.16188059949999
 21
3.16573192193
 31
0.0
  0
ARC
  5
148
330
1F
100
AcDbEntity
  8
DEFAULT
100
AcDbCircle
 10
13.04615831821621
 20
5.960158123896913
 30
0.0
 40
0.4814035750138296
100
AcDbArc
 50
351.119755314338
 51
81.90984815795632
  0
LINE
  5
149
330
1F
100
AcDbEntity
  8
DEFAULT
100
AcDbLine
 10
21.161266
 20
13.164242
 30
0.0
 11
21.161322
 21
13.164402
 31
0.0
  0
LINE
  5
14A
330
1F
100
AcDbEntity
  8
DEFAULT
100
AcDbLine
 10
23.38653600000001
 20
2.699549000000001
 30
0.0
 11
23.433579
 21
2.161843999999999
 31
0.0
  0
LINE
  5
14B
330
1F
100
AcDbEntity
  8
DEFAULT
100
AcDbLine
 10
24.7629945
 20
3.330465
 30
0.0
 11
24.782688
 21
2.766535999999999
 31
0.0
  0
ARC
  5
14C
330
1F
100
AcDbEntity
  8
DEFAULT
100
AcDbCircle
 10
24.36759869207189
 20
3.316200622558892
 30
0.0
 40
0.3956530265155397
100
AcDbArc
 50
2.066117849791083
 51
73.81468257186938
  0
SPLINE
  5
14D
330
1F
100
AcDbEntity
  8
DEFAULT
100
AcDbSpline
210
0.0
220
0.0
230
1.0
 70
     8
 71
     3
 72
    19
 73
    15
 74
     0
 42
0.0000000001
 43
0.0000000001
 40
0.0
 40
0.0
 40
0.0
 40
0.0
 40
1.0
 40
2.0
 40
3.0
 40
4.0
 40
5.0
 40
6.0
 40
7.0
 40
8.0
 40
9.0
 40
10.0
 40
11.0
 40
12.0
 40
12.0
 40
12.0
 40
12.0
 10
13.4895890897
 20
6.7226909014
 30
0.0
 10
13.8079204609727
 20
6.725051837828964
 30
0.0
 10
14.43025110434252
 20
6.588448271959781
 30
0.0
 10
15.3388335202601
 20
6.311658357378441
 30
0.0
 10
16.25306888905016
 20
6.050474051302096
 30
0.0
 10
17.16681177429746
 20
5.788655795608754
 30
0.0
 10
18.08068815359746
 20
5.527012520050409
 30
0.0
 10
18.99452487593551
 20
5.265309115571892
 30
0.0
 10
19.90837532062288
 20
5.003632307439126
 30
0.0
 10
20.82221070433164
 20
4.741909193745176
 30
0.0
 10
21.73609214490756
 20
4.480344839021168
 30
0.0
 10
22.6499819852008
 20
4.218810227158649
 30
0.0
 10
23.56394249966095
 20
3.957522239830254
 30
0.0
 10
24.17323196166517
 20
3.783269947946049
 30
0.0
 10
24.477885
 20
3.696172000000001
 30
0.0
  0
LINE
  5
14E
330
1F
100
AcDbEntity
  8
DEFAULT
100
AcDbLine
 10
19.197093
 20
0.0
 30
0.0
 11
19.197093
 21
1.603565
 31
0.0
  0
LINE
  5
14F
330
1F
100
AcDbEntity
  8
DEFAULT
100
AcDbLine
 10
9.15955600000001
 20
15.088775
 30
0.0
 11
9.15955600000001
 21
13.427658
 31
0.0
  0
LINE
  5
150
330
1F
100
AcDbEntity
  8
DEFAULT
100
AcDbLine
 10
11.779152
 20
2.699549000000001
 30
0.0
 11
11.826159
 21
2.162262000000002
 31
0.0
  0
LINE
  5
151
330
1F
100
AcDbEntity
  8
DEFAULT
100
AcDbLine
 10
11.482383
 20
2.434055000000001
 30
0.0
 11
11.482383
 21
0.125
 31
0.0
  0
LINE
  5
152
330
1F
100
AcDbEntity
  8
DEFAULT
100
AcDbLine
 10
39.83878413288355
 20
16.31615346721
 30
0.0
 11
39.66192535310356
 21
16.2106669675
 31
0.0
  0
LINE
  5
153
330
1F
100
AcDbEntity
  8
DEFAULT
100
AcDbLine
 10
50.80605288683356
 20
18.238059
 30
0.0
 11
52.53483688683355
 21
25.903595
 31
0.0
  0
SPLINE
  5
154
330
1F
100
AcDbEntity
  8
DEFAULT
100
AcDbSpline
210
0.0
220
0.0
230
1.0
 70
     8
 71
     3
 72
    20
 73
    16
 74
     0
 42
0.0000000001
 43
0.0000000001
 40
0.0
 40
0.0
 40
0.0
 40
0.0
 40
0.9995399032805776
 40
1.999578244673863
 40
2.999616586067148
 40
3.999654927460433
 40
4.999693268853719
 40
5.999731610247004
 40
6.999769951640289
 40
7.999808293033574
 40
8.99984663442686
 40
9.999884975820144
 40
10.99992331721343
 40
11.99996165860671
 40
13.0
 40
13.0
 40
13.0
 40
13.0
 10
50.74897538683355
 20
17.1346175
 30
0.0
 10
50.71579611037882
 20
17.14107794426497
 30
0.0
 10
50.65478231731618
 20
17.16827423646846
 30
0.0
 10
50.58867583154043
 20
17.25472621384353
 30
0.0
 10
50.60577875239809
 20
17.35689236272108
 30
0.0
 10
50.63096470008068
 20
17.45402827155643
 30
0.0
 10
50.61092638349949
 20
17.55568437269922
 30
0.0
 10
50.55234583612433
 20
17.63858605175296
 30
0.0
 10
50.52543095060128
 20
17.73651950073877
 30
0.0
 10
50.52473037933662
 20
17.83781988561228
 30
0.0
 10
50.55528772036784
 20
17.93419243390144
 30
0.0
 10
50.61039364370034
 20
18.02011574738311
 30
0.0
 10
50.69168297454376
 20
18.0794291260089
 30
0.0
 10
50.77103095800319
 20
18.14191556089717
 30
0.0
 10
50.79839214416589
 20
18.2057483033557
 30
0.0
 10
50.80605288683356
 20
18.238059
 30
0.0
  0
LINE
  5
155
330
1F
100
AcDbEntity
  8
DEFAULT
100
AcDbLine
 10
50.91265588683355
 20
17.097531
 30
0.0
 11
50.74897538683355
 21
17.1346175
 31
0.0
  0
ARC
  5
156
330
1F
100
AcDbEntity
  8
DEFAULT
100
AcDbCircle
 10
50.96701746664559
 20
17.22849380810152
 30
0.0
 40
0.1417971736865737
100
AcDbArc
 50
247.4570660845567
 51
353.1751928210334
  0
LINE
  5
157
330
1F
100
AcDbEntity
  8
DEFAULT
100
AcDbLine
 10
53.04433488683355
 20
25.79031
 30
0.0
 11
51.10780988683355
 21
17.2116435
 31
0.0
  0
LINE
  5
158
330
1F
100
AcDbEntity
  8
DEFAULT
100
AcDbLine
 10
53.04434238683355
 20
25.79031749999999
 30
0.0
 11
53.04433488683355
 21
25.79031
 31
0.0
  0
ARC
  5
159
330
1F
100
AcDbEntity
  8
DEFAULT
100
AcDbCircle
 10
51.18417836369711
 20
26.20472997186252
 30
0.0
 40
1.905767008268947
100
AcDbArc
 50
347.440590935391
 51
90.20735406089445
  0
LINE
  5
15A
330
1F
100
AcDbEntity
  8
DEFAULT
100
AcDbLine
 10
39.20291688683355
 20
28.112109
 30
0.0
 11
51.17728138683356
 21
28.1104845
 31
0.0
  0
LINE
  5
15B
330
1F
100
AcDbEntity
  8
DEFAULT
100
AcDbLine
 10
38.82141788683356
 20
28.081011
 30
0.0
 11
39.20291688683355
 21
28.112109
 31
0.0
  0
SPLINE
  5
15C
330
1F
100
AcDbEntity
  8
DEFAULT
100
AcDbSpline
210
0.0
220
0.0
230
1.0
 70
     8
 71
     3
 72
    16
 73
    12
 74
     0
 42
0.0000000001
 43
0.0000000001
 40
0.0
 40
0.0
 40
0.0
 40
0.0
 40
1.0
 40
2.0
 40
3.0
 40
4.0
 40
5.0
 40
6.0
 40
7.0
 40
8.0
 40
9.0
 40
9.0
 40
9.0
 40
9.0
 10
34.42425757111356
 20
38.94450560006
 30
0.0
 10
34.74579215502489
 20
38.14401584230141
 30
0.0
 10
35.38925378455483
 20
36.54316167830638
 30
0.0
 10
36.34792894269751
 20
34.1393839842617
 30
0.0
 10
37.2797674472386
 20
31.72459412079483
 30
0.0
 10
38.13375577347716
 20
29.28197342856798
 30
0.0
 10
38.73523390137581
 20
26.75225930846256
 30
0.0
 10
38.75785591627209
 20
24.15462931849376
 30
0.0
 10
38.62489730964027
 20
21.57174813207846
 30
0.0
 10
38.52451561022143
 20
18.98521575050531
 30
0.0
 10
38.45087754181847
 20
17.26161916438986
 30
0.0
 10
38.41538234717355
 20
16.39966974836
 30
0.0
  0
LINE
  5
15D
330
1F
100
AcDbEntity
  8
DEFAULT
100
AcDbLine
 10
54.80732688683355
 20
15.358934
 30
0.0
 11
54.42224888683356
 21
15.376915
 31
0.0
  0
ARC
  5
15E
330
1F
100
AcDbEntity
  8
DEFAULT
100
AcDbCircle
 10
47.09905283931164
 20
4.423758994768039
 30
0.0
 40
0.2823036216081424
100
AcDbArc
 50
99.51517458890952
 51
236.120469528904
  0
LINE
  5
15F
330
1F
100
AcDbEntity
  8
DEFAULT
100
AcDbLine
 10
58.25535744300255
 20
3.294561197579998
 30
0.0
 11
48.19605865063355
 21
5.951599063980002
 31
0.0
  0
ARC
  5
160
330
1F
100
AcDbEntity
  8
DEFAULT
100
AcDbCircle
 10
44.19516426841737
 20
2.581290506715274
 30
0.0
 40
2.137320846683583
100
AcDbArc
 50
48.79774973544358
 51
91.98117139473071
  0
LINE
  5
161
330
1F
100
AcDbEntity
  8
DEFAULT
100
AcDbLine
 10
51.35116088683355
 20
14.006857
 30
0.0
 11
51.32716588683355
 21
14.281115
 31
0.0
  0
LINE
  5
162
330
1F
100
AcDbEntity
  8
DEFAULT
100
AcDbLine
 10
57.79611062612937
 20
2.699548977187338
 30
0.0
 11
57.81167588683356
 21
2.716535738299619
 31
0.0
  0
LINE
  5
163
330
1F
100
AcDbEntity
  8
DEFAULT
100
AcDbLine
 10
59.19220988683355
 20
2.766535999999999
 30
0.0
 11
57.79799488683355
 21
2.766535999999999
 31
0.0
  0
LINE
  5
164
330
1F
100
AcDbEntity
  8
DEFAULT
100
AcDbLine
 10
46.72448288683356
 20
4.166142000000001
 30
0.0
 11
47.41263288683355
 21
4.166142000000001
 31
0.0
  0
LINE
  5
165
330
1F
100
AcDbEntity
  8
DEFAULT
100
AcDbLine
 10
57.80164388683356
 20
2.872696999999999
 30
0.0
 11
57.79793788683355
 21
2.766535999999999
 31
0.0
  0
LINE
  5
166
330
1F
100
AcDbEntity
  8
DEFAULT
100
AcDbLine
 10
59.17109088683355
 20
2.699549000000001
 30
0.0
 11
59.09363888683356
 21
1.814274000000001
 31
0.0
  0
LINE
  5
167
330
1F
100
AcDbEntity
  8
DEFAULT
100
AcDbLine
 10
44.80068988683355
 20
10.900628
 30
0.0
 11
44.52305888683355
 21
11.781159
 31
0.0
  0
LINE
  5
168
330
1F
100
AcDbEntity
  8
DEFAULT
100
AcDbLine
 10
53.82901088683356
 20
14.281115
 30
0.0
 11
53.80501688683356
 21
14.006857
 31
0.0
  0
LINE
  5
169
330
1F
100
AcDbEntity
  8
DEFAULT
100
AcDbLine
 10
58.69816788683356
 20
2.766535999999999
 30
0.0
 11
58.69816788683356
 21
2.716536000000001
 31
0.0
  0
LINE
  5
16A
330
1F
100
AcDbEntity
  8
DEFAULT
100
AcDbLine
 10
54.23052288683355
 20
15.384259
 30
0.0
 11
53.79691288683355
 21
14.192926
 31
0.0
  0
LINE
  5
16B
330
1F
100
AcDbEntity
  8
DEFAULT
100
AcDbLine
 10
53.03201488683355
 20
13.217547
 30
0.0
 11
51.82446488683355
 21
12.561849
 31
0.0
  0
LINE
  5
16C
330
1F
100
AcDbEntity
  8
DEFAULT
100
AcDbLine
 10
48.26017588683355
 20
11.403741
 30
0.0
 11
47.38123788683355
 21
10.524804
 31
0.0
  0
LINE
  5
16D
330
1F
100
AcDbEntity
  8
DEFAULT
100
AcDbLine
 10
45.39698988683355
 20
9.619288999999998
 30
0.0
 11
45.29719588683355
 21
9.516957999999999
 31
0.0
  0
LINE
  5
16E
330
1F
100
AcDbEntity
  8
DEFAULT
100
AcDbLine
 10
58.26903388683355
 20
2.766535999999999
 30
0.0
 11
58.26903388683355
 21
2.716536000000001
 31
0.0
  0
LINE
  5
16F
330
1F
100
AcDbEntity
  8
DEFAULT
100
AcDbLine
 10
58.50623788683356
 20
2.766535999999999
 30
0.0
 11
58.50591588683355
 21
2.951519000000001
 31
0.0
  0
LINE
  5
170
330
1F
100
AcDbEntity
  8
DEFAULT
100
AcDbLine
 10
57.79611088683356
 20
2.699549000000001
 30
0.0
 11
57.81059788683355
 21
2.533956
 31
0.0
  0
LINE
  5
171
330
1F
100
AcDbEntity
  8
DEFAULT
100
AcDbLine
 10
39.66192488683355
 20
16.210667
 30
0.0
 11
38.59162088683355
 21
16.210818
 31
0.0
  0
LINE
  5
172
330
1F
100
AcDbEntity
  8
DEFAULT
100
AcDbLine
 10
59.19226188683355
 20
2.766535999999999
 30
0.0
 11
59.17251588683355
 21
3.331993000000001
 31
0.0
  0
LINE
  5
173
330
1F
100
AcDbEntity
  8
DEFAULT
100
AcDbLine
 10
53.03201488683355
 20
13.217547
 30
0.0
 11
53.40699588683356
 21
13.634005
 31
0.0
  0
SPLINE
  5
174
330
1F
100
AcDbEntity
  8
DEFAULT
100
AcDbSpline
210
0.0
220
0.0
230
1.0
 70
     8
 71
     3
 72
    20
 73
    16
 74
     0
 42
0.0000000001
 43
0.0000000001
 40
0.0
 40
0.0
 40
0.0
 40
0.0
 40
1.0
 40
2.0
 40
3.0
 40
4.0
 40
5.0
 40
6.0
 40
7.0
 40
8.0
 40
9.0
 40
10.0
 40
11.0
 40
12.0
 40
13.0
 40
13.0
 40
13.0
 40
13.0
 10
58.88220488683355
 20
3.698283
 30
0.0
 10
58.58585776301379
 20
3.778829060580065
 30
0.0
 10
57.9931550051782
 20
3.939890325405361
 30
0.0
 10
57.1041019771494
 20
4.181487676130232
 30
0.0
 10
56.21504870513884
 20
4.423081778411127
 30
0.0
 10
55.32599692538398
 20
4.664682979380654
 30
0.0
 10
54.43693842246226
 20
4.906259305275416
 30
0.0
 10
53.54790563781707
 20
5.147927946402444
 30
0.0
 10
52.65887024959787
 20
5.389595657319855
 30
0.0
 10
51.76982991615793
 20
5.631216415829872
 30
0.0
 10
50.88081273647686
 20
5.873025705065363
 30
0.0
 10
49.99163268360431
 20
6.113850729153576
 30
0.0
 10
49.10279356111699
 20
6.357371358128148
 30
0.0
 10
48.21258884587724
 20
6.590480270515528
 30
0.0
 10
47.61063026880063
 20
6.726288777104692
 30
0.0
 10
47.30187202233355
 20
6.72269044834
 30
0.0
  0
SPLINE
  5
175
330
1F
100
AcDbEntity
  8
DEFAULT
100
AcDbSpline
210
0.0
220
0.0
230
1.0
 70
     8
 71
     3
 72
    12
 73
     8
 74
     0
 42
0.0000000001
 43
0.0000000001
 40
0.0
 40
0.0
 40
0.0
 40
0.0
 40
1.0
 40
2.0
 40
3.0
 40
4.0
 40
5.0
 40
5.0
 40
5.0
 40
5.0
 10
40.50402397166356
 20
27.5944707024
 30
0.0
 10
40.67099500350098
 20
26.85957723197853
 30
0.0
 10
40.61845628070675
 20
25.3553508863294
 30
0.0
 10
40.41829540928042
 20
23.12204596957493
 30
0.0
 10
40.23827288843206
 20
20.88349884819262
 30
0.0
 10
40.05251842216085
 20
18.64639576484096
 30
0.0
 10
39.92994593436768
 20
17.1546869133896
 30
0.0
 10
39.86838885369355
 20
16.40889540398
 30
0.0
  0
LINE
  5
176
330
1F
100
AcDbEntity
  8
DEFAULT
100
AcDbLine
 10
50.6361166275957
 20
13.24772109573137
 30
0.0
 11
50.59118610786682
 21
13.1652338341294
 31
0.0
  0
LINE
  5
177
330
1F
100
AcDbEntity
  8
DEFAULT
100
AcDbLine
 10
45.40289188683356
 20
4.166142000000001
 30
0.0
 11
45.40289188683356
 21
2.418503999999999
 31
0.0
  0
LINE
  5
178
330
1F
100
AcDbEntity
  8
DEFAULT
100
AcDbLine
 10
45.72769488683355
 20
10.524804
 30
0.0
 11
45.72769488683355
 21
9.619292000000002
 31
0.0
  0
LINE
  5
179
330
1F
100
AcDbEntity
  8
DEFAULT
100
AcDbLine
 10
46.83005688683355
 20
10.524804
 30
0.0
 11
46.83005688683355
 21
9.619292000000002
 31
0.0
  0
LINE
  5
17A
330
1F
100
AcDbEntity
  8
DEFAULT
100
AcDbLine
 10
36.19047988683356
 20
2.766535999999999
 30
0.0
 11
36.19047988683356
 21
2.716536000000001
 31
0.0
  0
LINE
  5
17B
330
1F
100
AcDbEntity
  8
DEFAULT
100
AcDbLine
 10
37.07574588683355
 20
3.319126000000001
 30
0.0
 11
37.09503188683355
 21
2.766535999999999
 31
0.0
  0
LINE
  5
17C
330
1F
100
AcDbEntity
  8
DEFAULT
100
AcDbLine
 10
44.80069088683355
 20
10.900627
 30
0.0
 11
45.17651388683355
 21
10.524804
 31
0.0
  0
LINE
  5
17D
330
1F
100
AcDbEntity
  8
DEFAULT
100
AcDbLine
 10
47.05249788683355
 20
2.316141999999999
 30
0.0
 11
45.50527488683355
 21
2.316141999999999
 31
0.0
  0
LINE
  5
17E
330
1F
100
AcDbEntity
  8
DEFAULT
100
AcDbLine
 10
45.36732488683356
 20
6.722588999999999
 30
0.0
 11
45.96219088683355
 21
6.722664000000002
 31
0.0
  0
ARC
  5
17F
330
1F
100
AcDbEntity
  8
DEFAULT
100
AcDbCircle
 10
36.10924107610701
 20
3.316569908370237
 30
0.0
 40
0.3933819078101487
100
AcDbArc
 50
108.5464320006026
 51
173.9948030946297
  0
LINE
  5
180
330
1F
100
AcDbEntity
  8
DEFAULT
100
AcDbLine
 10
35.71606888683355
 20
3.330112
 30
0.0
 11
35.71801788683355
 21
3.357724999999999
 31
0.0
  0
LINE
  5
181
330
1F
100
AcDbEntity
  8
DEFAULT
100
AcDbLine
 10
35.69638488683356
 20
2.766535999999999
 30
0.0
 11
35.71605688683356
 21
3.329861000000001
 31
0.0
  0
LINE
  5
182
330
1F
100
AcDbEntity
  8
DEFAULT
100
AcDbLine
 10
36.61961388683355
 20
2.766535999999999
 30
0.0
 11
36.61961388683355
 21
2.716536000000001
 31
0.0
  0
LINE
  5
183
330
1F
100
AcDbEntity
  8
DEFAULT
100
AcDbLine
 10
35.71755688683355
 20
2.699549000000001
 30
0.0
 11
35.73204388683355
 21
2.533956
 31
0.0
  0
ARC
  5
184
330
1F
100
AcDbEntity
  8
DEFAULT
100
AcDbCircle
 10
63.52639388683078
 20
16.48046799999879
 30
0.0
 40
14.96063069588687
100
AcDbArc
 50
199.0272536426722
 51
207.1273085515972
  0
ARC
  5
185
330
1F
100
AcDbEntity
  8
DEFAULT
100
AcDbCircle
 10
50.57843588683355
 20
11.746477
 30
0.0
 40
2.168634612079333
100
AcDbArc
 50
262.6642181148978
 51
313.3357871462977
  0
LINE
  5
186
330
1F
100
AcDbEntity
  8
DEFAULT
100
AcDbLine
 10
47.22979388683355
 20
6.722722999999998
 30
0.0
 11
47.27916688683355
 21
6.722719000000001
 31
0.0
  0
LINE
  5
187
330
1F
100
AcDbEntity
  8
DEFAULT
100
AcDbLine
 10
45.25566788683355
 20
6.722218000000002
 30
0.0
 11
45.25931488683355
 21
6.722296
 31
0.0
  0
LINE
  5
188
330
1F
100
AcDbEntity
  8
DEFAULT
100
AcDbLine
 10
47.10684288683355
 20
6.722217000000001
 30
0.0
 11
47.29941088683356
 21
6.722633999999999
 31
0.0
  0
LINE
  5
189
330
1F
100
AcDbEntity
  8
DEFAULT
100
AcDbLine
 10
45.96231288683356
 20
6.722666
 30
0.0
 11
45.36732488683356
 21
6.722588999999999
 31
0.0
  0
LINE
  5
18A
330
1F
100
AcDbEntity
  8
DEFAULT
100
AcDbLine
 10
37.09502488683356
 20
2.766535999999999
 30
0.0
 11
35.69639888683355
 21
2.766535999999999
 31
0.0
  0
LINE
  5
18B
330
1F
100
AcDbEntity
  8
DEFAULT
100
AcDbLine
 10
49.58527488683355
 20
4.607807999999999
 30
0.0
 11
57.67075688683356
 21
3.045418000000002
 31
0.0
  0
LINE
  5
18C
330
1F
100
AcDbEntity
  8
DEFAULT
100
AcDbLine
 10
45.14078488683356
 20
4.166142000000001
 30
0.0
 11
45.30290488683355
 21
4.166142000000001
 31
0.0
  0
LINE
  5
18D
330
1F
100
AcDbEntity
  8
DEFAULT
100
AcDbLine
 10
45.30290488683355
 20
4.166142000000001
 30
0.0
 11
45.42053388683355
 21
4.166142000000001
 31
0.0
  0
LINE
  5
18E
330
1F
100
AcDbEntity
  8
DEFAULT
100
AcDbLine
 10
46.62788588683355
 20
11.494319
 30
0.0
 11
46.31951188683355
 21
12.447619
 31
0.0
  0
LINE
  5
18F
330
1F
100
AcDbEntity
  8
DEFAULT
100
AcDbLine
 10
49.36285288683355
 20
2.699549000000001
 30
0.0
 11
49.37734088683355
 21
2.533956
 31
0.0
  0
LINE
  5
190
330
1F
100
AcDbEntity
  8
DEFAULT
100
AcDbLine
 10
47.15486088683355
 20
4.166142000000001
 30
0.0
 11
47.15486088683355
 21
2.418503999999999
 31
0.0
  0
LINE
  5
191
330
1F
100
AcDbEntity
  8
DEFAULT
100
AcDbLine
 10
49.86980888683355
 20
13.472946
 30
0.0
 11
50.02127788683355
 21
13.472934
 31
0.0
  0
LINE
  5
192
330
1F
100
AcDbEntity
  8
DEFAULT
100
AcDbLine
 10
47.03035188683356
 20
4.717334000000001
 30
0.0
 11
49.31337188683355
 21
3.289719000000002
 31
0.0
  0
LINE
  5
193
330
1F
100
AcDbEntity
  8
DEFAULT
100
AcDbLine
 10
49.86974688683355
 20
13.247946
 30
0.0
 11
52.65622988683356
 21
13.247173
 31
0.0
  0
LINE
  5
194
330
1F
100
AcDbEntity
  8
DEFAULT
100
AcDbLine
 10
50.21149888683355
 20
9.658881999999998
 30
0.0
 11
52.10235188683355
 21
10.273257
 31
0.0
  0
LINE
  5
195
330
1F
100
AcDbEntity
  8
DEFAULT
100
AcDbLine
 10
52.10235153264252
 20
10.27325694470593
 30
0.0
 11
52.06671113285088
 21
10.16913273926219
 31
0.0
  0
LINE
  5
196
330
1F
100
AcDbEntity
  8
DEFAULT
100
AcDbLine
 10
50.30153585217686
 20
9.595592730801082
 30
0.0
 11
50.21149912839747
 21
9.6588821237579
 31
0.0
  0
LINE
  5
197
330
1F
100
AcDbEntity
  8
DEFAULT
100
AcDbLine
 10
49.37841888683356
 20
2.716536000000001
 30
0.0
 11
50.72226788683355
 21
2.716536000000001
 31
0.0
  0
ARC
  5
198
330
1F
100
AcDbEntity
  8
DEFAULT
100
AcDbCircle
 10
53.41281388683354
 20
14.04117000000002
 30
0.0
 40
0.3937009409970709
100
AcDbArc
 50
283.9790277952829
 51
355.0000458564637
  0
ARC
  5
199
330
1F
100
AcDbEntity
  8
DEFAULT
100
AcDbCircle
 10
52.57808888683356
 20
15.19015799999999
 30
0.0
 40
1.574802719327085
100
AcDbArc
 50
219.2897550071296
 51
320.7102449928703
  0
CIRCLE
  5
19A
330
1F
100
AcDbEntity
  8
DEFAULT
100
AcDbCircle
 10
57.55840388683357
 20
1.279527999999997
 30
0.0
 40
1.154527000000003
  0
LINE
  5
19B
330
1F
100
AcDbEntity
  8
DEFAULT
100
AcDbLine
 10
45.96212288683355
 20
6.722218000000002
 30
0.0
 11
47.10649388683355
 21
6.722664000000002
 31
0.0
  0
CIRCLE
  5
19C
330
1F
100
AcDbEntity
  8
DEFAULT
100
AcDbCircle
 10
57.55840388683357
 20
1.279527999999997
 30
0.0
 40
1.279527000000003
  0
CIRCLE
  5
19D
330
1F
100
AcDbEntity
  8
DEFAULT
100
AcDbCircle
 10
57.55840388683357
 20
1.279527999999997
 30
0.0
 40
1.062500000000002
  0
ARC
  5
19E
330
1F
100
AcDbEntity
  8
DEFAULT
100
AcDbCircle
 10
57.63179388683354
 20
2.879801999999991
 30
0.0
 40
0.1699991461284615
100
AcDbArc
 50
358.0009764875179
 51
76.7627415554593
  0
ARC
  5
19F
330
1F
100
AcDbEntity
  8
DEFAULT
100
AcDbCircle
 10
37.24163291641115
 20
2.903831954892202
 30
0.0
 40
0.4595602293035993
100
AcDbArc
 50
121.7639336087262
 51
197.3828459234653
  0
ARC
  5
1A0
330
1F
100
AcDbEntity
  8
DEFAULT
100
AcDbCircle
 10
58.77893494067398
 20
3.318243217569857
 30
0.0
 40
0.3938210204865777
100
AcDbArc
 50
2.000881852295503
 51
74.7978910129016
  0
LINE
  5
1A1
330
1F
100
AcDbEntity
  8
DEFAULT
100
AcDbLine
 10
38.49543188683356
 20
14.396348
 30
0.0
 11
38.49542588683356
 21
14.396341
 31
0.0
  0
ARC
  5
1A2
330
1F
100
AcDbEntity
  8
DEFAULT
100
AcDbCircle
 10
50.33193068041358
 20
13.36023864261201
 30
0.0
 40
0.4756674263716326
100
AcDbArc
 50
13.67718489408651
 51
193.6560388564143
  0
LINE
  5
1A3
330
1F
100
AcDbEntity
  8
DEFAULT
100
AcDbLine
 10
47.10617288683355
 20
6.722664999999999
 30
0.0
 11
45.96217888683356
 21
6.722218999999999
 31
0.0
  0
ARC
  5
1A4
330
1F
100
AcDbEntity
  8
DEFAULT
100
AcDbCircle
 10
50.16228488683355
 20
1.857851000000002
 30
0.0
 40
0.4999993664830529
100
AcDbArc
 50
298.2159964039499
 51
355.0000959861692
  0
LINE
  5
1A5
330
1F
100
AcDbEntity
  8
DEFAULT
100
AcDbLine
 10
59.15552488683355
 20
2.716536236396425
 30
0.0
 11
59.17109065133688
 21
2.699549020605581
 31
0.0
  0
LINE
  5
1A6
330
1F
100
AcDbEntity
  8
DEFAULT
100
AcDbLine
 10
47.41263288683355
 20
4.166142000000001
 30
0.0
 11
47.41702488683355
 21
4.166142000000001
 31
0.0
  0
LINE
  5
1A7
330
1F
100
AcDbEntity
  8
DEFAULT
100
AcDbLine
 10
46.53417788683355
 20
4.166142000000001
 30
0.0
 11
46.72448288683356
 21
4.166142000000001
 31
0.0
  0
LINE
  5
1A8
330
1F
100
AcDbEntity
  8
DEFAULT
100
AcDbLine
 10
50.72226788683355
 20
2.716536236396425
 30
0.0
 11
50.73783365133689
 21
2.699549020605581
 31
0.0
  0
LINE
  5
1A9
330
1F
100
AcDbEntity
  8
DEFAULT
100
AcDbLine
 10
45.96224588683356
 20
6.722664999999999
 30
0.0
 11
45.96219088683355
 21
6.722664000000002
 31
0.0
  0
LINE
  5
1AA
330
1F
100
AcDbEntity
  8
DEFAULT
100
AcDbLine
 10
47.29941088683356
 20
6.722633999999999
 30
0.0
 11
47.30187188683355
 21
6.722664000000002
 31
0.0
  0
LINE
  5
1AB
330
1F
100
AcDbEntity
  8
DEFAULT
100
AcDbLine
 10
45.25931488683355
 20
6.722296
 30
0.0
 11
45.36732488683356
 21
6.722588999999999
 31
0.0
  0
LINE
  5
1AC
330
1F
100
AcDbEntity
  8
DEFAULT
100
AcDbLine
 10
47.58049488683355
 20
4.373318999999999
 30
0.0
 11
47.41702488683355
 21
4.166142000000001
 31
0.0
  0
LINE
  5
1AD
330
1F
100
AcDbEntity
  8
DEFAULT
100
AcDbLine
 10
45.17651388683355
 20
10.524804
 30
0.0
 11
47.38123788683355
 21
10.524804
 31
0.0
  0
LINE
  5
1AE
330
1F
100
AcDbEntity
  8
DEFAULT
100
AcDbLine
 10
49.36439988683355
 20
3.206648999999999
 30
0.0
 11
49.34903888683355
 21
2.766535999999999
 31
0.0
  0
CIRCLE
  5
1AF
330
1F
100
AcDbEntity
  8
DEFAULT
100
AcDbCircle
 10
49.12514688683356
 20
1.279527999999999
 30
0.0
 40
1.279527000000002
  0
SPLINE
  5
1B0
330
1F
100
AcDbEntity
  8
DEFAULT
100
AcDbSpline
210
0.0
220
0.0
230
1.0
 70
     8
 71
     3
 72
    19
 73
    15
 74
     0
 42
0.0000000001
 43
0.0000000001
 40
0.0
 40
0.0
 40
0.0
 40
0.0
 40
1.0
 40
2.0
 40
3.0
 40
4.0
 40
5.0
 40
6.0
 40
7.0
 40
8.0
 40
9.0
 40
10.0
 40
11.0
 40
12.0
 40
12.0
 40
12.0
 40
12.0
 10
55.37029869128355
 20
18.4074197918
 30
0.0
 10
55.44836559179998
 20
18.3692729693116
 30
0.0
 10
55.60085013135588
 20
18.28519728318415
 30
0.0
 10
55.81108615441322
 20
18.12989060246021
 30
0.0
 10
55.99601204657887
 20
17.94520393987352
 30
0.0
 10
56.15508023387191
 20
17.73779968765279
 30
0.0
 10
56.27847151379534
 20
17.50705362523673
 30
0.0
 10
56.34745546767674
 20
17.25244063682831
 30
0.0
 10
56.31785375233899
 20
16.98750565976432
 30
0.0
 10
56.18247329370216
 20
16.75977982166904
 30
0.0
 10
55.99971365594105
 20
16.57267326689903
 30
0.0
 10
55.78992487801324
 20
16.41710251071115
 30
0.0
 10
55.56989128036044
 20
16.27723745725847
 30
0.0
 10
55.42526010462932
 20
16.18083765013914
 30
0.0
 10
55.35253288683356
 20
16.133269
 30
0.0
  0
LINE
  5
1B1
330
1F
100
AcDbEntity
  8
DEFAULT
100
AcDbLine
 10
51.17727988683355
 20
27.592984
 30
0.0
 11
40.32498288683355
 21
27.594518
 31
0.0
  0
ARC
  5
1B2
330
1F
100
AcDbEntity
  8
DEFAULT
100
AcDbCircle
 10
51.1796937528886
 20
26.20477729330018
 30
0.0
 40
1.388208805358802
100
AcDbArc
 50
347.4696058731597
 51
90.0996279568499
  0
LINE
  5
1B3
330
1F
100
AcDbEntity
  8
DEFAULT
100
AcDbLine
 10
45.29719288683356
 20
9.516962
 30
0.0
 11
45.36732488683356
 21
6.722588999999999
 31
0.0
  0
LINE
  5
1B4
330
1F
100
AcDbEntity
  8
DEFAULT
100
AcDbLine
 10
38.41538234660355
 20
16.39966974541
 30
0.0
 11
36.79143431970355
 21
14.54867384695
 31
0.0
  0
ARC
  5
1B5
330
1F
100
AcDbEntity
  8
DEFAULT
100
AcDbCircle
 10
50.60830488683355
 20
14.49709500000001
 30
0.0
 40
0.3937004300065579
100
AcDbArc
 50
188.1083891567759
 51
357.3499443167877
  0
LINE
  5
1B6
330
1F
100
AcDbEntity
  8
DEFAULT
100
AcDbLine
 10
50.03275788683355
 20
14.61044
 30
0.0
 11
47.24476488683355
 21
14.73948
 31
0.0
  0
LINE
  5
1B7
330
1F
100
AcDbEntity
  8
DEFAULT
100
AcDbLine
 10
46.12406288683356
 20
14.791351
 30
0.0
 11
41.32935988683356
 21
15.01327
 31
0.0
  0
LINE
  5
1B8
330
1F
100
AcDbEntity
  8
DEFAULT
100
AcDbLine
 10
47.16074188683355
 20
9.619292000000002
 30
0.0
 11
45.39701088683356
 21
9.619292000000002
 31
0.0
  0
LINE
  5
1B9
330
1F
100
AcDbEntity
  8
DEFAULT
100
AcDbLine
 10
51.35926488683356
 20
14.192926
 30
0.0
 11
51.15883188683355
 21
14.743609
 31
0.0
  0
LINE
  5
1BA
330
1F
100
AcDbEntity
  8
DEFAULT
100
AcDbLine
 10
50.73889088683355
 20
3.34252
 30
0.0
 11
50.73889188683356
 21
3.342473000000002
 31
0.0
  0
LINE
  5
1BB
330
1F
100
AcDbEntity
  8
DEFAULT
100
AcDbLine
 10
50.95261582052257
 20
14.76359097298123
 30
0.0
 11
51.00158395836118
 21
14.47889199668944
 31
0.0
  0
LINE
  5
1BC
330
1F
100
AcDbEntity
  8
DEFAULT
100
AcDbLine
 10
2.530418999999995
 20
66.17758208218655
 30
0.0
 11
2.530225999999999
 21
66.17759208218655
 31
0.0
  0
LINE
  5
1BD
330
1F
100
AcDbEntity
  8
DEFAULT
100
AcDbLine
 10
0.2459259999999972
 20
54.18829008218657
 30
0.0
 11
0.0
 21
54.18829008218657
 31
0.0
  0
ARC
  5
1BE
330
1F
100
AcDbEntity
  8
DEFAULT
100
AcDbCircle
 10
36.97767688683356
 20
14.526995
 30
0.0
 40
0.1875002454530179
100
AcDbArc
 50
173.3605535705764
 51
269.9999999999978
  0
LINE
  5
1BF
330
1F
100
AcDbEntity
  8
DEFAULT
100
AcDbLine
 10
35.71755662612937
 20
2.699548977187338
 30
0.0
 11
35.73312188683356
 21
2.71653573829962
 31
0.0
  0
LINE
  5
1C0
330
1F
100
AcDbEntity
  8
DEFAULT
100
AcDbLine
 10
13.16161100000001
 20
46.24725908218656
 30
0.0
 11
13.162278
 21
46.27463508218656
 31
0.0
  0
LINE
  5
1C1
330
1F
100
AcDbEntity
  8
DEFAULT
100
AcDbLine
 10
20.024647
 20
70.33358708218657
 30
0.0
 11
20.083702
 21
70.39264208218657
 31
0.0
  0
LINE
  5
1C2
330
1F
100
AcDbEntity
  8
DEFAULT
100
AcDbLine
 10
11.85338899999999
 20
45.75503308218657
 30
0.0
 11
11.607383
 21
45.75503308218657
 31
0.0
  0
ARC
  5
1C3
330
1F
100
AcDbEntity
  8
DEFAULT
100
AcDbCircle
 10
45.35211579804593
 20
3.461776946753749
 30
0.0
 40
3.262335394286451
100
AcDbArc
 50
91.69226266792516
 51
111.516196498219
  0
ARC
  5
1C4
330
1F
100
AcDbEntity
  8
DEFAULT
100
AcDbCircle
 10
-116.4354711268683
 20
460.6569443458155
 30
0.0
 40
481.7166759576064
100
AcDbArc
 50
288.4459068809827
 51
289.4735991548084
  0
CIRCLE
  5
1C5
330
1F
100
AcDbEntity
  8
DEFAULT
100
AcDbCircle
 10
35.47984988683355
 20
1.279528
 30
0.0
 40
1.062499999999999
  0
ARC
  5
1C6
330
1F
100
AcDbEntity
  8
DEFAULT
100
AcDbCircle
 10
46.99861530418525
 20
10.85590705324096
 30
0.0
 40
0.7377468007110948
100
AcDbArc
 50
28.24211602688027
 51
119.9613507903882
  0
LINE
  5
1C7
330
1F
100
AcDbEntity
  8
DEFAULT
100
AcDbLine
 10
47.21381687541258
 20
14.72663901038545
 30
0.0
 11
47.24476488611995
 21
14.73947998457965
 31
0.0
  0
LINE
  5
1C8
330
1F
100
AcDbEntity
  8
DEFAULT
100
AcDbLine
 10
22.165426
 20
66.24606808218655
 30
0.0
 11
22.40305499999999
 21
66.17775408218657
 31
0.0
  0
LINE
  5
1C9
330
1F
100
AcDbEntity
  8
DEFAULT
100
AcDbLine
 10
22.40649999999999
 20
65.83746708218655
 30
0.0
 11
22.406559
 21
66.00134408218656
 31
0.0
  0
LINE
  5
1CA
330
1F
100
AcDbEntity
  8
DEFAULT
100
AcDbLine
 10
20.024647
 20
70.33357608218657
 30
0.0
 11
20.024647
 21
70.27906608218655
 31
0.0
  0
LINE
  5
1CB
330
1F
100
AcDbEntity
  8
DEFAULT
100
AcDbLine
 10
13.079891
 20
45.75503308218657
 30
0.0
 11
13.325897
 21
45.75503308218657
 31
0.0
  0
LINE
  5
1CC
330
1F
100
AcDbEntity
  8
DEFAULT
100
AcDbLine
 10
19.999765
 20
70.27897708218657
 30
0.0
 11
19.999765
 21
70.39264208218657
 31
0.0
  0
ARC
  5
1CD
330
1F
100
AcDbEntity
  8
DEFAULT
100
AcDbCircle
 10
13.74850207235247
 20
137.7146629716352
 30
0.0
 40
89.91366288646681
100
AcDbArc
 50
269.1831280764115
 51
275.7896796140687
  0
LINE
  5
1CE
330
1F
100
AcDbEntity
  8
DEFAULT
100
AcDbLine
 10
21.95510483955
 20
70.16870684091657
 30
0.0
 11
22.23230434253
 21
65.85168508517657
 31
0.0
  0
LINE
  5
1CF
330
1F
100
AcDbEntity
  8
DEFAULT
100
AcDbLine
 10
2.978175160450007
 20
70.16870684091657
 30
0.0
 11
2.988328819960003
 21
70.28453673448655
 31
0.0
  0
LINE
  5
1D0
330
1F
100
AcDbEntity
  8
DEFAULT
100
AcDbLine
 10
2.526780000000002
 20
65.83746708218655
 30
0.0
 11
2.526721000000009
 21
66.00134408218656
 31
0.0
  0
ARC
  5
1D1
330
1F
100
AcDbEntity
  8
DEFAULT
100
AcDbCircle
 10
4.433626000000001
 20
70.26764208218655
 30
0.0
 40
0.1250001078499139
100
AcDbArc
 50
89.99999999999878
 51
173.8765044098747
  0
LINE
  5
1D2
330
1F
100
AcDbEntity
  8
DEFAULT
100
AcDbLine
 10
19.19708700000001
 20
70.39264258218657
 30
0.0
 11
19.25614250000001
 21
70.33358708218657
 31
0.0
  0
LINE
  5
1D3
330
1F
100
AcDbEntity
  8
DEFAULT
100
AcDbLine
 10
0.8097149999999971
 20
56.74734508218658
 30
0.0
 11
0.4998899999999935
 21
56.74734508218658
 31
0.0
  0
SPLINE
  5
1D4
330
1F
100
AcDbEntity
  8
DEFAULT
100
AcDbSpline
210
0.0
220
0.0
230
1.0
 70
     8
 71
     2
 72
    13
 73
    10
 74
     0
 42
0.0000000001
 43
0.0000000001
 40
0.0
 40
0.0
 40
0.0
 40
1.0
 40
2.0
 40
3.0
 40
4.0
 40
5.0
 40
6.0
 40
7.0
 40
8.0
 40
8.0
 40
8.0
 10
22.204245
 20
63.96045408218655
 30
0.0
 10
21.59445013685226
 20
63.96264068290109
 30
0.0
 10
20.37581949997721
 20
64.01260460777522
 30
0.0
 10
19.16077224858913
 20
64.1177595204037
 30
0.0
 10
17.94666935497735
 20
64.23208818209818
 30
0.0
 10
16.73087997337124
 20
64.32725352958357
 30
0.0
 10
15.51387530036752
 20
64.40526260448681
 30
0.0
 10
14.29559516214873
 20
64.46010440149664
 30
0.0
 10
13.07641066819031
 20
64.48926153493716
 30
0.0
 10
12.46663700000001
 20
64.48935308218657
 30
0.0
  0
ARC
  5
1D5
330
1F
100
AcDbEntity
  8
DEFAULT
100
AcDbCircle
 10
51.61507947651848
 20
-87.04188453082392
 30
0.0
 40
106.0144245798785
100
AcDbArc
 50
90.34796426620578
 51
96.17915017777665
  0
LINE
  5
1D6
330
1F
100
AcDbEntity
  8
DEFAULT
100
AcDbLine
 10
40.01874053473355
 20
18.23398610364
 30
0.0
 11
40.20394347886355
 21
18.356617328765
 31
0.0
  0
LINE
  5
1D7
330
1F
100
AcDbEntity
  8
DEFAULT
100
AcDbLine
 10
47.26055988683355
 20
9.516962
 30
0.0
 11
45.29719288683356
 21
9.516962
 31
0.0
  0
CIRCLE
  5
1D8
330
1F
100
AcDbEntity
  8
DEFAULT
100
AcDbCircle
 10
49.12514688683356
 20
1.279527999999999
 30
0.0
 40
1.0625
  0
ARC
  5
1D9
330
1F
100
AcDbEntity
  8
DEFAULT
100
AcDbCircle
 10
46.70407288683356
 20
15.19015799999999
 30
0.0
 40
0.6889765647687045
100
AcDbArc
 50
216.9808008483562
 51
317.7192122154562
  0
ARC
  5
1DA
330
1F
100
AcDbEntity
  8
DEFAULT
100
AcDbCircle
 10
46.70407288683356
 20
15.190158
 30
0.0
 40
0.4921258097874939
100
AcDbArc
 50
176.5405394526429
 51
352.4594040697912
  0
ARC
  5
1DB
330
1F
100
AcDbEntity
  8
DEFAULT
100
AcDbCircle
 10
47.05249788683356
 20
2.418503999999993
 30
0.0
 40
0.102362499999991
100
AcDbArc
 50
269.999999999996
 51
0.0000000000029829
  0
LINE
  5
1DC
330
1F
100
AcDbEntity
  8
DEFAULT
100
AcDbLine
 10
46.12406288184469
 20
14.79135089219686
 30
0.0
 11
46.15369297304255
 21
14.77570606491853
 31
0.0
  0
CIRCLE
  5
1DD
330
1F
100
AcDbEntity
  8
DEFAULT
100
AcDbCircle
 10
46.70407288683356
 20
15.190158
 30
0.0
 40
0.1968500000000013
  0
LINE
  5
1DE
330
1F
100
AcDbEntity
  8
DEFAULT
100
AcDbLine
 10
4.908633000000009
 20
70.33358708218657
 30
0.0
 11
4.849578000000008
 21
70.39264208218657
 31
0.0
  0
LINE
  5
1DF
330
1F
100
AcDbEntity
  8
DEFAULT
100
AcDbLine
 10
0.4159530000000018
 20
56.74734508218658
 30
0.0
 11
0.0
 21
56.74734508218658
 31
0.0
  0
LINE
  5
1E0
330
1F
100
AcDbEntity
  8
DEFAULT
100
AcDbLine
 10
25.05828
 20
54.31329008218657
 30
0.0
 11
25.05828
 21
56.62234508218658
 31
0.0
  0
LINE
  5
1E1
330
1F
100
AcDbEntity
  8
DEFAULT
100
AcDbLine
 10
2.038382999999996
 20
51.51620258218655
 30
0.0
 11
2.153365500000007
 21
51.63539658218656
 31
0.0
  0
LINE
  5
1E2
330
1F
100
AcDbEntity
  8
DEFAULT
100
AcDbLine
 10
0.8839509999999962
 20
51.56703258218657
 30
0.0
 11
2.038382999999996
 21
51.51620258218655
 31
0.0
  0
ARC
  5
1E3
330
1F
100
AcDbEntity
  8
DEFAULT
100
AcDbCircle
 10
0.984176550686165
 20
51.77305671260323
 30
0.0
 40
0.2291093697871915
100
AcDbArc
 50
171.1562482374552
 51
244.0582452709263
  0
LINE
  5
1E4
330
1F
100
AcDbEntity
  8
DEFAULT
100
AcDbLine
 10
0.9779120000000034
 20
65.35966908218657
 30
0.0
 11
0.7577909999999974
 21
51.80828008218657
 31
0.0
  0
ARC
  5
1E5
330
1F
100
AcDbEntity
  8
DEFAULT
100
AcDbCircle
 10
1.527460586710698
 20
65.3356793347125
 30
0.0
 40
0.5500719563289801
100
AcDbArc
 50
87.5075564019756
 51
177.5004226968818
  0
LINE
  5
1E6
330
1F
100
AcDbEntity
  8
DEFAULT
100
AcDbLine
 10
2.472902264853161
 20
65.84506206099411
 30
0.0
 11
1.551381911549996
 21
65.88523090404655
 31
0.0
  0
LINE
  5
1E7
330
1F
100
AcDbEntity
  8
DEFAULT
100
AcDbLine
 10
2.48014383821706
 20
65.8445207497025
 30
0.0
 11
2.472902264853161
 21
65.84506206099411
 31
0.0
  0
ARC
  5
1E8
330
1F
100
AcDbEntity
  8
DEFAULT
100
AcDbCircle
 10
2.454965573146995
 20
65.54132026475163
 30
0.0
 40
0.3042441110463443
100
AcDbArc
 50
359.1824290624332
 51
85.2529563300055
  0
LINE
  5
1E9
330
1F
100
AcDbEntity
  8
DEFAULT
100
AcDbLine
 10
2.758895625278981
 20
65.51714164024841
 30
0.0
 11
2.759178710682065
 21
65.53697906014352
 31
0.0
  0
LINE
  5
1EA
330
1F
100
AcDbEntity
  8
DEFAULT
100
AcDbLine
 10
2.230117000000007
 20
53.38340008218657
 30
0.0
 11
2.758895625278981
 21
65.51714164024841
 31
0.0
  0
LINE
  5
1EB
330
1F
100
AcDbEntity
  8
DEFAULT
100
AcDbLine
 10
2.157708999999997
 20
51.73072408218657
 30
0.0
 11
2.230117000000007
 21
53.38340008218657
 31
0.0
  0
LINE
  5
1EC
330
1F
100
AcDbEntity
  8
DEFAULT
100
AcDbLine
 10
2.153365500000007
 20
51.63539658218656
 30
0.0
 11
2.157708999999997
 21
51.73072408218657
 31
0.0
  0
LINE
  5
1ED
330
1F
100
AcDbEntity
  8
DEFAULT
100
AcDbLine
 10
24.458272
 20
56.68829008218658
 30
0.0
 11
24.517327
 21
56.74734508218658
 31
0.0
  0
ARC
  5
1EE
330
1F
100
AcDbEntity
  8
DEFAULT
100
AcDbCircle
 10
13.32589699999999
 20
45.88003308218658
 30
0.0
 40
0.1250000000000036
100
AcDbArc
 50
270.0000000000016
 51
359.9999999999968
  0
LINE
  5
1EF
330
1F
100
AcDbEntity
  8
DEFAULT
100
AcDbLine
 10
19.281024
 20
70.39264208218657
 30
0.0
 11
19.281024
 21
70.27641508218656
 31
0.0
  0
LINE
  5
1F0
330
1F
100
AcDbEntity
  8
DEFAULT
100
AcDbLine
 10
21.95510483955
 20
70.16870684091657
 30
0.0
 11
21.94495118004001
 21
70.28453673448655
 31
0.0
  0
LINE
  5
1F1
330
1F
100
AcDbEntity
  8
DEFAULT
100
AcDbLine
 10
6.152145000000004
 20
70.39264208218657
 30
0.0
 11
5.736193
 21
70.39264208218657
 31
0.0
  0
ARC
  5
1F2
330
1F
100
AcDbEntity
  8
DEFAULT
100
AcDbCircle
 10
51.74336288683352
 20
14.04116999999998
 30
0.0
 40
0.3937003221168858
100
AcDbArc
 50
184.9999668273234
 51
256.0211134260755
  0
LINE
  5
1F3
330
1F
100
AcDbEntity
  8
DEFAULT
100
AcDbLine
 10
11.77197240618668
 20
46.22500929516401
 30
0.0
 11
11.771669
 21
46.24725908218656
 31
0.0
  0
LINE
  5
1F4
330
1F
100
AcDbEntity
  8
DEFAULT
100
AcDbLine
 10
11.75834258287438
 20
46.08672608218656
 30
0.0
 11
11.77197240618668
 21
46.22500929516401
 31
0.0
  0
LINE
  5
1F5
330
1F
100
AcDbEntity
  8
DEFAULT
100
AcDbLine
 10
5.652255999999994
 20
70.39264208218657
 30
0.0
 11
4.933515
 21
70.39264208218657
 31
0.0
  0
LINE
  5
1F6
330
1F
100
AcDbEntity
  8
DEFAULT
100
AcDbLine
 10
4.933515
 20
70.27897708218657
 30
0.0
 11
4.933515
 21
70.39264208218657
 31
0.0
  0
LINE
  5
1F7
330
1F
100
AcDbEntity
  8
DEFAULT
100
AcDbLine
 10
4.908633000000009
 20
70.33357608218657
 30
0.0
 11
4.908633000000009
 21
70.27906608218655
 31
0.0
  0
LINE
  5
1F8
330
1F
100
AcDbEntity
  8
DEFAULT
100
AcDbLine
 10
2.571870000000004
 20
66.18979308218655
 30
0.0
 11
2.530418999999995
 21
66.17758208218655
 31
0.0
  0
LINE
  5
1F9
330
1F
100
AcDbEntity
  8
DEFAULT
100
AcDbLine
 10
5.677137000000002
 20
70.27632608218656
 30
0.0
 11
5.677137000000002
 21
70.33357608218657
 31
0.0
  0
LINE
  5
1FA
330
1F
100
AcDbEntity
  8
DEFAULT
100
AcDbLine
 10
5.652255999999994
 20
70.39264208218657
 30
0.0
 11
5.652255999999994
 21
70.27641508218656
 31
0.0
  0
LINE
  5
1FB
330
1F
100
AcDbEntity
  8
DEFAULT
100
AcDbLine
 10
4.849578000000008
 20
70.39264208218657
 30
0.0
 11
4.433626000000004
 21
70.39264208218657
 31
0.0
  0
LINE
  5
1FC
330
1F
100
AcDbEntity
  8
DEFAULT
100
AcDbLine
 10
11.76908900000001
 20
46.33760708218657
 30
0.0
 11
11.71518500000001
 21
47.81322608218656
 31
0.0
  0
LINE
  5
1FD
330
1F
100
AcDbEntity
  8
DEFAULT
100
AcDbLine
 10
12.466643
 20
70.26647908218655
 30
0.0
 11
2.988323000000008
 21
70.28453808218657
 31
0.0
  0
LINE
  5
1FE
330
1F
100
AcDbEntity
  8
DEFAULT
100
AcDbLine
 10
-0.125
 20
54.31329008218657
 30
0.0
 11
-0.125
 21
56.62234508218658
 31
0.0
  0
LINE
  5
1FF
330
1F
100
AcDbEntity
  8
DEFAULT
100
AcDbLine
 10
11.482383
 20
45.88003308218657
 30
0.0
 11
11.482383
 21
47.81418308218656
 31
0.0
  0
LINE
  5
200
330
1F
100
AcDbEntity
  8
DEFAULT
100
AcDbLine
 10
2.700975657469996
 20
65.85168508517657
 30
0.0
 11
2.530419244879994
 21
66.17758206522655
 31
0.0
  0
LINE
  5
201
330
1F
100
AcDbEntity
  8
DEFAULT
100
AcDbLine
 10
1.551382000000004
 20
65.88523108218655
 30
0.0
 11
1.551333999999997
 21
65.88525008218656
 31
0.0
  0
LINE
  5
202
330
1F
100
AcDbEntity
  8
DEFAULT
100
AcDbLine
 10
2.528607729019996
 20
66.14351791996657
 30
0.0
 11
2.526720678529998
 21
66.00134365018656
 31
0.0
  0
LINE
  5
203
330
1F
100
AcDbEntity
  8
DEFAULT
100
AcDbLine
 10
24.458272
 20
56.68827908218658
 30
0.0
 11
24.458272
 21
55.13778108218656
 31
0.0
  0
LINE
  5
204
330
1F
100
AcDbEntity
  8
DEFAULT
100
AcDbLine
 10
24.123565
 20
56.74734508218658
 30
0.0
 11
24.43339
 21
56.74734508218658
 31
0.0
  0
LINE
  5
205
330
1F
100
AcDbEntity
  8
DEFAULT
100
AcDbLine
 10
24.687354
 20
54.18829008218657
 30
0.0
 11
24.93328
 21
54.18829008218657
 31
0.0
  0
ARC
  5
206
330
1F
100
AcDbEntity
  8
DEFAULT
100
AcDbCircle
 10
22.14184779023968
 20
66.14701839759755
 30
0.0
 40
0.2628477905938393
100
AcDbArc
 50
359.2369404245225
 51
6.696157112759002
  0
LINE
  5
207
330
1F
100
AcDbEntity
  8
DEFAULT
100
AcDbLine
 10
24.517327
 20
56.74734508218658
 30
0.0
 11
24.93328
 21
56.74734508218658
 31
0.0
  0
LINE
  5
208
330
1F
100
AcDbEntity
  8
DEFAULT
100
AcDbLine
 10
24.43339
 20
55.15280708218657
 30
0.0
 11
24.43339
 21
56.74734508218658
 31
0.0
  0
ARC
  5
209
330
1F
100
AcDbEntity
  8
DEFAULT
100
AcDbCircle
 10
24.93328000000002
 20
56.6223450821866
 30
0.0
 40
0.1249999999999787
100
AcDbArc
 50
359.9999999999902
 51
90.00000000000978
  0
LINE
  5
20A
330
1F
100
AcDbEntity
  8
DEFAULT
100
AcDbLine
 10
11.771002
 20
46.27463508218656
 30
0.0
 11
11.76908900000001
 21
46.33760708218657
 31
0.0
  0
ARC
  5
20B
330
1F
100
AcDbEntity
  8
DEFAULT
100
AcDbCircle
 10
0.0000000000000073
 20
54.31329008218658
 30
0.0
 40
0.1250000000000073
100
AcDbArc
 50
180.0000000000033
 51
269.9999999999966
  0
LINE
  5
20C
330
1F
100
AcDbEntity
  8
DEFAULT
100
AcDbLine
 10
1.551334509349999
 20
65.88524987004655
 30
0.0
 11
1.50786569521
 21
65.88541337406656
 31
0.0
  0
ARC
  5
20D
330
1F
100
AcDbEntity
  8
DEFAULT
100
AcDbCircle
 10
11.60738300000002
 20
45.88003308218659
 30
0.0
 40
0.1250000000000178
100
AcDbArc
 50
180.0000000000098
 51
269.9999999999919
  0
ARC
  5
20E
330
1F
100
AcDbEntity
  8
DEFAULT
100
AcDbCircle
 10
45.50525388683356
 20
2.418504000000008
 30
0.0
 40
0.1023620000000083
100
AcDbArc
 50
180.000000000005
 51
269.999999999996
  0
SPLINE
  5
20F
330
1F
100
AcDbEntity
  8
DEFAULT
100
AcDbSpline
210
0.0
220
0.0
230
1.0
 70
     8
 71
     3
 72
    16
 73
    12
 74
     0
 42
0.0000000001
 43
0.0000000001
 40
0.0
 40
0.0
 40
0.0
 40
0.0
 40
1.0
 40
2.0
 40
3.0
 40
4.0
 40
5.0
 40
6.0
 40
7.0
 40
8.0
 40
9.0
 40
9.0
 40
9.0
 40
9.0
 10
36.79143431970355
 20
14.54867384695
 30
0.0
 10
36.89795523107829
 20
15.46379994539337
 30
0.0
 10
37.11184936572103
 20
17.29369904184367
 30
0.0
 10
37.42960815959421
 20
20.03986026251528
 30
0.0
 10
37.71418903637362
 20
22.7867510778304
 30
0.0
 10
37.85424363183203
 20
25.55816439013395
 30
0.0
 10
37.3849350818326
 20
28.29302263156176
 30
0.0
 10
36.63952615827632
 20
30.954499502696
 30
0.0
 10
35.89949147259944
 20
33.61737885310821
 30
0.0
 10
35.152088375659
 20
36.27823426794353
 30
0.0
 10
34.66483064588793
 20
38.05519785994054
 30
0.0
 10
34.42425757111356
 20
38.94450560006
 30
0.0
  0
ARC
  5
210
330
1F
100
AcDbEntity
  8
DEFAULT
100
AcDbCircle
 10
36.51698788683359
 20
1.857850999999971
 30
0.0
 40
0.4999996028817993
100
AcDbArc
 50
298.216097378837
 51
355.0000959861724
  0
SPLINE
  5
211
330
1F
100
AcDbEntity
  8
DEFAULT
100
AcDbSpline
210
0.0
220
0.0
230
1.0
 70
     8
 71
     3
 72
    14
 73
    10
 74
     0
 42
0.0000000001
 43
0.0000000001
 40
0.0
 40
0.0
 40
0.0
 40
0.0
 40
1.0
 40
2.0
 40
3.0
 40
4.0
 40
5.0
 40
6.0
 40
7.0
 40
7.0
 40
7.0
 40
7.0
 10
45.19839113231355
 20
4.18936889786
 30
0.0
 10
45.23157758703972
 20
4.242283194549813
 30
0.0
 10
45.18958801133033
 20
4.365288974457712
 30
0.0
 10
45.04794931491556
 20
4.469306199484574
 30
0.0
 10
44.89461674527141
 20
4.552411738224155
 30
0.0
 10
44.73393892960615
 20
4.620638521907757
 30
0.0
 10
44.56802141383065
 20
4.674663767373929
 30
0.0
 10
44.3979958467403
 20
4.714068733085163
 30
0.0
 10
44.2825043353558
 20
4.728709774857553
 30
0.0
 10
44.22446994220356
 20
4.73198823221
 30
0.0
  0
LINE
  5
212
330
1F
100
AcDbEntity
  8
DEFAULT
100
AcDbLine
 10
22.894897
 20
51.51620258218655
 30
0.0
 11
22.7799145
 21
51.63539658218656
 31
0.0
  0
LINE
  5
213
330
1F
100
AcDbEntity
  8
DEFAULT
100
AcDbLine
 10
24.049329
 20
51.56703258218657
 30
0.0
 11
22.894897
 21
51.51620258218655
 31
0.0
  0
ARC
  5
214
330
1F
100
AcDbEntity
  8
DEFAULT
100
AcDbCircle
 10
23.94910344931386
 20
51.77305671260321
 30
0.0
 40
0.229109369787163
100
AcDbArc
 50
295.9417547290676
 51
8.843751762551355
  0
LINE
  5
215
330
1F
100
AcDbEntity
  8
DEFAULT
100
AcDbLine
 10
23.95536800000001
 20
65.35966908218657
 30
0.0
 11
24.175489
 21
51.80828008218657
 31
0.0
  0
ARC
  5
216
330
1F
100
AcDbEntity
  8
DEFAULT
100
AcDbCircle
 10
23.4058194132893
 20
65.33567933471248
 30
0.0
 40
0.5500719563289946
100
AcDbArc
 50
2.499577303119591
 51
92.49244359802493
  0
LINE
  5
217
330
1F
100
AcDbEntity
  8
DEFAULT
100
AcDbLine
 10
22.46037773514685
 20
65.84506206099411
 30
0.0
 11
23.38189808845
 21
65.88523090404655
 31
0.0
  0
LINE
  5
218
330
1F
100
AcDbEntity
  8
DEFAULT
100
AcDbLine
 10
22.45313616178294
 20
65.8445207497025
 30
0.0
 11
22.46037773514685
 21
65.84506206099411
 31
0.0
  0
ARC
  5
219
330
1F
100
AcDbEntity
  8
DEFAULT
100
AcDbCircle
 10
22.47831442685301
 20
65.54132026475163
 30
0.0
 40
0.3042441110463363
100
AcDbArc
 50
94.74704366999559
 51
180.8175709375668
  0
LINE
  5
21A
330
1F
100
AcDbEntity
  8
DEFAULT
100
AcDbLine
 10
22.17438437472103
 20
65.51714164024841
 30
0.0
 11
22.17410128931795
 21
65.53697906014352
 31
0.0
  0
LINE
  5
21B
330
1F
100
AcDbEntity
  8
DEFAULT
100
AcDbLine
 10
22.703163
 20
53.38340008218657
 30
0.0
 11
22.17438437472103
 21
65.51714164024841
 31
0.0
  0
LINE
  5
21C
330
1F
100
AcDbEntity
  8
DEFAULT
100
AcDbLine
 10
22.775571
 20
51.73072408218657
 30
0.0
 11
22.703163
 21
53.38340008218657
 31
0.0
  0
LINE
  5
21D
330
1F
100
AcDbEntity
  8
DEFAULT
100
AcDbLine
 10
22.7799145
 20
51.63539658218656
 30
0.0
 11
22.775571
 21
51.73072408218657
 31
0.0
  0
LINE
  5
21E
330
1F
100
AcDbEntity
  8
DEFAULT
100
AcDbLine
 10
11.794718
 20
2.716536236396425
 30
0.0
 11
11.77915223549667
 21
2.699549020605581
 31
0.0
  0
ARC
  5
21F
330
1F
100
AcDbEntity
  8
DEFAULT
100
AcDbCircle
 10
6.152145000000005
 20
0.1249999999999986
 30
0.0
 40
0.1249999999999986
100
AcDbArc
 50
269.9999999999996
 51
0.0000000000006488
  0
LINE
  5
220
330
1F
100
AcDbEntity
  8
DEFAULT
100
AcDbLine
 10
24.51733329613
 20
1.603564519590002
 30
0.0
 11
24.45827817802
 21
1.510403866539999
 31
0.0
  0
ARC
  5
221
330
1F
100
AcDbEntity
  8
DEFAULT
100
AcDbCircle
 10
11.607383
 20
2.434054999999997
 30
0.0
 40
0.125000000000004
100
AcDbArc
 50
90.00000000000163
 51
179.9999999999982
  0
LINE
  5
222
330
1F
100
AcDbEntity
  8
DEFAULT
100
AcDbLine
 10
23.68977424101
 20
1.510403866539999
 30
0.0
 11
23.6307191229
 21
1.603564519590002
 31
0.0
  0
LINE
  5
223
330
1F
100
AcDbEntity
  8
DEFAULT
100
AcDbLine
 10
12.023335
 20
-0.0000005000000005
 30
0.0
 11
12.0823905
 21
0.0590550000000007
 31
0.0
  0
LINE
  5
224
330
1F
100
AcDbEntity
  8
DEFAULT
100
AcDbLine
 10
5.736193
 20
0.0
 30
0.0
 11
5.736193
 21
1.603565
 31
0.0
  0
LINE
  5
225
330
1F
100
AcDbEntity
  8
DEFAULT
100
AcDbLine
 10
6.277145000000004
 20
2.434055000000001
 30
0.0
 11
6.277145000000004
 21
0.125
 31
0.0
  0
LINE
  5
226
330
1F
100
AcDbEntity
  8
DEFAULT
100
AcDbLine
 10
6.152145000000004
 20
2.559055000000001
 30
0.0
 11
6.152145000000004
 21
0.0
 31
0.0
  0
LINE
  5
227
330
1F
100
AcDbEntity
  8
DEFAULT
100
AcDbLine
 10
20.083708
 20
1.603565
 30
0.0
 11
20.083708
 21
0.0
 31
0.0
  0
SPLINE
  5
228
330
1F
100
AcDbEntity
  8
DEFAULT
100
AcDbSpline
210
0.0
220
0.0
230
1.0
 70
     8
 71
     3
 72
    12
 73
     8
 74
     0
 42
0.0000000001
 43
0.0000000001
 40
0.0
 40
0.0
 40
0.0
 40
0.0
 40
1.0
 40
2.0
 40
3.0
 40
4.0
 40
5.0
 40
5.0
 40
5.0
 40
5.0
 10
14.80859290172
 20
4.729964216950002
 30
0.0
 10
14.71555466113261
 20
4.72355577916553
 30
0.0
 10
14.5305637067697
 20
4.696962308048541
 30
0.0
 10
14.25940486024589
 20
4.627773619713771
 30
0.0
 10
13.99584530764275
 20
4.529954111294916
 30
0.0
 10
13.75022020671572
 20
4.402255900551779
 30
0.0
 10
13.6052973984587
 20
4.264480940083022
 30
0.0
 10
13.60479100000001
 20
4.166142000000001
 30
0.0
  0
LINE
  5
229
330
1F
100
AcDbEntity
  8
DEFAULT
100
AcDbLine
 10
11.36428000000001
 20
10.524804
 30
0.0
 11
11.389533
 21
10.524804
 31
0.0
  0
LINE
  5
22A
330
1F
100
AcDbEntity
  8
DEFAULT
100
AcDbLine
 10
5.854906999999997
 20
1.814274000000001
 30
0.0
 11
4.730862999999999
 21
1.814274000000001
 31
0.0
  0
LINE
  5
22B
330
1F
100
AcDbEntity
  8
DEFAULT
100
AcDbLine
 10
4.322039000000004
 20
13.164242
 30
0.0
 11
3.772019999999998
 21
13.164242
 31
0.0
  0
LINE
  5
22C
330
1F
100
AcDbEntity
  8
DEFAULT
100
AcDbLine
 10
5.980375764503336
 20
2.699549020605581
 30
0.0
 11
5.96481
 21
2.716536236396425
 31
0.0
  0
ARC
  5
22D
330
1F
100
AcDbEntity
  8
DEFAULT
100
AcDbCircle
 10
-0.0000000000000023
 20
2.434055000000003
 30
0.0
 40
0.1249999999999973
100
AcDbArc
 50
89.99999999999896
 51
180.0000000000012
  0
LINE
  5
22E
330
1F
100
AcDbEntity
  8
DEFAULT
100
AcDbLine
 10
11.58475300000001
 20
9.619292000000002
 30
0.0
 11
12.045112
 21
9.619292000000002
 31
0.0
  0
LINE
  5
22F
330
1F
100
AcDbEntity
  8
DEFAULT
100
AcDbLine
 10
5.987826999999996
 20
2.766535999999999
 30
0.0
 11
4.584276000000003
 21
2.766535999999999
 31
0.0
  0
LINE
  5
230
330
1F
100
AcDbEntity
  8
DEFAULT
100
AcDbLine
 10
1.542592999999997
 20
2.864996000000001
 30
0.0
 11
1.546030000000002
 21
2.766535999999999
 31
0.0
  0
LINE
  5
231
330
1F
100
AcDbEntity
  8
DEFAULT
100
AcDbLine
 10
4.552033999999992
 20
13.471481
 30
0.0
 11
4.552109000000002
 21
13.471482
 31
0.0
  0
ARC
  5
232
330
1F
100
AcDbEntity
  8
DEFAULT
100
AcDbCircle
 10
1.71852
 20
2.434055000000003
 30
0.0
 40
0.124999999999998
100
AcDbArc
 50
359.999999999999
 51
90.00000000000091
  0
ARC
  5
233
330
1F
100
AcDbEntity
  8
DEFAULT
100
AcDbCircle
 10
4.433625999999999
 20
2.434055000000005
 30
0.0
 40
0.1249999999999956
100
AcDbArc
 50
89.99999999999797
 51
180.000000000002
  0
ARC
  5
234
330
1F
100
AcDbEntity
  8
DEFAULT
100
AcDbCircle
 10
6.152145000000006
 20
2.434055000000003
 30
0.0
 40
0.1249999999999982
100
AcDbArc
 50
359.9999999999992
 51
90.00000000000081
  0
LINE
  5
235
330
1F
100
AcDbEntity
  8
DEFAULT
100
AcDbLine
 10
1.546007000000003
 20
2.766535999999999
 30
0.0
 11
0.1506150000000019
 21
2.766535999999999
 31
0.0
  0
LINE
  5
236
330
1F
100
AcDbEntity
  8
DEFAULT
100
AcDbLine
 10
10.662897
 20
12.561849
 30
0.0
 11
14.270388
 21
12.561849
 31
0.0
  0
LINE
  5
237
330
1F
100
AcDbEntity
  8
DEFAULT
100
AcDbLine
 10
11.484959
 20
9.516962
 30
0.0
 11
13.44832600000001
 21
9.516962
 31
0.0
  0
LINE
  5
238
330
1F
100
AcDbEntity
  8
DEFAULT
100
AcDbLine
 10
5.677137000000002
 20
0.0590609999999998
 30
0.0
 11
5.677137000000002
 21
1.510404000000001
 31
0.0
  0
SPLINE
  5
239
330
1F
100
AcDbEntity
  8
DEFAULT
100
AcDbSpline
210
0.0
220
0.0
230
1.0
 70
     8
 71
     3
 72
    14
 73
    10
 74
     0
 42
0.0000000001
 43
0.0000000001
 40
0.0
 40
0.0
 40
0.0
 40
0.0
 40
1.0
 40
2.0
 40
3.0
 40
4.0
 40
5.0
 40
6.0
 40
7.0
 40
7.0
 40
7.0
 40
7.0
 10
23.72812016328507
 20
3.251948988540001
 30
0.0
 10
23.25225436828629
 20
3.413754867869647
 30
0.0
 10
22.27477251480353
 20
3.67354500673239
 30
0.0
 10
20.8192178834379
 20
4.08942133634804
 30
0.0
 10
19.36011903481995
 20
4.497550052257092
 30
0.0
 10
17.90093076592633
 20
4.897675052305334
 30
0.0
 10
16.44131590241057
 20
5.322010031496397
 30
0.0
 10
14.98538480087493
 20
5.664125288711947
 30
0.0
 10
13.99119541987251
 20
6.044233048359406
 30
0.0
 10
13.52179268781006
 20
5.88586085499
 30
0.0
  0
ARC
  5
23A
330
1F
100
AcDbEntity
  8
DEFAULT
100
AcDbCircle
 10
23.40780626705973
 20
2.888479601164988
 30
0.0
 40
0.4844698005797937
100
AcDbArc
 50
345.421555848546
 51
48.6113084010652
  0
LINE
  5
23B
330
1F
100
AcDbEntity
  8
DEFAULT
100
AcDbLine
 10
2.114432636220002
 20
48.25976567091656
 30
0.0
 11
2.250494000000003
 21
53.85091108218657
 31
0.0
  0
LINE
  5
23C
330
1F
100
AcDbEntity
  8
DEFAULT
100
AcDbLine
 10
11.771669
 20
46.24725908218656
 30
0.0
 11
11.77224200000001
 21
46.24920208218657
 31
0.0
  0
LINE
  5
23D
330
1F
100
AcDbEntity
  8
DEFAULT
100
AcDbLine
 10
19.25614300000001
 20
70.27632608218656
 30
0.0
 11
19.25614300000001
 21
70.33357608218657
 31
0.0
  0
ARC
  5
23E
330
1F
100
AcDbEntity
  8
DEFAULT
100
AcDbCircle
 10
12.466643
 20
46.10936408218655
 30
0.0
 40
0.7086611748531535
100
AcDbArc
 50
181.8306091687652
 51
358.1693882484783
  0
LINE
  5
23F
330
1F
100
AcDbEntity
  8
DEFAULT
100
AcDbLine
 10
22.23230434253
 20
65.85168508517657
 30
0.0
 11
22.40286075512
 21
66.17758206522655
 31
0.0
  0
ARC
  5
240
330
1F
100
AcDbEntity
  8
DEFAULT
100
AcDbCircle
 10
0.8592599891928479
 20
54.54262101102917
 30
0.0
 40
0.7086614608792061
100
AcDbArc
 50
109.8305440666254
 51
261.3640959228877
  0
LINE
  5
241
330
1F
100
AcDbEntity
  8
DEFAULT
100
AcDbLine
 10
0.7545786205179752
 20
55.23902745199554
 30
0.0
 11
0.6188540646281808
 21
55.20925888691808
 31
0.0
  0
LINE
  5
242
330
1F
100
AcDbEntity
  8
DEFAULT
100
AcDbLine
 10
0.7804391441561478
 20
55.24782172535538
 30
0.0
 11
0.7545786205179752
 21
55.23902745199554
 31
0.0
  0
LINE
  5
243
330
1F
100
AcDbEntity
  8
DEFAULT
100
AcDbLine
 10
22.2042445351
 20
63.96045443018657
 30
0.0
 11
22.23839327564001
 21
64.04822040472655
 31
0.0
  0
LINE
  5
244
330
1F
100
AcDbEntity
  8
DEFAULT
100
AcDbLine
 10
23.38194549065
 20
65.88524987004655
 30
0.0
 11
23.42541430479
 21
65.88541337406656
 31
0.0
  0
LINE
  5
245
330
1F
100
AcDbEntity
  8
DEFAULT
100
AcDbLine
 10
2.114432636220002
 20
48.25976567091656
 30
0.0
 11
2.380727258589999
 21
56.83937614338655
 31
0.0
  0
ARC
  5
246
330
1F
100
AcDbEntity
  8
DEFAULT
100
AcDbCircle
 10
49.78919627991456
 20
-145.263931458778
 30
0.0
 40
160.7075543923096
100
AcDbArc
 50
88.34522170892824
 51
91.79767687012867
  0
ARC
  5
247
330
1F
100
AcDbEntity
  8
DEFAULT
100
AcDbCircle
 10
14.89691282577917
 20
26.47441225899507
 30
0.0
 40
24.48119009626309
100
AcDbArc
 50
15.5237929024343
 51
31.52999247538212
  0
LINE
  5
248
330
1F
100
AcDbEntity
  8
DEFAULT
100
AcDbLine
 10
50.59129383626674
 20
13.55523396209676
 30
0.0
 11
50.63617894612816
 21
13.47272102185881
 31
0.0
  0
LINE
  5
249
330
1F
100
AcDbEntity
  8
DEFAULT
100
AcDbLine
 10
36.99971088683355
 20
3.294561000000002
 30
0.0
 11
45.09021119236355
 21
5.885826964909999
 31
0.0
  0
ARC
  5
24A
330
1F
100
AcDbEntity
  8
DEFAULT
100
AcDbCircle
 10
58.15195647737259
 20
2.956011868169872
 30
0.0
 40
0.3539878643926269
100
AcDbArc
 50
359.2727799687488
 51
73.01609020520603
  0
LINE
  5
24B
330
1F
100
AcDbEntity
  8
DEFAULT
100
AcDbLine
 10
45.59566388683355
 20
5.962693000000002
 30
0.0
 11
45.60064988683355
 21
5.962693000000002
 31
0.0
  0
LINE
  5
24C
330
1F
100
AcDbEntity
  8
DEFAULT
100
AcDbLine
 10
45.60064988683355
 20
5.962693000000002
 30
0.0
 11
45.59566388683355
 21
5.962693000000002
 31
0.0
  0
LINE
  5
24D
330
1F
100
AcDbEntity
  8
DEFAULT
100
AcDbLine
 10
23.84581068051
 20
65.66587844063656
 30
0.0
 11
23.92768945939
 21
65.50958275180656
 31
0.0
  0
LINE
  5
24E
330
1F
100
AcDbEntity
  8
DEFAULT
100
AcDbLine
 10
2.605831515760002
 20
27.69960736413
 30
0.0
 11
2.677607799539999
 21
27.368288022
 31
0.0
  0
LINE
  5
24F
330
1F
100
AcDbEntity
  8
DEFAULT
100
AcDbLine
 10
23.859459
 20
2.766535999999999
 30
0.0
 11
23.859459
 21
2.716536000000001
 31
0.0
  0
ARC
  5
250
330
1F
100
AcDbEntity
  8
DEFAULT
100
AcDbCircle
 10
12.33419450429202
 20
3.256624503226605
 30
0.0
 40
0.5657138631049243
100
AcDbArc
 50
76.45992226494155
 51
169.0003663582189
  0
LINE
  5
251
330
1F
100
AcDbEntity
  8
DEFAULT
100
AcDbLine
 10
13.10725074840001
 20
2.163622138059999
 30
0.0
 11
13.02866548086
 21
1.814273533049999
 31
0.0
  0
LINE
  5
252
330
1F
100
AcDbEntity
  8
DEFAULT
100
AcDbLine
 10
13.02866548086
 20
1.814273533049999
 30
0.0
 11
12.90995055926
 21
1.603564519590002
 31
0.0
  0
LINE
  5
253
330
1F
100
AcDbEntity
  8
DEFAULT
100
AcDbLine
 10
19.25614899999999
 20
0.0590609999999998
 30
0.0
 11
19.25614899999999
 21
1.510404000000001
 31
0.0
  0
LINE
  5
254
330
1F
100
AcDbEntity
  8
DEFAULT
100
AcDbLine
 10
9.722019000000003
 20
12.884905
 30
0.0
 11
4.622007999999994
 21
12.884405
 31
0.0
  0
LINE
  5
255
330
1F
100
AcDbEntity
  8
DEFAULT
100
AcDbLine
 10
22.72914900000001
 20
27.698383
 30
0.0
 11
22.327455
 21
27.699608
 31
0.0
  0
LINE
  5
256
330
1F
100
AcDbEntity
  8
DEFAULT
100
AcDbLine
 10
4.849578000000008
 20
1.603565
 30
0.0
 11
4.849578000000008
 21
0.0
 31
0.0
  0
LINE
  5
257
330
1F
100
AcDbEntity
  8
DEFAULT
100
AcDbLine
 10
9.15955600000001
 20
13.83485
 30
0.0
 11
9.075401999999997
 21
13.834842
 31
0.0
  0
LINE
  5
258
330
1F
100
AcDbEntity
  8
DEFAULT
100
AcDbLine
 10
5.507452000000001
 20
2.766535999999999
 30
0.0
 11
5.507452000000001
 21
2.716536000000001
 31
0.0
  0
ARC
  5
259
330
1F
100
AcDbEntity
  8
DEFAULT
100
AcDbCircle
 10
18.78114100000001
 20
0.1249999999999994
 30
0.0
 40
0.1249999999999994
100
AcDbArc
 50
179.9999999999997
 51
270.0
  0
LINE
  5
25A
330
1F
100
AcDbEntity
  8
DEFAULT
100
AcDbLine
 10
0.1717700000000093
 20
2.699549000000001
 30
0.0
 11
0.2187760000000054
 21
2.162262000000002
 31
0.0
  0
LINE
  5
25B
330
1F
100
AcDbEntity
  8
DEFAULT
100
AcDbLine
 10
9.15955600000001
 20
14.383071
 30
0.0
 11
15.773729
 21
14.383071
 31
0.0
  0
LINE
  5
25C
330
1F
100
AcDbEntity
  8
DEFAULT
100
AcDbLine
 10
0.4750080000000025
 20
1.510404000000001
 30
0.0
 11
0.4750080000000025
 21
0.0590609999999998
 31
0.0
  0
ARC
  5
25D
330
1F
100
AcDbEntity
  8
DEFAULT
100
AcDbCircle
 10
24.93328600000001
 20
0.1249999999999935
 30
0.0
 40
0.1249999999999964
100
AcDbArc
 50
269.9999999999984
 51
0.0000000000030088
  0
LINE
  5
25E
330
1F
100
AcDbEntity
  8
DEFAULT
100
AcDbLine
 10
10.020214
 20
13.217547
 30
0.0
 11
9.456125999999998
 21
13.634005
 31
0.0
  0
LINE
  5
25F
330
1F
100
AcDbEntity
  8
DEFAULT
100
AcDbLine
 10
8.927764999999994
 20
14.192926
 30
0.0
 11
9.075401999999997
 21
14.192926
 31
0.0
  0
LINE
  5
260
330
1F
100
AcDbEntity
  8
DEFAULT
100
AcDbLine
 10
2.592108999999994
 20
13.47129
 30
0.0
 11
3.937194000000005
 21
13.471141
 31
0.0
  0
LINE
  5
261
330
1F
100
AcDbEntity
  8
DEFAULT
100
AcDbLine
 10
3.771982000000008
 20
13.554242
 30
0.0
 11
4.322001
 21
13.554242
 31
0.0
  0
LINE
  5
262
330
1F
100
AcDbEntity
  8
DEFAULT
100
AcDbLine
 10
9.15955600000001
 20
13.659129
 30
0.0
 11
15.773729
 21
13.659129
 31
0.0
  0
LINE
  5
263
330
1F
100
AcDbEntity
  8
DEFAULT
100
AcDbLine
 10
5.078318999999993
 20
2.766535999999999
 30
0.0
 11
5.078318999999993
 21
2.716536000000001
 31
0.0
  0
LINE
  5
264
330
1F
100
AcDbEntity
  8
DEFAULT
100
AcDbLine
 10
-0.125
 20
2.434055000000001
 30
0.0
 11
-0.125
 21
0.125
 31
0.0
  0
LINE
  5
265
330
1F
100
AcDbEntity
  8
DEFAULT
100
AcDbLine
 10
4.652278199790004
 20
2.163622138059999
 30
0.0
 11
4.730863467329996
 21
1.814273533049999
 31
0.0
  0
LINE
  5
266
330
1F
100
AcDbEntity
  8
DEFAULT
100
AcDbLine
 10
4.622019999999992
 20
12.884405
 30
0.0
 11
4.322039000000004
 21
13.164242
 31
0.0
  0
LINE
  5
267
330
1F
100
AcDbEntity
  8
DEFAULT
100
AcDbLine
 10
0.4998899999999935
 20
0.8420260000000006
 30
0.0
 11
0.4998899999999935
 21
1.528175999999998
 31
0.0
  0
ARC
  5
268
330
1F
100
AcDbEntity
  8
DEFAULT
100
AcDbCircle
 10
23.21476600000001
 20
2.43405499999999
 30
0.0
 40
0.1250000000000107
100
AcDbArc
 50
90.00000000000489
 51
179.9999999999951
  0
LINE
  5
269
330
1F
100
AcDbEntity
  8
DEFAULT
100
AcDbLine
 10
19.28103
 20
0.8420279999999991
 30
0.0
 11
19.99977100000001
 21
0.8420279999999991
 31
0.0
  0
LINE
  5
26A
330
1F
100
AcDbEntity
  8
DEFAULT
100
AcDbLine
 10
12.46664252735999
 20
9.577842257099999
 30
0.0
 11
11.79165391551
 21
9.685562854739999
 31
0.0
  0
ARC
  5
26B
330
1F
100
AcDbEntity
  8
DEFAULT
100
AcDbCircle
 10
20.49966000000001
 20
0.1249999999999977
 30
0.0
 40
0.1249999999999964
100
AcDbArc
 50
269.9999999999984
 51
0.0000000000010687
  0
SPLINE
  5
26C
330
1F
100
AcDbEntity
  8
DEFAULT
100
AcDbSpline
210
0.0
220
0.0
230
1.0
 70
     8
 71
     3
 72
    19
 73
    15
 74
     0
 42
0.0000000001
 43
0.0000000001
 40
0.0
 40
0.0
 40
0.0
 40
0.0
 40
0.1235919666214
 40
0.2451043183287
 40
0.3625079393068
 40
0.4738760400769
 40
0.5774394841606
 40
0.6716499905291
 40
0.7552606378014
 40
0.8274447239784
 40
0.8880009336909
 40
0.937747797675
 40
0.9792454826625
 40
1.0
 40
1.0
 40
1.0
 40
1.0
 10
12.46664252735999
 20
12.33299688516
 30
0.0
 10
12.41302163584
 20
12.33299688516
 30
0.0
 10
12.30666808346
 20
12.33076782654
 30
0.0
 10
12.14966296489
 20
12.32077308052
 30
0.0
 10
11.99852730156
 20
12.30432864715
 30
0.0
 10
11.85605646854
 20
12.2817509192
 30
0.0
 10
11.724868027
 20
12.25347422501
 30
0.0
 10
11.60734790885999
 20
12.22004220709
 30
0.0
 10
11.50558582227001
 20
12.18208443348
 30
0.0
 10
11.4212962161
 20
12.14028657017
 30
0.0
 10
11.35574675378
 20
12.09522605562
 30
0.0
 10
11.30976709047
 20
12.04716685055
 30
0.0
 10
11.28813043925
 20
12.00228729552
 30
0.0
 10
11.28548938119
 20
11.97497483116
 30
0.0
 10
11.28565204778999
 20
11.96589126526
 30
0.0
  0
ARC
  5
26D
330
1F
100
AcDbEntity
  8
DEFAULT
100
AcDbCircle
 10
11.86706909275545
 20
10.09926686709697
 30
0.0
 40
0.4205216471836225
100
AcDbArc
 50
200.7859393382432
 51
259.6688401708052
  0
LINE
  5
26E
330
1F
100
AcDbEntity
  8
DEFAULT
100
AcDbLine
 10
5.854907483749997
 20
1.814273533049999
 30
0.0
 11
5.933470638320003
 21
2.163334469540001
 31
0.0
  0
LINE
  5
26F
330
1F
100
AcDbEntity
  8
DEFAULT
100
AcDbLine
 10
11.47391802498001
 20
9.95003317902
 30
0.0
 11
11.28556021058
 21
11.9658897735
 31
0.0
  0
LINE
  5
270
330
1F
100
AcDbEntity
  8
DEFAULT
100
AcDbLine
 10
0.4159530000000018
 20
0.0
 30
0.0
 11
0.4750080000000025
 21
0.0590550000000007
 31
0.0
  0
LINE
  5
271
330
1F
100
AcDbEntity
  8
DEFAULT
100
AcDbLine
 10
4.849578000000008
 20
0.0
 30
0.0
 11
4.908633000000009
 21
0.0590550000000007
 31
0.0
  0
LINE
  5
272
330
1F
100
AcDbEntity
  8
DEFAULT
100
AcDbLine
 10
4.308626000000004
 20
2.434055000000001
 30
0.0
 11
4.308626000000004
 21
0.125
 31
0.0
  0
LINE
  5
273
330
1F
100
AcDbEntity
  8
DEFAULT
100
AcDbLine
 10
3.771995000000004
 20
13.471728
 30
0.0
 11
3.771982000000008
 21
13.554242
 31
0.0
  0
LINE
  5
274
330
1F
100
AcDbEntity
  8
DEFAULT
100
AcDbLine
 10
3.771951000000001
 20
13.246916
 30
0.0
 11
3.771963999999997
 21
13.164402
 31
0.0
  0
LINE
  5
275
330
1F
100
AcDbEntity
  8
DEFAULT
100
AcDbLine
 10
5.976709999999997
 20
3.086559000000001
 30
0.0
 11
5.987878999999992
 21
2.766535999999999
 31
0.0
  0
LINE
  5
276
330
1F
100
AcDbEntity
  8
DEFAULT
100
AcDbLine
 10
23.51200420131001
 20
1.814273533049999
 30
0.0
 11
23.43344104674
 21
2.163334469540001
 31
0.0
  0
ARC
  5
277
330
1F
100
AcDbEntity
  8
DEFAULT
100
AcDbCircle
 10
11.607383
 20
0.1250000000000046
 30
0.0
 40
0.1250000000000036
100
AcDbArc
 50
180.0000000000021
 51
269.9999999999984
  0
LINE
  5
278
330
1F
100
AcDbEntity
  8
DEFAULT
100
AcDbLine
 10
0.1873350000000045
 20
2.716535738299618
 30
0.0
 11
0.1717697392958115
 21
2.699548977187338
 31
0.0
  0
LINE
  5
279
330
1F
100
AcDbEntity
  8
DEFAULT
100
AcDbLine
 10
1.546749764503332
 20
2.699549020605581
 30
0.0
 11
1.531183999999996
 21
2.716536236396425
 31
0.0
  0
LINE
  5
27A
330
1F
100
AcDbEntity
  8
DEFAULT
100
AcDbLine
 10
4.620960999999994
 20
2.716536236396425
 30
0.0
 11
4.605395235496673
 21
2.699549020605581
 31
0.0
  0
LINE
  5
27B
330
1F
100
AcDbEntity
  8
DEFAULT
100
AcDbLine
 10
20.20242253267
 20
1.814273533049999
 30
0.0
 11
20.08370761108
 21
1.603564519590002
 31
0.0
  0
LINE
  5
27C
330
1F
100
AcDbEntity
  8
DEFAULT
100
AcDbLine
 10
12.85089500000001
 20
1.510404000000001
 30
0.0
 11
12.85089500000001
 21
0.0590609999999998
 31
0.0
  0
ARC
  5
27D
330
1F
100
AcDbEntity
  8
DEFAULT
100
AcDbCircle
 10
50.02365688683356
 20
14.41380000000001
 30
0.0
 40
0.1968507006780883
100
AcDbArc
 50
8.10836863019204
 51
87.35009642109458
  0
LINE
  5
27E
330
1F
100
AcDbEntity
  8
DEFAULT
100
AcDbLine
 10
19.078379
 20
1.814274000000001
 30
0.0
 11
20.20242300000001
 21
1.814274000000001
 31
0.0
  0
LINE
  5
27F
330
1F
100
AcDbEntity
  8
DEFAULT
100
AcDbLine
 10
15.77373
 20
15.088775
 30
0.0
 11
15.77373
 21
13.427658
 31
0.0
  0
LINE
  5
280
330
1F
100
AcDbEntity
  8
DEFAULT
100
AcDbLine
 10
11.44369691030001
 20
6.7226909014
 30
0.0
 11
13.4895890897
 21
6.7226909014
 31
0.0
  0
ARC
  5
281
330
1F
100
AcDbEntity
  8
DEFAULT
100
AcDbCircle
 10
24.93328
 20
54.31329008218658
 30
0.0
 40
0.1250000000000036
100
AcDbArc
 50
270.0000000000016
 51
359.9999999999968
  0
LINE
  5
282
330
1F
100
AcDbEntity
  8
DEFAULT
100
AcDbLine
 10
13.569006
 20
10.524804
 30
0.0
 11
13.54375300000001
 21
10.524804
 31
0.0
  0
LINE
  5
283
330
1F
100
AcDbEntity
  8
DEFAULT
100
AcDbLine
 10
20.181252
 20
13.246775
 30
0.0
 11
20.38115500000001
 21
13.246693
 31
0.0
  0
LINE
  5
284
330
1F
100
AcDbEntity
  8
DEFAULT
100
AcDbLine
 10
20.996092
 20
13.471141
 30
0.0
 11
20.381252
 21
13.471481
 31
0.0
  0
LINE
  5
285
330
1F
100
AcDbEntity
  8
DEFAULT
100
AcDbLine
 10
24.433396
 20
0.8420260000000006
 30
0.0
 11
24.433396
 21
1.528175999999998
 31
0.0
  0
LINE
  5
286
330
1F
100
AcDbEntity
  8
DEFAULT
100
AcDbLine
 10
24.761516
 20
2.699549000000001
 30
0.0
 11
24.71451
 21
2.162262000000002
 31
0.0
  0
LINE
  5
287
330
1F
100
AcDbEntity
  8
DEFAULT
100
AcDbLine
 10
0.1702915000000047
 20
3.330465
 30
0.0
 11
0.1505980000000022
 21
2.766535999999999
 31
0.0
  0
ARC
  5
288
330
1F
100
AcDbEntity
  8
DEFAULT
100
AcDbCircle
 10
0.5656873079280896
 20
3.316200622558917
 30
0.0
 40
0.3956530265155126
100
AcDbArc
 50
106.18531742813
 51
177.9338821502124
  0
SPLINE
  5
289
330
1F
100
AcDbEntity
  8
DEFAULT
100
AcDbSpline
210
0.0
220
0.0
230
1.0
 70
     8
 71
     3
 72
    19
 73
    15
 74
     0
 42
0.0000000001
 43
0.0000000001
 40
0.0
 40
0.0
 40
0.0
 40
0.0
 40
1.0
 40
2.0
 40
3.0
 40
4.0
 40
5.0
 40
6.0
 40
7.0
 40
8.0
 40
9.0
 40
10.0
 40
11.0
 40
12.0
 40
12.0
 40
12.0
 40
12.0
 10
11.44369691030001
 20
6.7226909014
 30
0.0
 10
11.12536553902731
 20
6.725051837828964
 30
0.0
 10
10.50303489565749
 20
6.588448271959781
 30
0.0
 10
9.5944524797399
 20
6.311658357378441
 30
0.0
 10
8.68021711094984
 20
6.050474051302096
 30
0.0
 10
7.766474225702552
 20
5.788655795608754
 30
0.0
 10
6.852597846402546
 20
5.527012520050409
 30
0.0
 10
5.938761124064499
 20
5.265309115571892
 30
0.0
 10
5.024910679377115
 20
5.003632307439126
 30
0.0
 10
4.111075295668371
 20
4.741909193745176
 30
0.0
 10
3.197193855092451
 20
4.480344839021168
 30
0.0
 10
2.283304014799199
 20
4.218810227158649
 30
0.0
 10
1.369343500339056
 20
3.957522239830254
 30
0.0
 10
0.7600540383348289
 20
3.783269947946049
 30
0.0
 10
0.4554009999999948
 20
3.696172000000001
 30
0.0
  0
LINE
  5
28A
330
1F
100
AcDbEntity
  8
DEFAULT
100
AcDbLine
 10
13.348533
 20
9.619292000000002
 30
0.0
 11
12.88817400000001
 21
9.619292000000002
 31
0.0
  0
LINE
  5
28B
330
1F
100
AcDbEntity
  8
DEFAULT
100
AcDbLine
 10
22.85993400000001
 20
17.097664
 30
0.0
 11
22.820543
 21
17.109904
 31
0.0
  0
LINE
  5
28C
330
1F
100
AcDbEntity
  8
DEFAULT
100
AcDbLine
 10
22.8934215
 20
17.0940525
 30
0.0
 11
22.85993400000001
 21
17.097664
 31
0.0
  0
LINE
  5
28D
330
1F
100
AcDbEntity
  8
DEFAULT
100
AcDbLine
 10
23.6034765
 20
17.0943485
 30
0.0
 11
22.8934215
 21
17.0940525
 31
0.0
  0
LINE
  5
28E
330
1F
100
AcDbEntity
  8
DEFAULT
100
AcDbLine
 10
23.630053
 20
17.096788
 30
0.0
 11
23.6034765
 21
17.0943485
 31
0.0
  0
LINE
  5
28F
330
1F
100
AcDbEntity
  8
DEFAULT
100
AcDbLine
 10
23.75023
 20
17.1628395
 30
0.0
 11
23.630053
 21
17.096788
 31
0.0
  0
LINE
  5
290
330
1F
100
AcDbEntity
  8
DEFAULT
100
AcDbLine
 10
23.800358
 20
17.287283
 30
0.0
 11
23.75023
 21
17.1628395
 31
0.0
  0
LINE
  5
291
330
1F
100
AcDbEntity
  8
DEFAULT
100
AcDbLine
 10
24.160788
 20
26.402978
 30
0.0
 11
23.800358
 21
17.287283
 31
0.0
  0
LINE
  5
292
330
1F
100
AcDbEntity
  8
DEFAULT
100
AcDbLine
 10
24.175915
 20
26.860059
 30
0.0
 11
24.160788
 21
26.402978
 31
0.0
  0
LINE
  5
293
330
1F
100
AcDbEntity
  8
DEFAULT
100
AcDbLine
 10
24.184975
 20
27.17607
 30
0.0
 11
24.175915
 21
26.860059
 31
0.0
  0
LINE
  5
294
330
1F
100
AcDbEntity
  8
DEFAULT
100
AcDbLine
 10
24.190377
 20
27.399666
 30
0.0
 11
24.184975
 21
27.17607
 31
0.0
  0
LINE
  5
295
330
1F
100
AcDbEntity
  8
DEFAULT
100
AcDbLine
 10
24.192995
 20
27.533338
 30
0.0
 11
24.190377
 21
27.399666
 31
0.0
  0
LINE
  5
296
330
1F
100
AcDbEntity
  8
DEFAULT
100
AcDbLine
 10
24.194497
 20
27.632657
 30
0.0
 11
24.192995
 21
27.533338
 31
0.0
  0
LINE
  5
297
330
1F
100
AcDbEntity
  8
DEFAULT
100
AcDbLine
 10
24.19524800000001
 20
27.70474
 30
0.0
 11
24.194497
 21
27.632657
 31
0.0
  0
LINE
  5
298
330
1F
100
AcDbEntity
  8
DEFAULT
100
AcDbLine
 10
24.19553500000001
 20
27.755516
 30
0.0
 11
24.19524800000001
 21
27.70474
 31
0.0
  0
LINE
  5
299
330
1F
100
AcDbEntity
  8
DEFAULT
100
AcDbLine
 10
24.195573
 20
27.789627
 30
0.0
 11
24.19553500000001
 21
27.755516
 31
0.0
  0
LINE
  5
29A
330
1F
100
AcDbEntity
  8
DEFAULT
100
AcDbLine
 10
24.195463
 20
27.8204
 30
0.0
 11
24.195573
 21
27.789627
 31
0.0
  0
LINE
  5
29B
330
1F
100
AcDbEntity
  8
DEFAULT
100
AcDbLine
 10
24.195208
 20
27.847927
 30
0.0
 11
24.195463
 21
27.8204
 31
0.0
  0
LINE
  5
29C
330
1F
100
AcDbEntity
  8
DEFAULT
100
AcDbLine
 10
24.19496
 20
27.864537
 30
0.0
 11
24.195208
 21
27.847927
 31
0.0
  0
LINE
  5
29D
330
1F
100
AcDbEntity
  8
DEFAULT
100
AcDbLine
 10
24.19465
 20
27.879815
 30
0.0
 11
24.19496
 21
27.864537
 31
0.0
  0
LINE
  5
29E
330
1F
100
AcDbEntity
  8
DEFAULT
100
AcDbLine
 10
24.194277
 20
27.893817
 30
0.0
 11
24.19465
 21
27.879815
 31
0.0
  0
LINE
  5
29F
330
1F
100
AcDbEntity
  8
DEFAULT
100
AcDbLine
 10
24.077334
 20
28.074427
 30
0.0
 11
24.194277
 21
27.893817
 31
0.0
  0
LINE
  5
2A0
330
1F
100
AcDbEntity
  8
DEFAULT
100
AcDbLine
 10
24.07729550000001
 20
28.074429
 30
0.0
 11
24.077334
 21
28.074427
 31
0.0
  0
LINE
  5
2A1
330
1F
100
AcDbEntity
  8
DEFAULT
100
AcDbLine
 10
22.8137789349
 20
28.0740084612
 30
0.0
 11
24.07729550000001
 21
28.074429
 31
0.0
  0
LINE
  5
2A2
330
1F
100
AcDbEntity
  8
DEFAULT
100
AcDbLine
 10
22.70316854391001
 20
27.94978697901
 30
0.0
 11
22.8137789349
 21
28.0740084612
 31
0.0
  0
LINE
  5
2A3
330
1F
100
AcDbEntity
  8
DEFAULT
100
AcDbLine
 10
15.857884
 20
13.615355
 30
0.0
 11
16.005521
 21
13.615355
 31
0.0
  0
SPLINE
  5
2A4
330
1F
100
AcDbEntity
  8
DEFAULT
100
AcDbSpline
210
0.0
220
0.0
230
1.0
 70
     8
 71
     3
 72
    19
 73
    15
 74
     0
 42
0.0000000001
 43
0.0000000001
 40
-12.0
 40
-12.0
 40
-12.0
 40
-12.0
 40
-11.0
 40
-10.0
 40
-9.0
 40
-8.0
 40
-7.0
 40
-6.0
 40
-5.0
 40
-4.0
 40
-3.0
 40
-2.0
 40
-1.0
 40
0.0
 40
0.0
 40
0.0
 40
0.0
 10
2.304664740085002
 20
18.97124582819
 30
0.0
 10
2.587894410051732
 20
18.97043343682859
 30
0.0
 10
3.154390185207944
 20
18.96251081591258
 30
0.0
 10
4.003140910181756
 20
18.91911390561205
 30
0.0
 10
4.84972424430228
 20
18.84513789427253
 30
0.0
 10
5.694105558772378
 20
18.74981002159399
 30
0.0
 10
6.537189487912968
 20
18.64390869743002
 30
0.0
 10
7.380310534008117
 20
18.53825471139147
 30
0.0
 10
8.224677585914947
 20
18.44295865778832
 30
0.0
 10
9.07072040501015
 20
18.36344223226774
 30
0.0
 10
9.91856977389125
 20
18.30632882355888
 30
0.0
 10
10.76743437207315
 20
18.26742393890574
 30
0.0
 10
11.61694212141424
 20
18.24718122036217
 30
0.0
 10
12.18340562186471
 20
18.24236268146365
 30
0.0
 10
12.466643
 20
18.242289
 30
0.0
  0
SPLINE
  5
2A5
330
1F
100
AcDbEntity
  8
DEFAULT
100
AcDbSpline
210
0.0
220
0.0
230
1.0
 70
     8
 71
     3
 72
    19
 73
    15
 74
     0
 42
0.0000000001
 43
0.0000000001
 40
0.0
 40
0.0
 40
0.0
 40
0.0
 40
1.0
 40
2.0
 40
3.0
 40
4.0
 40
5.0
 40
6.0
 40
7.0
 40
8.0
 40
9.0
 40
10.0
 40
11.0
 40
12.0
 40
12.0
 40
12.0
 40
12.0
 10
2.114597000000003
 20
16.133376
 30
0.0
 10
2.113388263889362
 20
16.21321062021278
 30
0.0
 10
2.110632417182046
 20
16.37287389933493
 30
0.0
 10
2.10776755958716
 20
16.61239065323156
 30
0.0
 10
2.108495285334769
 20
16.85192699782272
 30
0.0
 10
2.111887850621201
 20
17.09143748326489
 30
0.0
 10
2.117949303504304
 20
17.33089256367683
 30
0.0
 10
2.125869224743582
 20
17.57030247404123
 30
0.0
 10
2.13545044354538
 20
17.8096107115204
 30
0.0
 10
2.14647599398188
 20
18.04900926666603
 30
0.0
 10
2.160181253811714
 20
18.28770820964376
 30
0.0
 10
2.176857961334463
 20
18.52831550629372
 30
0.0
 10
2.209395400691619
 20
18.75987529725518
 30
0.0
 10
2.232448546821601
 20
18.93220506665516
 30
0.0
 10
2.304664740085002
 20
18.97124582819
 30
0.0
  0
LINE
  5
2A6
330
1F
100
AcDbEntity
  8
DEFAULT
100
AcDbLine
 10
4.322001
 20
13.554242
 30
0.0
 11
4.621926000000002
 21
13.834405
 31
0.0
  0
LINE
  5
2A7
330
1F
100
AcDbEntity
  8
DEFAULT
100
AcDbLine
 10
5.748080143120006
 20
3.064590183044999
 30
0.0
 11
5.469307973140005
 21
2.863356444219999
 31
0.0
  0
LINE
  5
2A8
330
1F
100
AcDbEntity
  8
DEFAULT
100
AcDbLine
 10
10.57485700000001
 20
4.651389999999999
 30
0.0
 11
5.748080143120006
 21
3.064590183044999
 31
0.0
  0
LINE
  5
2A9
330
1F
100
AcDbEntity
  8
DEFAULT
100
AcDbLine
 10
4.908633000000009
 20
1.510404000000001
 30
0.0
 11
4.908633000000009
 21
0.0590609999999998
 31
0.0
  0
LINE
  5
2AA
330
1F
100
AcDbEntity
  8
DEFAULT
100
AcDbLine
 10
19.42583400000001
 20
2.766535999999999
 30
0.0
 11
19.42583400000001
 21
2.716536000000001
 31
0.0
  0
LINE
  5
2AB
330
1F
100
AcDbEntity
  8
DEFAULT
100
AcDbLine
 10
12.826014
 20
0.8420260000000006
 30
0.0
 11
12.826014
 21
1.528175999999998
 31
0.0
  0
LINE
  5
2AC
330
1F
100
AcDbEntity
  8
DEFAULT
100
AcDbLine
 10
20.311266
 20
12.884405
 30
0.0
 11
20.61124700000001
 21
13.164242
 31
0.0
  0
LINE
  5
2AD
330
1F
100
AcDbEntity
  8
DEFAULT
100
AcDbLine
 10
11.41149461899499
 20
5.885843982455
 30
0.0
 11
11.7714054005
 21
3.16573192193
 31
0.0
  0
ARC
  5
2AE
330
1F
100
AcDbEntity
  8
DEFAULT
100
AcDbCircle
 10
11.8871276817838
 20
5.960158123896901
 30
0.0
 40
0.4814035750138436
100
AcDbArc
 50
98.09015184204559
 51
188.8802446856602
  0
LINE
  5
2AF
330
1F
100
AcDbEntity
  8
DEFAULT
100
AcDbLine
 10
16.005521
 20
13.834828
 30
0.0
 11
20.31136000000001
 21
13.834405
 31
0.0
  0
LINE
  5
2B0
330
1F
100
AcDbEntity
  8
DEFAULT
100
AcDbLine
 10
0.218652514729996
 20
2.163622138059999
 30
0.0
 11
0.2972377822700025
 21
1.814273533049999
 31
0.0
  0
LINE
  5
2B1
330
1F
100
AcDbEntity
  8
DEFAULT
100
AcDbLine
 10
23.214766
 20
0.0
 30
0.0
 11
23.630719
 21
0.0
 31
0.0
  0
LINE
  5
2B2
330
1F
100
AcDbEntity
  8
DEFAULT
100
AcDbLine
 10
19.854967
 20
2.766535999999999
 30
0.0
 11
19.854967
 21
2.716536000000001
 31
0.0
  0
LINE
  5
2B3
330
1F
100
AcDbEntity
  8
DEFAULT
100
AcDbLine
 10
11.77891099999999
 20
3.365513
 30
0.0
 11
11.758343
 21
2.766535999999999
 31
0.0
  0
LINE
  5
2B4
330
1F
100
AcDbEntity
  8
DEFAULT
100
AcDbLine
 10
20.38115500000001
 20
13.246482
 30
0.0
 11
21.726074
 21
13.246069
 31
0.0
  0
LINE
  5
2B5
330
1F
100
AcDbEntity
  8
DEFAULT
100
AcDbLine
 10
11.651296
 20
4.166142000000001
 30
0.0
 11
11.328508
 21
4.166142000000001
 31
0.0
  0
LINE
  5
2B6
330
1F
100
AcDbEntity
  8
DEFAULT
100
AcDbLine
 10
21.726074
 20
13.246069
 30
0.0
 11
22.341155
 21
13.24629
 31
0.0
  0
LINE
  5
2B7
330
1F
100
AcDbEntity
  8
DEFAULT
100
AcDbLine
 10
19.02340215744501
 20
3.064590183044999
 30
0.0
 11
14.27225799999999
 21
4.626526000000002
 31
0.0
  0
LINE
  5
2B8
330
1F
100
AcDbEntity
  8
DEFAULT
100
AcDbLine
 10
19.07482377829001
 20
3.045418324300002
 30
0.0
 11
19.02340215744501
 21
3.064590183044999
 31
0.0
  0
LINE
  5
2B9
330
1F
100
AcDbEntity
  8
DEFAULT
100
AcDbLine
 10
19.0666560545
 20
2.863356318769998
 30
0.0
 11
19.07482377829001
 21
3.045418324300002
 31
0.0
  0
ARC
  5
2BA
330
1F
100
AcDbEntity
  8
DEFAULT
100
AcDbCircle
 10
24.93328600000001
 20
2.434055000000009
 30
0.0
 40
0.1249999999999916
100
AcDbArc
 50
359.9999999999961
 51
90.00000000000325
  0
LINE
  5
2BB
330
1F
100
AcDbEntity
  8
DEFAULT
100
AcDbLine
 10
22.341177
 20
13.47129
 30
0.0
 11
20.996092
 21
13.471141
 31
0.0
  0
LINE
  5
2BC
330
1F
100
AcDbEntity
  8
DEFAULT
100
AcDbLine
 10
20.181252
 20
13.246775
 30
0.0
 11
20.181274
 21
13.471775
 31
0.0
  0
LINE
  5
2BD
330
1F
100
AcDbEntity
  8
DEFAULT
100
AcDbLine
 10
0.4159527038700048
 20
1.603564519590002
 30
0.0
 11
0.4750078219800002
 21
1.510403866539999
 31
0.0
  0
LINE
  5
2BE
330
1F
100
AcDbEntity
  8
DEFAULT
100
AcDbLine
 10
13.450903
 20
2.434055000000001
 30
0.0
 11
13.450903
 21
0.125
 31
0.0
  0
LINE
  5
2BF
330
1F
100
AcDbEntity
  8
DEFAULT
100
AcDbLine
 10
4.604006999999996
 20
3.332635
 30
0.0
 11
4.584224000000006
 21
2.766535999999999
 31
0.0
  0
ARC
  5
2C0
330
1F
100
AcDbEntity
  8
DEFAULT
100
AcDbCircle
 10
5.013052989029156
 20
3.313137851180854
 30
0.0
 40
0.4095103905310831
100
AcDbArc
 50
110.3431536445765
 51
177.2710660388472
  0
LINE
  5
2C1
330
1F
100
AcDbEntity
  8
DEFAULT
100
AcDbLine
 10
13.34853
 20
9.619288999999998
 30
0.0
 11
13.448324
 21
9.516957999999999
 31
0.0
  0
LINE
  5
2C2
330
1F
100
AcDbEntity
  8
DEFAULT
100
AcDbLine
 10
11.8260352516
 20
2.163622138059999
 30
0.0
 11
11.90462051914
 21
1.814273533049999
 31
0.0
  0
LINE
  5
2C3
330
1F
100
AcDbEntity
  8
DEFAULT
100
AcDbLine
 10
24.74595100000001
 20
2.716535738299618
 30
0.0
 11
24.76151626070418
 21
2.699548977187338
 31
0.0
  0
LINE
  5
2C4
330
1F
100
AcDbEntity
  8
DEFAULT
100
AcDbLine
 10
16.005521
 20
14.192926
 30
0.0
 11
15.857884
 21
14.192926
 31
0.0
  0
LINE
  5
2C5
330
1F
100
AcDbEntity
  8
DEFAULT
100
AcDbLine
 10
13.017825
 20
9.64912
 30
0.0
 11
13.017825
 21
9.619292000000002
 31
0.0
  0
LINE
  5
2C6
330
1F
100
AcDbEntity
  8
DEFAULT
100
AcDbLine
 10
15.77373
 20
13.427658
 30
0.0
 11
15.453442
 21
13.427658
 31
0.0
  0
LINE
  5
2C7
330
1F
100
AcDbEntity
  8
DEFAULT
100
AcDbLine
 10
15.77373
 20
13.83485
 30
0.0
 11
15.857884
 21
13.834842
 31
0.0
  0
LINE
  5
2C8
330
1F
100
AcDbEntity
  8
DEFAULT
100
AcDbLine
 10
19.99977100000001
 20
0.8420260000000006
 30
0.0
 11
19.99977100000001
 21
1.528175999999998
 31
0.0
  0
LINE
  5
2C9
330
1F
100
AcDbEntity
  8
DEFAULT
100
AcDbLine
 10
15.21126700000001
 20
12.884905
 30
0.0
 11
20.311278
 21
12.884405
 31
0.0
  0
LINE
  5
2CA
330
1F
100
AcDbEntity
  8
DEFAULT
100
AcDbLine
 10
4.933515
 20
0.8420260000000006
 30
0.0
 11
4.933515
 21
1.528175999999998
 31
0.0
  0
LINE
  5
2CB
330
1F
100
AcDbEntity
  8
DEFAULT
100
AcDbLine
 10
1.073826999999994
 20
2.766535999999999
 30
0.0
 11
1.073826999999994
 21
2.716536000000001
 31
0.0
  0
LINE
  5
2CC
330
1F
100
AcDbEntity
  8
DEFAULT
100
AcDbLine
 10
8.927764999999994
 20
13.834828
 30
0.0
 11
4.621926000000002
 21
13.834405
 31
0.0
  0
LINE
  5
2CD
330
1F
100
AcDbEntity
  8
DEFAULT
100
AcDbLine
 10
15.477159
 20
13.634005
 30
0.0
 11
9.456125999999998
 21
13.634005
 31
0.0
  0
LINE
  5
2CE
330
1F
100
AcDbEntity
  8
DEFAULT
100
AcDbLine
 10
24.74594
 20
2.716536000000001
 30
0.0
 11
23.402112
 21
2.716536000000001
 31
0.0
  0
SPLINE
  5
2CF
330
1F
100
AcDbEntity
  8
DEFAULT
100
AcDbSpline
210
0.0
220
0.0
230
1.0
 70
     8
 71
     3
 72
    19
 73
    15
 74
     0
 42
0.0000000001
 43
0.0000000001
 40
0.0
 40
0.0
 40
0.0
 40
0.0
 40
0.1011763222572
 40
0.2232144367775
 40
0.3481954240116
 40
0.4667307689401
 40
0.576165643506
 40
0.6750207307125
 40
0.7614810123431
 40
0.8349355497899
 40
0.8952186339714
 40
0.9440277832864
 40
0.9855573206089
 40
1.0
 40
1.0
 40
1.0
 40
1.0
 10
12.46664252735999
 20
10.2732567463
 30
0.0
 10
12.42922092103001
 20
10.2732567463
 30
0.0
 10
12.34665525582
 20
10.27181949255
 30
0.0
 10
12.21803446278
 20
10.26455363124
 30
0.0
 10
12.08348469273
 20
10.25069929214
 30
0.0
 10
11.95442939557
 20
10.23060495602
 30
0.0
 10
11.83621239719
 20
10.20497886796
 30
0.0
 10
11.73144616411
 20
10.17442963664
 30
0.0
 10
11.64213705249
 20
10.13958817522
 30
0.0
 10
11.57001268313
 20
10.10119057466
 30
0.0
 10
11.51620132093001
 20
10.05971954588
 30
0.0
 10
11.48135902865999
 20
10.01503083324
 30
0.0
 10
11.47115630781001
 20
9.97612630459
 30
0.0
 10
11.47305168275
 20
9.955344243910002
 30
0.0
 10
11.47396730062
 20
9.950041687679999
 30
0.0
  0
LINE
  5
2D0
330
1F
100
AcDbEntity
  8
DEFAULT
100
AcDbLine
 10
4.849578388920008
 20
1.603564519590002
 30
0.0
 11
4.908633507030004
 21
1.510403866539999
 31
0.0
  0
LINE
  5
2D1
330
1F
100
AcDbEntity
  8
DEFAULT
100
AcDbLine
 10
5.67713744404
 20
1.510403866539999
 30
0.0
 11
5.736192562149995
 21
1.603564519590002
 31
0.0
  0
LINE
  5
2D2
330
1F
100
AcDbEntity
  8
DEFAULT
100
AcDbLine
 10
10.020214
 20
13.217547
 30
0.0
 11
10.662897
 21
12.561849
 31
0.0
  0
LINE
  5
2D3
330
1F
100
AcDbEntity
  8
DEFAULT
100
AcDbLine
 10
22.183037
 20
27.393358
 30
0.0
 11
22.351057
 21
18.96937
 31
0.0
  0
LINE
  5
2D4
330
1F
100
AcDbEntity
  8
DEFAULT
100
AcDbLine
 10
21.94614300000001
 20
39.371079
 30
0.0
 11
22.183037
 21
27.393358
 31
0.0
  0
LINE
  5
2D5
330
1F
100
AcDbEntity
  8
DEFAULT
100
AcDbLine
 10
21.9329285
 20
40.048206
 30
0.0
 11
21.94614300000001
 21
39.371079
 31
0.0
  0
LINE
  5
2D6
330
1F
100
AcDbEntity
  8
DEFAULT
100
AcDbLine
 10
19.51052799999999
 20
40.052551
 30
0.0
 11
21.9329285
 21
40.048206
 31
0.0
  0
LINE
  5
2D7
330
1F
100
AcDbEntity
  8
DEFAULT
100
AcDbLine
 10
12.466643
 20
40.042443
 30
0.0
 11
19.51052799999999
 21
40.052551
 31
0.0
  0
LINE
  5
2D8
330
1F
100
AcDbEntity
  8
DEFAULT
100
AcDbLine
 10
4.730863467329996
 20
1.814273533049999
 30
0.0
 11
4.849578388920008
 21
1.603564519590002
 31
0.0
  0
LINE
  5
2D9
330
1F
100
AcDbEntity
  8
DEFAULT
100
AcDbLine
 10
3.207211999999998
 20
13.246069
 30
0.0
 11
2.592130999999995
 21
13.24629
 31
0.0
  0
LINE
  5
2DA
330
1F
100
AcDbEntity
  8
DEFAULT
100
AcDbLine
 10
0.6446930000000037
 20
2.766535999999999
 30
0.0
 11
0.6446930000000037
 21
2.716536000000001
 31
0.0
  0
LINE
  5
2DB
330
1F
100
AcDbEntity
  8
DEFAULT
100
AcDbLine
 10
18.78113500000001
 20
70.39264208218657
 30
0.0
 11
19.19708700000001
 21
70.39264208218657
 31
0.0
  0
LINE
  5
2DC
330
1F
100
AcDbEntity
  8
DEFAULT
100
AcDbLine
 10
22.36141000000001
 20
66.18979308218655
 30
0.0
 11
22.402861
 21
66.17758208218655
 31
0.0
  0
LINE
  5
2DD
330
1F
100
AcDbEntity
  8
DEFAULT
100
AcDbLine
 10
22.40467227098
 20
66.14351791996657
 30
0.0
 11
22.40655932147
 21
66.00134365018656
 31
0.0
  0
LINE
  5
2DE
330
1F
100
AcDbEntity
  8
DEFAULT
100
AcDbLine
 10
20.083702
 20
70.39264208218657
 30
0.0
 11
20.49965400000001
 21
70.39264208218657
 31
0.0
  0
LINE
  5
2DF
330
1F
100
AcDbEntity
  8
DEFAULT
100
AcDbLine
 10
22.402861
 20
66.17758208218655
 30
0.0
 11
22.403054
 21
66.17759208218655
 31
0.0
  0
LINE
  5
2E0
330
1F
100
AcDbEntity
  8
DEFAULT
100
AcDbLine
 10
19.281024
 20
70.39264208218657
 30
0.0
 11
19.999765
 21
70.39264208218657
 31
0.0
  0
LINE
  5
2E1
330
1F
100
AcDbEntity
  8
DEFAULT
100
AcDbLine
 10
5.736193
 20
70.39264258218657
 30
0.0
 11
5.677137500000001
 21
70.33358708218657
 31
0.0
  0
LINE
  5
2E2
330
1F
100
AcDbEntity
  8
DEFAULT
100
AcDbLine
 10
12.46663700000001
 20
70.26647908218655
 30
0.0
 11
21.944957
 21
70.28453808218657
 31
0.0
  0
LINE
  5
2E3
330
1F
100
AcDbEntity
  8
DEFAULT
100
AcDbLine
 10
11.771669
 20
46.24725908218656
 30
0.0
 11
11.771002
 21
46.27463508218656
 31
0.0
  0
ARC
  5
2E4
330
1F
100
AcDbEntity
  8
DEFAULT
100
AcDbCircle
 10
18.78113499999997
 20
70.26764208218661
 30
0.0
 40
0.1250003616149188
100
AcDbArc
 50
89.99999999998371
 51
176.9357539951613
  0
ARC
  5
2E5
330
1F
100
AcDbEntity
  8
DEFAULT
100
AcDbCircle
 10
28.15284557067661
 20
23.06327075037691
 30
0.0
 40
13.49387422752108
100
AcDbArc
 50
320.0375280446814
 51
329.9991290569845
  0
LINE
  5
2E6
330
1F
100
AcDbEntity
  8
DEFAULT
100
AcDbLine
 10
13.16130759381333
 20
46.22500929516401
 30
0.0
 11
13.16161100000001
 21
46.24725908218656
 31
0.0
  0
LINE
  5
2E7
330
1F
100
AcDbEntity
  8
DEFAULT
100
AcDbLine
 10
13.17493741712562
 20
46.08672608218656
 30
0.0
 11
13.16130759381333
 21
46.22500929516401
 31
0.0
  0
LINE
  5
2E8
330
1F
100
AcDbEntity
  8
DEFAULT
100
AcDbLine
 10
0.4998899999999935
 20
55.15280708218657
 30
0.0
 11
0.4998899999999935
 21
56.74734508218658
 31
0.0
  0
LINE
  5
2E9
330
1F
100
AcDbEntity
  8
DEFAULT
100
AcDbLine
 10
23.38189800000001
 20
65.88523108218655
 30
0.0
 11
23.381946
 21
65.88525008218656
 31
0.0
  0
LINE
  5
2EA
330
1F
100
AcDbEntity
  8
DEFAULT
100
AcDbLine
 10
50.07118579901413
 20
13.16537793417342
 30
0.0
 11
50.02630098981044
 21
13.24789003796251
 31
0.0
  0
LINE
  5
2EB
330
1F
100
AcDbEntity
  8
DEFAULT
100
AcDbLine
 10
23.71465600000001
 20
0.8420279999999991
 30
0.0
 11
24.433396
 21
0.8420279999999991
 31
0.0
  0
LINE
  5
2EC
330
1F
100
AcDbEntity
  8
DEFAULT
100
AcDbLine
 10
20.61128500000001
 20
13.554242
 30
0.0
 11
20.31136000000001
 21
13.834405
 31
0.0
  0
SPLINE
  5
2ED
330
1F
100
AcDbEntity
  8
DEFAULT
100
AcDbSpline
210
0.0
220
0.0
230
1.0
 70
     8
 71
     3
 72
    16
 73
    12
 74
     0
 42
0.0000000001
 43
0.0000000001
 40
0.0
 40
0.0
 40
0.0
 40
0.0
 40
0.2341619387177
 40
0.4361470240471
 40
0.6001935609847
 40
0.7271726137984
 40
0.8208191896425
 40
0.8860680961386
 40
0.9277143745084
 40
0.9566562139274
 40
1.0
 40
1.0
 40
1.0
 40
1.0
 10
13.61202078127999
 20
11.20753179183
 30
0.0
 10
13.68325022659
 20
11.24733866105
 30
0.0
 10
13.81695425802
 20
11.31968863574
 30
0.0
 10
14.00410286651001
 20
11.41304273954
 30
0.0
 10
14.16097713872
 20
11.48355667217
 30
0.0
 10
14.28581555989
 20
11.53166482449
 30
0.0
 10
14.38194561287
 20
11.56113397822
 30
0.0
 10
14.44969048664001
 20
11.57165414347
 30
0.0
 10
14.50058376592
 20
11.5713998157
 30
0.0
 10
14.52812882596001
 20
11.53505885723
 30
0.0
 10
14.51584565611
 20
11.50866398483
 30
0.0
 10
14.50927711714
 20
11.4950632802
 30
0.0
  0
LINE
  5
2EE
330
1F
100
AcDbEntity
  8
DEFAULT
100
AcDbLine
 10
20.08370761108
 20
1.603564519590002
 30
0.0
 11
20.02465249297001
 21
1.510403866539999
 31
0.0
  0
LINE
  5
2EF
330
1F
100
AcDbEntity
  8
DEFAULT
100
AcDbLine
 10
19.25614855596001
 20
1.510403866539999
 30
0.0
 11
19.19709343785
 21
1.603564519590002
 31
0.0
  0
LINE
  5
2F0
330
1F
100
AcDbEntity
  8
DEFAULT
100
AcDbLine
 10
24.458278
 20
1.510404000000001
 30
0.0
 11
24.458278
 21
0.0590609999999998
 31
0.0
  0
LINE
  5
2F1
330
1F
100
AcDbEntity
  8
DEFAULT
100
AcDbLine
 10
24.749225
 20
2.559055000000001
 30
0.0
 11
24.933286
 21
2.559055000000001
 31
0.0
  0
LINE
  5
2F2
330
1F
100
AcDbEntity
  8
DEFAULT
100
AcDbLine
 10
20.61124700000001
 20
13.164242
 30
0.0
 11
21.161266
 21
13.164242
 31
0.0
  0
LINE
  5
2F3
330
1F
100
AcDbEntity
  8
DEFAULT
100
AcDbLine
 10
10.508142610345
 20
11.38093899793
 30
0.0
 11
11.36428000000001
 21
10.524804
 31
0.0
  0
LINE
  5
2F4
330
1F
100
AcDbEntity
  8
DEFAULT
100
AcDbLine
 10
10.42437138666
 20
11.49432076631
 30
0.0
 11
10.508142610345
 21
11.38093899793
 31
0.0
  0
LINE
  5
2F5
330
1F
100
AcDbEntity
  8
DEFAULT
100
AcDbLine
 10
9.479844
 20
13.427658
 30
0.0
 11
10.42437138666
 21
11.49432076631
 31
0.0
  0
LINE
  5
2F6
330
1F
100
AcDbEntity
  8
DEFAULT
100
AcDbLine
 10
18.945459
 20
2.766535999999999
 30
0.0
 11
20.34901000000001
 21
2.766535999999999
 31
0.0
  0
LINE
  5
2F7
330
1F
100
AcDbEntity
  8
DEFAULT
100
AcDbLine
 10
23.38727900000001
 20
2.766535999999999
 30
0.0
 11
24.782671
 21
2.766535999999999
 31
0.0
  0
LINE
  5
2F8
330
1F
100
AcDbEntity
  8
DEFAULT
100
AcDbLine
 10
20.381252
 20
13.471481
 30
0.0
 11
20.38117700000001
 21
13.471482
 31
0.0
  0
LINE
  5
2F9
330
1F
100
AcDbEntity
  8
DEFAULT
100
AcDbLine
 10
5.909883842555004
 20
3.064590183044999
 30
0.0
 11
10.661028
 21
4.626526000000002
 31
0.0
  0
LINE
  5
2FA
330
1F
100
AcDbEntity
  8
DEFAULT
100
AcDbLine
 10
5.858462221709999
 20
3.045418324300002
 30
0.0
 11
5.909883842555004
 21
3.064590183044999
 31
0.0
  0
LINE
  5
2FB
330
1F
100
AcDbEntity
  8
DEFAULT
100
AcDbLine
 10
5.866629945499994
 20
2.863356318769998
 30
0.0
 11
5.858462221709999
 21
3.045418324300002
 31
0.0
  0
LINE
  5
2FC
330
1F
100
AcDbEntity
  8
DEFAULT
100
AcDbLine
 10
2.605831279699999
 20
27.69960834589
 30
0.0
 11
2.711979578690006
 21
27.82115938914
 31
0.0
  0
ARC
  5
2FD
330
1F
100
AcDbEntity
  8
DEFAULT
100
AcDbCircle
 10
5.292885475540004
 20
2.050758743568552
 30
0.0
 40
0.6342236987375331
100
AcDbArc
 50
235.4844523428085
 51
304.5155476571915
  0
LINE
  5
2FE
330
1F
100
AcDbEntity
  8
DEFAULT
100
AcDbLine
 10
1.421281798690003
 20
1.814273533049999
 30
0.0
 11
1.499844953260009
 21
2.163334469540001
 31
0.0
  0
LINE
  5
2FF
330
1F
100
AcDbEntity
  8
DEFAULT
100
AcDbLine
 10
24.517333
 20
0.0
 30
0.0
 11
24.458278
 21
0.0590550000000007
 31
0.0
  0
LINE
  5
300
330
1F
100
AcDbEntity
  8
DEFAULT
100
AcDbLine
 10
2.204137000000003
 20
27.698383
 30
0.0
 11
2.605830999999995
 21
27.699608
 31
0.0
  0
ARC
  5
301
330
1F
100
AcDbEntity
  8
DEFAULT
100
AcDbCircle
 10
12.46664252735999
 20
2.050758743568552
 30
0.0
 40
0.6342236987375331
100
AcDbArc
 50
235.4844523428085
 51
304.5155476571915
  0
LINE
  5
302
330
1F
100
AcDbEntity
  8
DEFAULT
100
AcDbLine
 10
1.243511758989996
 20
1.510403866539999
 30
0.0
 11
1.302566877100006
 21
1.603564519590002
 31
0.0
  0
LINE
  5
303
330
1F
100
AcDbEntity
  8
DEFAULT
100
AcDbLine
 10
5.736192562149995
 20
1.603564519590002
 30
0.0
 11
5.854907483749997
 21
1.814273533049999
 31
0.0
  0
LINE
  5
304
330
1F
100
AcDbEntity
  8
DEFAULT
100
AcDbLine
 10
18.78114100000001
 20
2.559055000000001
 30
0.0
 11
18.96520200000001
 21
2.559055000000001
 31
0.0
  0
LINE
  5
305
330
1F
100
AcDbEntity
  8
DEFAULT
100
AcDbLine
 10
1.302566877100006
 20
1.603564519590002
 30
0.0
 11
1.421281798690003
 21
1.814273533049999
 31
0.0
  0
ARC
  5
306
330
1F
100
AcDbEntity
  8
DEFAULT
100
AcDbCircle
 10
0.8592597904799957
 20
2.050758743568552
 30
0.0
 40
0.6342236987375333
100
AcDbArc
 50
235.4844523428085
 51
304.5155476571916
  0
LINE
  5
307
330
1F
100
AcDbEntity
  8
DEFAULT
100
AcDbLine
 10
0.2972377822700025
 20
1.814273533049999
 30
0.0
 11
0.4159527038700048
 21
1.603564519590002
 31
0.0
  0
LINE
  5
308
330
1F
100
AcDbEntity
  8
DEFAULT
100
AcDbLine
 10
11.90462051914
 20
1.814273533049999
 30
0.0
 11
12.02333544074
 21
1.603564519590002
 31
0.0
  0
LINE
  5
309
330
1F
100
AcDbEntity
  8
DEFAULT
100
AcDbLine
 10
12.02333544074
 20
1.603564519590002
 30
0.0
 11
12.08239055884999
 21
1.510403866539999
 31
0.0
  0
LINE
  5
30A
330
1F
100
AcDbEntity
  8
DEFAULT
100
AcDbLine
 10
50.0263635435904
 20
13.47289012675215
 30
0.0
 11
50.07129417949184
 21
13.55537778037963
 31
0.0
  0
LINE
  5
30B
330
1F
100
AcDbEntity
  8
DEFAULT
100
AcDbLine
 10
20.024653
 20
1.510404000000001
 30
0.0
 11
20.024653
 21
0.0590609999999998
 31
0.0
  0
LINE
  5
30C
330
1F
100
AcDbEntity
  8
DEFAULT
100
AcDbLine
 10
20.49966000000001
 20
2.559055000000001
 30
0.0
 11
20.49966000000001
 21
0.0
 31
0.0
  0
LINE
  5
30D
330
1F
100
AcDbEntity
  8
DEFAULT
100
AcDbLine
 10
13.342628
 20
4.166142000000001
 30
0.0
 11
13.342628
 21
2.557811999999998
 31
0.0
  0
LINE
  5
30E
330
1F
100
AcDbEntity
  8
DEFAULT
100
AcDbLine
 10
18.956576
 20
3.086559000000001
 30
0.0
 11
18.945407
 21
2.766535999999999
 31
0.0
  0
LINE
  5
30F
330
1F
100
AcDbEntity
  8
DEFAULT
100
AcDbLine
 10
12.68120999999999
 20
2.766535999999999
 30
0.0
 11
12.68120999999999
 21
2.716536000000001
 31
0.0
  0
LINE
  5
310
330
1F
100
AcDbEntity
  8
DEFAULT
100
AcDbLine
 10
15.47716
 20
13.634005
 30
0.0
 11
15.453442
 21
13.427658
 31
0.0
  0
LINE
  5
311
330
1F
100
AcDbEntity
  8
DEFAULT
100
AcDbLine
 10
20.32789099999999
 20
2.699549000000001
 30
0.0
 11
20.280884
 21
2.162262000000002
 31
0.0
  0
LINE
  5
312
330
1F
100
AcDbEntity
  8
DEFAULT
100
AcDbLine
 10
15.857884
 20
13.615355
 30
0.0
 11
15.857884
 21
15.093577
 31
0.0
  0
LINE
  5
313
330
1F
100
AcDbEntity
  8
DEFAULT
100
AcDbLine
 10
18.78114100000001
 20
2.559055000000001
 30
0.0
 11
18.78114100000001
 21
0.0
 31
0.0
  0
LINE
  5
314
330
1F
100
AcDbEntity
  8
DEFAULT
100
AcDbLine
 10
21.161304
 20
13.554242
 30
0.0
 11
21.161361
 21
13.554402
 31
0.0
  0
LINE
  5
315
330
1F
100
AcDbEntity
  8
DEFAULT
100
AcDbLine
 10
13.154134
 20
2.699549000000001
 30
0.0
 11
13.10712700000001
 21
2.162262000000002
 31
0.0
  0
LINE
  5
316
330
1F
100
AcDbEntity
  8
DEFAULT
100
AcDbLine
 10
24.517333
 20
0.0
 30
0.0
 11
24.933286
 21
0.0
 31
0.0
  0
LINE
  5
317
330
1F
100
AcDbEntity
  8
DEFAULT
100
AcDbLine
 10
13.13856800000001
 20
2.716536236396425
 30
0.0
 11
13.15413376450334
 21
2.699549020605581
 31
0.0
  0
LINE
  5
318
330
1F
100
AcDbEntity
  8
DEFAULT
100
AcDbLine
 10
22.3274547203
 20
27.69960834589
 30
0.0
 11
22.22130642131
 21
27.82115938914
 31
0.0
  0
ARC
  5
319
330
1F
100
AcDbEntity
  8
DEFAULT
100
AcDbCircle
 10
230.2941681434133
 20
23.2725979913378
 30
0.0
 40
228.109411898895
100
AcDbArc
 50
178.8578649333139
 51
181.1110650629942
  0
LINE
  5
31A
330
1F
100
AcDbEntity
  8
DEFAULT
100
AcDbLine
 10
22.341177
 20
13.47129
 30
0.0
 11
22.341155
 21
13.24629
 31
0.0
  0
LINE
  5
31B
330
1F
100
AcDbEntity
  8
DEFAULT
100
AcDbLine
 10
12.90995100000001
 20
-0.0000005000000005
 30
0.0
 11
12.85089550000001
 21
0.0590550000000007
 31
0.0
  0
ENDSEC
  0
SECTION
  2
OBJECTS
  0
DICTIONARY
  5
C
330
0
100
AcDbDictionary
  3
ACAD_GROUP
350
D
  3
ACAD_LAYOUT
350
1A
  3
ACAD_MLEADERSTYLE
350
33E
  3
ACAD_MLINESTYLE
350
17
  3
ACAD_PLOTSETTINGS
350
19
  3
ACAD_VISUALSTYLE
350
2A
  3
ACDBHEADERROUNDTRIPXREC
350
31C
  3
ACDBVARIABLEDICTIONARY
350
33C
  0
DICTIONARY
  5
D
102
{ACAD_REACTORS
330
C
102
}
330
C
100
AcDbDictionary
  0
DICTIONARY
  5
1A
102
{ACAD_REACTORS
330
C
102
}
330
C
100
AcDbDictionary
  0
DICTIONARY
  5
33E
102
{ACAD_REACTORS
330
C
102
}
330
C
100
AcDbDictionary
  0
DICTIONARY
  5
17
102
{ACAD_REACTORS
330
C
102
}
330
C
100
AcDbDictionary
  3
STANDARD
350
18
  0
DICTIONARY
  5
19
102
{ACAD_REACTORS
330
C
102
}
330
C
100
AcDbDictionary
  0
DICTIONARY
  5
2A
102
{ACAD_REACTORS
330
C
102
}
330
C
100
AcDbDictionary
  3
2DWIREFRAME
350
2F
  3
3D_HIDDEN
350
31
  3
3DWIREFRAME
350
30
  3
BASIC
350
32
  3
BRIGHTEN
350
36
  3
COLORCHANGE
350
3A
  3
CONCEPTUAL
350
34
  3
DIM
350
35
  3
FACEPATTERN
350
39
  3
FLAT
350
2B
  3
FLATWITHEDGES
350
2C
  3
GOURAUD
350
2D
  3
GOURAUDWITHEDGES
350
2E
  3
LINEPATTERN
350
38
  3
REALISTIC
350
33
  3
THICKEN
350
37
  0
DICTIONARY
  5
31C
102
{ACAD_REACTORS
330
C
102
}
330
C
100
AcDbDictionary
  3
CEPSNTYPE
350
325
  3
DIMSTYLEDATA
350
33B
  3
FINGERPRINTGUID
350
326
  3
HYPERLINKBASE
350
31F
  3
INSUNITS
350
324
  3
LAYOUTDICT
350
321
  3
LWETCUNION
350
323
  3
PLOTSETDICT
350
322
  3
PSVPSCALE
350
328
  3
PUCSBASE
350
32B
  3
PUCSORGBACK
350
331
  3
PUCSORGBOTTOM
350
32D
  3
PUCSORGFRONT
350
330
  3
PUCSORGLEFT
350
32E
  3
PUCSORGRIGHT
350
32F
  3
PUCSORGTOP
350
32C
  3
PUCSORTHOREF
350
329
  3
PUCSORTHOVIEW
350
32A
  3
STYLESHEET
350
320
  3
TSTACKALIGN
350
31D
  3
TSTACKSIZE
350
31E
  3
UCSBASE
350
334
  3
UCSORGBACK
350
33A
  3
UCSORGBOTTOM
350
336
  3
UCSORGFRONT
350
339
  3
UCSORGLEFT
350
337
  3
UCSORGRIGHT
350
338
  3
UCSORGTOP
350
335
  3
UCSORTHOREF
350
332
  3
UCSORTHOVIEW
350
333
  3
VERSIONGUID
350
327
  0
DICTIONARY
  5
33C
102
{ACAD_REACTORS
330
C
102
}
330
C
100
AcDbDictionary
  0
MLINESTYLE
  5
18
102
{ACAD_REACTORS
330
17
102
}
330
17
100
AcDbMlineStyle
  2
Standard
 70
     0
  3

 62
   256
 51
90.0
 52
90.0
 71
     2
 49
0.5
 62
   256
  6
BYLAYER
 49
-0.5
 62
   256
  6
BYLAYER
  0
ACAD_PROXY_OBJECT
  5
2F
102
{ACAD_REACTORS
330
2A
102
}
330
2A
100
AcDbProxyObject
 90
      499
 91
      501
 93
      436
310
42CC9915DA5C99599C985B595049028333333333333E3BF0000000000000FB0107901411070040501600405405064090741402480A0340
1001
ACAD
1000
AcDbSavedByObjectVersion
1070
     0
  0
ACAD_PROXY_OBJECT
  5
31
102
{ACAD_REACTORS
330
2A
102
}
330
2A
100
AcDbProxyObject
 90
      499
 91
      501
 93
      500
310
424CD108121A5919195B90640502408333333333333E3BF0000000000000FB01079024090700405020000000000001110200405405064090740C02480A0340
1001
ACAD
1000
AcDbSavedByObjectVersion
1070
     0
  0
ACAD_PROXY_OBJECT
  5
30
102
{ACAD_REACTORS
330
2A
102
}
330
2A
100
AcDbProxyObject
 90
      499
 91
      501
 93
      436
310
42CCD915DA5C99599C985B595059028333333333333E3BF0000000000000FB0107901411070040501600405405064090741402480A0340
1001
ACAD
1000
AcDbSavedByObjectVersion
1070
     0
  0
ACAD_PROXY_OBJECT
  5
32
102
{ACAD_REACTORS
330
2A
102
}
330
2A
100
AcDbProxyObject
 90
      499
 91
      501
 93
      388
310
4150985CDA58D07406404333333333333E3BF0000000000000FB0107A41107004050150841D405064090741402480A0350
1001
ACAD
1000
AcDbSavedByObjectVersion
1070
     0
  0
ACAD_PROXY_OBJECT
  5
36
102
{ACAD_REACTORS
330
2A
102
}
330
2A
100
AcDbProxyObject
 90
      499
 91
      501
 93
      428
310
42109C9A59DA1D195B90C409028333333333333E3BF0000000000000FB010790141107004050150841D405064090741402480A029950
1001
ACAD
1000
AcDbSavedByObjectVersion
1070
     0
  0
ACAD_PROXY_OBJECT
  5
3A
102
{ACAD_REACTORS
330
2A
102
}
330
2A
100
AcDbProxyObject
 90
      499
 91
      501
 93
      452
310
42D0DBDB1BDC90DA185B99D95104090240C333333333333E3BF0000000000000FB0108901411070040501508421405064090741402480A0350
1001
ACAD
1000
AcDbSavedByObjectVersion
1070
     0
  0
ACAD_PROXY_OBJECT
  5
34
102
{ACAD_REACTORS
330
2A
102
}
330
2A
100
AcDbProxyObject
 90
      499
 91
      501
 93
      500
310
4290DBDB98D95C1D1D585B10940D028333333333333E3BF0000000000000FB0107902409070040501000000000000111010841D405064090740C02480A0340
1001
ACAD
1000
AcDbSavedByObjectVersion
1070
     0
  0
ACAD_PROXY_OBJECT
  5
35
102
{ACAD_REACTORS
330
2A
102
}
330
2A
100
AcDbProxyObject
 90
      499
 91
      501
 93
      412
310
40D11A5B50B409028333333333333E3BF0000000000000FB010790141107004050150841D405064090741402480A02677FFFFFD0
1001
ACAD
1000
AcDbSavedByObjectVersion
1070
     0
  0
ACAD_PROXY_OBJECT
  5
39
102
{ACAD_REACTORS
330
2A
102
}
330
2A
100
AcDbProxyObject
 90
      499
 91
      501
 93
      444
310
42D19858D95C185D1D195C9B90F409028333333333333E3BF0000000000000FB010790141107004050150841D405064090741402480A0350
1001
ACAD
1000
AcDbSavedByObjectVersion
1070
     0
  0
ACAD_PROXY_OBJECT
  5
2B
102
{ACAD_REACTORS
330
2A
102
}
330
2A
100
AcDbProxyObject
 90
      499
 91
      501
 93
      388
310
41119B185D240901404333333333333E3BF0000000000000F9010740A41107004050150841D405064090741402480A1B50
1001
ACAD
1000
AcDbSavedByObjectVersion
1070
     0
  0
ACAD_PROXY_OBJECT
  5
2C
102
{ACAD_REACTORS
330
2A
102
}
330
2A
100
AcDbProxyObject
 90
      499
 91
      501
 93
      476
310
43519B185D15DA5D1A115919D95CD0140901404333333333333E3BF0000000000000F9010740901411070040501600405405064090741402480A1B50
1001
ACAD
1000
AcDbSavedByObjectVersion
1070
     0
  0
ACAD_PROXY_OBJECT
  5
2D
102
{ACAD_REACTORS
330
2A
102
}
330
2A
100
AcDbProxyObject
 90
      499
 91
      501
 93
      412
310
41D1DBDD5C985D5910240902404333333333333E3BF0000000000000F9010740A411070040501641D405064090741402480A1B50
1001
ACAD
1000
AcDbSavedByObjectVersion
1070
     0
  0
ACAD_PROXY_OBJECT
  5
2E
102
{ACAD_REACTORS
330
2A
102
}
330
2A
100
AcDbProxyObject
 90
      499
 91
      501
 93
      500
310
4411DBDD5C985D5915DA5D1A115919D95CD0340902404333333333333E3BF0000000000000F9010740901411070040501600405405064090741402480A1B50
1001
ACAD
1000
AcDbSavedByObjectVersion
1070
     0
  0
ACAD_PROXY_OBJECT
  5
38
102
{ACAD_REACTORS
330
2A
102
}
330
2A
100
AcDbProxyObject
 90
      499
 91
      501
 93
      444
310
42D31A5B995C185D1D195C9B90E409028333333333333E3BF0000000000000FB010790141107004050750841D405064090741402483A0350
1001
ACAD
1000
AcDbSavedByObjectVersion
1070
     0
  0
ACAD_PROXY_OBJECT
  5
33
102
{ACAD_REACTORS
330
2A
102
}
330
2A
100
AcDbProxyObject
 90
      499
 91
      501
 93
      420
310
425499585B1A5CDD1A58D08409028333333333333E3BF0000000000000FB01079019070040501508421405064090741402480A1B40
1001
ACAD
1000
AcDbSavedByObjectVersion
1070
     0
  0
ACAD_PROXY_OBJECT
  5
37
102
{ACAD_REACTORS
330
2A
102
}
330
2A
100
AcDbProxyObject
 90
      499
 91
      501
 93
      412
310
41D51A1A58DAD95B90D409028333333333333E3BF0000000000000FB010790141107004050150C41D405064090741402480A0350
1001
ACAD
1000
AcDbSavedByObjectVersion
1070
     0
  0
ACAD_PROXY_OBJECT
  5
325
102
{ACAD_REACTORS
330
31C
102
}
330
31C
100
AcDbProxyObject
 90
      499
 91
      502
 93
       58
310
4196800000000000
  0
ACAD_PROXY_OBJECT
  5
33B
102
{ACAD_REACTORS
330
31C
102
}
330
31C
100
AcDbProxyObject
 90
      499
 91
      502
 93
      370
310
4B7A00C180079114D51653117A80C040079ECB8105C0518000800B811500550044400000000000003A80C040079F40
  0
ACAD_PROXY_OBJECT
  5
326
102
{ACAD_REACTORS
330
31C
102
}
330
31C
100
AcDbProxyObject
 90
      499
 91
      502
 93
      354
310
4AC0400980079ECDCCCD91914C904D0B508D4C0C4B4D114D90CB4E4D8C514B510C110DD18CCE4C50CDD0905F40
  0
ACAD_PROXY_OBJECT
  5
31F
102
{ACAD_REACTORS
330
31C
102
}
330
31C
100
AcDbProxyObject
 90
      499
 91
      502
 93
       50
310
41404000000780
  0
ACAD_PROXY_OBJECT
  5
324
102
{ACAD_REACTORS
330
31C
102
}
330
31C
100
AcDbProxyObject
 90
      499
 91
      502
 93
       58
310
4196800040000000
  0
ACAD_PROXY_OBJECT
  5
321
102
{ACAD_REACTORS
330
31C
102
}
330
31C
100
AcDbProxyObject
 90
      499
 91
      502
 93
       90
310
429500468000000000000000
  0
ACAD_PROXY_OBJECT
  5
323
102
{ACAD_REACTORS
330
31C
102
}
330
31C
100
AcDbProxyObject
 90
      499
 91
      502
 93
       58
310
419680074A800000
  0
ACAD_PROXY_OBJECT
  5
322
102
{ACAD_REACTORS
330
31C
102
}
330
31C
100
AcDbProxyObject
 90
      499
 91
      502
 93
       90
310
429500464000000000000000
  0
ACAD_PROXY_OBJECT
  5
328
102
{ACAD_REACTORS
330
31C
102
}
330
31C
100
AcDbProxyObject
 90
      499
 91
      502
 93
       90
310
428A00000000000000000000
  0
ACAD_PROXY_OBJECT
  5
32B
102
{ACAD_REACTORS
330
31C
102
}
330
31C
100
AcDbProxyObject
 90
      499
 91
      502
 93
       90
310
429500400000000000000000
  0
ACAD_PROXY_OBJECT
  5
331
102
{ACAD_REACTORS
330
31C
102
}
330
31C
100
AcDbProxyObject
 90
      499
 91
      502
 93
      218
310
46828000000000000000000000000000000000000000000000000000
  0
ACAD_PROXY_OBJECT
  5
32D
102
{ACAD_REACTORS
330
31C
102
}
330
31C
100
AcDbProxyObject
 90
      499
 91
      502
 93
      218
310
46828000000000000000000000000000000000000000000000000000
  0
ACAD_PROXY_OBJECT
  5
330
102
{ACAD_REACTORS
330
31C
102
}
330
31C
100
AcDbProxyObject
 90
      499
 91
      502
 93
      218
310
46828000000000000000000000000000000000000000000000000000
  0
ACAD_PROXY_OBJECT
  5
32E
102
{ACAD_REACTORS
330
31C
102
}
330
31C
100
AcDbProxyObject
 90
      499
 91
      502
 93
      218
310
46828000000000000000000000000000000000000000000000000000
  0
ACAD_PROXY_OBJECT
  5
32F
102
{ACAD_REACTORS
330
31C
102
}
330
31C
100
AcDbProxyObject
 90
      499
 91
      502
 93
      218
310
46828000000000000000000000000000000000000000000000000000
  0
ACAD_PROXY_OBJECT
  5
32C
102
{ACAD_REACTORS
330
31C
102
}
330
31C
100
AcDbProxyObject
 90
      499
 91
      502
 93
      218
310
46828000000000000000000000000000000000000000000000000000
  0
ACAD_PROXY_OBJECT
  5
329
102
{ACAD_REACTORS
330
31C
102
}
330
31C
100
AcDbProxyObject
 90
      499
 91
      502
 93
       90
310
429500400000000000000000
  0
ACAD_PROXY_OBJECT
  5
32A
102
{ACAD_REACTORS
330
31C
102
}
330
31C
100
AcDbProxyObject
 90
      499
 91
      502
 93
       42
310
411180000000
  0
ACAD_PROXY_OBJECT
  5
320
102
{ACAD_REACTORS
330
31C
102
}
330
31C
100
AcDbProxyObject
 90
      499
 91
      502
 93
       50
310
41404000000780
  0
ACAD_PROXY_OBJECT
  5
31D
102
{ACAD_REACTORS
330
31C
102
}
330
31C
100
AcDbProxyObject
 90
      499
 91
      502
 93
       58
310
4196800040000000
  0
ACAD_PROXY_OBJECT
  5
31E
102
{ACAD_REACTORS
330
31C
102
}
330
31C
100
AcDbProxyObject
 90
      499
 91
      502
 93
       58
310
4196801180000000
  0
ACAD_PROXY_OBJECT
  5
334
102
{ACAD_REACTORS
330
31C
102
}
330
31C
100
AcDbProxyObject
 90
      499
 91
      502
 93
       90
310
429500400000000000000000
  0
ACAD_PROXY_OBJECT
  5
33A
102
{ACAD_REACTORS
330
31C
102
}
330
31C
100
AcDbProxyObject
 90
      499
 91
      502
 93
      218
310
46828000000000000000000000000000000000000000000000000000
  0
ACAD_PROXY_OBJECT
  5
336
102
{ACAD_REACTORS
330
31C
102
}
330
31C
100
AcDbProxyObject
 90
      499
 91
      502
 93
      218
310
46828000000000000000000000000000000000000000000000000000
  0
ACAD_PROXY_OBJECT
  5
339
102
{ACAD_REACTORS
330
31C
102
}
330
31C
100
AcDbProxyObject
 90
      499
 91
      502
 93
      218
310
46828000000000000000000000000000000000000000000000000000
  0
ACAD_PROXY_OBJECT
  5
337
102
{ACAD_REACTORS
330
31C
102
}
330
31C
100
AcDbProxyObject
 90
      499
 91
      502
 93
      218
310
46828000000000000000000000000000000000000000000000000000
  0
ACAD_PROXY_OBJECT
  5
338
102
{ACAD_REACTORS
330
31C
102
}
330
31C
100
AcDbProxyObject
 90
      499
 91
      502
 93
      218
310
46828000000000000000000000000000000000000000000000000000
  0
ACAD_PROXY_OBJECT
  5
335
102
{ACAD_REACTORS
330
31C
102
}
330
31C
100
AcDbProxyObject
 90
      499
 91
      502
 93
      218
310
46828000000000000000000000000000000000000000000000000000
  0
ACAD_PROXY_OBJECT
  5
332
102
{ACAD_REACTORS
330
31C
102
}
330
31C
100
AcDbProxyObject
 90
      499
 91
      502
 93
       90
310
429500400000000000000000
  0
ACAD_PROXY_OBJECT
  5
333
102
{ACAD_REACTORS
330
31C
102
}
330
31C
100
AcDbProxyObject
 90
      499
 91
      502
 93
       42
310
411180000000
  0
ACAD_PROXY_OBJECT
  5
327
102
{ACAD_REACTORS
330
31C
102
}
330
31C
100
AcDbProxyObject
 90
      499
 91
      502
 93
      354
310
4AC0400980079ED19051508C50CCCC8B514C0C4E4B4C4C510D4B4E4C8E508B4C0C10CC11118C8D4D9150CD1F40
  0
ENDSEC
  0
EOF
