  0
SECTION
  2
HEADER
  9
$ACADVER
  1
AC1018
  9
$ACADMAINTVER
 70
     0
  9
$DWGCODEPAGE
  3
ANSI_1252
  9
$INSBASE
 10
0.0
 20
0.0
 30
0.0
  9
$EXTMIN
 10
-12.59164300000001
 20
-0.0000005000000005
 30
0.0
  9
$EXTMAX
 10
54.58953947003276
 20
78.94871697072662
 30
0.0
  9
$LIMMIN
 10
0.0
 20
0.0
  9
$LIMMAX
 10
12.0
 20
9.0
  9
$ORTHOMODE
 70
     0
  9
$REGENMODE
 70
     1
  9
$FILLMODE
 70
     1
  9
$QTEXTMODE
 70
     0
  9
$MIRRTEXT
 70
     1
  9
$LTSCALE
 40
0.0393700787401575
  9
$ATTMODE
 70
     1
  9
$TEXTSIZE
 40
0.2
  9
$TRACEWID
 40
0.05
  9
$TEXTSTYLE
  7
Standard
  9
$CLAYER
  8
0
  9
$CELTYPE
  6
ByLayer
  9
$CECOLOR
 62
   256
  9
$CELTSCALE
 40
1.0
  9
$DISPSILH
 70
     0
  9
$DIMSCALE
 40
1.0
  9
$DIMASZ
 40
0.18
  9
$DIMEXO
 40
0.0625
  9
$DIMDLI
 40
0.38
  9
$DIMRND
 40
0.0
  9
$DIMDLE
 40
0.0
  9
$DIMEXE
 40
0.18
  9
$DIMTP
 40
0.0
  9
$DIMTM
 40
0.0
  9
$DIMTXT
 40
0.18
  9
$DIMCEN
 40
0.09
  9
$DIMTSZ
 40
0.0
  9
$DIMTOL
 70
     0
  9
$DIMLIM
 70
     0
  9
$DIMTIH
 70
     1
  9
$DIMTOH
 70
     1
  9
$DIMSE1
 70
     0
  9
$DIMSE2
 70
     0
  9
$DIMTAD
 70
     0
  9
$DIMZIN
 70
     0
  9
$DIMBLK
  1

  9
$DIMASO
 70
     1
  9
$DIMSHO
 70
     1
  9
$DIMPOST
  1

  9
$DIMAPOST
  1

  9
$DIMALT
 70
     0
  9
$DIMALTD
 70
     2
  9
$DIMALTF
 40
25.4
  9
$DIMLFAC
 40
1.0
  9
$DIMTOFL
 70
     0
  9
$DIMTVP
 40
0.0
  9
$DIMTIX
 70
     0
  9
$DIMSOXD
 70
     0
  9
$DIMSAH
 70
     0
  9
$DIMBLK1
  1

  9
$DIMBLK2
  1

  9
$DIMSTYLE
  2
Standard
  9
$DIMCLRD
 70
     0
  9
$DIMCLRE
 70
     0
  9
$DIMCLRT
 70
     0
  9
$DIMTFAC
 40
1.0
  9
$DIMGAP
 40
0.09
  9
$DIMJUST
 70
     0
  9
$DIMSD1
 70
     0
  9
$DIMSD2
 70
     0
  9
$DIMTOLJ
 70
     1
  9
$DIMTZIN
 70
     0
  9
$DIMALTZ
 70
     0
  9
$DIMALTTZ
 70
     0
  9
$DIMUPT
 70
     0
  9
$DIMDEC
 70
     4
  9
$DIMTDEC
 70
     4
  9
$DIMALTU
 70
     2
  9
$DIMALTTD
 70
     2
  9
$DIMTXSTY
  7
Standard
  9
$DIMAUNIT
 70
     0
  9
$DIMADEC
 70
     0
  9
$DIMALTRND
 40
0.0
  9
$DIMAZIN
 70
     0
  9
$DIMDSEP
 70
    46
  9
$DIMATFIT
 70
     3
  9
$DIMFRAC
 70
     0
  9
$DIMLDRBLK
  1

  9
$DIMLUNIT
 70
     2
  9
$DIMLWD
 70
    -2
  9
$DIMLWE
 70
    -2
  9
$DIMTMOVE
 70
     2
  9
$LUNITS
 70
     2
  9
$LUPREC
 70
     3
  9
$SKETCHINC
 40
0.1
  9
$FILLETRAD
 40
0.5
  9
$AUNITS
 70
     0
  9
$AUPREC
 70
     0
  9
$MENU
  1
.
  9
$ELEVATION
 40
0.0
  9
$PELEVATION
 40
0.0
  9
$THICKNESS
 40
0.0
  9
$LIMCHECK
 70
     0
  9
$CHAMFERA
 40
0.5
  9
$CHAMFERB
 40
0.5
  9
$CHAMFERC
 40
1.0
  9
$CHAMFERD
 40
0.0
  9
$SKPOLY
 70
     0
  9
$TDCREATE
 40
2457933.504639352
  9
$TDUCREATE
 40
2457933.671306019
  9
$TDUPDATE
 40
2457933.504639363
  9
$TDUUPDATE
 40
2457933.67130603
  9
$TDINDWG
 40
0.0000000116
  9
$TDUSRTIMER
 40
0.0000000116
  9
$USRTIMER
 70
     1
  9
$ANGBASE
 50
0.0
  9
$ANGDIR
 70
     0
  9
$PDMODE
 70
     0
  9
$PDSIZE
 40
0.0
  9
$PLINEWID
 40
0.0
  9
$SPLFRAME
 70
     0
  9
$SPLINETYPE
 70
     6
  9
$SPLINESEGS
 70
     8
  9
$HANDSEED
  5
2DD
  9
$SURFTAB1
 70
     6
  9
$SURFTAB2
 70
     6
  9
$SURFTYPE
 70
     6
  9
$SURFU
 70
     6
  9
$SURFV
 70
     6
  9
$UCSBASE
  2

  9
$UCSNAME
  2

  9
$UCSORG
 10
0.0
 20
0.0
 30
0.0
  9
$UCSXDIR
 10
1.0
 20
0.0
 30
0.0
  9
$UCSYDIR
 10
0.0
 20
1.0
 30
0.0
  9
$UCSORTHOREF
  2

  9
$UCSORTHOVIEW
 70
     0
  9
$UCSORGTOP
 10
0.0
 20
0.0
 30
0.0
  9
$UCSORGBOTTOM
 10
0.0
 20
0.0
 30
0.0
  9
$UCSORGLEFT
 10
0.0
 20
0.0
 30
0.0
  9
$UCSORGRIGHT
 10
0.0
 20
0.0
 30
0.0
  9
$UCSORGFRONT
 10
0.0
 20
0.0
 30
0.0
  9
$UCSORGBACK
 10
0.0
 20
0.0
 30
0.0
  9
$PUCSBASE
  2

  9
$PUCSNAME
  2

  9
$PUCSORG
 10
0.0
 20
0.0
 30
0.0
  9
$PUCSXDIR
 10
1.0
 20
0.0
 30
0.0
  9
$PUCSYDIR
 10
0.0
 20
1.0
 30
0.0
  9
$PUCSORTHOREF
  2

  9
$PUCSORTHOVIEW
 70
     0
  9
$PUCSORGTOP
 10
0.0
 20
0.0
 30
0.0
  9
$PUCSORGBOTTOM
 10
0.0
 20
0.0
 30
0.0
  9
$PUCSORGLEFT
 10
0.0
 20
0.0
 30
0.0
  9
$PUCSORGRIGHT
 10
0.0
 20
0.0
 30
0.0
  9
$PUCSORGFRONT
 10
0.0
 20
0.0
 30
0.0
  9
$PUCSORGBACK
 10
0.0
 20
0.0
 30
0.0
  9
$USERI1
 70
     0
  9
$USERI2
 70
     0
  9
$USERI3
 70
     0
  9
$USERI4
 70
     0
  9
$USERI5
 70
     0
  9
$USERR1
 40
0.0
  9
$USERR2
 40
0.0
  9
$USERR3
 40
0.0
  9
$USERR4
 40
0.0
  9
$USERR5
 40
0.0
  9
$WORLDVIEW
 70
     1
  9
$SHADEDGE
 70
     3
  9
$SHADEDIF
 70
    70
  9
$TILEMODE
 70
     1
  9
$MAXACTVP
 70
    64
  9
$PINSBASE
 10
0.0
 20
0.0
 30
0.0
  9
$PLIMCHECK
 70
     0
  9
$PEXTMIN
 10
1.000000000000000E+20
 20
1.000000000000000E+20
 30
1.000000000000000E+20
  9
$PEXTMAX
 10
-1.000000000000000E+20
 20
-1.000000000000000E+20
 30
-1.000000000000000E+20
  9
$PLIMMIN
 10
0.0
 20
0.0
  9
$PLIMMAX
 10
12.0
 20
9.0
  9
$UNITMODE
 70
     0
  9
$VISRETAIN
 70
     1
  9
$PLINEGEN
 70
     0
  9
$PSLTSCALE
 70
     1
  9
$TREEDEPTH
 70
  3020
  9
$CMLSTYLE
  2
Standard
  9
$CMLJUST
 70
     0
  9
$CMLSCALE
 40
1.0
  9
$PROXYGRAPHICS
 70
     1
  9
$MEASUREMENT
 70
     0
  9
$CELWEIGHT
370
    -1
  9
$ENDCAPS
280
     0
  9
$JOINSTYLE
280
     0
  9
$LWDISPLAY
290
     0
  9
$INSUNITS
 70
     1
  9
$HYPERLINKBASE
  1

  9
$STYLESHEET
  1

  9
$XEDIT
290
     1
  9
$CEPSNTYPE
380
     0
  9
$PSTYLEMODE
290
     1
  9
$FINGERPRINTGUID
  2
{CAFC4041-73F9-4A14-A8B2-C4B2D277E758}
  9
$VERSIONGUID
  2
{FAEB1C32-E019-11D5-929B-00C0DF256EC4}
  9
$EXTNAMES
290
     1
  9
$PSVPSCALE
 40
0.0
  9
$OLESTARTUP
290
     0
  9
$SORTENTS
280
   127
  9
$INDEXCTL
280
     0
  9
$HIDETEXT
280
     1
  9
$XCLIPFRAME
290
     0
  9
$HALOGAP
280
     0
  9
$OBSCOLOR
 70
   257
  9
$OBSLTYPE
280
     0
  9
$INTERSECTIONDISPLAY
280
     0
  9
$INTERSECTIONCOLOR
 70
   257
  9
$DIMASSOC
280
     2
  9
$PROJECTNAME
  1

  0
ENDSEC
  0
SECTION
  2
CLASSES
  0
CLASS
  1
ACDBDICTIONARYWDFLT
  2
AcDbDictionaryWithDefault
  3
ObjectDBX Classes
 90
        0
 91
        4
280
     0
281
     0
  0
CLASS
  1
VISUALSTYLE
  2
AcDbVisualStyle
  3
ObjectDBX Classes
 90
     4095
 91
        4
280
     0
281
     0
  0
ENDSEC
  0
SECTION
  2
TABLES
  0
TABLE
  2
VPORT
  5
8
330
0
100
AcDbSymbolTable
 70
     1
  0
VPORT
  5
29
330
8
100
AcDbSymbolTableRecord
100
AcDbViewportTableRecord
  2
*Active
 70
     0
 10
0.0
 20
0.0
 11
1.0
 21
1.0
 12
20.99894823501638
 22
39.47435823536331
 13
0.0
 23
0.0
 14
0.5
 24
0.5
 15
0.5
 25
0.5
 16
0.0
 26
0.0
 36
1.0
 17
0.0
 27
0.0
 37
0.0
 40
80.52769182014116
 41
0.8509471036681864
 42
50.0
 43
0.0
 44
0.0
 50
0.0
 51
0.0
 71
     0
 72
   100
 73
     1
 74
     3
 75
     0
 76
     0
 77
     0
 78
     0
281
     0
 65
     1
110
0.0
120
0.0
130
0.0
111
1.0
121
0.0
131
0.0
112
0.0
122
1.0
132
0.0
 79
     0
146
0.0
  0
ENDTAB
  0
TABLE
  2
LTYPE
  5
5
330
0
100
AcDbSymbolTable
 70
     1
  0
LTYPE
  5
14
330
5
100
AcDbSymbolTableRecord
100
AcDbLinetypeTableRecord
  2
ByBlock
 70
     0
  3

 72
    65
 73
     0
 40
0.0
  0
LTYPE
  5
15
330
5
100
AcDbSymbolTableRecord
100
AcDbLinetypeTableRecord
  2
ByLayer
 70
     0
  3

 72
    65
 73
     0
 40
0.0
  0
LTYPE
  5
16
330
5
100
AcDbSymbolTableRecord
100
AcDbLinetypeTableRecord
  2
Continuous
 70
     0
  3
Solid line
 72
    65
 73
     0
 40
0.0
  0
ENDTAB
  0
TABLE
  2
LAYER
  5
2
330
0
100
AcDbSymbolTable
 70
     5
  0
LAYER
  5
10
330
2
100
AcDbSymbolTableRecord
100
AcDbLayerTableRecord
  2
0
 70
     0
 62
     7
  6
Continuous
370
    -3
390
F
  0
LAYER
  5
3B
330
2
100
AcDbSymbolTableRecord
100
AcDbLayerTableRecord
  2
~BASE~
 70
     0
 62
     7
  6
Continuous
370
    -3
390
F
  0
LAYER
  5
46
330
2
100
AcDbSymbolTableRecord
100
AcDbLayerTableRecord
  2
SYNCHRO
 70
     0
 62
     7
  6
Continuous
370
    -3
390
F
  0
LAYER
  5
4C
330
2
100
AcDbSymbolTableRecord
100
AcDbLayerTableRecord
  2
SLOPED ARM
 70
     0
 62
     7
  6
Continuous
370
    -3
390
F
  0
LAYER
  5
29C
330
2
100
AcDbSymbolTableRecord
100
AcDbLayerTableRecord
  2
border high
 70
     0
 62
     7
  6
Continuous
370
    -3
390
F
  0
ENDTAB
  0
TABLE
  2
STYLE
  5
3
330
0
100
AcDbSymbolTable
 70
     1
  0
STYLE
  5
11
330
3
100
AcDbSymbolTableRecord
100
AcDbTextStyleTableRecord
  2
Standard
 70
     0
 40
0.0
 41
1.0
 50
0.0
 71
     0
 42
0.2
  3
txt
  4

  0
ENDTAB
  0
TABLE
  2
VIEW
  5
6
330
0
100
AcDbSymbolTable
 70
     0
  0
ENDTAB
  0
TABLE
  2
UCS
  5
7
330
0
100
AcDbSymbolTable
 70
     0
  0
ENDTAB
  0
TABLE
  2
APPID
  5
9
330
0
100
AcDbSymbolTable
 70
     1
  0
APPID
  5
12
330
9
100
AcDbSymbolTableRecord
100
AcDbRegAppTableRecord
  2
ACAD
 70
     0
  0
ENDTAB
  0
TABLE
  2
DIMSTYLE
  5
A
330
0
100
AcDbSymbolTable
 70
     1
100
AcDbDimStyleTable
  0
DIMSTYLE
105
27
330
A
100
AcDbSymbolTableRecord
100
AcDbDimStyleTableRecord
  2
Standard
 70
     0
340
11
  0
ENDTAB
  0
TABLE
  2
BLOCK_RECORD
  5
1
330
0
100
AcDbSymbolTable
 70
     1
  0
BLOCK_RECORD
  5
1F
330
1
100
AcDbSymbolTableRecord
100
AcDbBlockTableRecord
  2
*Model_Space
340
22
  0
BLOCK_RECORD
  5
1B
330
1
100
AcDbSymbolTableRecord
100
AcDbBlockTableRecord
  2
*Paper_Space
340
1E
  0
BLOCK_RECORD
  5
23
330
1
100
AcDbSymbolTableRecord
100
AcDbBlockTableRecord
  2
*Paper_Space0
340
26
  0
ENDTAB
  0
ENDSEC
  0
SECTION
  2
BLOCKS
  0
BLOCK
  5
20
330
1F
100
AcDbEntity
  8
0
100
AcDbBlockBegin
  2
*Model_Space
 70
     0
 10
0.0
 20
0.0
 30
0.0
  3
*Model_Space
  1

  0
ENDBLK
  5
21
330
1F
100
AcDbEntity
  8
0
100
AcDbBlockEnd
  0
BLOCK
  5
1C
330
1B
100
AcDbEntity
 67
     1
  8
0
100
AcDbBlockBegin
  2
*Paper_Space
 70
     0
 10
0.0
 20
0.0
 30
0.0
  3
*Paper_Space
  1

  0
ENDBLK
  5
1D
330
1B
100
AcDbEntity
 67
     1
  8
0
100
AcDbBlockEnd
  0
BLOCK
  5
24
330
23
100
AcDbEntity
  8
0
100
AcDbBlockBegin
  2
*Paper_Space0
 70
     0
 10
0.0
 20
0.0
 30
0.0
  3
*Paper_Space0
  1

  0
ENDBLK
  5
25
330
23
100
AcDbEntity
  8
0
100
AcDbBlockEnd
  0
ENDSEC
  0
SECTION
  2
ENTITIES
  0
LINE
  5
3C
330
1F
100
AcDbEntity
  8
~BASE~
100
AcDbLine
 10
40.2509046201077
 20
4.166142000000001
 30
0.0
 11
40.2509046201077
 21
2.418503999999999
 31
0.0
  0
ARC
  5
3D
330
1F
100
AcDbEntity
  8
~BASE~
100
AcDbCircle
 10
40.35326662010772
 20
2.418504000000018
 30
0.0
 40
0.1023620000000185
100
AcDbArc
 50
180.0000000000107
 51
269.9999999999881
  0
LINE
  5
3E
330
1F
100
AcDbEntity
  8
~BASE~
100
AcDbLine
 10
40.3532666201077
 20
2.316142
 30
0.0
 11
41.9005106201077
 21
2.316141499999999
 31
0.0
  0
ARC
  5
3F
330
1F
100
AcDbEntity
  8
~BASE~
100
AcDbCircle
 10
41.90051062010772
 20
2.418503999999976
 30
0.0
 40
0.1023624999999768
100
AcDbArc
 50
269.9999999999881
 51
0.0000000000131743
  0
LINE
  5
40
330
1F
100
AcDbEntity
  8
~BASE~
100
AcDbLine
 10
42.00287312010769
 20
2.418504
 30
0.0
 11
42.00287362010769
 21
4.166142000000001
 31
0.0
  0
LINE
  5
41
330
1F
100
AcDbEntity
  8
~BASE~
100
AcDbLine
 10
42.0384346201077
 20
6.722366000000001
 30
0.0
 11
42.1085711201077
 21
9.51696
 31
0.0
  0
LINE
  5
42
330
1F
100
AcDbEntity
  8
~BASE~
100
AcDbLine
 10
42.1085711201077
 20
9.51696
 30
0.0
 11
42.0087651201077
 21
9.6192905
 31
0.0
  0
LINE
  5
43
330
1F
100
AcDbEntity
  8
~BASE~
100
AcDbLine
 10
42.0087651201077
 20
9.6192905
 30
0.0
 11
40.2450131201077
 21
9.6192905
 31
0.0
  0
LINE
  5
44
330
1F
100
AcDbEntity
  8
~BASE~
100
AcDbLine
 10
40.2450131201077
 20
9.6192905
 30
0.0
 11
40.1452071201077
 21
9.51696
 31
0.0
  0
LINE
  5
45
330
1F
100
AcDbEntity
  8
~BASE~
100
AcDbLine
 10
40.1452071201077
 20
9.51696
 30
0.0
 11
40.21533762010771
 21
6.722588999999999
 31
0.0
  0
LINE
  5
47
330
1F
100
AcDbEntity
  8
SYNCHRO
100
AcDbLine
 10
41.67806962010769
 20
10.524804
 30
0.0
 11
41.67806962010769
 21
9.619292000000002
 31
0.0
  0
LINE
  5
48
330
1F
100
AcDbEntity
  8
SYNCHRO
100
AcDbLine
 10
40.5757076201077
 20
10.524804
 30
0.0
 11
40.5757076201077
 21
9.619292000000002
 31
0.0
  0
ARC
  5
49
330
1F
100
AcDbEntity
  8
SYNCHRO
100
AcDbCircle
 10
41.8466280374594
 20
10.85590705324096
 30
0.0
 40
0.7377468007110994
100
AcDbArc
 50
28.24211602688039
 51
119.961350790388
  0
LINE
  5
4A
330
1F
100
AcDbEntity
  8
SYNCHRO
100
AcDbLine
 10
41.4758986201077
 20
11.494319
 30
0.0
 11
41.1675246201077
 21
12.447619
 31
0.0
  0
SPLINE
  5
4B
330
1F
100
AcDbEntity
  8
~BASE~
100
AcDbSpline
210
0.0
220
0.0
230
1.0
 70
     8
 71
     3
 72
    17
 73
    13
 74
     0
 42
0.0000000001
 43
0.0000000001
 40
0.0
 40
0.0
 40
0.0
 40
0.0
 40
3.108034852295682
 40
5.385243763319808
 40
6.966767901109606
 40
8.169689523952657
 40
9.372684815765892
 40
9.942389457296107
 40
10.48074881516574
 40
11.40176773176893
 40
11.91100308314558
 40
12.48230055003152
 40
12.48230055003152
 40
12.48230055003152
 40
12.48230055003152
 10
43.94740136397036
 20
19.68364545384042
 30
0.0
 10
44.98305526275553
 20
19.71661223768401
 30
0.0
 10
46.77750495998067
 20
19.75143188297954
 30
0.0
 10
49.10077261865928
 20
19.70329998155476
 30
0.0
 10
50.78057020230413
 20
19.53048047626278
 30
0.0
 10
52.07324582889868
 20
19.18507449821763
 30
0.0
 10
52.90552506939702
 20
18.60256499290663
 30
0.0
 10
53.34046755165559
 20
17.95964210602497
 30
0.0
 10
53.57543029029905
 20
17.31559677357553
 30
0.0
 10
53.47354619037269
 20
16.63319905957051
 30
0.0
 10
53.06252335180618
 20
16.0936694158607
 30
0.0
 10
52.78311753708031
 20
15.86777071945744
 30
0.0
 10
52.62296543958448
 20
15.76267362135824
 30
0.0
  0
SPLINE
  5
4D
330
1F
100
AcDbEntity
  8
SLOPED ARM
100
AcDbSpline
210
0.0
220
0.0
230
1.0
 70
     8
 71
     3
 72
    11
 73
     7
 74
     0
 42
0.0000000001
 43
0.0000000001
 40
-0.328918316499056
 40
-0.328918316499056
 40
-0.328918316499056
 40
-0.328918316499056
 40
-0.1539263665305832
 40
-0.0756120492336437
 40
-0.0377649564030061
 40
0.0
 40
0.0
 40
0.0
 40
0.0
 10
35.45354276031457
 20
28.15278769111243
 30
0.0
 10
35.45810937541902
 20
28.21047998332342
 30
0.0
 10
35.48824676071165
 20
28.29494218529548
 30
0.0
 10
35.56656481073586
 20
28.35597055635624
 30
0.0
 10
35.61535773346281
 20
28.37280586303741
 30
0.0
 10
35.6405059021054
 20
28.37588609480424
 30
0.0
 10
35.65309906075783
 20
28.37602008100896
 30
0.0
  0
ARC
  5
4E
330
1F
100
AcDbEntity
  8
SLOPED ARM
100
AcDbCircle
 10
33.68105096965684
 20
-28.3747445489505
 30
0.0
 40
56.78501791633664
100
AcDbArc
 50
78.26930312960121
 51
88.00981383558693
  0
SPLINE
  5
4F
330
1F
100
AcDbEntity
  8
SLOPED ARM
100
AcDbSpline
210
0.0
220
0.0
230
1.0
 70
    12
 71
     2
 72
     6
 73
     3
 74
     0
 42
0.0000000001
 43
0.0000000001
 40
0.0
 40
0.0
 40
0.0
 40
2.43528542671098
 40
2.43528542671098
 40
2.43528542671098
 10
45.22612063051582
 20
27.22426287280646
 30
0.0
 41
1.0
 10
46.6607053952028
 20
26.92808625354611
 30
0.0
 41
0.7650709814138379
 10
46.61371064755901
 20
25.46400103383981
 30
0.0
 41
1.0
  0
SPLINE
  5
50
330
1F
100
AcDbEntity
  8
SLOPED ARM
100
AcDbSpline
210
0.0
220
0.0
230
1.0
 70
     8
 71
     3
 72
     8
 73
     4
 74
     0
 42
0.0000000001
 43
0.0000000001
 40
0.0
 40
0.0
 40
0.0
 40
0.0
 40
1.0
 40
1.0
 40
1.0
 40
1.0
 10
46.61371064755901
 20
25.46400103383981
 30
0.0
 10
46.6100380250737
 20
25.34958330488293
 30
0.0
 10
46.53793353164908
 20
25.28100088451871
 30
0.0
 10
46.42148592917092
 20
25.26028272403753
 30
0.0
  0
SPLINE
  5
51
330
1F
100
AcDbEntity
  8
~BASE~
100
AcDbSpline
210
0.0
220
0.0
230
1.0
 70
     8
 71
     3
 72
    11
 73
     7
 74
     0
 42
0.0000000001
 43
0.0000000001
 40
0.0
 40
0.0
 40
0.0
 40
0.0
 40
0.1431031551734146
 40
0.3473754335411183
 40
1.109187407661939
 40
1.415252671542218
 40
1.415252671542218
 40
1.415252671542218
 40
1.415252671542218
 10
53.5064848401338
 20
14.65862897996936
 30
0.0
 10
53.47077745988775
 20
14.69026341897427
 30
0.0
 10
53.39058516337297
 20
14.77402820461023
 30
0.0
 10
53.15594414613495
 20
15.05988120164469
 30
0.0
 10
52.90815940810179
 20
15.40431699387252
 30
0.0
 10
52.68690715927323
 20
15.6831727847232
 30
0.0
 10
52.6229654395845
 20
15.76267362135824
 30
0.0
  0
POLYLINE
  5
52
330
1F
100
AcDbEntity
  8
~BASE~
100
AcDb2dPolyline
 66
     1
 10
0.0
 20
0.0
 30
0.0
  0
VERTEX
  5
53
330
52
100
AcDbEntity
  8
~BASE~
100
AcDbVertex
100
AcDb2dVertex
 10
34.15516609565289
 20
14.98357918489779
 30
0.0
  0
VERTEX
  5
54
330
52
100
AcDbEntity
  8
~BASE~
100
AcDbVertex
100
AcDb2dVertex
 10
34.18274884886946
 20
15.39467276009551
 30
0.0
  0
SEQEND
  5
55
330
52
100
AcDbEntity
  8
~BASE~
  0
SPLINE
  5
56
330
1F
100
AcDbEntity
  8
~BASE~
100
AcDbSpline
210
0.0
220
0.0
230
1.0
 70
     8
 71
     3
 72
     8
 73
     4
 74
     0
 42
0.0000000001
 43
0.0000000001
 40
-1.0
 40
-1.0
 40
-1.0
 40
-1.0
 40
0.0
 40
0.0
 40
0.0
 40
0.0
 10
34.90820463582298
 20
18.69601781593398
 30
0.0
 10
35.07313373725626
 20
18.85944693091832
 30
0.0
 10
35.22716506452631
 20
19.07626881619563
 30
0.0
 10
35.45884765270679
 20
19.12271674044836
 30
0.0
  0
SPLINE
  5
57
330
1F
100
AcDbEntity
  8
~BASE~
100
AcDbSpline
210
0.0
220
0.0
230
1.0
 70
     8
 71
     3
 72
    12
 73
     8
 74
     0
 42
0.0000000001
 43
0.0000000001
 40
0.0
 40
0.0
 40
0.0
 40
0.0
 40
1.0
 40
2.0
 40
3.0
 40
4.0
 40
5.0
 40
5.0
 40
5.0
 40
5.0
 10
35.45884765270679
 20
19.12271674044836
 30
0.0
 10
35.94499165549538
 20
19.22017930763901
 30
0.0
 10
36.93793207781383
 20
19.2776779759268
 30
0.0
 10
38.42063347880565
 20
19.39971500275052
 30
0.0
 10
39.90643659759117
 20
19.49414243358262
 30
0.0
 10
41.39253181459097
 20
19.57799127384217
 30
0.0
 10
42.38386509710791
 20
19.62365226888318
 30
0.0
 10
42.87960651654158
 20
19.64426295066286
 30
0.0
  0
SPLINE
  5
58
330
1F
100
AcDbEntity
  8
SLOPED ARM
100
AcDbSpline
210
0.0
220
0.0
230
1.0
 70
    12
 71
     2
 72
     6
 73
     3
 74
     0
 42
0.0000000001
 43
0.0000000001
 40
0.0
 40
0.0
 40
0.0
 40
0.2539731617705456
 40
0.2539731617705456
 40
0.2539731617705456
 10
33.42968965751508
 20
28.13299641730391
 30
0.0
 41
1.0
 10
33.27147777855241
 20
28.12524764718528
 30
0.0
 41
0.7274166078455266
 10
33.26999440119041
 20
27.96685307128431
 30
0.0
 41
1.0
  0
POLYLINE
  5
59
330
1F
100
AcDbEntity
  8
SLOPED ARM
100
AcDb2dPolyline
 66
     1
 10
0.0
 20
0.0
 30
0.0
  0
VERTEX
  5
5A
330
59
100
AcDbEntity
  8
SLOPED ARM
100
AcDbVertex
100
AcDb2dVertex
 10
33.26999440119041
 20
27.96685307128431
 30
0.0
  0
VERTEX
  5
5B
330
59
100
AcDbEntity
  8
SLOPED ARM
100
AcDbVertex
100
AcDb2dVertex
 10
33.27011659815204
 20
27.86399240730267
 30
0.0
  0
SEQEND
  5
5C
330
59
100
AcDbEntity
  8
SLOPED ARM
  0
SPLINE
  5
5D
330
1F
100
AcDbEntity
  8
SLOPED ARM
100
AcDbSpline
210
0.0
220
0.0
230
1.0
 70
    12
 71
     2
 72
     8
 73
     5
 74
     0
 42
0.0000000001
 43
0.0000000001
 40
0.0
 40
0.0
 40
0.0
 40
0.1446126159505507
 40
0.1446126159505507
 40
0.2892252319011015
 40
0.2892252319011015
 40
0.2892252319011015
 10
33.27011659815204
 20
27.86399240730267
 30
0.0
 41
1.0
 10
33.2713855294951
 20
27.7875095394008
 30
0.0
 41
0.9198797775790378
 10
33.32745064354626
 20
27.73547164690235
 30
0.0
 41
1.0
 10
33.3835157575974
 20
27.6834337544039
 30
0.0
 41
0.9198797775790378
 10
33.45988104303662
 20
27.68785896050505
 30
0.0
 41
1.0
  0
ARC
  5
5E
330
1F
100
AcDbEntity
  8
SLOPED ARM
100
AcDbCircle
 10
34.22416601701075
 20
16.16504373570736
 30
0.0
 40
11.54813414479899
100
AcDbArc
 50
90.29490695693075
 51
93.7947545335219
  0
SPLINE
  5
5F
330
1F
100
AcDbEntity
  8
SLOPED ARM
100
AcDbSpline
210
0.0
220
0.0
230
1.0
 70
     8
 71
     3
 72
     8
 73
     4
 74
     0
 42
0.0000000001
 43
0.0000000001
 40
0.0
 40
0.0
 40
0.0
 40
0.0
 40
1.0
 40
1.0
 40
1.0
 40
1.0
 10
34.16472690839714
 20
27.71302491072836
 30
0.0
 10
34.23485278025824
 20
27.71337726437756
 30
0.0
 10
34.28855908000207
 20
27.68000499317611
 30
0.0
 10
34.3092697093288
 20
27.61491169708125
 30
0.0
  0
SPLINE
  5
60
330
1F
100
AcDbEntity
  8
SLOPED ARM
100
AcDbSpline
210
0.0
220
0.0
230
1.0
 70
     8
 71
     3
 72
    12
 73
     8
 74
     0
 42
0.0000000001
 43
0.0000000001
 40
0.0
 40
0.0
 40
0.0
 40
0.0
 40
1.0
 40
2.0
 40
3.0
 40
4.0
 40
5.0
 40
5.0
 40
5.0
 40
5.0
 10
34.3092697093288
 20
27.61491169708125
 30
0.0
 10
34.32764276743192
 20
27.55700032257164
 30
0.0
 10
34.39459252055868
 20
27.45005003393327
 30
0.0
 10
34.56009861780723
 20
27.36165124935083
 30
0.0
 10
34.74744422403356
 20
27.35414318986399
 30
0.0
 10
34.92140716659971
 20
27.42283458924409
 30
0.0
 10
34.99942571775397
 20
27.52244083110468
 30
0.0
 10
35.02386514633196
 20
27.57799383295973
 30
0.0
  0
SPLINE
  5
61
330
1F
100
AcDbEntity
  8
SLOPED ARM
100
AcDbSpline
210
0.0
220
0.0
230
1.0
 70
     8
 71
     3
 72
     8
 73
     4
 74
     0
 42
0.0000000001
 43
0.0000000001
 40
-1.0
 40
-1.0
 40
-1.0
 40
-1.0
 40
0.0
 40
0.0
 40
0.0
 40
0.0
 10
35.02386514633196
 20
27.57799383295973
 30
0.0
 10
35.05317782513875
 20
27.64454747392943
 30
0.0
 10
35.10857584847377
 20
27.68497512911313
 30
0.0
 10
35.17914849926444
 20
27.68149488022846
 30
0.0
  0
SPLINE
  5
62
330
1F
100
AcDbEntity
  8
SLOPED ARM
100
AcDbSpline
210
0.0
220
0.0
230
1.0
 70
     8
 71
     3
 72
    11
 73
     7
 74
     0
 42
0.0000000001
 43
0.0000000001
 40
1.827604089506489
 40
1.827604089506489
 40
1.827604089506489
 40
1.827604089506489
 40
3.413380448053458
 40
3.924623142131251
 40
7.587625052204682
 40
11.77790213040887
 40
11.77790213040887
 40
11.77790213040887
 40
11.77790213040887
 10
35.17914849926444
 20
27.68149488022846
 30
0.0
 10
35.70510214036359
 20
27.65558971694585
 30
0.0
 10
36.40239109013559
 20
27.61037107875052
 30
0.0
 10
38.31455772172276
 20
27.44967083293892
 30
0.0
 10
41.08131850630313
 20
27.11293069848673
 30
0.0
 10
43.65551541127082
 20
26.64460271369559
 30
0.0
 10
45.02496675008529
 20
26.36046048862173
 30
0.0
  0
SPLINE
  5
63
330
1F
100
AcDbEntity
  8
SLOPED ARM
100
AcDbSpline
210
0.0
220
0.0
230
1.0
 70
     8
 71
     3
 72
    12
 73
     8
 74
     0
 42
0.0000000001
 43
0.0000000001
 40
0.0
 40
0.0
 40
0.0
 40
0.0
 40
1.0
 40
2.0
 40
3.0
 40
4.0
 40
5.0
 40
5.0
 40
5.0
 40
5.0
 10
45.02496675008529
 20
26.36046048862173
 30
0.0
 10
45.12554995853426
 20
26.33844190164339
 30
0.0
 10
45.31320101946826
 20
26.26182688150613
 30
0.0
 10
45.5385695409671
 20
26.05893107111454
 30
0.0
 10
45.69321846490778
 20
25.79872640630189
 30
0.0
 10
45.75370244014166
 20
25.49985208212974
 30
0.0
 10
45.70843180319027
 20
25.30042209613245
 30
0.0
 10
45.66428576030008
 20
25.21086710213314
 30
0.0
  0
ARC
  5
64
330
1F
100
AcDbEntity
  8
SLOPED ARM
100
AcDbCircle
 10
1753.215684016698
 20
-832.3477939276204
 30
0.0
 40
1910.795288562991
100
AcDbArc
 50
153.3334909720598
 51
153.6138883041883
  0
ARC
  5
65
330
1F
100
AcDbEntity
  8
SLOPED ARM
100
AcDbCircle
 10
41.60618601212496
 20
16.79165740686866
 30
0.0
 40
0.1293239133882047
100
AcDbArc
 50
156.0672367212372
 51
269.9004467681436
  0
LINE
  5
66
330
1F
100
AcDbEntity
  8
SLOPED ARM
100
AcDbLine
 10
41.60596130784193
 20
16.66233368869591
 30
0.0
 11
42.51345867227447
 21
16.70756447672623
 31
0.0
  0
SPLINE
  5
67
330
1F
100
AcDbEntity
  8
SLOPED ARM
100
AcDbSpline
210
0.0
220
0.0
230
1.0
 70
     8
 71
     3
 72
     8
 73
     4
 74
     0
 42
0.0000000001
 43
0.0000000001
 40
0.0
 40
0.0
 40
0.0
 40
0.0
 40
1.0
 40
1.0
 40
1.0
 40
1.0
 10
42.51345867227447
 20
16.70756447672623
 30
0.0
 10
42.56176029754689
 20
16.70997188930928
 30
0.0
 10
42.59977192537691
 20
16.74558794487721
 30
0.0
 10
42.62122395069094
 20
16.79232046733551
 30
0.0
  0
LINE
  5
68
330
1F
100
AcDbEntity
  8
SLOPED ARM
100
AcDbLine
 10
42.62122395069094
 20
16.79232046733551
 30
0.0
 11
46.33103740036032
 21
24.89480561544146
 31
0.0
  0
SPLINE
  5
69
330
1F
100
AcDbEntity
  8
SLOPED ARM
100
AcDbSpline
210
0.0
220
0.0
230
1.0
 70
    12
 71
     2
 72
     6
 73
     3
 74
     0
 42
0.0000000001
 43
0.0000000001
 40
-0.357528196390254
 40
-0.357528196390254
 40
-0.357528196390254
 40
0.0
 40
0.0
 40
0.0
 10
46.33103740036032
 20
24.89480561544146
 30
0.0
 41
1.0
 10
46.40552862339861
 20
25.05864383594577
 30
0.0
 41
0.9899175695000428
 10
46.43108512970068
 20
25.23679761725112
 30
0.0
 41
1.0
  0
ARC
  5
6A
330
1F
100
AcDbEntity
  8
SLOPED ARM
100
AcDbCircle
 10
47.52906715716549
 20
25.69928634273483
 30
0.0
 40
1.191411076763718
100
AcDbArc
 50
189.5269124191093
 51
202.8416544638085
  0
SPLINE
  5
6B
330
1F
100
AcDbEntity
  8
SLOPED ARM
100
AcDbSpline
210
0.0
220
0.0
230
1.0
 70
     8
 71
     3
 72
     9
 73
     5
 74
     0
 42
0.0000000001
 43
0.0000000001
 40
-2.0
 40
-2.0
 40
-2.0
 40
-2.0
 40
-1.0
 40
0.0
 40
0.0
 40
0.0
 40
0.0
 10
46.3540880598894
 20
25.50209487537496
 30
0.0
 10
46.34641878294504
 20
25.52444097798603
 30
0.0
 10
46.30500299319171
 20
25.5488894151957
 30
0.0
 10
46.26146114014558
 20
25.55983126994585
 30
0.0
 10
46.23879567290772
 20
25.56290137499156
 30
0.0
  0
SPLINE
  5
6C
330
1F
100
AcDbEntity
  8
SLOPED ARM
100
AcDbSpline
210
0.0
220
0.0
230
1.0
 70
     8
 71
     3
 72
     9
 73
     5
 74
     0
 42
0.0000000001
 43
0.0000000001
 40
0.0
 40
0.0
 40
0.0
 40
0.0
 40
1.0
 40
2.0
 40
2.0
 40
2.0
 40
2.0
 10
46.23879567290772
 20
25.56290137499156
 30
0.0
 10
46.20331388537685
 20
25.56627743655034
 30
0.0
 10
46.13313607201599
 20
25.5948577844569
 30
0.0
 10
46.10021628666529
 20
25.66420144021223
 30
0.0
 10
46.0976592254362
 20
25.69976904440805
 30
0.0
  0
SPLINE
  5
6D
330
1F
100
AcDbEntity
  8
SLOPED ARM
100
AcDbSpline
210
0.0
220
0.0
230
1.0
 70
    12
 71
     2
 72
     6
 73
     3
 74
     0
 42
0.0000000001
 43
0.0000000001
 40
-1.612235333753046
 40
-1.612235333753046
 40
-1.612235333753046
 40
0.0
 40
0.0
 40
0.0
 10
46.0976592254362
 20
25.69976904440805
 30
0.0
 41
1.0
 10
45.96763307971268
 20
26.61485507068708
 30
0.0
 41
0.8188224226601496
 10
45.06304332997041
 20
26.80460917136494
 30
0.0
 41
1.0
  0
SPLINE
  5
6E
330
1F
100
AcDbEntity
  8
SLOPED ARM
100
AcDbSpline
210
0.0
220
0.0
230
1.0
 70
    12
 71
     2
 72
     6
 73
     3
 74
     0
 42
0.0000000001
 43
0.0000000001
 40
-9.531232705407769
 40
-9.531232705407769
 40
-9.531232705407769
 40
0.0
 40
0.0
 40
0.0
 10
45.06304332997041
 20
26.80460917136494
 30
0.0
 41
1.0
 10
40.38581613051091
 20
27.77569908136022
 30
0.0
 41
0.9964377901071614
 10
35.61191261495042
 20
27.94691564824881
 30
0.0
 41
1.0
  0
SPLINE
  5
6F
330
1F
100
AcDbEntity
  8
SLOPED ARM
100
AcDbSpline
210
0.0
220
0.0
230
1.0
 70
     8
 71
     3
 72
     8
 73
     4
 74
     0
 42
0.0000000001
 43
0.0000000001
 40
0.0
 40
0.0
 40
0.0
 40
0.0
 40
1.0
 40
1.0
 40
1.0
 40
1.0
 10
35.61191261495042
 20
27.94691564824881
 30
0.0
 10
35.5179609470016
 20
27.95028523500045
 30
0.0
 10
35.46748990656415
 20
27.99673590530202
 30
0.0
 10
35.47422728342017
 20
28.08817538699289
 30
0.0
  0
SPLINE
  5
70
330
1F
100
AcDbEntity
  8
SLOPED ARM
100
AcDbSpline
210
0.0
220
0.0
230
1.0
 70
    12
 71
     2
 72
     6
 73
     3
 74
     0
 42
0.0000000001
 43
0.0000000001
 40
-0.0670434678260793
 40
-0.0670434678260793
 40
-0.0670434678260793
 40
0.0
 40
0.0
 40
0.0
 10
35.47422728342017
 20
28.08817538699289
 30
0.0
 41
1.0
 10
35.47677153412167
 20
28.1227058831205
 30
0.0
 41
0.9529199081170312
 10
35.45889300528894
 20
28.1523569637286
 30
0.0
 41
1.0
  0
SPLINE
  5
71
330
1F
100
AcDbEntity
  8
SLOPED ARM
100
AcDbSpline
210
0.0
220
0.0
230
1.0
 70
     8
 71
     3
 72
     9
 73
     5
 74
     0
 42
0.0000000001
 43
0.0000000001
 40
-2.0
 40
-2.0
 40
-2.0
 40
-2.0
 40
-1.0
 40
0.0
 40
0.0
 40
0.0
 40
0.0
 10
35.45889300528894
 20
28.1523569637286
 30
0.0
 10
35.12060793863565
 20
28.16185689881137
 30
0.0
 10
34.44392094632068
 20
28.18783118285743
 30
0.0
 10
33.76679155302623
 20
28.16357887481215
 30
0.0
 10
33.42968965751508
 20
28.13299641730391
 30
0.0
  0
SPLINE
  5
72
330
1F
100
AcDbEntity
  8
~BASE~
100
AcDbSpline
210
0.0
220
0.0
230
1.0
 70
    12
 71
     3
 72
    10
 73
     6
 74
     0
 42
0.0000000001
 43
0.0000000001
 40
0.0
 40
0.0
 40
0.0
 40
0.0
 40
1.0
 40
2.0
 40
3.0
 40
3.0
 40
3.0
 40
3.0
 10
53.49676304289647
 20
14.66231365599243
 30
0.0
 41
1.0
 10
54.51801642623406
 20
15.66326754336569
 30
0.0
 41
1.0
 10
54.67128009151698
 20
16.72845001708194
 30
0.0
 41
1.0
 10
54.41073186053602
 20
18.22277075359035
 30
0.0
 41
1.0
 10
52.92407430729177
 20
19.19599502813685
 30
0.0
 41
1.0
 10
50.40055559073208
 20
19.55393280773249
 30
0.0
 41
1.0
  0
SPLINE
  5
73
330
1F
100
AcDbEntity
  8
~BASE~
100
AcDbSpline
210
0.0
220
0.0
230
1.0
 70
    12
 71
     3
 72
    12
 73
     8
 74
     0
 42
0.0000000001
 43
0.0000000001
 40
0.0
 40
0.0
 40
0.0
 40
0.0
 40
0.2499999972524566
 40
0.2499999972524566
 40
0.4999999981683044
 40
0.4999999981683044
 40
1.0
 40
1.0
 40
1.0
 40
1.0
 10
52.6229654395845
 20
15.76267362135824
 30
0.0
 41
1.0
 10
51.88737644370914
 20
16.17018935203681
 30
0.0
 41
1.0
 10
50.85595701328892
 20
16.43692985539075
 30
0.0
 41
1.0
 10
48.33876983693315
 20
16.75054826538391
 30
0.0
 41
1.0
 10
46.84585004240832
 20
16.79527815502166
 30
0.0
 41
1.0
 10
42.30360713198085
 20
16.74065879065674
 30
0.0
 41
1.0
 10
38.60928724797882
 20
16.44507353011282
 30
0.0
 41
1.0
 10
35.8875940322979
 20
16.21601731864706
 30
0.0
 41
1.0
  0
SPLINE
  5
74
330
1F
100
AcDbEntity
  8
~BASE~
100
AcDbSpline
210
0.0
220
0.0
230
1.0
 70
    12
 71
     3
 72
    10
 73
     6
 74
     0
 42
0.0000000001
 43
0.0000000001
 40
-1.0
 40
-1.0
 40
-1.0
 40
-1.0
 40
-0.4998184159846576
 40
-0.4998184159846576
 40
-0.0000000775796919
 40
-0.0000000775796919
 40
-0.0000000775796919
 40
-0.0000000775796919
 10
35.8875940322979
 20
16.21601731864706
 30
0.0
 41
1.0
 10
35.6622138221564
 20
16.1970494456331
 30
0.0
 41
1.0
 10
35.46209845962563
 20
16.15396650492136
 30
0.0
 41
1.0
 10
35.22611353873071
 20
16.07854797106025
 30
0.0
 41
1.0
 10
35.16672759108227
 20
16.04313260390343
 30
0.0
 41
1.0
 10
35.14302320597695
 20
16.01163577179156
 30
0.0
 41
1.0
  0
SPLINE
  5
75
330
1F
100
AcDbEntity
  8
~BASE~
100
AcDbSpline
210
0.0
220
0.0
230
1.0
 70
    12
 71
     2
 72
     6
 73
     3
 74
     0
 42
0.0000000001
 43
0.0000000001
 40
0.0
 40
0.0
 40
0.0
 40
1.429739232446951
 40
1.429739232446951
 40
1.429739232446951
 10
35.14302320597695
 20
16.01163577179156
 30
0.0
 41
1.0
 10
34.71600859000952
 20
15.43331002813276
 30
0.0
 41
0.9916333415344579
 10
34.15516609565289
 20
14.98357918489778
 30
0.0
 41
1.0
  0
CIRCLE
  5
76
330
1F
100
AcDbEntity
  8
~BASE~
100
AcDbCircle
 10
30.32786262010769
 20
1.279527999999998
 30
0.0
 40
1.279527000000003
  0
ARC
  5
77
330
1F
100
AcDbEntity
  8
SYNCHRO
100
AcDbCircle
 10
48.2608266201077
 20
14.04117000000001
 30
0.0
 40
0.3937009409970637
100
AcDbArc
 50
283.9790277952811
 51
355.0000458564638
  0
LINE
  5
78
330
1F
100
AcDbEntity
  8
~BASE~
100
AcDbLine
 10
53.1170466201077
 20
2.766535999999999
 30
0.0
 11
53.1170466201077
 21
2.716536000000001
 31
0.0
  0
LINE
  5
79
330
1F
100
AcDbEntity
  8
~BASE~
100
AcDbLine
 10
52.64412335940352
 20
2.699548977187338
 30
0.0
 11
52.65968862010769
 21
2.716535738299619
 31
0.0
  0
ARC
  5
7A
330
1F
100
AcDbEntity
  8
SYNCHRO
100
AcDbCircle
 10
45.4563176201077
 20
14.49709500000001
 30
0.0
 40
0.3937004300065508
100
AcDbArc
 50
188.1083891567755
 51
357.3499443167881
  0
LINE
  5
7B
330
1F
100
AcDbEntity
  8
SYNCHRO
100
AcDbLine
 10
47.8800276201077
 20
13.217547
 30
0.0
 11
48.2550086201077
 21
13.634005
 31
0.0
  0
LINE
  5
7C
330
1F
100
AcDbEntity
  8
~BASE~
100
AcDbLine
 10
42.14742362010769
 20
6.722633999999999
 30
0.0
 11
42.1498846201077
 21
6.722664000000002
 31
0.0
  0
ARC
  5
7D
330
1F
100
AcDbEntity
  8
~BASE~
100
AcDbCircle
 10
45.01029762010774
 20
1.857850999999963
 30
0.0
 40
0.499999366483007
100
AcDbArc
 50
298.2159964039491
 51
355.0000959861734
  0
ARC
  5
7E
330
1F
100
AcDbEntity
  8
SYNCHRO
100
AcDbCircle
 10
58.37440662010376
 20
16.48046799999824
 30
0.0
 40
14.96063069588558
100
AcDbArc
 50
199.0272536426716
 51
207.1273085515975
  0
LINE
  5
7F
330
1F
100
AcDbEntity
  8
SYNCHRO
100
AcDbLine
 10
40.14263662010769
 20
15.308268
 30
0.0
 11
40.14263662010769
 21
15.376316
 31
0.0
  0
LINE
  5
80
330
1F
100
AcDbEntity
  8
~BASE~
100
AcDbLine
 10
54.0035376201077
 20
2.716536236396425
 30
0.0
 11
54.01910338461103
 21
2.699549020605581
 31
0.0
  0
ARC
  5
81
330
1F
100
AcDbEntity
  8
~BASE~
100
AcDbCircle
 10
40.20012853132008
 20
3.461776946753756
 30
0.0
 40
3.262335394286445
100
AcDbArc
 50
91.69226266792529
 51
111.5161964982192
  0
ARC
  5
82
330
1F
100
AcDbEntity
  8
~BASE~
100
AcDbCircle
 10
-121.5874583936035
 20
460.6569443458422
 30
0.0
 40
481.7166759576346
100
AcDbArc
 50
288.4459068809826
 51
289.4735991548083
  0
LINE
  5
83
330
1F
100
AcDbEntity
  8
SYNCHRO
100
AcDbLine
 10
46.20727762010771
 20
14.192926
 30
0.0
 11
46.0068446201077
 21
14.743609
 31
0.0
  0
LINE
  5
84
330
1F
100
AcDbEntity
  8
~BASE~
100
AcDbLine
 10
45.5702806201077
 20
2.716536236396425
 30
0.0
 11
45.58584638461103
 21
2.699549020605581
 31
0.0
  0
LINE
  5
85
330
1F
100
AcDbEntity
  8
~BASE~
100
AcDbLine
 10
31.46762662010769
 20
2.766535999999999
 30
0.0
 11
31.46762662010769
 21
2.716536000000001
 31
0.0
  0
LINE
  5
86
330
1F
100
AcDbEntity
  8
~BASE~
100
AcDbLine
 10
30.56556962010769
 20
2.699549000000001
 30
0.0
 11
30.5800566201077
 21
2.533956
 31
0.0
  0
LINE
  5
87
330
1F
100
AcDbEntity
  8
~BASE~
100
AcDbLine
 10
41.57249562010769
 20
4.166142000000001
 30
0.0
 11
42.2606456201077
 21
4.166142000000001
 31
0.0
  0
ARC
  5
88
330
1F
100
AcDbEntity
  8
SYNCHRO
100
AcDbCircle
 10
45.17994341368773
 20
13.36023864261201
 30
0.0
 40
0.4756674263716285
100
AcDbArc
 50
193.6560388564143
 51
346.313281180147
  0
LINE
  5
89
330
1F
100
AcDbEntity
  8
~BASE~
100
AcDbLine
 10
40.44614765221771
 20
5.962692806229999
 30
0.0
 11
39.9383339689577
 21
5.88586085499
 31
0.0
  0
LINE
  5
8A
330
1F
100
AcDbEntity
  8
~BASE~
100
AcDbLine
 10
40.5717261731577
 20
5.956638239589999
 30
0.0
 11
40.44614765221771
 21
5.962692806229999
 31
0.0
  0
LINE
  5
8B
330
1F
100
AcDbEntity
  8
~BASE~
100
AcDbLine
 10
40.81426501851769
 20
5.88586085499
 30
0.0
 11
40.5717261731577
 21
5.956638239589999
 31
0.0
  0
LINE
  5
8C
330
1F
100
AcDbEntity
  8
~BASE~
100
AcDbLine
 10
44.2108656201077
 20
2.699549000000001
 30
0.0
 11
44.2253536201077
 21
2.533956
 31
0.0
  0
LINE
  5
8D
330
1F
100
AcDbEntity
  8
~BASE~
100
AcDbLine
 10
44.1644124248477
 20
3.294561197579998
 30
0.0
 11
40.81431059614768
 21
5.885826964909999
 31
0.0
  0
LINE
  5
8E
330
1F
100
AcDbEntity
  8
~BASE~
100
AcDbLine
 10
52.65968862010769
 20
2.716536000000001
 30
0.0
 11
54.0035376201077
 21
2.716536000000001
 31
0.0
  0
CIRCLE
  5
8F
330
1F
100
AcDbEntity
  8
SYNCHRO
100
AcDbCircle
 10
47.42610162010769
 20
14.383071
 30
0.0
 40
0.4724410000000017
  0
LINE
  5
90
330
1F
100
AcDbEntity
  8
SYNCHRO
100
AcDbLine
 10
45.48412936086985
 20
13.24772109573137
 30
0.0
 11
45.43919884114096
 21
13.1652338341294
 31
0.0
  0
CIRCLE
  5
91
330
1F
100
AcDbEntity
  8
~BASE~
100
AcDbCircle
 10
43.97315962010771
 20
1.279528000000005
 30
0.0
 40
1.154526999999996
  0
LINE
  5
92
330
1F
100
AcDbEntity
  8
SYNCHRO
100
AcDbLine
 10
45.80062855379672
 20
14.76359097298123
 30
0.0
 11
45.84959669163533
 21
14.47889199668944
 31
0.0
  0
LINE
  5
93
330
1F
100
AcDbEntity
  8
SYNCHRO
100
AcDbLine
 10
44.87437627686454
 20
13.47289012675215
 30
0.0
 11
44.91930691276599
 21
13.55537778037963
 31
0.0
  0
LINE
  5
94
330
1F
100
AcDbEntity
  8
SYNCHRO
100
AcDbLine
 10
45.43930656954089
 20
13.55523396209676
 30
0.0
 11
45.4841916794023
 21
13.47272102185881
 31
0.0
  0
ARC
  5
95
330
1F
100
AcDbEntity
  8
SYNCHRO
100
AcDbCircle
 10
41.55208562010771
 20
15.190158
 30
0.0
 40
0.6889765647687133
100
AcDbArc
 50
216.9808008483569
 51
317.7192122154563
  0
LINE
  5
96
330
1F
100
AcDbEntity
  8
~BASE~
100
AcDbLine
 10
30.56556935940353
 20
2.699548977187338
 30
0.0
 11
30.5811346201077
 21
2.71653573829962
 31
0.0
  0
LINE
  5
97
330
1F
100
AcDbEntity
  8
SYNCHRO
100
AcDbLine
 10
44.7177596201077
 20
13.247946
 30
0.0
 11
47.50424262010771
 21
13.247173
 31
0.0
  0
LINE
  5
98
330
1F
100
AcDbEntity
  8
~BASE~
100
AcDbLine
 10
31.9249836201077
 20
2.716536236396425
 30
0.0
 11
31.94054938461102
 21
2.699549020605581
 31
0.0
  0
LINE
  5
99
330
1F
100
AcDbEntity
  8
SYNCHRO
100
AcDbLine
 10
45.0595116201077
 20
9.658881999999998
 30
0.0
 11
46.95036462010771
 21
10.273257
 31
0.0
  0
SPLINE
  5
9A
330
1F
100
AcDbEntity
  8
~BASE~
100
AcDbSpline
210
0.0
220
0.0
230
1.0
 70
     8
 71
     3
 72
    14
 73
    10
 74
     0
 42
0.0000000001
 43
0.0000000001
 40
0.0
 40
0.0
 40
0.0
 40
0.0
 40
1.0
 40
2.0
 40
3.0
 40
4.0
 40
5.0
 40
6.0
 40
7.0
 40
7.0
 40
7.0
 40
7.0
 10
40.04640386558771
 20
4.18936889786
 30
0.0
 10
40.07959032031387
 20
4.242283194549813
 30
0.0
 10
40.03760074460448
 20
4.365288974457712
 30
0.0
 10
39.89596204818969
 20
4.469306199484574
 30
0.0
 10
39.74262947854555
 20
4.552411738224155
 30
0.0
 10
39.5819516628803
 20
4.620638521907757
 30
0.0
 10
39.4160341471048
 20
4.674663767373929
 30
0.0
 10
39.24600858001445
 20
4.714068733085163
 30
0.0
 10
39.13051706862996
 20
4.728709774857553
 30
0.0
 10
39.07248267547769
 20
4.73198823221
 30
0.0
  0
ARC
  5
9B
330
1F
100
AcDbEntity
  8
~BASE~
100
AcDbCircle
 10
53.4435546201077
 20
1.857850999999997
 30
0.0
 40
0.499999602881837
100
AcDbArc
 50
298.2160973788384
 51
355.0000959861696
  0
LINE
  5
9C
330
1F
100
AcDbEntity
  8
SYNCHRO
100
AcDbLine
 10
44.7178216201077
 20
13.472946
 30
0.0
 11
44.86929062010771
 21
13.472934
 31
0.0
  0
LINE
  5
9D
330
1F
100
AcDbEntity
  8
~BASE~
100
AcDbLine
 10
41.87836462010771
 20
4.717334000000001
 30
0.0
 11
44.1613846201077
 21
3.289719000000002
 31
0.0
  0
CIRCLE
  5
9E
330
1F
100
AcDbEntity
  8
~BASE~
100
AcDbCircle
 10
43.97315962010771
 20
1.279528000000005
 30
0.0
 40
1.062499999999994
  0
LINE
  5
9F
330
1F
100
AcDbEntity
  8
SYNCHRO
100
AcDbLine
 10
40.97207561511884
 20
14.79135089219686
 30
0.0
 11
41.0017057063167
 21
14.77570606491853
 31
0.0
  0
CIRCLE
  5
A0
330
1F
100
AcDbEntity
  8
SYNCHRO
100
AcDbCircle
 10
41.55208562010772
 20
15.190158
 30
0.0
 40
0.1968500000000031
  0
ARC
  5
A1
330
1F
100
AcDbEntity
  8
SYNCHRO
100
AcDbCircle
 10
45.17994341368773
 20
13.36023864261201
 30
0.0
 40
0.4756674263716318
100
AcDbArc
 50
13.6771848940861
 51
193.6560388564147
  0
ARC
  5
A2
330
1F
100
AcDbEntity
  8
~BASE~
100
AcDbCircle
 10
31.36500062010774
 20
1.85785099999997
 30
0.0
 40
0.4999996028817993
100
AcDbArc
 50
298.216097378838
 51
355.0000959861724
  0
LINE
  5
A3
330
1F
100
AcDbEntity
  8
~BASE~
100
AcDbLine
 10
30.5640816201077
 20
3.330112
 30
0.0
 11
30.5660306201077
 21
3.357724999999999
 31
0.0
  0
LINE
  5
A4
330
1F
100
AcDbEntity
  8
SYNCHRO
100
AcDbLine
 10
45.14954858545102
 20
9.595592730801082
 30
0.0
 11
45.05951186167163
 21
9.6588821237579
 31
0.0
  0
CIRCLE
  5
A5
330
1F
100
AcDbEntity
  8
~BASE~
100
AcDbCircle
 10
52.4064166201077
 20
1.279528
 30
0.0
 40
1.154527000000001
  0
LINE
  5
A6
330
1F
100
AcDbEntity
  8
SYNCHRO
100
AcDbLine
 10
42.4965506201077
 20
11.205008
 30
0.0
 11
46.6724776201077
 21
12.561849
 31
0.0
  0
LINE
  5
A7
330
1F
100
AcDbEntity
  8
SYNCHRO
100
AcDbLine
 10
45.61241962010769
 20
13.555177
 30
0.0
 11
44.74616362010769
 21
13.555417
 31
0.0
  0
LINE
  5
A8
330
1F
100
AcDbEntity
  8
SYNCHRO
100
AcDbLine
 10
48.3559316201077
 20
13.659129
 30
0.0
 11
47.50429762010771
 21
13.447124
 31
0.0
  0
LINE
  5
A9
330
1F
100
AcDbEntity
  8
SYNCHRO
100
AcDbLine
 10
43.1081886201077
 20
11.403741
 30
0.0
 11
42.22925062010771
 21
10.524804
 31
0.0
  0
LINE
  5
AA
330
1F
100
AcDbEntity
  8
~BASE~
100
AcDbLine
 10
40.8101356201077
 20
6.722218000000002
 30
0.0
 11
41.95450662010771
 21
6.722664000000002
 31
0.0
  0
LINE
  5
AB
330
1F
100
AcDbEntity
  8
~BASE~
100
AcDbLine
 10
44.22643162010771
 20
2.716536000000001
 30
0.0
 11
45.5702806201077
 21
2.716536000000001
 31
0.0
  0
CIRCLE
  5
AC
330
1F
100
AcDbEntity
  8
~BASE~
100
AcDbCircle
 10
30.32786262010769
 20
1.279527999999998
 30
0.0
 40
1.062500000000001
  0
LINE
  5
AD
330
1F
100
AcDbEntity
  8
SYNCHRO
100
AcDbLine
 10
47.50430462010771
 20
13.472173
 30
0.0
 11
44.86929062010771
 21
13.472934
 31
0.0
  0
LINE
  5
AE
330
1F
100
AcDbEntity
  8
SYNCHRO
100
AcDbLine
 10
41.0608566201077
 20
15.219854
 30
0.0
 11
40.14263662010769
 21
15.308268
 31
0.0
  0
LINE
  5
AF
330
1F
100
AcDbEntity
  8
SYNCHRO
100
AcDbLine
 10
46.0068446201077
 20
14.743609
 30
0.0
 11
42.0399556201077
 21
15.125577
 31
0.0
  0
LINE
  5
B0
330
1F
100
AcDbEntity
  8
~BASE~
100
AcDbLine
 10
44.2124126201077
 20
3.206648999999999
 30
0.0
 11
44.1970516201077
 21
2.766535999999999
 31
0.0
  0
LINE
  5
B1
330
1F
100
AcDbEntity
  8
~BASE~
100
AcDbLine
 10
31.8477236201077
 20
3.294561000000002
 30
0.0
 11
39.9382239256377
 21
5.885826964909999
 31
0.0
  0
LINE
  5
B2
330
1F
100
AcDbEntity
  8
SYNCHRO
100
AcDbLine
 10
39.3710716201077
 20
11.781159
 30
0.0
 11
46.16739362010771
 21
14.302506
 31
0.0
  0
LINE
  5
B3
330
1F
100
AcDbEntity
  8
~BASE~
100
AcDbLine
 10
52.64412362010771
 20
2.699549000000001
 30
0.0
 11
52.65861062010769
 21
2.533956
 31
0.0
  0
LINE
  5
B4
330
1F
100
AcDbEntity
  8
~BASE~
100
AcDbLine
 10
32.0497115419027
 20
3.064590183044999
 30
0.0
 11
38.96928762010771
 21
4.717334000000001
 31
0.0
  0
CIRCLE
  5
B5
330
1F
100
AcDbEntity
  8
~BASE~
100
AcDbCircle
 10
43.97315962010771
 20
1.279528000000005
 30
0.0
 40
1.279526999999996
  0
LINE
  5
B6
330
1F
100
AcDbEntity
  8
~BASE~
100
AcDbLine
 10
40.1073276201077
 20
6.722296
 30
0.0
 11
40.21533762010771
 21
6.722588999999999
 31
0.0
  0
LINE
  5
B7
330
1F
100
AcDbEntity
  8
~BASE~
100
AcDbLine
 10
31.9340786586577
 20
3.020493079800001
 30
0.0
 11
32.0497115419027
 21
3.064590183044999
 31
0.0
  0
LINE
  5
B8
330
1F
100
AcDbEntity
  8
SYNCHRO
100
AcDbLine
 10
47.50424262010771
 20
13.247173
 30
0.0
 11
47.50430462010771
 21
13.472173
 31
0.0
  0
LINE
  5
B9
330
1F
100
AcDbEntity
  8
SYNCHRO
100
AcDbLine
 10
46.1991736201077
 20
14.006857
 30
0.0
 11
46.1751786201077
 21
14.281115
 31
0.0
  0
LINE
  5
BA
330
1F
100
AcDbEntity
  8
~BASE~
100
AcDbLine
 10
45.6070176201077
 20
2.766535999999999
 30
0.0
 11
45.58688262010769
 21
3.343129000000001
 31
0.0
  0
LINE
  5
BB
330
1F
100
AcDbEntity
  8
~BASE~
100
AcDbLine
 10
40.81025862010771
 20
6.722664999999999
 30
0.0
 11
40.8102036201077
 21
6.722664000000002
 31
0.0
  0
LINE
  5
BC
330
1F
100
AcDbEntity
  8
~BASE~
100
AcDbLine
 10
30.54439762010769
 20
2.766535999999999
 30
0.0
 11
30.56406962010769
 21
3.329861000000001
 31
0.0
  0
ARC
  5
BD
330
1F
100
AcDbEntity
  8
SYNCHRO
100
AcDbCircle
 10
46.5913756201077
 20
14.04117
 30
0.0
 40
0.3937003221169116
100
AcDbArc
 50
184.9999668273256
 51
256.0211134260711
  0
LINE
  5
BE
330
1F
100
AcDbEntity
  8
~BASE~
100
AcDbLine
 10
30.5811346201077
 20
2.716536000000001
 30
0.0
 11
31.9249836201077
 21
2.716536000000001
 31
0.0
  0
LINE
  5
BF
330
1F
100
AcDbEntity
  8
~BASE~
100
AcDbLine
 10
42.10857262010771
 20
9.516962
 30
0.0
 11
40.14520562010771
 21
9.516962
 31
0.0
  0
LINE
  5
C0
330
1F
100
AcDbEntity
  8
~BASE~
100
AcDbLine
 10
45.60699762010771
 20
2.766535999999999
 30
0.0
 11
44.1970916201077
 21
2.766535999999999
 31
0.0
  0
CIRCLE
  5
C1
330
1F
100
AcDbEntity
  8
SYNCHRO
100
AcDbCircle
 10
45.4563176201077
 20
14.497095
 30
0.0
 40
0.1968499999999977
  0
CIRCLE
  5
C2
330
1F
100
AcDbEntity
  8
~BASE~
100
AcDbCircle
 10
52.4064166201077
 20
1.279528
 30
0.0
 40
1.279527000000001
  0
LINE
  5
C3
330
1F
100
AcDbEntity
  8
SYNCHRO
100
AcDbLine
 10
46.86934062010769
 20
13.246756
 30
0.0
 11
39.6487036201077
 21
10.900627
 31
0.0
  0
LINE
  5
C4
330
1F
100
AcDbEntity
  8
SYNCHRO
100
AcDbLine
 10
46.4777616201077
 20
12.332997
 30
0.0
 11
44.2311706201077
 21
11.603035
 31
0.0
  0
LINE
  5
C5
330
1F
100
AcDbEntity
  8
SYNCHRO
100
AcDbLine
 10
45.61231162010771
 20
13.165177
 30
0.0
 11
44.7460556201077
 21
13.165417
 31
0.0
  0
LINE
  5
C6
330
1F
100
AcDbEntity
  8
~BASE~
100
AcDbLine
 10
41.95485562010771
 20
6.722217000000001
 30
0.0
 11
42.14742362010769
 21
6.722633999999999
 31
0.0
  0
ARC
  5
C7
330
1F
100
AcDbEntity
  8
~BASE~
100
AcDbCircle
 10
53.62694767394814
 20
3.318243217569859
 30
0.0
 40
0.3938210204865732
100
AcDbArc
 50
2.000881852295151
 51
74.7978910129025
  0
LINE
  5
C8
330
1F
100
AcDbEntity
  8
SYNCHRO
100
AcDbLine
 10
44.8807706201077
 20
14.61044
 30
0.0
 11
42.0927776201077
 21
14.73948
 31
0.0
  0
LINE
  5
C9
330
1F
100
AcDbEntity
  8
~BASE~
100
AcDbLine
 10
40.8103256201077
 20
6.722666
 30
0.0
 11
40.21533762010771
 21
6.722588999999999
 31
0.0
  0
LINE
  5
CA
330
1F
100
AcDbEntity
  8
~BASE~
100
AcDbLine
 10
44.2317186201077
 20
2.766535999999999
 30
0.0
 11
44.1644126201077
 21
3.294561000000002
 31
0.0
  0
ARC
  5
CB
330
1F
100
AcDbEntity
  8
~BASE~
100
AcDbCircle
 10
32.08964564968529
 20
2.903831954892201
 30
0.0
 40
0.459560229303606
100
AcDbArc
 50
121.7639336087278
 51
197.3828459234651
  0
LINE
  5
CC
330
1F
100
AcDbEntity
  8
~BASE~
100
AcDbLine
 10
45.58690362010771
 20
3.34252
 30
0.0
 11
45.5869046201077
 21
3.342473000000002
 31
0.0
  0
LINE
  5
CD
330
1F
100
AcDbEntity
  8
SYNCHRO
100
AcDbLine
 10
40.02452662010771
 20
10.524804
 30
0.0
 11
42.22925062010771
 21
10.524804
 31
0.0
  0
LINE
  5
CE
330
1F
100
AcDbEntity
  8
SYNCHRO
100
AcDbLine
 10
36.17737262010771
 20
15.01327
 30
0.0
 11
36.1810986201077
 21
15.093787
 31
0.0
  0
LINE
  5
CF
330
1F
100
AcDbEntity
  8
~BASE~
100
AcDbLine
 10
53.54618062010771
 20
2.766535999999999
 30
0.0
 11
53.54618062010771
 21
2.716536000000001
 31
0.0
  0
ARC
  5
D0
330
1F
100
AcDbEntity
  8
SYNCHRO
100
AcDbCircle
 10
47.42610162010769
 20
15.190158
 30
0.0
 40
1.574802719327088
100
AcDbArc
 50
219.2897550071298
 51
320.7102449928701
  0
SPLINE
  5
D1
330
1F
100
AcDbEntity
  8
~BASE~
100
AcDbSpline
210
0.0
220
0.0
230
1.0
 70
     8
 71
     3
 72
    14
 73
    10
 74
     0
 42
0.0000000001
 43
0.0000000001
 40
0.0
 40
0.0
 40
0.0
 40
0.0
 40
1.0
 40
2.0
 40
3.0
 40
4.0
 40
5.0
 40
6.0
 40
7.0
 40
7.0
 40
7.0
 40
7.0
 10
41.8783650414577
 20
4.717333752270001
 30
0.0
 10
41.83781069257532
 20
4.742215495755776
 30
0.0
 10
41.74097546777499
 20
4.728823684303347
 30
0.0
 10
41.62815638529857
 20
4.650039932725033
 30
0.0
 10
41.5315554549467
 20
4.551484842220521
 30
0.0
 10
41.46599432704589
 20
4.429827139036767
 30
0.0
 10
41.36721411166323
 20
4.333599694328043
 30
0.0
 10
41.25620149180624
 20
4.253186100607106
 30
0.0
 10
41.17614107526416
 20
4.208969549646124
 30
0.0
 10
41.1349300889477
 20
4.18936889786
 30
0.0
  0
CIRCLE
  5
D2
330
1F
100
AcDbEntity
  8
~BASE~
100
AcDbCircle
 10
30.32786262010769
 20
1.279527999999998
 30
0.0
 40
1.154527000000003
  0
LINE
  5
D3
330
1F
100
AcDbEntity
  8
~BASE~
100
AcDbLine
 10
53.1033701762767
 20
3.294561197579998
 30
0.0
 11
43.04407138390768
 21
5.951599063980002
 31
0.0
  0
ARC
  5
D4
330
1F
100
AcDbEntity
  8
~BASE~
100
AcDbCircle
 10
41.94706557258579
 20
4.423758994768047
 30
0.0
 40
0.2823036216081345
100
AcDbArc
 50
99.51517458890979
 51
236.1204695289045
  0
LINE
  5
D5
330
1F
100
AcDbEntity
  8
~BASE~
100
AcDbLine
 10
45.5858466201077
 20
2.699549000000001
 30
0.0
 11
45.50839462010769
 21
1.814274000000001
 31
0.0
  0
LINE
  5
D6
330
1F
100
AcDbEntity
  8
~BASE~
100
AcDbLine
 10
41.38219062010771
 20
4.166142000000001
 30
0.0
 11
41.57249562010769
 21
4.166142000000001
 31
0.0
  0
LINE
  5
D7
330
1F
100
AcDbEntity
  8
~BASE~
100
AcDbLine
 10
31.03849262010771
 20
2.766535999999999
 30
0.0
 11
31.03849262010771
 21
2.716536000000001
 31
0.0
  0
LINE
  5
D8
330
1F
100
AcDbEntity
  8
~BASE~
100
AcDbLine
 10
40.2685466201077
 20
4.166142000000001
 30
0.0
 11
41.38219062010771
 21
4.166142000000001
 31
0.0
  0
LINE
  5
D9
330
1F
100
AcDbEntity
  8
~BASE~
100
AcDbLine
 10
40.21533762010771
 20
6.722588999999999
 30
0.0
 11
40.8102036201077
 21
6.722664000000002
 31
0.0
  0
LINE
  5
DA
330
1F
100
AcDbEntity
  8
~BASE~
100
AcDbLine
 10
42.2606456201077
 20
4.166142000000001
 30
0.0
 11
42.26503762010771
 21
4.166142000000001
 31
0.0
  0
SPLINE
  5
DB
330
1F
100
AcDbEntity
  8
~BASE~
100
AcDbSpline
210
0.0
220
0.0
230
1.0
 70
     8
 71
     3
 72
    20
 73
    16
 74
     0
 42
0.0000000001
 43
0.0000000001
 40
0.0
 40
0.0
 40
0.0
 40
0.0
 40
1.0
 40
2.0
 40
3.0
 40
4.0
 40
5.0
 40
6.0
 40
7.0
 40
8.0
 40
9.0
 40
10.0
 40
11.0
 40
12.0
 40
13.0
 40
13.0
 40
13.0
 40
13.0
 10
53.73021762010769
 20
3.698283
 30
0.0
 10
53.43387049628794
 20
3.778829060580065
 30
0.0
 10
52.84116773845233
 20
3.939890325405361
 30
0.0
 10
51.95211471042355
 20
4.181487676130232
 30
0.0
 10
51.06306143841299
 20
4.423081778411127
 30
0.0
 10
50.17400965865811
 20
4.664682979380654
 30
0.0
 10
49.28495115573641
 20
4.906259305275416
 30
0.0
 10
48.39591837109122
 20
5.147927946402444
 30
0.0
 10
47.50688298287202
 20
5.389595657319855
 30
0.0
 10
46.61784264943208
 20
5.631216415829872
 30
0.0
 10
45.72882546975099
 20
5.873025705065363
 30
0.0
 10
44.83964541687845
 20
6.113850729153576
 30
0.0
 10
43.95080629439113
 20
6.357371358128148
 30
0.0
 10
43.06060157915137
 20
6.590480270515528
 30
0.0
 10
42.45864300207478
 20
6.726288777104692
 30
0.0
 10
42.1498847556077
 20
6.72269044834
 30
0.0
  0
LINE
  5
DC
330
1F
100
AcDbEntity
  8
~BASE~
100
AcDbLine
 10
39.98289762010771
 20
4.398973000000002
 30
0.0
 11
39.98874162010771
 21
4.166142000000001
 31
0.0
  0
LINE
  5
DD
330
1F
100
AcDbEntity
  8
SYNCHRO
100
AcDbLine
 10
44.91919853228828
 20
13.16537793417342
 30
0.0
 11
44.87431372308459
 21
13.24789003796251
 31
0.0
  0
ARC
  5
DE
330
1F
100
AcDbEntity
  8
SYNCHRO
100
AcDbCircle
 10
41.55208562010771
 20
15.19015799999999
 30
0.0
 40
0.4921258097875004
100
AcDbArc
 50
176.5405394526423
 51
352.459404069792
  0
LINE
  5
DF
330
1F
100
AcDbEntity
  8
~BASE~
100
AcDbLine
 10
44.68378962010771
 20
2.766535999999999
 30
0.0
 11
44.68378962010771
 21
2.716536000000001
 31
0.0
  0
LINE
  5
E0
330
1F
100
AcDbEntity
  8
~BASE~
100
AcDbLine
 10
42.42850762010769
 20
4.373318999999999
 30
0.0
 11
42.26503762010771
 21
4.166142000000001
 31
0.0
  0
ARC
  5
E1
330
1F
100
AcDbEntity
  8
~BASE~
100
AcDbCircle
 10
39.04317700169152
 20
2.581290506715263
 30
0.0
 40
2.137320846683592
100
AcDbArc
 50
48.7977497354438
 51
91.9811713947307
  0
LINE
  5
E2
330
1F
100
AcDbEntity
  8
~BASE~
100
AcDbLine
 10
53.35425062010771
 20
2.766535999999999
 30
0.0
 11
53.35392862010769
 21
2.951519000000001
 31
0.0
  0
LINE
  5
E3
330
1F
100
AcDbEntity
  8
SYNCHRO
100
AcDbLine
 10
47.8800276201077
 20
13.217547
 30
0.0
 11
46.6724776201077
 21
12.561849
 31
0.0
  0
LINE
  5
E4
330
1F
100
AcDbEntity
  8
SYNCHRO
100
AcDbLine
 10
47.24684162010769
 20
13.472283
 30
0.0
 11
46.49627162010771
 21
13.659129
 31
0.0
  0
LINE
  5
E5
330
1F
100
AcDbEntity
  8
~BASE~
100
AcDbLine
 10
31.94054962010771
 20
2.699549000000001
 30
0.0
 11
31.86309762010769
 21
1.814274000000001
 31
0.0
  0
LINE
  5
E6
330
1F
100
AcDbEntity
  8
~BASE~
100
AcDbLine
 10
40.1036806201077
 20
6.722218000000002
 30
0.0
 11
40.1073276201077
 21
6.722296
 31
0.0
  0
LINE
  5
E7
330
1F
100
AcDbEntity
  8
~BASE~
100
AcDbLine
 10
42.07780662010771
 20
6.722722999999998
 30
0.0
 11
42.1271796201077
 21
6.722719000000001
 31
0.0
  0
LINE
  5
E8
330
1F
100
AcDbEntity
  8
SYNCHRO
100
AcDbLine
 10
40.9720756201077
 20
14.791351
 30
0.0
 11
36.17737262010771
 21
15.01327
 31
0.0
  0
SPLINE
  5
E9
330
1F
100
AcDbEntity
  8
~BASE~
100
AcDbSpline
210
0.0
220
0.0
230
1.0
 70
     8
 71
     3
 72
    20
 73
    16
 74
     0
 42
0.0000000001
 43
0.0000000001
 40
0.0
 40
0.0
 40
0.0
 40
0.0
 40
1.0
 40
2.0
 40
3.0
 40
4.0
 40
5.0
 40
6.0
 40
7.0
 40
8.0
 40
9.0
 40
10.0
 40
11.0
 40
12.0
 40
13.0
 40
13.0
 40
13.0
 40
13.0
 10
42.4662190061777
 20
6.436770703899999
 30
0.0
 10
42.5751582558884
 20
6.425652169010025
 30
0.0
 10
42.74446261892949
 20
6.287160519388188
 30
0.0
 10
42.94596415564108
 20
6.043643250328643
 30
0.0
 10
43.17392482858079
 20
5.821417532002691
 30
0.0
 10
43.40074819851705
 20
5.599409447653986
 30
0.0
 10
43.63148320423574
 20
5.381084567950001
 30
0.0
 10
43.86099933184414
 20
5.161593169052185
 30
0.0
 10
44.08989135713566
 20
4.941421084993536
 30
0.0
 10
44.31776271653854
 20
4.720200621431704
 30
0.0
 10
44.54535849436702
 20
4.498695504518771
 30
0.0
 10
44.77336518244099
 20
4.27761384330908
 30
0.0
 10
45.00219735492769
 20
4.057383693544679
 30
0.0
 10
45.23226841697762
 20
3.83845429597925
 30
0.0
 10
45.38525674120024
 20
3.692077722353009
 30
0.0
 10
45.4633906201077
 20
3.620639000000001
 30
0.0
  0
ARC
  5
EA
330
1F
100
AcDbEntity
  8
SYNCHRO
100
AcDbCircle
 10
45.42644862010771
 20
11.74647699999997
 30
0.0
 40
2.168634612079307
100
AcDbArc
 50
262.6642181148979
 51
313.3357871462979
  0
LINE
  5
EB
330
1F
100
AcDbEntity
  8
SYNCHRO
100
AcDbLine
 10
39.6487036201077
 20
10.900627
 30
0.0
 11
40.02452662010771
 21
10.524804
 31
0.0
  0
LINE
  5
EC
330
1F
100
AcDbEntity
  8
~BASE~
100
AcDbLine
 10
31.92375862010769
 20
3.319126000000001
 30
0.0
 11
31.9430446201077
 21
2.766535999999999
 31
0.0
  0
ARC
  5
ED
330
1F
100
AcDbEntity
  8
~BASE~
100
AcDbCircle
 10
30.95725380938116
 20
3.316569908370236
 30
0.0
 40
0.3933819078101489
100
AcDbArc
 50
108.5464320006026
 51
173.9948030946293
  0
LINE
  5
EE
330
1F
100
AcDbEntity
  8
~BASE~
100
AcDbLine
 10
45.4633906201077
 20
3.620639000000001
 30
0.0
 11
45.58689162010771
 21
3.342238999999999
 31
0.0
  0
LINE
  5
EF
330
1F
100
AcDbEntity
  8
~BASE~
100
AcDbLine
 10
44.21086585560437
 20
2.699549020605581
 30
0.0
 11
44.22643162010771
 21
2.716536236396425
 31
0.0
  0
LINE
  5
F0
330
1F
100
AcDbEntity
  8
~BASE~
100
AcDbLine
 10
54.0402746201077
 20
2.766535999999999
 30
0.0
 11
54.0205286201077
 21
3.331993000000001
 31
0.0
  0
LINE
  5
F1
330
1F
100
AcDbEntity
  8
~BASE~
100
AcDbLine
 10
40.21533762010771
 20
6.722588999999999
 30
0.0
 11
40.1038616201077
 21
6.722218999999999
 31
0.0
  0
LINE
  5
F2
330
1F
100
AcDbEntity
  8
SYNCHRO
100
AcDbLine
 10
39.6487026201077
 20
10.900628
 30
0.0
 11
39.3710716201077
 21
11.781159
 31
0.0
  0
LINE
  5
F3
330
1F
100
AcDbEntity
  8
SYNCHRO
100
AcDbLine
 10
48.67702362010771
 20
14.281115
 30
0.0
 11
48.6530296201077
 21
14.006857
 31
0.0
  0
LINE
  5
F4
330
1F
100
AcDbEntity
  8
SYNCHRO
100
AcDbLine
 10
49.0785356201077
 20
15.384259
 30
0.0
 11
48.6449256201077
 21
14.192926
 31
0.0
  0
CIRCLE
  5
F5
330
1F
100
AcDbEntity
  8
~BASE~
100
AcDbCircle
 10
52.40641662010771
 20
1.279528000000005
 30
0.0
 40
1.062499999999994
  0
LINE
  5
F6
330
1F
100
AcDbEntity
  8
~BASE~
100
AcDbLine
 10
45.1129226201077
 20
2.766535999999999
 30
0.0
 11
45.1129226201077
 21
2.716536000000001
 31
0.0
  0
LINE
  5
F7
330
1F
100
AcDbEntity
  8
~BASE~
100
AcDbLine
 10
31.9430376201077
 20
2.766535999999999
 30
0.0
 11
30.5444116201077
 21
2.766535999999999
 31
0.0
  0
ARC
  5
F8
330
1F
100
AcDbEntity
  8
SYNCHRO
100
AcDbCircle
 10
44.87166962010771
 20
14.41380000000001
 30
0.0
 40
0.1968507006780883
100
AcDbArc
 50
8.10836863019204
 51
87.35009642109458
  0
LINE
  5
F9
330
1F
100
AcDbEntity
  8
~BASE~
100
AcDbLine
 10
40.44367662010769
 20
5.962693000000002
 30
0.0
 11
40.4486626201077
 21
5.962693000000002
 31
0.0
  0
LINE
  5
FA
330
1F
100
AcDbEntity
  8
~BASE~
100
AcDbLine
 10
40.4486626201077
 20
5.962693000000002
 30
0.0
 11
40.44367662010769
 21
5.962693000000002
 31
0.0
  0
ARC
  5
FB
330
1F
100
AcDbEntity
  8
SYNCHRO
100
AcDbCircle
 10
32.16876062010968
 20
7.965737000000454
 30
0.0
 40
14.96063058311207
100
AcDbArc
 50
8.872691761932908
 51
16.97274924238777
  0
ARC
  5
FC
330
1F
100
AcDbEntity
  8
~BASE~
100
AcDbCircle
 10
52.99996921064675
 20
2.956011868169874
 30
0.0
 40
0.3539878643926198
100
AcDbArc
 50
359.2727799687484
 51
73.01609020520688
  0
LINE
  5
FD
330
1F
100
AcDbEntity
  8
SYNCHRO
100
AcDbLine
 10
42.06182960868671
 20
14.72663901038545
 30
0.0
 11
42.09277761939408
 21
14.73947998457965
 31
0.0
  0
LINE
  5
FE
330
1F
100
AcDbEntity
  8
~BASE~
100
AcDbLine
 10
39.98879762010771
 20
4.166142000000001
 30
0.0
 11
40.15091762010769
 21
4.166142000000001
 31
0.0
  0
LINE
  5
FF
330
1F
100
AcDbEntity
  8
~BASE~
100
AcDbLine
 10
40.15091762010769
 20
4.166142000000001
 30
0.0
 11
40.2685466201077
 21
4.166142000000001
 31
0.0
  0
LINE
  5
100
330
1F
100
AcDbEntity
  8
~BASE~
100
AcDbLine
 10
52.64965662010771
 20
2.872696999999999
 30
0.0
 11
52.6459506201077
 21
2.766535999999999
 31
0.0
  0
LINE
  5
101
330
1F
100
AcDbEntity
  8
~BASE~
100
AcDbLine
 10
54.0191036201077
 20
2.699549000000001
 30
0.0
 11
53.94165162010771
 21
1.814274000000001
 31
0.0
  0
LINE
  5
102
330
1F
100
AcDbEntity
  8
~BASE~
100
AcDbLine
 10
54.0402226201077
 20
2.766535999999999
 30
0.0
 11
52.6460076201077
 21
2.766535999999999
 31
0.0
  0
ARC
  5
103
330
1F
100
AcDbEntity
  8
~BASE~
100
AcDbCircle
 10
52.47980662010773
 20
2.879802000000032
 30
0.0
 40
0.169999146128414
100
AcDbArc
 50
358.0009764875039
 51
76.76274155546784
  0
LINE
  5
104
330
1F
100
AcDbEntity
  8
SYNCHRO
100
AcDbLine
 10
46.95036426591668
 20
10.27325694470593
 30
0.0
 11
46.91472386612502
 21
10.16913273926219
 31
0.0
  0
LINE
  5
105
330
1F
100
AcDbEntity
  8
~BASE~
100
AcDbLine
 10
41.9541856201077
 20
6.722664999999999
 30
0.0
 11
40.81019162010769
 21
6.722218999999999
 31
0.0
  0
LINE
  5
106
330
1F
100
AcDbEntity
  8
~BASE~
100
AcDbLine
 10
44.43328762010771
 20
4.607807999999999
 30
0.0
 11
52.5187696201077
 21
3.045418000000002
 31
0.0
  0
LINE
  5
107
330
1F
100
AcDbEntity
  8
~BASE~
100
AcDbLine
 10
12.01629618126313
 20
65.93132238374142
 30
0.0
 11
12.466643
 21
65.93132238374142
 31
0.0
  0
ARC
  5
108
330
1F
100
AcDbEntity
  8
~BASE~
100
AcDbCircle
 10
12.46664300000001
 20
65.80632238374142
 30
0.0
 40
0.125
100
AcDbArc
 50
0.0
 51
90.00000000000244
  0
LINE
  5
109
330
1F
100
AcDbEntity
  8
~BASE~
100
AcDbLine
 10
12.59164300000001
 20
65.80632238374142
 30
0.0
 11
12.591643
 21
63.49726738374142
 31
0.0
  0
ARC
  5
10A
330
1F
100
AcDbEntity
  8
~BASE~
100
AcDbCircle
 10
12.46664299999998
 20
63.49726738374144
 30
0.0
 40
0.1250000000000169
100
AcDbArc
 50
270.0000000000073
 51
359.999999999987
  0
LINE
  5
10B
330
1F
100
AcDbEntity
  8
~BASE~
100
AcDbLine
 10
12.466643
 20
63.37226738374143
 30
0.0
 11
12.220717
 21
63.37226738374142
 31
0.0
  0
ARC
  5
10C
330
1F
100
AcDbEntity
  8
~BASE~
100
AcDbCircle
 10
11.60738301080714
 20
63.72659831258403
 30
0.0
 40
0.7086614608792318
100
AcDbArc
 50
320.7096952696469
 51
44.92910025694077
  0
LINE
  5
10D
330
1F
100
AcDbEntity
  8
~BASE~
100
AcDbLine
 10
-12.01629618126313
 20
65.93132238374142
 30
0.0
 11
-12.466643
 21
65.93132238374142
 31
0.0
  0
ARC
  5
10E
330
1F
100
AcDbEntity
  8
~BASE~
100
AcDbCircle
 10
-12.46664300000001
 20
65.80632238374142
 30
0.0
 40
0.125
100
AcDbArc
 50
89.99999999999756
 51
180.0
  0
LINE
  5
10F
330
1F
100
AcDbEntity
  8
~BASE~
100
AcDbLine
 10
-12.59164300000001
 20
65.80632238374142
 30
0.0
 11
-12.591643
 21
63.49726738374142
 31
0.0
  0
ARC
  5
110
330
1F
100
AcDbEntity
  8
~BASE~
100
AcDbCircle
 10
-12.46664299999998
 20
63.49726738374144
 30
0.0
 40
0.1250000000000169
100
AcDbArc
 50
180.000000000013
 51
269.9999999999927
  0
LINE
  5
111
330
1F
100
AcDbEntity
  8
~BASE~
100
AcDbLine
 10
-12.466643
 20
63.37226738374143
 30
0.0
 11
-12.220717
 21
63.37226738374142
 31
0.0
  0
ARC
  5
112
330
1F
100
AcDbEntity
  8
~BASE~
100
AcDbCircle
 10
-11.60738301080714
 20
63.72659831258403
 30
0.0
 40
0.7086614608792318
100
AcDbArc
 50
135.0708997430593
 51
219.2903047303531
  0
SPLINE
  5
113
330
1F
100
AcDbEntity
  8
~BASE~
100
AcDbSpline
210
0.0
220
0.0
230
1.0
 70
     8
 71
     3
 72
     9
 73
     5
 74
     0
 42
0.0000000001
 43
0.0000000001
 40
0.0
 40
0.0
 40
0.0
 40
0.0
 40
1.0
 40
2.0
 40
2.0
 40
2.0
 40
2.0
 10
-10.40496777245303
 20
55.11192707312581
 30
0.0
 10
-6.954215307829351
 20
54.69138074045218
 30
0.0
 10
0.0000002178890197
 20
54.18944119088262
 30
0.0
 10
6.954214872046203
 20
54.69138071101925
 30
0.0
 10
10.40496777245048
 20
55.11192707312583
 30
0.0
  0
SPLINE
  5
114
330
1F
100
AcDbEntity
  8
SLOPED ARM
100
AcDbSpline
210
0.0
220
0.0
230
1.0
 70
     8
 71
     3
 72
    16
 73
    12
 74
     0
 42
0.0000000001
 43
0.0000000001
 40
-0.0820045385815826
 40
-0.0820045385815826
 40
-0.0820045385815826
 40
-0.0820045385815826
 40
0.7409712261243119
 40
1.275587265813972
 40
1.653953814523284
 40
1.926479544916712
 40
2.151020065360421
 40
2.399076369572801
 40
2.719088715948631
 40
3.137572126889471
 40
3.380768575759693
 40
3.380768575759693
 40
3.380768575759693
 40
3.380768575759693
 10
-11.38701286597039
 20
73.1247850237252
 30
0.0
 10
-11.37083526841312
 20
73.39854296161002
 30
0.0
 10
-11.34066681863868
 20
73.85031250462532
 30
0.0
 10
-11.27123090882024
 20
74.42490865729292
 30
0.0
 10
-11.18705524611707
 20
74.81200873649695
 30
0.0
 10
-11.07035141231967
 20
75.08164749238017
 30
0.0
 10
-10.89432934702535
 20
75.26592347207699
 30
0.0
 10
-10.63911612755637
 20
75.3535588527804
 30
0.0
 10
-10.30952379595612
 20
75.36665602671043
 30
0.0
 10
-9.983201418133412
 20
75.33368703018321
 30
0.0
 10
-9.765605074193873
 20
75.30029658425873
 30
0.0
 10
-9.718292268277171
 20
75.22709051676628
 30
0.0
  0
SPLINE
  5
115
330
1F
100
AcDbEntity
  8
SLOPED ARM
100
AcDbSpline
210
0.0
220
0.0
230
1.0
 70
     8
 71
     2
 72
     7
 73
     4
 74
     0
 42
0.0000000001
 43
0.0000000001
 40
-0.7908819802995883
 40
-0.7908819802995883
 40
-0.7908819802995883
 40
0.0
 40
1.38518862062698
 40
1.38518862062698
 40
1.38518862062698
 10
-9.718292268277171
 20
75.22709051676628
 30
0.0
 10
-9.69636287080804
 20
74.8360962202271
 30
0.0
 10
-9.743806236910249
 20
73.74909578687293
 30
0.0
 10
-9.774033962106412
 20
73.05716142334309
 30
0.0
  0
SPLINE
  5
116
330
1F
100
AcDbEntity
  8
SLOPED ARM
100
AcDbSpline
210
0.0
220
0.0
230
1.0
 70
     8
 71
     3
 72
    16
 73
    12
 74
     0
 42
0.0000000001
 43
0.0000000001
 40
-0.0820045385815826
 40
-0.0820045385815826
 40
-0.0820045385815826
 40
-0.0820045385815826
 40
0.7409712261243119
 40
1.275587265813972
 40
1.653953814523284
 40
1.926479544916712
 40
2.151020065360421
 40
2.399076369572801
 40
2.719088715948631
 40
3.137572126889471
 40
3.380768575759693
 40
3.380768575759693
 40
3.380768575759693
 40
3.380768575759693
 10
11.38701286596779
 20
73.1247850237252
 30
0.0
 10
11.37083526841052
 20
73.39854296161002
 30
0.0
 10
11.34066681863608
 20
73.85031250462532
 30
0.0
 10
11.27123090881764
 20
74.42490865729292
 30
0.0
 10
11.18705524611447
 20
74.81200873649695
 30
0.0
 10
11.07035141231707
 20
75.08164749238017
 30
0.0
 10
10.89432934702275
 20
75.26592347207699
 30
0.0
 10
10.63911612755377
 20
75.3535588527804
 30
0.0
 10
10.30952379595352
 20
75.36665602671043
 30
0.0
 10
9.983201418130811
 20
75.33368703018321
 30
0.0
 10
9.765605074191273
 20
75.30029658425873
 30
0.0
 10
9.71829226827457
 20
75.22709051676628
 30
0.0
  0
SPLINE
  5
117
330
1F
100
AcDbEntity
  8
SLOPED ARM
100
AcDbSpline
210
0.0
220
0.0
230
1.0
 70
     8
 71
     2
 72
     7
 73
     4
 74
     0
 42
0.0000000001
 43
0.0000000001
 40
-0.7908819802995883
 40
-0.7908819802995883
 40
-0.7908819802995883
 40
0.0
 40
1.38518862062698
 40
1.38518862062698
 40
1.38518862062698
 10
9.71829226827457
 20
75.22709051676628
 30
0.0
 10
9.696362870805439
 20
74.8360962202271
 30
0.0
 10
9.743806236907648
 20
73.74909578687293
 30
0.0
 10
9.774033962103811
 20
73.05716142334309
 30
0.0
  0
SPLINE
  5
118
330
1F
100
AcDbEntity
  8
~BASE~
100
AcDbSpline
210
0.0
220
0.0
230
1.0
 70
    12
 71
     2
 72
     6
 73
     3
 74
     0
 42
0.0000000001
 43
0.0000000001
 40
0.0
 40
0.0
 40
0.0
 40
6.01125773630102
 40
6.01125773630102
 40
6.01125773630102
 10
10.41585139915054
 20
56.00639194950926
 30
0.0
 41
1.0
 10
10.30821411273114
 20
59.01012380426522
 30
0.0
 41
0.9999845626581845
 10
10.23396329610718
 20
62.0148663318263
 30
0.0
 41
1.0
  0
SPLINE
  5
119
330
1F
100
AcDbEntity
  8
~BASE~
100
AcDbSpline
210
0.0
220
0.0
230
1.0
 70
    12
 71
     3
 72
    12
 73
     8
 74
     0
 42
0.0000000001
 43
0.0000000001
 40
0.9140625
 40
0.9140625
 40
0.9140625
 40
0.9140625
 40
0.9375
 40
0.9375
 40
0.96875
 40
0.96875
 40
1.0
 40
1.0
 40
1.0
 40
1.0
 10
10.40496777245048
 20
55.11192707312583
 30
0.0
 41
1.0
 10
10.40878897066395
 20
55.11291306400098
 30
0.0
 41
1.0
 10
10.41193344240371
 20
55.14014863085032
 30
0.0
 41
1.0
 10
10.41712446197026
 20
55.26481561983771
 30
0.0
 41
1.0
 10
10.41848355533391
 20
55.38157974632429
 30
0.0
 41
1.0
 10
10.41874789860616
 20
55.66398293407994
 30
0.0
 41
1.0
 10
10.41760470666245
 20
55.83086331867848
 30
0.0
 41
1.0
 10
10.41585139915063
 20
56.00639194950926
 30
0.0
 41
1.0
  0
SPLINE
  5
11A
330
1F
100
AcDbEntity
  8
~BASE~
100
AcDbSpline
210
0.0
220
0.0
230
1.0
 70
    12
 71
     2
 72
     6
 73
     3
 74
     0
 42
0.0000000001
 43
0.0000000001
 40
0.0
 40
0.0
 40
0.0
 40
6.01125773630102
 40
6.01125773630102
 40
6.01125773630102
 10
-10.41585139915314
 20
56.00639194950926
 30
0.0
 41
1.0
 10
-10.30821411273375
 20
59.01012380426522
 30
0.0
 41
0.9999845626581845
 10
-10.23396329610978
 20
62.0148663318263
 30
0.0
 41
1.0
  0
SPLINE
  5
11B
330
1F
100
AcDbEntity
  8
~BASE~
100
AcDbSpline
210
0.0
220
0.0
230
1.0
 70
    12
 71
     3
 72
    12
 73
     8
 74
     0
 42
0.0000000001
 43
0.0000000001
 40
0.9140625
 40
0.9140625
 40
0.9140625
 40
0.9140625
 40
0.9375
 40
0.9375
 40
0.96875
 40
0.96875
 40
1.0
 40
1.0
 40
1.0
 40
1.0
 10
-10.40496777245308
 20
55.11192707312583
 30
0.0
 41
1.0
 10
-10.40878897066655
 20
55.11291306400098
 30
0.0
 41
1.0
 10
-10.41193344240632
 20
55.14014863085032
 30
0.0
 41
1.0
 10
-10.41712446197286
 20
55.26481561983771
 30
0.0
 41
1.0
 10
-10.41848355533651
 20
55.38157974632429
 30
0.0
 41
1.0
 10
-10.41874789860876
 20
55.66398293407994
 30
0.0
 41
1.0
 10
-10.41760470666505
 20
55.83086331867848
 30
0.0
 41
1.0
 10
-10.41585139915323
 20
56.00639194950926
 30
0.0
 41
1.0
  0
SPLINE
  5
11C
330
1F
100
AcDbEntity
  8
SLOPED ARM
100
AcDbSpline
210
0.0
220
0.0
230
1.0
 70
     8
 71
     3
 72
     8
 73
     4
 74
     0
 42
0.0000000001
 43
0.0000000001
 40
0.0
 40
0.0
 40
0.0
 40
0.0
 40
1.0
 40
1.0
 40
1.0
 40
1.0
 10
-11.34343666884288
 20
73.13453215029053
 30
0.0
 10
-11.45561081079136
 20
73.11835708101844
 30
0.0
 10
-11.52225412240876
 20
73.04689199398395
 30
0.0
 10
-11.53124779719321
 20
72.93379974312292
 30
0.0
  0
SPLINE
  5
11D
330
1F
100
AcDbEntity
  8
SLOPED ARM
100
AcDbSpline
210
0.0
220
0.0
230
1.0
 70
     8
 71
     3
 72
     8
 73
     4
 74
     0
 42
0.0000000001
 43
0.0000000001
 40
0.0
 40
0.0
 40
0.0
 40
0.0
 40
1.0
 40
1.0
 40
1.0
 40
1.0
 10
-11.53124779719321
 20
72.93379974312292
 30
0.0
 10
-11.8105971501818
 20
69.42108132009587
 30
0.0
 10
-12.04310137050746
 20
65.90437499248432
 30
0.0
 10
-12.19648696607418
 20
62.38378937842535
 30
0.0
  0
SPLINE
  5
11E
330
1F
100
AcDbEntity
  8
SLOPED ARM
100
AcDbSpline
210
0.0
220
0.0
230
1.0
 70
     8
 71
     3
 72
     8
 73
     4
 74
     0
 42
0.0000000001
 43
0.0000000001
 40
-1.0
 40
-1.0
 40
-1.0
 40
-1.0
 40
0.0
 40
0.0
 40
0.0
 40
0.0
 10
-12.19648696607418
 20
62.38378937842535
 30
0.0
 10
-12.20010622926412
 20
62.22813105319724
 30
0.0
 10
-12.1133020556635
 20
62.13697586191611
 30
0.0
 10
-11.9563882546224
 20
62.11563253038229
 30
0.0
  0
ARC
  5
11F
330
1F
100
AcDbEntity
  8
SLOPED ARM
100
AcDbCircle
 10
-9.939113724672941
 20
81.60985559601882
 30
0.0
 40
19.59831955709412
100
AcDbArc
 50
264.0920246316908
 51
269.0675034313774
  0
SPLINE
  5
120
330
1F
100
AcDbEntity
  8
SLOPED ARM
100
AcDbSpline
210
0.0
220
0.0
230
1.0
 70
     8
 71
     3
 72
    11
 73
     7
 74
     0
 42
0.0000000001
 43
0.0000000001
 40
0.0
 40
0.0
 40
0.0
 40
0.0
 40
0.0400182915734651
 40
0.0841181349849474
 40
0.1722228736002887
 40
0.3705621272975694
 40
0.3705621272975694
 40
0.3705621272975694
 40
0.3705621272975694
 10
-10.25806494773285
 20
62.01413158338569
 30
0.0
 10
-10.24485482631153
 20
62.01345404345558
 30
0.0
 10
-10.21639748043583
 20
62.01599052459428
 30
0.0
 10
-10.16194423640087
 20
62.03407378209569
 30
0.0
 10
-10.07424334282263
 20
62.10720287641048
 30
0.0
 10
-10.04778394987649
 20
62.20466003352475
 30
0.0
 10
-10.0465140386985
 20
62.27047204819886
 30
0.0
  0
POLYLINE
  5
121
330
1F
100
AcDbEntity
  8
SLOPED ARM
100
AcDb2dPolyline
 66
     1
 10
0.0
 20
0.0
 30
0.0
  0
VERTEX
  5
122
330
121
100
AcDbEntity
  8
SLOPED ARM
100
AcDbVertex
100
AcDb2dVertex
 10
-10.0465140386985
 20
62.27047204819886
 30
0.0
  0
VERTEX
  5
123
330
121
100
AcDbEntity
  8
SLOPED ARM
100
AcDbVertex
100
AcDb2dVertex
 10
-9.584547595812236
 20
72.82912694289456
 30
0.0
  0
SEQEND
  5
124
330
121
100
AcDbEntity
  8
SLOPED ARM
  0
SPLINE
  5
125
330
1F
100
AcDbEntity
  8
SLOPED ARM
100
AcDbSpline
210
0.0
220
0.0
230
1.0
 70
    12
 71
     2
 72
     6
 73
     3
 74
     0
 42
0.0000000001
 43
0.0000000001
 40
0.0
 40
0.0
 40
0.0
 40
0.3004428485875137
 40
0.3004428485875137
 40
0.3004428485875137
 10
-9.584547595812236
 20
72.82912694289456
 30
0.0
 41
1.0
 10
-9.576998282997277
 20
73.00786909605971
 30
0.0
 41
0.7760017461748168
 10
-9.75043711262921
 20
73.0517892955574
 30
0.0
 41
1.0
  0
SPLINE
  5
126
330
1F
100
AcDbEntity
  8
SLOPED ARM
100
AcDbSpline
210
0.0
220
0.0
230
1.0
 70
    12
 71
     2
 72
     6
 73
     3
 74
     0
 42
0.0000000001
 43
0.0000000001
 40
0.0
 40
0.0
 40
0.0
 40
1.605300232881705
 40
1.605300232881705
 40
1.605300232881705
 10
-9.75043711262921
 20
73.0517892955574
 30
0.0
 41
1.0
 10
-10.53876728885426
 20
73.2505623042668
 30
0.0
 41
0.9810278225016931
 10
-11.34343666884288
 20
73.13453215029053
 30
0.0
 41
1.0
  0
SPLINE
  5
127
330
1F
100
AcDbEntity
  8
SLOPED ARM
100
AcDbSpline
210
0.0
220
0.0
230
1.0
 70
     8
 71
     3
 72
     8
 73
     4
 74
     0
 42
0.0000000001
 43
0.0000000001
 40
0.0
 40
0.0
 40
0.0
 40
0.0
 40
1.0
 40
1.0
 40
1.0
 40
1.0
 10
11.34343666884028
 20
73.13453215029053
 30
0.0
 10
11.45561081078876
 20
73.11835708101844
 30
0.0
 10
11.52225412240616
 20
73.04689199398395
 30
0.0
 10
11.53124779719061
 20
72.93379974312292
 30
0.0
  0
SPLINE
  5
128
330
1F
100
AcDbEntity
  8
SLOPED ARM
100
AcDbSpline
210
0.0
220
0.0
230
1.0
 70
     8
 71
     3
 72
     8
 73
     4
 74
     0
 42
0.0000000001
 43
0.0000000001
 40
0.0
 40
0.0
 40
0.0
 40
0.0
 40
1.0
 40
1.0
 40
1.0
 40
1.0
 10
11.53124779719061
 20
72.93379974312292
 30
0.0
 10
11.81059715017919
 20
69.42108132009587
 30
0.0
 10
12.04310137050486
 20
65.90437499248432
 30
0.0
 10
12.19648696607158
 20
62.38378937842535
 30
0.0
  0
SPLINE
  5
129
330
1F
100
AcDbEntity
  8
SLOPED ARM
100
AcDbSpline
210
0.0
220
0.0
230
1.0
 70
     8
 71
     3
 72
     8
 73
     4
 74
     0
 42
0.0000000001
 43
0.0000000001
 40
-1.0
 40
-1.0
 40
-1.0
 40
-1.0
 40
0.0
 40
0.0
 40
0.0
 40
0.0
 10
12.19648696607158
 20
62.38378937842535
 30
0.0
 10
12.20010622926151
 20
62.22813105319724
 30
0.0
 10
12.1133020556609
 20
62.13697586191611
 30
0.0
 10
11.9563882546198
 20
62.11563253038229
 30
0.0
  0
ARC
  5
12A
330
1F
100
AcDbEntity
  8
SLOPED ARM
100
AcDbCircle
 10
9.93911372467034
 20
81.60985559601882
 30
0.0
 40
19.59831955709412
100
AcDbArc
 50
270.9324965686226
 51
275.9079753683092
  0
SPLINE
  5
12B
330
1F
100
AcDbEntity
  8
SLOPED ARM
100
AcDbSpline
210
0.0
220
0.0
230
1.0
 70
     8
 71
     3
 72
    11
 73
     7
 74
     0
 42
0.0000000001
 43
0.0000000001
 40
0.0
 40
0.0
 40
0.0
 40
0.0
 40
0.0400182915734651
 40
0.0841181349849474
 40
0.1722228736002887
 40
0.3705621272975694
 40
0.3705621272975694
 40
0.3705621272975694
 40
0.3705621272975694
 10
10.25806494773025
 20
62.01413158338569
 30
0.0
 10
10.24485482630893
 20
62.01345404345558
 30
0.0
 10
10.21639748043323
 20
62.01599052459428
 30
0.0
 10
10.16194423639827
 20
62.03407378209569
 30
0.0
 10
10.07424334282003
 20
62.10720287641048
 30
0.0
 10
10.04778394987389
 20
62.20466003352475
 30
0.0
 10
10.0465140386959
 20
62.27047204819886
 30
0.0
  0
POLYLINE
  5
12C
330
1F
100
AcDbEntity
  8
SLOPED ARM
100
AcDb2dPolyline
 66
     1
 10
0.0
 20
0.0
 30
0.0
  0
VERTEX
  5
12D
330
12C
100
AcDbEntity
  8
SLOPED ARM
100
AcDbVertex
100
AcDb2dVertex
 10
10.0465140386959
 20
62.27047204819886
 30
0.0
  0
VERTEX
  5
12E
330
12C
100
AcDbEntity
  8
SLOPED ARM
100
AcDbVertex
100
AcDb2dVertex
 10
9.584547595809635
 20
72.82912694289456
 30
0.0
  0
SEQEND
  5
12F
330
12C
100
AcDbEntity
  8
SLOPED ARM
  0
SPLINE
  5
130
330
1F
100
AcDbEntity
  8
SLOPED ARM
100
AcDbSpline
210
0.0
220
0.0
230
1.0
 70
    12
 71
     2
 72
     6
 73
     3
 74
     0
 42
0.0000000001
 43
0.0000000001
 40
0.0
 40
0.0
 40
0.0
 40
0.3004428485875137
 40
0.3004428485875137
 40
0.3004428485875137
 10
9.584547595809635
 20
72.82912694289456
 30
0.0
 41
1.0
 10
9.576998282994676
 20
73.00786909605971
 30
0.0
 41
0.7760017461748168
 10
9.75043711262661
 20
73.0517892955574
 30
0.0
 41
1.0
  0
SPLINE
  5
131
330
1F
100
AcDbEntity
  8
SLOPED ARM
100
AcDbSpline
210
0.0
220
0.0
230
1.0
 70
    12
 71
     2
 72
     6
 73
     3
 74
     0
 42
0.0000000001
 43
0.0000000001
 40
0.0
 40
0.0
 40
0.0
 40
1.605300232881705
 40
1.605300232881705
 40
1.605300232881705
 10
9.75043711262661
 20
73.0517892955574
 30
0.0
 41
1.0
 10
10.53876728885166
 20
73.2505623042668
 30
0.0
 41
0.9810278225016931
 10
11.34343666884028
 20
73.13453215029053
 30
0.0
 41
1.0
  0
LINE
  5
132
330
1F
100
AcDbEntity
  8
~BASE~
100
AcDbLine
 10
-3.391241000000004
 20
13.615355
 30
0.0
 11
-3.391241000000004
 21
14.77449841291936
 31
0.0
  0
LINE
  5
133
330
1F
100
AcDbEntity
  8
~BASE~
100
AcDbLine
 10
3.307087000000001
 20
14.76881282828771
 30
0.0
 11
3.307087000000001
 21
13.427658
 31
0.0
  0
LINE
  5
134
330
1F
100
AcDbEntity
  8
~BASE~
100
AcDbLine
 10
3.53887799999999
 20
13.615355
 30
0.0
 11
3.53887799999999
 21
14.78481984572852
 31
0.0
  0
LINE
  5
135
330
1F
100
AcDbEntity
  8
~BASE~
100
AcDbLine
 10
3.39124100000001
 20
13.615355
 30
0.0
 11
3.39124100000001
 21
14.77449841298276
 31
0.0
  0
LINE
  5
136
330
1F
100
AcDbEntity
  8
~BASE~
100
AcDbLine
 10
-3.307086999999992
 20
14.7688128282259
 30
0.0
 11
-3.307086999999992
 21
13.427658
 31
0.0
  0
LINE
  5
137
330
1F
100
AcDbEntity
  8
~BASE~
100
AcDbLine
 10
-3.538878000000008
 20
13.615355
 30
0.0
 11
-3.538878000000008
 21
14.78481984566236
 31
0.0
  0
SPLINE
  5
138
330
1F
100
AcDbEntity
  8
~BASE~
100
AcDbSpline
210
0.0
220
0.0
230
1.0
 70
     8
 71
     3
 72
    19
 73
    15
 74
     0
 42
0.0000000001
 43
0.0000000001
 40
0.0
 40
0.0
 40
0.0
 40
0.0
 40
0.1011763222572
 40
0.2232144367775
 40
0.3481954240116
 40
0.4667307689401
 40
0.576165643506
 40
0.6750207307125
 40
0.7614810123431
 40
0.8349355497899
 40
0.8952186339714
 40
0.9440277832864
 40
0.9855573206089
 40
1.0
 40
1.0
 40
1.0
 40
1.0
 10
-0.0000004726400089
 20
10.2732567463
 30
0.0
 10
-0.0374220789699891
 20
10.2732567463
 30
0.0
 10
-0.1199877441800101
 20
10.27181949255
 30
0.0
 10
-0.2486085372199991
 20
10.26455363124
 30
0.0
 10
-0.3831583072700102
 20
10.25069929214
 30
0.0
 10
-0.5122136044300003
 20
10.23060495602
 30
0.0
 10
-0.6304306028100104
 20
10.20497886796
 30
0.0
 10
-0.7351968358899992
 20
10.17442963664
 30
0.0
 10
-0.8245059475099996
 20
10.13958817522
 30
0.0
 10
-0.8966303168699792
 20
10.10119057466
 30
0.0
 10
-0.9504416790699892
 20
10.05971954588
 30
0.0
 10
-0.9852839713400101
 20
10.01503083324
 30
0.0
 10
-0.9954866921899796
 20
9.97612630459
 30
0.0
 10
-0.993591317249999
 20
9.955344243910002
 30
0.0
 10
-0.9926756993799799
 20
9.950041687679999
 30
0.0
  0
LINE
  5
139
330
1F
100
AcDbEntity
  8
~BASE~
100
AcDbLine
 10
-7.735779532670018
 20
1.814273533049999
 30
0.0
 11
-7.617064611079993
 21
1.603564519590002
 31
0.0
  0
LINE
  5
13A
330
1F
100
AcDbEntity
  8
~BASE~
100
AcDbLine
 10
-0.9927249750199891
 20
9.95003317902
 30
0.0
 11
-1.18108278942
 21
11.9658897735
 31
0.0
  0
LINE
  5
13B
330
1F
100
AcDbEntity
  8
~BASE~
100
AcDbLine
 10
-6.611735516250004
 20
1.814273533049999
 30
0.0
 11
-6.533172361680013
 21
2.163334469540001
 31
0.0
  0
ARC
  5
13C
330
1F
100
AcDbEntity
  8
~BASE~
100
AcDbCircle
 10
-0.59957390724459
 20
10.09926686709692
 30
0.0
 40
0.4205216471835667
100
AcDbArc
 50
200.7859393382386
 51
259.6688401708092
  0
SPLINE
  5
13D
330
1F
100
AcDbEntity
  8
~BASE~
100
AcDbSpline
210
0.0
220
0.0
230
1.0
 70
     8
 71
     3
 72
    19
 73
    15
 74
     0
 42
0.0000000001
 43
0.0000000001
 40
0.0
 40
0.0
 40
0.0
 40
0.0
 40
0.1235919666214
 40
0.2451043183287
 40
0.3625079393068
 40
0.4738760400769
 40
0.5774394841606
 40
0.6716499905291
 40
0.7552606378014
 40
0.8274447239784
 40
0.8880009336909
 40
0.937747797675
 40
0.9792454826625
 40
1.0
 40
1.0
 40
1.0
 40
1.0
 10
-0.0000004726400089
 20
12.33299688516
 30
0.0
 10
-0.0536213641600192
 20
12.33299688516
 30
0.0
 10
-0.1599749165399889
 20
12.33076782654
 30
0.0
 10
-0.3169800351099905
 20
12.32077308052
 30
0.0
 10
-0.468115698440009
 20
12.30432864715
 30
0.0
 10
-0.6105865314599992
 20
12.2817509192
 30
0.0
 10
-0.7417749729999894
 20
12.25347422501
 30
0.0
 10
-0.8592950911400088
 20
12.22004220709
 30
0.0
 10
-0.9610571777299892
 20
12.18208443348
 30
0.0
 10
-1.04534678389998
 20
12.14028657017
 30
0.0
 10
-1.110896246219991
 20
12.09522605562
 30
0.0
 10
-1.15687590952998
 20
12.04716685055
 30
0.0
 10
-1.17851256075002
 20
12.00228729552
 30
0.0
 10
-1.181153618809979
 20
11.97497483116
 30
0.0
 10
-1.18099095221001
 20
11.96589126526
 30
0.0
  0
LINE
  5
13E
330
1F
100
AcDbEntity
  8
~BASE~
100
AcDbLine
 10
-0.0000004726400089
 20
9.577842257099999
 30
0.0
 11
-0.6749890844900204
 21
9.685562854739999
 31
0.0
  0
LINE
  5
13F
330
1F
100
AcDbEntity
  8
~BASE~
100
AcDbLine
 10
-6.730450437850006
 20
1.603564519590002
 30
0.0
 11
-6.611735516250004
 21
1.814273533049999
 31
0.0
  0
LINE
  5
140
330
1F
100
AcDbEntity
  8
~BASE~
100
AcDbLine
 10
0.9816839999999996
 20
9.516962
 30
0.0
 11
0.91155100000001
 21
6.722591999999999
 31
0.0
  0
LINE
  5
141
330
1F
100
AcDbEntity
  8
~BASE~
100
AcDbLine
 10
6.18949799999999
 20
2.434055000000001
 30
0.0
 11
6.18949799999999
 21
0.125
 31
0.0
  0
SPLINE
  5
142
330
1F
100
AcDbEntity
  8
~BASE~
100
AcDbSpline
210
0.0
220
0.0
230
1.0
 70
     8
 71
     3
 72
    19
 73
    15
 74
     0
 42
0.0000000001
 43
0.0000000001
 40
0.0
 40
0.0
 40
0.0
 40
0.0
 40
1.0
 40
2.0
 40
3.0
 40
4.0
 40
5.0
 40
6.0
 40
7.0
 40
8.0
 40
9.0
 40
10.0
 40
11.0
 40
12.0
 40
12.0
 40
12.0
 40
12.0
 10
1.022946089700021
 20
6.7226909014
 30
0.0
 10
1.341277460972691
 20
6.725051837828964
 30
0.0
 10
1.963608104342521
 20
6.588448271959781
 30
0.0
 10
2.872190520260091
 20
6.311658357378441
 30
0.0
 10
3.78642588905015
 20
6.050474051302096
 30
0.0
 10
4.70016877429746
 20
5.788655795608754
 30
0.0
 10
5.614045153597459
 20
5.527012520050409
 30
0.0
 10
6.527881875935499
 20
5.265309115571892
 30
0.0
 10
7.44173232062289
 20
5.003632307439126
 30
0.0
 10
8.35556770433164
 20
4.741909193745176
 30
0.0
 10
9.269449144907561
 20
4.480344839021168
 30
0.0
 10
10.18333898520078
 20
4.218810227158649
 30
0.0
 10
11.09729949966095
 20
3.957522239830254
 30
0.0
 10
11.70658896166516
 20
3.783269947946049
 30
0.0
 10
12.011242
 20
3.696172000000001
 30
0.0
  0
ARC
  5
143
330
1F
100
AcDbEntity
  8
~BASE~
100
AcDbCircle
 10
11.90095569207189
 20
3.316200622558892
 30
0.0
 40
0.3956530265155401
100
AcDbArc
 50
2.066117849791139
 51
73.81468257186941
  0
LINE
  5
144
330
1F
100
AcDbEntity
  8
~BASE~
100
AcDbLine
 10
12.2963515
 20
3.330465
 30
0.0
 11
12.31604500000001
 21
2.766535999999999
 31
0.0
  0
LINE
  5
145
330
1F
100
AcDbEntity
  8
~BASE~
100
AcDbLine
 10
-0.2145670000000095
 20
2.766535999999999
 30
0.0
 11
-0.2145670000000095
 21
2.716536000000001
 31
0.0
  0
LINE
  5
146
330
1F
100
AcDbEntity
  8
~BASE~
100
AcDbLine
 10
-7.914511999999998
 20
13.246482
 30
0.0
 11
-9.259431000000003
 21
13.246069
 31
0.0
  0
LINE
  5
147
330
1F
100
AcDbEntity
  8
~BASE~
100
AcDbLine
 10
-10.74812299999999
 20
0.0
 30
0.0
 11
-11.16407599999999
 21
0.0
 31
0.0
  0
LINE
  5
148
330
1F
100
AcDbEntity
  8
~BASE~
100
AcDbLine
 10
-11.24801299999998
 20
0.8420260000000006
 30
0.0
 11
-11.24801299999998
 21
1.528175999999998
 31
0.0
  0
LINE
  5
149
330
1F
100
AcDbEntity
  8
~BASE~
100
AcDbLine
 10
-8.694623000000004
 20
13.164242
 30
0.0
 11
-8.694679000000004
 21
13.164402
 31
0.0
  0
ARC
  5
14A
330
1F
100
AcDbEntity
  8
~BASE~
100
AcDbCircle
 10
11.60738320952
 20
2.05075874356856
 30
0.0
 40
0.6342236987375398
100
AcDbArc
 50
235.4844523428089
 51
304.5155476571911
  0
LINE
  5
14B
330
1F
100
AcDbEntity
  8
~BASE~
100
AcDbLine
 10
0.4433080000000107
 20
-0.0000005000000005
 30
0.0
 11
0.3842525000000112
 21
0.0590550000000007
 31
0.0
  0
LINE
  5
14C
330
1F
100
AcDbEntity
  8
~BASE~
100
AcDbLine
 10
0.9927249750199998
 20
9.95003317902
 30
0.0
 11
1.18108278942001
 21
11.9658897735
 31
0.0
  0
ARC
  5
14D
330
1F
100
AcDbEntity
  8
~BASE~
100
AcDbCircle
 10
0.5995739072445101
 20
10.09926686709703
 30
0.0
 40
0.4205216471836811
100
AcDbArc
 50
280.3311598291953
 51
339.2140606617515
  0
LINE
  5
14E
330
1F
100
AcDbEntity
  8
~BASE~
100
AcDbLine
 10
0.0000004726399911
 20
9.577842257099999
 30
0.0
 11
0.6749890844900008
 21
9.685562854739999
 31
0.0
  0
LINE
  5
14F
330
1F
100
AcDbEntity
  8
~BASE~
100
AcDbLine
 10
6.611735516249979
 20
1.814273533049999
 30
0.0
 11
6.53317236168002
 21
2.163334469540001
 31
0.0
  0
LINE
  5
150
330
1F
100
AcDbEntity
  8
~BASE~
100
AcDbLine
 10
-3.307086999999992
 20
13.659129
 30
0.0
 11
3.307086
 21
13.659129
 31
0.0
  0
LINE
  5
151
330
1F
100
AcDbEntity
  8
~BASE~
100
AcDbLine
 10
-7.388324000000008
 20
2.766535999999999
 30
0.0
 11
-7.388324000000008
 21
2.716536000000001
 31
0.0
  0
LINE
  5
152
330
1F
100
AcDbEntity
  8
~BASE~
100
AcDbLine
 10
-6.489933000000003
 20
3.086559000000001
 30
0.0
 11
-6.478764000000009
 21
2.766535999999999
 31
0.0
  0
LINE
  5
153
330
1F
100
AcDbEntity
  8
~BASE~
100
AcDbLine
 10
-8.694647999999997
 20
13.471728
 30
0.0
 11
-8.694660999999993
 21
13.554242
 31
0.0
  0
LINE
  5
154
330
1F
100
AcDbEntity
  8
~BASE~
100
AcDbLine
 10
-9.874534000000008
 20
13.47129
 30
0.0
 11
-8.529448999999996
 21
13.471141
 31
0.0
  0
LINE
  5
155
330
1F
100
AcDbEntity
  8
~BASE~
100
AcDbLine
 10
-12.29487299999999
 20
2.699549000000001
 30
0.0
 11
-12.24786700000001
 21
2.162262000000002
 31
0.0
  0
LINE
  5
156
330
1F
100
AcDbEntity
  8
~BASE~
100
AcDbLine
 10
-6.600013054500007
 20
2.863356318769998
 30
0.0
 11
-6.608180778290001
 21
3.045418324300002
 31
0.0
  0
LINE
  5
157
330
1F
100
AcDbEntity
  8
~BASE~
100
AcDbLine
 10
-6.608180778290001
 20
3.045418324300002
 30
0.0
 11
-6.556759157444983
 21
3.064590183044999
 31
0.0
  0
LINE
  5
158
330
1F
100
AcDbEntity
  8
~BASE~
100
AcDbLine
 10
-6.556759157444983
 20
3.064590183044999
 30
0.0
 11
-1.80561500000001
 21
4.626526000000002
 31
0.0
  0
LINE
  5
159
330
1F
100
AcDbEntity
  8
~BASE~
100
AcDbLine
 10
-7.814364800209997
 20
2.163622138059999
 30
0.0
 11
-7.735779532670018
 21
1.814273533049999
 31
0.0
  0
LINE
  5
15A
330
1F
100
AcDbEntity
  8
~BASE~
100
AcDbLine
 10
8.694661
 20
13.554242
 30
0.0
 11
8.144642000000012
 21
13.554242
 31
0.0
  0
LINE
  5
15B
330
1F
100
AcDbEntity
  8
~BASE~
100
AcDbLine
 10
-6.789505999999984
 20
0.0590609999999998
 30
0.0
 11
-6.789505999999984
 21
1.510404000000001
 31
0.0
  0
LINE
  5
15C
330
1F
100
AcDbEntity
  8
~BASE~
100
AcDbLine
 10
2.446429
 20
13.217547
 30
0.0
 11
3.010517
 21
13.634005
 31
0.0
  0
SPLINE
  5
15D
330
1F
100
AcDbEntity
  8
~BASE~
100
AcDbSpline
210
0.0
220
0.0
230
1.0
 70
     8
 71
     3
 72
    24
 73
    20
 74
     0
 42
0.0000000001
 43
0.0000000001
 40
0.0
 40
0.0
 40
0.0
 40
0.0
 40
0.07715671941002
 40
0.1702225681787
 40
0.2655326468086
 40
0.3559272967056
 40
0.4393819603914
 40
0.5147685145828
 40
0.5807028313599
 40
0.6367190125566
 40
0.6826906877213
 40
0.7199123792478
 40
0.7515826633142
 40
0.7832529474155
 40
0.8204746391833
 40
0.8664463143469
 40
0.9224624960007
 40
0.9883968126878
 40
1.0
 40
1.0
 40
1.0
 40
1.0
 10
-0.0000004726400089
 20
10.16913266352
 30
0.0
 10
-0.0349348049000202
 20
10.16913266352
 30
0.0
 10
-0.1120126385500004
 20
10.16779094048
 30
0.0
 10
-0.2320844876199999
 20
10.16100799369
 30
0.0
 10
-0.3576912400299896
 20
10.14807452431
 30
0.0
 10
-0.4781687142600202
 20
10.12931577296
 30
0.0
 10
-0.5885282716999996
 20
10.10539295835
 30
0.0
 10
-0.6863310865799903
 20
10.07687422145
 30
0.0
 10
-0.7697041558600102
 20
10.0443485401
 30
0.0
 10
-0.8370346896999994
 20
10.00850308599
 30
0.0
 10
-0.8872694120400091
 20
9.969788480480002
 30
0.0
 10
-0.9197958683099898
 20
9.928070059629999
 30
0.0
 10
-0.9317826370400102
 20
9.882362684450001
 30
0.0
 10
-0.9197958682199996
 20
9.836655309240001
 30
0.0
 10
-0.88726941223001
 20
9.79493688797
 30
0.0
 10
-0.8370346893300091
 20
9.75622228273
 30
0.0
 10
-0.7697041563700093
 20
9.72037682665
 30
0.0
 10
-0.7132789658199901
 20
9.69836411087
 30
0.0
 10
-0.6799831034299988
 20
9.687198464529999
 30
0.0
 10
-0.6749893303899892
 20
9.685562185639998
 30
0.0
  0
ARC
  5
15E
330
1F
100
AcDbEntity
  8
~BASE~
100
AcDbCircle
 10
-7.173757524459998
 20
2.050758743568553
 30
0.0
 40
0.6342236987375345
100
AcDbArc
 50
235.4844523428085
 51
304.5155476571916
  0
LINE
  5
15F
330
1F
100
AcDbEntity
  8
~BASE~
100
AcDbLine
 10
9.259430999999982
 20
13.246069
 30
0.0
 11
9.87451200000001
 21
13.24629
 31
0.0
  0
LINE
  5
160
330
1F
100
AcDbEntity
  8
~BASE~
100
AcDbLine
 10
-6.789505555960002
 20
1.510403866539999
 30
0.0
 11
-6.730450437850006
 21
1.603564519590002
 31
0.0
  0
LINE
  5
161
330
1F
100
AcDbEntity
  8
~BASE~
100
AcDbLine
 10
-7.617064611079993
 20
1.603564519590002
 30
0.0
 11
-7.558009492969997
 21
1.510403866539999
 31
0.0
  0
LINE
  5
162
330
1F
100
AcDbEntity
  8
~BASE~
100
AcDbLine
 10
-6.814387000000007
 20
0.8420260000000006
 30
0.0
 11
-6.814387000000007
 21
1.528175999999998
 31
0.0
  0
LINE
  5
163
330
1F
100
AcDbEntity
  8
~BASE~
100
AcDbLine
 10
-10.91989323549668
 20
2.699549020605581
 30
0.0
 11
-10.93545900000001
 21
2.716536236396425
 31
0.0
  0
LINE
  5
164
330
1F
100
AcDbEntity
  8
~BASE~
100
AcDbLine
 10
-3.538878000000008
 20
14.192926
 30
0.0
 11
-3.391241000000004
 21
14.192926
 31
0.0
  0
LINE
  5
165
330
1F
100
AcDbEntity
  8
~BASE~
100
AcDbLine
 10
7.845681999999989
 20
2.716536236396425
 30
0.0
 11
7.861247764503339
 21
2.699549020605581
 31
0.0
  0
LINE
  5
166
330
1F
100
AcDbEntity
  8
~BASE~
100
AcDbLine
 10
-8.694692
 20
13.246916
 30
0.0
 11
-8.694679000000004
 21
13.164402
 31
0.0
  0
LINE
  5
167
330
1F
100
AcDbEntity
  8
~BASE~
100
AcDbLine
 10
3.010516000000001
 20
13.634005
 30
0.0
 11
-3.010517000000018
 21
13.634005
 31
0.0
  0
LINE
  5
168
330
1F
100
AcDbEntity
  8
~BASE~
100
AcDbLine
 10
-3.538878000000008
 20
13.834828
 30
0.0
 11
-7.844716999999999
 21
13.834405
 31
0.0
  0
LINE
  5
169
330
1F
100
AcDbEntity
  8
~BASE~
100
AcDbLine
 10
-11.82194999999998
 20
2.766535999999999
 30
0.0
 11
-11.82194999999998
 21
2.716536000000001
 31
0.0
  0
LINE
  5
16A
330
1F
100
AcDbEntity
  8
~BASE~
100
AcDbLine
 10
-11.39281600000001
 20
2.766535999999999
 30
0.0
 11
-11.39281600000001
 21
2.716536000000001
 31
0.0
  0
LINE
  5
16B
330
1F
100
AcDbEntity
  8
~BASE~
100
AcDbLine
 10
-2.44642899999999
 20
13.217547
 30
0.0
 11
-1.803746000000009
 21
12.561849
 31
0.0
  0
LINE
  5
16C
330
1F
100
AcDbEntity
  8
~BASE~
100
AcDbLine
 10
-9.259431000000003
 20
13.246069
 30
0.0
 11
-9.874512000000006
 21
13.24629
 31
0.0
  0
LINE
  5
16D
330
1F
100
AcDbEntity
  8
~BASE~
100
AcDbLine
 10
-12.591643
 20
2.434055000000001
 30
0.0
 11
-12.591643
 21
0.125
 31
0.0
  0
LINE
  5
16E
330
1F
100
AcDbEntity
  8
~BASE~
100
AcDbLine
 10
-11.991635
 20
1.510404000000001
 30
0.0
 11
-11.991635
 21
0.0590609999999998
 31
0.0
  0
LINE
  5
16F
330
1F
100
AcDbEntity
  8
~BASE~
100
AcDbLine
 10
12.24799048527
 20
2.163622138059999
 30
0.0
 11
12.16940521773001
 21
1.814273533049999
 31
0.0
  0
LINE
  5
170
330
1F
100
AcDbEntity
  8
~BASE~
100
AcDbLine
 10
-11.16407612290001
 20
1.603564519590002
 30
0.0
 11
-11.04536120130998
 21
1.814273533049999
 31
0.0
  0
LINE
  5
171
330
1F
100
AcDbEntity
  8
~BASE~
100
AcDbLine
 10
-11.22313124101001
 20
1.510403866539999
 30
0.0
 11
-11.16407612290001
 21
1.603564519590002
 31
0.0
  0
ARC
  5
172
330
1F
100
AcDbEntity
  8
~BASE~
100
AcDbCircle
 10
-11.60738320952001
 20
2.050758743568553
 30
0.0
 40
0.6342236987375336
100
AcDbArc
 50
235.4844523428085
 51
304.5155476571913
  0
LINE
  5
173
330
1F
100
AcDbEntity
  8
~BASE~
100
AcDbLine
 10
11.1640761229
 20
1.603564519590002
 30
0.0
 11
11.04536120130999
 21
1.814273533049999
 31
0.0
  0
LINE
  5
174
330
1F
100
AcDbEntity
  8
~BASE~
100
AcDbLine
 10
-11.96675300000001
 20
0.8420260000000006
 30
0.0
 11
-11.96675300000001
 21
1.528175999999998
 31
0.0
  0
LINE
  5
175
330
1F
100
AcDbEntity
  8
~BASE~
100
AcDbLine
 10
-8.694660999999993
 20
13.554242
 30
0.0
 11
-8.694717999999991
 21
13.554402
 31
0.0
  0
LINE
  5
176
330
1F
100
AcDbEntity
  8
~BASE~
100
AcDbLine
 10
-7.861248000000014
 20
2.699549000000001
 30
0.0
 11
-7.814241000000007
 21
2.162262000000002
 31
0.0
  0
LINE
  5
177
330
1F
100
AcDbEntity
  8
~BASE~
100
AcDbLine
 10
-11.24801299999998
 20
0.8420279999999991
 30
0.0
 11
-11.96675300000001
 21
0.8420279999999991
 31
0.0
  0
LINE
  5
178
330
1F
100
AcDbEntity
  8
~BASE~
100
AcDbLine
 10
0.4433075592599796
 20
1.603564519590002
 30
0.0
 11
0.3842524411499895
 21
1.510403866539999
 31
0.0
  0
LINE
  5
179
330
1F
100
AcDbEntity
  8
~BASE~
100
AcDbLine
 10
-2.44642899999999
 20
13.217547
 30
0.0
 11
-3.010517000000018
 21
13.634005
 31
0.0
  0
LINE
  5
17A
330
1F
100
AcDbEntity
  8
~BASE~
100
AcDbLine
 10
-7.533128000000001
 20
0.8420260000000006
 30
0.0
 11
-7.533128000000001
 21
1.528175999999998
 31
0.0
  0
LINE
  5
17B
330
1F
100
AcDbEntity
  8
~BASE~
100
AcDbLine
 10
-8.033016999999997
 20
2.559055000000001
 30
0.0
 11
-8.033016999999997
 21
0.0
 31
0.0
  0
LINE
  5
17C
330
1F
100
AcDbEntity
  8
~BASE~
100
AcDbLine
 10
-0.5511820000000096
 20
9.64912
 30
0.0
 11
-0.5511820000000096
 21
9.619292000000002
 31
0.0
  0
LINE
  5
17D
330
1F
100
AcDbEntity
  8
~BASE~
100
AcDbLine
 10
-0.687490999999989
 20
2.699549000000001
 30
0.0
 11
-0.6404839999999794
 21
2.162262000000002
 31
0.0
  0
LINE
  5
17E
330
1F
100
AcDbEntity
  8
~BASE~
100
AcDbLine
 10
-6.814387000000007
 20
0.8420279999999991
 30
0.0
 11
-7.533128000000001
 21
0.8420279999999991
 31
0.0
  0
LINE
  5
17F
330
1F
100
AcDbEntity
  8
~BASE~
100
AcDbLine
 10
-0.443308
 20
0.0
 30
0.0
 11
-0.859259999999999
 21
0.0
 31
0.0
  0
LINE
  5
180
330
1F
100
AcDbEntity
  8
~BASE~
100
AcDbLine
 10
-6.486266999999994
 20
2.699549000000001
 30
0.0
 11
-6.533309999999997
 21
2.161843999999999
 31
0.0
  0
ARC
  5
181
330
1F
100
AcDbEntity
  8
~BASE~
100
AcDbCircle
 10
-12.466643
 20
0.1250000000000044
 30
0.0
 40
0.1250000000000044
100
AcDbArc
 50
180.000000000002
 51
269.9999999999976
  0
ARC
  5
182
330
1F
100
AcDbEntity
  8
~BASE~
100
AcDbCircle
 10
-8.033017000000001
 20
0.1249999999999957
 30
0.0
 40
0.1249999999999956
100
AcDbArc
 50
179.999999999998
 51
270.0000000000024
  0
LINE
  5
183
330
1F
100
AcDbEntity
  8
~BASE~
100
AcDbLine
 10
-11.22313099999999
 20
0.0590609999999998
 30
0.0
 11
-11.22313099999999
 21
1.510404000000001
 31
0.0
  0
LINE
  5
184
330
1F
100
AcDbEntity
  8
~BASE~
100
AcDbLine
 10
0.3593699999999895
 20
0.8420279999999991
 30
0.0
 11
-0.3593710000000101
 21
0.8420279999999991
 31
0.0
  0
LINE
  5
185
330
1F
100
AcDbEntity
  8
~BASE~
100
AcDbLine
 10
-9.874534000000008
 20
13.47129
 30
0.0
 11
-9.874512000000006
 21
13.24629
 31
0.0
  0
LINE
  5
186
330
1F
100
AcDbEntity
  8
~BASE~
100
AcDbLine
 10
8.033017000000001
 20
2.559055000000001
 30
0.0
 11
8.033017000000001
 21
0.0
 31
0.0
  0
ARC
  5
187
330
1F
100
AcDbEntity
  8
~BASE~
100
AcDbCircle
 10
-10.748123
 20
0.1250000000000102
 30
0.0
 40
0.1250000000000102
100
AcDbArc
 50
270.0000000000049
 51
359.9999999999952
  0
LINE
  5
188
330
1F
100
AcDbEntity
  8
~BASE~
100
AcDbLine
 10
-6.314497999999983
 20
0.0
 30
0.0
 11
-6.730449999999987
 21
0.0
 31
0.0
  0
LINE
  5
189
330
1F
100
AcDbEntity
  8
~BASE~
100
AcDbLine
 10
-0.9816839999999996
 20
9.516962
 30
0.0
 11
-0.9115509999999993
 21
6.722591999999999
 31
0.0
  0
LINE
  5
18A
330
1F
100
AcDbEntity
  8
~BASE~
100
AcDbLine
 10
7.617065
 20
0.0
 30
0.0
 11
7.558009999999999
 21
0.0590550000000007
 31
0.0
  0
LINE
  5
18B
330
1F
100
AcDbEntity
  8
~BASE~
100
AcDbLine
 10
-3.307086999999992
 20
13.83485
 30
0.0
 11
-3.391241000000004
 21
13.834842
 31
0.0
  0
LINE
  5
18C
330
1F
100
AcDbEntity
  8
~BASE~
100
AcDbLine
 10
-7.845682000000006
 20
2.716536236396425
 30
0.0
 11
-7.861247764503356
 21
2.699549020605581
 31
0.0
  0
LINE
  5
18D
330
1F
100
AcDbEntity
  8
~BASE~
100
AcDbLine
 10
12.05069029613
 20
1.603564519590002
 30
0.0
 11
11.99163517802001
 21
1.510403866539999
 31
0.0
  0
LINE
  5
18E
330
1F
100
AcDbEntity
  8
~BASE~
100
AcDbLine
 10
-7.558009999999992
 20
1.510404000000001
 30
0.0
 11
-7.558009999999992
 21
0.0590609999999998
 31
0.0
  0
LINE
  5
18F
330
1F
100
AcDbEntity
  8
~BASE~
100
AcDbLine
 10
-0.6719250000000105
 20
2.716536236396425
 30
0.0
 11
-0.6874907645033304
 21
2.699549020605581
 31
0.0
  0
LINE
  5
190
330
1F
100
AcDbEntity
  8
~BASE~
100
AcDbLine
 10
-8.694660999999993
 20
13.554242
 30
0.0
 11
-8.144642000000001
 21
13.554242
 31
0.0
  0
ARC
  5
191
330
1F
100
AcDbEntity
  8
~BASE~
100
AcDbCircle
 10
-6.314497999999987
 20
0.1250000000000035
 30
0.0
 40
0.1250000000000035
100
AcDbArc
 50
270.0000000000016
 51
359.9999999999985
  0
LINE
  5
192
330
1F
100
AcDbEntity
  8
~BASE~
100
AcDbLine
 10
-7.914609000000009
 20
13.471481
 30
0.0
 11
-7.914534
 21
13.471482
 31
0.0
  0
LINE
  5
193
330
1F
100
AcDbEntity
  8
~BASE~
100
AcDbLine
 10
12.279297
 20
2.716536000000001
 30
0.0
 11
10.93546899999999
 21
2.716536000000001
 31
0.0
  0
ARC
  5
194
330
1F
100
AcDbEntity
  8
~BASE~
100
AcDbCircle
 10
12.46664300000001
 20
0.1249999999999992
 30
0.0
 40
0.125
100
AcDbArc
 50
270.0
 51
0.0000000000003944
  0
LINE
  5
195
330
1F
100
AcDbEntity
  8
~BASE~
100
AcDbLine
 10
-7.617064999999993
 20
0.0
 30
0.0
 11
-7.558009999999992
 21
0.0590550000000007
 31
0.0
  0
LINE
  5
196
330
1F
100
AcDbEntity
  8
~BASE~
100
AcDbLine
 10
-6.959191000000001
 20
2.766535999999999
 30
0.0
 11
-6.959191000000001
 21
2.716536000000001
 31
0.0
  0
LINE
  5
197
330
1F
100
AcDbEntity
  8
~BASE~
100
AcDbLine
 10
-0.4433075592599991
 20
1.603564519590002
 30
0.0
 11
-0.384252441150009
 21
1.510403866539999
 31
0.0
  0
LINE
  5
198
330
1F
100
AcDbEntity
  8
~BASE~
100
AcDbLine
 10
-8.144642000000001
 20
13.554242
 30
0.0
 11
-7.844716999999999
 21
13.834405
 31
0.0
  0
LINE
  5
199
330
1F
100
AcDbEntity
  8
~BASE~
100
AcDbLine
 10
-0.5620224808600103
 20
1.814273533049999
 30
0.0
 11
-0.4433075592599991
 21
1.603564519590002
 31
0.0
  0
LINE
  5
19A
330
1F
100
AcDbEntity
  8
~BASE~
100
AcDbLine
 10
-12.05069
 20
0.0
 30
0.0
 11
-12.466643
 21
0.0
 31
0.0
  0
LINE
  5
19B
330
1F
100
AcDbEntity
  8
~BASE~
100
AcDbLine
 10
-0.881886999999999
 20
9.619288999999998
 30
0.0
 11
-0.9816810000000089
 21
9.516957999999999
 31
0.0
  0
LINE
  5
19C
330
1F
100
AcDbEntity
  8
~BASE~
100
AcDbLine
 10
-7.617064999999993
 20
1.603565
 30
0.0
 11
-7.617064999999993
 21
0.0
 31
0.0
  0
ARC
  5
19D
330
1F
100
AcDbEntity
  8
~BASE~
100
AcDbCircle
 10
-0.5795153182161901
 20
5.960158123896899
 30
0.0
 40
0.4814035750138487
100
AcDbArc
 50
98.09015184204767
 51
188.88024468566
  0
LINE
  5
19E
330
1F
100
AcDbEntity
  8
~BASE~
100
AcDbLine
 10
-1.05514838100501
 20
5.885843982455
 30
0.0
 11
-0.6952375995000093
 21
3.16573192193
 31
0.0
  0
LINE
  5
19F
330
1F
100
AcDbEntity
  8
~BASE~
100
AcDbLine
 10
-0.8153469999999992
 20
4.166142000000001
 30
0.0
 11
-1.138135
 21
4.166142000000001
 31
0.0
  0
LINE
  5
1A0
330
1F
100
AcDbEntity
  8
~BASE~
100
AcDbLine
 10
0.3593709999999799
 20
0.8420260000000006
 30
0.0
 11
0.3593709999999799
 21
1.528175999999998
 31
0.0
  0
LINE
  5
1A1
330
1F
100
AcDbEntity
  8
~BASE~
100
AcDbLine
 10
-0.6877320000000093
 20
3.365513
 30
0.0
 11
-0.7083000000000101
 21
2.766535999999999
 31
0.0
  0
LINE
  5
1A2
330
1F
100
AcDbEntity
  8
~BASE~
100
AcDbLine
 10
7.38832399999999
 20
2.766535999999999
 30
0.0
 11
7.38832399999999
 21
2.716536000000001
 31
0.0
  0
LINE
  5
1A3
330
1F
100
AcDbEntity
  8
~BASE~
100
AcDbLine
 10
2.744624000000019
 20
12.884905
 30
0.0
 11
7.844635000000011
 21
12.884405
 31
0.0
  0
LINE
  5
1A4
330
1F
100
AcDbEntity
  8
~BASE~
100
AcDbLine
 10
7.558009999999999
 20
1.510404000000001
 30
0.0
 11
7.558009999999999
 21
0.0590609999999998
 31
0.0
  0
LINE
  5
1A5
330
1F
100
AcDbEntity
  8
~BASE~
100
AcDbLine
 10
7.533128000000012
 20
0.8420260000000006
 30
0.0
 11
7.533128000000012
 21
1.528175999999998
 31
0.0
  0
LINE
  5
1A6
330
1F
100
AcDbEntity
  8
~BASE~
100
AcDbLine
 10
3.307087000000001
 20
13.83485
 30
0.0
 11
3.39124100000001
 21
13.834842
 31
0.0
  0
LINE
  5
1A7
330
1F
100
AcDbEntity
  8
~BASE~
100
AcDbLine
 10
3.307087000000001
 20
13.427658
 30
0.0
 11
2.986798999999991
 21
13.427658
 31
0.0
  0
LINE
  5
1A8
330
1F
100
AcDbEntity
  8
~BASE~
100
AcDbLine
 10
0.5511820000000096
 20
9.64912
 30
0.0
 11
0.5511820000000096
 21
9.619292000000002
 31
0.0
  0
LINE
  5
1A9
330
1F
100
AcDbEntity
  8
~BASE~
100
AcDbLine
 10
3.53887799999999
 20
14.192926
 30
0.0
 11
3.39124100000001
 21
14.192926
 31
0.0
  0
LINE
  5
1AA
330
1F
100
AcDbEntity
  8
~BASE~
100
AcDbLine
 10
0.8759849999999911
 20
4.166142000000001
 30
0.0
 11
0.8759849999999911
 21
2.557811999999998
 31
0.0
  0
LINE
  5
1AB
330
1F
100
AcDbEntity
  8
~BASE~
100
AcDbLine
 10
6.959191000000011
 20
2.766535999999999
 30
0.0
 11
6.959191000000011
 21
2.716536000000001
 31
0.0
  0
LINE
  5
1AC
330
1F
100
AcDbEntity
  8
~BASE~
100
AcDbLine
 10
7.914512000000009
 20
13.246482
 30
0.0
 11
9.259430999999982
 21
13.246069
 31
0.0
  0
LINE
  5
1AD
330
1F
100
AcDbEntity
  8
~BASE~
100
AcDbLine
 10
-12.27930799999998
 20
2.716535738299618
 30
0.0
 11
-12.29487326070418
 21
2.699548977187338
 31
0.0
  0
LINE
  5
1AE
330
1F
100
AcDbEntity
  8
~BASE~
100
AcDbLine
 10
9.874534000000011
 20
13.47129
 30
0.0
 11
9.87451200000001
 21
13.24629
 31
0.0
  0
LINE
  5
1AF
330
1F
100
AcDbEntity
  8
~BASE~
100
AcDbLine
 10
8.14460399999999
 20
13.164242
 30
0.0
 11
8.69462300000001
 21
13.164242
 31
0.0
  0
ARC
  5
1B0
330
1F
100
AcDbEntity
  8
~BASE~
100
AcDbCircle
 10
-6.314497999999987
 20
2.434054999999998
 30
0.0
 40
0.1250000000000044
100
AcDbArc
 50
0.0000000000014249
 51
89.99999999999797
  0
LINE
  5
1B1
330
1F
100
AcDbEntity
  8
~BASE~
100
AcDbLine
 10
11.22313124101
 20
1.510403866539999
 30
0.0
 11
11.1640761229
 21
1.603564519590002
 31
0.0
  0
LINE
  5
1B2
330
1F
100
AcDbEntity
  8
~BASE~
100
AcDbLine
 10
8.158017000000001
 20
2.434055000000001
 30
0.0
 11
8.158017000000001
 21
0.125
 31
0.0
  0
LINE
  5
1B3
330
1F
100
AcDbEntity
  8
~BASE~
100
AcDbLine
 10
-0.443308
 20
-0.0000005000000005
 30
0.0
 11
-0.3842525000000006
 21
0.0590550000000007
 31
0.0
  0
LINE
  5
1B4
330
1F
100
AcDbEntity
  8
~BASE~
100
AcDbLine
 10
-12.05069
 20
0.0
 30
0.0
 11
-11.991635
 21
0.0590550000000007
 31
0.0
  0
LINE
  5
1B5
330
1F
100
AcDbEntity
  8
~BASE~
100
AcDbLine
 10
-6.314497999999983
 20
2.559055000000001
 30
0.0
 11
-6.314497999999983
 21
0.0
 31
0.0
  0
LINE
  5
1B6
330
1F
100
AcDbEntity
  8
~BASE~
100
AcDbLine
 10
6.789505555960009
 20
1.510403866539999
 30
0.0
 11
6.73045043785001
 21
1.603564519590002
 31
0.0
  0
LINE
  5
1B7
330
1F
100
AcDbEntity
  8
~BASE~
100
AcDbLine
 10
-6.730449999999987
 20
0.0
 30
0.0
 11
-6.730449999999987
 21
1.603565
 31
0.0
  0
LINE
  5
1B8
330
1F
100
AcDbEntity
  8
~BASE~
100
AcDbLine
 10
-6.189497999999983
 20
2.434055000000001
 30
0.0
 11
-6.189497999999983
 21
0.125
 31
0.0
  0
LINE
  5
1B9
330
1F
100
AcDbEntity
  8
~BASE~
100
AcDbLine
 10
7.61706461108
 20
1.603564519590002
 30
0.0
 11
7.558009492970001
 21
1.510403866539999
 31
0.0
  0
ARC
  5
1BA
330
1F
100
AcDbEntity
  8
~BASE~
100
AcDbCircle
 10
-8.033017000000001
 20
2.434055000000006
 30
0.0
 40
0.1249999999999947
100
AcDbArc
 50
89.99999999999837
 51
180.0000000000024
  0
LINE
  5
1BB
330
1F
100
AcDbEntity
  8
~BASE~
100
AcDbLine
 10
-11.22313099999999
 20
0.0590550000000008
 30
0.0
 11
-11.16407599999999
 21
0.0
 31
0.0
  0
LINE
  5
1BC
330
1F
100
AcDbEntity
  8
~BASE~
100
AcDbLine
 10
6.478816000000002
 20
2.766535999999999
 30
0.0
 11
7.88236700000002
 21
2.766535999999999
 31
0.0
  0
LINE
  5
1BD
330
1F
100
AcDbEntity
  8
~BASE~
100
AcDbLine
 10
11.248013
 20
0.8420260000000006
 30
0.0
 11
11.248013
 21
1.528175999999998
 31
0.0
  0
LINE
  5
1BE
330
1F
100
AcDbEntity
  8
~BASE~
100
AcDbLine
 10
12.28258199999999
 20
2.559055000000001
 30
0.0
 11
12.46664300000001
 21
2.559055000000001
 31
0.0
  0
LINE
  5
1BF
330
1F
100
AcDbEntity
  8
~BASE~
100
AcDbLine
 10
-2.986798999999987
 20
13.427658
 30
0.0
 11
-2.042271613340001
 21
11.49432076631
 31
0.0
  0
LINE
  5
1C0
330
1F
100
AcDbEntity
  8
~BASE~
100
AcDbLine
 10
-2.042271613340001
 20
11.49432076631
 30
0.0
 11
-1.958500389654999
 21
11.38093899793
 31
0.0
  0
LINE
  5
1C1
330
1F
100
AcDbEntity
  8
~BASE~
100
AcDbLine
 10
-1.958500389654999
 20
11.38093899793
 30
0.0
 11
-1.10236299999999
 21
10.524804
 31
0.0
  0
SPLINE
  5
1C2
330
1F
100
AcDbEntity
  8
~BASE~
100
AcDbSpline
210
0.0
220
0.0
230
1.0
 70
     8
 71
     3
 72
    16
 73
    12
 74
     0
 42
0.0000000001
 43
0.0000000001
 40
0.0
 40
0.0
 40
0.0
 40
0.0
 40
0.2341619387177
 40
0.4361470240471
 40
0.6001935609847
 40
0.7271726137984
 40
0.8208191896425
 40
0.8860680961386
 40
0.9277143745084
 40
0.9566562139274
 40
1.0
 40
1.0
 40
1.0
 40
1.0
 10
1.14537778127999
 20
11.20753179183
 30
0.0
 10
1.216607226590021
 20
11.24733866105
 30
0.0
 10
1.350311258020021
 20
11.31968863574
 30
0.0
 10
1.537459866510011
 20
11.41304273954
 30
0.0
 10
1.69433413872
 20
11.48355667217
 30
0.0
 10
1.81917255989001
 20
11.53166482449
 30
0.0
 10
1.915302612870001
 20
11.56113397822
 30
0.0
 10
1.983047486640011
 20
11.57165414347
 30
0.0
 10
2.033940765920001
 20
11.5713998157
 30
0.0
 10
2.061485825960011
 20
11.53505885723
 30
0.0
 10
2.049202656110001
 20
11.50866398483
 30
0.0
 10
2.042634117140011
 20
11.4950632802
 30
0.0
  0
LINE
  5
1C3
330
1F
100
AcDbEntity
  8
~BASE~
100
AcDbLine
 10
10.623123
 20
2.434055000000001
 30
0.0
 11
10.623123
 21
0.125
 31
0.0
  0
LINE
  5
1C4
330
1F
100
AcDbEntity
  8
~BASE~
100
AcDbLine
 10
-1.02294608970001
 20
6.7226909014
 30
0.0
 11
1.022946089700021
 21
6.7226909014
 31
0.0
  0
LINE
  5
1C5
330
1F
100
AcDbEntity
  8
~BASE~
100
AcDbLine
 10
12.294873
 20
2.699549000000001
 30
0.0
 11
12.247867
 21
2.162262000000002
 31
0.0
  0
LINE
  5
1C6
330
1F
100
AcDbEntity
  8
~BASE~
100
AcDbLine
 10
7.617065
 20
0.0
 30
0.0
 11
8.033017000000001
 21
0.0
 31
0.0
  0
LINE
  5
1C7
330
1F
100
AcDbEntity
  8
~BASE~
100
AcDbLine
 10
11.223131
 20
0.0590609999999998
 30
0.0
 11
11.223131
 21
1.510404000000001
 31
0.0
  0
LINE
  5
1C8
330
1F
100
AcDbEntity
  8
~BASE~
100
AcDbLine
 10
1.102363
 20
10.524804
 30
0.0
 11
1.07711000000001
 21
10.524804
 31
0.0
  0
LINE
  5
1C9
330
1F
100
AcDbEntity
  8
~BASE~
100
AcDbLine
 10
7.91460900000002
 20
13.471481
 30
0.0
 11
7.91453400000001
 21
13.471482
 31
0.0
  0
LINE
  5
1CA
330
1F
100
AcDbEntity
  8
~BASE~
100
AcDbLine
 10
11.99163500000001
 20
1.510404000000001
 30
0.0
 11
11.99163500000001
 21
0.0590609999999998
 31
0.0
  0
LINE
  5
1CB
330
1F
100
AcDbEntity
  8
~BASE~
100
AcDbLine
 10
10.92063600000001
 20
2.766535999999999
 30
0.0
 11
12.31602799999999
 21
2.766535999999999
 31
0.0
  0
LINE
  5
1CC
330
1F
100
AcDbEntity
  8
~BASE~
100
AcDbLine
 10
12.05069000000001
 20
0.0
 30
0.0
 11
12.46664300000001
 21
0.0
 31
0.0
  0
SPLINE
  5
1CD
330
1F
100
AcDbEntity
  8
~BASE~
100
AcDbSpline
210
0.0
220
0.0
230
1.0
 70
     8
 71
     3
 72
    12
 73
     8
 74
     0
 42
0.0000000001
 43
0.0000000001
 40
0.0
 40
0.0
 40
0.0
 40
0.0
 40
1.0
 40
2.0
 40
3.0
 40
4.0
 40
5.0
 40
5.0
 40
5.0
 40
5.0
 10
-2.34194990172
 20
4.729964216950002
 30
0.0
 10
-2.24891166113261
 20
4.72355577916553
 30
0.0
 10
-2.063920706769689
 20
4.696962308048541
 30
0.0
 10
-1.792761860245889
 20
4.627773619713771
 30
0.0
 10
-1.52920230764275
 20
4.529954111294916
 30
0.0
 10
-1.2835772067157
 20
4.402255900551779
 30
0.0
 10
-1.138654398458719
 20
4.264480940083022
 30
0.0
 10
-1.138147999999999
 20
4.166142000000001
 30
0.0
  0
LINE
  5
1CE
330
1F
100
AcDbEntity
  8
~BASE~
100
AcDbLine
 10
-10.62312299999999
 20
2.434055000000001
 30
0.0
 11
-10.62312299999999
 21
0.125
 31
0.0
  0
LINE
  5
1CF
330
1F
100
AcDbEntity
  8
~BASE~
100
AcDbLine
 10
6.611735999999979
 20
1.814274000000001
 30
0.0
 11
7.735780000000009
 21
1.814274000000001
 31
0.0
  0
LINE
  5
1D0
330
1F
100
AcDbEntity
  8
~BASE~
100
AcDbLine
 10
0.8818900000000003
 20
9.619292000000002
 30
0.0
 11
0.421530999999991
 21
9.619292000000002
 31
0.0
  0
SPLINE
  5
1D1
330
1F
100
AcDbEntity
  8
~BASE~
100
AcDbSpline
210
0.0
220
0.0
230
1.0
 70
     8
 71
     3
 72
    19
 73
    15
 74
     0
 42
0.0000000001
 43
0.0000000001
 40
0.0
 40
0.0
 40
0.0
 40
0.0
 40
1.0
 40
2.0
 40
3.0
 40
4.0
 40
5.0
 40
6.0
 40
7.0
 40
8.0
 40
9.0
 40
10.0
 40
11.0
 40
12.0
 40
12.0
 40
12.0
 40
12.0
 10
-1.02294608970001
 20
6.7226909014
 30
0.0
 10
-1.341277460972689
 20
6.725051837828964
 30
0.0
 10
-1.96360810434251
 20
6.588448271959781
 30
0.0
 10
-2.872190520260087
 20
6.311658357378441
 30
0.0
 10
-3.786425889050147
 20
6.050474051302096
 30
0.0
 10
-4.700168774297449
 20
5.788655795608754
 30
0.0
 10
-5.614045153597456
 20
5.527012520050409
 30
0.0
 10
-6.527881875935488
 20
5.265309115571892
 30
0.0
 10
-7.441732320622886
 20
5.003632307439126
 30
0.0
 10
-8.35556770433163
 20
4.741909193745176
 30
0.0
 10
-9.26944914490755
 20
4.480344839021168
 30
0.0
 10
-10.1833389852008
 20
4.218810227158649
 30
0.0
 10
-11.09729949966095
 20
3.957522239830254
 30
0.0
 10
-11.70658896166517
 20
3.783269947946049
 30
0.0
 10
-12.01124200000001
 20
3.696172000000001
 30
0.0
  0
ARC
  5
1D2
330
1F
100
AcDbEntity
  8
~BASE~
100
AcDbCircle
 10
-11.90095569207196
 20
3.316200622558969
 30
0.0
 40
0.3956530265154498
100
AcDbArc
 50
106.1853174281256
 51
177.9338821502196
  0
LINE
  5
1D3
330
1F
100
AcDbEntity
  8
~BASE~
100
AcDbLine
 10
-12.29635149999998
 20
3.330465
 30
0.0
 11
-12.316045
 21
2.766535999999999
 31
0.0
  0
LINE
  5
1D4
330
1F
100
AcDbEntity
  8
~BASE~
100
AcDbLine
 10
8.529449
 20
13.471141
 30
0.0
 11
7.91460900000002
 21
13.471481
 31
0.0
  0
LINE
  5
1D5
330
1F
100
AcDbEntity
  8
~BASE~
100
AcDbLine
 10
-12.16940521773
 20
1.814273533049999
 30
0.0
 11
-12.05069029613
 21
1.603564519590002
 31
0.0
  0
LINE
  5
1D6
330
1F
100
AcDbEntity
  8
~BASE~
100
AcDbLine
 10
-12.24799048527001
 20
2.163622138059999
 30
0.0
 11
-12.16940521773
 21
1.814273533049999
 31
0.0
  0
LINE
  5
1D7
330
1F
100
AcDbEntity
  8
~BASE~
100
AcDbLine
 10
12.16940521773001
 20
1.814273533049999
 30
0.0
 11
12.05069029613
 21
1.603564519590002
 31
0.0
  0
LINE
  5
1D8
330
1F
100
AcDbEntity
  8
~BASE~
100
AcDbLine
 10
0.9842599999999795
 20
2.434055000000001
 30
0.0
 11
0.9842599999999795
 21
0.125
 31
0.0
  0
LINE
  5
1D9
330
1F
100
AcDbEntity
  8
~BASE~
100
AcDbLine
 10
9.874534000000011
 20
13.47129
 30
0.0
 11
8.529449
 21
13.471141
 31
0.0
  0
ARC
  5
1DA
330
1F
100
AcDbEntity
  8
~BASE~
100
AcDbCircle
 10
-7.453590010970871
 20
3.313137851180873
 30
0.0
 40
0.4095103905310555
100
AcDbArc
 50
110.3431536445739
 51
177.2710660388497
  0
LINE
  5
1DB
330
1F
100
AcDbEntity
  8
~BASE~
100
AcDbLine
 10
-7.862636000000006
 20
3.332635
 30
0.0
 11
-7.882418999999996
 21
2.766535999999999
 31
0.0
  0
LINE
  5
1DC
330
1F
100
AcDbEntity
  8
~BASE~
100
AcDbLine
 10
7.844622999999991
 20
12.884405
 30
0.0
 11
8.14460399999999
 21
13.164242
 31
0.0
  0
LINE
  5
1DD
330
1F
100
AcDbEntity
  8
~BASE~
100
AcDbLine
 10
10.91989300000001
 20
2.699549000000001
 30
0.0
 11
10.96693600000001
 21
2.161843999999999
 31
0.0
  0
LINE
  5
1DE
330
1F
100
AcDbEntity
  8
~BASE~
100
AcDbLine
 10
0.8153470000000098
 20
4.166142000000001
 30
0.0
 11
1.138135000000011
 21
4.166142000000001
 31
0.0
  0
LINE
  5
1DF
330
1F
100
AcDbEntity
  8
~BASE~
100
AcDbLine
 10
8.694661
 20
13.554242
 30
0.0
 11
8.694718000000002
 21
13.554402
 31
0.0
  0
LINE
  5
1E0
330
1F
100
AcDbEntity
  8
~BASE~
100
AcDbLine
 10
7.861247999999989
 20
2.699549000000001
 30
0.0
 11
7.81424100000001
 21
2.162262000000002
 31
0.0
  0
LINE
  5
1E1
330
1F
100
AcDbEntity
  8
~BASE~
100
AcDbLine
 10
8.69462300000001
 20
13.164242
 30
0.0
 11
8.69467899999998
 21
13.164402
 31
0.0
  0
LINE
  5
1E2
330
1F
100
AcDbEntity
  8
~BASE~
100
AcDbLine
 10
-7.845672000000004
 20
2.716536000000001
 30
0.0
 11
-6.501844000000002
 21
2.716536000000001
 31
0.0
  0
LINE
  5
1E3
330
1F
100
AcDbEntity
  8
~BASE~
100
AcDbLine
 10
2.446428000000001
 20
13.217547
 30
0.0
 11
-2.44642899999999
 21
13.217547
 31
0.0
  0
LINE
  5
1E4
330
1F
100
AcDbEntity
  8
~BASE~
100
AcDbLine
 10
6.73044999999999
 20
0.0
 30
0.0
 11
6.73044999999999
 21
1.603565
 31
0.0
  0
LINE
  5
1E5
330
1F
100
AcDbEntity
  8
~BASE~
100
AcDbLine
 10
-7.714608999999992
 20
13.246775
 30
0.0
 11
-7.714630999999994
 21
13.471775
 31
0.0
  0
ARC
  5
1E6
330
1F
100
AcDbEntity
  8
~BASE~
100
AcDbCircle
 10
-0.8592599999999901
 20
2.434054999999993
 30
0.0
 40
0.1250000000000075
100
AcDbArc
 50
90.00000000000406
 51
179.9999999999965
  0
LINE
  5
1E7
330
1F
100
AcDbEntity
  8
~BASE~
100
AcDbLine
 10
-1.803746000000009
 20
12.561849
 30
0.0
 11
-1.14599000000001
 21
11.2155
 31
0.0
  0
LINE
  5
1E8
330
1F
100
AcDbEntity
  8
~BASE~
100
AcDbLine
 10
-6.789505499999986
 20
0.0590550000000008
 30
0.0
 11
-6.730449999999987
 21
-0.0000004999999987
 31
0.0
  0
LINE
  5
1E9
330
1F
100
AcDbEntity
  8
~BASE~
100
AcDbLine
 10
-8.144603999999983
 20
13.164242
 30
0.0
 11
-8.694623000000004
 21
13.164242
 31
0.0
  0
LINE
  5
1EA
330
1F
100
AcDbEntity
  8
~BASE~
100
AcDbLine
 10
-6.48626723549668
 20
2.699549020605581
 30
0.0
 11
-6.501833000000001
 21
2.716536236396425
 31
0.0
  0
LINE
  5
1EB
330
1F
100
AcDbEntity
  8
~BASE~
100
AcDbLine
 10
-0.8818900000000003
 20
9.619292000000002
 30
0.0
 11
-0.4215309999999803
 21
9.619292000000002
 31
0.0
  0
LINE
  5
1EC
330
1F
100
AcDbEntity
  8
~BASE~
100
AcDbLine
 10
11.392816
 20
2.766535999999999
 30
0.0
 11
11.392816
 21
2.716536000000001
 31
0.0
  0
ARC
  5
1ED
330
1F
100
AcDbEntity
  8
~BASE~
100
AcDbCircle
 10
6.31449799999999
 20
0.1250000000000041
 30
0.0
 40
0.1250000000000041
100
AcDbArc
 50
180.0000000000018
 51
269.9999999999984
  0
LINE
  5
1EE
330
1F
100
AcDbEntity
  8
~BASE~
100
AcDbLine
 10
11.966753
 20
0.8420260000000006
 30
0.0
 11
11.966753
 21
1.528175999999998
 31
0.0
  0
LINE
  5
1EF
330
1F
100
AcDbEntity
  8
~BASE~
100
AcDbLine
 10
-1.10236299999999
 20
10.524804
 30
0.0
 11
-1.077109999999999
 21
10.524804
 31
0.0
  0
LINE
  5
1F0
330
1F
100
AcDbEntity
  8
~BASE~
100
AcDbLine
 10
11.04536120130999
 20
1.814273533049999
 30
0.0
 11
10.96679804674
 21
2.163334469540001
 31
0.0
  0
LINE
  5
1F1
330
1F
100
AcDbEntity
  8
~BASE~
100
AcDbLine
 10
-6.611736000000004
 20
1.814274000000001
 30
0.0
 11
-7.735780000000002
 21
1.814274000000001
 31
0.0
  0
LINE
  5
1F2
330
1F
100
AcDbEntity
  8
~BASE~
100
AcDbLine
 10
-10.920636
 20
2.766535999999999
 30
0.0
 11
-12.31602799999999
 21
2.766535999999999
 31
0.0
  0
ARC
  5
1F3
330
1F
100
AcDbEntity
  8
~BASE~
100
AcDbCircle
 10
8.033017000000019
 20
2.434055000000016
 30
0.0
 40
0.1249999999999849
100
AcDbArc
 50
359.9999999999931
 51
90.00000000000651
  0
ARC
  5
1F4
330
1F
100
AcDbEntity
  8
~BASE~
100
AcDbCircle
 10
-0.859259999999999
 20
0.1250000000000072
 30
0.0
 40
0.1250000000000071
100
AcDbArc
 50
180.0000000000033
 51
269.9999999999968
  0
LINE
  5
1F5
330
1F
100
AcDbEntity
  8
~BASE~
100
AcDbLine
 10
6.78950549999999
 20
0.0590550000000008
 30
0.0
 11
6.73044999999999
 21
-0.0000004999999987
 31
0.0
  0
LINE
  5
1F6
330
1F
100
AcDbEntity
  8
~BASE~
100
AcDbLine
 10
-3.307086999999992
 20
13.427658
 30
0.0
 11
-2.986798999999987
 21
13.427658
 31
0.0
  0
LINE
  5
1F7
330
1F
100
AcDbEntity
  8
~BASE~
100
AcDbLine
 10
7.845672000000011
 20
2.716536000000001
 30
0.0
 11
6.501844000000009
 21
2.716536000000001
 31
0.0
  0
LINE
  5
1F8
330
1F
100
AcDbEntity
  8
~BASE~
100
AcDbLine
 10
0.8818869999999812
 20
9.619288999999998
 30
0.0
 11
0.9816810000000107
 21
9.516957999999999
 31
0.0
  0
LINE
  5
1F9
330
1F
100
AcDbEntity
  8
~BASE~
100
AcDbLine
 10
2.446429
 20
13.217547
 30
0.0
 11
1.80374599999999
 21
12.561849
 31
0.0
  0
ARC
  5
1FA
330
1F
100
AcDbEntity
  8
~BASE~
100
AcDbCircle
 10
0.8592600000000008
 20
0.1249999999999829
 30
0.0
 40
0.124999999999984
100
AcDbArc
 50
269.9999999999927
 51
0.0000000000078114
  0
LINE
  5
1FB
330
1F
100
AcDbEntity
  8
~BASE~
100
AcDbLine
 10
0.675199000000001
 20
2.559055000000001
 30
0.0
 11
0.8592599999999795
 21
2.559055000000001
 31
0.0
  0
ARC
  5
1FC
330
1F
100
AcDbEntity
  8
~BASE~
100
AcDbCircle
 10
-12.466643
 20
2.434054999999997
 30
0.0
 40
0.125000000000004
100
AcDbArc
 50
90.00000000000163
 51
179.9999999999982
  0
LINE
  5
1FD
330
1F
100
AcDbEntity
  8
~BASE~
100
AcDbLine
 10
-7.714608999999992
 20
13.246775
 30
0.0
 11
-7.914511999999998
 21
13.246693
 31
0.0
  0
LINE
  5
1FE
330
1F
100
AcDbEntity
  8
~BASE~
100
AcDbLine
 10
3.39124100000001
 20
13.615355
 30
0.0
 11
3.53887799999999
 21
13.615355
 31
0.0
  0
LINE
  5
1FF
330
1F
100
AcDbEntity
  8
~BASE~
100
AcDbLine
 10
-0.7083000000000101
 20
2.766535999999999
 30
0.0
 11
0.7082989999999896
 21
2.766535999999999
 31
0.0
  0
LINE
  5
200
330
1F
100
AcDbEntity
  8
~BASE~
100
AcDbLine
 10
0.6877320000000111
 20
3.365513
 30
0.0
 11
0.70829999999998
 21
2.766535999999999
 31
0.0
  0
LINE
  5
201
330
1F
100
AcDbEntity
  8
~BASE~
100
AcDbLine
 10
-0.6751989999999903
 20
2.559055000000001
 30
0.0
 11
-0.859259999999999
 21
2.559055000000001
 31
0.0
  0
LINE
  5
202
330
1F
100
AcDbEntity
  8
~BASE~
100
AcDbLine
 10
10.748123
 20
2.559055000000001
 30
0.0
 11
10.93218500000001
 21
2.559055000000001
 31
0.0
  0
LINE
  5
203
330
1F
100
AcDbEntity
  8
~BASE~
100
AcDbLine
 10
-12.28258200000002
 20
2.559055000000001
 30
0.0
 11
-12.466643
 21
2.559055000000001
 31
0.0
  0
ARC
  5
204
330
1F
100
AcDbEntity
  8
~BASE~
100
AcDbCircle
 10
2.406354014854161
 20
2.404666518010712
 30
0.0
 40
2.318779920750438
100
AcDbArc
 50
85.8388346275587
 51
129.6754632152895
  0
LINE
  5
205
330
1F
100
AcDbEntity
  8
~BASE~
100
AcDbLine
 10
2.574609806855001
 20
4.717333876135001
 30
0.0
 11
10.80078644628
 21
3.045418127809999
 31
0.0
  0
LINE
  5
206
330
1F
100
AcDbEntity
  8
~BASE~
100
AcDbLine
 10
10.80078644628
 20
3.045418127809999
 30
0.0
 11
10.924073
 21
2.865670000000001
 31
0.0
  0
LINE
  5
207
330
1F
100
AcDbEntity
  8
~BASE~
100
AcDbLine
 10
-12.27929700000001
 20
2.716536000000001
 30
0.0
 11
-10.93546900000001
 21
2.716536000000001
 31
0.0
  0
ARC
  5
208
330
1F
100
AcDbEntity
  8
~BASE~
100
AcDbCircle
 10
0.1324484957079797
 20
3.25662450322659
 30
0.0
 40
0.5657138631049423
100
AcDbArc
 50
10.99963364178234
 51
103.5400777350595
  0
LINE
  5
209
330
1F
100
AcDbEntity
  8
~BASE~
100
AcDbLine
 10
-6.314497999999983
 20
2.559055000000001
 30
0.0
 11
-6.498558999999997
 21
2.559055000000001
 31
0.0
  0
LINE
  5
20A
330
1F
100
AcDbEntity
  8
~BASE~
100
AcDbLine
 10
-10.74812299999999
 20
2.559055000000001
 30
0.0
 11
-10.932185
 21
2.559055000000001
 31
0.0
  0
ARC
  5
20B
330
1F
100
AcDbEntity
  8
~BASE~
100
AcDbCircle
 10
7.453590010970899
 20
3.313137851180911
 30
0.0
 40
0.4095103905310015
100
AcDbArc
 50
2.72893396114527
 51
69.65684635543111
  0
LINE
  5
20C
330
1F
100
AcDbEntity
  8
~BASE~
100
AcDbLine
 10
7.862635999999981
 20
3.332635
 30
0.0
 11
7.882418999999999
 21
2.766535999999999
 31
0.0
  0
LINE
  5
20D
330
1F
100
AcDbEntity
  8
~BASE~
100
AcDbLine
 10
-0.6719150000000091
 20
2.716536000000001
 30
0.0
 11
0.6719139999999904
 21
2.716536000000001
 31
0.0
  0
LINE
  5
20E
330
1F
100
AcDbEntity
  8
~BASE~
100
AcDbLine
 10
2.986798999999991
 20
13.427658
 30
0.0
 11
2.042271613339981
 21
11.49432076631
 31
0.0
  0
LINE
  5
20F
330
1F
100
AcDbEntity
  8
~BASE~
100
AcDbLine
 10
2.042271613339981
 20
11.49432076631
 30
0.0
 11
1.958500389655001
 21
11.38093899793
 31
0.0
  0
LINE
  5
210
330
1F
100
AcDbEntity
  8
~BASE~
100
AcDbLine
 10
1.958500389655001
 20
11.38093899793
 30
0.0
 11
1.102363
 21
10.524804
 31
0.0
  0
LINE
  5
211
330
1F
100
AcDbEntity
  8
~BASE~
100
AcDbLine
 10
-7.848956000000012
 20
2.559055000000001
 30
0.0
 11
-8.033016999999997
 21
2.559055000000001
 31
0.0
  0
ARC
  5
212
330
1F
100
AcDbEntity
  8
~BASE~
100
AcDbCircle
 10
0.5795153182161812
 20
5.960158123896879
 30
0.0
 40
0.481403575013867
100
AcDbArc
 50
351.1197553143426
 51
81.90984815795352
  0
LINE
  5
213
330
1F
100
AcDbEntity
  8
~BASE~
100
AcDbLine
 10
1.05514838100501
 20
5.885843982455
 30
0.0
 11
0.6952375994999898
 21
3.16573192193
 31
0.0
  0
LINE
  5
214
330
1F
100
AcDbEntity
  8
~BASE~
100
AcDbLine
 10
8.694648
 20
13.471728
 30
0.0
 11
8.694661
 21
13.554242
 31
0.0
  0
LINE
  5
215
330
1F
100
AcDbEntity
  8
~BASE~
100
AcDbLine
 10
7.848956000000019
 20
2.559055000000001
 30
0.0
 11
8.033017000000001
 21
2.559055000000001
 31
0.0
  0
LINE
  5
216
330
1F
100
AcDbEntity
  8
~BASE~
100
AcDbLine
 10
6.31449799999999
 20
2.559055000000001
 30
0.0
 11
6.31449799999999
 21
0.0
 31
0.0
  0
LINE
  5
217
330
1F
100
AcDbEntity
  8
~BASE~
100
AcDbLine
 10
0.6719250000000212
 20
2.716536236396425
 30
0.0
 11
0.687490764503341
 21
2.699549020605581
 31
0.0
  0
ARC
  5
218
330
1F
100
AcDbEntity
  8
~BASE~
100
AcDbCircle
 10
-0.1324484957079903
 20
3.256624503226614
 30
0.0
 40
0.5657138631049169
100
AcDbArc
 50
76.45992226494064
 51
169.0003663582197
  0
LINE
  5
219
330
1F
100
AcDbEntity
  8
~BASE~
100
AcDbLine
 10
1.80374599999999
 20
12.561849
 30
0.0
 11
1.145990000000021
 21
11.2155
 31
0.0
  0
LINE
  5
21A
330
1F
100
AcDbEntity
  8
~BASE~
100
AcDbLine
 10
6.789505999999989
 20
0.0590609999999998
 30
0.0
 11
6.789505999999989
 21
1.510404000000001
 31
0.0
  0
LINE
  5
21B
330
1F
100
AcDbEntity
  8
~BASE~
100
AcDbLine
 10
-7.84462300000001
 20
12.884405
 30
0.0
 11
-8.144603999999983
 21
13.164242
 31
0.0
  0
LINE
  5
21C
330
1F
100
AcDbEntity
  8
~BASE~
100
AcDbLine
 10
-10.92404999999999
 20
2.864996000000001
 30
0.0
 11
-10.920613
 21
2.766535999999999
 31
0.0
  0
LINE
  5
21D
330
1F
100
AcDbEntity
  8
~BASE~
100
AcDbLine
 10
6.31449799999999
 20
2.559055000000001
 30
0.0
 11
6.498559
 21
2.559055000000001
 31
0.0
  0
LINE
  5
21E
330
1F
100
AcDbEntity
  8
~BASE~
100
AcDbLine
 10
6.489932999999979
 20
3.086559000000001
 30
0.0
 11
6.478763999999991
 21
2.766535999999999
 31
0.0
  0
LINE
  5
21F
330
1F
100
AcDbEntity
  8
~BASE~
100
AcDbLine
 10
0.21456699999999
 20
2.766535999999999
 30
0.0
 11
0.21456699999999
 21
2.716536000000001
 31
0.0
  0
LINE
  5
220
330
1F
100
AcDbEntity
  8
~BASE~
100
AcDbLine
 10
8.69469200000001
 20
13.246916
 30
0.0
 11
8.69467899999998
 21
13.164402
 31
0.0
  0
LINE
  5
221
330
1F
100
AcDbEntity
  8
~BASE~
100
AcDbLine
 10
1.891786
 20
4.651389999999999
 30
0.0
 11
6.718562856880002
 21
3.064590183044999
 31
0.0
  0
LINE
  5
222
330
1F
100
AcDbEntity
  8
~BASE~
100
AcDbLine
 10
6.718562856880002
 20
3.064590183044999
 30
0.0
 11
6.997335026859989
 21
2.863356444219999
 31
0.0
  0
LINE
  5
223
330
1F
100
AcDbEntity
  8
~BASE~
100
AcDbLine
 10
-0.6406077484000097
 20
2.163622138059999
 30
0.0
 11
-0.5620224808600103
 21
1.814273533049999
 31
0.0
  0
ARC
  5
224
330
1F
100
AcDbEntity
  8
~BASE~
100
AcDbCircle
 10
-10.748123
 20
2.434054999999991
 30
0.0
 40
0.1250000000000098
100
AcDbArc
 50
0.0000000000044782
 51
89.99999999999511
  0
LINE
  5
225
330
1F
100
AcDbEntity
  8
~BASE~
100
AcDbLine
 10
6.814386999999989
 20
0.8420260000000006
 30
0.0
 11
6.814386999999989
 21
1.528175999999998
 31
0.0
  0
LINE
  5
226
330
1F
100
AcDbEntity
  8
~BASE~
100
AcDbLine
 10
3.010517
 20
13.634005
 30
0.0
 11
2.986798999999991
 21
13.427658
 31
0.0
  0
LINE
  5
227
330
1F
100
AcDbEntity
  8
~BASE~
100
AcDbLine
 10
-6.47881600000002
 20
2.766535999999999
 30
0.0
 11
-7.882367000000013
 21
2.766535999999999
 31
0.0
  0
LINE
  5
228
330
1F
100
AcDbEntity
  8
~BASE~
100
AcDbLine
 10
10.91989323549666
 20
2.699549020605581
 30
0.0
 11
10.93545900000001
 21
2.716536236396425
 31
0.0
  0
SPLINE
  5
229
330
1F
100
AcDbEntity
  8
~BASE~
100
AcDbSpline
210
0.0
220
0.0
230
1.0
 70
     8
 71
     3
 72
    19
 73
    15
 74
     0
 42
0.0000000001
 43
0.0000000001
 40
0.0
 40
0.0
 40
0.0
 40
0.0
 40
0.1235919666214
 40
0.2451043183287
 40
0.3625079393068
 40
0.4738760400769
 40
0.5774394841606
 40
0.6716499905291
 40
0.7552606378014
 40
0.8274447239784
 40
0.8880009336909
 40
0.937747797675
 40
0.9792454826625
 40
1.0
 40
1.0
 40
1.0
 40
1.0
 10
0.0000004726399911
 20
12.33299688516
 30
0.0
 10
0.0536213641599996
 20
12.33299688516
 30
0.0
 10
0.1599749165399995
 20
12.33076782654
 30
0.0
 10
0.3169800351100012
 20
12.32077308052
 30
0.0
 10
0.4681156984400197
 20
12.30432864715
 30
0.0
 10
0.610586531460001
 20
12.2817509192
 30
0.0
 10
0.7417749729999912
 20
12.25347422501
 30
0.0
 10
0.8592950911400195
 20
12.22004220709
 30
0.0
 10
0.9610571777299999
 20
12.18208443348
 30
0.0
 10
1.045346783899991
 20
12.14028657017
 30
0.0
 10
1.110896246220001
 20
12.09522605562
 30
0.0
 10
1.15687590952999
 20
12.04716685055
 30
0.0
 10
1.178512560750001
 20
12.00228729552
 30
0.0
 10
1.18115361880999
 20
11.97497483116
 30
0.0
 10
1.18099095221001
 20
11.96589126526
 30
0.0
  0
LINE
  5
22A
330
1F
100
AcDbEntity
  8
~BASE~
100
AcDbLine
 10
-0.8759849999999805
 20
4.166142000000001
 30
0.0
 11
-0.8759849999999805
 21
2.557811999999998
 31
0.0
  0
LINE
  5
22B
330
1F
100
AcDbEntity
  8
~BASE~
100
AcDbLine
 10
-0.384252
 20
1.510404000000001
 30
0.0
 11
-0.384252
 21
0.0590609999999998
 31
0.0
  0
LINE
  5
22C
330
1F
100
AcDbEntity
  8
~BASE~
100
AcDbLine
 10
-3.010517000000018
 20
13.634005
 30
0.0
 11
-2.986798999999987
 21
13.427658
 31
0.0
  0
ARC
  5
22D
330
1F
100
AcDbEntity
  8
~BASE~
100
AcDbCircle
 10
-10.94116422028965
 20
2.88847960116497
 30
0.0
 40
0.484469800579816
100
AcDbArc
 50
131.3886915989347
 51
194.5784441514511
  0
SPLINE
  5
22E
330
1F
100
AcDbEntity
  8
~BASE~
100
AcDbSpline
210
0.0
220
0.0
230
1.0
 70
     8
 71
     3
 72
    14
 73
    10
 74
     0
 42
0.0000000001
 43
0.0000000001
 40
0.0
 40
0.0
 40
0.0
 40
0.0
 40
1.0
 40
2.0
 40
3.0
 40
4.0
 40
5.0
 40
6.0
 40
7.0
 40
7.0
 40
7.0
 40
7.0
 10
-11.261478116515
 20
3.251948988540001
 30
0.0
 10
-10.78561232151622
 20
3.413754867869647
 30
0.0
 10
-9.80813046803345
 20
3.67354500673239
 30
0.0
 10
-8.35257583666785
 20
4.08942133634804
 30
0.0
 10
-6.89347698804988
 20
4.497550052257092
 30
0.0
 10
-5.434288719156282
 20
4.897675052305334
 30
0.0
 10
-3.9746738556405
 20
5.322010031496397
 30
0.0
 10
-2.51874275410486
 20
5.664125288711947
 30
0.0
 10
-1.52455337310246
 20
6.044233048359406
 30
0.0
 10
-1.055150641039999
 20
5.88586085499
 30
0.0
  0
LINE
  5
22F
330
1F
100
AcDbEntity
  8
~BASE~
100
AcDbLine
 10
-0.3593710000000101
 20
0.8420260000000006
 30
0.0
 11
-0.3593710000000101
 21
1.528175999999998
 31
0.0
  0
LINE
  5
230
330
1F
100
AcDbEntity
  8
~BASE~
100
AcDbLine
 10
7.735779532670001
 20
1.814273533049999
 30
0.0
 11
7.61706461108
 21
1.603564519590002
 31
0.0
  0
ARC
  5
231
330
1F
100
AcDbEntity
  8
~BASE~
100
AcDbCircle
 10
7.173757524460001
 20
2.050758743568547
 30
0.0
 40
0.6342236987375292
100
AcDbArc
 50
235.4844523428081
 51
304.5155476571916
  0
LINE
  5
232
330
1F
100
AcDbEntity
  8
~BASE~
100
AcDbLine
 10
7.814364800210001
 20
2.163622138059999
 30
0.0
 11
7.735779532670001
 21
1.814273533049999
 31
0.0
  0
LINE
  5
233
330
1F
100
AcDbEntity
  8
~BASE~
100
AcDbLine
 10
11.223131
 20
0.0590550000000008
 30
0.0
 11
11.164076
 21
0.0
 31
0.0
  0
ARC
  5
234
330
1F
100
AcDbEntity
  8
~BASE~
100
AcDbCircle
 10
6.31449799999999
 20
2.434054999999996
 30
0.0
 40
0.1250000000000036
100
AcDbArc
 50
90.00000000000163
 51
179.999999999998
  0
LINE
  5
235
330
1F
100
AcDbEntity
  8
~BASE~
100
AcDbLine
 10
7.91460900000002
 20
13.471692
 30
0.0
 11
7.714631000000001
 21
13.471775
 31
0.0
  0
LINE
  5
236
330
1F
100
AcDbEntity
  8
~BASE~
100
AcDbLine
 10
10.748123
 20
0.0
 30
0.0
 11
11.164076
 21
0.0
 31
0.0
  0
LINE
  5
237
330
1F
100
AcDbEntity
  8
~BASE~
100
AcDbLine
 10
6.486267235496662
 20
2.699549020605581
 30
0.0
 11
6.501833000000012
 21
2.716536236396425
 31
0.0
  0
LINE
  5
238
330
1F
100
AcDbEntity
  8
~BASE~
100
AcDbLine
 10
10.92405
 20
2.864996000000001
 30
0.0
 11
10.92061300000001
 21
2.766535999999999
 31
0.0
  0
SPLINE
  5
239
330
1F
100
AcDbEntity
  8
~BASE~
100
AcDbSpline
210
0.0
220
0.0
230
1.0
 70
     8
 71
     3
 72
    16
 73
    12
 74
     0
 42
0.0000000001
 43
0.0000000001
 40
0.0
 40
0.0
 40
0.0
 40
0.0
 40
0.2341619387177
 40
0.4361470240471
 40
0.6001935609847
 40
0.7271726137984
 40
0.8208191896425
 40
0.8860680961386
 40
0.9277143745084
 40
0.9566562139274
 40
1.0
 40
1.0
 40
1.0
 40
1.0
 10
-1.14537778128002
 20
11.20753179183
 30
0.0
 10
-1.216607226590011
 20
11.24733866105
 30
0.0
 10
-1.35031125802001
 20
11.31968863574
 30
0.0
 10
-1.53745986651
 20
11.41304273954
 30
0.0
 10
-1.69433413871999
 20
11.48355667217
 30
0.0
 10
-1.819172559889999
 20
11.53166482449
 30
0.0
 10
-1.91530261287002
 20
11.56113397822
 30
0.0
 10
-1.98304748664
 20
11.57165414347
 30
0.0
 10
-2.03394076591999
 20
11.5713998157
 30
0.0
 10
-2.06148582596
 20
11.53505885723
 30
0.0
 10
-2.049202656109991
 20
11.50866398483
 30
0.0
 10
-2.042634117140009
 20
11.4950632802
 30
0.0
  0
LINE
  5
23A
330
1F
100
AcDbEntity
  8
~BASE~
100
AcDbLine
 10
0.6874909999999996
 20
2.699549000000001
 30
0.0
 11
0.6404839999999901
 21
2.162262000000002
 31
0.0
  0
LINE
  5
23B
330
1F
100
AcDbEntity
  8
~BASE~
100
AcDbLine
 10
6.486267000000002
 20
2.699549000000001
 30
0.0
 11
6.53331
 21
2.161843999999999
 31
0.0
  0
SPLINE
  5
23C
330
1F
100
AcDbEntity
  8
~BASE~
100
AcDbSpline
210
0.0
220
0.0
230
1.0
 70
     8
 71
     3
 72
    12
 73
     8
 74
     0
 42
0.0000000001
 43
0.0000000001
 40
0.0
 40
0.0
 40
0.0
 40
0.0
 40
1.0
 40
2.0
 40
3.0
 40
4.0
 40
5.0
 40
5.0
 40
5.0
 40
5.0
 10
2.34194990172
 20
4.729964216950002
 30
0.0
 10
2.24891166113261
 20
4.72355577916553
 30
0.0
 10
2.0639207067697
 20
4.696962308048541
 30
0.0
 10
1.792761860245891
 20
4.627773619713771
 30
0.0
 10
1.52920230764275
 20
4.529954111294916
 30
0.0
 10
1.283577206715711
 20
4.402255900551779
 30
0.0
 10
1.1386543984587
 20
4.264480940083022
 30
0.0
 10
1.138148000000001
 20
4.166142000000001
 30
0.0
  0
LINE
  5
23D
330
1F
100
AcDbEntity
  8
~BASE~
100
AcDbLine
 10
-1.891785999999989
 20
4.651389999999999
 30
0.0
 11
-6.718562856879995
 21
3.064590183044999
 31
0.0
  0
LINE
  5
23E
330
1F
100
AcDbEntity
  8
~BASE~
100
AcDbLine
 10
-6.718562856879995
 20
3.064590183044999
 30
0.0
 11
-6.997335026859982
 21
2.863356444219999
 31
0.0
  0
ARC
  5
23F
330
1F
100
AcDbEntity
  8
~BASE~
100
AcDbCircle
 10
10.9411632670597
 20
2.888479601164981
 30
0.0
 40
0.484469800579816
100
AcDbArc
 50
345.4215558485475
 51
48.61130840106343
  0
SPLINE
  5
240
330
1F
100
AcDbEntity
  8
~BASE~
100
AcDbSpline
210
0.0
220
0.0
230
1.0
 70
     8
 71
     3
 72
    14
 73
    10
 74
     0
 42
0.0000000001
 43
0.0000000001
 40
0.0
 40
0.0
 40
0.0
 40
0.0
 40
1.0
 40
2.0
 40
3.0
 40
4.0
 40
5.0
 40
6.0
 40
7.0
 40
7.0
 40
7.0
 40
7.0
 10
11.26147716328507
 20
3.251948988540001
 30
0.0
 10
10.78561136828629
 20
3.413754867869647
 30
0.0
 10
9.80812951480354
 20
3.67354500673239
 30
0.0
 10
8.352574883437882
 20
4.08942133634804
 30
0.0
 10
6.89347603481994
 20
4.497550052257092
 30
0.0
 10
5.434287765926321
 20
4.897675052305334
 30
0.0
 10
3.97467290241056
 20
5.322010031496397
 30
0.0
 10
2.518741800874921
 20
5.664125288711947
 30
0.0
 10
1.524552419872501
 20
6.044233048359406
 30
0.0
 10
1.05514968781006
 20
5.88586085499
 30
0.0
  0
LINE
  5
241
330
1F
100
AcDbEntity
  8
~BASE~
100
AcDbLine
 10
-12.05069029613
 20
1.603564519590002
 30
0.0
 11
-11.99163517802
 21
1.510403866539999
 31
0.0
  0
LINE
  5
242
330
1F
100
AcDbEntity
  8
~BASE~
100
AcDbLine
 10
-11.04536120130998
 20
1.814273533049999
 30
0.0
 11
-10.96679804673999
 21
2.163334469540001
 31
0.0
  0
LINE
  5
243
330
1F
100
AcDbEntity
  8
~BASE~
100
AcDbLine
 10
0.6406077484000203
 20
2.163622138059999
 30
0.0
 11
0.5620224808600103
 21
1.814273533049999
 31
0.0
  0
ARC
  5
244
330
1F
100
AcDbEntity
  8
~BASE~
100
AcDbCircle
 10
-0.0000004726400089
 20
2.050758743568553
 30
0.0
 40
0.6342236987375338
100
AcDbArc
 50
235.4844523428085
 51
304.5155476571915
  0
LINE
  5
245
330
1F
100
AcDbEntity
  8
~BASE~
100
AcDbLine
 10
12.59164300000001
 20
2.434055000000001
 30
0.0
 11
12.59164300000001
 21
0.125
 31
0.0
  0
LINE
  5
246
330
1F
100
AcDbEntity
  8
~BASE~
100
AcDbLine
 10
6.814386999999989
 20
0.8420279999999991
 30
0.0
 11
7.533128000000012
 21
0.8420279999999991
 31
0.0
  0
ARC
  5
247
330
1F
100
AcDbEntity
  8
~BASE~
100
AcDbCircle
 10
-2.406354014854159
 20
2.404666518010696
 30
0.0
 40
2.318779920750456
100
AcDbArc
 50
50.32453678471062
 51
94.16116537244174
  0
LINE
  5
248
330
1F
100
AcDbEntity
  8
~BASE~
100
AcDbLine
 10
-2.574609806855019
 20
4.717333876135001
 30
0.0
 11
-10.80078644628
 21
3.045418127809999
 31
0.0
  0
LINE
  5
249
330
1F
100
AcDbEntity
  8
~BASE~
100
AcDbLine
 10
-10.80078644628
 20
3.045418127809999
 30
0.0
 11
-10.92407299999999
 21
2.865670000000001
 31
0.0
  0
LINE
  5
24A
330
1F
100
AcDbEntity
  8
~BASE~
100
AcDbLine
 10
6.60001305450001
 20
2.863356318769998
 30
0.0
 11
6.608180778290009
 21
3.045418324300002
 31
0.0
  0
LINE
  5
24B
330
1F
100
AcDbEntity
  8
~BASE~
100
AcDbLine
 10
6.608180778290009
 20
3.045418324300002
 30
0.0
 11
6.55675915744499
 21
3.064590183044999
 31
0.0
  0
LINE
  5
24C
330
1F
100
AcDbEntity
  8
~BASE~
100
AcDbLine
 10
6.55675915744499
 20
3.064590183044999
 30
0.0
 11
1.805614999999991
 21
4.626526000000002
 31
0.0
  0
LINE
  5
24D
330
1F
100
AcDbEntity
  8
~BASE~
100
AcDbLine
 10
7.714608999999999
 20
13.246775
 30
0.0
 11
7.714631000000001
 21
13.471775
 31
0.0
  0
LINE
  5
24E
330
1F
100
AcDbEntity
  8
~BASE~
100
AcDbLine
 10
8.144642000000012
 20
13.554242
 30
0.0
 11
7.84471700000001
 21
13.834405
 31
0.0
  0
LINE
  5
24F
330
1F
100
AcDbEntity
  8
~BASE~
100
AcDbLine
 10
0.3842520000000107
 20
1.510404000000001
 30
0.0
 11
0.3842520000000107
 21
0.0590609999999998
 31
0.0
  0
LINE
  5
250
330
1F
100
AcDbEntity
  8
~BASE~
100
AcDbLine
 10
-2.744624000000012
 20
12.884905
 30
0.0
 11
-7.844635000000007
 21
12.884405
 31
0.0
  0
LINE
  5
251
330
1F
100
AcDbEntity
  8
~BASE~
100
AcDbLine
 10
12.05069000000001
 20
0.0
 30
0.0
 11
11.99163500000001
 21
0.0590550000000007
 31
0.0
  0
SPLINE
  5
252
330
1F
100
AcDbEntity
  8
~BASE~
100
AcDbSpline
210
0.0
220
0.0
230
1.0
 70
     8
 71
     3
 72
    19
 73
    15
 74
     0
 42
0.0000000001
 43
0.0000000001
 40
0.0
 40
0.0
 40
0.0
 40
0.0
 40
0.1011763222572
 40
0.2232144367775
 40
0.3481954240116
 40
0.4667307689401
 40
0.576165643506
 40
0.6750207307125
 40
0.7614810123431
 40
0.8349355497899
 40
0.8952186339714
 40
0.9440277832864
 40
0.9855573206089
 40
1.0
 40
1.0
 40
1.0
 40
1.0
 10
0.0000004726399911
 20
10.2732567463
 30
0.0
 10
0.0374220789699997
 20
10.2732567463
 30
0.0
 10
0.1199877441800101
 20
10.27181949255
 30
0.0
 10
0.2486085372200098
 20
10.26455363124
 30
0.0
 10
0.3831583072700102
 20
10.25069929214
 30
0.0
 10
0.512213604430011
 20
10.23060495602
 30
0.0
 10
0.6304306028099802
 20
10.20497886796
 30
0.0
 10
0.7351968358899796
 20
10.17442963664
 30
0.0
 10
0.8245059475100103
 20
10.13958817522
 30
0.0
 10
0.8966303168699898
 20
10.10119057466
 30
0.0
 10
0.9504416790699999
 20
10.05971954588
 30
0.0
 10
0.9852839713400101
 20
10.01503083324
 30
0.0
 10
0.9954866921899903
 20
9.97612630459
 30
0.0
 10
0.9935913172500097
 20
9.955344243910002
 30
0.0
 10
0.9926756993799906
 20
9.950041687679999
 30
0.0
  0
LINE
  5
253
330
1F
100
AcDbEntity
  8
~BASE~
100
AcDbLine
 10
-3.391241000000004
 20
13.615355
 30
0.0
 11
-3.538878000000008
 21
13.615355
 31
0.0
  0
LINE
  5
254
330
1F
100
AcDbEntity
  8
~BASE~
100
AcDbLine
 10
0.5620224808600103
 20
1.814273533049999
 30
0.0
 11
0.4433075592599796
 21
1.603564519590002
 31
0.0
  0
LINE
  5
255
330
1F
100
AcDbEntity
  8
~BASE~
100
AcDbLine
 10
-8.158016999999997
 20
2.434055000000001
 30
0.0
 11
-8.158016999999997
 21
0.125
 31
0.0
  0
LINE
  5
256
330
1F
100
AcDbEntity
  8
~BASE~
100
AcDbLine
 10
-3.307086999999992
 20
14.383071
 30
0.0
 11
3.307086
 21
14.383071
 31
0.0
  0
LINE
  5
257
330
1F
100
AcDbEntity
  8
~BASE~
100
AcDbLine
 10
-0.984259999999999
 20
2.434055000000001
 30
0.0
 11
-0.984259999999999
 21
0.125
 31
0.0
  0
LINE
  5
258
330
1F
100
AcDbEntity
  8
~BASE~
100
AcDbLine
 10
-7.617064999999993
 20
0.0
 30
0.0
 11
-8.033016999999997
 21
0.0
 31
0.0
  0
LINE
  5
259
330
1F
100
AcDbEntity
  8
~BASE~
100
AcDbLine
 10
-10.919893
 20
2.699549000000001
 30
0.0
 11
-10.966936
 21
2.161843999999999
 31
0.0
  0
LINE
  5
25A
330
1F
100
AcDbEntity
  8
~BASE~
100
AcDbLine
 10
-7.914609000000009
 20
13.471692
 30
0.0
 11
-7.714630999999994
 21
13.471775
 31
0.0
  0
LINE
  5
25B
330
1F
100
AcDbEntity
  8
~BASE~
100
AcDbLine
 10
3.53887799999999
 20
13.834828
 30
0.0
 11
7.84471700000001
 21
13.834405
 31
0.0
  0
LINE
  5
25C
330
1F
100
AcDbEntity
  8
~BASE~
100
AcDbLine
 10
-1.803746000000009
 20
12.561849
 30
0.0
 11
1.803745000000001
 21
12.561849
 31
0.0
  0
LINE
  5
25D
330
1F
100
AcDbEntity
  8
~BASE~
100
AcDbLine
 10
6.73045043785001
 20
1.603564519590002
 30
0.0
 11
6.611735516249979
 21
1.814273533049999
 31
0.0
  0
ARC
  5
25E
330
1F
100
AcDbEntity
  8
~BASE~
100
AcDbCircle
 10
10.748123
 20
0.1250000000000071
 30
0.0
 40
0.1250000000000071
100
AcDbArc
 50
180.0000000000033
 51
269.9999999999968
  0
LINE
  5
25F
330
1F
100
AcDbEntity
  8
~BASE~
100
AcDbLine
 10
12.279308
 20
2.716535738299618
 30
0.0
 11
12.29487326070418
 21
2.699548977187338
 31
0.0
  0
LINE
  5
260
330
1F
100
AcDbEntity
  8
~BASE~
100
AcDbLine
 10
6.31449799999999
 20
0.0
 30
0.0
 11
6.73044999999999
 21
0.0
 31
0.0
  0
LINE
  5
261
330
1F
100
AcDbEntity
  8
~BASE~
100
AcDbLine
 10
0.4433080000000107
 20
0.0
 30
0.0
 11
0.8592599999999795
 21
0.0
 31
0.0
  0
LINE
  5
262
330
1F
100
AcDbEntity
  8
~BASE~
100
AcDbLine
 10
7.617065
 20
1.603565
 30
0.0
 11
7.617065
 21
0.0
 31
0.0
  0
LINE
  5
263
330
1F
100
AcDbEntity
  8
~BASE~
100
AcDbLine
 10
11.248013
 20
0.8420279999999991
 30
0.0
 11
11.966753
 21
0.8420279999999991
 31
0.0
  0
SPLINE
  5
264
330
1F
100
AcDbEntity
  8
~BASE~
100
AcDbSpline
210
0.0
220
0.0
230
1.0
 70
     8
 71
     3
 72
    24
 73
    20
 74
     0
 42
0.0000000001
 43
0.0000000001
 40
0.0
 40
0.0
 40
0.0
 40
0.0
 40
0.07715671941002
 40
0.1702225681787
 40
0.2655326468086
 40
0.3559272967056
 40
0.4393819603914
 40
0.5147685145828
 40
0.5807028313599
 40
0.6367190125566
 40
0.6826906877213
 40
0.7199123792478
 40
0.7515826633142
 40
0.7832529474155
 40
0.8204746391833
 40
0.8664463143469
 40
0.9224624960007
 40
0.9883968126878
 40
1.0
 40
1.0
 40
1.0
 40
1.0
 10
0.0000004726399911
 20
10.16913266352
 30
0.0
 10
0.03493480489999
 20
10.16913266352
 30
0.0
 10
0.1120126385500004
 20
10.16779094048
 30
0.0
 10
0.2320844876199999
 20
10.16100799369
 30
0.0
 10
0.3576912400300003
 20
10.14807452431
 30
0.0
 10
0.4781687142600006
 20
10.12931577296
 30
0.0
 10
0.5885282716999996
 20
10.10539295835
 30
0.0
 10
0.686331086580001
 20
10.07687422145
 30
0.0
 10
0.7697041558600208
 20
10.0443485401
 30
0.0
 10
0.83703468970001
 20
10.00850308599
 30
0.0
 10
0.8872694120400197
 20
9.969788480480002
 30
0.0
 10
0.9197958683099898
 20
9.928070059629999
 30
0.0
 10
0.9317826370400208
 20
9.882362684450001
 30
0.0
 10
0.9197958682200102
 20
9.836655309240001
 30
0.0
 10
0.8872694122299905
 20
9.79493688797
 30
0.0
 10
0.8370346893300109
 20
9.75622228273
 30
0.0
 10
0.7697041563700111
 20
9.72037682665
 30
0.0
 10
0.7132789658200007
 20
9.69836411087
 30
0.0
 10
0.6799831034300095
 20
9.687198464529999
 30
0.0
 10
0.674989330389991
 20
9.685562185639998
 30
0.0
  0
LINE
  5
265
330
1F
100
AcDbEntity
  8
~BASE~
100
AcDbLine
 10
11.82195
 20
2.766535999999999
 30
0.0
 11
11.82195
 21
2.716536000000001
 31
0.0
  0
LINE
  5
266
330
1F
100
AcDbEntity
  8
~BASE~
100
AcDbLine
 10
-0.9816839999999996
 20
9.516962
 30
0.0
 11
0.981683000000011
 21
9.516962
 31
0.0
  0
LINE
  5
267
330
1F
100
AcDbEntity
  8
~BASE~
100
AcDbLine
 10
-8.529448999999996
 20
13.471141
 30
0.0
 11
-7.914609000000009
 21
13.471481
 31
0.0
  0
ARC
  5
268
330
1F
100
AcDbEntity
  8
~BASE~
100
AcDbCircle
 10
12.46664300000001
 20
2.434055000000003
 30
0.0
 40
0.1249999999999978
100
AcDbArc
 50
359.999999999999
 51
90.00000000000163
  0
ARC
  5
269
330
1F
100
AcDbEntity
  8
~BASE~
100
AcDbCircle
 10
8.033017000000012
 20
0.1249999999999883
 30
0.0
 40
0.1249999999999893
100
AcDbArc
 50
269.9999999999951
 51
0.0000000000053879
  0
LINE
  5
26A
330
1F
100
AcDbEntity
  8
~BASE~
100
AcDbLine
 10
7.714608999999999
 20
13.246775
 30
0.0
 11
7.914512000000009
 21
13.246693
 31
0.0
  0
ARC
  5
26B
330
1F
100
AcDbEntity
  8
~BASE~
100
AcDbCircle
 10
10.748123
 20
2.434054999999994
 30
0.0
 40
0.1250000000000071
100
AcDbArc
 50
90.00000000000325
 51
179.9999999999967
  0
ARC
  5
26C
330
1F
100
AcDbEntity
  8
~BASE~
100
AcDbCircle
 10
0.8592600000000008
 20
2.434055000000019
 30
0.0
 40
0.1249999999999822
100
AcDbArc
 50
359.9999999999919
 51
90.00000000000809
  0
SPLINE
  5
26D
330
1F
100
AcDbEntity
  8
~BASE~
100
AcDbSpline
210
0.0
220
0.0
230
1.0
 70
     8
 71
     3
 72
    17
 73
    13
 74
     0
 42
0.0000000001
 43
0.0000000001
 40
-9.070190949915649
 40
-9.070190949915649
 40
-9.070190949915649
 40
-9.070190949915649
 40
-6.322757909143128
 40
-3.575324868364222
 40
-1.787662434182702
 40
-0.0000000000011824
 40
-0.0000000000011824
 40
-0.0000000000011824
 40
1.78766243418034
 40
3.575324868361859
 40
6.322757909140766
 40
9.070190949915649
 40
9.070190949915649
 40
9.070190949915649
 40
9.070190949915649
 10
10.16669665690276
 20
19.73357630679957
 30
0.0
 10
8.138497774274398
 20
19.6905259143931
 30
0.0
 10
6.311557887389867
 20
19.5457189545065
 30
0.0
 10
3.894700273076078
 20
19.3164652991344
 30
0.0
 10
1.786632195815555
 20
19.26141591048707
 30
0.0
 10
0.5951909882531896
 20
19.24995450486979
 30
0.0
 10
-0.0006962016422998
 20
19.24936847811253
 30
0.0
 10
-0.5965833915377896
 20
19.24995450486979
 30
0.0
 10
-1.788024599100154
 20
19.26141591048707
 30
0.0
 10
-3.896092676360678
 20
19.3164652991344
 30
0.0
 10
-6.312950290675251
 20
19.54571895450658
 30
0.0
 10
-8.139890177560568
 20
19.69052591439323
 30
0.0
 10
-10.16628265112483
 20
19.73333211463542
 30
0.0
  0
SPLINE
  5
26E
330
1F
100
AcDbEntity
  8
~BASE~
100
AcDbSpline
210
0.0
220
0.0
230
1.0
 70
     8
 71
     3
 72
    15
 73
    11
 74
     0
 42
0.0000000001
 43
0.0000000001
 40
0.0332964096315375
 40
0.0332964096315375
 40
0.0332964096315375
 40
0.0332964096315375
 40
0.0579166928156318
 40
0.0968883896079484
 40
0.1537212548218283
 40
0.3368369362078547
 40
0.6251943296702671
 40
1.057395425061857
 40
2.632165551462033
 40
4.047958408565327
 40
4.047958408565327
 40
4.047958408565327
 40
4.047958408565327
 10
-10.16628265112483
 20
19.73333211463542
 30
0.0
 10
-10.17444355063041
 20
19.73333211463724
 30
0.0
 10
-10.19551069518795
 20
19.72688527832106
 30
0.0
 10
-10.22209137770124
 20
19.69522198599838
 30
0.0
 10
-10.25721329728289
 20
19.6087398068293
 30
0.0
 10
-10.2891221815441
 20
19.43496672400596
 30
0.0
 10
-10.32091095060035
 20
19.13548832316729
 30
0.0
 10
-10.36835615444546
 20
18.37169755209845
 30
0.0
 10
-10.40907357883713
 20
17.2314787514004
 30
0.0
 10
-10.42262391428236
 20
16.23458846411051
 30
0.0
 10
-10.41585140007726
 20
15.76267362135773
 30
0.0
  0
ARC
  5
26F
330
1F
100
AcDbEntity
  8
~BASE~
100
AcDbCircle
 10
-0.0000000004633143
 20
64.34361038208748
 30
0.0
 40
49.68498140211852
100
AcDbArc
 50
257.8988713277213
 51
282.1011286722787
  0
SPLINE
  5
270
330
1F
100
AcDbEntity
  8
~BASE~
100
AcDbSpline
210
0.0
220
0.0
230
1.0
 70
     8
 71
     3
 72
    15
 73
    11
 74
     0
 42
0.0000000001
 43
0.0000000001
 40
-4.051229168612418
 40
-4.051229168612418
 40
-4.051229168612418
 40
-4.051229168612418
 40
-2.634850693212754
 40
-1.053398622249581
 40
-0.6169391226135019
 40
-0.3385465479750447
 40
-0.1565372743140001
 40
-0.1024123764752158
 40
-0.0617420070049151
 40
-0.0365868703707371
 40
-0.0365868703707371
 40
-0.0365868703707371
 40
-0.0365868703707371
 10
10.41585139915063
 20
15.76267362135773
 30
0.0
 10
10.42264130949863
 20
16.23478416597154
 30
0.0
 10
10.4089840518384
 20
17.2340941974591
 30
0.0
 10
10.3681391622808
 20
18.37815604179987
 30
0.0
 10
10.32042303907905
 20
19.14226263669815
 30
0.0
 10
10.28845560487722
 20
19.43944242826472
 30
0.0
 10
10.25717987016837
 20
19.60866794888113
 30
0.0
 10
10.22233488526663
 20
19.69440670767492
 30
0.0
 10
10.19676342979142
 20
19.72683551877697
 30
0.0
 10
10.17501523682911
 20
19.73357630680249
 30
0.0
 10
10.16669665690276
 20
19.73357630679957
 30
0.0
  0
SPLINE
  5
271
330
1F
100
AcDbEntity
  8
SLOPED ARM
100
AcDbSpline
210
0.0
220
0.0
230
1.0
 70
     8
 71
     3
 72
    13
 73
     9
 74
     0
 42
0.0000000001
 43
0.0000000001
 40
0.0
 40
0.0
 40
0.0
 40
0.0
 40
1.0
 40
2.0
 40
3.0
 40
4.0
 40
5.0
 40
6.0
 40
6.0
 40
6.0
 40
6.0
 10
11.99904940576785
 20
25.59183367406922
 30
0.0
 10
11.99858634674247
 20
25.17083225640732
 30
0.0
 10
11.9232429541037
 20
24.33237025830467
 30
0.0
 10
11.83316723691019
 20
23.07372367098906
 30
0.0
 10
11.73750579663702
 20
21.81528999926027
 30
0.0
 10
11.64406169123933
 20
20.55674666527529
 30
0.0
 10
11.5502847546722
 20
19.29821230721222
 30
0.0
 10
11.48792720356918
 20
18.45918046644653
 30
0.0
 10
11.45674273156538
 20
18.03966442895246
 30
0.0
  0
SPLINE
  5
272
330
1F
100
AcDbEntity
  8
SLOPED ARM
100
AcDbSpline
210
0.0
220
0.0
230
1.0
 70
     8
 71
     3
 72
     8
 73
     4
 74
     0
 42
0.0000000001
 43
0.0000000001
 40
-1.0
 40
-1.0
 40
-1.0
 40
-1.0
 40
0.0
 40
0.0
 40
0.0
 40
0.0
 10
11.45674273156538
 20
18.03966442895246
 30
0.0
 10
11.42661404095194
 20
17.634351525162
 30
0.0
 10
11.40829643621226
 20
17.11904399210103
 30
0.0
 10
11.15993026412529
 20
16.86483027792704
 30
0.0
  0
SPLINE
  5
273
330
1F
100
AcDbEntity
  8
SLOPED ARM
100
AcDbSpline
210
0.0
220
0.0
230
1.0
 70
     8
 71
     3
 72
     9
 73
     5
 74
     0
 42
0.0000000001
 43
0.0000000001
 40
0.0
 40
0.0
 40
0.0
 40
0.0
 40
1.0
 40
2.0
 40
2.0
 40
2.0
 40
2.0
 10
11.15993026412529
 20
16.86483027792704
 30
0.0
 10
11.06617184976597
 20
16.76866106753749
 30
0.0
 10
10.81021470395504
 20
16.67755120140135
 30
0.0
 10
10.54676616443943
 20
16.6646783645817
 30
0.0
 10
10.41492872988074
 20
16.66003470828994
 30
0.0
  0
SPLINE
  5
274
330
1F
100
AcDbEntity
  8
SLOPED ARM
100
AcDbSpline
210
0.0
220
0.0
230
1.0
 70
     8
 71
     3
 72
     8
 73
     4
 74
     0
 42
0.0000000001
 43
0.0000000001
 40
0.0
 40
0.0
 40
0.0
 40
0.0
 40
1.0
 40
1.0
 40
1.0
 40
1.0
 10
9.626685606595665
 20
27.98297464273274
 30
0.0
 10
9.53389495943848
 20
28.11220608425721
 30
0.0
 10
9.598606243557118
 20
28.36383712044842
 30
0.0
 10
9.784576274918152
 20
28.37154575833107
 30
0.0
  0
SPLINE
  5
275
330
1F
100
AcDbEntity
  8
SLOPED ARM
100
AcDbSpline
210
0.0
220
0.0
230
1.0
 70
    12
 71
     2
 72
     6
 73
     3
 74
     0
 42
0.0000000001
 43
0.0000000001
 40
-1.51533677192614
 40
-1.51533677192614
 40
-1.51533677192614
 40
0.0
 40
0.0
 40
0.0
 10
9.784576274918152
 20
28.37154575833107
 30
0.0
 41
1.0
 10
10.55730691800504
 20
28.37869756446147
 30
0.0
 41
0.9999730433517859
 10
11.33205300002698
 20
28.37327913802028
 30
0.0
 41
1.0
  0
SPLINE
  5
276
330
1F
100
AcDbEntity
  8
SLOPED ARM
100
AcDbSpline
210
0.0
220
0.0
230
1.0
 70
     8
 71
     3
 72
    14
 73
    10
 74
     0
 42
0.0000000001
 43
0.0000000001
 40
0.0
 40
0.0
 40
0.0
 40
0.0
 40
1.0
 40
2.0
 40
3.0
 40
4.0
 40
5.0
 40
6.0
 40
7.0
 40
7.0
 40
7.0
 40
7.0
 10
11.33205300002698
 20
28.37327913802028
 30
0.0
 10
11.40908274725572
 20
28.36801685974299
 30
0.0
 10
11.53933087963444
 20
28.28099476248066
 30
0.0
 10
11.70022918303509
 20
28.1210493862316
 30
0.0
 10
11.82531030158361
 20
27.92939020526233
 30
0.0
 10
11.92669367000864
 20
27.72565576439915
 30
0.0
 10
12.00762861649224
 20
27.5127459039315
 30
0.0
 10
12.07188393132407
 20
27.29441273370689
 30
0.0
 10
12.11187821743657
 20
27.13268799382249
 30
0.0
 10
12.12503273905504
 20
27.05801185935508
 30
0.0
  0
SPLINE
  5
277
330
1F
100
AcDbEntity
  8
SLOPED ARM
100
AcDbSpline
210
0.0
220
0.0
230
1.0
 70
     8
 71
     3
 72
     8
 73
     4
 74
     0
 42
0.0000000001
 43
0.0000000001
 40
0.0
 40
0.0
 40
0.0
 40
0.0
 40
1.0
 40
1.0
 40
1.0
 40
1.0
 10
12.12503273905504
 20
27.05801185935508
 30
0.0
 10
12.19229793670529
 20
26.67615799264714
 30
0.0
 10
12.19431721976365
 20
26.27082130396529
 30
0.0
 10
12.19652912916029
 20
25.88336168565137
 30
0.0
  0
SPLINE
  5
278
330
1F
100
AcDbEntity
  8
SLOPED ARM
100
AcDbSpline
210
0.0
220
0.0
230
1.0
 70
     8
 71
     3
 72
     8
 73
     4
 74
     0
 42
0.0000000001
 43
0.0000000001
 40
-1.0
 40
-1.0
 40
-1.0
 40
-1.0
 40
0.0
 40
0.0
 40
0.0
 40
0.0
 10
12.19652912916029
 20
25.88336168565137
 30
0.0
 10
12.19718266211171
 20
25.77090928733504
 30
0.0
 10
12.13924515183828
 20
25.66802181587308
 30
0.0
 10
12.04134390401999
 20
25.61443726278349
 30
0.0
  0
SPLINE
  5
279
330
1F
100
AcDbEntity
  8
SLOPED ARM
100
AcDbSpline
210
0.0
220
0.0
230
1.0
 70
     8
 71
     3
 72
     8
 73
     4
 74
     0
 42
0.0000000001
 43
0.0000000001
 40
0.0
 40
0.0
 40
0.0
 40
0.0
 40
1.0
 40
1.0
 40
1.0
 40
1.0
 10
12.04134390401999
 20
25.61443726278349
 30
0.0
 10
11.5016372408362
 20
25.31818835407056
 30
0.0
 10
10.87322713588946
 20
25.25269911472306
 30
0.0
 10
10.2665823502897
 20
25.25474794358239
 30
0.0
  0
SPLINE
  5
27A
330
1F
100
AcDbEntity
  8
SLOPED ARM
100
AcDbSpline
210
0.0
220
0.0
230
1.0
 70
    12
 71
     2
 72
     6
 73
     3
 74
     0
 42
0.0000000001
 43
0.0000000001
 40
0.0
 40
0.0
 40
0.0
 40
0.3435181199890061
 40
0.3435181199890061
 40
0.3435181199890061
 10
10.2665823502897
 20
25.25474794358239
 30
0.0
 41
1.0
 10
10.04743786265447
 20
25.2564834364403
 30
0.0
 41
0.7100624562017315
 10
10.04734399271287
 20
25.47454102194813
 30
0.0
 41
1.0
  0
SPLINE
  5
27B
330
1F
100
AcDbEntity
  8
SLOPED ARM
100
AcDbSpline
210
0.0
220
0.0
230
1.0
 70
     8
 71
     3
 72
    11
 73
     7
 74
     0
 42
0.0000000001
 43
0.0000000001
 40
0.0
 40
0.0
 40
0.0
 40
0.0
 40
0.5082873789142647
 40
0.9678194062993415
 40
1.312993957171222
 40
1.506625941343003
 40
1.506625941343003
 40
1.506625941343003
 40
1.506625941343003
 10
10.04734399271287
 20
25.47454102194813
 30
0.0
 10
10.04755794102957
 20
25.64400716189026
 30
0.0
 10
10.04527313219792
 20
25.96659075101035
 30
0.0
 10
10.03544536208293
 20
26.40419714393459
 30
0.0
 10
10.02051977925497
 20
26.73662317481259
 30
0.0
 10
10.00575136166567
 20
26.91574740573478
 30
0.0
 10
9.994247020809983
 20
26.9793103042176
 30
0.0
  0
SPLINE
  5
27C
330
1F
100
AcDbEntity
  8
SLOPED ARM
100
AcDbSpline
210
0.0
220
0.0
230
1.0
 70
     8
 71
     3
 72
     8
 73
     4
 74
     0
 42
0.0000000001
 43
0.0000000001
 40
-1.0
 40
-1.0
 40
-1.0
 40
-1.0
 40
0.0
 40
0.0
 40
0.0
 40
0.0
 10
9.994247020809983
 20
26.9793103042176
 30
0.0
 10
9.966239405963696
 20
27.13405582171853
 30
0.0
 10
9.88302528729476
 20
27.39439195040286
 30
0.0
 10
9.835388000456064
 20
27.54523374768565
 30
0.0
  0
SPLINE
  5
27D
330
1F
100
AcDbEntity
  8
SLOPED ARM
100
AcDbSpline
210
0.0
220
0.0
230
1.0
 70
     8
 71
     3
 72
    11
 73
     7
 74
     0
 42
0.0000000001
 43
0.0000000001
 40
0.0
 40
0.0
 40
0.0
 40
0.0
 40
0.1628813904483171
 40
0.3010943248401598
 40
0.4096345056345924
 40
0.4887948083920269
 40
0.4887948083920269
 40
0.4887948083920269
 40
0.4887948083920269
 10
9.835388000456064
 20
27.54523374768565
 30
0.0
 10
9.81903481796174
 20
27.59701552625524
 30
0.0
 10
9.78665369063086
 20
27.69202243583416
 30
0.0
 10
9.734580314877803
 20
27.81838955665824
 30
0.0
 10
9.683584839386217
 20
27.91447567788949
 30
0.0
 10
9.646061286642734
 20
27.96495461711612
 30
0.0
 10
9.626685606595665
 20
27.98297464273274
 30
0.0
  0
SPLINE
  5
27E
330
1F
100
AcDbEntity
  8
SLOPED ARM
100
AcDbSpline
210
0.0
220
0.0
230
1.0
 70
    24
 71
     2
 72
     6
 73
     3
 74
     0
 42
0.0000000001
 43
0.0000000001
 40
0.0
 40
0.0
 40
0.0
 40
0.0849935097347892
 40
0.0849935097347892
 40
0.0849935097347892
 10
9.893078712383716
 20
27.36335568561714
 30
0.0
 10
9.850581971118125
 20
27.36332168466361
 30
0.0
 10
9.808085229852534
 20
27.36328768371007
 30
0.0
  0
SPLINE
  5
27F
330
1F
100
AcDbEntity
  8
SLOPED ARM
100
AcDbSpline
210
0.0
220
0.0
230
1.0
 70
    12
 71
     2
 72
     6
 73
     3
 74
     0
 42
0.0000000001
 43
0.0000000001
 40
0.0
 40
0.0
 40
0.0
 40
0.1249329455038252
 40
0.1249329455038252
 40
0.1249329455038252
 10
9.808085229852534
 20
27.36328768371007
 30
0.0
 41
1.0
 10
9.727970786356442
 20
27.3702555798226
 30
0.0
 41
0.7216160136457205
 10
9.73169744092763
 20
27.44853898885781
 30
0.0
 41
1.0
  0
POLYLINE
  5
280
330
1F
100
AcDbEntity
  8
SLOPED ARM
100
AcDb2dPolyline
 66
     1
 10
0.0
 20
0.0
 30
0.0
  0
VERTEX
  5
281
330
280
100
AcDbEntity
  8
SLOPED ARM
100
AcDbVertex
100
AcDb2dVertex
 10
9.73169744092763
 20
27.44853898885781
 30
0.0
  0
VERTEX
  5
282
330
280
100
AcDbEntity
  8
SLOPED ARM
100
AcDbVertex
100
AcDb2dVertex
 10
9.720442836015042
 20
27.84313707621792
 30
0.0
  0
SEQEND
  5
283
330
280
100
AcDbEntity
  8
SLOPED ARM
  0
SPLINE
  5
284
330
1F
100
AcDbEntity
  8
SLOPED ARM
100
AcDbSpline
210
0.0
220
0.0
230
1.0
 70
     8
 71
     3
 72
    13
 73
     9
 74
     0
 42
0.0000000001
 43
0.0000000001
 40
0.0
 40
0.0
 40
0.0
 40
0.0
 40
1.0
 40
2.0
 40
3.0
 40
4.0
 40
5.0
 40
6.0
 40
6.0
 40
6.0
 40
6.0
 10
-11.99904940577045
 20
25.59183367406922
 30
0.0
 10
-11.99858634674507
 20
25.17083225640732
 30
0.0
 10
-11.9232429541063
 20
24.33237025830467
 30
0.0
 10
-11.83316723691279
 20
23.07372367098906
 30
0.0
 10
-11.73750579663962
 20
21.81528999926027
 30
0.0
 10
-11.64406169124194
 20
20.55674666527529
 30
0.0
 10
-11.5502847546748
 20
19.29821230721222
 30
0.0
 10
-11.48792720357178
 20
18.45918046644653
 30
0.0
 10
-11.45674273156798
 20
18.03966442895246
 30
0.0
  0
SPLINE
  5
285
330
1F
100
AcDbEntity
  8
SLOPED ARM
100
AcDbSpline
210
0.0
220
0.0
230
1.0
 70
     8
 71
     3
 72
     8
 73
     4
 74
     0
 42
0.0000000001
 43
0.0000000001
 40
-1.0
 40
-1.0
 40
-1.0
 40
-1.0
 40
0.0
 40
0.0
 40
0.0
 40
0.0
 10
-11.45674273156798
 20
18.03966442895246
 30
0.0
 10
-11.42661404095455
 20
17.634351525162
 30
0.0
 10
-11.40829643621486
 20
17.11904399210103
 30
0.0
 10
-11.15993026412789
 20
16.86483027792704
 30
0.0
  0
SPLINE
  5
286
330
1F
100
AcDbEntity
  8
SLOPED ARM
100
AcDbSpline
210
0.0
220
0.0
230
1.0
 70
     8
 71
     3
 72
     9
 73
     5
 74
     0
 42
0.0000000001
 43
0.0000000001
 40
0.0
 40
0.0
 40
0.0
 40
0.0
 40
1.0
 40
2.0
 40
2.0
 40
2.0
 40
2.0
 10
-11.15993026412789
 20
16.86483027792704
 30
0.0
 10
-11.06617184976857
 20
16.76866106753749
 30
0.0
 10
-10.81021470395764
 20
16.67755120140135
 30
0.0
 10
-10.54676616444203
 20
16.6646783645817
 30
0.0
 10
-10.41492872988334
 20
16.66003470828994
 30
0.0
  0
SPLINE
  5
287
330
1F
100
AcDbEntity
  8
SLOPED ARM
100
AcDbSpline
210
0.0
220
0.0
230
1.0
 70
     8
 71
     3
 72
     8
 73
     4
 74
     0
 42
0.0000000001
 43
0.0000000001
 40
0.0
 40
0.0
 40
0.0
 40
0.0
 40
1.0
 40
1.0
 40
1.0
 40
1.0
 10
-9.626685606598265
 20
27.98297464273274
 30
0.0
 10
-9.533894959441081
 20
28.11220608425721
 30
0.0
 10
-9.598606243559718
 20
28.36383712044842
 30
0.0
 10
-9.784576274920752
 20
28.37154575833107
 30
0.0
  0
SPLINE
  5
288
330
1F
100
AcDbEntity
  8
SLOPED ARM
100
AcDbSpline
210
0.0
220
0.0
230
1.0
 70
    12
 71
     2
 72
     6
 73
     3
 74
     0
 42
0.0000000001
 43
0.0000000001
 40
-1.51533677192614
 40
-1.51533677192614
 40
-1.51533677192614
 40
0.0
 40
0.0
 40
0.0
 10
-9.784576274920752
 20
28.37154575833107
 30
0.0
 41
1.0
 10
-10.55730691800765
 20
28.37869756446147
 30
0.0
 41
0.9999730433517859
 10
-11.33205300002958
 20
28.37327913802028
 30
0.0
 41
1.0
  0
SPLINE
  5
289
330
1F
100
AcDbEntity
  8
SLOPED ARM
100
AcDbSpline
210
0.0
220
0.0
230
1.0
 70
     8
 71
     3
 72
    14
 73
    10
 74
     0
 42
0.0000000001
 43
0.0000000001
 40
0.0
 40
0.0
 40
0.0
 40
0.0
 40
1.0
 40
2.0
 40
3.0
 40
4.0
 40
5.0
 40
6.0
 40
7.0
 40
7.0
 40
7.0
 40
7.0
 10
-11.33205300002958
 20
28.37327913802028
 30
0.0
 10
-11.40908274725832
 20
28.36801685974299
 30
0.0
 10
-11.53933087963704
 20
28.28099476248066
 30
0.0
 10
-11.70022918303769
 20
28.1210493862316
 30
0.0
 10
-11.82531030158621
 20
27.92939020526233
 30
0.0
 10
-11.92669367001124
 20
27.72565576439915
 30
0.0
 10
-12.00762861649484
 20
27.5127459039315
 30
0.0
 10
-12.07188393132667
 20
27.29441273370689
 30
0.0
 10
-12.11187821743917
 20
27.13268799382249
 30
0.0
 10
-12.12503273905764
 20
27.05801185935508
 30
0.0
  0
SPLINE
  5
28A
330
1F
100
AcDbEntity
  8
SLOPED ARM
100
AcDbSpline
210
0.0
220
0.0
230
1.0
 70
     8
 71
     3
 72
     8
 73
     4
 74
     0
 42
0.0000000001
 43
0.0000000001
 40
0.0
 40
0.0
 40
0.0
 40
0.0
 40
1.0
 40
1.0
 40
1.0
 40
1.0
 10
-12.12503273905764
 20
27.05801185935508
 30
0.0
 10
-12.1922979367079
 20
26.67615799264714
 30
0.0
 10
-12.19431721976625
 20
26.27082130396529
 30
0.0
 10
-12.19652912916289
 20
25.88336168565137
 30
0.0
  0
SPLINE
  5
28B
330
1F
100
AcDbEntity
  8
SLOPED ARM
100
AcDbSpline
210
0.0
220
0.0
230
1.0
 70
     8
 71
     3
 72
     8
 73
     4
 74
     0
 42
0.0000000001
 43
0.0000000001
 40
-1.0
 40
-1.0
 40
-1.0
 40
-1.0
 40
0.0
 40
0.0
 40
0.0
 40
0.0
 10
-12.19652912916289
 20
25.88336168565137
 30
0.0
 10
-12.19718266211431
 20
25.77090928733504
 30
0.0
 10
-12.13924515184088
 20
25.66802181587308
 30
0.0
 10
-12.04134390402259
 20
25.61443726278349
 30
0.0
  0
SPLINE
  5
28C
330
1F
100
AcDbEntity
  8
SLOPED ARM
100
AcDbSpline
210
0.0
220
0.0
230
1.0
 70
     8
 71
     3
 72
     8
 73
     4
 74
     0
 42
0.0000000001
 43
0.0000000001
 40
0.0
 40
0.0
 40
0.0
 40
0.0
 40
1.0
 40
1.0
 40
1.0
 40
1.0
 10
-12.04134390402259
 20
25.61443726278349
 30
0.0
 10
-11.5016372408388
 20
25.31818835407056
 30
0.0
 10
-10.87322713589206
 20
25.25269911472306
 30
0.0
 10
-10.2665823502923
 20
25.25474794358239
 30
0.0
  0
SPLINE
  5
28D
330
1F
100
AcDbEntity
  8
SLOPED ARM
100
AcDbSpline
210
0.0
220
0.0
230
1.0
 70
    12
 71
     2
 72
     6
 73
     3
 74
     0
 42
0.0000000001
 43
0.0000000001
 40
0.0
 40
0.0
 40
0.0
 40
0.3435181199890061
 40
0.3435181199890061
 40
0.3435181199890061
 10
-10.2665823502923
 20
25.25474794358239
 30
0.0
 41
1.0
 10
-10.04743786265707
 20
25.2564834364403
 30
0.0
 41
0.7100624562017315
 10
-10.04734399271547
 20
25.47454102194813
 30
0.0
 41
1.0
  0
SPLINE
  5
28E
330
1F
100
AcDbEntity
  8
SLOPED ARM
100
AcDbSpline
210
0.0
220
0.0
230
1.0
 70
     8
 71
     3
 72
    11
 73
     7
 74
     0
 42
0.0000000001
 43
0.0000000001
 40
0.0
 40
0.0
 40
0.0
 40
0.0
 40
0.5082873789142647
 40
0.9678194062993415
 40
1.312993957171222
 40
1.506625941343003
 40
1.506625941343003
 40
1.506625941343003
 40
1.506625941343003
 10
-10.04734399271547
 20
25.47454102194813
 30
0.0
 10
-10.04755794103217
 20
25.64400716189026
 30
0.0
 10
-10.04527313220052
 20
25.96659075101035
 30
0.0
 10
-10.03544536208553
 20
26.40419714393459
 30
0.0
 10
-10.02051977925757
 20
26.73662317481259
 30
0.0
 10
-10.00575136166827
 20
26.91574740573478
 30
0.0
 10
-9.994247020812583
 20
26.9793103042176
 30
0.0
  0
SPLINE
  5
28F
330
1F
100
AcDbEntity
  8
SLOPED ARM
100
AcDbSpline
210
0.0
220
0.0
230
1.0
 70
     8
 71
     3
 72
     8
 73
     4
 74
     0
 42
0.0000000001
 43
0.0000000001
 40
-1.0
 40
-1.0
 40
-1.0
 40
-1.0
 40
0.0
 40
0.0
 40
0.0
 40
0.0
 10
-9.994247020812583
 20
26.9793103042176
 30
0.0
 10
-9.966239405966297
 20
27.13405582171853
 30
0.0
 10
-9.883025287297361
 20
27.39439195040286
 30
0.0
 10
-9.835388000458664
 20
27.54523374768565
 30
0.0
  0
SPLINE
  5
290
330
1F
100
AcDbEntity
  8
SLOPED ARM
100
AcDbSpline
210
0.0
220
0.0
230
1.0
 70
     8
 71
     3
 72
    11
 73
     7
 74
     0
 42
0.0000000001
 43
0.0000000001
 40
0.0
 40
0.0
 40
0.0
 40
0.0
 40
0.1628813904483171
 40
0.3010943248401598
 40
0.4096345056345924
 40
0.4887948083920269
 40
0.4887948083920269
 40
0.4887948083920269
 40
0.4887948083920269
 10
-9.835388000458664
 20
27.54523374768565
 30
0.0
 10
-9.81903481796434
 20
27.59701552625524
 30
0.0
 10
-9.786653690633461
 20
27.69202243583416
 30
0.0
 10
-9.734580314880404
 20
27.81838955665824
 30
0.0
 10
-9.683584839388818
 20
27.91447567788949
 30
0.0
 10
-9.646061286645335
 20
27.96495461711612
 30
0.0
 10
-9.626685606598265
 20
27.98297464273274
 30
0.0
  0
SPLINE
  5
291
330
1F
100
AcDbEntity
  8
SLOPED ARM
100
AcDbSpline
210
0.0
220
0.0
230
1.0
 70
    24
 71
     2
 72
     6
 73
     3
 74
     0
 42
0.0000000001
 43
0.0000000001
 40
0.0
 40
0.0
 40
0.0
 40
0.0849935097347892
 40
0.0849935097347892
 40
0.0849935097347892
 10
-9.893078712386316
 20
27.36335568561714
 30
0.0
 10
-9.850581971120725
 20
27.36332168466361
 30
0.0
 10
-9.808085229855134
 20
27.36328768371007
 30
0.0
  0
SPLINE
  5
292
330
1F
100
AcDbEntity
  8
SLOPED ARM
100
AcDbSpline
210
0.0
220
0.0
230
1.0
 70
    12
 71
     2
 72
     6
 73
     3
 74
     0
 42
0.0000000001
 43
0.0000000001
 40
0.0
 40
0.0
 40
0.0
 40
0.1249329455038252
 40
0.1249329455038252
 40
0.1249329455038252
 10
-9.808085229855134
 20
27.36328768371007
 30
0.0
 41
1.0
 10
-9.727970786359041
 20
27.3702555798226
 30
0.0
 41
0.7216160136457205
 10
-9.73169744093023
 20
27.44853898885781
 30
0.0
 41
1.0
  0
POLYLINE
  5
293
330
1F
100
AcDbEntity
  8
SLOPED ARM
100
AcDb2dPolyline
 66
     1
 10
0.0
 20
0.0
 30
0.0
  0
VERTEX
  5
294
330
293
100
AcDbEntity
  8
SLOPED ARM
100
AcDbVertex
100
AcDb2dVertex
 10
-9.73169744093023
 20
27.44853898885781
 30
0.0
  0
VERTEX
  5
295
330
293
100
AcDbEntity
  8
SLOPED ARM
100
AcDbVertex
100
AcDb2dVertex
 10
-9.720442836017643
 20
27.84313707621792
 30
0.0
  0
SEQEND
  5
296
330
293
100
AcDbEntity
  8
SLOPED ARM
  0
LINE
  5
297
330
1F
100
AcDbEntity
  8
SLOPED ARM
100
AcDbLine
 10
10.13575887303582
 20
19.73291549501554
 30
0.0
 11
10.24158601482565
 21
25.25624175735078
 31
0.0
  0
LINE
  5
298
330
1F
100
AcDbEntity
  8
SLOPED ARM
100
AcDbLine
 10
-10.13575442210016
 20
19.73268319181091
 30
0.0
 11
-10.24158601482825
 21
25.25624175735078
 31
0.0
  0
SPLINE
  5
299
330
1F
100
AcDbEntity
  8
~BASE~
100
AcDbSpline
210
0.0
220
0.0
230
1.0
 70
     8
 71
     3
 72
    13
 73
     9
 74
     0
 42
0.0000000001
 43
0.0000000001
 40
0.0
 40
0.0
 40
0.0
 40
0.0
 40
1.0
 40
2.0
 40
3.0
 40
4.0
 40
5.0
 40
6.0
 40
6.0
 40
6.0
 40
6.0
 10
34.15516609565289
 20
14.98357918489779
 30
0.0
 10
35.03672457119375
 20
15.01687411776516
 30
0.0
 10
36.8004409903188
 20
15.08497441307267
 30
0.0
 10
39.43562050036061
 20
15.35389480902104
 30
0.0
 10
42.0814498381124
 20
15.41059451507883
 30
0.0
 10
44.72805515853569
 20
15.45052702645378
 30
0.0
 10
47.3748520973756
 20
15.46270496275207
 30
0.0
 10
49.13933621213207
 20
15.439650049986
 30
0.0
 10
50.02127395428284
 20
15.41534286538775
 30
0.0
  0
SPLINE
  5
29A
330
1F
100
AcDbEntity
  8
~BASE~
100
AcDbSpline
210
0.0
220
0.0
230
1.0
 70
    12
 71
     2
 72
     6
 73
     3
 74
     0
 42
0.0000000001
 43
0.0000000001
 40
0.0
 40
0.0
 40
0.0
 40
0.3439126704775287
 40
0.3439126704775287
 40
0.3439126704775287
 10
50.02127395428284
 20
15.41534286538775
 30
0.0
 41
1.0
 10
50.02553855189164
 20
15.24343932925274
 30
0.0
 41
0.9999998476363087
 10
50.02999293372783
 20
15.07154067969961
 30
0.0
 41
1.0
  0
SPLINE
  5
29B
330
1F
100
AcDbEntity
  8
~BASE~
100
AcDbSpline
210
0.0
220
0.0
230
1.0
 70
    12
 71
     3
 72
    12
 73
     8
 74
     0
 42
0.0000000001
 43
0.0000000001
 40
-1.0
 40
-1.0
 40
-1.0
 40
-1.0
 40
-0.7520786598417758
 40
-0.6267322453741405
 40
-0.5013858309065051
 40
-0.2506930019714766
 40
-0.002946977316344
 40
-0.002946977316344
 40
-0.002946977316344
 40
-0.002946977316344
 10
50.02999293372783
 20
15.07154067969961
 30
0.0
 41
1.0
 10
50.32462493790718
 20
15.07390802363668
 30
0.0
 41
1.0
 10
50.76807261095592
 20
15.07694984394326
 30
0.0
 41
1.0
 10
51.35451547433231
 20
15.08511366080108
 30
0.0
 41
1.0
 10
51.9420472511741
 20
15.05078477369218
 30
0.0
 41
1.0
 10
52.66400012800768
 20
14.93503684210434
 30
0.0
 41
1.0
 10
53.22426172834407
 20
14.76534563211822
 30
0.0
 41
1.0
 10
53.49676304289647
 20
14.66231365599243
 30
0.0
 41
1.0
  0
SPLINE
  5
29D
330
1F
100
AcDbEntity
  8
border high
100
AcDbSpline
210
0.0
220
0.0
230
1.0
 70
    12
 71
     2
 72
     8
 73
     5
 74
     0
 42
0.0000000001
 43
0.0000000001
 40
0.0
 40
0.0
 40
0.0
 40
0.1450921920538721
 40
0.1450921920538721
 40
0.2901843841077443
 40
0.2901843841077443
 40
0.2901843841077443
 10
33.44289670105476
 20
16.21081951110644
 30
0.0
 41
1.0
 10
33.36592077376601
 20
16.21031250657652
 30
0.0
 41
0.9158422909101269
 10
33.31339405276727
 20
16.26658411590732
 30
0.0
 41
1.0
 10
33.26086733176857
 20
16.32285572523813
 30
0.0
 41
0.9158422909101269
 10
33.26666595889403
 20
16.39961460979892
 30
0.0
 41
1.0
  0
SPLINE
  5
29E
330
1F
100
AcDbEntity
  8
border high
100
AcDbSpline
210
0.0
220
0.0
230
1.0
 70
     8
 71
     3
 72
    12
 73
     8
 74
     0
 42
0.0000000001
 43
0.0000000001
 40
0.0
 40
0.0
 40
0.0
 40
0.0
 40
8.028351882157871
 40
8.739470087149341
 40
9.22255851705357
 40
10.28510416772604
 40
11.30584950223371
 40
11.30584950223371
 40
11.30584950223371
 40
11.30584950223371
 10
34.71967557147938
 20
16.40895361183225
 30
0.0
 10
34.93960069989094
 20
19.07606484476692
 30
0.0
 10
35.17881714089921
 20
21.97925341482939
 30
0.0
 10
35.43168509255832
 20
25.04318352922478
 30
0.0
 10
35.47809465451545
 20
25.79356061379174
 30
0.0
 10
35.5134014306208
 20
26.65036495758008
 30
0.0
 10
35.40830025803238
 20
27.34071912596084
 30
0.0
 10
35.33947754495295
 20
27.67331861892329
 30
0.0
  0
SPLINE
  5
29F
330
1F
100
AcDbEntity
  8
border high
100
AcDbSpline
210
0.0
220
0.0
230
1.0
 70
    12
 71
     2
 72
     6
 73
     3
 74
     0
 42
0.0000000001
 43
0.0000000001
 40
0.0
 40
0.0
 40
0.0
 40
0.3134865965982325
 40
0.3134865965982325
 40
0.3134865965982325
 10
34.71967557147938
 20
16.40895361183225
 30
0.0
 41
1.0
 10
34.70529134460457
 20
16.21722832468647
 30
0.0
 41
0.744579326268921
 10
34.51313917860457
 20
16.21066807961303
 30
0.0
 41
1.0
  0
SPLINE
  5
2A0
330
1F
100
AcDbEntity
  8
border high
100
AcDbSpline
210
0.0
220
0.0
230
1.0
 70
    24
 71
     2
 72
     6
 73
     3
 74
     0
 42
0.0000000001
 43
0.0000000001
 40
0.0
 40
0.0
 40
0.0
 40
1.070242488263037
 40
1.070242488263037
 40
1.070242488263037
 10
34.51313917860457
 20
16.21066807961303
 30
0.0
 10
33.97801793982966
 20
16.21074379535973
 30
0.0
 10
33.44289670105476
 20
16.21081951110644
 30
0.0
  0
SPLINE
  5
2A1
330
1F
100
AcDbEntity
  8
border high
100
AcDbSpline
210
0.0
220
0.0
230
1.0
 70
     8
 71
     3
 72
    12
 73
     8
 74
     0
 42
0.0000000001
 43
0.0000000001
 40
0.0
 40
0.0
 40
0.0
 40
0.0
 40
7.110007658618311
 40
7.869906043730838
 40
8.397172901135843
 40
9.948585862227693
 40
11.37036245752215
 40
11.37036245752215
 40
11.37036245752215
 40
11.37036245752215
 10
33.26666595889403
 20
16.39961460979892
 30
0.0
 10
33.36432250121826
 20
18.76762233753194
 30
0.0
 10
33.47551361236444
 20
21.38851571216743
 30
0.0
 10
33.58906690809886
 20
24.18533309757266
 30
0.0
 10
33.6024811689311
 20
25.13132426975597
 30
0.0
 10
33.57044571359301
 20
26.29940792013339
 30
0.0
 10
33.41503491051679
 20
27.2805015400838
 30
0.0
 10
33.31839544042483
 20
27.74425644141295
 30
0.0
  0
SPLINE
  5
2A2
330
1F
100
AcDbEntity
  8
border high
100
AcDbSpline
210
0.0
220
0.0
230
1.0
 70
    12
 71
     2
 72
     8
 73
     5
 74
     0
 42
0.0000000001
 43
0.0000000001
 40
0.0
 40
0.0
 40
0.0
 40
0.1581207986665936
 40
0.1581207986665936
 40
0.3162415973331871
 40
0.3162415973331871
 40
0.3162415973331871
 10
31.82897209199697
 20
14.33949500397145
 30
0.0
 41
1.0
 10
31.74486716262646
 20
14.33949500773923
 30
0.0
 41
0.9124126600953817
 10
31.68893791520072
 20
14.40230868799129
 30
0.0
 41
1.0
 10
31.63300866777498
 20
14.46512236824335
 30
0.0
 41
0.9124126600953817
 10
31.64272840002553
 20
14.54866377084945
 30
0.0
 41
1.0
  0
SPLINE
  5
2A3
330
1F
100
AcDbEntity
  8
border high
100
AcDbSpline
210
0.0
220
0.0
230
1.0
 70
    12
 71
     2
 72
     6
 73
     3
 74
     0
 42
0.0000000001
 43
0.0000000001
 40
0.0
 40
0.0
 40
0.0
 40
0.1493714988645648
 40
0.1493714988645648
 40
0.1493714988645648
 10
33.34610578487494
 20
14.39591245415044
 30
0.0
 41
1.0
 10
33.29094374381899
 20
14.33949506948024
 30
0.0
 41
0.921712443688504
 10
33.21204018200788
 20
14.33949500902563
 30
0.0
 41
1.0
  0
SPLINE
  5
2A4
330
1F
100
AcDbEntity
  8
border high
100
AcDbSpline
210
0.0
220
0.0
230
1.0
 70
    24
 71
     2
 72
     6
 73
     3
 74
     0
 42
0.0000000001
 43
0.0000000001
 40
0.0
 40
0.0
 40
0.0
 40
1.383068090010866
 40
1.383068090010866
 40
1.383068090010866
 10
31.82897209199691
 20
14.33949500000215
 30
0.0
 10
32.52050613700234
 20
14.33949500000215
 30
0.0
 10
33.21204018200778
 20
14.33949500000215
 30
0.0
  0
SPLINE
  5
2A5
330
1F
100
AcDbEntity
  8
border high
100
AcDbSpline
210
0.0
220
0.0
230
1.0
 70
     8
 71
     3
 72
    11
 73
     7
 74
     0
 42
0.0000000001
 43
0.0000000001
 40
0.0
 40
0.0
 40
0.0
 40
0.0
 40
0.1934867941466572
 40
0.4288940190922525
 40
0.9968426764496149
 40
2.316895978096531
 40
2.316895978096531
 40
2.316895978096531
 40
2.316895978096531
 10
33.34611623262659
 20
14.39592327612522
 30
0.0
 10
33.39047293496957
 20
14.44275841272328
 30
0.0
 10
33.48432756479662
 20
14.55064351378368
 30
0.0
 10
33.69288876578778
 20
14.80942260578538
 30
0.0
 10
34.10935254443933
 20
15.38195967581451
 30
0.0
 10
34.45046561049816
 20
15.91135282998276
 30
0.0
 10
34.67460001537575
 20
16.29001112863212
 30
0.0
  0
SPLINE
  5
2A6
330
1F
100
AcDbEntity
  8
border high
100
AcDbSpline
210
0.0
220
0.0
230
1.0
 70
     8
 71
     3
 72
    10
 73
     6
 74
     0
 42
0.0000000001
 43
0.0000000001
 40
-3.0
 40
-3.0
 40
-3.0
 40
-3.0
 40
-2.0
 40
-1.0
 40
0.0
 40
0.0
 40
0.0
 40
0.0
 10
33.35307098467496
 20
32.99319071695143
 30
0.0
 10
33.20164862176221
 20
33.49834698019693
 30
0.0
 10
32.87369225742243
 20
34.50095594376828
 30
0.0
 10
32.31807733227057
 20
35.98278677253381
 30
0.0
 10
31.88956193893161
 20
36.94713113529525
 30
0.0
 10
31.65418650422564
 20
37.41910040999076
 30
0.0
  0
LINE
  5
2A7
330
1F
100
AcDbEntity
  8
border high
100
AcDbLine
 10
31.65418650422564
 20
37.41910040999076
 30
0.0
 11
31.49624661485387
 21
37.73579775406751
 31
0.0
  0
ARC
  5
2A8
330
1F
100
AcDbEntity
  8
border high
100
AcDbCircle
 10
31.67522436505482
 20
37.82505561048924
 30
0.0
 40
0.2
100
AcDbArc
 50
178.9503210037521
 51
206.5058562072989
  0
LINE
  5
2A9
330
1F
100
AcDbEntity
  8
border high
100
AcDbLine
 10
31.47525792765526
 20
37.82871947644207
 30
0.0
 11
31.48335986316915
 21
38.2709068276276
 31
0.0
  0
ARC
  5
2AA
330
1F
100
AcDbEntity
  8
border high
100
AcDbCircle
 10
-41.92358399748387
 20
39.6157763841087
 30
0.0
 40
73.41926233002489
100
AcDbArc
 50
358.9504163221005
 51
4.752347940956522
  0
SPLINE
  5
2AB
330
1F
100
AcDbEntity
  8
border high
100
AcDbSpline
210
0.0
220
0.0
230
1.0
 70
     8
 71
     3
 72
    10
 73
     6
 74
     0
 42
0.0000000001
 43
0.0000000001
 40
0.0
 40
0.0
 40
0.0
 40
0.0
 40
1.0
 40
2.0
 40
3.0
 40
3.0
 40
3.0
 40
3.0
 10
30.06051190707543
 20
45.71304567289943
 30
0.0
 10
29.98473480480285
 20
44.82028099809335
 30
0.0
 10
29.85531976285782
 20
43.03289906966094
 30
0.0
 10
29.72384324412268
 20
40.34799030706805
 30
0.0
 10
29.68102275838539
 20
38.55644027798094
 30
0.0
 10
29.66687078493405
 20
37.66058613004009
 30
0.0
  0
SPLINE
  5
2AC
330
1F
100
AcDbEntity
  8
border high
100
AcDbSpline
210
0.0
220
0.0
230
1.0
 70
    12
 71
     2
 72
     6
 73
     3
 74
     0
 42
0.0000000001
 43
0.0000000001
 40
-0.2862477699364903
 40
-0.2862477699364903
 40
-0.2862477699364903
 40
0.0
 40
0.0
 40
0.0
 10
29.66687078493405
 20
37.66058613004009
 30
0.0
 41
1.0
 10
29.66422999075086
 20
37.51650109746171
 30
0.0
 41
0.9897752469337399
 10
29.70260342538658
 20
37.37671840678259
 30
0.0
 41
1.0
  0
SPLINE
  5
2AD
330
1F
100
AcDbEntity
  8
border high
100
AcDbSpline
210
0.0
220
0.0
230
1.0
 70
     8
 71
     3
 72
    14
 73
    10
 74
     0
 42
0.0000000001
 43
0.0000000001
 40
0.0
 40
0.0
 40
0.0
 40
0.0
 40
6.124259432905415
 40
8.618645180593864
 40
11.92791825386004
 40
15.18533104960144
 40
17.63520406750396
 40
19.3745488498346
 40
23.24363562591009
 40
23.24363562591009
 40
23.24363562591009
 40
23.24363562591009
 10
29.70260342538658
 20
37.37671840678259
 30
0.0
 10
30.24133878033596
 20
35.40831643288737
 30
0.0
 10
31.03625749276029
 20
32.6426222633939
 30
0.0
 10
32.06771389519715
 20
28.81022300928579
 30
0.0
 10
32.73930177668519
 20
25.84792033631771
 30
0.0
 10
32.58070638092229
 20
22.82225006976017
 30
0.0
 10
32.31587216603889
 20
20.3629377006471
 30
0.0
 10
32.01154925625487
 20
17.68862323636457
 30
0.0
 10
31.79152985557496
 20
15.83662115091713
 30
0.0
 10
31.64331167195606
 20
14.55367696876863
 30
0.0
  0
POLYLINE
  5
2AE
330
1F
100
AcDbEntity
  8
border high
100
AcDb2dPolyline
 66
     1
 10
0.0
 20
0.0
 30
0.0
  0
VERTEX
  5
2AF
330
2AE
100
AcDbEntity
  8
border high
100
AcDbVertex
100
AcDb2dVertex
 10
33.31339405276727
 20
16.26658411590732
 30
0.0
  0
VERTEX
  5
2B0
330
2AE
100
AcDbEntity
  8
border high
100
AcDbVertex
100
AcDb2dVertex
 10
31.68893791520072
 20
14.40230868799129
 30
0.0
  0
SEQEND
  5
2B1
330
2AE
100
AcDbEntity
  8
border high
  0
SPLINE
  5
2B2
330
1F
100
AcDbEntity
  8
border high
100
AcDbSpline
210
0.0
220
0.0
230
1.0
 70
     8
 71
     3
 72
    12
 73
     8
 74
     0
 42
0.0000000001
 43
0.0000000001
 40
0.0
 40
0.0
 40
0.0
 40
0.0
 40
0.7249320355283597
 40
1.551962346657918
 40
3.50691101910798
 40
6.127412903285505
 40
9.94332054829305
 40
9.94332054829305
 40
9.94332054829305
 40
9.94332054829305
 10
33.2703092107873
 20
27.96687034191013
 30
0.0
 10
33.21741762883575
 20
28.20267493493315
 30
0.0
 10
33.09331569400351
 20
28.70494004015185
 30
0.0
 10
32.76894706911559
 20
29.82831799463263
 30
0.0
 10
32.18762282890219
 20
31.53321373598575
 30
0.0
 10
31.1952142717691
 20
34.14853682680335
 30
0.0
 10
30.39966207579042
 20
36.14110141523631
 30
0.0
 10
29.92612777268231
 20
37.32163483375653
 30
0.0
  0
SPLINE
  5
2B3
330
1F
100
AcDbEntity
  8
border high
100
AcDbSpline
210
0.0
220
0.0
230
1.0
 70
    12
 71
     2
 72
     6
 73
     3
 74
     0
 42
0.0000000001
 43
0.0000000001
 40
0.0
 40
0.0
 40
0.0
 40
0.4072616422552329
 40
0.4072616422552329
 40
0.4072616422552329
 10
29.92612777268231
 20
37.32163483375653
 30
0.0
 41
1.0
 10
29.8492781944252
 20
37.51328672629493
 30
0.0
 41
0.9793900565824745
 10
29.85452212760693
 20
37.71970573403554
 30
0.0
 41
1.0
  0
SPLINE
  5
2B4
330
1F
100
AcDbEntity
  8
border high
100
AcDbSpline
210
0.0
220
0.0
230
1.0
 70
    24
 71
     3
 72
     8
 73
     4
 74
     0
 42
0.0000000001
 43
0.0000000001
 40
0.0
 40
0.0
 40
0.0
 40
0.0
 40
1.0
 40
1.0
 40
1.0
 40
1.0
 10
29.85452212760693
 20
37.71970573403554
 30
0.0
 10
29.92318605788335
 20
40.38415238495753
 30
0.0
 10
29.99184998173009
 20
43.048598790498
 30
0.0
 10
30.06051391346643
 20
45.7130455001293
 30
0.0
  0
SPLINE
  5
2B5
330
1F
100
AcDbEntity
  8
border high
100
AcDbSpline
210
0.0
220
0.0
230
1.0
 70
    12
 71
     2
 72
     8
 73
     5
 74
     0
 42
0.0000000001
 43
0.0000000001
 40
0.0
 40
0.0
 40
0.0
 40
0.918854305726684
 40
0.918854305726684
 40
1.837708611453368
 40
1.837708611453368
 40
1.837708611453368
 10
30.06051391346643
 20
45.7130455001293
 30
0.0
 41
1.0
 10
30.07562622760505
 20
46.29498555179281
 30
0.0
 41
0.7118356043152808
 10
30.6577166804528
 20
46.28768414971731
 30
0.0
 41
1.0
 10
31.23980713330053
 20
46.2803827476418
 30
0.0
 41
0.7118356043152808
 10
31.24031795827519
 20
45.69824672846191
 30
0.0
 41
1.0
  0
SPLINE
  5
2B6
330
1F
100
AcDbEntity
  8
border high
100
AcDbSpline
210
0.0
220
0.0
230
1.0
 70
    24
 71
     2
 72
     6
 73
     3
 74
     0
 42
0.0000000001
 43
0.0000000001
 40
0.0
 40
0.0
 40
0.0
 40
7.427609474305744
 40
7.427609474305744
 40
7.427609474305744
 10
31.24031795827519
 20
45.69824672846191
 30
0.0
 10
31.24295581732059
 20
41.8406361568876
 30
0.0
 10
31.24559367636599
 20
37.98302558531329
 30
0.0
  0
SPLINE
  5
2B7
330
1F
100
AcDbEntity
  8
border high
100
AcDbSpline
210
0.0
220
0.0
230
1.0
 70
    12
 71
     2
 72
     6
 73
     3
 74
     0
 42
0.0000000001
 43
0.0000000001
 40
0.0
 40
0.0
 40
0.0
 40
0.410355584497884
 40
0.410355584497884
 40
0.410355584497884
 10
31.24559367636599
 20
37.98302558531329
 30
0.0
 41
1.0
 10
31.24573410355202
 20
37.77491687405332
 30
0.0
 41
0.97900754092795
 10
31.32891707724803
 20
37.58415564028407
 30
0.0
 41
1.0
  0
SPLINE
  5
2B8
330
1F
100
AcDbEntity
  8
border high
100
AcDbSpline
210
0.0
220
0.0
230
1.0
 70
     8
 71
     3
 72
    13
 73
     9
 74
     0
 42
0.0000000001
 43
0.0000000001
 40
-10.20774127176399
 40
-10.20774127176399
 40
-10.20774127176399
 40
-10.20774127176399
 40
-8.950891082515332
 40
-4.250537235153772
 40
-2.72406395318322
 40
-1.235869127008085
 40
-0.5997781742649906
 40
0.0
 40
0.0
 40
0.0
 40
0.0
 10
31.32891707724803
 20
37.58415564028407
 30
0.0
 10
31.49634197295844
 20
37.20011365620661
 30
0.0
 10
32.29544448656593
 20
35.38226013579498
 30
0.0
 10
33.30923427625167
 20
33.10298685446554
 30
0.0
 10
34.33671725956224
 20
30.74545433070885
 30
0.0
 10
34.78166520006311
 20
29.61229651517196
 30
0.0
 10
35.06649382772803
 20
28.7498087035083
 30
0.0
 10
35.17809792466536
 20
28.3531825586514
 30
0.0
 10
35.22746985896003
 20
28.15943469526927
 30
0.0
  0
SPLINE
  5
2B9
330
1F
100
AcDbEntity
  8
border high
100
AcDbSpline
210
0.0
220
0.0
230
1.0
 70
    12
 71
     2
 72
     6
 73
     3
 74
     0
 42
0.0000000001
 43
0.0000000001
 40
-11.48156108433191
 40
-11.48156108433191
 40
-11.48156108433191
 40
0.0
 40
0.0
 40
0.0
 10
-9.706508238242535
 20
27.88747337836733
 30
0.0
 41
1.0
 10
-9.820872421559304
 20
22.14783209346107
 30
0.0
 41
0.999999999715226
 10
-9.939538026325039
 20
16.20991074152379
 30
0.0
 41
1.0
  0
ARC
  5
2BA
330
1F
100
AcDbEntity
  8
border high
100
AcDbCircle
 10
-0.0000000000001137
 20
41.67338309866721
 30
0.0
 40
27.33464542773083
100
AcDbArc
 50
248.6770631134022
 51
291.3229368865984
  0
SPLINE
  5
2BB
330
1F
100
AcDbEntity
  8
border high
100
AcDbSpline
210
0.0
220
0.0
230
1.0
 70
    12
 71
     2
 72
     6
 73
     3
 74
     0
 42
0.0000000001
 43
0.0000000001
 40
0.0
 40
0.0
 40
0.0
 40
11.48156108433191
 40
11.48156108433191
 40
11.48156108433191
 10
9.939538026324811
 20
16.20991074152379
 30
0.0
 41
1.0
 10
9.820872421559077
 20
22.14783209346107
 30
0.0
 41
0.999999999715226
 10
9.706508238242307
 20
27.88747337836733
 30
0.0
 41
1.0
  0
POLYLINE
  5
2BC
330
1F
100
AcDbEntity
  8
border high
100
AcDb2dPolyline
 66
     1
 10
0.0
 20
0.0
 30
0.0
  0
VERTEX
  5
2BD
330
2BC
100
AcDbEntity
  8
border high
100
AcDbVertex
100
AcDb2dVertex
 10
-8.08574292138789
 20
37.78374812949594
 30
0.0
  0
VERTEX
  5
2BE
330
2BC
100
AcDbEntity
  8
border high
100
AcDbVertex
100
AcDb2dVertex
 10
8.085742921387663
 20
37.78374812949594
 30
0.0
  0
SEQEND
  5
2BF
330
2BC
100
AcDbEntity
  8
border high
  0
SPLINE
  5
2C0
330
1F
100
AcDbEntity
  8
border high
100
AcDbSpline
210
0.0
220
0.0
230
1.0
 70
     8
 71
     3
 72
    12
 73
     8
 74
     0
 42
0.0000000001
 43
0.0000000001
 40
-5.0
 40
-5.0
 40
-5.0
 40
-5.0
 40
-4.0
 40
-3.0
 40
-2.0
 40
-1.0
 40
0.0
 40
0.0
 40
0.0
 40
0.0
 10
-9.697402404791262
 20
28.3464469348558
 30
0.0
 10
-9.674503344328414
 20
29.50318454712313
 30
0.0
 10
-9.628713731893399
 20
31.81665932465885
 30
0.0
 10
-9.560104865562437
 20
35.28687301258151
 30
0.0
 10
-9.491454730461143
 20
38.75708617794995
 30
0.0
 10
-9.422147387106563
 20
42.22728596547415
 30
0.0
 10
-9.376079408164927
 20
44.54075536574755
 30
0.0
 10
-9.341482786909907
 20
46.28697039559356
 30
0.0
  0
POLYLINE
  5
2C1
330
1F
100
AcDbEntity
  8
border high
100
AcDb2dPolyline
 66
     1
 10
0.0
 20
0.0
 30
0.0
  0
VERTEX
  5
2C2
330
2C1
100
AcDbEntity
  8
border high
100
AcDbVertex
100
AcDb2dVertex
 10
-9.341482786909907
 20
46.28697039559356
 30
0.0
  0
VERTEX
  5
2C3
330
2C1
100
AcDbEntity
  8
border high
100
AcDbVertex
100
AcDb2dVertex
 10
9.34148278690968
 20
46.28697039559356
 30
0.0
  0
SEQEND
  5
2C4
330
2C1
100
AcDbEntity
  8
border high
  0
SPLINE
  5
2C5
330
1F
100
AcDbEntity
  8
border high
100
AcDbSpline
210
0.0
220
0.0
230
1.0
 70
     8
 71
     3
 72
    12
 73
     8
 74
     0
 42
0.0000000001
 43
0.0000000001
 40
0.0
 40
0.0
 40
0.0
 40
0.0
 40
1.0
 40
2.0
 40
3.0
 40
4.0
 40
5.0
 40
5.0
 40
5.0
 40
5.0
 10
9.34148278690968
 20
46.28697039559356
 30
0.0
 10
9.3760794081647
 20
44.54075536574755
 30
0.0
 10
9.422147387106335
 20
42.22728596547415
 30
0.0
 10
9.491454730460916
 20
38.75708617794995
 30
0.0
 10
9.56010486556221
 20
35.28687301258151
 30
0.0
 10
9.628713731893171
 20
31.81665932465885
 30
0.0
 10
9.674503344328187
 20
29.50318454712313
 30
0.0
 10
9.697402404791035
 20
28.3464469348558
 30
0.0
  0
ARC
  5
2C6
330
1F
100
AcDbEntity
  8
border high
100
AcDbCircle
 10
-24.34110847706323
 20
77.97546711786954
 30
0.0
 40
14.9996298130717
100
AcDbArc
 50
357.7190621776259
 51
2.260502405969658
  0
SPLINE
  5
2C7
330
1F
100
AcDbEntity
  8
border high
100
AcDbSpline
210
0.0
220
0.0
230
1.0
 70
     8
 71
     3
 72
    14
 73
    10
 74
     0
 42
0.0000000001
 43
0.0000000001
 40
-0.0283988860865385
 40
-0.0283988860865385
 40
-0.0283988860865385
 40
-0.0283988860865385
 40
0.0
 40
1.0
 40
2.0
 40
3.0
 40
4.0
 40
5.0
 40
5.028398884913525
 40
5.028398884913525
 40
5.028398884913525
 40
5.028398884913525
 10
-9.506784787242466
 20
77.38201738384366
 30
0.0
 10
-9.471292706649237
 20
77.3825976963686
 30
0.0
 10
-8.182599828344223
 20
77.3377508436222
 30
0.0
 10
-5.640968213466081
 20
77.24726451920124
 30
0.0
 10
-1.881065521018144
 20
77.12750174856632
 30
0.0
 10
1.881065513515011
 20
77.12750175042292
 30
0.0
 10
5.640967848828154
 20
77.2472645067495
 30
0.0
 10
8.182599779545214
 20
77.33775084175856
 30
0.0
 10
9.471292706565507
 20
77.38259769637502
 30
0.0
 10
9.506784787242438
 20
77.38201738384366
 30
0.0
  0
SPLINE
  5
2C8
330
1F
100
AcDbEntity
  8
border high
100
AcDbSpline
210
0.0
220
0.0
230
1.0
 70
     8
 71
     3
 72
    10
 73
     6
 74
     0
 42
0.0000000001
 43
0.0000000001
 40
0.0
 40
0.0
 40
0.0
 40
0.0
 40
0.3673571974547588
 40
0.9796822047381755
 40
3.481423232672271
 40
3.481423232672271
 40
3.481423232672271
 40
3.481423232672271
 10
9.718691476194337
 20
75.22594253934882
 30
0.0
 10
9.705456351753298
 20
75.34768470567232
 30
0.0
 10
9.67990282009464
 20
75.67328213553549
 30
0.0
 10
9.611630712786805
 20
76.83175518705839
 30
0.0
 10
9.561979122816396
 20
77.86860887825794
 30
0.0
 10
9.512541153754128
 20
78.7730889326027
 30
0.0
  0
POLYLINE
  5
2C9
330
1F
100
AcDbEntity
  8
border high
100
AcDb2dPolyline
 66
     1
 10
0.0
 20
0.0
 30
0.0
  0
VERTEX
  5
2CA
330
2C9
100
AcDbEntity
  8
border high
100
AcDbVertex
100
AcDb2dVertex
 10
9.353151029895017
 20
78.56709714674322
 30
0.0
  0
VERTEX
  5
2CB
330
2C9
100
AcDbEntity
  8
border high
100
AcDbVertex
100
AcDb2dVertex
 10
9.512541153754128
 20
78.7730889326027
 30
0.0
  0
SEQEND
  5
2CC
330
2C9
100
AcDbEntity
  8
border high
  0
POLYLINE
  5
2CD
330
1F
100
AcDbEntity
  8
border high
100
AcDb2dPolyline
 66
     1
 10
0.0
 20
0.0
 30
0.0
  0
VERTEX
  5
2CE
330
2CD
100
AcDbEntity
  8
border high
100
AcDbVertex
100
AcDb2dVertex
 10
-9.353151029895187
 20
78.56709714704085
 30
0.0
  0
VERTEX
  5
2CF
330
2CD
100
AcDbEntity
  8
border high
100
AcDbVertex
100
AcDb2dVertex
 10
9.353151029895159
 20
78.56709714704085
 30
0.0
  0
SEQEND
  5
2D0
330
2CD
100
AcDbEntity
  8
border high
  0
SPLINE
  5
2D1
330
1F
100
AcDbEntity
  8
border high
100
AcDbSpline
210
0.0
220
0.0
230
1.0
 70
     8
 71
     3
 72
    12
 73
     8
 74
     0
 42
0.0000000001
 43
0.0000000001
 40
0.0
 40
0.0
 40
0.0
 40
0.0
 40
1.0
 40
2.0
 40
3.0
 40
4.0
 40
5.0
 40
5.0
 40
5.0
 40
5.0
 10
9.512541153754128
 20
78.7730889326027
 30
0.0
 10
8.24452925812416
 20
78.81291199786777
 30
0.0
 10
5.708205233971384
 20
78.88085365602336
 30
0.0
 10
1.903053690275698
 20
78.96228963070611
 30
0.0
 10
-1.903053524935402
 20
78.96228963329767
 30
0.0
 10
-5.708205033289573
 20
78.88085366046292
 30
0.0
 10
-8.244529041828514
 20
78.81291200442622
 30
0.0
 10
-9.512541153754157
 20
78.7730889326027
 30
0.0
  0
POLYLINE
  5
2D2
330
1F
100
AcDbEntity
  8
border high
100
AcDb2dPolyline
 66
     1
 10
0.0
 20
0.0
 30
0.0
  0
VERTEX
  5
2D3
330
2D2
100
AcDbEntity
  8
border high
100
AcDbVertex
100
AcDb2dVertex
 10
-9.353151029895045
 20
78.56709714674322
 30
0.0
  0
VERTEX
  5
2D4
330
2D2
100
AcDbEntity
  8
border high
100
AcDbVertex
100
AcDb2dVertex
 10
-9.512541153754157
 20
78.7730889326027
 30
0.0
  0
SEQEND
  5
2D5
330
2D2
100
AcDbEntity
  8
border high
  0
SPLINE
  5
2D6
330
1F
100
AcDbEntity
  8
border high
100
AcDbSpline
210
0.0
220
0.0
230
1.0
 70
    12
 71
     3
 72
    14
 73
    10
 74
     0
 42
0.0000000001
 43
0.0000000001
 40
0.0
 40
0.0
 40
0.0
 40
0.0
 40
0.0839271137843429
 40
0.0839271137843429
 40
0.0839271137843429
 40
2.734952664824291
 40
3.475592454159463
 40
4.034011619270509
 40
4.257773645237795
 40
4.257773645237795
 40
4.257773645237795
 40
4.257773645237795
 10
9.506784787242438
 20
77.38201738384366
 30
0.0
 41
1.0
 10
9.51297615212036
 20
77.35465705257234
 30
0.0
 41
0.9945646497624251
 10
9.51563038559886
 20
77.3267307966298
 30
0.0
 41
0.9945646497624251
 10
9.514704207612212
 20
77.29869398296161
 30
0.0
 41
1.0
 10
9.55478264319413
 20
76.41592345801416
 30
0.0
 41
1.0
 10
9.604129808033406
 20
75.286459048546
 30
0.0
 41
1.0
 10
9.665007690605208
 20
73.97115167330638
 30
0.0
 41
1.0
 10
9.692830487902967
 20
73.48828207551058
 30
0.0
 41
1.0
 10
9.714751905310308
 20
73.237867690426
 30
0.0
 41
1.0
 10
9.727385565299741
 20
73.13884723131456
 30
0.0
 41
1.0
  0
SPLINE
  5
2D7
330
1F
100
AcDbEntity
  8
border high
100
AcDbSpline
210
0.0
220
0.0
230
1.0
 70
    12
 71
     3
 72
    14
 73
    10
 74
     0
 42
0.0000000001
 43
0.0000000001
 40
0.0
 40
0.0
 40
0.0
 40
0.0
 40
0.0839271137843429
 40
0.0839271137843429
 40
0.0839271137843429
 40
2.734952664824291
 40
3.475592454159463
 40
4.034011619270509
 40
4.257773645237795
 40
4.257773645237795
 40
4.257773645237795
 40
4.257773645237795
 10
-9.506784787242466
 20
77.38201738384366
 30
0.0
 41
1.0
 10
-9.5129761521204
 20
77.35465705257234
 30
0.0
 41
0.9945646497624251
 10
-9.515630385598884
 20
77.3267307966298
 30
0.0
 41
0.9945646497624251
 10
-9.51470420761224
 20
77.29869398296161
 30
0.0
 41
1.0
 10
-9.554782643194159
 20
76.41592345801416
 30
0.0
 41
1.0
 10
-9.604129808033434
 20
75.286459048546
 30
0.0
 41
1.0
 10
-9.665007690605236
 20
73.97115167330638
 30
0.0
 41
1.0
 10
-9.692830487902995
 20
73.48828207551058
 30
0.0
 41
1.0
 10
-9.714751905310337
 20
73.237867690426
 30
0.0
 41
1.0
 10
-9.72738556529977
 20
73.13884723131456
 30
0.0
 41
1.0
  0
ARC
  5
2D8
330
1F
100
AcDbEntity
  8
border high
100
AcDbCircle
 10
24.34110847706171
 20
77.97546711786957
 30
0.0
 40
14.99962981307022
100
AcDbArc
 50
177.7394975940311
 51
182.2809378223969
  0
SPLINE
  5
2D9
330
1F
100
AcDbEntity
  8
border high
100
AcDbSpline
210
0.0
220
0.0
230
1.0
 70
     8
 71
     3
 72
    11
 73
     7
 74
     0
 42
0.0000000001
 43
0.0000000001
 40
0.0
 40
0.0
 40
0.0
 40
0.0
 40
1.0
 40
2.0
 40
3.0
 40
4.0
 40
4.0
 40
4.0
 40
4.0
 10
-9.72738556529977
 20
73.13884723131456
 30
0.0
 10
-8.099987688933012
 20
73.11717726978779
 30
0.0
 10
-4.872068289941936
 20
73.52117453654472
 30
0.0
 10
0.0000001241824066
 20
73.75246421907599
 30
0.0
 10
4.872067793212224
 20
73.52117456787897
 30
0.0
 10
8.099988013296965
 20
73.11717725085258
 30
0.0
 10
9.727385565299741
 20
73.13884723131456
 30
0.0
  0
SPLINE
  5
2DA
330
1F
100
AcDbEntity
  8
border high
100
AcDbSpline
210
0.0
220
0.0
230
1.0
 70
     8
 71
     3
 72
    10
 73
     6
 74
     0
 42
0.0000000001
 43
0.0000000001
 40
0.0
 40
0.0
 40
0.0
 40
0.0
 40
0.3673571974547588
 40
0.9796822047381755
 40
3.481423232672271
 40
3.481423232672271
 40
3.481423232672271
 40
3.481423232672271
 10
-9.718691476194365
 20
75.22594253934882
 30
0.0
 10
-9.705456351753327
 20
75.34768470567232
 30
0.0
 10
-9.679902820094668
 20
75.67328213553549
 30
0.0
 10
-9.611630712786834
 20
76.83175518705839
 30
0.0
 10
-9.561979122816425
 20
77.86860887825794
 30
0.0
 10
-9.512541153754157
 20
78.7730889326027
 30
0.0
  0
ENDSEC
  0
SECTION
  2
OBJECTS
  0
DICTIONARY
  5
C
330
0
100
AcDbDictionary
281
     1
  3
ACAD_GROUP
350
D
  3
ACAD_LAYOUT
350
1A
  3
ACAD_MLEADERSTYLE
350
2DC
  3
ACAD_MLINESTYLE
350
17
  3
ACAD_PLOTSETTINGS
350
19
  3
ACAD_PLOTSTYLENAME
350
E
  3
ACAD_TABLESTYLE
350
2DB
  3
ACAD_VISUALSTYLE
350
2A
  0
DICTIONARY
  5
D
102
{ACAD_REACTORS
330
C
102
}
330
C
100
AcDbDictionary
281
     1
  0
DICTIONARY
  5
1A
102
{ACAD_REACTORS
330
C
102
}
330
C
100
AcDbDictionary
281
     1
  3
Layout1
350
1E
  3
Layout2
350
26
  3
Model
350
22
  0
DICTIONARY
  5
2DC
102
{ACAD_REACTORS
330
C
102
}
330
C
100
AcDbDictionary
281
     1
  0
DICTIONARY
  5
17
102
{ACAD_REACTORS
330
C
102
}
330
C
100
AcDbDictionary
281
     1
  3
Standard
350
18
  0
DICTIONARY
  5
19
102
{ACAD_REACTORS
330
C
102
}
330
C
100
AcDbDictionary
281
     1
  0
ACDBDICTIONARYWDFLT
  5
E
102
{ACAD_REACTORS
330
C
102
}
330
C
100
AcDbDictionary
281
     1
  3
Normal
350
F
100
AcDbDictionaryWithDefault
340
F
  0
DICTIONARY
  5
2DB
102
{ACAD_REACTORS
330
C
102
}
330
C
100
AcDbDictionary
281
     1
  0
DICTIONARY
  5
2A
102
{ACAD_REACTORS
330
C
102
}
330
C
100
AcDbDictionary
281
     1
  3
2dWireframe
350
2F
  3
3D Hidden
350
31
  3
3dWireframe
350
30
  3
Basic
350
32
  3
Brighten
350
36
  3
ColorChange
350
3A
  3
Conceptual
350
34
  3
Dim
350
35
  3
Facepattern
350
39
  3
Flat
350
2B
  3
FlatWithEdges
350
2C
  3
Gouraud
350
2D
  3
GouraudWithEdges
350
2E
  3
Linepattern
350
38
  3
Realistic
350
33
  3
Thicken
350
37
  0
LAYOUT
  5
1E
102
{ACAD_REACTORS
330
1A
102
}
330
1A
100
AcDbPlotSettings
  1

  2
none_device
  4

  6

 40
0.0
 41
0.0
 42
0.0
 43
0.0
 44
0.0
 45
0.0
 46
0.0
 47
0.0
 48
0.0
 49
0.0
140
0.0
141
0.0
142
1.0
143
1.0
 70
   688
 72
     0
 73
     0
 74
     5
  7

 75
    16
 76
     0
 77
     2
 78
   300
147
1.0
148
0.0
149
0.0
100
AcDbLayout
  1
Layout1
 70
     1
 71
     1
 10
0.0
 20
0.0
 11
12.0
 21
9.0
 12
0.0
 22
0.0
 32
0.0
 14
1.000000000000000E+20
 24
1.000000000000000E+20
 34
1.000000000000000E+20
 15
-1.000000000000000E+20
 25
-1.000000000000000E+20
 35
-1.000000000000000E+20
146
0.0
 13
0.0
 23
0.0
 33
0.0
 16
1.0
 26
0.0
 36
0.0
 17
0.0
 27
1.0
 37
0.0
 76
     0
330
1B
  0
LAYOUT
  5
26
102
{ACAD_REACTORS
330
1A
102
}
330
1A
100
AcDbPlotSettings
  1

  2
none_device
  4

  6

 40
0.0
 41
0.0
 42
0.0
 43
0.0
 44
0.0
 45
0.0
 46
0.0
 47
0.0
 48
0.0
 49
0.0
140
0.0
141
0.0
142
1.0
143
1.0
 70
   688
 72
     0
 73
     0
 74
     5
  7

 75
    16
 76
     0
 77
     2
 78
   300
147
1.0
148
0.0
149
0.0
100
AcDbLayout
  1
Layout2
 70
     1
 71
     2
 10
0.0
 20
0.0
 11
0.0
 21
0.0
 12
0.0
 22
0.0
 32
0.0
 14
0.0
 24
0.0
 34
0.0
 15
0.0
 25
0.0
 35
0.0
146
0.0
 13
0.0
 23
0.0
 33
0.0
 16
1.0
 26
0.0
 36
0.0
 17
0.0
 27
1.0
 37
0.0
 76
     0
330
23
  0
LAYOUT
  5
22
102
{ACAD_REACTORS
330
1A
102
}
330
1A
100
AcDbPlotSettings
  1

  2
none_device
  4

  6

 40
0.0
 41
0.0
 42
0.0
 43
0.0
 44
0.0
 45
0.0
 46
0.0
 47
0.0
 48
0.0
 49
0.0
140
0.0
141
0.0
142
1.0
143
1.0
 70
  1712
 72
     0
 73
     0
 74
     0
  7

 75
     0
 76
     0
 77
     2
 78
   300
147
1.0
148
0.0
149
0.0
100
AcDbLayout
  1
Model
 70
     1
 71
     0
 10
0.0
 20
0.0
 11
12.0
 21
9.0
 12
0.0
 22
0.0
 32
0.0
 14
-12.59164300000001
 24
-0.0000005000000005
 34
0.0
 15
54.58953947003276
 25
78.94871697072662
 35
0.0
146
0.0
 13
0.0
 23
0.0
 33
0.0
 16
1.0
 26
0.0
 36
0.0
 17
0.0
 27
1.0
 37
0.0
 76
     0
330
1F
331
29
  0
MLINESTYLE
  5
18
102
{ACAD_REACTORS
330
17
102
}
330
17
100
AcDbMlineStyle
  2
Standard
 70
     0
  3

 62
   256
 51
90.0
 52
90.0
 71
     2
 49
0.5
 62
   256
  6
BYLAYER
 49
-0.5
 62
   256
  6
BYLAYER
  0
ACDBPLACEHOLDER
  5
F
102
{ACAD_REACTORS
330
E
102
}
330
E
  0
VISUALSTYLE
  5
2F
102
{ACAD_REACTORS
330
2A
102
}
330
2A
100
AcDbVisualStyle
  2
2dWireframe
 70
     4
 71
     0
 72
     2
 73
     0
 90
        0
 40
-0.6
 41
-30.0
 62
     5
 63
     7
421
 16777215
 74
     1
 91
        4
 64
     7
 65
   257
 75
     1
175
     1
 42
1.0
 92
        0
 66
   257
 43
1.0
 76
     1
 77
     6
 78
     2
 67
     7
 79
     5
170
     0
171
     0
290
     0
174
     0
 93
        1
 44
0.0
173
     0
291
     0
 45
0.0
1001
ACAD
1000
AcDbSavedByObjectVersion
1070
     0
  0
VISUALSTYLE
  5
31
102
{ACAD_REACTORS
330
2A
102
}
330
2A
100
AcDbVisualStyle
  2
3D Hidden
 70
     6
 71
     1
 72
     2
 73
     2
 90
        0
 40
-0.6
 41
-30.0
 62
     5
 63
     7
421
 16777215
 74
     2
 91
        2
 64
     7
 65
   257
 75
     2
175
     1
 42
40.0
 92
        0
 66
   257
 43
1.0
 76
     1
 77
     6
 78
     2
 67
     7
 79
     3
170
     0
171
     0
290
     0
174
     0
 93
        1
 44
0.0
173
     0
291
     0
 45
0.0
1001
ACAD
1000
AcDbSavedByObjectVersion
1070
     0
  0
VISUALSTYLE
  5
30
102
{ACAD_REACTORS
330
2A
102
}
330
2A
100
AcDbVisualStyle
  2
3dWireframe
 70
     5
 71
     0
 72
     2
 73
     0
 90
        0
 40
-0.6
 41
-30.0
 62
     5
 63
     7
421
 16777215
 74
     1
 91
        4
 64
     7
 65
   257
 75
     1
175
     1
 42
1.0
 92
        0
 66
   257
 43
1.0
 76
     1
 77
     6
 78
     2
 67
     7
 79
     5
170
     0
171
     0
290
     0
174
     0
 93
        1
 44
0.0
173
     0
291
     0
 45
0.0
1001
ACAD
1000
AcDbSavedByObjectVersion
1070
     0
  0
VISUALSTYLE
  5
32
102
{ACAD_REACTORS
330
2A
102
}
330
2A
100
AcDbVisualStyle
  2
Basic
 70
     7
 71
     1
 72
     0
 73
     1
 90
        0
 40
-0.6
 41
-30.0
 62
     5
 63
     7
421
 16777215
 74
     0
 91
        4
 64
     7
 65
   257
 75
     1
175
     1
 42
1.0
 92
        8
 66
     7
 43
1.0
 76
     1
 77
     6
 78
     2
 67
     7
 79
     5
170
     0
171
     0
290
     0
174
     0
 93
        1
 44
0.0
173
     0
291
     1
 45
0.0
1001
ACAD
1000
AcDbSavedByObjectVersion
1070
     0
  0
VISUALSTYLE
  5
36
102
{ACAD_REACTORS
330
2A
102
}
330
2A
100
AcDbVisualStyle
  2
Brighten
 70
    12
 71
     2
 72
     2
 73
     0
 90
        0
 40
-0.6
 41
-30.0
 62
     5
 63
     7
421
 16777215
 74
     1
 91
        4
 64
     7
 65
   257
 75
     1
175
     1
 42
1.0
 92
        8
 66
     7
 43
1.0
 76
     1
 77
     6
 78
     2
 67
     7
 79
     5
170
     0
171
     0
290
     0
174
     0
 93
        1
 44
50.0
173
     0
291
     1
 45
0.0
1001
ACAD
1000
AcDbSavedByObjectVersion
1070
     0
  0
VISUALSTYLE
  5
3A
102
{ACAD_REACTORS
330
2A
102
}
330
2A
100
AcDbVisualStyle
  2
ColorChange
 70
    16
 71
     2
 72
     2
 73
     3
 90
        0
 40
-0.6
 41
-30.0
 62
     5
 63
     8
421
  8421504
 74
     1
 91
        4
 64
     7
 65
   257
 75
     1
175
     1
 42
1.0
 92
        8
 66
     8
424
  8421504
 43
1.0
 76
     1
 77
     6
 78
     2
 67
     7
 79
     5
170
     0
171
     0
290
     0
174
     0
 93
        1
 44
0.0
173
     0
291
     1
 45
0.0
1001
ACAD
1000
AcDbSavedByObjectVersion
1070
     0
  0
VISUALSTYLE
  5
34
102
{ACAD_REACTORS
330
2A
102
}
330
2A
100
AcDbVisualStyle
  2
Conceptual
 70
     9
 71
     3
 72
     2
 73
     0
 90
        0
 40
-0.6
 41
-30.0
 62
     5
 63
     7
421
 16777215
 74
     2
 91
        2
 64
     7
 65
   257
 75
     1
175
     1
 42
40.0
 92
        8
 66
     7
 43
1.0
 76
     1
 77
     6
 78
     2
 67
     7
 79
     3
170
     0
171
     0
290
     0
174
     0
 93
        1
 44
0.0
173
     0
291
     0
 45
0.0
1001
ACAD
1000
AcDbSavedByObjectVersion
1070
     0
  0
VISUALSTYLE
  5
35
102
{ACAD_REACTORS
330
2A
102
}
330
2A
100
AcDbVisualStyle
  2
Dim
 70
    11
 71
     2
 72
     2
 73
     0
 90
        0
 40
-0.6
 41
-30.0
 62
     5
 63
     7
421
 16777215
 74
     1
 91
        4
 64
     7
 65
   257
 75
     1
175
     1
 42
1.0
 92
        8
 66
     7
 43
1.0
 76
     1
 77
     6
 78
     2
 67
     7
 79
     5
170
     0
171
     0
290
     0
174
     0
 93
        1
 44
-50.0
173
     0
291
     1
 45
0.0
1001
ACAD
1000
AcDbSavedByObjectVersion
1070
     0
  0
VISUALSTYLE
  5
39
102
{ACAD_REACTORS
330
2A
102
}
330
2A
100
AcDbVisualStyle
  2
Facepattern
 70
    15
 71
     2
 72
     2
 73
     0
 90
        0
 40
-0.6
 41
-30.0
 62
     5
 63
     7
421
 16777215
 74
     1
 91
        4
 64
     7
 65
   257
 75
     1
175
     1
 42
1.0
 92
        8
 66
     7
 43
1.0
 76
     1
 77
     6
 78
     2
 67
     7
 79
     5
170
     0
171
     0
290
     0
174
     0
 93
        1
 44
0.0
173
     0
291
     1
 45
0.0
1001
ACAD
1000
AcDbSavedByObjectVersion
1070
     0
  0
VISUALSTYLE
  5
2B
102
{ACAD_REACTORS
330
2A
102
}
330
2A
100
AcDbVisualStyle
  2
Flat
 70
     0
 71
     2
 72
     1
 73
     1
 90
        2
 40
-0.6
 41
30.0
 62
     5
 63
     7
421
 16777215
 74
     0
 91
        4
 64
     7
 65
   257
 75
     1
175
     1
 42
1.0
 92
        8
 66
     7
 43
1.0
 76
     1
 77
     6
 78
     2
 67
     7
 79
     5
170
     0
171
     0
290
     0
174
     0
 93
       13
 44
0.0
173
     0
291
     1
 45
0.0
1001
ACAD
1000
AcDbSavedByObjectVersion
1070
     0
  0
VISUALSTYLE
  5
2C
102
{ACAD_REACTORS
330
2A
102
}
330
2A
100
AcDbVisualStyle
  2
FlatWithEdges
 70
     1
 71
     2
 72
     1
 73
     1
 90
        2
 40
-0.6
 41
30.0
 62
     5
 63
     7
421
 16777215
 74
     1
 91
        4
 64
     7
 65
   257
 75
     1
175
     1
 42
1.0
 92
        0
 66
   257
 43
1.0
 76
     1
 77
     6
 78
     2
 67
     7
 79
     5
170
     0
171
     0
290
     0
174
     0
 93
       13
 44
0.0
173
     0
291
     1
 45
0.0
1001
ACAD
1000
AcDbSavedByObjectVersion
1070
     0
  0
VISUALSTYLE
  5
2D
102
{ACAD_REACTORS
330
2A
102
}
330
2A
100
AcDbVisualStyle
  2
Gouraud
 70
     2
 71
     2
 72
     2
 73
     1
 90
        2
 40
-0.6
 41
30.0
 62
     5
 63
     7
421
 16777215
 74
     0
 91
        4
 64
     7
 65
   257
 75
     1
175
     1
 42
1.0
 92
        0
 66
     7
 43
1.0
 76
     1
 77
     6
 78
     2
 67
     7
 79
     5
170
     0
171
     0
290
     0
174
     0
 93
       13
 44
0.0
173
     0
291
     1
 45
0.0
1001
ACAD
1000
AcDbSavedByObjectVersion
1070
     0
  0
VISUALSTYLE
  5
2E
102
{ACAD_REACTORS
330
2A
102
}
330
2A
100
AcDbVisualStyle
  2
GouraudWithEdges
 70
     3
 71
     2
 72
     2
 73
     1
 90
        2
 40
-0.6
 41
30.0
 62
     5
 63
     7
421
 16777215
 74
     1
 91
        4
 64
     7
 65
   257
 75
     1
175
     1
 42
1.0
 92
        0
 66
   257
 43
1.0
 76
     1
 77
     6
 78
     2
 67
     7
 79
     5
170
     0
171
     0
290
     0
174
     0
 93
       13
 44
0.0
173
     0
291
     1
 45
0.0
1001
ACAD
1000
AcDbSavedByObjectVersion
1070
     0
  0
VISUALSTYLE
  5
38
102
{ACAD_REACTORS
330
2A
102
}
330
2A
100
AcDbVisualStyle
  2
Linepattern
 70
    14
 71
     2
 72
     2
 73
     0
 90
        0
 40
-0.6
 41
-30.0
 62
     5
 63
     7
421
 16777215
 74
     1
 91
        4
 64
     7
 65
   257
 75
     7
175
     7
 42
1.0
 92
        8
 66
     7
 43
1.0
 76
     1
 77
     6
 78
     2
 67
     7
 79
     5
170
     0
171
     0
290
     0
174
     0
 93
        1
 44
0.0
173
     0
291
     1
 45
0.0
1001
ACAD
1000
AcDbSavedByObjectVersion
1070
     0
  0
VISUALSTYLE
  5
33
102
{ACAD_REACTORS
330
2A
102
}
330
2A
100
AcDbVisualStyle
  2
Realistic
 70
     8
 71
     2
 72
     2
 73
     0
 90
        0
 40
-0.6
 41
-30.0
 62
     5
 63
     7
421
 16777215
 74
     1
 91
        0
 64
     7
 65
   257
 75
     1
175
     1
 42
1.0
 92
        8
 66
     8
424
  7895160
 43
1.0
 76
     1
 77
     6
 78
     2
 67
     7
 79
     5
170
     0
171
     0
290
     0
174
     0
 93
       13
 44
0.0
173
     0
291
     0
 45
0.0
1001
ACAD
1000
AcDbSavedByObjectVersion
1070
     0
  0
VISUALSTYLE
  5
37
102
{ACAD_REACTORS
330
2A
102
}
330
2A
100
AcDbVisualStyle
  2
Thicken
 70
    13
 71
     2
 72
     2
 73
     0
 90
        0
 40
-0.6
 41
-30.0
 62
     5
 63
     7
421
 16777215
 74
     1
 91
        4
 64
     7
 65
   257
 75
     1
175
     1
 42
1.0
 92
       12
 66
     7
 43
1.0
 76
     1
 77
     6
 78
     2
 67
     7
 79
     5
170
     0
171
     0
290
     0
174
     0
 93
        1
 44
0.0
173
     0
291
     1
 45
0.0
1001
ACAD
1000
AcDbSavedByObjectVersion
1070
     0
  0
ENDSEC
  0
EOF
