  0
SECTION
  2
HEADER
  9
$ACADVER
  1
AC1021
  9
$ACADMAINTVER
 70
    25
  9
$DWGCODEPAGE
  3
ANSI_1252
  9
$INSBASE
 10
0.0
 20
0.0
 30
0.0
  9
$EXTMIN
 10
1.000000000000000E+20
 20
1.000000000000000E+20
 30
1.000000000000000E+20
  9
$EXTMAX
 10
-1.000000000000000E+20
 20
-1.000000000000000E+20
 30
-1.000000000000000E+20
  9
$LIMMIN
 10
0.0
 20
0.0
  9
$LIMMAX
 10
12.0
 20
9.0
  9
$ORTHOMODE
 70
     0
  9
$REGENMODE
 70
     1
  9
$FILLMODE
 70
     1
  9
$QTEXTMODE
 70
     0
  9
$MIRRTEXT
 70
     1
  9
$LTSCALE
 40
1.0
  9
$ATTMODE
 70
     1
  9
$TEXTSIZE
 40
0.2
  9
$TRACEWID
 40
0.05
  9
$TEXTSTYLE
  7
Standard
  9
$CLAYER
  8
Layer 01
  9
$CELTYPE
  6
ByLayer
  9
$CECOLOR
 62
   256
  9
$CELTSCALE
 40
1.0
  9
$DISPSILH
 70
     0
  9
$DIMSCALE
 40
1.0
  9
$DIMASZ
 40
0.18
  9
$DIMEXO
 40
0.0625
  9
$DIMDLI
 40
0.38
  9
$DIMRND
 40
0.0
  9
$DIMDLE
 40
0.0
  9
$DIMEXE
 40
0.18
  9
$DIMTP
 40
0.0
  9
$DIMTM
 40
0.0
  9
$DIMTXT
 40
0.18
  9
$DIMCEN
 40
0.09
  9
$DIMTSZ
 40
0.0
  9
$DIMTOL
 70
     0
  9
$DIMLIM
 70
     0
  9
$DIMTIH
 70
     1
  9
$DIMTOH
 70
     1
  9
$DIMSE1
 70
     0
  9
$DIMSE2
 70
     0
  9
$DIMTAD
 70
     0
  9
$DIMZIN
 70
     0
  9
$DIMBLK
  1

  9
$DIMASO
 70
     1
  9
$DIMSHO
 70
     1
  9
$DIMPOST
  1

  9
$DIMAPOST
  1

  9
$DIMALT
 70
     0
  9
$DIMALTD
 70
     2
  9
$DIMALTF
 40
25.4
  9
$DIMLFAC
 40
1.0
  9
$DIMTOFL
 70
     0
  9
$DIMTVP
 40
0.0
  9
$DIMTIX
 70
     0
  9
$DIMSOXD
 70
     0
  9
$DIMSAH
 70
     0
  9
$DIMBLK1
  1

  9
$DIMBLK2
  1

  9
$DIMSTYLE
  2
STANDARD_ACAD
  9
$DIMCLRD
 70
     0
  9
$DIMCLRE
 70
     0
  9
$DIMCLRT
 70
     0
  9
$DIMTFAC
 40
1.0
  9
$DIMGAP
 40
0.09
  9
$DIMJUST
 70
     0
  9
$DIMSD1
 70
     0
  9
$DIMSD2
 70
     0
  9
$DIMTOLJ
 70
     1
  9
$DIMTZIN
 70
     0
  9
$DIMALTZ
 70
     0
  9
$DIMALTTZ
 70
     0
  9
$DIMUPT
 70
     0
  9
$DIMDEC
 70
     4
  9
$DIMTDEC
 70
     4
  9
$DIMALTU
 70
     2
  9
$DIMALTTD
 70
     2
  9
$DIMTXSTY
  7
Standard
  9
$DIMAUNIT
 70
     0
  9
$DIMADEC
 70
     0
  9
$DIMALTRND
 40
0.0
  9
$DIMAZIN
 70
     0
  9
$DIMDSEP
 70
    46
  9
$DIMATFIT
 70
     3
  9
$DIMFRAC
 70
     0
  9
$DIMLDRBLK
  1

  9
$DIMLUNIT
 70
     2
  9
$DIMLWD
 70
    -2
  9
$DIMLWE
 70
    -2
  9
$DIMTMOVE
 70
     2
  9
$DIMFXL
 40
1.0
  9
$DIMFXLON
 70
     0
  9
$DIMJOGANG
 40
0.7853981633974483
  9
$DIMTFILL
 70
     0
  9
$DIMTFILLCLR
 70
     0
  9
$DIMARCSYM
 70
     0
  9
$DIMLTYPE
  6

  9
$DIMLTEX1
  6

  9
$DIMLTEX2
  6

  9
$LUNITS
 70
     2
  9
$LUPREC
 70
     3
  9
$SKETCHINC
 40
0.1
  9
$FILLETRAD
 40
0.5
  9
$AUNITS
 70
     0
  9
$AUPREC
 70
     0
  9
$MENU
  1
.
  9
$ELEVATION
 40
0.0
  9
$PELEVATION
 40
0.0
  9
$THICKNESS
 40
0.0
  9
$LIMCHECK
 70
     0
  9
$CHAMFERA
 40
0.0
  9
$CHAMFERB
 40
0.0
  9
$CHAMFERC
 40
0.0
  9
$CHAMFERD
 40
0.0
  9
$SKPOLY
 70
     0
  9
$TDCREATE
 40
2458603.392379271
  9
$TDUCREATE
 40
2458603.559045937
  9
$TDUPDATE
 40
2458603.392388599
  9
$TDUUPDATE
 40
2458603.559055266
  9
$TDINDWG
 40
0.0000000116
  9
$TDUSRTIMER
 40
0.0000000116
  9
$USRTIMER
 70
     1
  9
$ANGBASE
 50
0.0
  9
$ANGDIR
 70
     0
  9
$PDMODE
 70
     0
  9
$PDSIZE
 40
0.0
  9
$PLINEWID
 40
0.0
  9
$SPLFRAME
 70
     0
  9
$SPLINETYPE
 70
     6
  9
$SPLINESEGS
 70
     8
  9
$HANDSEED
  5
E6
  9
$SURFTAB1
 70
     6
  9
$SURFTAB2
 70
     6
  9
$SURFTYPE
 70
     6
  9
$SURFU
 70
     6
  9
$SURFV
 70
     6
  9
$UCSBASE
  2

  9
$UCSNAME
  2

  9
$UCSORG
 10
0.0
 20
0.0
 30
0.0
  9
$UCSXDIR
 10
1.0
 20
0.0
 30
0.0
  9
$UCSYDIR
 10
0.0
 20
1.0
 30
0.0
  9
$UCSORTHOREF
  2

  9
$UCSORTHOVIEW
 70
     0
  9
$UCSORGTOP
 10
0.0
 20
0.0
 30
0.0
  9
$UCSORGBOTTOM
 10
0.0
 20
0.0
 30
0.0
  9
$UCSORGLEFT
 10
0.0
 20
0.0
 30
0.0
  9
$UCSORGRIGHT
 10
0.0
 20
0.0
 30
0.0
  9
$UCSORGFRONT
 10
0.0
 20
0.0
 30
0.0
  9
$UCSORGBACK
 10
0.0
 20
0.0
 30
0.0
  9
$PUCSBASE
  2

  9
$PUCSNAME
  2

  9
$PUCSORG
 10
0.0
 20
0.0
 30
0.0
  9
$PUCSXDIR
 10
1.0
 20
0.0
 30
0.0
  9
$PUCSYDIR
 10
0.0
 20
1.0
 30
0.0
  9
$PUCSORTHOREF
  2

  9
$PUCSORTHOVIEW
 70
     0
  9
$PUCSORGTOP
 10
0.0
 20
0.0
 30
0.0
  9
$PUCSORGBOTTOM
 10
0.0
 20
0.0
 30
0.0
  9
$PUCSORGLEFT
 10
0.0
 20
0.0
 30
0.0
  9
$PUCSORGRIGHT
 10
0.0
 20
0.0
 30
0.0
  9
$PUCSORGFRONT
 10
0.0
 20
0.0
 30
0.0
  9
$PUCSORGBACK
 10
0.0
 20
0.0
 30
0.0
  9
$USERI1
 70
     0
  9
$USERI2
 70
     0
  9
$USERI3
 70
     0
  9
$USERI4
 70
     0
  9
$USERI5
 70
     0
  9
$USERR1
 40
0.0
  9
$USERR2
 40
0.0
  9
$USERR3
 40
0.0
  9
$USERR4
 40
0.0
  9
$USERR5
 40
0.0
  9
$WORLDVIEW
 70
     1
  9
$SHADEDGE
 70
     3
  9
$SHADEDIF
 70
    70
  9
$TILEMODE
 70
     1
  9
$MAXACTVP
 70
    64
  9
$PINSBASE
 10
0.0
 20
0.0
 30
0.0
  9
$PLIMCHECK
 70
     0
  9
$PEXTMIN
 10
1.000000000000000E+20
 20
1.000000000000000E+20
 30
1.000000000000000E+20
  9
$PEXTMAX
 10
-1.000000000000000E+20
 20
-1.000000000000000E+20
 30
-1.000000000000000E+20
  9
$PLIMMIN
 10
0.0
 20
0.0
  9
$PLIMMAX
 10
12.0
 20
9.0
  9
$UNITMODE
 70
     0
  9
$VISRETAIN
 70
     1
  9
$PLINEGEN
 70
     0
  9
$PSLTSCALE
 70
     1
  9
$TREEDEPTH
 70
  3020
  9
$CMLSTYLE
  2
Standard
  9
$CMLJUST
 70
     0
  9
$CMLSCALE
 40
1.0
  9
$PROXYGRAPHICS
 70
     1
  9
$MEASUREMENT
 70
     0
  9
$CELWEIGHT
370
    -1
  9
$ENDCAPS
280
     0
  9
$JOINSTYLE
280
     0
  9
$LWDISPLAY
290
     0
  9
$INSUNITS
 70
     1
  9
$HYPERLINKBASE
  1

  9
$STYLESHEET
  1

  9
$XEDIT
290
     1
  9
$CEPSNTYPE
380
     0
  9
$PSTYLEMODE
290
     1
  9
$FINGERPRINTGUID
  2
{ec716abf-6bbb-4fa6-82a1-9b8bcca9f7d7}
  9
$VERSIONGUID
  2
{FAEB1C32-E019-11D5-929B-00C0DF256EC4}
  9
$EXTNAMES
290
     1
  9
$PSVPSCALE
 40
0.0
  9
$OLESTARTUP
290
     0
  9
$SORTENTS
280
   127
  9
$INDEXCTL
280
     0
  9
$HIDETEXT
280
     1
  9
$XCLIPFRAME
290
     0
  9
$HALOGAP
280
     0
  9
$OBSCOLOR
 70
   257
  9
$OBSLTYPE
280
     0
  9
$INTERSECTIONDISPLAY
280
     0
  9
$INTERSECTIONCOLOR
 70
   257
  9
$DIMASSOC
280
     2
  9
$PROJECTNAME
  1

  9
$CAMERADISPLAY
290
     0
  9
$LENSLENGTH
 40
50.0
  9
$CAMERAHEIGHT
 40
0.0
  9
$STEPSPERSEC
 40
2.0
  9
$STEPSIZE
 40
6.0
  9
$3DDWFPREC
 40
2.0
  9
$PSOLWIDTH
 40
0.25
  9
$PSOLHEIGHT
 40
4.0
  9
$LOFTANG1
 40
1.570796326794897
  9
$LOFTANG2
 40
1.570796326794897
  9
$LOFTMAG1
 40
0.0
  9
$LOFTMAG2
 40
0.0
  9
$LOFTPARAM
 70
     7
  9
$LOFTNORMALS
280
     1
  9
$LATITUDE
 40
37.795
  9
$LONGITUDE
 40
-122.394
  9
$NORTHDIRECTION
 40
0.0
  9
$TIMEZONE
 70
 -8000
  9
$LIGHTGLYPHDISPLAY
280
     1
  9
$TILEMODELIGHTSYNCH
280
     1
  9
$CMATERIAL
347
44
  9
$SOLIDHIST
280
     0
  9
$SHOWHIST
280
     1
  9
$DWFFRAME
280
     2
  9
$DGNFRAME
280
     2
  9
$REALWORLDSCALE
290
     1
  9
$INTERFERECOLOR
 62
   256
  9
$CSHADOW
280
     0
  9
$SHADOWPLANELOCATION
 40
0.0
  0
ENDSEC
  0
SECTION
  2
CLASSES
  0
CLASS
  1
ACDBDICTIONARYWDFLT
  2
AcDbDictionaryWithDefault
  3
ObjectDBX Classes
 90
        0
 91
        3
280
     0
281
     0
  0
CLASS
  1
VISUALSTYLE
  2
AcDbVisualStyle
  3
ObjectDBX Classes
 90
     4095
 91
        3
280
     0
281
     0
  0
CLASS
  1
MATERIAL
  2
AcDbMaterial
  3
ObjectDBX Classes
 90
     1153
 91
        3
280
     0
281
     0
  0
CLASS
  1
SCALE
  2
AcDbScale
  3
ObjectDBX Classes
 90
     1153
 91
        3
280
     0
281
     0
  0
CLASS
  1
TABLESTYLE
  2
AcDbTableStyle
  3
ObjectDBX Classes
 90
     4095
 91
        3
280
     0
281
     0
  0
CLASS
  1
MLEADERSTYLE
  2
AcDbMLeaderStyle
  3
ACDB_MLEADERSTYLE_CLASS
 90
     4095
 91
        3
280
     0
281
     0
  0
CLASS
  1
SUN
  2
AcDbSun
  3
SCENEOE
 90
     1153
 91
        3
280
     0
281
     0
  0
CLASS
  1
DICTIONARYVAR
  2
AcDbDictionaryVar
  3
ObjectDBX Classes
 90
        0
 91
        3
280
     0
281
     0
  0
CLASS
  1
CELLSTYLEMAP
  2
AcDbCellStyleMap
  3
ObjectDBX Classes
 90
     1152
 91
        3
280
     0
281
     0
  0
ENDSEC
  0
SECTION
  2
TABLES
  0
TABLE
  2
VPORT
  5
8
330
0
100
AcDbSymbolTable
 70
     1
  0
VPORT
  5
29
330
8
100
AcDbSymbolTableRecord
100
AcDbViewportTableRecord
  2
*Active
 70
     0
 10
0.0
 20
0.0
 11
1.0
 21
1.0
 12
10.42990654205607
 22
4.5
 13
0.0
 23
0.0
 14
0.5
 24
0.5
 15
0.5
 25
0.5
 16
0.0
 26
0.0
 36
1.0
 17
0.0
 27
0.0
 37
0.0
 40
9.0
 41
1.972972972850329
 42
50.0
 43
0.0
 44
0.0
 50
0.0
 51
0.0
 71
     0
 72
   100
 73
     1
 74
     3
 75
     0
 76
     0
 77
     0
 78
     0
281
     0
 65
     1
110
0.0
120
0.0
130
0.0
111
1.0
121
0.0
131
0.0
112
0.0
122
1.0
132
0.0
 79
     0
146
0.0
348
2F
 60
     3
 61
     5
292
     1
282
     1
141
0.0
142
0.0
 63
   250
361
6D
  0
ENDTAB
  0
TABLE
  2
LTYPE
  5
5
330
0
100
AcDbSymbolTable
 70
     1
  0
LTYPE
  5
14
330
5
100
AcDbSymbolTableRecord
100
AcDbLinetypeTableRecord
  2
ByBlock
 70
     0
  3

 72
    65
 73
     0
 40
0.0
  0
LTYPE
  5
15
330
5
100
AcDbSymbolTableRecord
100
AcDbLinetypeTableRecord
  2
ByLayer
 70
     0
  3

 72
    65
 73
     0
 40
0.0
  0
LTYPE
  5
16
330
5
100
AcDbSymbolTableRecord
100
AcDbLinetypeTableRecord
  2
Continuous
 70
     0
  3
Solid line
 72
    65
 73
     0
 40
0.0
  0
ENDTAB
  0
TABLE
  2
LAYER
  5
2
330
0
100
AcDbSymbolTable
 70
     2
  0
LAYER
  5
10
330
2
100
AcDbSymbolTableRecord
100
AcDbLayerTableRecord
  2
0
 70
     0
 62
     7
  6
Continuous
370
    -3
390
F
347
46
  0
LAYER
  5
6E
330
2
100
AcDbSymbolTableRecord
100
AcDbLayerTableRecord
  2
Layer 01
 70
     0
 62
    18
420
        0
  6
Continuous
370
    -3
390
F
347
46
  0
ENDTAB
  0
TABLE
  2
STYLE
  5
3
330
0
100
AcDbSymbolTable
 70
     1
  0
STYLE
  5
11
330
3
100
AcDbSymbolTableRecord
100
AcDbTextStyleTableRecord
  2
Standard
 70
     0
 40
0.0
 41
1.0
 50
0.0
 71
     0
 42
0.2
  3
txt
  4

  0
ENDTAB
  0
TABLE
  2
VIEW
  5
6
330
0
100
AcDbSymbolTable
 70
     0
  0
ENDTAB
  0
TABLE
  2
UCS
  5
7
330
0
100
AcDbSymbolTable
 70
     0
  0
ENDTAB
  0
TABLE
  2
APPID
  5
9
330
0
100
AcDbSymbolTable
 70
     2
  0
APPID
  5
12
330
9
100
AcDbSymbolTableRecord
100
AcDbRegAppTableRecord
  2
ACAD
 70
     0
  0
APPID
  5
DE
330
9
100
AcDbSymbolTableRecord
100
AcDbRegAppTableRecord
  2
ACAD_MLEADERVER
 70
     0
  0
ENDTAB
  0
TABLE
  2
DIMSTYLE
  5
A
330
0
100
AcDbSymbolTable
 70
     1
100
AcDbDimStyleTable
  0
DIMSTYLE
105
27
330
A
100
AcDbSymbolTableRecord
100
AcDbDimStyleTableRecord
  2
STANDARD_ACAD
 70
     0
178
     0
340
11
  0
ENDTAB
  0
TABLE
  2
BLOCK_RECORD
  5
1
330
0
100
AcDbSymbolTable
 70
     1
  0
BLOCK_RECORD
  5
1F
330
1
100
AcDbSymbolTableRecord
100
AcDbBlockTableRecord
  2
*Model_Space
340
22
 70
     0
280
     1
281
     0
  0
BLOCK_RECORD
  5
1B
330
1
100
AcDbSymbolTableRecord
100
AcDbBlockTableRecord
  2
*Paper_Space
340
1E
 70
     0
280
     1
281
     0
  0
BLOCK_RECORD
  5
23
330
1
100
AcDbSymbolTableRecord
100
AcDbBlockTableRecord
  2
*Paper_Space0
340
26
 70
     0
280
     1
281
     0
  0
ENDTAB
  0
ENDSEC
  0
SECTION
  2
BLOCKS
  0
BLOCK
  5
20
330
1F
100
AcDbEntity
  8
0
100
AcDbBlockBegin
  2
*Model_Space
 70
     0
 10
0.0
 20
0.0
 30
0.0
  3
*Model_Space
  1

  0
ENDBLK
  5
21
330
1F
100
AcDbEntity
  8
0
100
AcDbBlockEnd
  0
BLOCK
  5
1C
330
1B
100
AcDbEntity
 67
     1
  8
0
100
AcDbBlockBegin
  2
*Paper_Space
 70
     0
 10
0.0
 20
0.0
 30
0.0
  3
*Paper_Space
  1

  0
ENDBLK
  5
1D
330
1B
100
AcDbEntity
 67
     1
  8
0
100
AcDbBlockEnd
  0
BLOCK
  5
24
330
23
100
AcDbEntity
  8
0
100
AcDbBlockBegin
  2
*Paper_Space0
 70
     0
 10
0.0
 20
0.0
 30
0.0
  3
*Paper_Space0
  1

  0
ENDBLK
  5
25
330
23
100
AcDbEntity
  8
0
100
AcDbBlockEnd
  0
ENDSEC
  0
SECTION
  2
ENTITIES
  0
LINE
  5
6F
330
1F
100
AcDbEntity
  8
Layer 01
370
    -3
100
AcDbLine
 10
44.50658141760443
 20
2.420305999941755
 30
0.0
 11
44.50658141760443
 21
6.599638803091229
 31
0.0
  0
LINE
  5
70
330
1F
100
AcDbEntity
  8
Layer 01
370
    -3
100
AcDbLine
 10
42.00658141760443
 20
6.320872798824958
 30
0.0
 11
42.00658141760443
 21
2.417786364762875
 31
0.0
  0
SPLINE
  5
71
330
1F
100
AcDbEntity
  8
Layer 01
370
    -3
100
AcDbSpline
210
0.0
220
0.0
230
1.0
 70
     8
 71
     2
 72
    29
 73
    26
 74
     0
 42
0.000000001
 43
0.0000000001
 40
-0.0828700230870224
 40
-0.0828700230870224
 40
-0.0828700230870224
 40
1.0
 40
2.0
 40
3.0
 40
3.0
 40
4.0
 40
4.0
 40
5.0
 40
6.0
 40
7.0
 40
8.0
 40
9.0
 40
10.0
 40
10.0
 40
11.0
 40
12.0
 40
13.0
 40
14.0
 40
15.0
 40
16.0
 40
17.0
 40
18.0
 40
19.0
 40
20.0
 40
21.0
 40
21.0
 40
21.0
 10
39.11680344347449
 20
6.270554145315705
 30
0.0
 10
40.07061682850869
 20
6.230401551989402
 30
0.0
 10
41.90414913665569
 20
6.295711501641684
 30
0.0
 10
43.65553104762768
 20
6.491507993966083
 30
0.0
 10
44.52918816629511
 20
6.6025119478536
 30
0.0
 10
45.40284528496256
 20
6.713515901741116
 30
0.0
 10
46.27745069888114
 20
6.82222174270619
 30
0.0
 10
47.15205611279972
 20
6.930927583671264
 30
0.0
 10
48.87252866541447
 20
7.311564407206827
 30
0.0
 10
50.57825433630867
 20
7.752350439799608
 30
0.0
 10
52.26743379674544
 20
8.253151462973488
 30
0.0
 10
53.93438647269782
 20
8.823642655173341
 30
0.0
 10
55.66968662085488
 20
9.506605128240086
 30
0.0
 10
56.44354104523217
 20
9.928822206523897
 30
0.0
 10
56.76217798404006
 20
10.10267138680741
 30
0.0
 10
57.43705168798409
 20
10.58254017743013
 30
0.0
 10
57.86402020009723
 20
11.17527385641794
 30
0.0
 10
57.94269204336189
 20
11.91050016403179
 30
0.0
 10
57.97510249391947
 20
12.63425077432348
 30
0.0
 10
57.92508687758888
 20
13.35903038830341
 30
0.0
 10
57.76695571873617
 20
14.07640732762195
 30
0.0
 10
57.31193134764366
 20
14.65490656985354
 30
0.0
 10
56.72853405773661
 20
15.09173186488424
 30
0.0
 10
56.05686361228495
 20
15.37877108616217
 30
0.0
 10
55.3382512409124
 20
15.49272884547443
 30
0.0
 10
54.97611714025577
 20
15.51995888172351
 30
0.0
  0
LINE
  5
72
330
1F
100
AcDbEntity
  8
Layer 01
370
    -3
100
AcDbLine
 10
1.250000000000007
 20
2.420305999941755
 30
0.0
 11
1.250000000000007
 21
6.968508982983666
 31
0.0
  0
LINE
  5
73
330
1F
100
AcDbEntity
  8
Layer 01
370
    -3
100
AcDbLine
 10
-1.249999999999993
 20
6.968508982983664
 30
0.0
 11
-1.249999999999993
 21
2.417786364762875
 31
0.0
  0
SPLINE
  5
74
330
1F
100
AcDbEntity
  8
Layer 01
100
AcDbSpline
210
0.0
220
0.0
230
1.0
 70
     8
 71
     3
 72
    12
 73
     8
 74
     0
 42
0.000000001
 43
0.0000000001
 40
-97.76207901499909
 40
-97.76207901499909
 40
-97.76207901499909
 40
-97.76207901499909
 40
-96.76308949873632
 40
-96.76308949873632
 40
-95.76308949873632
 40
-95.76308949873632
 40
-94.76308949873632
 40
-94.76308949873632
 40
-94.76308949873632
 40
-94.76308949873632
 10
-1.250000000000002
 20
6.260619625000378
 30
0.0
 10
-1.578024894529191
 20
6.26504469776135
 30
0.0
 10
-1.906000089781729
 20
6.271883144299197
 30
0.0
 10
-2.562182780290209
 20
6.290396143198993
 30
0.0
 10
-2.890331706558642
 20
6.302633684649757
 30
0.0
 10
-3.546413022567192
 20
6.333061493282668
 30
0.0
 10
-3.874232587818121
 20
6.352107022628839
 30
0.0
 10
-4.201831060315024
 20
6.374984177004604
 30
0.0
  0
SPLINE
  5
75
330
1F
100
AcDbEntity
  8
Layer 01
100
AcDbSpline
210
0.0
220
0.0
230
1.0
 70
     8
 71
     3
 72
    12
 73
     8
 74
     0
 42
0.000000001
 43
0.0000000001
 40
-101.7630894987363
 40
-101.7630894987363
 40
-101.7630894987363
 40
-101.7630894987363
 40
-100.7630894987363
 40
-100.7630894987363
 40
-99.76308949873632
 40
-99.76308949873632
 40
-98.76409998247357
 40
-98.76409998247357
 40
-98.76409998247357
 40
-98.76409998247357
 10
4.201831060315707
 20
6.374984177004731
 30
0.0
 10
3.874232587818122
 20
6.352107022628846
 30
0.0
 10
3.546413022567193
 20
6.333061493282675
 30
0.0
 10
2.890331706558643
 20
6.302633684649762
 30
0.0
 10
2.56218278029021
 20
6.290396143198997
 30
0.0
 10
1.906000089781735
 20
6.271883144299202
 30
0.0
 10
1.578024894529201
 20
6.265044697761353
 30
0.0
 10
1.250000000000017
 20
6.26061962500038
 30
0.0
  0
SPLINE
  5
76
330
1F
100
AcDbEntity
  8
Layer 01
100
AcDbSpline
210
0.0
220
0.0
230
1.0
 70
    12
 71
     3
 72
   157
 73
   153
 74
     0
 42
0.000000001
 43
0.0000000001
 40
-94.76308949873632
 40
-94.76308949873632
 40
-94.76308949873632
 40
-94.76308949873632
 40
-94.59732364879035
 40
-94.23133617108574
 40
-94.23133617108574
 40
-94.23133617108574
 40
-93.23133617108574
 40
-93.23133617108574
 40
-93.23133617108574
 40
-92.23133617108574
 40
-92.23133617108574
 40
-91.23133617108574
 40
-91.23133617108574
 40
-90.23133617108574
 40
-90.23133617108574
 40
-89.23133617108574
 40
-89.23133617108574
 40
-88.23133617108574
 40
-88.23133617108574
 40
-87.23133617108574
 40
-87.23133617108574
 40
-87.23133617108574
 40
-87.12149221536436
 40
-87.12149221536436
 40
-87.12149221536436
 40
-86.77527837664287
 40
-86.77527837664287
 40
-86.77527837664287
 40
-85.77527837664287
 40
-85.77527837664287
 40
-84.77527837664287
 40
-84.77527837664287
 40
-83.77527837664287
 40
-83.77527837664287
 40
-82.77527837664287
 40
-82.77527837664287
 40
-81.77527837664287
 40
-81.77527837664287
 40
-80.77527837664287
 40
-80.77527837664287
 40
-79.77527837664287
 40
-79.77527837664287
 40
-78.77527837664287
 40
-78.77527837664287
 40
-77.77527837664287
 40
-77.77527837664287
 40
-76.77527837664287
 40
-76.77527837664287
 40
-76.77527837664287
 40
-75.77527837664287
 40
-75.77527837664287
 40
-75.77527837664287
 40
-74.77527837664287
 40
-74.77527837664287
 40
-73.77527837664287
 40
-73.77527837664287
 40
-72.77527837664287
 40
-72.77527837664287
 40
-71.77527837664287
 40
-71.77527837664287
 40
-70.77527837664287
 40
-70.77527837664287
 40
-70.77527837664287
 40
-69.77527837664287
 40
-69.77527837664287
 40
-68.77527837664287
 40
-68.77527837664287
 40
-67.77527837664287
 40
-67.77527837664287
 40
-66.77527837664287
 40
-66.77527837664287
 40
-65.77527837664287
 40
-65.77527837664287
 40
-64.77527837664287
 40
-64.77527837664287
 40
-63.77527837664287
 40
-63.77527837664287
 40
-63.77527837664287
 40
-62.77527837664287
 40
-62.77527837664287
 40
-61.77527837664287
 40
-61.77527837664287
 40
-60.77527837664287
 40
-60.77527837664287
 40
-59.77527837664287
 40
-59.77527837664287
 40
-58.77527837664287
 40
-58.77527837664287
 40
-57.77527837664287
 40
-57.77527837664287
 40
-56.77527837664287
 40
-56.77527837664287
 40
-56.77527837664287
 40
-55.77527837664287
 40
-55.77527837664287
 40
-54.77527837664287
 40
-54.77527837664287
 40
-53.77527837664287
 40
-53.77527837664287
 40
-52.77527837664287
 40
-52.77527837664287
 40
-51.77527837664287
 40
-51.77527837664287
 40
-51.77527837664287
 40
-50.77527837664287
 40
-50.77527837664287
 40
-50.77527837664287
 40
-49.77527837664287
 40
-49.77527837664287
 40
-48.77527837664287
 40
-48.77527837664287
 40
-47.77527837664287
 40
-47.77527837664287
 40
-46.77527837664287
 40
-46.77527837664287
 40
-45.77527837664287
 40
-45.77527837664287
 40
-44.77527837664287
 40
-44.77527837664287
 40
-43.77527837664287
 40
-43.77527837664287
 40
-42.77527837664287
 40
-42.77527837664287
 40
-41.77527837664287
 40
-41.77527837664287
 40
-40.77527837664287
 40
-40.77527837664287
 40
-40.77527837664287
 40
-40.42896859537132
 40
-40.42896859537132
 40
-40.42896859537132
 40
-40.31912463965011
 40
-40.31912463965011
 40
-40.31912463965011
 40
-39.31912463965011
 40
-39.31912463965011
 40
-38.31912463965011
 40
-38.31912463965011
 40
-37.31912463965011
 40
-37.31912463965011
 40
-36.31912463965011
 40
-36.31912463965011
 40
-35.31912463965011
 40
-35.31912463965011
 40
-34.31912463965011
 40
-34.31912463965011
 40
-34.31912463965011
 40
-33.31912463965011
 40
-33.31912463965011
 40
-33.31912463965011
 40
-32.9531371619455
 40
-32.78737131199953
 40
-32.78737131199953
 40
-32.78737131199953
 40
-32.78737131199953
 10
-4.201831060315024
 20
6.374984177004604
 30
0.0
 41
1.0
 10
-4.202570916851036
 20
6.370788242078719
 30
0.0
 41
1.0
 10
-4.204852408194919
 20
6.357849261698429
 30
0.0
 41
1.0
 10
-4.206786922212003
 20
6.346878087524598
 30
0.0
 41
1.0
 10
-4.207942965219002
 20
6.340321841836098
 30
0.0
 41
1.0
 10
-4.219172120576403
 20
6.276638137205928
 30
0.0
 41
1.0
 10
-4.254378243585572
 20
6.24022874883619
 30
0.0
 41
1.0
 10
-4.316156732260477
 20
6.244786068772582
 30
0.0
 41
1.0
 10
-4.554860520929203
 20
6.262394941348228
 30
0.0
 41
1.0
 10
-4.793345245877775
 20
6.282615256390388
 30
0.0
 41
1.0
 10
-5.269876568334612
 20
6.328278771407735
 30
0.0
 41
1.0
 10
-5.507794900166956
 20
6.354270441813836
 30
0.0
 41
1.0
 10
-5.982936905039484
 20
6.412573608420895
 30
0.0
 41
1.0
 10
-6.219878735480104
 20
6.446475413245211
 30
0.0
 41
1.0
 10
-6.692504052370054
 20
6.523779465935407
 30
0.0
 41
1.0
 10
-6.927700736585265
 20
6.567028760667452
 30
0.0
 41
1.0
 10
-7.395862156556162
 20
6.662721886905435
 30
0.0
 41
1.0
 10
-7.649999392235326
 20
6.723003308047104
 30
0.0
 41
1.0
 10
-8.198386914981086
 20
6.868435866375795
 30
0.0
 41
1.0
 10
-8.448630465245289
 20
6.943931672465888
 30
0.0
 41
1.0
 10
-8.674923804400814
 20
7.02220700548173
 30
0.0
 41
1.0
 10
-8.729421116700335
 20
7.04105773827233
 30
0.0
 41
1.0
 10
-8.784039575296896
 20
7.060323250601969
 30
0.0
 41
1.0
 10
-8.838779180190485
 20
7.080003542470651
 30
0.0
 41
1.0
 10
-8.924574712616398
 20
7.11604441999404
 30
0.0
 41
1.000255600332175
 10
-9.009598465348308
 20
7.153824860554107
 30
0.0
 41
1.000650711921945
 10
-9.093815808938999
 20
7.193327010957994
 30
0.0
 41
1.001185334769309
 10
-9.337187361986683
 20
7.307480453498773
 30
0.0
 41
1.001185334769309
 10
-9.573005448395199
 20
7.435630038623814
 30
0.0
 41
1.001185334769309
 10
-10.02953468793391
 20
7.719921494042415
 30
0.0
 41
1.001185334769309
 10
-10.24803098212366
 20
7.875792314144745
 30
0.0
 41
1.001185334769309
 10
-10.665486919344
 20
8.214984139135467
 30
0.0
 41
1.001185334769309
 10
-10.8606007967584
 20
8.39904670880128
 30
0.0
 41
1.001185334769309
 10
-11.22360036919566
 20
8.796105162473802
 30
0.0
 41
1.001185334769309
 10
-11.38999256618183
 20
9.006698220532911
 30
0.0
 41
1.001185334769309
 10
-11.69256178168922
 20
9.452011999096833
 30
0.0
 41
1.001185334769309
 10
-11.81987036192669
 20
9.688076057224455
 30
0.0
 41
1.001185334769309
 10
-12.02653546736917
 20
10.18701851117103
 30
0.0
 41
1.001185334769309
 10
-12.09532471459003
 20
10.44521578477726
 30
0.0
 41
1.001185334769309
 10
-12.16381659803099
 20
10.97906242525562
 30
0.0
 41
1.001185334769309
 10
-12.18792185784988
 20
11.24662296877181
 30
0.0
 41
1.001185334769309
 10
-12.21585101368452
 20
11.78301850235818
 30
0.0
 41
1.001185334769309
 10
-12.22698502010063
 20
12.05133148712775
 30
0.0
 41
1.001185334769309
 10
-12.24359188993042
 20
12.58818789261964
 30
0.0
 41
1.001185334769309
 10
-12.24229897068529
 20
12.85669545001719
 30
0.0
 41
1.001185334769309
 10
-12.22052042387501
 20
13.3938692741155
 30
0.0
 41
1.001185334769309
 10
-12.1926695611033
 20
13.66073715510329
 30
0.0
 41
1.001185334769309
 10
-12.14785710896501
 20
13.9258860050297
 30
0.0
 41
1.001185334769309
 10
-12.14180838806637
 20
13.96167541875895
 30
0.0
 41
1.001185334769309
 10
-12.11313412578875
 20
14.0129940027621
 30
0.0
 41
1.001185334769309
 10
-12.09228737678221
 20
14.04426025303564
 30
0.0
 41
1.001185334769309
 10
-11.98770982262428
 20
14.20110715421287
 30
0.0
 41
1.001185334769309
 10
-11.86782480930579
 20
14.34521658489204
 30
0.0
 41
1.001185334769309
 10
-11.59743986434774
 20
14.60796050525429
 30
0.0
 41
1.001185334769309
 10
-11.45000517747653
 20
14.7236783126
 30
0.0
 41
1.001185334769309
 10
-11.13065137494974
 20
14.9238056216206
 30
0.0
 41
1.001185334769309
 10
-10.96273574656168
 20
15.00724439847667
 30
0.0
 41
1.001185334769309
 10
-10.61042703553625
 20
15.14087219688033
 30
0.0
 41
1.001185334769309
 10
-10.42821761282698
 20
15.1920675714081
 30
0.0
 41
1.001185334769309
 10
-10.05168863301533
 20
15.26322127111551
 30
0.0
 41
1.001185334769309
 10
-9.863869498874125
 20
15.28834763777606
 30
0.0
 41
1.001185334769309
 10
-9.676495720497542
 20
15.30302352124348
 30
0.0
 41
1.001185334769309
 10
-9.217417938676771
 20
15.33898037757019
 30
0.0
 41
1.001185334769309
 10
-8.75598195846951
 20
15.36342497098182
 30
0.0
 41
1.001185334769309
 10
-7.82839360128201
 20
15.38928963197489
 30
0.0
 41
1.001185334769309
 10
-7.366330451406661
 20
15.40019905176369
 30
0.0
 41
1.001185334769309
 10
-6.445666209092757
 20
15.41797206992582
 30
0.0
 41
1.001185334769309
 10
-5.985307599984532
 20
15.42551606817769
 30
0.0
 41
1.001185334769309
 10
-5.064537405865536
 20
15.43791904302304
 30
0.0
 41
1.001185334769309
 10
-4.60414425764261
 20
15.44333879444953
 30
0.0
 41
1.001185334769309
 10
-3.683341858869894
 20
15.45261482531015
 30
0.0
 41
1.001185334769309
 10
-3.222934713234061
 20
15.45658416115473
 30
0.0
 41
1.001185334769309
 10
-2.302108529463444
 20
15.4631854736724
 30
0.0
 41
1.001185334769309
 10
-1.841691287584524
 20
15.46573279396007
 30
0.0
 41
1.001185334769309
 10
-0.9208485038394568
 20
15.4693207625931
 30
0.0
 41
1.001185334769309
 10
-0.4604252052687906
 20
15.47024078225424
 30
0.0
 41
1.001185334769309
 10
0.0000000000000088
 20
15.47028683726001
 30
0.0
 41
1.001185334769309
 10
0.4604252052688083
 20
15.47024078225424
 30
0.0
 41
1.001185334769309
 10
0.9208485038394747
 20
15.4693207625931
 30
0.0
 41
1.001185334769309
 10
1.841691287584541
 20
15.46573279396007
 30
0.0
 41
1.001185334769309
 10
2.302108529463462
 20
15.4631854736724
 30
0.0
 41
1.001185334769309
 10
3.222934713234079
 20
15.45658416115473
 30
0.0
 41
1.001185334769309
 10
3.683341858869912
 20
15.45261482531016
 30
0.0
 41
1.001185334769309
 10
4.604144257642629
 20
15.44333879444954
 30
0.0
 41
1.001185334769309
 10
5.064537405865556
 20
15.43791904302305
 30
0.0
 41
1.001185334769309
 10
5.98530759998455
 20
15.4255160681777
 30
0.0
 41
1.001185334769309
 10
6.445666209092774
 20
15.41797206992583
 30
0.0
 41
1.001185334769309
 10
7.366330451406679
 20
15.40019905176371
 30
0.0
 41
1.001185334769309
 10
7.82839360128203
 20
15.3892896319749
 30
0.0
 41
1.001185334769309
 10
8.755981958469528
 20
15.36342497098183
 30
0.0
 41
1.001185334769309
 10
9.217417938676789
 20
15.33898037757021
 30
0.0
 41
1.001185334769309
 10
9.67649572049756
 20
15.30302352124349
 30
0.0
 41
1.001185334769309
 10
9.863869498874143
 20
15.28834763777608
 30
0.0
 41
1.001185334769309
 10
10.05168863301535
 20
15.26322127111552
 30
0.0
 41
1.001185334769309
 10
10.428217612827
 20
15.19206757140812
 30
0.0
 41
1.001185334769309
 10
10.61042703553627
 20
15.14087219688035
 30
0.0
 41
1.001185334769309
 10
10.9627357465617
 20
15.00724439847669
 30
0.0
 41
1.001185334769309
 10
11.13065137494975
 20
14.92380562162062
 30
0.0
 41
1.001185334769309
 10
11.45000517747655
 20
14.72367831260002
 30
0.0
 41
1.001185334769309
 10
11.59743986434776
 20
14.60796050525431
 30
0.0
 41
1.001185334769309
 10
11.86782480930581
 20
14.34521658489206
 30
0.0
 41
1.001185334769309
 10
11.98770982262429
 20
14.20110715421288
 30
0.0
 41
1.001185334769309
 10
12.09228737678222
 20
14.04426025303566
 30
0.0
 41
1.001185334769309
 10
12.11313412578876
 20
14.01299400276212
 30
0.0
 41
1.001185334769309
 10
12.14180838806639
 20
13.96167541875898
 30
0.0
 41
1.001185334769309
 10
12.14785710896502
 20
13.92588600502973
 30
0.0
 41
1.001185334769309
 10
12.19266956110332
 20
13.66073715510331
 30
0.0
 41
1.001185334769309
 10
12.22052042387503
 20
13.39386927411553
 30
0.0
 41
1.001185334769309
 10
12.24229897068531
 20
12.85669545001721
 30
0.0
 41
1.001185334769309
 10
12.24359188993043
 20
12.58818789261966
 30
0.0
 41
1.001185334769309
 10
12.22698502010064
 20
12.05133148712777
 30
0.0
 41
1.001185334769309
 10
12.21585101368453
 20
11.78301850235821
 30
0.0
 41
1.001185334769309
 10
12.1879218578499
 20
11.24662296877183
 30
0.0
 41
1.001185334769309
 10
12.163816598031
 20
10.97906242525564
 30
0.0
 41
1.001185334769309
 10
12.09532471459004
 20
10.44521578477729
 30
0.0
 41
1.001185334769309
 10
12.02653546736918
 20
10.18701851117105
 30
0.0
 41
1.001185334769309
 10
11.8198703619267
 20
9.688076057224476
 30
0.0
 41
1.001185334769309
 10
11.69256178168923
 20
9.452011999096854
 30
0.0
 41
1.001185334769309
 10
11.38999256618183
 20
9.006698220532932
 30
0.0
 41
1.001185334769309
 10
11.22360036919567
 20
8.796105162473824
 30
0.0
 41
1.001185334769309
 10
10.8606007967584
 20
8.3990467088013
 30
0.0
 41
1.001185334769309
 10
10.665486919344
 20
8.214984139135485
 30
0.0
 41
1.001185334769309
 10
10.24803098212367
 20
7.875792314144765
 30
0.0
 41
1.001185334769309
 10
10.02953468793391
 20
7.719921494042434
 30
0.0
 41
1.001185334769309
 10
9.573005448395202
 20
7.435630038623831
 30
0.0
 41
1.001185334769309
 10
9.337187361986686
 20
7.30748045349879
 30
0.0
 41
1.001185334769309
 10
9.093815808939002
 20
7.19332701095801
 30
0.0
 41
1.001185334769309
 10
9.009602790738768
 20
7.153826889378794
 30
0.0
 41
1.000548018242094
 10
8.924579115357982
 20
7.116046269492105
 30
0.0
 41
1.000050260233623
 10
8.838779180190226
 20
7.080003542470566
 30
0.0
 41
0.9996920607438982
 10
8.784039575296715
 20
7.060323250601921
 30
0.0
 41
0.9996920607438982
 10
8.729421116700246
 20
7.041057738272314
 30
0.0
 41
0.9996920607438982
 10
8.674923804400818
 20
7.022207005481746
 30
0.0
 41
0.9996920607438982
 10
8.448630465245293
 20
6.943931672465904
 30
0.0
 41
0.9996920607438982
 10
8.198386914981088
 20
6.868435866375808
 30
0.0
 41
0.9996920607438982
 10
7.649999392235328
 20
6.723003308047117
 30
0.0
 41
0.9996920607438982
 10
7.395862156556163
 20
6.662721886905448
 30
0.0
 41
0.9996920607438982
 10
6.927700736585265
 20
6.567028760667465
 30
0.0
 41
0.9996920607438982
 10
6.692504052370055
 20
6.523779465935419
 30
0.0
 41
0.9996920607438982
 10
6.219878735480104
 20
6.446475413245219
 30
0.0
 41
0.9996920607438982
 10
5.982936905039485
 20
6.412573608420905
 30
0.0
 41
0.9996920607438982
 10
5.507794900166956
 20
6.354270441813846
 30
0.0
 41
0.9996920607438982
 10
5.269876568334614
 20
6.328278771407743
 30
0.0
 41
0.9996920607438982
 10
4.793345245877775
 20
6.282615256390396
 30
0.0
 41
0.9996920607438982
 10
4.554860520929203
 20
6.262394941348237
 30
0.0
 41
0.9996920607438982
 10
4.316156732260477
 20
6.244786068772589
 30
0.0
 41
0.9996920607438982
 10
4.254378243585571
 20
6.240228748836197
 30
0.0
 41
0.9996920607438982
 10
4.219172120576403
 20
6.276638137205934
 30
0.0
 41
0.9996920607438982
 10
4.207942965219003
 20
6.340321841836104
 30
0.0
 41
0.9996920607438982
 10
4.206786922212005
 20
6.346878087524605
 30
0.0
 41
0.9996920607438982
 10
4.204852408194921
 20
6.357849261698435
 30
0.0
 41
0.9996920607438982
 10
4.202570916851038
 20
6.370788242078726
 30
0.0
 41
0.9996920607438982
 10
4.201831060314347
 20
6.374984177004492
 30
0.0
 41
0.9996920607438982
  0
SPLINE
  5
77
330
1F
100
AcDbEntity
  8
Layer 01
100
AcDbSpline
210
0.0
220
0.0
230
1.0
 70
     8
 71
     3
 72
   119
 73
   115
 74
     0
 42
0.000000001
 43
0.0000000001
 40
33.34118012680738
 40
33.34118012680738
 40
33.34118012680738
 40
33.34118012680738
 40
34.23133617108574
 40
34.23133617108574
 40
35.23133617108574
 40
35.23133617108574
 40
36.23133617108574
 40
36.23133617108574
 40
37.23133617108574
 40
37.23133617108574
 40
38.23133617108574
 40
38.23133617108574
 40
39.23133617108574
 40
39.23133617108574
 40
40.23133617108574
 40
40.23133617108574
 40
41.23133617108574
 40
41.23133617108574
 40
42.23133617108574
 40
42.23133617108574
 40
43.23133617108574
 40
43.23133617108574
 40
44.23133617108574
 40
44.23133617108574
 40
45.23133617108574
 40
45.23133617108574
 40
45.23133617108574
 40
46.23133617108574
 40
46.23133617108574
 40
47.23133617108574
 40
47.23133617108574
 40
48.23133617108574
 40
48.23133617108574
 40
49.23133617108574
 40
49.23133617108574
 40
50.23133617108574
 40
50.23133617108574
 40
51.23133617108574
 40
51.23133617108574
 40
51.23133617108574
 40
52.23133617108574
 40
52.23133617108574
 40
53.23133617108574
 40
53.23133617108574
 40
54.23133617108574
 40
54.23133617108574
 40
55.23133617108574
 40
55.23133617108574
 40
56.23133617108574
 40
56.23133617108574
 40
57.23133617108574
 40
57.23133617108574
 40
58.23133617108574
 40
58.23133617108574
 40
59.23133617108574
 40
59.23133617108574
 40
60.23133617108574
 40
60.23133617108574
 40
60.23133617108574
 40
61.23133617108574
 40
61.23133617108574
 40
62.23133617108574
 40
62.23133617108574
 40
63.23133617108574
 40
63.23133617108574
 40
64.23133617108574
 40
64.23133617108574
 40
65.23133617108574
 40
65.23133617108574
 40
66.23133617108574
 40
66.23133617108574
 40
67.23133617108574
 40
67.23133617108574
 40
68.23133617108574
 40
68.23133617108574
 40
69.23133617108574
 40
69.23133617108574
 40
69.23133617108574
 40
70.23133617108574
 40
70.23133617108574
 40
71.23133617108574
 40
71.23133617108574
 40
72.23133617108574
 40
72.23133617108574
 40
73.23133617108574
 40
73.23133617108574
 40
74.23133617108574
 40
74.23133617108574
 40
75.23133617108574
 40
75.23133617108574
 40
75.23133617108574
 40
76.23133617108574
 40
76.23133617108574
 40
77.23133617108574
 40
77.23133617108574
 40
78.23133617108574
 40
78.23133617108574
 40
79.23133617108574
 40
79.23133617108574
 40
80.23133617108574
 40
80.23133617108574
 40
81.23133617108574
 40
81.23133617108574
 40
82.23133617108574
 40
82.23133617108574
 40
83.23133617108574
 40
83.23133617108574
 40
84.23133617108574
 40
84.23133617108574
 40
85.23133617108574
 40
85.23133617108574
 40
86.23133617108574
 40
86.23133617108574
 40
87.12149221536394
 40
87.12149221536394
 40
87.12149221536394
 40
87.12149221536394
 10
8.838779180190874
 20
7.080003542470793
 30
0.0
 10
9.28237928396938
 20
7.239489156813589
 30
0.0
 10
9.733935302214626
 20
7.426214155403211
 30
0.0
 10
10.70966226898225
 20
7.880545813406466
 30
0.0
 10
11.18977003662715
 20
8.141807421828434
 30
0.0
 10
12.07777103909544
 20
8.706119305182701
 30
0.0
 10
12.48509563729641
 20
9.034601914484417
 30
0.0
 10
13.22639302763195
 20
9.784220468337013
 30
0.0
 10
13.54136655964657
 20
10.20181016076644
 30
0.0
 10
14.0599632973695
 20
11.12255037663152
 30
0.0
 10
14.24663923521361
 20
11.60993531391562
 30
0.0
 10
14.47474624886716
 20
12.63873484718694
 30
0.0
 10
14.56582922772825
 20
13.1559615611093
 30
0.0
 10
14.70205412951906
 20
14.19606888352744
 30
0.0
 10
14.75833322642345
 20
14.71749902909226
 30
0.0
 10
14.84722471225023
 20
15.7631122889334
 30
0.0
 10
14.8821761036058
 20
16.28652522284212
 30
0.0
 10
14.93309018320133
 20
17.33456369863583
 30
0.0
 10
14.94809463016287
 20
17.85893256333547
 30
0.0
 10
14.9571983384135
 20
18.90836954634033
 30
0.0
 10
14.94685395822038
 20
19.43265851674567
 30
0.0
 10
14.89637272919722
 20
20.48037741536217
 30
0.0
 10
14.85803825977012
 20
21.00712512608257
 30
0.0
 10
14.75518161108486
 20
22.06639707034767
 30
0.0
 10
14.63555679050473
 20
22.577305752321
 30
0.0
 10
14.44773547368711
 20
23.06948714413512
 30
0.0
 10
14.35766448558206
 20
23.30551607332562
 30
0.0
 10
14.26019148245082
 20
23.54101326215935
 30
0.0
 10
14.05044144613591
 20
24.01094415911327
 30
0.0
 10
13.94368936789335
 20
24.24259371590917
 30
0.0
 10
13.72643109123798
 20
24.69926104613885
 30
0.0
 10
13.6029888400205
 20
24.91937663556644
 30
0.0
 10
13.32647811180592
 20
25.34317166304712
 30
0.0
 10
13.17174464114088
 20
25.54249105944351
 30
0.0
 10
12.82932148669529
 20
25.91597361754838
 30
0.0
 10
12.64108951931506
 20
26.08497558724448
 30
0.0
 10
12.23058480423972
 20
26.38750090792401
 30
0.0
 10
12.01478084422335
 20
26.51988175881399
 30
0.0
 10
11.78842528172827
 20
26.63338080025419
 30
0.0
 10
11.39174312180605
 20
26.83228488023935
 30
0.0
 10
10.97878773720808
 20
26.9910505345092
 30
0.0
 10
10.12033051866066
 20
27.2283049916183
 30
0.0
 10
9.6883790045033
 20
27.32896551970875
 30
0.0
 10
8.819030166421253
 20
27.49435317496144
 30
0.0
 10
8.38253273953132
 20
27.56587660773666
 30
0.0
 10
7.505891870053622
 20
27.68658268358485
 30
0.0
 10
7.066645511036119
 20
27.73899967415953
 30
0.0
 10
6.186300944443807
 20
27.82796156061004
 30
0.0
 10
5.745605275742836
 20
27.86636792582171
 30
0.0
 10
4.863167167531268
 20
27.93103150021794
 30
0.0
 10
4.421646937154403
 20
27.9584568711129
 30
0.0
 10
3.538004123858513
 20
28.0034947802965
 30
0.0
 10
3.096010316594286
 20
28.02180574941701
 30
0.0
 10
2.211677900833263
 20
28.05001171671542
 30
0.0
 10
1.769425947555904
 20
28.06042333762313
 30
0.0
 10
0.8847505502074927
 20
28.07386385395554
 30
0.0
 10
0.4423878005802601
 20
28.07721504515576
 30
0.0
 10
0.0
 20
28.07719716939001
 30
0.0
 10
-0.4423878005802601
 20
28.07721504515576
 30
0.0
 10
-0.8847505502074929
 20
28.07386385395554
 30
0.0
 10
-1.769425947555904
 20
28.06042333762313
 30
0.0
 10
-2.211677900833263
 20
28.05001171671542
 30
0.0
 10
-3.096010316594286
 20
28.02180574941701
 30
0.0
 10
-3.538004123858513
 20
28.0034947802965
 30
0.0
 10
-4.421646937154402
 20
27.95845687111289
 30
0.0
 10
-4.863167167531267
 20
27.93103150021794
 30
0.0
 10
-5.745605275742837
 20
27.86636792582171
 30
0.0
 10
-6.186300944443807
 20
27.82796156061004
 30
0.0
 10
-7.066645511036119
 20
27.73899967415953
 30
0.0
 10
-7.505891870053622
 20
27.68658268358485
 30
0.0
 10
-8.38253273953132
 20
27.56587660773666
 30
0.0
 10
-8.819030166421253
 20
27.49435317496144
 30
0.0
 10
-9.688379004503298
 20
27.32896551970875
 30
0.0
 10
-10.12033051866066
 20
27.2283049916183
 30
0.0
 10
-10.97878773720808
 20
26.9910505345092
 30
0.0
 10
-11.39174312180605
 20
26.83228488023935
 30
0.0
 10
-11.78842528172827
 20
26.63338080025419
 30
0.0
 10
-12.01478084422335
 20
26.51988175881399
 30
0.0
 10
-12.23058480423972
 20
26.387500907924
 30
0.0
 10
-12.64108951931506
 20
26.08497558724448
 30
0.0
 10
-12.82932148669529
 20
25.91597361754838
 30
0.0
 10
-13.17174464114088
 20
25.54249105944351
 30
0.0
 10
-13.32647811180592
 20
25.34317166304712
 30
0.0
 10
-13.6029888400205
 20
24.91937663556644
 30
0.0
 10
-13.72643109123798
 20
24.69926104613885
 30
0.0
 10
-13.94368936789335
 20
24.24259371590917
 30
0.0
 10
-14.05044144613591
 20
24.01094415911327
 30
0.0
 10
-14.26019148245082
 20
23.54101326215935
 30
0.0
 10
-14.35766448558206
 20
23.30551607332562
 30
0.0
 10
-14.44773547368711
 20
23.06948714413512
 30
0.0
 10
-14.63555679050473
 20
22.577305752321
 30
0.0
 10
-14.75518161108486
 20
22.06639707034767
 30
0.0
 10
-14.85803825977012
 20
21.00712512608257
 30
0.0
 10
-14.89637272919722
 20
20.48037741536217
 30
0.0
 10
-14.94685395822038
 20
19.43265851674567
 30
0.0
 10
-14.9571983384135
 20
18.90836954634032
 30
0.0
 10
-14.94809463016287
 20
17.85893256333547
 30
0.0
 10
-14.93309018320132
 20
17.33456369863583
 30
0.0
 10
-14.8821761036058
 20
16.28652522284212
 30
0.0
 10
-14.84722471225023
 20
15.7631122889334
 30
0.0
 10
-14.75833322642345
 20
14.71749902909226
 30
0.0
 10
-14.70205412951906
 20
14.19606888352744
 30
0.0
 10
-14.56582922772825
 20
13.1559615611093
 30
0.0
 10
-14.47474624886716
 20
12.63873484718694
 30
0.0
 10
-14.24663923521361
 20
11.60993531391562
 30
0.0
 10
-14.0599632973695
 20
11.12255037663152
 30
0.0
 10
-13.54136655964657
 20
10.20181016076644
 30
0.0
 10
-13.22639302763195
 20
9.784220468337015
 30
0.0
 10
-12.48509563729641
 20
9.034601914484416
 30
0.0
 10
-12.07777103909545
 20
8.706119305182701
 30
0.0
 10
-11.18977003662715
 20
8.141807421828434
 30
0.0
 10
-10.70966226898225
 20
7.880545813406466
 30
0.0
 10
-9.733935302214713
 20
7.42621415540325
 30
0.0
 10
-9.282379283969545
 20
7.239489156813657
 30
0.0
 10
-8.838779180191118
 20
7.08000354247088
 30
0.0
  0
SPLINE
  5
78
330
1F
100
AcDbEntity
  8
Layer 01
100
AcDbSpline
210
1.0
220
-3.313378083608663E-9
230
1.462466292229740E-9
 70
     8
 71
     3
 72
     8
 73
     4
 74
     0
 42
0.000000001
 43
0.0000000001
 40
0.0
 40
0.0
 40
0.0
 40
0.0
 40
1.0
 40
1.0
 40
1.0
 40
1.0
 10
0.0000000000375318
 20
-14.41259263233
 30
14.172601830363
 10
0.0000000000375318
 20
-14.42937993425805
 30
14.14532849188413
 10
-0.0000000000000857
 20
-14.45713006184843
 30
14.09741937208668
 10
-0.0000000000000858
 20
-14.47001182918
 30
14.06823436173
  0
SPLINE
  5
79
330
1F
100
AcDbEntity
  8
Layer 01
100
AcDbSpline
 70
     0
 71
     3
 72
     8
 73
     4
 74
     0
 42
0.000000001
 43
0.0000000001
 40
0.0
 40
0.0
 40
0.0
 40
0.0
 40
1.0
 40
1.0
 40
1.0
 40
1.0
 10
-2.884139832750565
 20
-10.21898917255
 30
14.056899793432
 10
-2.861828850731495
 20
-10.22808811409717
 30
14.02592876612872
 10
-2.832138900556517
 20
-10.23990711488644
 30
13.9763937384483
 10
-2.826019282720564
 20
-10.24142867992
 30
13.939492981319
  0
SPLINE
  5
7A
330
1F
100
AcDbEntity
  8
Layer 01
370
    -3
100
AcDbSpline
210
0.0
220
0.0
230
1.0
 70
    12
 71
     2
 72
     6
 73
     3
 74
     0
 42
0.000000001
 43
0.0000000001
 40
0.0790666112367367
 40
0.0790666112367367
 40
0.0790666112367367
 40
0.0855733692052231
 40
0.0855733692052231
 40
0.0855733692052231
 10
-13.28913841414204
 20
10.15996505981049
 30
0.0
 41
0.9873335383712514
 10
-13.2919031979318
 20
10.16125705865351
 30
0.0
 41
0.9931455782628946
 10
-13.29456991337
 20
10.162722818546
 30
0.0
 41
1.0
  0
SPLINE
  5
7B
330
1F
100
AcDbEntity
  8
Layer 01
370
    -3
100
AcDbSpline
210
0.0
220
0.0
230
1.0
 70
     8
 71
     3
 72
     8
 73
     4
 74
     0
 42
0.000000001
 43
0.0000000001
 40
0.1381915774942005
 40
0.1381915774942005
 40
0.1381915774942005
 40
0.1381915774942005
 40
0.1393442890454902
 40
0.1393442890454902
 40
0.1393442890454902
 40
0.1393442890454902
 10
54.14658533058104
 20
1.006217715644485
 30
0.0
 10
54.14640286901609
 20
1.006550891809772
 30
0.0
 10
54.14622020564098
 20
1.006883914292706
 30
0.0
 10
54.14603734073989
 20
1.007216782534584
 30
0.0
  0
SPLINE
  5
7C
330
1F
100
AcDbEntity
  8
Layer 01
370
    -3
100
AcDbSpline
210
0.0
220
0.0
230
1.0
 70
    11
 71
     3
 72
    65
 73
    61
 74
     0
 42
0.000000001
 43
0.0000000001
 40
-1.515003679997092
 40
-1.515003679997092
 40
-1.515003679997092
 40
-1.515003679997092
 40
-1.464514556163485
 40
-1.414025432329844
 40
-1.363536308496238
 40
-1.313047184662596
 40
-1.26255806082899
 40
-1.212068936995348
 40
-1.161579813161742
 40
-1.161579813161742
 40
-1.161579813161742
 40
-1.020554974480621
 40
-0.8792417219213859
 40
-0.7379284693621936
 40
-0.7379284693621936
 40
-0.7379284693621936
 40
-0.6456874106919194
 40
-0.5534463520216452
 40
-0.461205293351371
 40
-0.3689642346810968
 40
-0.2767231760108226
 40
-0.1844821173405484
 40
-0.0922410586702742
 40
0.0
 40
0.0
 40
0.0
 40
12.55103383106682
 40
12.55103383106682
 40
12.55103383106682
 40
15.3961492860576
 40
15.3961492860576
 40
15.3961492860576
 40
27.94718311712442
 40
27.94718311712442
 40
27.94718311712442
 40
28.03942417579469
 40
28.13166523446496
 40
28.22390629313524
 40
28.31614735180552
 40
28.40838841047579
 40
28.50062946914606
 40
28.59287052781633
 40
28.68511158648661
 40
28.68511158648661
 40
28.68511158648661
 40
28.8264248390458
 40
28.96773809160504
 40
29.10876293028616
 40
29.10876293028616
 40
29.10876293028616
 40
29.15925205411977
 40
29.2097411779534
 40
29.26023030178701
 40
29.31071942562065
 40
29.36120854945426
 40
29.4116976732879
 40
29.46218679712151
 40
29.46218679712151
 40
29.46218679712151
 40
51.42937207218711
 40
51.42937207218711
 40
51.42937207218711
 40
51.42937207218711
 10
32.27298878007162
 20
0.2499999999999929
 30
0.0
 10
32.2610091881571
 20
0.2500003474516905
 30
0.0
 10
32.23888403984365
 20
0.2548233074659976
 30
0.0
 10
32.21391651185068
 20
0.2704247308305252
 30
0.0
 10
32.19224139351088
 20
0.294313312102096
 30
0.0
 10
32.17388330683998
 20
0.3311977852065855
 30
0.0
 10
32.1639778683678
 20
0.3798712442989061
 30
0.0
 10
32.16490049952854
 20
0.4327307829086067
 30
0.0
 10
32.172837774638
 20
0.4696000496889052
 30
0.0
 10
32.17869588499837
 20
0.4877071178102392
 30
0.0
 10
32.19517213194016
 20
0.5318274334442954
 30
0.0
 10
32.22807007251803
 20
0.6199223591858427
 30
0.0
 10
32.27747241372555
 20
0.7522123582107056
 30
0.0
 10
32.31045527593492
 20
0.8405343451244054
 30
0.0
 10
32.32695313190548
 20
0.8847124816346064
 30
0.0
 10
32.34216449912098
 20
0.927285553202406
 30
0.0
 10
32.37753460931115
 20
1.006556899810906
 30
0.0
 10
32.43963781205898
 20
1.105276854472205
 30
0.0
 10
32.50433811024357
 20
1.181791396920305
 30
0.0
 10
32.56740499886011
 20
1.238123571418006
 30
0.0
 10
32.62568796308404
 20
1.277093768622006
 30
0.0
 10
32.67802841952528
 20
1.302428954752006
 30
0.0
 10
32.72369302425694
 20
1.317536957296007
 30
0.0
 10
32.75302712278489
 20
1.323116251986006
 30
0.0
 10
32.76704439387266
 20
1.324814373552005
 30
0.0
 10
35.78937082595144
 20
1.690771493047622
 30
0.0
 10
38.81169725803024
 20
2.056728612543239
 30
0.0
 10
41.83402369010903
 20
2.422685732038857
 30
0.0
 10
42.78239550843929
 20
2.422685732038857
 30
0.0
 10
43.73076732676955
 20
2.422685732038857
 30
0.0
 10
44.67913914509981
 20
2.422685732038857
 30
0.0
 10
47.7014655771786
 20
2.056728612543239
 30
0.0
 10
50.72379200925739
 20
1.690771493047622
 30
0.0
 10
53.74611844133619
 20
1.324814373552005
 30
0.0
 10
53.76013571242395
 20
1.323116251986006
 30
0.0
 10
53.78946981095191
 20
1.317536957296007
 30
0.0
 10
53.83513441568356
 20
1.302428954752006
 30
0.0
 10
53.88747487212481
 20
1.277093768622006
 30
0.0
 10
53.94575783634874
 20
1.238123571418006
 30
0.0
 10
54.00882472496527
 20
1.181791396920305
 30
0.0
 10
54.07352502314986
 20
1.105276854472205
 30
0.0
 10
54.1356282258977
 20
1.006556899810906
 30
0.0
 10
54.17099833608787
 20
0.927285553202406
 30
0.0
 10
54.18620970330337
 20
0.8847124816346064
 30
0.0
 10
54.20270755927393
 20
0.8405343451244054
 30
0.0
 10
54.23569042148329
 20
0.7522123582107056
 30
0.0
 10
54.28509276269082
 20
0.6199223591858427
 30
0.0
 10
54.31799070326868
 20
0.5318274334442954
 30
0.0
 10
54.33446695021048
 20
0.4877071178102392
 30
0.0
 10
54.34032506057084
 20
0.4696000496889052
 30
0.0
 10
54.34826233568031
 20
0.4327307829086067
 30
0.0
 10
54.34918496684104
 20
0.3798712442989061
 30
0.0
 10
54.33927952836887
 20
0.3311977852065855
 30
0.0
 10
54.32092144169797
 20
0.294313312102096
 30
0.0
 10
54.29924632335817
 20
0.2704247308305252
 30
0.0
 10
54.2742787953652
 20
0.2548233074659976
 30
0.0
 10
54.25215364705175
 20
0.2500003474516905
 30
0.0
 10
54.24017405513722
 20
0.2499999999999929
 30
0.0
 10
46.91777896344869
 20
0.2499999999999929
 30
0.0
 10
39.59538387176016
 20
0.2499999999999929
 30
0.0
 10
32.27298878007162
 20
0.2499999999999929
 30
0.0
  0
SPLINE
  5
7D
330
1F
100
AcDbEntity
  8
Layer 01
370
    -3
100
AcDbSpline
210
0.0
220
0.0
230
1.0
 70
     8
 71
     3
 72
    97
 73
    93
 74
     0
 42
0.000000001
 43
0.0000000001
 40
-13.16823972852162
 40
-13.16823972852162
 40
-13.16823972852162
 40
-13.16823972852162
 40
-13.11775060468801
 40
-13.06726148085437
 40
-13.01677235702077
 40
-12.96628323318712
 40
-12.91579410935352
 40
-12.86530498551988
 40
-12.81481586168627
 40
-12.81481586168627
 40
-12.81481586168627
 40
-12.67350260912708
 40
-12.53218935656784
 40
-12.39087610400865
 40
-12.39087610400865
 40
-12.39087610400865
 40
-12.29863504533838
 40
-12.2063939866681
 40
-12.11415292799783
 40
-12.02191186932756
 40
-11.92967081065728
 40
-11.83742975198701
 40
-11.74518869331673
 40
-11.65294763464646
 40
-11.65294763464646
 40
-11.65294763464646
 40
-9.322358107717166
 40
-6.991768580787874
 40
-4.661179053858583
 40
-2.330589526929292
 40
0.0
 40
0.0
 40
0.0
 40
0.1286728102527266
 40
0.2573456205054533
 40
0.3860184307580125
 40
0.5146912410107393
 40
0.6433640512634657
 40
0.7720368615161924
 40
0.9007096717687519
 40
1.029382482021479
 40
1.158055292274205
 40
1.286728102526932
 40
1.415400912779491
 40
1.544073723032251
 40
1.671653929055589
 40
1.671653929055589
 40
1.671653929055589
 40
1.799234135078917
 40
1.927906945331678
 40
2.056579755584238
 40
2.185252565836965
 40
2.313925376089693
 40
2.44259818634242
 40
2.571270996594981
 40
2.699943806847708
 40
2.828616617100435
 40
2.957289427353163
 40
3.085962237605723
 40
3.21463504785845
 40
3.343307858111178
 40
3.343307858111178
 40
3.343307858111178
 40
5.673897385040469
 40
8.00448691196976
 40
10.33507643889905
 40
12.66566596582834
 40
14.99625549275764
 40
14.99625549275764
 40
14.99625549275764
 40
15.08849655142791
 40
15.18073761009818
 40
15.27297866876846
 40
15.36521972743873
 40
15.45746078610901
 40
15.54970184477928
 40
15.64194290344956
 40
15.73418396211983
 40
15.73418396211983
 40
15.73418396211983
 40
15.87549721467902
 40
16.01681046723826
 40
16.15812371979745
 40
16.15812371979745
 40
16.15812371979745
 40
16.20861284363105
 40
16.25910196746469
 40
16.3095910912983
 40
16.36008021513194
 40
16.41056933896555
 40
16.46105846279919
 40
16.5115475866328
 40
16.5115475866328
 40
16.5115475866328
 40
16.5115475866328
 10
53.02822732532075
 20
0.2499999999999929
 30
0.0
 10
53.04053811402056
 20
0.2500003474516905
 30
0.0
 10
53.0646749364877
 20
0.2548233074659976
 30
0.0
 10
53.09485292533528
 20
0.2704247308305252
 30
0.0
 10
53.12405224385156
 20
0.294313312102096
 30
0.0
 10
53.15360535355352
 20
0.3311977852065855
 30
0.0
 10
53.17789264598604
 20
0.3798712442989061
 30
0.0
 10
53.19225470154895
 20
0.4327307829086067
 30
0.0
 10
53.19479012311717
 20
0.4696000496889052
 30
0.0
 10
53.19402587674494
 20
0.4875721842977061
 30
0.0
 10
53.19436519108208
 20
0.5316474521390049
 30
0.0
 10
53.19504394178986
 20
0.6198322986391052
 30
0.0
 10
53.19606316663725
 20
0.7522123582107056
 30
0.0
 10
53.19674310159757
 20
0.8405343451244054
 30
0.0
 10
53.19708322404892
 20
0.8847124816346064
 30
0.0
 10
53.19672224100139
 20
0.927285553202406
 30
0.0
 10
53.18876589585962
 20
1.006556899810906
 30
0.0
 10
53.16018674880396
 20
1.105276854472205
 30
0.0
 10
53.12091018477172
 20
1.181791396920305
 30
0.0
 10
53.07603874216209
 20
1.238123571418006
 30
0.0
 10
53.02984763241937
 20
1.277093768622006
 30
0.0
 10
52.98487898299327
 20
1.302428954752006
 30
0.0
 10
52.94312057293461
 20
1.317536957296007
 30
0.0
 10
52.91480607876824
 20
1.323116251986006
 30
0.0
 10
52.90092652019063
 20
1.324814373552005
 30
0.0
 10
52.4965274709377
 20
1.374312052837006
 30
0.0
 10
51.63514901045323
 20
1.479743317143006
 30
0.0
 10
50.19637366625673
 20
1.655847420720006
 30
0.0
 10
48.57778929611722
 20
1.853960262375006
 30
0.0
 10
46.76188885459933
 20
2.076224668788006
 30
0.0
 10
45.43177549671644
 20
2.239029387181006
 30
0.0
 10
44.73464054375103
 20
2.324358031038506
 30
0.0
 10
44.70562236754304
 20
2.327904257125006
 30
0.0
 10
44.65122191298021
 20
2.334331930017006
 30
0.0
 10
44.57644061803331
 20
2.342650617382006
 30
0.0
 10
44.50381969574452
 20
2.350283494670006
 30
0.0
 10
44.42851890889316
 20
2.357751735335006
 30
0.0
 10
44.34365118613893
 20
2.365630263914007
 30
0.0
 10
44.24905666404164
 20
2.373743922176006
 30
0.0
 10
44.14336785998029
 20
2.381998845293005
 30
0.0
 10
44.02510554305864
 20
2.390242841403005
 30
0.0
 10
43.89255618426942
 20
2.398277833774005
 30
0.0
 10
43.74305517787381
 20
2.405871696614005
 30
0.0
 10
43.57821320746424
 20
2.412523702895005
 30
0.0
 10
43.40911837478723
 20
2.417575798353492
 30
0.0
 10
43.30636370591767
 20
2.419742163053871
 30
0.0
 10
43.25658141760442
 20
2.420654601683005
 30
0.0
 10
43.20679912929117
 20
2.41974216305387
 30
0.0
 10
43.1040444604216
 20
2.417575798353492
 30
0.0
 10
42.93494962774461
 20
2.412523702895005
 30
0.0
 10
42.77010765733503
 20
2.405871696614005
 30
0.0
 10
42.62060665093943
 20
2.398277833774005
 30
0.0
 10
42.48805729215021
 20
2.390242841403005
 30
0.0
 10
42.36979497522855
 20
2.381998845293005
 30
0.0
 10
42.26410617116721
 20
2.373743922176006
 30
0.0
 10
42.16951164906992
 20
2.365630263914007
 30
0.0
 10
42.08464392631569
 20
2.357751735335006
 30
0.0
 10
42.00934313946433
 20
2.350283494670006
 30
0.0
 10
41.93672221717554
 20
2.342650617382006
 30
0.0
 10
41.86194092222863
 20
2.334331930017006
 30
0.0
 10
41.8075404676658
 20
2.327904257125006
 30
0.0
 10
41.77852229145781
 20
2.324358031038506
 30
0.0
 10
41.08138733849241
 20
2.239029387181006
 30
0.0
 10
39.75127398060952
 20
2.076224668788006
 30
0.0
 10
37.93537353909162
 20
1.853960262375006
 30
0.0
 10
36.31678916895212
 20
1.655847420720006
 30
0.0
 10
34.87801382475562
 20
1.479743317143006
 30
0.0
 10
34.01663536427115
 20
1.374312052837006
 30
0.0
 10
33.61223631501822
 20
1.324814373552005
 30
0.0
 10
33.5983567564406
 20
1.323116251986006
 30
0.0
 10
33.57004226227424
 20
1.317536957296007
 30
0.0
 10
33.52828385221557
 20
1.302428954752006
 30
0.0
 10
33.48331520278948
 20
1.277093768622006
 30
0.0
 10
33.43712409304676
 20
1.238123571418006
 30
0.0
 10
33.39225265043712
 20
1.181791396920305
 30
0.0
 10
33.35297608640489
 20
1.105276854472205
 30
0.0
 10
33.32439693934922
 20
1.006556899810906
 30
0.0
 10
33.31644059420746
 20
0.927285553202406
 30
0.0
 10
33.31607961115993
 20
0.8847124816346064
 30
0.0
 10
33.31641973361128
 20
0.8405343451244054
 30
0.0
 10
33.31709966857159
 20
0.7522123582107056
 30
0.0
 10
33.31811889341899
 20
0.6198322986391052
 30
0.0
 10
33.31879764412677
 20
0.5316474521390049
 30
0.0
 10
33.31913695846391
 20
0.4875721842977061
 30
0.0
 10
33.31837271209168
 20
0.4696000496889052
 30
0.0
 10
33.32090813365989
 20
0.4327307829086067
 30
0.0
 10
33.3352701892228
 20
0.3798712442989061
 30
0.0
 10
33.35955748165532
 20
0.3311977852065855
 30
0.0
 10
33.38911059135729
 20
0.294313312102096
 30
0.0
 10
33.41830990987356
 20
0.2704247308305252
 30
0.0
 10
33.44848789872115
 20
0.2548233074659976
 30
0.0
 10
33.47262472118829
 20
0.2500003474516905
 30
0.0
 10
33.4849355098881
 20
0.2499999999999929
 30
0.0
  0
SPLINE
  5
7E
330
1F
100
AcDbEntity
  8
Layer 01
370
    -3
100
AcDbSpline
210
0.0
220
0.0
230
1.0
 70
    12
 71
     3
 72
    86
 73
    82
 74
     0
 42
0.000000001
 43
0.0000000001
 40
27.76436618357924
 40
27.76436618357924
 40
27.76436618357924
 40
27.76436618357924
 40
28.45077278042799
 40
28.45077278042799
 40
28.45077278042799
 40
29.35749686079607
 40
29.35749686079607
 40
29.35749686079607
 40
29.49345694362945
 40
29.49345694362945
 40
29.49345694362945
 40
30.3547558451328
 40
31.30609265522483
 40
33.20876624672554
 40
35.11143986691076
 40
36.06277667700336
 40
37.01411344722779
 40
38.14315915497727
 40
39.27220486272675
 40
41.53029623836322
 40
43.78838761399685
 40
44.91743330181366
 40
46.04647900255892
 40
46.79891791873307
 40
47.55135684783568
 40
49.05623467736293
 40
50.56111250688733
 40
52.06599033641174
 40
53.57086816593613
 40
55.07574599546054
 40
56.58062382498779
 40
57.33306275409039
 40
57.98904832673495
 40
57.98904832673495
 40
57.98904832673495
 40
58.00157762618749
 40
58.00157762618749
 40
58.00157762618749
 40
72.98806452971996
 40
72.98806452971996
 40
72.98806452971996
 40
73.98806452971996
 40
73.98806452971996
 40
74.98806452971996
 40
74.98806452971996
 40
75.98806452971996
 40
75.98806452971996
 40
76.98806452971996
 40
76.98806452971996
 40
77.98806452971996
 40
77.98806452971996
 40
78.98806452971996
 40
78.98806452971996
 40
78.98806452971996
 40
79.98806452971996
 40
79.98806452971996
 40
80.98806452971996
 40
80.98806452971996
 40
81.98806452971996
 40
81.98806452971996
 40
82.98806452971996
 40
82.98806452971996
 40
83.98806452971996
 40
83.98806452971996
 40
84.98806452971996
 40
84.98806452971996
 40
84.98806452971996
 40
85.98806452971996
 40
85.98806452971996
 40
86.98806452971996
 40
86.98806452971996
 40
87.98806452971996
 40
87.98806452971996
 40
88.98806452971996
 40
88.98806452971996
 40
89.98806452971996
 40
89.98806452971996
 40
90.98806452971996
 40
90.98806452971996
 40
90.98806452971996
 40
113.8291335717232
 40
113.8291335717232
 40
113.8291335717232
 40
113.8291335717232
 10
29.97945960183368
 20
27.95424188599701
 30
0.0
 41
1.0
 10
29.96047042375586
 20
27.95791188168799
 30
0.0
 41
1.0
 10
29.94148124567803
 20
27.96158187737898
 30
0.0
 41
1.0
 10
29.92250969621874
 20
27.96534405749463
 30
0.0
 41
1.0
 10
29.62594137699739
 20
28.02215298723322
 30
0.0
 41
1.0
 10
29.32512064283422
 20
28.05569602631976
 30
0.0
 41
1.0
 10
29.02363816786043
 20
28.07719716939
 30
0.0
 41
1.0
 10
28.97456196079462
 20
28.08069657051314
 30
0.0
 41
0.8517986152600167
 10
28.93419563940048
 20
28.05256687081174
 30
0.0
 41
0.8517986152600167
 10
28.92048623786043
 20
28.00531465163001
 30
0.0
 41
1.0
 10
28.84896265641044
 20
27.75879441689001
 30
0.0
 41
1.0
 10
28.70517146477043
 20
27.23995106584
 30
0.0
 41
1.0
 10
28.43841138987042
 20
26.17433572572001
 30
0.0
 41
1.0
 10
28.15153498656043
 20
24.80146739521
 30
0.0
 41
1.0
 10
27.93513146794044
 20
23.40423446553001
 30
0.0
 41
1.0
 10
27.80501948191043
 20
22.26513257593
 30
0.0
 41
1.0
 10
27.72495353764043
 20
21.34159410287
 30
0.0
 41
1.0
 10
27.66849183371043
 20
20.35577823031001
 30
0.0
 41
1.0
 10
27.63395240904043
 20
18.96448099713
 30
0.0
 41
1.0
 10
27.68423943784043
 20
17.21166402079
 30
0.0
 41
1.0
 10
27.92223767297043
 20
15.42499249416801
 30
0.0
 41
1.0
 10
28.25458949256043
 20
13.979930623539
 30
0.0
 41
1.0
 10
28.55006512480043
 20
13.014952546207
 30
0.0
 41
1.0
 10
28.87162763770043
 20
12.172197559578
 30
0.0
 41
1.0
 10
29.30302026597043
 20
11.214121135971
 30
0.0
 41
1.0
 10
29.97017456444043
 20
10.045167846709
 30
0.0
 41
1.0
 10
31.00688046107042
 20
8.749072008596004
 30
0.0
 41
1.0
 10
32.28486057739143
 20
7.649833590217005
 30
0.0
 41
1.0
 10
33.78994430276143
 20
6.863126876601905
 30
0.0
 41
1.0
 10
35.43324102184443
 20
6.418343953920205
 30
0.0
 41
1.0
 10
36.82829443850643
 20
6.249788879673605
 30
0.0
 41
1.0
 10
37.90351077877843
 20
6.178641166007194
 30
0.0
 41
1.0
 10
38.42045389201343
 20
6.156909590260813
 30
0.0
 41
1.0
 10
38.66028895302943
 20
6.148311127113401
 30
0.0
 41
1.0
 10
38.66486979355997
 20
6.148146896795307
 30
0.0
 41
1.0
 10
38.66945063409052
 20
6.147982666477212
 30
0.0
 41
1.0
 10
38.67403147462106
 20
6.147818436159117
 30
0.0
 41
1.0
 10
43.48799946546052
 20
7.482242962908473
 30
0.0
 41
1.0
 10
48.30196745629998
 20
8.81666748965783
 30
0.0
 41
1.0
 10
53.11593544713946
 20
10.15109201640719
 30
0.0
 41
1.0
 10
53.2800459668046
 20
10.19617046478206
 30
0.0
 41
1.0
 10
53.44206178295241
 20
10.24789937298547
 30
0.0
 41
1.0
 10
53.7619040082134
 20
10.36465810904939
 30
0.0
 41
1.0
 10
53.91706083581934
 20
10.43430568132737
 30
0.0
 41
1.0
 10
54.21784592098209
 20
10.59613723437537
 30
0.0
 41
1.0
 10
54.35428466556223
 20
10.69684764058707
 30
0.0
 41
1.0
 10
54.59925455872008
 20
10.93785771238583
 30
0.0
 41
1.0
 10
54.69436227466386
 20
11.07699289038276
 30
0.0
 41
1.0
 10
54.82982324528111
 20
11.39252353057173
 30
0.0
 41
1.0
 10
54.87701008315732
 20
11.55563406547094
 30
0.0
 41
1.0
 10
54.93029646404489
 20
11.89254556487882
 30
0.0
 41
1.0
 10
54.94821626839897
 20
12.06173121669305
 30
0.0
 41
1.0
 10
54.95741268666335
 20
12.23164677061759
 30
0.0
 41
1.0
 10
54.98552219776215
 20
12.75871759924983
 30
0.0
 41
1.0
 10
55.001196328898
 20
13.28615036840062
 30
0.0
 41
1.0
 10
55.00767383124383
 20
14.34173978773932
 30
0.0
 41
1.0
 10
55.0014961614396
 20
14.86940482607835
 30
0.0
 41
1.0
 10
54.97030797987686
 20
15.92447556009578
 30
0.0
 41
1.0
 10
54.94679232520252
 20
16.4516534106276
 30
0.0
 41
1.0
 10
54.88391788806791
 20
17.50529407873744
 30
0.0
 41
1.0
 10
54.84536171945297
 20
18.03159015384774
 30
0.0
 41
1.0
 10
54.7540114821278
 20
19.08313378617916
 30
0.0
 41
1.0
 10
54.70133986318924
 20
19.60820674625392
 30
0.0
 41
1.0
 10
54.58200362476015
 20
20.65695495422153
 30
0.0
 41
1.0
 10
54.51445277109091
 20
21.18058110681394
 30
0.0
 41
1.0
 10
54.43901918296699
 20
21.70345930801493
 30
0.0
 41
1.0
 10
54.41466237253425
 20
21.87708964547163
 30
0.0
 41
1.0
 10
54.38159858624425
 20
22.04904160431233
 30
0.0
 41
1.0
 10
54.29805706194972
 20
22.38958876476174
 30
0.0
 41
1.0
 10
54.23443730581823
 20
22.55194637551691
 30
0.0
 41
1.0
 10
54.06349980558679
 20
22.86082965808819
 30
0.0
 41
1.0
 10
53.95130399348078
 20
22.99255158920408
 30
0.0
 41
1.0
 10
53.67345824528814
 20
23.21055603109636
 30
0.0
 41
1.0
 10
53.52288177937257
 20
23.29840981169847
 30
0.0
 41
1.0
 10
53.19842166390293
 20
23.43182049221463
 30
0.0
 41
1.0
 10
53.03272119971169
 20
23.48735173368076
 30
0.0
 41
1.0
 10
52.69437945841639
 20
23.57606601902914
 30
0.0
 41
1.0
 10
52.52380153147144
 20
23.61438784940888
 30
0.0
 41
1.0
 10
52.35181654822923
 20
23.64667436749416
 30
0.0
 41
1.0
 10
44.87537505468622
 20
25.0862002026861
 30
0.0
 41
1.0
 10
37.39893356114321
 20
26.52572603787803
 30
0.0
 41
1.0
 10
29.9224920676002
 20
27.96525187306996
 30
0.0
 41
1.0
  0
POLYLINE
  5
7F
330
1F
100
AcDbEntity
  8
Layer 01
100
AcDb2dPolyline
 66
     1
 10
0.0
 20
0.0
 30
0.0
  0
VERTEX
  5
80
330
7F
100
AcDbEntity
  8
Layer 01
100
AcDbVertex
100
AcDb2dVertex
 10
43.25658141760442
 20
0.2499999999999929
 30
0.0
  0
VERTEX
  5
81
330
7F
100
AcDbEntity
  8
Layer 01
100
AcDbVertex
100
AcDb2dVertex
 10
43.25658141760442
 20
2.420654601683005
 30
0.0
  0
SEQEND
  5
82
330
7F
100
AcDbEntity
  8
Layer 01
  0
POLYLINE
  5
83
330
1F
100
AcDbEntity
  8
Layer 01
100
AcDb2dPolyline
 66
     1
 10
0.0
 20
0.0
 30
0.0
 70
     1
  0
VERTEX
  5
84
330
83
100
AcDbEntity
  8
Layer 01
100
AcDbVertex
100
AcDb2dVertex
 10
51.73117172194334
 20
0.0
 30
0.0
  0
VERTEX
  5
85
330
83
100
AcDbEntity
  8
Layer 01
100
AcDbVertex
100
AcDb2dVertex
 10
53.35934400908813
 20
0.0
 30
0.0
  0
VERTEX
  5
86
330
83
100
AcDbEntity
  8
Layer 01
100
AcDbVertex
100
AcDb2dVertex
 10
53.35934400908813
 20
0.2500000000000532
 30
0.0
  0
VERTEX
  5
87
330
83
100
AcDbEntity
  8
Layer 01
100
AcDbVertex
100
AcDb2dVertex
 10
51.73117172194334
 20
0.2500000000000532
 30
0.0
  0
SEQEND
  5
88
330
83
100
AcDbEntity
  8
Layer 01
  0
POLYLINE
  5
89
330
1F
100
AcDbEntity
  8
Layer 01
100
AcDb2dPolyline
 66
     1
 10
0.0
 20
0.0
 30
0.0
 70
     1
  0
VERTEX
  5
8A
330
89
100
AcDbEntity
  8
Layer 01
100
AcDbVertex
100
AcDb2dVertex
 10
34.78199111326551
 20
0.0
 30
0.0
  0
VERTEX
  5
8B
330
89
100
AcDbEntity
  8
Layer 01
100
AcDbVertex
100
AcDb2dVertex
 10
33.15381882612072
 20
0.0
 30
0.0
  0
VERTEX
  5
8C
330
89
100
AcDbEntity
  8
Layer 01
100
AcDbVertex
100
AcDb2dVertex
 10
33.15381882612072
 20
0.2500000000000532
 30
0.0
  0
VERTEX
  5
8D
330
89
100
AcDbEntity
  8
Layer 01
100
AcDbVertex
100
AcDb2dVertex
 10
34.78199111326551
 20
0.2500000000000532
 30
0.0
  0
SEQEND
  5
8E
330
89
100
AcDbEntity
  8
Layer 01
  0
SPLINE
  5
8F
330
1F
100
AcDbEntity
  8
Layer 01
370
    -3
100
AcDbSpline
210
0.0
220
0.0
230
1.0
 70
     8
 71
     3
 72
     8
 73
     4
 74
     0
 42
0.000000001
 43
0.0000000001
 40
0.1381915774942005
 40
0.1381915774942005
 40
0.1381915774942005
 40
0.1381915774942005
 40
0.1393442890454902
 40
0.1393442890454902
 40
0.1393442890454902
 40
0.1393442890454902
 10
10.89000391297662
 20
1.006217715644485
 30
0.0
 10
10.88982145141167
 20
1.006550891809772
 30
0.0
 10
10.88963878803656
 20
1.006883914292706
 30
0.0
 10
10.88945592313546
 20
1.007216782534584
 30
0.0
  0
SPLINE
  5
90
330
1F
100
AcDbEntity
  8
Layer 01
370
    -3
100
AcDbSpline
210
0.0
220
0.0
230
1.0
 70
    11
 71
     3
 72
    65
 73
    61
 74
     0
 42
0.000000001
 43
0.0000000001
 40
-1.515003679997092
 40
-1.515003679997092
 40
-1.515003679997092
 40
-1.515003679997092
 40
-1.464514556163485
 40
-1.414025432329844
 40
-1.363536308496238
 40
-1.313047184662596
 40
-1.26255806082899
 40
-1.212068936995348
 40
-1.161579813161742
 40
-1.161579813161742
 40
-1.161579813161742
 40
-1.020554974480621
 40
-0.8792417219213859
 40
-0.7379284693621936
 40
-0.7379284693621936
 40
-0.7379284693621936
 40
-0.6456874106919194
 40
-0.5534463520216452
 40
-0.461205293351371
 40
-0.3689642346810968
 40
-0.2767231760108226
 40
-0.1844821173405484
 40
-0.0922410586702742
 40
0.0
 40
0.0
 40
0.0
 40
12.55103383106682
 40
12.55103383106682
 40
12.55103383106682
 40
15.3961492860576
 40
15.3961492860576
 40
15.3961492860576
 40
27.94718311712442
 40
27.94718311712442
 40
27.94718311712442
 40
28.03942417579469
 40
28.13166523446496
 40
28.22390629313524
 40
28.31614735180552
 40
28.40838841047579
 40
28.50062946914606
 40
28.59287052781633
 40
28.68511158648661
 40
28.68511158648661
 40
28.68511158648661
 40
28.8264248390458
 40
28.96773809160504
 40
29.10876293028616
 40
29.10876293028616
 40
29.10876293028616
 40
29.15925205411977
 40
29.2097411779534
 40
29.26023030178701
 40
29.31071942562065
 40
29.36120854945426
 40
29.4116976732879
 40
29.46218679712151
 40
29.46218679712151
 40
29.46218679712151
 40
51.42937207218711
 40
51.42937207218711
 40
51.42937207218711
 40
51.42937207218711
 10
-10.9835926375328
 20
0.2499999999999929
 30
0.0
 10
-10.99557222944733
 20
0.2500003474516905
 30
0.0
 10
-11.01769737776078
 20
0.2548233074659976
 30
0.0
 10
-11.04266490575375
 20
0.2704247308305252
 30
0.0
 10
-11.06434002409355
 20
0.294313312102096
 30
0.0
 10
-11.08269811076445
 20
0.3311977852065855
 30
0.0
 10
-11.09260354923662
 20
0.3798712442989061
 30
0.0
 10
-11.09168091807589
 20
0.4327307829086067
 30
0.0
 10
-11.08374364296642
 20
0.4696000496889052
 30
0.0
 10
-11.07788553260605
 20
0.4877071178102392
 30
0.0
 10
-11.06140928566426
 20
0.5318274334442954
 30
0.0
 10
-11.02851134508639
 20
0.6199223591858427
 30
0.0
 10
-10.97910900387887
 20
0.7522123582107056
 30
0.0
 10
-10.9461261416695
 20
0.8405343451244054
 30
0.0
 10
-10.92962828569895
 20
0.8847124816346064
 30
0.0
 10
-10.91441691848345
 20
0.927285553202406
 30
0.0
 10
-10.87904680829327
 20
1.006556899810906
 30
0.0
 10
-10.81694360554544
 20
1.105276854472205
 30
0.0
 10
-10.75224330736085
 20
1.181791396920305
 30
0.0
 10
-10.68917641874432
 20
1.238123571418006
 30
0.0
 10
-10.63089345452038
 20
1.277093768622006
 30
0.0
 10
-10.57855299807914
 20
1.302428954752006
 30
0.0
 10
-10.53288839334748
 20
1.317536957296007
 30
0.0
 10
-10.50355429481953
 20
1.323116251986006
 30
0.0
 10
-10.48953702373176
 20
1.324814373552005
 30
0.0
 10
-7.467210591652972
 20
1.690771493047622
 30
0.0
 10
-4.44488415957418
 20
2.056728612543239
 30
0.0
 10
-1.422557727495388
 20
2.422685732038857
 30
0.0
 10
-0.4741859091651293
 20
2.422685732038857
 30
0.0
 10
0.4741859091651293
 20
2.422685732038857
 30
0.0
 10
1.422557727495388
 20
2.422685732038857
 30
0.0
 10
4.44488415957418
 20
2.056728612543239
 30
0.0
 10
7.467210591652972
 20
1.690771493047622
 30
0.0
 10
10.48953702373176
 20
1.324814373552005
 30
0.0
 10
10.50355429481953
 20
1.323116251986006
 30
0.0
 10
10.53288839334748
 20
1.317536957296007
 30
0.0
 10
10.57855299807914
 20
1.302428954752006
 30
0.0
 10
10.63089345452038
 20
1.277093768622006
 30
0.0
 10
10.68917641874432
 20
1.238123571418006
 30
0.0
 10
10.75224330736085
 20
1.181791396920305
 30
0.0
 10
10.81694360554544
 20
1.105276854472205
 30
0.0
 10
10.87904680829327
 20
1.006556899810906
 30
0.0
 10
10.91441691848345
 20
0.927285553202406
 30
0.0
 10
10.92962828569895
 20
0.8847124816346064
 30
0.0
 10
10.9461261416695
 20
0.8405343451244054
 30
0.0
 10
10.97910900387887
 20
0.7522123582107056
 30
0.0
 10
11.02851134508639
 20
0.6199223591858427
 30
0.0
 10
11.06140928566426
 20
0.5318274334442954
 30
0.0
 10
11.07788553260605
 20
0.4877071178102392
 30
0.0
 10
11.08374364296642
 20
0.4696000496889052
 30
0.0
 10
11.09168091807589
 20
0.4327307829086067
 30
0.0
 10
11.09260354923662
 20
0.3798712442989061
 30
0.0
 10
11.08269811076445
 20
0.3311977852065855
 30
0.0
 10
11.06434002409355
 20
0.294313312102096
 30
0.0
 10
11.04266490575375
 20
0.2704247308305252
 30
0.0
 10
11.01769737776078
 20
0.2548233074659976
 30
0.0
 10
10.99557222944733
 20
0.2500003474516905
 30
0.0
 10
10.9835926375328
 20
0.2499999999999929
 30
0.0
 10
3.661197545844267
 20
0.2499999999999929
 30
0.0
 10
-3.661197545844267
 20
0.2499999999999929
 30
0.0
 10
-10.9835926375328
 20
0.2499999999999929
 30
0.0
  0
SPLINE
  5
91
330
1F
100
AcDbEntity
  8
Layer 01
370
    -3
100
AcDbSpline
210
0.0
220
0.0
230
1.0
 70
     8
 71
     3
 72
    97
 73
    93
 74
     0
 42
0.000000001
 43
0.0000000001
 40
-13.16823972852162
 40
-13.16823972852162
 40
-13.16823972852162
 40
-13.16823972852162
 40
-13.11775060468801
 40
-13.06726148085437
 40
-13.01677235702077
 40
-12.96628323318712
 40
-12.91579410935352
 40
-12.86530498551988
 40
-12.81481586168627
 40
-12.81481586168627
 40
-12.81481586168627
 40
-12.67350260912708
 40
-12.53218935656784
 40
-12.39087610400865
 40
-12.39087610400865
 40
-12.39087610400865
 40
-12.29863504533838
 40
-12.2063939866681
 40
-12.11415292799783
 40
-12.02191186932756
 40
-11.92967081065728
 40
-11.83742975198701
 40
-11.74518869331673
 40
-11.65294763464646
 40
-11.65294763464646
 40
-11.65294763464646
 40
-9.322358107717166
 40
-6.991768580787874
 40
-4.661179053858583
 40
-2.330589526929292
 40
0.0
 40
0.0
 40
0.0
 40
0.1286728102527266
 40
0.2573456205054533
 40
0.3860184307580125
 40
0.5146912410107393
 40
0.6433640512634657
 40
0.7720368615161924
 40
0.9007096717687519
 40
1.029382482021479
 40
1.158055292274205
 40
1.286728102526932
 40
1.415400912779491
 40
1.544073723032251
 40
1.671653929055589
 40
1.671653929055589
 40
1.671653929055589
 40
1.799234135078917
 40
1.927906945331678
 40
2.056579755584238
 40
2.185252565836965
 40
2.313925376089693
 40
2.44259818634242
 40
2.571270996594981
 40
2.699943806847708
 40
2.828616617100435
 40
2.957289427353163
 40
3.085962237605723
 40
3.21463504785845
 40
3.343307858111178
 40
3.343307858111178
 40
3.343307858111178
 40
5.673897385040469
 40
8.00448691196976
 40
10.33507643889905
 40
12.66566596582834
 40
14.99625549275764
 40
14.99625549275764
 40
14.99625549275764
 40
15.08849655142791
 40
15.18073761009818
 40
15.27297866876846
 40
15.36521972743873
 40
15.45746078610901
 40
15.54970184477928
 40
15.64194290344956
 40
15.73418396211983
 40
15.73418396211983
 40
15.73418396211983
 40
15.87549721467902
 40
16.01681046723826
 40
16.15812371979745
 40
16.15812371979745
 40
16.15812371979745
 40
16.20861284363105
 40
16.25910196746469
 40
16.3095910912983
 40
16.36008021513194
 40
16.41056933896555
 40
16.46105846279919
 40
16.5115475866328
 40
16.5115475866328
 40
16.5115475866328
 40
16.5115475866328
 10
9.771645907716326
 20
0.2499999999999929
 30
0.0
 10
9.783956696416134
 20
0.2500003474516905
 30
0.0
 10
9.808093518883275
 20
0.2548233074659976
 30
0.0
 10
9.838271507730859
 20
0.2704247308305252
 30
0.0
 10
9.867470826247136
 20
0.294313312102096
 30
0.0
 10
9.8970239359491
 20
0.3311977852065855
 30
0.0
 10
9.921311228381619
 20
0.3798712442989061
 30
0.0
 10
9.935673283944531
 20
0.4327307829086067
 30
0.0
 10
9.938208705512743
 20
0.4696000496889052
 30
0.0
 10
9.937444459140515
 20
0.4875721842977061
 30
0.0
 10
9.937783773477655
 20
0.5316474521390049
 30
0.0
 10
9.938462524185432
 20
0.6198322986391052
 30
0.0
 10
9.93948174903283
 20
0.7522123582107056
 30
0.0
 10
9.940161683993146
 20
0.8405343451244054
 30
0.0
 10
9.940501806444495
 20
0.8847124816346064
 30
0.0
 10
9.940140823396966
 20
0.927285553202406
 30
0.0
 10
9.932184478255202
 20
1.006556899810906
 30
0.0
 10
9.903605331199536
 20
1.105276854472205
 30
0.0
 10
9.8643287671673
 20
1.181791396920305
 30
0.0
 10
9.819457324557668
 20
1.238123571418006
 30
0.0
 10
9.773266214814946
 20
1.277093768622006
 30
0.0
 10
9.72829756538885
 20
1.302428954752006
 30
0.0
 10
9.686539155330188
 20
1.317536957296007
 30
0.0
 10
9.658224661163821
 20
1.323116251986006
 30
0.0
 10
9.644345102586207
 20
1.324814373552005
 30
0.0
 10
9.239946053333277
 20
1.374312052837006
 30
0.0
 10
8.378567592848803
 20
1.479743317143006
 30
0.0
 10
6.939792248652303
 20
1.655847420720006
 30
0.0
 10
5.321207878512801
 20
1.853960262375006
 30
0.0
 10
3.505307436994904
 20
2.076224668788006
 30
0.0
 10
2.175194079112018
 20
2.239029387181006
 30
0.0
 10
1.478059126146611
 20
2.324358031038506
 30
0.0
 10
1.44904094993862
 20
2.327904257125006
 30
0.0
 10
1.394640495375789
 20
2.334331930017006
 30
0.0
 10
1.319859200428887
 20
2.342650617382006
 30
0.0
 10
1.247238278140095
 20
2.350283494670006
 30
0.0
 10
1.171937491288737
 20
2.357751735335006
 30
0.0
 10
1.087069768534505
 20
2.365630263914007
 30
0.0
 10
0.9924752464372162
 20
2.373743922176006
 30
0.0
 10
0.8867864423758718
 20
2.381998845293005
 30
0.0
 10
0.7685241254542134
 20
2.390242841403005
 30
0.0
 10
0.6359747666649938
 20
2.398277833774005
 30
0.0
 10
0.4864737602693907
 20
2.405871696614005
 30
0.0
 10
0.3216317898598149
 20
2.412523702895005
 30
0.0
 10
0.1525369571828108
 20
2.417575798353492
 30
0.0
 10
0.0497822883132457
 20
2.419742163053871
 30
0.0
 10
0.0
 20
2.420654601683005
 30
0.0
 10
-0.0497822883132528
 20
2.41974216305387
 30
0.0
 10
-0.1525369571828179
 20
2.417575798353492
 30
0.0
 10
-0.3216317898598149
 20
2.412523702895005
 30
0.0
 10
-0.4864737602693907
 20
2.405871696614005
 30
0.0
 10
-0.6359747666649938
 20
2.398277833774005
 30
0.0
 10
-0.7685241254542134
 20
2.390242841403005
 30
0.0
 10
-0.8867864423758718
 20
2.381998845293005
 30
0.0
 10
-0.9924752464372162
 20
2.373743922176006
 30
0.0
 10
-1.087069768534505
 20
2.365630263914007
 30
0.0
 10
-1.171937491288737
 20
2.357751735335006
 30
0.0
 10
-1.247238278140095
 20
2.350283494670006
 30
0.0
 10
-1.319859200428887
 20
2.342650617382006
 30
0.0
 10
-1.394640495375789
 20
2.334331930017006
 30
0.0
 10
-1.44904094993862
 20
2.327904257125006
 30
0.0
 10
-1.478059126146611
 20
2.324358031038506
 30
0.0
 10
-2.175194079112018
 20
2.239029387181006
 30
0.0
 10
-3.505307436994904
 20
2.076224668788006
 30
0.0
 10
-5.321207878512801
 20
1.853960262375006
 30
0.0
 10
-6.939792248652303
 20
1.655847420720006
 30
0.0
 10
-8.378567592848803
 20
1.479743317143006
 30
0.0
 10
-9.239946053333277
 20
1.374312052837006
 30
0.0
 10
-9.644345102586207
 20
1.324814373552005
 30
0.0
 10
-9.658224661163821
 20
1.323116251986006
 30
0.0
 10
-9.686539155330188
 20
1.317536957296007
 30
0.0
 10
-9.72829756538885
 20
1.302428954752006
 30
0.0
 10
-9.773266214814946
 20
1.277093768622006
 30
0.0
 10
-9.819457324557668
 20
1.238123571418006
 30
0.0
 10
-9.8643287671673
 20
1.181791396920305
 30
0.0
 10
-9.903605331199536
 20
1.105276854472205
 30
0.0
 10
-9.932184478255202
 20
1.006556899810906
 30
0.0
 10
-9.940140823396966
 20
0.927285553202406
 30
0.0
 10
-9.940501806444495
 20
0.8847124816346064
 30
0.0
 10
-9.940161683993146
 20
0.8405343451244054
 30
0.0
 10
-9.93948174903283
 20
0.7522123582107056
 30
0.0
 10
-9.938462524185432
 20
0.6198322986391052
 30
0.0
 10
-9.937783773477655
 20
0.5316474521390049
 30
0.0
 10
-9.937444459140515
 20
0.4875721842977061
 30
0.0
 10
-9.938208705512743
 20
0.4696000496889052
 30
0.0
 10
-9.935673283944531
 20
0.4327307829086067
 30
0.0
 10
-9.921311228381619
 20
0.3798712442989061
 30
0.0
 10
-9.8970239359491
 20
0.3311977852065855
 30
0.0
 10
-9.867470826247136
 20
0.294313312102096
 30
0.0
 10
-9.838271507730859
 20
0.2704247308305252
 30
0.0
 10
-9.808093518883275
 20
0.2548233074659976
 30
0.0
 10
-9.783956696416134
 20
0.2500003474516905
 30
0.0
 10
-9.771645907716326
 20
0.2499999999999929
 30
0.0
  0
POLYLINE
  5
92
330
1F
100
AcDbEntity
  8
Layer 01
100
AcDb2dPolyline
 66
     1
 10
0.0
 20
0.0
 30
0.0
  0
VERTEX
  5
93
330
92
100
AcDbEntity
  8
Layer 01
100
AcDbVertex
100
AcDb2dVertex
 10
0.0
 20
0.2499999999999929
 30
0.0
  0
VERTEX
  5
94
330
92
100
AcDbEntity
  8
Layer 01
100
AcDbVertex
100
AcDb2dVertex
 10
0.0
 20
2.420654601683005
 30
0.0
  0
SEQEND
  5
95
330
92
100
AcDbEntity
  8
Layer 01
  0
POLYLINE
  5
96
330
1F
100
AcDbEntity
  8
Layer 01
100
AcDb2dPolyline
 66
     1
 10
0.0
 20
0.0
 30
0.0
 70
     1
  0
VERTEX
  5
97
330
96
100
AcDbEntity
  8
Layer 01
100
AcDbVertex
100
AcDb2dVertex
 10
8.474590304338918
 20
0.0
 30
0.0
  0
VERTEX
  5
98
330
96
100
AcDbEntity
  8
Layer 01
100
AcDbVertex
100
AcDb2dVertex
 10
10.1027625914837
 20
0.0
 30
0.0
  0
VERTEX
  5
99
330
96
100
AcDbEntity
  8
Layer 01
100
AcDbVertex
100
AcDb2dVertex
 10
10.1027625914837
 20
0.2500000000000532
 30
0.0
  0
VERTEX
  5
9A
330
96
100
AcDbEntity
  8
Layer 01
100
AcDbVertex
100
AcDb2dVertex
 10
8.474590304338918
 20
0.2500000000000532
 30
0.0
  0
SEQEND
  5
9B
330
96
100
AcDbEntity
  8
Layer 01
  0
POLYLINE
  5
9C
330
1F
100
AcDbEntity
  8
Layer 01
100
AcDb2dPolyline
 66
     1
 10
0.0
 20
0.0
 30
0.0
 70
     1
  0
VERTEX
  5
9D
330
9C
100
AcDbEntity
  8
Layer 01
100
AcDbVertex
100
AcDb2dVertex
 10
-8.474590304338918
 20
0.0
 30
0.0
  0
VERTEX
  5
9E
330
9C
100
AcDbEntity
  8
Layer 01
100
AcDbVertex
100
AcDb2dVertex
 10
-10.1027625914837
 20
0.0
 30
0.0
  0
VERTEX
  5
9F
330
9C
100
AcDbEntity
  8
Layer 01
100
AcDbVertex
100
AcDb2dVertex
 10
-10.1027625914837
 20
0.2500000000000532
 30
0.0
  0
VERTEX
  5
A0
330
9C
100
AcDbEntity
  8
Layer 01
100
AcDbVertex
100
AcDb2dVertex
 10
-8.474590304338918
 20
0.2500000000000532
 30
0.0
  0
SEQEND
  5
A1
330
9C
100
AcDbEntity
  8
Layer 01
  0
SPLINE
  5
A2
330
1F
100
AcDbEntity
  8
Layer 01
370
    -3
100
AcDbSpline
210
0.0
220
0.0
230
1.0
 70
     8
 71
     2
 72
    25
 73
    22
 74
     0
 42
0.000000001
 43
0.0000000001
 40
0.0
 40
0.0
 40
0.0
 40
1.0
 40
2.0
 40
3.0
 40
4.0
 40
5.0
 40
6.0
 40
7.0
 40
8.0
 40
8.0
 40
9.0
 40
10.0
 40
10.0
 40
11.0
 40
12.0
 40
13.0
 40
14.0
 40
15.0
 40
16.0
 40
17.0
 40
18.0
 40
18.0
 40
18.0
 10
-13.7011838536382
 20
24.73228535341399
 30
0.0
 10
-13.79170346810699
 20
24.55949533950779
 30
0.0
 10
-13.94498910234316
 20
24.20070638188925
 30
0.0
 10
-14.07157433461313
 20
23.83193082456728
 30
0.0
 10
-14.178134953578
 20
23.45575439348317
 30
0.0
 10
-14.19793534854439
 20
23.06523101422935
 30
0.0
 10
-14.18586405111392
 20
22.67549956284805
 30
0.0
 10
-14.16802340168009
 20
22.28596331644473
 30
0.0
 10
-14.15078212085265
 20
21.89641024543579
 30
0.0
 10
-14.14219565398
 20
21.70163121035001
 30
0.0
 10
-14.02487505690239
 20
19.09853551590928
 30
0.0
 10
-13.79256126314687
 20
13.89192082616316
 30
0.0
 10
-13.63452573523
 20
11.291323004785
 30
0.0
 10
-13.59959438138886
 20
10.93955797575365
 30
0.0
 10
-13.39142451939428
 20
10.2606469561206
 30
0.0
 10
-12.95472249970651
 20
9.699487175217396
 30
0.0
 10
-12.48213427647151
 20
9.176631591180909
 30
0.0
 10
-11.95176519228792
 20
8.710290893920158
 30
0.0
 10
-11.37993681170233
 20
8.296722236086113
 30
0.0
 10
-10.77568016340543
 20
7.932214650449067
 30
0.0
 10
-10.14655125171488
 20
7.612838355606915
 30
0.0
 10
-9.823173395397331
 20
7.471914093178802
 30
0.0
  0
SPLINE
  5
A3
330
1F
100
AcDbEntity
  8
Layer 01
370
    -3
100
AcDbSpline
210
0.0
220
0.0
230
1.0
 70
     8
 71
     2
 72
    25
 73
    22
 74
     0
 42
0.000000001
 43
0.0000000001
 40
0.0
 40
0.0
 40
0.0
 40
1.0
 40
2.0
 40
3.0
 40
4.0
 40
5.0
 40
6.0
 40
7.0
 40
8.0
 40
8.0
 40
9.0
 40
10.0
 40
10.0
 40
11.0
 40
12.0
 40
13.0
 40
14.0
 40
15.0
 40
16.0
 40
17.0
 40
18.0
 40
18.0
 40
18.0
 10
13.7011838536382
 20
24.73228535341399
 30
0.0
 10
13.79170346810699
 20
24.55949533950779
 30
0.0
 10
13.94498910234316
 20
24.20070638188925
 30
0.0
 10
14.07157433461313
 20
23.83193082456728
 30
0.0
 10
14.178134953578
 20
23.45575439348317
 30
0.0
 10
14.19793534854439
 20
23.06523101422935
 30
0.0
 10
14.18586405111392
 20
22.67549956284805
 30
0.0
 10
14.16802340168009
 20
22.28596331644473
 30
0.0
 10
14.15078212085265
 20
21.89641024543579
 30
0.0
 10
14.14219565398
 20
21.70163121035001
 30
0.0
 10
14.02487505690239
 20
19.09853551590928
 30
0.0
 10
13.79256126314687
 20
13.89192082616316
 30
0.0
 10
13.63452573523
 20
11.291323004785
 30
0.0
 10
13.59959438138886
 20
10.93955797575365
 30
0.0
 10
13.39142451939428
 20
10.2606469561206
 30
0.0
 10
12.95472249970651
 20
9.699487175217396
 30
0.0
 10
12.48213427647151
 20
9.176631591180909
 30
0.0
 10
11.95176519228792
 20
8.710290893920158
 30
0.0
 10
11.37993681170233
 20
8.296722236086113
 30
0.0
 10
10.77568016340543
 20
7.932214650449067
 30
0.0
 10
10.14655125171488
 20
7.612838355606915
 30
0.0
 10
9.823173395397331
 20
7.471914093178802
 30
0.0
  0
SPLINE
  5
A4
330
1F
100
AcDbEntity
  8
Layer 01
370
    -3
100
AcDbSpline
210
0.0
220
0.0
230
1.0
 70
     8
 71
     2
 72
    12
 73
     9
 74
     0
 42
0.000000001
 43
0.0000000001
 40
0.0
 40
0.0
 40
0.0
 40
1.0
 40
2.0
 40
3.0
 40
3.0
 40
4.0
 40
5.0
 40
6.0
 40
6.0
 40
6.0
 10
-12.09
 20
11.035625
 30
0.0
 10
-10.07780884277276
 20
11.12892445130186
 30
0.0
 10
-6.046083396739787
 20
11.13964947379271
 30
0.0
 10
-2.015440426294398
 20
11.15136015572763
 30
0.0
 10
0.0
 20
11.15062500000001
 30
0.0
 10
2.015440426294398
 20
11.15136015572763
 30
0.0
 10
6.046083396739787
 20
11.13964947379271
 30
0.0
 10
10.07780884277276
 20
11.12892445130186
 30
0.0
 10
12.09
 20
11.035625
 30
0.0
  0
SPLINE
  5
A5
330
1F
100
AcDbEntity
  8
Layer 01
370
    -3
100
AcDbSpline
210
0.0
220
0.0
230
1.0
 70
    12
 71
     2
 72
    56
 73
    53
 74
     0
 42
0.000000001
 43
0.0000000001
 40
-23.63281419761433
 40
-23.63281419761433
 40
-23.63281419761433
 40
-23.0
 40
-23.0
 40
-21.99999384863484
 40
-20.99998769726967
 40
-19.99998154590451
 40
-18.99997539453934
 40
-17.99996924317418
 40
-16.99996309180901
 40
-15.99995694044385
 40
-14.99995078907869
 40
-13.99994463771352
 40
-12.99993848634836
 40
-11.99993233498319
 40
-10.99992618361803
 40
-9.999920032252865
 40
-8.9999138808877
 40
-7.999907729522536
 40
-6.999901578157372
 40
-5.999895426792208
 40
-4.999889275427043
 40
-3.99988312406188
 40
-2.999876972696716
 40
-1.999870821331551
 40
-0.9998646699663873
 40
0.0
 40
0.0
 40
0.9998646699556314
 40
1.999870821321285
 40
2.999876972686937
 40
3.99988312405259
 40
4.999889275418244
 40
5.999895426783897
 40
6.99990157814955
 40
7.999907729515203
 40
8.999913880880856
 40
9.999920032246509
 40
10.99992618361216
 40
11.99993233497782
 40
12.99993848634347
 40
13.99994463770912
 40
14.99995078907478
 40
15.99995694044043
 40
16.99996309180608
 40
17.99996924317173
 40
18.99997539453739
 40
19.99998154590304
 40
20.99998769726869
 40
21.99999384863435
 40
23.0
 40
23.0
 40
23.63281419761433
 40
23.63281419761433
 40
23.63281419761433
 10
13.86344432340539
 20
41.26843949093656
 30
0.0
 41
1.0
 10
14.10329133522083
 20
41.49488159394491
 30
0.0
 41
0.9399642386804504
 10
14.14199153652103
 20
41.82245587485073
 30
0.0
 41
1.0
 10
14.22654336403577
 20
42.53813701259389
 30
0.0
 41
1.0
 10
14.12512391079471
 20
43.98012520521863
 30
0.0
 41
1.0
 10
14.05207542667481
 20
45.41949972120192
 30
0.0
 41
1.0
 10
13.95799807191933
 20
46.85837951137144
 30
0.0
 41
1.0
 10
13.84825160779498
 20
48.29601699759601
 30
0.0
 41
1.0
 10
13.71857719075573
 20
49.73202671723303
 30
0.0
 41
1.0
 10
13.56618575209246
 20
51.16580767984689
 30
0.0
 41
1.0
 10
13.3875789806247
 20
52.59657021047513
 30
0.0
 41
1.0
 10
13.17976115852546
 20
54.02339082673947
 30
0.0
 41
1.0
 10
12.94042463343479
 20
55.44528831372996
 30
0.0
 41
1.0
 10
12.65823629699161
 20
56.85940552975464
 30
0.0
 41
1.0
 10
12.30929950547264
 20
58.25875153985914
 30
0.0
 41
1.0
 10
11.8718932418671
 20
59.63334564680902
 30
0.0
 41
1.0
 10
11.31269174781487
 20
60.96376360967709
 30
0.0
 41
1.0
 10
10.59925997950037
 20
62.21903143532489
 30
0.0
 41
1.0
 10
9.720509865160267
 20
63.36492515168649
 30
0.0
 41
1.0
 10
8.69741770993417
 20
64.3839204360485
 30
0.0
 41
1.0
 10
7.546969926561639
 20
65.2564973865765
 30
0.0
 41
1.0
 10
6.293664966332155
 20
65.97315531011397
 30
0.0
 41
1.0
 10
4.962583748359418
 20
66.5315815980576
 30
0.0
 41
1.0
 10
3.577650946319424
 20
66.93757194721152
 30
0.0
 41
1.0
 10
2.158490118741974
 20
67.19875322388566
 30
0.0
 41
1.0
 10
0.721259561317375
 20
67.32444626232754
 30
0.0
 41
1.0
 10
0.0
 20
67.32422433602073
 30
0.0
 41
1.0
 10
-0.7212595613254562
 20
67.32444626232682
 30
0.0
 41
1.0
 10
-2.158490118741974
 20
67.19875322388566
 30
0.0
 41
1.0
 10
-3.577650946319424
 20
66.93757194721152
 30
0.0
 41
1.0
 10
-4.962583748359418
 20
66.5315815980576
 30
0.0
 41
1.0
 10
-6.293664966332155
 20
65.97315531011397
 30
0.0
 41
1.0
 10
-7.546969926561639
 20
65.2564973865765
 30
0.0
 41
1.0
 10
-8.69741770993417
 20
64.3839204360485
 30
0.0
 41
1.0
 10
-9.720509865160267
 20
63.36492515168649
 30
0.0
 41
1.0
 10
-10.59925997950037
 20
62.21903143532489
 30
0.0
 41
1.0
 10
-11.31269174781487
 20
60.96376360967709
 30
0.0
 41
1.0
 10
-11.8718932418671
 20
59.63334564680902
 30
0.0
 41
1.0
 10
-12.30929950547264
 20
58.25875153985914
 30
0.0
 41
1.0
 10
-12.65823629699161
 20
56.85940552975464
 30
0.0
 41
1.0
 10
-12.94042463343479
 20
55.44528831372996
 30
0.0
 41
1.0
 10
-13.17976115852546
 20
54.02339082673947
 30
0.0
 41
1.0
 10
-13.3875789806247
 20
52.59657021047513
 30
0.0
 41
1.0
 10
-13.56618575209246
 20
51.16580767984689
 30
0.0
 41
1.0
 10
-13.71857719075573
 20
49.73202671723303
 30
0.0
 41
1.0
 10
-13.84825160779498
 20
48.29601699759601
 30
0.0
 41
1.0
 10
-13.95799807191933
 20
46.85837951137144
 30
0.0
 41
1.0
 10
-14.05207542667481
 20
45.41949972120192
 30
0.0
 41
1.0
 10
-14.12512391079471
 20
43.98012520521863
 30
0.0
 41
1.0
 10
-14.22654336403577
 20
42.53813701259389
 30
0.0
 41
1.0
 10
-14.14199153652103
 20
41.82245587485073
 30
0.0
 41
1.0
 10
-14.10329133522083
 20
41.49488159394491
 30
0.0
 41
0.9399642386804504
 10
-13.86344432340539
 20
41.26843949093656
 30
0.0
 41
1.0
  0
SPLINE
  5
A6
330
1F
100
AcDbEntity
  8
Layer 01
100
AcDbSpline
210
0.0
220
0.0
230
1.0
 70
    11
 71
     3
 72
   113
 73
   109
 74
     0
 42
0.000000001
 43
0.0000000001
 40
-10.0
 40
-10.0
 40
-10.0
 40
-10.0
 40
-8.999985521759639
 40
-8.999985521759639
 40
-7.999971043519279
 40
-7.999971043519279
 40
-6.999956565278918
 40
-6.999956565278918
 40
-5.999942087038558
 40
-5.999942087038558
 40
-4.999927608798197
 40
-4.999927608798197
 40
-3.999913130557837
 40
-3.999913130557837
 40
-2.999898652317476
 40
-2.999898652317476
 40
-1.999884174077116
 40
-1.999884174077116
 40
-0.999869695836755
 40
-0.999869695836755
 40
0.0
 40
0.0
 40
0.0
 40
0.999869695836755
 40
0.999869695836755
 40
1.999884174077116
 40
1.999884174077116
 40
2.999898652317476
 40
2.999898652317476
 40
3.999913130557837
 40
3.999913130557837
 40
4.999927608798197
 40
4.999927608798197
 40
5.999942087038558
 40
5.999942087038558
 40
6.999956565278918
 40
6.999956565278918
 40
7.999971043519279
 40
7.999971043519279
 40
8.999985521759639
 40
8.999985521759639
 40
10.0
 40
10.0
 40
10.0
 40
10.06326784356222
 40
10.06326784356222
 40
11.06326784358159
 40
11.06326784358159
 40
11.06326784358159
 40
12.06326784360096
 40
12.06326784360096
 40
13.06326784362034
 40
13.06326784362034
 40
14.06326784363971
 40
14.06326784363971
 40
15.06326784365909
 40
15.06326784365909
 40
16.06326784367846
 40
16.06326784367846
 40
17.06326784369784
 40
17.06326784369784
 40
18.06326784371721
 40
18.06326784371721
 40
19.06326784373658
 40
19.06326784373658
 40
20.06326784375596
 40
20.06326784375596
 40
21.06326784377533
 40
21.06326784377533
 40
22.06326784379471
 40
22.06326784379471
 40
23.06326784381408
 40
23.06326784381408
 40
24.06303790602134
 40
24.06315287470098
 40
24.06315287470098
 40
24.06315287470098
 40
24.06326784338062
 40
25.06303790558788
 40
25.06303790558788
 40
26.06303790560725
 40
26.06303790560725
 40
27.06303790562663
 40
27.06303790562663
 40
28.063037905646
 40
28.063037905646
 40
29.06303790566537
 40
29.06303790566537
 40
30.06303790568474
 40
30.06303790568474
 40
31.06303790570412
 40
31.06303790570412
 40
32.0630379057235
 40
32.0630379057235
 40
33.06303790574287
 40
33.06303790574287
 40
34.06303790576224
 40
34.06303790576224
 40
35.06303790578162
 40
35.06303790578162
 40
36.06303790580099
 40
36.06303790580099
 40
37.06303790582037
 40
37.06303790582037
 40
37.06303790582037
 40
38.06303790583974
 40
38.06303790583974
 40
38.12630574940196
 40
38.12630574940196
 40
38.12630574940196
 40
38.12630574940196
 10
12.21626064732182
 20
42.80219284542018
 30
0.0
 10
12.19561114196566
 20
42.32256370993933
 30
0.0
 10
12.06634639734412
 20
41.87591113690332
 30
0.0
 10
11.59058642957028
 20
41.04855911572098
 30
0.0
 10
11.28346405862632
 20
40.697552336321
 30
0.0
 10
10.53073454262434
 20
40.12087723990341
 30
0.0
 10
10.12828713118834
 20
39.87896326558572
 30
0.0
 10
9.27122700144631
 20
39.4879824647325
 30
0.0
 10
8.831695892261529
 20
39.32256832722529
 30
0.0
 10
7.93063158526444
 20
39.0518925780497
 30
0.0
 10
7.475055049403618
 20
38.93713094257873
 30
0.0
 10
6.553813212957418
 20
38.74876014987046
 30
0.0
 10
6.090693869297477
 20
38.66946525577915
 30
0.0
 10
5.159458331103914
 20
38.54065647212219
 30
0.0
 10
4.692586694063013
 20
38.48748907954604
 30
0.0
 10
3.756335684092965
 20
38.40362829289836
 30
0.0
 10
3.287603292070953
 20
38.37044529183236
 30
0.0
 10
2.348924733952947
 20
38.32157407421607
 30
0.0
 10
1.879332055768441
 20
38.30428189250725
 30
0.0
 10
0.9397079256079435
 20
38.28398585262808
 30
0.0
 10
0.4698792661218008
 20
38.27903622789
 30
0.0
 10
0.0000000000000025
 20
38.27928426368349
 30
0.0
 10
-0.4698792661217959
 20
38.27903622789
 30
0.0
 10
-0.9397079256079385
 20
38.28398585262808
 30
0.0
 10
-1.879332055768436
 20
38.30428189250726
 30
0.0
 10
-2.348924733952942
 20
38.32157407421607
 30
0.0
 10
-3.287603292070946
 20
38.37044529183237
 30
0.0
 10
-3.75633568409296
 20
38.40362829289836
 30
0.0
 10
-4.692586694063007
 20
38.48748907954604
 30
0.0
 10
-5.15945833110391
 20
38.54065647212219
 30
0.0
 10
-6.090693869297471
 20
38.66946525577914
 30
0.0
 10
-6.553813212957412
 20
38.74876014987046
 30
0.0
 10
-7.475055049403614
 20
38.93713094257874
 30
0.0
 10
-7.930631585264436
 20
39.0518925780497
 30
0.0
 10
-8.831695892261523
 20
39.32256832722528
 30
0.0
 10
-9.271227001446304
 20
39.48798246473249
 30
0.0
 10
-10.12828713118834
 20
39.87896326558571
 30
0.0
 10
-10.53073454262434
 20
40.12087723990341
 30
0.0
 10
-11.28346405862632
 20
40.697552336321
 30
0.0
 10
-11.59058642957027
 20
41.04855911572098
 30
0.0
 10
-12.06634639734412
 20
41.87591113690332
 30
0.0
 10
-12.19561114196566
 20
42.32256370993933
 30
0.0
 10
-12.21626064732182
 20
42.80219284542018
 30
0.0
 10
-12.21484709650068
 20
42.81023264898634
 30
0.0
 10
-12.21245067447
 20
42.8180070951782
 30
0.0
 10
-12.17227894775485
 20
42.9493673209772
 30
0.0
 10
-12.13781496938974
 20
43.06407793317937
 30
0.0
 10
-12.10666839291888
 20
43.16995528611756
 30
0.0
 10
-11.93983331457579
 20
43.7370820292038
 30
0.0
 10
-11.76928299128761
 20
44.31294550911083
 30
0.0
 10
-11.42075185482107
 20
45.48214594256646
 30
0.0
 10
-11.26760540299864
 20
46.06261453219583
 30
0.0
 10
-11.0035507321755
 20
47.21528845725768
 30
0.0
 10
-10.87554847685538
 20
47.79245897541568
 30
0.0
 10
-10.62759412639807
 20
48.94846712298589
 30
0.0
 10
-10.49850450327339
 20
49.5253520077633
 30
0.0
 10
-10.23010036123199
 20
50.67688339930268
 30
0.0
 10
-10.08684514752527
 20
51.25038940266035
 30
0.0
 10
-9.78222843473979
 20
52.39288202455164
 30
0.0
 10
-9.618282302464598
 20
52.96081437356972
 30
0.0
 10
-9.267114486149298
 20
54.09005114775073
 30
0.0
 10
-9.063800162042812
 20
54.64549156813349
 30
0.0
 10
-8.601710681932174
 20
55.73801647548357
 30
0.0
 10
-8.303030508476398
 20
56.2452869950331
 30
0.0
 10
-7.570399294763929
 20
57.18184416588115
 30
0.0
 10
-7.15200922559622
 20
57.5972040920593
 30
0.0
 10
-6.211080162637858
 20
58.32208662592386
 30
0.0
 10
-5.708004473817639
 20
58.63053717490082
 30
0.0
 10
-4.636630781495125
 20
59.13945683694408
 30
0.0
 10
-4.082572613202464
 20
59.34314114533229
 30
0.0
 10
-2.937713632354337
 20
59.64895871684188
 30
0.0
 10
-2.357499084064281
 20
59.75967097802521
 30
0.0
 10
-1.181635075095145
 20
59.89668669689036
 30
0.0
 10
-0.5918021343908064
 20
59.93049014188507
 30
0.0
 10
-0.0000680387351562
 20
59.9295851816191
 30
0.0
 10
0.0000000000000018
 20
59.92958507710541
 30
0.0
 10
0.0000680387351599
 20
59.92958518161909
 30
0.0
 10
0.5918021343908101
 20
59.93049014188507
 30
0.0
 10
1.181635075095149
 20
59.89668669689036
 30
0.0
 10
2.357499084064284
 20
59.75967097802521
 30
0.0
 10
2.937713632354341
 20
59.64895871684188
 30
0.0
 10
4.082572613202467
 20
59.34314114533229
 30
0.0
 10
4.636630781495128
 20
59.13945683694408
 30
0.0
 10
5.708004473817643
 20
58.63053717490082
 30
0.0
 10
6.211080162637861
 20
58.32208662592386
 30
0.0
 10
7.152009225596224
 20
57.5972040920593
 30
0.0
 10
7.570399294763932
 20
57.18184416588115
 30
0.0
 10
8.303030508476402
 20
56.2452869950331
 30
0.0
 10
8.601710681932177
 20
55.73801647548357
 30
0.0
 10
9.063800162042815
 20
54.64549156813349
 30
0.0
 10
9.267114486149302
 20
54.09005114775073
 30
0.0
 10
9.618282302464602
 20
52.96081437356972
 30
0.0
 10
9.782228434739794
 20
52.39288202455164
 30
0.0
 10
10.08684514752528
 20
51.25038940266035
 30
0.0
 10
10.230100361232
 20
50.67688339930268
 30
0.0
 10
10.4985045032734
 20
49.5253520077633
 30
0.0
 10
10.62759412639807
 20
48.94846712298589
 30
0.0
 10
10.87554847685539
 20
47.79245897541568
 30
0.0
 10
11.0035507321755
 20
47.21528845725768
 30
0.0
 10
11.26760540299865
 20
46.06261453219583
 30
0.0
 10
11.42075185482107
 20
45.48214594256646
 30
0.0
 10
11.76928299128762
 20
44.31294550911083
 30
0.0
 10
11.9398333145758
 20
43.7370820292038
 30
0.0
 10
12.10666839291889
 20
43.16995528611756
 30
0.0
 10
12.13781496938974
 20
43.06407793317937
 30
0.0
 10
12.17227894775486
 20
42.9493673209772
 30
0.0
 10
12.21245067447
 20
42.8180070951782
 30
0.0
 10
12.21484709650069
 20
42.81023264898634
 30
0.0
 10
12.21626064732182
 20
42.80219284542018
 30
0.0
  0
SPLINE
  5
A7
330
1F
100
AcDbEntity
  8
Layer 01
370
    -3
100
AcDbSpline
210
0.0
220
0.0
230
1.0
 70
    11
 71
     3
 72
   193
 73
   189
 74
     0
 42
0.000000001
 43
0.0000000001
 40
-22.0
 40
-22.0
 40
-22.0
 40
-22.0
 40
-21.0
 40
-21.0
 40
-21.0
 40
-20.0
 40
-20.0
 40
-19.0
 40
-19.0
 40
-18.0
 40
-18.0
 40
-17.0
 40
-17.0
 40
-16.0
 40
-16.0
 40
-15.0
 40
-15.0
 40
-14.0
 40
-14.0
 40
-13.0
 40
-13.0
 40
-13.0
 40
-11.99999115616303
 40
-11.99999115616303
 40
-10.99998231232606
 40
-10.99998231232606
 40
-9.999973468489099
 40
-9.999973468489099
 40
-8.999964624652131
 40
-8.999964624652131
 40
-7.999955780815164
 40
-7.999955780815164
 40
-6.999946936978197
 40
-6.999946936978197
 40
-5.999938093141231
 40
-5.999938093141231
 40
-4.999929249304264
 40
-4.999929249304264
 40
-3.999920405467297
 40
-3.999920405467297
 40
-2.99991156163033
 40
-2.99991156163033
 40
-1.999902717793363
 40
-1.999902717793363
 40
-0.9998938739563952
 40
-0.9998938739563952
 40
0.0
 40
0.0
 40
0.0
 40
0.9998938739563952
 40
0.9998938739563952
 40
1.999902717793362
 40
1.999902717793362
 40
2.999911561630329
 40
2.999911561630329
 40
3.999920405467296
 40
3.999920405467296
 40
4.999929249304263
 40
4.999929249304263
 40
5.99993809314123
 40
5.99993809314123
 40
6.999946936978198
 40
6.999946936978198
 40
7.999955780815165
 40
7.999955780815165
 40
8.999964624652133
 40
8.999964624652133
 40
9.999973468489099
 40
9.999973468489099
 40
10.99998231232607
 40
10.99998231232607
 40
11.99999115616303
 40
11.99999115616303
 40
13.0
 40
13.0
 40
13.0
 40
14.0
 40
14.0
 40
15.0
 40
15.0
 40
16.0
 40
16.0
 40
17.0
 40
17.0
 40
18.0
 40
18.0
 40
19.0
 40
19.0
 40
20.0
 40
20.0
 40
21.0
 40
21.0
 40
21.0
 40
22.0
 40
22.0
 40
22.0
 40
23.00000567634653
 40
23.00000567634653
 40
24.00001135269305
 40
24.00001135269305
 40
25.00001702903958
 40
25.00001702903958
 40
26.00002270538611
 40
26.00002270538611
 40
27.00002838173264
 40
27.00002838173264
 40
28.00003405807917
 40
28.00003405807917
 40
29.00003973442569
 40
29.00003973442569
 40
30.00004541077222
 40
30.00004541077222
 40
31.00005108711875
 40
31.00005108711875
 40
32.00005676346527
 40
32.00005676346527
 40
33.0000624398118
 40
33.0000624398118
 40
34.00006811615832
 40
34.00006811615832
 40
35.00007379250485
 40
35.00007379250485
 40
36.00007946885138
 40
36.00007946885138
 40
37.00008514519791
 40
37.00008514519791
 40
38.00009082154443
 40
38.00009082154443
 40
39.00009649789096
 40
39.00009649789096
 40
40.00010217423749
 40
40.00010217423749
 40
41.00010785058402
 40
41.00010785058402
 40
42.00011352693054
 40
42.00011352693054
 40
43.00011920327707
 40
43.00011920327707
 40
44.0001248796236
 40
44.0001248796236
 40
45.0
 40
45.0
 40
45.0
 40
45.99987512037914
 40
45.99987512037914
 40
46.99988079672554
 40
46.99988079672554
 40
47.99988647307195
 40
47.99988647307195
 40
48.99989214941835
 40
48.99989214941835
 40
49.99989782576475
 40
49.99989782576475
 40
50.99990350211115
 40
50.99990350211115
 40
51.99990917845756
 40
51.99990917845756
 40
52.99991485480396
 40
52.99991485480396
 40
53.99992053115037
 40
53.99992053115037
 40
54.99992620749676
 40
54.99992620749676
 40
55.99993188384317
 40
55.99993188384317
 40
56.99993756018957
 40
56.99993756018957
 40
57.99994323653597
 40
57.99994323653597
 40
58.99994891288237
 40
58.99994891288237
 40
59.99995458922878
 40
59.99995458922878
 40
60.99996026557518
 40
60.99996026557518
 40
61.99996594192159
 40
61.99996594192159
 40
62.99997161826798
 40
62.99997161826798
 40
63.99997729461439
 40
63.99997729461439
 40
64.99998297096079
 40
64.99998297096079
 40
65.99998864730719
 40
65.99998864730719
 40
66.9999943236536
 40
66.9999943236536
 40
68.0
 40
68.0
 40
68.0
 40
68.0
 10
13.83224841426843
 20
41.25474071322122
 30
0.0
 10
13.80703040994899
 20
41.2434526293137
 30
0.0
 10
13.76527326446805
 20
41.23734494996177
 30
0.0
 10
13.73766719079103
 20
41.24017823288073
 30
0.0
 10
13.62743483446279
 20
41.25149166542298
 30
0.0
 10
13.51981462245342
 20
41.27485241797846
 30
0.0
 10
13.30979848707239
 20
41.34566856311587
 30
0.0
 10
13.21014550279483
 20
41.39247519536951
 30
0.0
 10
13.02154970106563
 20
41.50888557924663
 30
0.0
 10
12.93459651196025
 20
41.57646476001265
 30
0.0
 10
12.77537955726793
 20
41.73037109919957
 30
0.0
 10
12.70355818598518
 20
41.81393380124667
 30
0.0
 10
12.57548965554647
 20
41.99427827024811
 30
0.0
 10
12.51775768262947
 20
42.08825264829752
 30
0.0
 10
12.41489832140018
 20
42.28380569149369
 30
0.0
 10
12.36877496731127
 20
42.38399623396258
 30
0.0
 10
12.2871409121849
 20
42.58920536064197
 30
0.0
 10
12.24784170827361
 20
42.70227957804489
 30
0.0
 10
12.17227894775485
 20
42.94936732097721
 30
0.0
 10
12.13781496938974
 20
43.06407793317938
 30
0.0
 10
12.10666839291889
 20
43.16995528611756
 30
0.0
 10
11.9398333145758
 20
43.7370820292038
 30
0.0
 10
11.76928299128762
 20
44.31294550911083
 30
0.0
 10
11.42075185482107
 20
45.48214594256646
 30
0.0
 10
11.26760540299865
 20
46.06261453219583
 30
0.0
 10
11.0035507321755
 20
47.21528845725768
 30
0.0
 10
10.87554847685539
 20
47.79245897541568
 30
0.0
 10
10.62759412639807
 20
48.94846712298588
 30
0.0
 10
10.4985045032734
 20
49.52535200776328
 30
0.0
 10
10.230100361232
 20
50.67688339930267
 30
0.0
 10
10.08684514752528
 20
51.25038940266034
 30
0.0
 10
9.782228434739798
 20
52.39288202455163
 30
0.0
 10
9.6182823024646
 20
52.96081437356971
 30
0.0
 10
9.267114486149303
 20
54.09005114775073
 30
0.0
 10
9.063800162042815
 20
54.64549156813349
 30
0.0
 10
8.601710681932175
 20
55.73801647548354
 30
0.0
 10
8.303030508476402
 20
56.2452869950331
 30
0.0
 10
7.570399294763932
 20
57.18184416588114
 30
0.0
 10
7.152009225596224
 20
57.59720409205929
 30
0.0
 10
6.21108016263786
 20
58.32208662592385
 30
0.0
 10
5.708004473817642
 20
58.63053717490081
 30
0.0
 10
4.636630781495128
 20
59.13945683694408
 30
0.0
 10
4.082572613202466
 20
59.34314114533229
 30
0.0
 10
2.93771363235434
 20
59.64895871684187
 30
0.0
 10
2.357499084064283
 20
59.75967097802521
 30
0.0
 10
1.181567473398824
 20
59.89669457407254
 30
0.0
 10
0.591734314096079
 20
59.93049392325668
 30
0.0
 10
0.0
 20
59.92958476218952
 30
0.0
 10
-0.591734314096079
 20
59.9304939232567
 30
0.0
 10
-1.181567473398824
 20
59.89669457407254
 30
0.0
 10
-2.357499084064283
 20
59.75967097802519
 30
0.0
 10
-2.93771363235434
 20
59.64895871684187
 30
0.0
 10
-4.082572613202466
 20
59.34314114533229
 30
0.0
 10
-4.636630781495128
 20
59.13945683694408
 30
0.0
 10
-5.708004473817643
 20
58.6305371749008
 30
0.0
 10
-6.21108016263786
 20
58.32208662592385
 30
0.0
 10
-7.152009225596223
 20
57.59720409205929
 30
0.0
 10
-7.570399294763932
 20
57.18184416588114
 30
0.0
 10
-8.303030508476402
 20
56.24528699503309
 30
0.0
 10
-8.601710681932177
 20
55.73801647548356
 30
0.0
 10
-9.063800162042815
 20
54.6454915681335
 30
0.0
 10
-9.267114486149302
 20
54.09005114775072
 30
0.0
 10
-9.618282302464602
 20
52.96081437356971
 30
0.0
 10
-9.782228434739794
 20
52.39288202455163
 30
0.0
 10
-10.08684514752528
 20
51.25038940266034
 30
0.0
 10
-10.230100361232
 20
50.67688339930267
 30
0.0
 10
-10.4985045032734
 20
49.5253520077633
 30
0.0
 10
-10.62759412639807
 20
48.94846712298588
 30
0.0
 10
-10.87554847685539
 20
47.79245897541568
 30
0.0
 10
-11.0035507321755
 20
47.21528845725768
 30
0.0
 10
-11.26760540299865
 20
46.06261453219583
 30
0.0
 10
-11.42075185482107
 20
45.48214594256646
 30
0.0
 10
-11.76928299128762
 20
44.31294550911084
 30
0.0
 10
-11.9398333145758
 20
43.7370820292038
 30
0.0
 10
-12.10666839291889
 20
43.16995528611756
 30
0.0
 10
-12.13781496938974
 20
43.06407793317937
 30
0.0
 10
-12.17227894775486
 20
42.9493673209772
 30
0.0
 10
-12.24784170827361
 20
42.70227957804489
 30
0.0
 10
-12.28714091218489
 20
42.58920536064196
 30
0.0
 10
-12.36877496731127
 20
42.38399623396258
 30
0.0
 10
-12.41489832140018
 20
42.28380569149369
 30
0.0
 10
-12.51775768262947
 20
42.08825264829752
 30
0.0
 10
-12.57548965554646
 20
41.99427827024811
 30
0.0
 10
-12.70355818598518
 20
41.81393380124667
 30
0.0
 10
-12.77537955726793
 20
41.73037109919957
 30
0.0
 10
-12.93459651196025
 20
41.57646476001264
 30
0.0
 10
-13.02154970106563
 20
41.50888557924663
 30
0.0
 10
-13.21014550279483
 20
41.39247519536951
 30
0.0
 10
-13.30979848707238
 20
41.34566856311587
 30
0.0
 10
-13.51981462245342
 20
41.27485241797846
 30
0.0
 10
-13.62743483446279
 20
41.25149166542298
 30
0.0
 10
-13.73766719079103
 20
41.24017823288073
 30
0.0
 10
-13.76527326446805
 20
41.23734494996177
 30
0.0
 10
-13.80703040994899
 20
41.2434526293137
 30
0.0
 10
-13.83224841426843
 20
41.25474071322122
 30
0.0
 10
-14.3422236128688
 20
41.48301582808111
 30
0.0
 10
-14.66475420284449
 20
41.8595547179419
 30
0.0
 10
-14.93492616554648
 20
42.90916004766526
 30
0.0
 10
-14.98871226514344
 20
43.43150071612667
 30
0.0
 10
-14.93368470082927
 20
44.47125806024894
 30
0.0
 10
-14.91341048862384
 20
44.99155419447209
 30
0.0
 10
-14.88734120411628
 20
46.03298138724244
 30
0.0
 10
-14.87047080990336
 20
46.55353762444323
 30
0.0
 10
-14.82905851755922
 20
47.59433538047605
 30
0.0
 10
-14.80533650487103
 20
48.114601185833
 30
0.0
 10
-14.75186074646241
 20
49.15486665122798
 30
0.0
 10
-14.7210465266504
 20
49.6747595390051
 30
0.0
 10
-14.65126540581099
 20
50.71406562471864
 30
0.0
 10
-14.61182018705746
 20
51.23337525204035
 30
0.0
 10
-14.52382043288272
 20
52.27130767561373
 30
0.0
 10
-14.47374119655337
 20
52.78969590903227
 30
0.0
 10
-14.3614240054107
 20
53.82531641913301
 30
0.0
 10
-14.29582032915226
 20
54.34197231848182
 30
0.0
 10
-14.14572281526119
 20
55.37297540577627
 30
0.0
 10
-14.05333631749409
 20
55.88538994216147
 30
0.0
 10
-13.8338878403168
 20
56.90404500040784
 30
0.0
 10
-13.70870394273822
 20
57.40953311011064
 30
0.0
 10
-13.42741682960117
 20
58.41283049067547
 30
0.0
 10
-13.26865462285987
 20
58.90872720741607
 30
0.0
 10
-12.91489290903171
 20
59.88901669381368
 30
0.0
 10
-12.71738098918961
 20
60.37075798213152
 30
0.0
 10
-12.2810950236494
 20
61.31743364900527
 30
0.0
 10
-12.04006876601185
 20
61.77887653971581
 30
0.0
 10
-11.51224970100187
 20
62.67797243568416
 30
0.0
 10
-11.22416167411123
 20
63.1115130074271
 30
0.0
 10
-10.59962863155868
 20
63.94657939843047
 30
0.0
 10
-10.26353395318983
 20
64.34405016503796
 30
0.0
 10
-9.543688282266977
 20
65.0988668404645
 30
0.0
 10
-9.160155162773107
 20
65.45058629842852
 30
0.0
 10
-8.345868355720485
 20
66.10264745485814
 30
0.0
 10
-7.918786980665675
 20
66.40000728588574
 30
0.0
 10
-7.024748287499041
 20
66.93738545356662
 30
0.0
 10
-6.562668480197986
 20
67.17690292773895
 30
0.0
 10
-5.608387944160403
 20
67.59759465674739
 30
0.0
 10
-5.120634010877143
 20
67.7793405616907
 30
0.0
 10
-4.123898813781683
 20
68.08563245245549
 30
0.0
 10
-3.618733646705524
 20
68.21126632171314
 30
0.0
 10
-2.594808175496353
 20
68.40750990797896
 30
0.0
 10
-2.079276284378199
 20
68.47994059361118
 30
0.0
 10
-1.041141962470789
 20
68.57341364777788
 30
0.0
 10
-0.5210835498886315
 20
68.59671011684509
 30
0.0
 10
0.0
 20
68.59656957894425
 30
0.0
 10
0.521083549887145
 20
68.59671011684522
 30
0.0
 10
1.041141962469302
 20
68.57341364777803
 30
0.0
 10
2.079276284378199
 20
68.47994059361116
 30
0.0
 10
2.594808175496354
 20
68.40750990797896
 30
0.0
 10
3.618733646705524
 20
68.21126632171315
 30
0.0
 10
4.123898813781683
 20
68.0856324524555
 30
0.0
 10
5.120634010877143
 20
67.77934056169069
 30
0.0
 10
5.608387944160403
 20
67.59759465674739
 30
0.0
 10
6.562668480197988
 20
67.17690292773894
 30
0.0
 10
7.02474828749904
 20
66.93738545356662
 30
0.0
 10
7.918786980665675
 20
66.40000728588574
 30
0.0
 10
8.345868355720489
 20
66.10264745485811
 30
0.0
 10
9.160155162773108
 20
65.45058629842852
 30
0.0
 10
9.543688282266976
 20
65.0988668404645
 30
0.0
 10
10.26353395318982
 20
64.34405016503796
 30
0.0
 10
10.59962863155868
 20
63.94657939843047
 30
0.0
 10
11.22416167411123
 20
63.1115130074271
 30
0.0
 10
11.51224970100187
 20
62.67797243568416
 30
0.0
 10
12.04006876601185
 20
61.77887653971582
 30
0.0
 10
12.2810950236494
 20
61.31743364900529
 30
0.0
 10
12.71738098918961
 20
60.37075798213152
 30
0.0
 10
12.91489290903171
 20
59.88901669381368
 30
0.0
 10
13.26865462285987
 20
58.90872720741607
 30
0.0
 10
13.42741682960117
 20
58.41283049067547
 30
0.0
 10
13.70870394273822
 20
57.40953311011064
 30
0.0
 10
13.8338878403168
 20
56.90404500040785
 30
0.0
 10
14.05333631749409
 20
55.88538994216148
 30
0.0
 10
14.14572281526119
 20
55.37297540577627
 30
0.0
 10
14.29582032915226
 20
54.34197231848182
 30
0.0
 10
14.3614240054107
 20
53.82531641913301
 30
0.0
 10
14.47374119655337
 20
52.78969590903225
 30
0.0
 10
14.52382043288272
 20
52.27130767561373
 30
0.0
 10
14.61182018705746
 20
51.23337525204035
 30
0.0
 10
14.65126540581099
 20
50.71406562471864
 30
0.0
 10
14.7210465266504
 20
49.67475953900512
 30
0.0
 10
14.75186074646241
 20
49.15486665122797
 30
0.0
 10
14.80533650487103
 20
48.11460118583299
 30
0.0
 10
14.82905851755922
 20
47.59433538047605
 30
0.0
 10
14.87047080990336
 20
46.55353762444322
 30
0.0
 10
14.88734120411628
 20
46.03298138724244
 30
0.0
 10
14.91341048862384
 20
44.99155419447209
 30
0.0
 10
14.93368470082927
 20
44.47125806024894
 30
0.0
 10
14.98871226514343
 20
43.43150071612667
 30
0.0
 10
14.93492616554648
 20
42.90916004766527
 30
0.0
 10
14.66475420284449
 20
41.8595547179419
 30
0.0
 10
14.3422236128688
 20
41.48301582808111
 30
0.0
 10
13.83224841426843
 20
41.25474071322122
 30
0.0
  0
SPLINE
  5
A8
330
1F
100
AcDbEntity
  8
Layer 01
370
    -3
100
AcDbSpline
210
0.0
220
0.0
230
1.0
 70
     8
 71
     3
 72
    65
 73
    61
 74
     0
 42
0.000000001
 43
0.0000000001
 40
94.76308949873632
 40
94.76308949873632
 40
94.76308949873632
 40
94.76308949873632
 40
94.96331112649474
 40
95.32929860419937
 40
95.69528608190397
 40
96.06127355960837
 40
96.34700425662861
 40
96.34700425662861
 40
96.34700425662861
 40
97.34628138084811
 40
97.34628138084811
 40
98.34635366842616
 40
98.34635366842616
 40
99.34642595600421
 40
99.34642595600421
 40
100.3464982435823
 40
100.3464982435823
 40
101.3465705311603
 40
101.3465705311603
 40
102.3466428187384
 40
102.3466428187384
 40
103.3467151063164
 40
103.3467151063164
 40
104.3467873938945
 40
104.3467873938945
 40
105.3468596814725
 40
105.3468596814725
 40
106.3469319690506
 40
106.3469319690506
 40
107.3470042566286
 40
107.3470042566286
 40
107.3470042566286
 40
108.3470765442067
 40
108.3470765442067
 40
109.3471488317847
 40
109.3471488317847
 40
110.3472211193628
 40
110.3472211193628
 40
111.3472934069408
 40
111.3472934069408
 40
112.3473656945189
 40
112.3473656945189
 40
113.3474379820969
 40
113.3474379820969
 40
114.347510269675
 40
114.347510269675
 40
115.347582557253
 40
115.347582557253
 40
116.3476548448311
 40
116.3476548448311
 40
117.3477271324091
 40
117.3477271324091
 40
118.3470042566286
 40
118.3470042566286
 40
118.3470042566286
 40
118.6327349536489
 40
118.9987224313533
 40
119.3647099090579
 40
119.7306973867625
 40
119.9309190145209
 40
119.9309190145209
 40
119.9309190145209
 40
119.9309190145209
 10
-4.201831060314346
 20
6.374984177004492
 30
0.0
 10
-4.200937418589393
 20
6.380052271072596
 30
0.0
 10
-4.198292130887299
 20
6.395054443125764
 30
0.0
 10
-4.193504802671001
 20
6.422204730604705
 30
0.0
 10
-4.187507261979002
 20
6.456218474091105
 30
0.0
 10
-4.181692707016907
 20
6.489194453939628
 30
0.0
 10
-4.177636371310552
 20
6.512199076882196
 30
0.0
 10
-4.176330678718132
 20
6.522827379877683
 30
0.0
 10
-4.068754326460945
 20
6.592840750131018
 30
0.0
 10
-3.952063114022673
 20
6.642418005170917
 30
0.0
 10
-3.700350860038545
 20
6.70072347355303
 30
0.0
 10
-3.57439121237883
 20
6.726660975600691
 30
0.0
 10
-3.322364984469515
 20
6.772082326680035
 30
0.0
 10
-3.195830418591293
 20
6.792143786600644
 30
0.0
 10
-2.941718382987719
 20
6.826968275203741
 30
0.0
 10
-2.81448606330133
 20
6.84277869962676
 30
0.0
 10
-2.559668820159346
 20
6.871195908715745
 30
0.0
 10
-2.432128466004125
 20
6.884132898065277
 30
0.0
 10
-2.176784292525225
 20
6.907463646374424
 30
0.0
 10
-2.049024017355672
 20
6.918051346080587
 30
0.0
 10
-1.793327090156362
 20
6.93707139659609
 30
0.0
 10
-1.665413715286103
 20
6.945612822776777
 30
0.0
 10
-1.409457143004376
 20
6.960758476984025
 30
0.0
 10
-1.281428380868227
 20
6.967331587458527
 30
0.0
 10
-1.025269904605356
 20
6.978478375149288
 30
0.0
 10
-0.8971667493135924
 20
6.983453530199079
 30
0.0
 10
-0.6409126044094071
 20
6.992207362707489
 30
0.0
 10
-0.5127584842287886
 20
6.995527370994121
 30
0.0
 10
-0.256396148410499
 20
7.000053571632243
 30
0.0
 10
-0.1282037096372844
 20
7.001126847438617
 30
0.0
 10
0.0
 20
7.001010298732305
 30
0.0
 10
0.1282037096372844
 20
7.001126847438617
 30
0.0
 10
0.256396148410499
 20
7.000053571632243
 30
0.0
 10
0.5127584842287886
 20
6.995527370994122
 30
0.0
 10
0.6409126044094072
 20
6.992207362707489
 30
0.0
 10
0.8971667493135923
 20
6.983453530199079
 30
0.0
 10
1.025269904605356
 20
6.978478375149287
 30
0.0
 10
1.281428380868227
 20
6.967331587458527
 30
0.0
 10
1.409457143004376
 20
6.960758476984025
 30
0.0
 10
1.665413715286103
 20
6.945612822776777
 30
0.0
 10
1.793327090156361
 20
6.93707139659609
 30
0.0
 10
2.049024017355671
 20
6.918051346080587
 30
0.0
 10
2.176784292525225
 20
6.907463646374424
 30
0.0
 10
2.432128466004126
 20
6.884132898065278
 30
0.0
 10
2.559668820159346
 20
6.871195908715745
 30
0.0
 10
2.81448606330133
 20
6.84277869962676
 30
0.0
 10
2.941718382987719
 20
6.82696827520374
 30
0.0
 10
3.195830418591292
 20
6.792143786600644
 30
0.0
 10
3.322364984469515
 20
6.772082326680035
 30
0.0
 10
3.57439121237883
 20
6.726660975600692
 30
0.0
 10
3.700350860038545
 20
6.70072347355303
 30
0.0
 10
3.952063114022673
 20
6.642418005170917
 30
0.0
 10
4.068754326460944
 20
6.592840750131018
 30
0.0
 10
4.176330678718132
 20
6.522827379877683
 30
0.0
 10
4.177636371310552
 20
6.512199076882196
 30
0.0
 10
4.181692707016907
 20
6.489194453939628
 30
0.0
 10
4.187507261979002
 20
6.456218474091105
 30
0.0
 10
4.193504802671001
 20
6.422204730604705
 30
0.0
 10
4.198292130887299
 20
6.395054443125764
 30
0.0
 10
4.200937418589392
 20
6.380052271072596
 30
0.0
 10
4.201831060314346
 20
6.374984177004493
 30
0.0
  0
ENDSEC
  0
SECTION
  2
OBJECTS
  0
DICTIONARY
  5
C
330
0
100
AcDbDictionary
281
     1
  3
ACAD_DETAILVIEWSTYLE
350
E4
  3
ACAD_GROUP
350
D
  3
ACAD_LAYOUT
350
1A
  3
ACAD_MATERIAL
350
43
  3
ACAD_MLEADERSTYLE
350
6B
  3
ACAD_MLINESTYLE
350
17
  3
ACAD_PLOTSETTINGS
350
19
  3
ACAD_PLOTSTYLENAME
350
E
  3
ACAD_SCALELIST
350
47
  3
ACAD_SECTIONVIEWSTYLE
350
E5
  3
ACAD_TABLESTYLE
350
69
  3
ACAD_VISUALSTYLE
350
2A
  3
ACDB_RECOMPOSE_DATA
350
E1
  3
AcDbVariableDictionary
350
A9
  0
SUN
  5
6D
330
29
100
AcDbSun
 90
        1
290
     0
 63
     7
421
 16777215
 40
1.0
291
     1
 91
  2455826
 92
 54000000
292
     0
 70
     2
 71
   256
280
     1
  0
DICTIONARY
  5
E4
102
{ACAD_REACTORS
330
C
102
}
330
C
100
AcDbDictionary
281
     1
  0
DICTIONARY
  5
D
102
{ACAD_REACTORS
330
C
102
}
330
C
100
AcDbDictionary
281
     1
  0
DICTIONARY
  5
1A
102
{ACAD_REACTORS
330
C
102
}
330
C
100
AcDbDictionary
281
     1
  3
Layout1
350
1E
  3
Layout2
350
26
  3
Model
350
22
  0
DICTIONARY
  5
43
102
{ACAD_REACTORS
330
C
102
}
330
C
100
AcDbDictionary
281
     1
  3
ByBlock
350
45
  3
ByLayer
350
44
  3
Global
350
46
  0
DICTIONARY
  5
6B
102
{ACAD_REACTORS
330
C
102
}
330
C
100
AcDbDictionary
281
     1
  3
Standard
350
6C
  0
DICTIONARY
  5
17
102
{ACAD_REACTORS
330
C
102
}
330
C
100
AcDbDictionary
281
     1
  3
Standard
350
18
  0
DICTIONARY
  5
19
102
{ACAD_REACTORS
330
C
102
}
330
C
100
AcDbDictionary
281
     1
  0
ACDBDICTIONARYWDFLT
  5
E
102
{ACAD_REACTORS
330
C
102
}
330
C
100
AcDbDictionary
281
     1
  3
Normal
350
F
100
AcDbDictionaryWithDefault
340
F
  0
DICTIONARY
  5
47
102
{ACAD_REACTORS
330
C
102
}
330
C
100
AcDbDictionary
281
     1
  3
A0
350
48
  3
A1
350
49
  3
A2
350
4A
  3
A3
350
4B
  3
A4
350
4C
  3
A5
350
4D
  3
A6
350
4E
  3
A7
350
4F
  3
A8
350
50
  3
A9
350
51
  3
B0
350
52
  3
B1
350
53
  3
B2
350
54
  3
B3
350
55
  3
B4
350
56
  3
B5
350
57
  3
B6
350
58
  3
B7
350
59
  3
B8
350
5A
  3
B9
350
5B
  3
C0
350
5C
  3
C1
350
5D
  3
C2
350
5E
  3
C3
350
5F
  3
C4
350
60
  3
C5
350
61
  3
C6
350
62
  3
C7
350
63
  3
C8
350
64
  3
C9
350
65
  3
D0
350
66
  3
D1
350
67
  3
D2
350
68
  0
DICTIONARY
  5
E5
102
{ACAD_REACTORS
330
C
102
}
330
C
100
AcDbDictionary
281
     1
  0
DICTIONARY
  5
69
102
{ACAD_REACTORS
330
C
102
}
330
C
100
AcDbDictionary
281
     1
  3
Standard
350
6A
  0
DICTIONARY
  5
2A
102
{ACAD_REACTORS
330
C
102
}
330
C
100
AcDbDictionary
281
     1
  3
2dWireframe
350
2F
  3
Basic
350
32
  3
Brighten
350
36
  3
ColorChange
350
3A
  3
Conceptual
350
34
  3
Dim
350
35
  3
EdgeColorOff
350
3D
  3
Facepattern
350
39
  3
Flat
350
2B
  3
FlatWithEdges
350
2C
  3
Gouraud
350
2D
  3
GouraudWithEdges
350
2E
  3
Hidden
350
31
  3
JitterOff
350
3B
  3
Linepattern
350
38
  3
OverhangOff
350
3C
  3
Realistic
350
33
  3
Shaded
350
42
  3
Shaded with edges
350
41
  3
Shades of Gray
350
3E
  3
Sketchy
350
3F
  3
Thicken
350
37
  3
Wireframe
350
30
  3
X-Ray
350
40
  0
XRECORD
  5
E1
102
{ACAD_REACTORS
330
C
102
}
330
C
100
AcDbXrecord
280
     1
 90
        1
330
6A
  0
DICTIONARY
  5
A9
102
{ACAD_REACTORS
330
C
102
}
330
C
100
AcDbDictionary
281
     1
  3
CANNOSCALE
350
AA
  3
CMLEADERSTYLE
350
E3
  3
CTABLESTYLE
350
E2
  3
XCLIPFRAME
350
AB
  0
LAYOUT
  5
1E
102
{ACAD_REACTORS
330
1A
102
}
330
1A
100
AcDbPlotSettings
  1

  2
none_device
  4

  6

 40
0.0
 41
0.0
 42
0.0
 43
0.0
 44
0.0
 45
0.0
 46
0.0
 47
0.0
 48
0.0
 49
0.0
140
0.0
141
0.0
142
1.0
143
1.0
 70
   688
 72
     0
 73
     0
 74
     5
  7

 75
    16
 76
     0
 77
     2
 78
   300
147
1.0
148
0.0
149
0.0
100
AcDbLayout
  1
Layout1
 70
     1
 71
     1
 10
0.0
 20
0.0
 11
12.0
 21
9.0
 12
0.0
 22
0.0
 32
0.0
 14
1.000000000000000E+20
 24
1.000000000000000E+20
 34
1.000000000000000E+20
 15
-1.000000000000000E+20
 25
-1.000000000000000E+20
 35
-1.000000000000000E+20
146
0.0
 13
0.0
 23
0.0
 33
0.0
 16
1.0
 26
0.0
 36
0.0
 17
0.0
 27
1.0
 37
0.0
 76
     0
330
1B
  0
LAYOUT
  5
26
102
{ACAD_REACTORS
330
1A
102
}
330
1A
100
AcDbPlotSettings
  1

  2
none_device
  4

  6

 40
0.0
 41
0.0
 42
0.0
 43
0.0
 44
0.0
 45
0.0
 46
0.0
 47
0.0
 48
0.0
 49
0.0
140
0.0
141
0.0
142
1.0
143
1.0
 70
   688
 72
     0
 73
     0
 74
     5
  7

 75
    16
 76
     0
 77
     2
 78
   300
147
1.0
148
0.0
149
0.0
100
AcDbLayout
  1
Layout2
 70
     1
 71
     2
 10
0.0
 20
0.0
 11
0.0
 21
0.0
 12
0.0
 22
0.0
 32
0.0
 14
0.0
 24
0.0
 34
0.0
 15
0.0
 25
0.0
 35
0.0
146
0.0
 13
0.0
 23
0.0
 33
0.0
 16
1.0
 26
0.0
 36
0.0
 17
0.0
 27
1.0
 37
0.0
 76
     0
330
23
  0
LAYOUT
  5
22
102
{ACAD_REACTORS
330
1A
102
}
330
1A
100
AcDbPlotSettings
  1

  2
none_device
  4
Letter_(8.50_x_11.00_Inches)
  6

 40
6.35
 41
6.35
 42
6.35000508
 43
6.35000508
 44
215.9
 45
279.4
 46
0.0
 47
0.0
 48
0.0
 49
0.0
140
0.0
141
0.0
142
1.0
143
1.0
 70
  1712
 72
     0
 73
     0
 74
     0
  7

 75
     0
 76
     0
 77
     2
 78
   300
147
1.0
148
0.0
149
0.0
100
AcDbLayout
  1
Model
 70
     1
 71
     0
 10
0.0
 20
0.0
 11
12.0
 21
9.0
 12
0.0
 22
0.0
 32
0.0
 14
1.000000000000000E+20
 24
1.000000000000000E+20
 34
1.000000000000000E+20
 15
-1.000000000000000E+20
 25
-1.000000000000000E+20
 35
-1.000000000000000E+20
146
0.0
 13
0.0
 23
0.0
 33
0.0
 16
1.0
 26
0.0
 36
0.0
 17
0.0
 27
1.0
 37
0.0
 76
     0
330
1F
331
29
  0
MATERIAL
  5
45
102
{ACAD_REACTORS
330
43
102
}
330
43
100
AcDbMaterial
  1
ByBlock
 72
     1
 94
      127
  0
MATERIAL
  5
44
102
{ACAD_REACTORS
330
43
102
}
330
43
100
AcDbMaterial
  1
ByLayer
 72
     1
 94
      127
  0
MATERIAL
  5
46
102
{ACAD_REACTORS
330
43
102
}
330
43
100
AcDbMaterial
  1
Global
 72
     1
 94
      127
  0
MLEADERSTYLE
  5
6C
102
{ACAD_REACTORS
330
6B
102
}
102
{ACAD_XDICTIONARY
360
DF
102
}
330
6B
100
AcDbMLeaderStyle
170
     2
171
     1
172
     0
 90
        2
 40
0.0
 41
0.0
173
     1
 91
-1056964608
340
14
 92
       -2
290
     1
 42
0.09
291
     1
 43
0.36
  3
Standard
341
0
 44
0.18
300

342
11
174
     1
178
     6
175
     1
176
     0
 93
-1056964608
 45
0.18
292
     0
297
     0
 46
0.18
343
0
 94
-1056964608
 47
1.0
 49
1.0
140
1.0
293
     1
141
0.0
294
     1
177
     0
142
1.0
295
     0
296
     0
143
0.125
1001
ACAD_MLEADERVER
1070
     2
  0
MLINESTYLE
  5
18
102
{ACAD_REACTORS
330
17
102
}
330
17
100
AcDbMlineStyle
  2
Standard
 70
     0
  3

 62
   256
 51
90.0
 52
90.0
 71
     2
 49
0.5
 62
   256
  6
BYLAYER
 49
-0.5
 62
   256
  6
BYLAYER
  0
ACDBPLACEHOLDER
  5
F
102
{ACAD_REACTORS
330
E
102
}
330
E
  0
SCALE
  5
48
102
{ACAD_REACTORS
330
47
102
}
330
47
100
AcDbScale
 70
     0
300
1:1
140
1.0
141
1.0
290
     1
  0
SCALE
  5
49
102
{ACAD_REACTORS
330
47
102
}
330
47
100
AcDbScale
 70
     0
300
1:2
140
1.0
141
2.0
290
     0
  0
SCALE
  5
4A
102
{ACAD_REACTORS
330
47
102
}
330
47
100
AcDbScale
 70
     0
300
1:4
140
1.0
141
4.0
290
     0
  0
SCALE
  5
4B
102
{ACAD_REACTORS
330
47
102
}
330
47
100
AcDbScale
 70
     0
300
1:5
140
1.0
141
5.0
290
     0
  0
SCALE
  5
4C
102
{ACAD_REACTORS
330
47
102
}
330
47
100
AcDbScale
 70
     0
300
1:8
140
1.0
141
8.0
290
     0
  0
SCALE
  5
4D
102
{ACAD_REACTORS
330
47
102
}
330
47
100
AcDbScale
 70
     0
300
1:10
140
1.0
141
10.0
290
     0
  0
SCALE
  5
4E
102
{ACAD_REACTORS
330
47
102
}
330
47
100
AcDbScale
 70
     0
300
1:16
140
1.0
141
16.0
290
     0
  0
SCALE
  5
4F
102
{ACAD_REACTORS
330
47
102
}
330
47
100
AcDbScale
 70
     0
300
1:20
140
1.0
141
20.0
290
     0
  0
SCALE
  5
50
102
{ACAD_REACTORS
330
47
102
}
330
47
100
AcDbScale
 70
     0
300
1:30
140
1.0
141
30.0
290
     0
  0
SCALE
  5
51
102
{ACAD_REACTORS
330
47
102
}
330
47
100
AcDbScale
 70
     0
300
1:40
140
1.0
141
40.0
290
     0
  0
SCALE
  5
52
102
{ACAD_REACTORS
330
47
102
}
330
47
100
AcDbScale
 70
     0
300
1:50
140
1.0
141
50.0
290
     0
  0
SCALE
  5
53
102
{ACAD_REACTORS
330
47
102
}
330
47
100
AcDbScale
 70
     0
300
1:100
140
1.0
141
100.0
290
     0
  0
SCALE
  5
54
102
{ACAD_REACTORS
330
47
102
}
330
47
100
AcDbScale
 70
     0
300
2:1
140
2.0
141
1.0
290
     0
  0
SCALE
  5
55
102
{ACAD_REACTORS
330
47
102
}
330
47
100
AcDbScale
 70
     0
300
4:1
140
4.0
141
1.0
290
     0
  0
SCALE
  5
56
102
{ACAD_REACTORS
330
47
102
}
330
47
100
AcDbScale
 70
     0
300
8:1
140
8.0
141
1.0
290
     0
  0
SCALE
  5
57
102
{ACAD_REACTORS
330
47
102
}
330
47
100
AcDbScale
 70
     0
300
10:1
140
10.0
141
1.0
290
     0
  0
SCALE
  5
58
102
{ACAD_REACTORS
330
47
102
}
330
47
100
AcDbScale
 70
     0
300
100:1
140
100.0
141
1.0
290
     0
  0
SCALE
  5
59
102
{ACAD_REACTORS
330
47
102
}
330
47
100
AcDbScale
 70
     0
300
1/128" = 1'-0"
140
0.0078125
141
12.0
290
     0
  0
SCALE
  5
5A
102
{ACAD_REACTORS
330
47
102
}
330
47
100
AcDbScale
 70
     0
300
1/64" = 1'-0"
140
0.015625
141
12.0
290
     0
  0
SCALE
  5
5B
102
{ACAD_REACTORS
330
47
102
}
330
47
100
AcDbScale
 70
     0
300
1/32" = 1'-0"
140
0.03125
141
12.0
290
     0
  0
SCALE
  5
5C
102
{ACAD_REACTORS
330
47
102
}
330
47
100
AcDbScale
 70
     0
300
1/16" = 1'-0"
140
0.0625
141
12.0
290
     0
  0
SCALE
  5
5D
102
{ACAD_REACTORS
330
47
102
}
330
47
100
AcDbScale
 70
     0
300
3/32" = 1'-0"
140
0.09375
141
12.0
290
     0
  0
SCALE
  5
5E
102
{ACAD_REACTORS
330
47
102
}
330
47
100
AcDbScale
 70
     0
300
1/8" = 1'-0"
140
0.125
141
12.0
290
     0
  0
SCALE
  5
5F
102
{ACAD_REACTORS
330
47
102
}
330
47
100
AcDbScale
 70
     0
300
3/16" = 1'-0"
140
0.1875
141
12.0
290
     0
  0
SCALE
  5
60
102
{ACAD_REACTORS
330
47
102
}
330
47
100
AcDbScale
 70
     0
300
1/4" = 1'-0"
140
0.25
141
12.0
290
     0
  0
SCALE
  5
61
102
{ACAD_REACTORS
330
47
102
}
330
47
100
AcDbScale
 70
     0
300
3/8" = 1'-0"
140
0.375
141
12.0
290
     0
  0
SCALE
  5
62
102
{ACAD_REACTORS
330
47
102
}
330
47
100
AcDbScale
 70
     0
300
1/2" = 1'-0"
140
0.5
141
12.0
290
     0
  0
SCALE
  5
63
102
{ACAD_REACTORS
330
47
102
}
330
47
100
AcDbScale
 70
     0
300
3/4" = 1'-0"
140
0.75
141
12.0
290
     0
  0
SCALE
  5
64
102
{ACAD_REACTORS
330
47
102
}
330
47
100
AcDbScale
 70
     0
300
1" = 1'-0"
140
1.0
141
12.0
290
     0
  0
SCALE
  5
65
102
{ACAD_REACTORS
330
47
102
}
330
47
100
AcDbScale
 70
     0
300
1-1/2" = 1'-0"
140
1.5
141
12.0
290
     0
  0
SCALE
  5
66
102
{ACAD_REACTORS
330
47
102
}
330
47
100
AcDbScale
 70
     0
300
3" = 1'-0"
140
3.0
141
12.0
290
     0
  0
SCALE
  5
67
102
{ACAD_REACTORS
330
47
102
}
330
47
100
AcDbScale
 70
     0
300
6" = 1'-0"
140
6.0
141
12.0
290
     0
  0
SCALE
  5
68
102
{ACAD_REACTORS
330
47
102
}
330
47
100
AcDbScale
 70
     0
300
1'-0" = 1'-0"
140
12.0
141
12.0
290
     0
  0
TABLESTYLE
  5
6A
102
{ACAD_REACTORS
330
69
102
}
102
{ACAD_XDICTIONARY
360
DC
102
}
330
69
100
AcDbTableStyle
  3
Standard
 70
     0
 71
     0
 40
0.06
 41
0.06
280
     0
281
     0
  7
Standard
140
0.18
170
     2
 62
     0
 63
   257
283
     0
 90
        4
 91
        0
  1

274
    -2
284
     1
 64
     0
275
    -2
285
     1
 65
     0
276
    -2
286
     1
 66
     0
277
    -2
287
     1
 67
     0
278
    -2
288
     1
 68
     0
279
    -2
289
     1
 69
     0
  7
Standard
140
0.25
170
     5
 62
     0
 63
   257
283
     0
 90
        4
 91
        0
  1

274
    -2
284
     1
 64
     0
275
    -2
285
     1
 65
     0
276
    -2
286
     1
 66
     0
277
    -2
287
     1
 67
     0
278
    -2
288
     1
 68
     0
279
    -2
289
     1
 69
     0
  7
Standard
140
0.18
170
     5
 62
     0
 63
   257
283
     0
 90
        4
 91
        0
  1

274
    -2
284
     1
 64
     0
275
    -2
285
     1
 65
     0
276
    -2
286
     1
 66
     0
277
    -2
287
     1
 67
     0
278
    -2
288
     1
 68
     0
279
    -2
289
     1
 69
     0
  0
VISUALSTYLE
  5
2F
102
{ACAD_REACTORS
330
2A
102
}
102
{ACAD_XDICTIONARY
360
B4
102
}
330
2A
100
AcDbVisualStyle
  2
2dWireframe
 70
     4
 71
     0
 72
     2
 73
     0
 90
        0
 40
0.6
 41
30.0
 62
     5
 63
     7
421
 16777215
 74
     1
 91
        4
 64
     7
 65
   257
 75
     1
175
     1
 42
1.0
 92
        0
 66
   257
 43
1.0
 76
     1
 77
     6
 78
     2
 67
     7
 79
     5
170
     0
171
     0
290
     0
174
     0
 93
        1
 44
0.0
173
     0
291
     0
 45
0.0
  0
VISUALSTYLE
  5
32
102
{ACAD_REACTORS
330
2A
102
}
102
{ACAD_XDICTIONARY
360
BA
102
}
330
2A
100
AcDbVisualStyle
  2
Basic
 70
     7
 71
     1
 72
     0
 73
     1
 90
        0
 40
0.6
 41
30.0
 62
     5
 63
     7
421
 16777215
 74
     0
 91
        4
 64
     7
 65
   257
 75
     1
175
     1
 42
1.0
 92
        8
 66
     7
 43
1.0
 76
     1
 77
     6
 78
     2
 67
     7
 79
     5
170
     0
171
     0
290
     0
174
     0
 93
        1
 44
0.0
173
     0
291
     1
 45
0.0
  0
VISUALSTYLE
  5
36
102
{ACAD_REACTORS
330
2A
102
}
102
{ACAD_XDICTIONARY
360
C2
102
}
330
2A
100
AcDbVisualStyle
  2
Brighten
 70
    12
 71
     2
 72
     2
 73
     0
 90
        0
 40
0.6
 41
30.0
 62
     5
 63
     7
421
 16777215
 74
     1
 91
        4
 64
     7
 65
   257
 75
     1
175
     1
 42
1.0
 92
        8
 66
     7
 43
1.0
 76
     1
 77
     6
 78
     2
 67
     7
 79
     5
170
     0
171
     0
290
     0
174
     0
 93
        1
 44
50.0
173
     0
291
     1
 45
0.0
  0
VISUALSTYLE
  5
3A
102
{ACAD_REACTORS
330
2A
102
}
102
{ACAD_XDICTIONARY
360
CA
102
}
330
2A
100
AcDbVisualStyle
  2
ColorChange
 70
    16
 71
     2
 72
     2
 73
     3
 90
        0
 40
0.6
 41
30.0
 62
     5
 63
     8
421
  8421504
 74
     1
 91
        4
 64
     7
 65
   257
 75
     1
175
     1
 42
1.0
 92
        8
 66
     8
424
  8421504
 43
1.0
 76
     1
 77
     6
 78
     2
 67
     7
 79
     5
170
     0
171
     0
290
     0
174
     0
 93
        1
 44
0.0
173
     0
291
     1
 45
0.0
  0
VISUALSTYLE
  5
34
102
{ACAD_REACTORS
330
2A
102
}
102
{ACAD_XDICTIONARY
360
BE
102
}
330
2A
100
AcDbVisualStyle
  2
Conceptual
 70
     9
 71
     3
 72
     2
 73
     0
 90
        0
 40
0.6
 41
30.0
 62
     5
 63
     7
421
 16777215
 74
     2
 91
        2
 64
     7
 65
   257
 75
     1
175
     1
 42
179.0
 92
        8
 66
     7
 43
1.0
 76
     1
 77
     6
 78
     2
 67
     7
 79
     3
170
     0
171
     0
290
     0
174
     0
 93
        1
 44
0.0
173
     0
291
     0
 45
0.0
  0
VISUALSTYLE
  5
35
102
{ACAD_REACTORS
330
2A
102
}
102
{ACAD_XDICTIONARY
360
C0
102
}
330
2A
100
AcDbVisualStyle
  2
Dim
 70
    11
 71
     2
 72
     2
 73
     0
 90
        0
 40
0.6
 41
30.0
 62
     5
 63
     7
421
 16777215
 74
     1
 91
        4
 64
     7
 65
   257
 75
     1
175
     1
 42
1.0
 92
        8
 66
     7
 43
1.0
 76
     1
 77
     6
 78
     2
 67
     7
 79
     5
170
     0
171
     0
290
     0
174
     0
 93
        1
 44
-50.0
173
     0
291
     1
 45
0.0
  0
VISUALSTYLE
  5
3D
102
{ACAD_REACTORS
330
2A
102
}
102
{ACAD_XDICTIONARY
360
D0
102
}
330
2A
100
AcDbVisualStyle
  2
EdgeColorOff
 70
    22
 71
     2
 72
     2
 73
     0
 90
        0
 40
0.6
 41
30.0
 62
     5
 63
     7
421
 16777215
 74
     1
 91
        4
 64
     7
 65
   257
 75
     1
175
     1
 42
1.0
 92
        8
 66
     7
 43
1.0
 76
     1
 77
     6
 78
     2
 67
     7
 79
     5
170
     0
171
     0
290
     0
174
     0
 93
        1
 44
0.0
173
     0
291
     1
 45
0.0
  0
VISUALSTYLE
  5
39
102
{ACAD_REACTORS
330
2A
102
}
102
{ACAD_XDICTIONARY
360
C8
102
}
330
2A
100
AcDbVisualStyle
  2
Facepattern
 70
    15
 71
     2
 72
     2
 73
     0
 90
        0
 40
0.6
 41
30.0
 62
     5
 63
     7
421
 16777215
 74
     1
 91
        4
 64
     7
 65
   257
 75
     1
175
     1
 42
1.0
 92
        8
 66
     7
 43
1.0
 76
     1
 77
     6
 78
     2
 67
     7
 79
     5
170
     0
171
     0
290
     0
174
     0
 93
        1
 44
0.0
173
     0
291
     1
 45
0.0
  0
VISUALSTYLE
  5
2B
102
{ACAD_REACTORS
330
2A
102
}
102
{ACAD_XDICTIONARY
360
AC
102
}
330
2A
100
AcDbVisualStyle
  2
Flat
 70
     0
 71
     2
 72
     1
 73
     1
 90
        2
 40
0.6
 41
30.0
 62
     5
 63
     7
421
 16777215
 74
     0
 91
        0
 64
     7
 65
   257
 75
     1
175
     1
 42
1.0
 92
        8
 66
     7
 43
1.0
 76
     1
 77
     6
 78
     2
 67
     7
 79
     5
170
     0
171
     0
290
     0
174
     0
 93
       13
 44
0.0
173
     0
291
     1
 45
0.0
  0
VISUALSTYLE
  5
2C
102
{ACAD_REACTORS
330
2A
102
}
102
{ACAD_XDICTIONARY
360
AE
102
}
330
2A
100
AcDbVisualStyle
  2
FlatWithEdges
 70
     1
 71
     2
 72
     1
 73
     1
 90
        2
 40
0.6
 41
30.0
 62
     5
 63
     7
421
 16777215
 74
     1
 91
        0
 64
     7
 65
   257
 75
     1
175
     1
 42
1.0
 92
        0
 66
   257
 43
1.0
 76
     1
 77
     6
 78
     2
 67
     7
 79
     5
170
     0
171
     0
290
     0
174
     0
 93
       13
 44
0.0
173
     0
291
     1
 45
0.0
  0
VISUALSTYLE
  5
2D
102
{ACAD_REACTORS
330
2A
102
}
102
{ACAD_XDICTIONARY
360
B0
102
}
330
2A
100
AcDbVisualStyle
  2
Gouraud
 70
     2
 71
     2
 72
     2
 73
     1
 90
        2
 40
0.6
 41
30.0
 62
     5
 63
     7
421
 16777215
 74
     0
 91
        0
 64
     7
 65
   257
 75
     1
175
     1
 42
1.0
 92
        0
 66
     7
 43
1.0
 76
     1
 77
     6
 78
     2
 67
     7
 79
     5
170
     0
171
     0
290
     0
174
     0
 93
       13
 44
0.0
173
     0
291
     1
 45
0.0
  0
VISUALSTYLE
  5
2E
102
{ACAD_REACTORS
330
2A
102
}
102
{ACAD_XDICTIONARY
360
B2
102
}
330
2A
100
AcDbVisualStyle
  2
GouraudWithEdges
 70
     3
 71
     2
 72
     2
 73
     1
 90
        2
 40
0.6
 41
30.0
 62
     5
 63
     7
421
 16777215
 74
     1
 91
        0
 64
     7
 65
   257
 75
     1
175
     1
 42
1.0
 92
        0
 66
   257
 43
1.0
 76
     1
 77
     6
 78
     2
 67
     7
 79
     5
170
     0
171
     0
290
     0
174
     0
 93
       13
 44
0.0
173
     0
291
     1
 45
0.0
  0
VISUALSTYLE
  5
31
102
{ACAD_REACTORS
330
2A
102
}
102
{ACAD_XDICTIONARY
360
B8
102
}
330
2A
100
AcDbVisualStyle
  2
Hidden
 70
     6
 71
     1
 72
     2
 73
     2
 90
        0
 40
0.6
 41
30.0
 62
     5
 63
     7
421
 16777215
 74
     2
 91
        2
 64
     7
 65
   257
 75
     2
175
     1
 42
40.0
 92
        0
 66
   257
 43
1.0
 76
     1
 77
     6
 78
     2
 67
     7
 79
     3
170
     0
171
     0
290
     0
174
     0
 93
        1
 44
0.0
173
     0
291
     0
 45
0.0
  0
VISUALSTYLE
  5
3B
102
{ACAD_REACTORS
330
2A
102
}
102
{ACAD_XDICTIONARY
360
CC
102
}
330
2A
100
AcDbVisualStyle
  2
JitterOff
 70
    20
 71
     2
 72
     2
 73
     0
 90
        0
 40
0.6
 41
30.0
 62
     5
 63
     7
421
 16777215
 74
     1
 91
        4
 64
     7
 65
   257
 75
     1
175
     1
 42
1.0
 92
       10
 66
     7
 43
1.0
 76
     1
 77
     6
 78
     2
 67
     7
 79
     5
170
     0
171
     0
290
     0
174
     0
 93
        1
 44
0.0
173
     0
291
     1
 45
0.0
  0
VISUALSTYLE
  5
38
102
{ACAD_REACTORS
330
2A
102
}
102
{ACAD_XDICTIONARY
360
C6
102
}
330
2A
100
AcDbVisualStyle
  2
Linepattern
 70
    14
 71
     2
 72
     2
 73
     0
 90
        0
 40
0.6
 41
30.0
 62
     5
 63
     7
421
 16777215
 74
     1
 91
        4
 64
     7
 65
   257
 75
     7
175
     7
 42
1.0
 92
        8
 66
     7
 43
1.0
 76
     1
 77
     6
 78
     2
 67
     7
 79
     5
170
     0
171
     0
290
     0
174
     0
 93
        1
 44
0.0
173
     0
291
     1
 45
0.0
  0
VISUALSTYLE
  5
3C
102
{ACAD_REACTORS
330
2A
102
}
102
{ACAD_XDICTIONARY
360
CE
102
}
330
2A
100
AcDbVisualStyle
  2
OverhangOff
 70
    21
 71
     2
 72
     2
 73
     0
 90
        0
 40
0.6
 41
30.0
 62
     5
 63
     7
421
 16777215
 74
     1
 91
        4
 64
     7
 65
   257
 75
     1
175
     1
 42
1.0
 92
        9
 66
     7
 43
1.0
 76
     1
 77
     6
 78
     2
 67
     7
 79
     5
170
     0
171
     0
290
     0
174
     0
 93
        1
 44
0.0
173
     0
291
     1
 45
0.0
  0
VISUALSTYLE
  5
33
102
{ACAD_REACTORS
330
2A
102
}
102
{ACAD_XDICTIONARY
360
BC
102
}
330
2A
100
AcDbVisualStyle
  2
Realistic
 70
     8
 71
     2
 72
     3
 73
     0
 90
        2
 40
0.6
 41
30.0
 62
     5
 63
     7
421
 16777215
 74
     0
 91
        0
 64
     7
 65
   257
 75
     1
175
     1
 42
1.0
 92
        8
 66
   257
 43
1.0
 76
     1
 77
     6
 78
     2
 67
     7
 79
     3
170
     0
171
     0
290
     0
174
     0
 93
       13
 44
0.0
173
     0
291
     0
 45
0.0
  0
VISUALSTYLE
  5
42
102
{ACAD_REACTORS
330
2A
102
}
102
{ACAD_XDICTIONARY
360
DA
102
}
330
2A
100
AcDbVisualStyle
  2
Shaded
 70
    27
 71
     2
 72
     2
 73
     1
 90
        2
 40
0.6
 41
30.0
 62
     5
 63
     7
421
 16777215
 74
     0
 91
        4
 64
     7
 65
   257
 75
     1
175
     1
 42
1.0
 92
        8
 66
   257
 43
1.0
 76
     1
 77
     6
 78
     2
 67
     8
425
  7895160
 79
     3
170
     0
171
     0
290
     0
174
     0
 93
        5
 44
0.0
173
     0
291
     0
 45
0.0
  0
VISUALSTYLE
  5
41
102
{ACAD_REACTORS
330
2A
102
}
102
{ACAD_XDICTIONARY
360
D8
102
}
330
2A
100
AcDbVisualStyle
  2
Shaded with edges
 70
    26
 71
     2
 72
     2
 73
     1
 90
        2
 40
0.6
 41
30.0
 62
     5
 63
     7
421
 16777215
 74
     1
 91
       10
 64
     7
 65
   257
 75
     2
175
     1
 42
1.0
 92
        8
 66
   257
 43
1.0
 76
     1
 77
     6
 78
     2
 67
     7
 79
     3
170
     0
171
     0
290
     0
174
     0
 93
        5
 44
0.0
173
     0
291
     0
 45
0.0
  0
VISUALSTYLE
  5
3E
102
{ACAD_REACTORS
330
2A
102
}
102
{ACAD_XDICTIONARY
360
D2
102
}
330
2A
100
AcDbVisualStyle
  2
Shades of Gray
 70
    23
 71
     2
 72
     2
 73
     3
 90
        0
 40
0.6
 41
30.0
 62
     5
 63
     7
421
 16777215
 74
     2
 91
        2
 64
     7
 65
     7
 75
     1
175
     1
 42
40.0
 92
        8
 66
     7
 43
1.0
 76
     1
 77
     6
 78
     2
 67
     7
 79
     3
170
     0
171
     0
290
     0
174
     0
 93
        1
 44
0.0
173
     0
291
     0
 45
0.0
  0
VISUALSTYLE
  5
3F
102
{ACAD_REACTORS
330
2A
102
}
102
{ACAD_XDICTIONARY
360
D4
102
}
330
2A
100
AcDbVisualStyle
  2
Sketchy
 70
    24
 71
     1
 72
     2
 73
     2
 90
        0
 40
0.6
 41
30.0
 62
     5
 63
     7
421
 16777215
 74
     2
 91
        2
 64
     7
 65
     7
 75
     1
175
     1
 42
40.0
 92
       11
 66
     7
 43
1.0
 76
     1
 77
     6
 78
     2
 67
     7
 79
     6
170
     0
171
     0
290
     0
174
     0
 93
        1
 44
0.0
173
     0
291
     0
 45
0.0
  0
VISUALSTYLE
  5
37
102
{ACAD_REACTORS
330
2A
102
}
102
{ACAD_XDICTIONARY
360
C4
102
}
330
2A
100
AcDbVisualStyle
  2
Thicken
 70
    13
 71
     2
 72
     2
 73
     0
 90
        0
 40
0.6
 41
30.0
 62
     5
 63
     7
421
 16777215
 74
     1
 91
        4
 64
     7
 65
   257
 75
     1
175
     1
 42
1.0
 92
       12
 66
     7
 43
1.0
 76
     1
 77
     6
 78
     2
 67
     7
 79
     5
170
     0
171
     0
290
     0
174
     0
 93
        1
 44
0.0
173
     0
291
     1
 45
0.0
  0
VISUALSTYLE
  5
30
102
{ACAD_REACTORS
330
2A
102
}
102
{ACAD_XDICTIONARY
360
B6
102
}
330
2A
100
AcDbVisualStyle
  2
Wireframe
 70
     5
 71
     0
 72
     2
 73
     0
 90
        0
 40
0.6
 41
30.0
 62
     5
 63
     7
421
 16777215
 74
     1
 91
        4
 64
     7
 65
   257
 75
     1
175
     1
 42
1.0
 92
        0
 66
   257
 43
1.0
 76
     1
 77
     6
 78
     2
 67
     7
 79
     3
170
     0
171
     0
290
     0
174
     0
 93
        1
 44
0.0
173
     0
291
     0
 45
0.0
  0
VISUALSTYLE
  5
40
102
{ACAD_REACTORS
330
2A
102
}
102
{ACAD_XDICTIONARY
360
D6
102
}
330
2A
100
AcDbVisualStyle
  2
X-Ray
 70
    25
 71
     2
 72
     2
 73
     1
 90
        1
 40
0.5
 41
30.0
 62
     5
 63
     7
421
 16777215
 74
     1
 91
        0
 64
     7
 65
   257
 75
     1
175
     1
 42
1.0
 92
        8
 66
     7
 43
1.0
 76
     1
 77
     6
 78
     2
 67
     7
 79
     3
170
     0
171
     0
290
     0
174
     0
 93
       13
 44
0.0
173
     0
291
     0
 45
0.0
  0
DICTIONARYVAR
  5
AA
102
{ACAD_REACTORS
330
A9
102
}
330
A9
100
DictionaryVariables
280
     0
  1
1:1
  0
DICTIONARYVAR
  5
E3
102
{ACAD_REACTORS
330
A9
102
}
330
A9
100
DictionaryVariables
280
     0
  1
Standard
  0
DICTIONARYVAR
  5
E2
102
{ACAD_REACTORS
330
A9
102
}
330
A9
100
DictionaryVariables
280
     0
  1
Standard
  0
DICTIONARYVAR
  5
AB
102
{ACAD_REACTORS
330
A9
102
}
330
A9
100
DictionaryVariables
280
     0
  1
2
  0
DICTIONARY
  5
DF
330
6C
100
AcDbDictionary
280
     1
281
     1
  3
ACAD_XREC_ROUNDTRIP
360
E0
  0
DICTIONARY
  5
DC
330
6A
100
AcDbDictionary
280
     1
281
     1
  3
ACAD_ROUNDTRIP_2008_TABLESTYLE_CELLSTYLEMAP
360
DD
  0
DICTIONARY
  5
B4
330
2F
100
AcDbDictionary
280
     1
281
     1
  3
ACAD_XREC_ROUNDTRIP
360
B5
  0
DICTIONARY
  5
BA
330
32
100
AcDbDictionary
280
     1
281
     1
  3
ACAD_XREC_ROUNDTRIP
360
BB
  0
DICTIONARY
  5
C2
330
36
100
AcDbDictionary
280
     1
281
     1
  3
ACAD_XREC_ROUNDTRIP
360
C3
  0
DICTIONARY
  5
CA
330
3A
100
AcDbDictionary
280
     1
281
     1
  3
ACAD_XREC_ROUNDTRIP
360
CB
  0
DICTIONARY
  5
BE
330
34
100
AcDbDictionary
280
     1
281
     1
  3
ACAD_XREC_ROUNDTRIP
360
BF
  0
DICTIONARY
  5
C0
330
35
100
AcDbDictionary
280
     1
281
     1
  3
ACAD_XREC_ROUNDTRIP
360
C1
  0
DICTIONARY
  5
D0
330
3D
100
AcDbDictionary
280
     1
281
     1
  3
ACAD_XREC_ROUNDTRIP
360
D1
  0
DICTIONARY
  5
C8
330
39
100
AcDbDictionary
280
     1
281
     1
  3
ACAD_XREC_ROUNDTRIP
360
C9
  0
DICTIONARY
  5
AC
330
2B
100
AcDbDictionary
280
     1
281
     1
  3
ACAD_XREC_ROUNDTRIP
360
AD
  0
DICTIONARY
  5
AE
330
2C
100
AcDbDictionary
280
     1
281
     1
  3
ACAD_XREC_ROUNDTRIP
360
AF
  0
DICTIONARY
  5
B0
330
2D
100
AcDbDictionary
280
     1
281
     1
  3
ACAD_XREC_ROUNDTRIP
360
B1
  0
DICTIONARY
  5
B2
330
2E
100
AcDbDictionary
280
     1
281
     1
  3
ACAD_XREC_ROUNDTRIP
360
B3
  0
DICTIONARY
  5
B8
330
31
100
AcDbDictionary
280
     1
281
     1
  3
ACAD_XREC_ROUNDTRIP
360
B9
  0
DICTIONARY
  5
CC
330
3B
100
AcDbDictionary
280
     1
281
     1
  3
ACAD_XREC_ROUNDTRIP
360
CD
  0
DICTIONARY
  5
C6
330
38
100
AcDbDictionary
280
     1
281
     1
  3
ACAD_XREC_ROUNDTRIP
360
C7
  0
DICTIONARY
  5
CE
330
3C
100
AcDbDictionary
280
     1
281
     1
  3
ACAD_XREC_ROUNDTRIP
360
CF
  0
DICTIONARY
  5
BC
330
33
100
AcDbDictionary
280
     1
281
     1
  3
ACAD_XREC_ROUNDTRIP
360
BD
  0
DICTIONARY
  5
DA
330
42
100
AcDbDictionary
280
     1
281
     1
  3
ACAD_XREC_ROUNDTRIP
360
DB
  0
DICTIONARY
  5
D8
330
41
100
AcDbDictionary
280
     1
281
     1
  3
ACAD_XREC_ROUNDTRIP
360
D9
  0
DICTIONARY
  5
D2
330
3E
100
AcDbDictionary
280
     1
281
     1
  3
ACAD_XREC_ROUNDTRIP
360
D3
  0
DICTIONARY
  5
D4
330
3F
100
AcDbDictionary
280
     1
281
     1
  3
ACAD_XREC_ROUNDTRIP
360
D5
  0
DICTIONARY
  5
C4
330
37
100
AcDbDictionary
280
     1
281
     1
  3
ACAD_XREC_ROUNDTRIP
360
C5
  0
DICTIONARY
  5
B6
330
30
100
AcDbDictionary
280
     1
281
     1
  3
ACAD_XREC_ROUNDTRIP
360
B7
  0
DICTIONARY
  5
D6
330
40
100
AcDbDictionary
280
     1
281
     1
  3
ACAD_XREC_ROUNDTRIP
360
D7
  0
XRECORD
  5
E0
102
{ACAD_REACTORS
330
DF
102
}
330
DF
100
AcDbXrecord
280
     1
102
ACAD_ROUNDTRIP_2010_MLEADER_STYLE
  0
CELLSTYLEMAP
  5
DD
102
{ACAD_REACTORS
330
DC
102
}
330
DC
100
AcDbCellStyleMap
 90
        3
300
CELLSTYLE
  1
TABLEFORMAT_BEGIN
 90
        5
170
     1
 91
        0
 92
    32768
 62
   257
 93
        1
300
CONTENTFORMAT
  1
CONTENTFORMAT_BEGIN
 90
        0
 91
        0
 92
        4
 93
        0
300

 40
0.0
140
1.0
 94
        5
 62
     0
340
11
144
0.25
309
CONTENTFORMAT_END
171
     1
301
MARGIN
  1
CELLMARGIN_BEGIN
 40
0.06
 40
0.06
 40
0.06
 40
0.06
 40
0.06
 40
0.06
309
CELLMARGIN_END
 94
        6
 95
        1
302
GRIDFORMAT
  1
GRIDFORMAT_BEGIN
 90
        0
 91
        1
 62
     0
 92
       -2
340
14
 93
        0
 40
0.045
309
GRIDFORMAT_END
 95
        2
302
GRIDFORMAT
  1
GRIDFORMAT_BEGIN
 90
        0
 91
        1
 62
     0
 92
       -2
340
14
 93
        0
 40
0.045
309
GRIDFORMAT_END
 95
        4
302
GRIDFORMAT
  1
GRIDFORMAT_BEGIN
 90
        0
 91
        1
 62
     0
 92
       -2
340
14
 93
        0
 40
0.045
309
GRIDFORMAT_END
 95
        8
302
GRIDFORMAT
  1
GRIDFORMAT_BEGIN
 90
        0
 91
        1
 62
     0
 92
       -2
340
14
 93
        0
 40
0.045
309
GRIDFORMAT_END
 95
       16
302
GRIDFORMAT
  1
GRIDFORMAT_BEGIN
 90
        0
 91
        1
 62
     0
 92
       -2
340
14
 93
        0
 40
0.045
309
GRIDFORMAT_END
 95
       32
302
GRIDFORMAT
  1
GRIDFORMAT_BEGIN
 90
        0
 91
        1
 62
     0
 92
       -2
340
14
 93
        0
 40
0.045
309
GRIDFORMAT_END
309
TABLEFORMAT_END
  1
CELLSTYLE_BEGIN
 90
        1
 91
        1
300
_TITLE
309
CELLSTYLE_END
300
CELLSTYLE
  1
TABLEFORMAT_BEGIN
 90
        5
170
     1
 91
        0
 92
        0
 62
   257
 93
        1
300
CONTENTFORMAT
  1
CONTENTFORMAT_BEGIN
 90
        0
 91
        0
 92
        4
 93
        0
300

 40
0.0
140
1.0
 94
        5
 62
     0
340
11
144
0.18
309
CONTENTFORMAT_END
171
     1
301
MARGIN
  1
CELLMARGIN_BEGIN
 40
0.06
 40
0.06
 40
0.06
 40
0.06
 40
0.06
 40
0.06
309
CELLMARGIN_END
 94
        6
 95
        1
302
GRIDFORMAT
  1
GRIDFORMAT_BEGIN
 90
        0
 91
        1
 62
     0
 92
       -2
340
14
 93
        0
 40
0.045
309
GRIDFORMAT_END
 95
        2
302
GRIDFORMAT
  1
GRIDFORMAT_BEGIN
 90
        0
 91
        1
 62
     0
 92
       -2
340
14
 93
        0
 40
0.045
309
GRIDFORMAT_END
 95
        4
302
GRIDFORMAT
  1
GRIDFORMAT_BEGIN
 90
        0
 91
        1
 62
     0
 92
       -2
340
14
 93
        0
 40
0.045
309
GRIDFORMAT_END
 95
        8
302
GRIDFORMAT
  1
GRIDFORMAT_BEGIN
 90
        0
 91
        1
 62
     0
 92
       -2
340
14
 93
        0
 40
0.045
309
GRIDFORMAT_END
 95
       16
302
GRIDFORMAT
  1
GRIDFORMAT_BEGIN
 90
        0
 91
        1
 62
     0
 92
       -2
340
14
 93
        0
 40
0.045
309
GRIDFORMAT_END
 95
       32
302
GRIDFORMAT
  1
GRIDFORMAT_BEGIN
 90
        0
 91
        1
 62
     0
 92
       -2
340
14
 93
        0
 40
0.045
309
GRIDFORMAT_END
309
TABLEFORMAT_END
  1
CELLSTYLE_BEGIN
 90
        2
 91
        1
300
_HEADER
309
CELLSTYLE_END
300
CELLSTYLE
  1
TABLEFORMAT_BEGIN
 90
        5
170
     1
 91
        0
 92
        0
 62
   257
 93
        1
300
CONTENTFORMAT
  1
CONTENTFORMAT_BEGIN
 90
        0
 91
        0
 92
        4
 93
        0
300

 40
0.0
140
1.0
 94
        2
 62
     0
340
11
144
0.18
309
CONTENTFORMAT_END
171
     1
301
MARGIN
  1
CELLMARGIN_BEGIN
 40
0.06
 40
0.06
 40
0.06
 40
0.06
 40
0.06
 40
0.06
309
CELLMARGIN_END
 94
        6
 95
        1
302
GRIDFORMAT
  1
GRIDFORMAT_BEGIN
 90
        0
 91
        1
 62
     0
 92
       -2
340
14
 93
        0
 40
0.045
309
GRIDFORMAT_END
 95
        2
302
GRIDFORMAT
  1
GRIDFORMAT_BEGIN
 90
        0
 91
        1
 62
     0
 92
       -2
340
14
 93
        0
 40
0.045
309
GRIDFORMAT_END
 95
        4
302
GRIDFORMAT
  1
GRIDFORMAT_BEGIN
 90
        0
 91
        1
 62
     0
 92
       -2
340
14
 93
        0
 40
0.045
309
GRIDFORMAT_END
 95
        8
302
GRIDFORMAT
  1
GRIDFORMAT_BEGIN
 90
        0
 91
        1
 62
     0
 92
       -2
340
14
 93
        0
 40
0.045
309
GRIDFORMAT_END
 95
       16
302
GRIDFORMAT
  1
GRIDFORMAT_BEGIN
 90
        0
 91
        1
 62
     0
 92
       -2
340
14
 93
        0
 40
0.045
309
GRIDFORMAT_END
 95
       32
302
GRIDFORMAT
  1
GRIDFORMAT_BEGIN
 90
        0
 91
        1
 62
     0
 92
       -2
340
14
 93
        0
 40
0.045
309
GRIDFORMAT_END
309
TABLEFORMAT_END
  1
CELLSTYLE_BEGIN
 90
        3
 91
        2
300
_DATA
309
CELLSTYLE_END
  0
XRECORD
  5
B5
102
{ACAD_REACTORS
330
B4
102
}
330
B4
100
AcDbXrecord
280
     1
102
RTVSPropertyOp0
 70
     1
102
RTVSPropertyOp1
 70
     1
102
RTVSPropertyOp2
 70
     1
102
RTVSPropertyOp3
 70
     1
102
RTVSPropertyOp4
 70
     1
102
RTVSPropertyOp5
 70
     1
102
RTVSPropertyOp6
 70
     1
102
RTVSPropertyOp7
 70
     1
102
RTVSPropertyOp8
 70
     1
102
RTVSPropertyOp9
 70
     1
102
RTVSPropertyOp10
 70
     1
102
RTVSPropertyOp11
 70
     1
102
RTVSPropertyOp12
 70
     1
102
RTVSPropertyOp13
 70
     1
102
RTVSPropertyOp14
 70
     1
102
RTVSPropertyOp15
 70
     1
102
RTVSPropertyOp16
 70
     1
102
RTVSPropertyOp17
 70
     1
102
RTVSPropertyOp18
 70
     1
102
RTVSPropertyOp19
 70
     1
102
RTVSPropertyOp20
 70
     1
102
RTVSPropertyOp21
 70
     1
102
RTVSPropertyOp22
 70
     1
102
RTVSPropertyOp23
 70
     1
102
RTVSPropertyOp24
 70
     1
102
RTVSPropertyOp25
 70
     1
102
RTVSPropertyOp26
 70
     1
102
RTVSPropertyOp27
 70
     1
102
RTVSPropertyOp28
 70
     1
102
RTVSPropertyOp29
 70
     1
102
RTVSPropertyOp30
 70
     1
102
RTVSPropertyOp31
 70
     1
102
RTVSPropertyOp32
 70
     1
102
RTVSPropertyOp33
 70
     1
102
RTVSPropertyOp34
 70
     1
102
RTVSPropertyOp35
 70
     1
102
RTVSPropertyOp36
 70
     1
102
RTVSPropertyOp37
 70
     1
102
RTVSPropertyOp38
 70
     1
102
RTVSPropertyOp39
 70
     1
102
RTVSPropertyOp40
 70
     1
102
RTVSPropertyOp41
 70
     1
102
RTVSPropertyOp42
 70
     1
102
RTVSPropertyOp43
 70
     1
102
RTVSPropertyOp44
 70
     1
102
RTVSPropertyOp45
 70
     1
102
RTVSPropertyOp46
 70
     1
102
RTVSPropertyOp47
 70
     1
102
RTVSPropertyOp48
 70
     1
102
RTVSPropertyOp49
 70
     1
102
RTVSPropertyOp50
 70
     1
102
RTVSPropertyOp51
 70
     0
102
RTVSPropertyOp52
 70
     0
102
RTVSPropertyOp53
 70
     1
102
RTVSPropertyOp54
 70
     1
102
RTVSPropertyOp55
 70
     1
102
RTVSPropertyOp56
 70
     1
102
RTVSPropertyOp57
 70
     1
102
RTVSPost2010Prop28
280
     1
102
RTVSPost2010PropOp28
 70
     1
102
RTVSPost2010Prop29
280
     1
102
RTVSPost2010PropOp29
 70
     1
102
RTVSPost2010Prop30
280
     0
102
RTVSPost2010PropOp30
 70
     1
102
RTVSPost2010Prop31
280
     0
102
RTVSPost2010PropOp31
 70
     1
102
RTVSPost2010Prop32
280
     0
102
RTVSPost2010PropOp32
 70
     1
102
RTVSPost2010Prop33
280
     0
102
RTVSPost2010PropOp33
 70
     1
102
RTVSPost2010Prop34
280
     0
102
RTVSPost2010PropOp34
 70
     1
102
RTVSPost2010Prop35
280
     0
102
RTVSPost2010PropOp35
 70
     1
102
RTVSPost2010Prop36
280
     0
102
RTVSPost2010PropOp36
 70
     1
102
RTVSPost2010Prop37
 90
       50
102
RTVSPost2010PropOp37
 70
     1
102
RTVSPost2010Prop38
140
0.0
102
RTVSPost2010PropOp38
 70
     1
102
RTVSPost2010Prop39
140
1.0
102
RTVSPost2010PropOp39
 70
     1
102
RTVSPost2010Prop40
 90
        0
102
RTVSPost2010PropOp40
 70
     1
102
RTVSPost2010Prop41ColorIndex
 90
       18
102
RTVSPost2010Prop41ColorRGB
 90
        0
102
RTVSPost2010PropOp41
 70
     1
102
RTVSPost2010Prop42
 90
       50
102
RTVSPost2010PropOp42
 70
     1
102
RTVSPost2010Prop43
 90
        3
102
RTVSPost2010PropOp43
 70
     1
102
RTVSPost2010Prop44ColorIndex
 90
        5
102
RTVSPost2010Prop44ColorRGB
 90
      255
102
RTVSPost2010PropOp44
 70
     1
102
RTVSPost2010Prop45
280
     0
102
RTVSPost2010PropOp45
 70
     1
102
RTVSPost2010Prop46
 90
       50
102
RTVSPost2010PropOp46
 70
     1
102
RTVSPost2010Prop47
 90
       50
102
RTVSPost2010PropOp47
 70
     1
102
RTVSPost2010Prop48
 90
       50
102
RTVSPost2010PropOp48
 70
     1
102
RTVSPost2010Prop49
280
     0
102
RTVSPost2010PropOp49
 70
     1
102
RTVSPost2010Prop50
 90
       50
102
RTVSPost2010PropOp50
 70
     1
102
RTVSPost2010Prop51ColorIndex
 90
      256
102
RTVSPost2010Prop51ColorRGB
 90
-16777216
102
RTVSPost2010PropOp51
 70
     0
102
RTVSPost2010Prop52
140
1.0
102
RTVSPost2010PropOp52
 70
     0
102
RTVSPost2010Prop53
 90
        2
102
RTVSPost2010PropOp53
 70
     1
102
RTVSPost2010Prop54
  1
strokes_ogs.tif
102
RTVSPost2010PropOp54
 70
     1
102
RTVSPost2010Prop55
280
     0
102
RTVSPost2010PropOp55
 70
     1
102
RTVSPost2010Prop56
140
1.0
102
RTVSPost2010PropOp56
 70
     1
102
RTVSPost2010Prop57
140
1.0
102
RTVSPost2010PropOp57
 70
     1
  0
XRECORD
  5
BB
102
{ACAD_REACTORS
330
BA
102
}
330
BA
100
AcDbXrecord
280
     1
102
RTVSPropertyOp0
 70
     1
102
RTVSPropertyOp1
 70
     1
102
RTVSPropertyOp2
 70
     1
102
RTVSPropertyOp3
 70
     1
102
RTVSPropertyOp4
 70
     1
102
RTVSPropertyOp5
 70
     1
102
RTVSPropertyOp6
 70
     1
102
RTVSPropertyOp7
 70
     1
102
RTVSPropertyOp8
 70
     1
102
RTVSPropertyOp9
 70
     1
102
RTVSPropertyOp10
 70
     1
102
RTVSPropertyOp11
 70
     1
102
RTVSPropertyOp12
 70
     1
102
RTVSPropertyOp13
 70
     1
102
RTVSPropertyOp14
 70
     1
102
RTVSPropertyOp15
 70
     1
102
RTVSPropertyOp16
 70
     1
102
RTVSPropertyOp17
 70
     1
102
RTVSPropertyOp18
 70
     1
102
RTVSPropertyOp19
 70
     1
102
RTVSPropertyOp20
 70
     1
102
RTVSPropertyOp21
 70
     1
102
RTVSPropertyOp22
 70
     1
102
RTVSPropertyOp23
 70
     1
102
RTVSPropertyOp24
 70
     1
102
RTVSPropertyOp25
 70
     1
102
RTVSPropertyOp26
 70
     1
102
RTVSPropertyOp27
 70
     1
102
RTVSPropertyOp28
 70
     1
102
RTVSPropertyOp29
 70
     1
102
RTVSPropertyOp30
 70
     1
102
RTVSPropertyOp31
 70
     1
102
RTVSPropertyOp32
 70
     1
102
RTVSPropertyOp33
 70
     1
102
RTVSPropertyOp34
 70
     1
102
RTVSPropertyOp35
 70
     1
102
RTVSPropertyOp36
 70
     1
102
RTVSPropertyOp37
 70
     1
102
RTVSPropertyOp38
 70
     1
102
RTVSPropertyOp39
 70
     1
102
RTVSPropertyOp40
 70
     1
102
RTVSPropertyOp41
 70
     1
102
RTVSPropertyOp42
 70
     1
102
RTVSPropertyOp43
 70
     1
102
RTVSPropertyOp44
 70
     1
102
RTVSPropertyOp45
 70
     1
102
RTVSPropertyOp46
 70
     1
102
RTVSPropertyOp47
 70
     1
102
RTVSPropertyOp48
 70
     1
102
RTVSPropertyOp49
 70
     1
102
RTVSPropertyOp50
 70
     1
102
RTVSPropertyOp51
 70
     0
102
RTVSPropertyOp52
 70
     0
102
RTVSPropertyOp53
 70
     1
102
RTVSPropertyOp54
 70
     1
102
RTVSPropertyOp55
 70
     1
102
RTVSPropertyOp56
 70
     1
102
RTVSPropertyOp57
 70
     1
102
RTVSPost2010Prop28
280
     0
102
RTVSPost2010PropOp28
 70
     1
102
RTVSPost2010Prop29
280
     1
102
RTVSPost2010PropOp29
 70
     1
102
RTVSPost2010Prop30
280
     1
102
RTVSPost2010PropOp30
 70
     1
102
RTVSPost2010Prop31
280
     0
102
RTVSPost2010PropOp31
 70
     1
102
RTVSPost2010Prop32
280
     0
102
RTVSPost2010PropOp32
 70
     1
102
RTVSPost2010Prop33
280
     0
102
RTVSPost2010PropOp33
 70
     1
102
RTVSPost2010Prop34
280
     0
102
RTVSPost2010PropOp34
 70
     1
102
RTVSPost2010Prop35
280
     0
102
RTVSPost2010PropOp35
 70
     1
102
RTVSPost2010Prop36
280
     0
102
RTVSPost2010PropOp36
 70
     1
102
RTVSPost2010Prop37
 90
       50
102
RTVSPost2010PropOp37
 70
     1
102
RTVSPost2010Prop38
140
0.0
102
RTVSPost2010PropOp38
 70
     1
102
RTVSPost2010Prop39
140
1.0
102
RTVSPost2010PropOp39
 70
     1
102
RTVSPost2010Prop40
 90
        0
102
RTVSPost2010PropOp40
 70
     1
102
RTVSPost2010Prop41ColorIndex
 90
       18
102
RTVSPost2010Prop41ColorRGB
 90
        0
102
RTVSPost2010PropOp41
 70
     1
102
RTVSPost2010Prop42
 90
       50
102
RTVSPost2010PropOp42
 70
     1
102
RTVSPost2010Prop43
 90
        3
102
RTVSPost2010PropOp43
 70
     1
102
RTVSPost2010Prop44ColorIndex
 90
        5
102
RTVSPost2010Prop44ColorRGB
 90
      255
102
RTVSPost2010PropOp44
 70
     1
102
RTVSPost2010Prop45
280
     0
102
RTVSPost2010PropOp45
 70
     1
102
RTVSPost2010Prop46
 90
       50
102
RTVSPost2010PropOp46
 70
     1
102
RTVSPost2010Prop47
 90
       50
102
RTVSPost2010PropOp47
 70
     1
102
RTVSPost2010Prop48
 90
       50
102
RTVSPost2010PropOp48
 70
     1
102
RTVSPost2010Prop49
280
     0
102
RTVSPost2010PropOp49
 70
     1
102
RTVSPost2010Prop50
 90
       50
102
RTVSPost2010PropOp50
 70
     1
102
RTVSPost2010Prop51ColorIndex
 90
      256
102
RTVSPost2010Prop51ColorRGB
 90
-16777216
102
RTVSPost2010PropOp51
 70
     0
102
RTVSPost2010Prop52
140
1.0
102
RTVSPost2010PropOp52
 70
     0
102
RTVSPost2010Prop53
 90
        2
102
RTVSPost2010PropOp53
 70
     1
102
RTVSPost2010Prop54
  1
strokes_ogs.tif
102
RTVSPost2010PropOp54
 70
     1
102
RTVSPost2010Prop55
280
     0
102
RTVSPost2010PropOp55
 70
     1
102
RTVSPost2010Prop56
140
1.0
102
RTVSPost2010PropOp56
 70
     1
102
RTVSPost2010Prop57
140
1.0
102
RTVSPost2010PropOp57
 70
     1
  0
XRECORD
  5
C3
102
{ACAD_REACTORS
330
C2
102
}
330
C2
100
AcDbXrecord
280
     1
102
RTVSPropertyOp0
 70
     1
102
RTVSPropertyOp1
 70
     1
102
RTVSPropertyOp2
 70
     1
102
RTVSPropertyOp3
 70
     1
102
RTVSPropertyOp4
 70
     1
102
RTVSPropertyOp5
 70
     1
102
RTVSPropertyOp6
 70
     1
102
RTVSPropertyOp7
 70
     1
102
RTVSPropertyOp8
 70
     1
102
RTVSPropertyOp9
 70
     1
102
RTVSPropertyOp10
 70
     1
102
RTVSPropertyOp11
 70
     1
102
RTVSPropertyOp12
 70
     1
102
RTVSPropertyOp13
 70
     1
102
RTVSPropertyOp14
 70
     1
102
RTVSPropertyOp15
 70
     1
102
RTVSPropertyOp16
 70
     1
102
RTVSPropertyOp17
 70
     1
102
RTVSPropertyOp18
 70
     1
102
RTVSPropertyOp19
 70
     1
102
RTVSPropertyOp20
 70
     1
102
RTVSPropertyOp21
 70
     1
102
RTVSPropertyOp22
 70
     1
102
RTVSPropertyOp23
 70
     1
102
RTVSPropertyOp24
 70
     1
102
RTVSPropertyOp25
 70
     1
102
RTVSPropertyOp26
 70
     1
102
RTVSPropertyOp27
 70
     1
102
RTVSPropertyOp28
 70
     1
102
RTVSPropertyOp29
 70
     1
102
RTVSPropertyOp30
 70
     1
102
RTVSPropertyOp31
 70
     1
102
RTVSPropertyOp32
 70
     1
102
RTVSPropertyOp33
 70
     1
102
RTVSPropertyOp34
 70
     1
102
RTVSPropertyOp35
 70
     1
102
RTVSPropertyOp36
 70
     1
102
RTVSPropertyOp37
 70
     1
102
RTVSPropertyOp38
 70
     1
102
RTVSPropertyOp39
 70
     1
102
RTVSPropertyOp40
 70
     1
102
RTVSPropertyOp41
 70
     1
102
RTVSPropertyOp42
 70
     1
102
RTVSPropertyOp43
 70
     1
102
RTVSPropertyOp44
 70
     1
102
RTVSPropertyOp45
 70
     1
102
RTVSPropertyOp46
 70
     1
102
RTVSPropertyOp47
 70
     1
102
RTVSPropertyOp48
 70
     1
102
RTVSPropertyOp49
 70
     1
102
RTVSPropertyOp50
 70
     1
102
RTVSPropertyOp51
 70
     0
102
RTVSPropertyOp52
 70
     0
102
RTVSPropertyOp53
 70
     1
102
RTVSPropertyOp54
 70
     1
102
RTVSPropertyOp55
 70
     1
102
RTVSPropertyOp56
 70
     1
102
RTVSPropertyOp57
 70
     1
102
RTVSPost2010Prop28
280
     0
102
RTVSPost2010PropOp28
 70
     1
102
RTVSPost2010Prop29
280
     1
102
RTVSPost2010PropOp29
 70
     1
102
RTVSPost2010Prop30
280
     1
102
RTVSPost2010PropOp30
 70
     1
102
RTVSPost2010Prop31
280
     0
102
RTVSPost2010PropOp31
 70
     1
102
RTVSPost2010Prop32
280
     0
102
RTVSPost2010PropOp32
 70
     1
102
RTVSPost2010Prop33
280
     0
102
RTVSPost2010PropOp33
 70
     1
102
RTVSPost2010Prop34
280
     0
102
RTVSPost2010PropOp34
 70
     1
102
RTVSPost2010Prop35
280
     0
102
RTVSPost2010PropOp35
 70
     1
102
RTVSPost2010Prop36
280
     0
102
RTVSPost2010PropOp36
 70
     1
102
RTVSPost2010Prop37
 90
       50
102
RTVSPost2010PropOp37
 70
     1
102
RTVSPost2010Prop38
140
0.0
102
RTVSPost2010PropOp38
 70
     1
102
RTVSPost2010Prop39
140
1.0
102
RTVSPost2010PropOp39
 70
     1
102
RTVSPost2010Prop40
 90
        0
102
RTVSPost2010PropOp40
 70
     1
102
RTVSPost2010Prop41ColorIndex
 90
       18
102
RTVSPost2010Prop41ColorRGB
 90
        0
102
RTVSPost2010PropOp41
 70
     1
102
RTVSPost2010Prop42
 90
       50
102
RTVSPost2010PropOp42
 70
     1
102
RTVSPost2010Prop43
 90
        3
102
RTVSPost2010PropOp43
 70
     1
102
RTVSPost2010Prop44ColorIndex
 90
        5
102
RTVSPost2010Prop44ColorRGB
 90
      255
102
RTVSPost2010PropOp44
 70
     1
102
RTVSPost2010Prop45
280
     0
102
RTVSPost2010PropOp45
 70
     1
102
RTVSPost2010Prop46
 90
       50
102
RTVSPost2010PropOp46
 70
     1
102
RTVSPost2010Prop47
 90
       50
102
RTVSPost2010PropOp47
 70
     1
102
RTVSPost2010Prop48
 90
       50
102
RTVSPost2010PropOp48
 70
     1
102
RTVSPost2010Prop49
280
     0
102
RTVSPost2010PropOp49
 70
     1
102
RTVSPost2010Prop50
 90
       50
102
RTVSPost2010PropOp50
 70
     1
102
RTVSPost2010Prop51ColorIndex
 90
      256
102
RTVSPost2010Prop51ColorRGB
 90
-16777216
102
RTVSPost2010PropOp51
 70
     0
102
RTVSPost2010Prop52
140
1.0
102
RTVSPost2010PropOp52
 70
     0
102
RTVSPost2010Prop53
 90
        2
102
RTVSPost2010PropOp53
 70
     1
102
RTVSPost2010Prop54
  1
strokes_ogs.tif
102
RTVSPost2010PropOp54
 70
     1
102
RTVSPost2010Prop55
280
     0
102
RTVSPost2010PropOp55
 70
     1
102
RTVSPost2010Prop56
140
1.0
102
RTVSPost2010PropOp56
 70
     1
102
RTVSPost2010Prop57
140
1.0
102
RTVSPost2010PropOp57
 70
     1
  0
XRECORD
  5
CB
102
{ACAD_REACTORS
330
CA
102
}
330
CA
100
AcDbXrecord
280
     1
102
RTVSPropertyOp0
 70
     1
102
RTVSPropertyOp1
 70
     1
102
RTVSPropertyOp2
 70
     1
102
RTVSPropertyOp3
 70
     1
102
RTVSPropertyOp4
 70
     1
102
RTVSPropertyOp5
 70
     1
102
RTVSPropertyOp6
 70
     1
102
RTVSPropertyOp7
 70
     1
102
RTVSPropertyOp8
 70
     1
102
RTVSPropertyOp9
 70
     1
102
RTVSPropertyOp10
 70
     1
102
RTVSPropertyOp11
 70
     1
102
RTVSPropertyOp12
 70
     1
102
RTVSPropertyOp13
 70
     1
102
RTVSPropertyOp14
 70
     1
102
RTVSPropertyOp15
 70
     1
102
RTVSPropertyOp16
 70
     1
102
RTVSPropertyOp17
 70
     1
102
RTVSPropertyOp18
 70
     1
102
RTVSPropertyOp19
 70
     1
102
RTVSPropertyOp20
 70
     1
102
RTVSPropertyOp21
 70
     1
102
RTVSPropertyOp22
 70
     1
102
RTVSPropertyOp23
 70
     1
102
RTVSPropertyOp24
 70
     1
102
RTVSPropertyOp25
 70
     1
102
RTVSPropertyOp26
 70
     1
102
RTVSPropertyOp27
 70
     1
102
RTVSPropertyOp28
 70
     1
102
RTVSPropertyOp29
 70
     1
102
RTVSPropertyOp30
 70
     1
102
RTVSPropertyOp31
 70
     1
102
RTVSPropertyOp32
 70
     1
102
RTVSPropertyOp33
 70
     1
102
RTVSPropertyOp34
 70
     1
102
RTVSPropertyOp35
 70
     1
102
RTVSPropertyOp36
 70
     1
102
RTVSPropertyOp37
 70
     1
102
RTVSPropertyOp38
 70
     1
102
RTVSPropertyOp39
 70
     1
102
RTVSPropertyOp40
 70
     1
102
RTVSPropertyOp41
 70
     1
102
RTVSPropertyOp42
 70
     1
102
RTVSPropertyOp43
 70
     1
102
RTVSPropertyOp44
 70
     1
102
RTVSPropertyOp45
 70
     1
102
RTVSPropertyOp46
 70
     1
102
RTVSPropertyOp47
 70
     1
102
RTVSPropertyOp48
 70
     1
102
RTVSPropertyOp49
 70
     1
102
RTVSPropertyOp50
 70
     1
102
RTVSPropertyOp51
 70
     0
102
RTVSPropertyOp52
 70
     0
102
RTVSPropertyOp53
 70
     1
102
RTVSPropertyOp54
 70
     1
102
RTVSPropertyOp55
 70
     1
102
RTVSPropertyOp56
 70
     1
102
RTVSPropertyOp57
 70
     1
102
RTVSPost2010Prop28
280
     0
102
RTVSPost2010PropOp28
 70
     1
102
RTVSPost2010Prop29
280
     1
102
RTVSPost2010PropOp29
 70
     1
102
RTVSPost2010Prop30
280
     1
102
RTVSPost2010PropOp30
 70
     1
102
RTVSPost2010Prop31
280
     0
102
RTVSPost2010PropOp31
 70
     1
102
RTVSPost2010Prop32
280
     0
102
RTVSPost2010PropOp32
 70
     1
102
RTVSPost2010Prop33
280
     0
102
RTVSPost2010PropOp33
 70
     1
102
RTVSPost2010Prop34
280
     0
102
RTVSPost2010PropOp34
 70
     1
102
RTVSPost2010Prop35
280
     0
102
RTVSPost2010PropOp35
 70
     1
102
RTVSPost2010Prop36
280
     0
102
RTVSPost2010PropOp36
 70
     1
102
RTVSPost2010Prop37
 90
       50
102
RTVSPost2010PropOp37
 70
     1
102
RTVSPost2010Prop38
140
0.0
102
RTVSPost2010PropOp38
 70
     1
102
RTVSPost2010Prop39
140
1.0
102
RTVSPost2010PropOp39
 70
     1
102
RTVSPost2010Prop40
 90
        0
102
RTVSPost2010PropOp40
 70
     1
102
RTVSPost2010Prop41ColorIndex
 90
       18
102
RTVSPost2010Prop41ColorRGB
 90
        0
102
RTVSPost2010PropOp41
 70
     1
102
RTVSPost2010Prop42
 90
       50
102
RTVSPost2010PropOp42
 70
     1
102
RTVSPost2010Prop43
 90
        3
102
RTVSPost2010PropOp43
 70
     1
102
RTVSPost2010Prop44ColorIndex
 90
        5
102
RTVSPost2010Prop44ColorRGB
 90
      255
102
RTVSPost2010PropOp44
 70
     1
102
RTVSPost2010Prop45
280
     0
102
RTVSPost2010PropOp45
 70
     1
102
RTVSPost2010Prop46
 90
       50
102
RTVSPost2010PropOp46
 70
     1
102
RTVSPost2010Prop47
 90
       50
102
RTVSPost2010PropOp47
 70
     1
102
RTVSPost2010Prop48
 90
       50
102
RTVSPost2010PropOp48
 70
     1
102
RTVSPost2010Prop49
280
     0
102
RTVSPost2010PropOp49
 70
     1
102
RTVSPost2010Prop50
 90
       50
102
RTVSPost2010PropOp50
 70
     1
102
RTVSPost2010Prop51ColorIndex
 90
      256
102
RTVSPost2010Prop51ColorRGB
 90
-16777216
102
RTVSPost2010PropOp51
 70
     0
102
RTVSPost2010Prop52
140
1.0
102
RTVSPost2010PropOp52
 70
     0
102
RTVSPost2010Prop53
 90
        2
102
RTVSPost2010PropOp53
 70
     1
102
RTVSPost2010Prop54
  1
strokes_ogs.tif
102
RTVSPost2010PropOp54
 70
     1
102
RTVSPost2010Prop55
280
     0
102
RTVSPost2010PropOp55
 70
     1
102
RTVSPost2010Prop56
140
1.0
102
RTVSPost2010PropOp56
 70
     1
102
RTVSPost2010Prop57
140
1.0
102
RTVSPost2010PropOp57
 70
     1
  0
XRECORD
  5
BF
102
{ACAD_REACTORS
330
BE
102
}
330
BE
100
AcDbXrecord
280
     1
102
RTVSPropertyOp0
 70
     1
102
RTVSPropertyOp1
 70
     1
102
RTVSPropertyOp2
 70
     1
102
RTVSPropertyOp3
 70
     1
102
RTVSPropertyOp4
 70
     1
102
RTVSPropertyOp5
 70
     1
102
RTVSPropertyOp6
 70
     1
102
RTVSPropertyOp7
 70
     1
102
RTVSPropertyOp8
 70
     1
102
RTVSPropertyOp9
 70
     1
102
RTVSPropertyOp10
 70
     1
102
RTVSPropertyOp11
 70
     1
102
RTVSPropertyOp12
 70
     1
102
RTVSPropertyOp13
 70
     1
102
RTVSPropertyOp14
 70
     1
102
RTVSPropertyOp15
 70
     1
102
RTVSPropertyOp16
 70
     1
102
RTVSPropertyOp17
 70
     1
102
RTVSPropertyOp18
 70
     1
102
RTVSPropertyOp19
 70
     1
102
RTVSPropertyOp20
 70
     1
102
RTVSPropertyOp21
 70
     1
102
RTVSPropertyOp22
 70
     1
102
RTVSPropertyOp23
 70
     1
102
RTVSPropertyOp24
 70
     1
102
RTVSPropertyOp25
 70
     1
102
RTVSPropertyOp26
 70
     1
102
RTVSPropertyOp27
 70
     1
102
RTVSPropertyOp28
 70
     1
102
RTVSPropertyOp29
 70
     1
102
RTVSPropertyOp30
 70
     1
102
RTVSPropertyOp31
 70
     1
102
RTVSPropertyOp32
 70
     1
102
RTVSPropertyOp33
 70
     1
102
RTVSPropertyOp34
 70
     1
102
RTVSPropertyOp35
 70
     1
102
RTVSPropertyOp36
 70
     1
102
RTVSPropertyOp37
 70
     1
102
RTVSPropertyOp38
 70
     1
102
RTVSPropertyOp39
 70
     1
102
RTVSPropertyOp40
 70
     1
102
RTVSPropertyOp41
 70
     1
102
RTVSPropertyOp42
 70
     1
102
RTVSPropertyOp43
 70
     1
102
RTVSPropertyOp44
 70
     1
102
RTVSPropertyOp45
 70
     1
102
RTVSPropertyOp46
 70
     1
102
RTVSPropertyOp47
 70
     1
102
RTVSPropertyOp48
 70
     1
102
RTVSPropertyOp49
 70
     1
102
RTVSPropertyOp50
 70
     1
102
RTVSPropertyOp51
 70
     0
102
RTVSPropertyOp52
 70
     0
102
RTVSPropertyOp53
 70
     1
102
RTVSPropertyOp54
 70
     1
102
RTVSPropertyOp55
 70
     1
102
RTVSPropertyOp56
 70
     1
102
RTVSPropertyOp57
 70
     1
102
RTVSPost2010Prop28
280
     0
102
RTVSPost2010PropOp28
 70
     1
102
RTVSPost2010Prop29
280
     1
102
RTVSPost2010PropOp29
 70
     1
102
RTVSPost2010Prop30
280
     1
102
RTVSPost2010PropOp30
 70
     1
102
RTVSPost2010Prop31
280
     0
102
RTVSPost2010PropOp31
 70
     1
102
RTVSPost2010Prop32
280
     0
102
RTVSPost2010PropOp32
 70
     1
102
RTVSPost2010Prop33
280
     0
102
RTVSPost2010PropOp33
 70
     1
102
RTVSPost2010Prop34
280
     0
102
RTVSPost2010PropOp34
 70
     1
102
RTVSPost2010Prop35
280
     0
102
RTVSPost2010PropOp35
 70
     1
102
RTVSPost2010Prop36
280
     0
102
RTVSPost2010PropOp36
 70
     1
102
RTVSPost2010Prop37
 90
       50
102
RTVSPost2010PropOp37
 70
     1
102
RTVSPost2010Prop38
140
0.0
102
RTVSPost2010PropOp38
 70
     1
102
RTVSPost2010Prop39
140
1.0
102
RTVSPost2010PropOp39
 70
     1
102
RTVSPost2010Prop40
 90
        0
102
RTVSPost2010PropOp40
 70
     1
102
RTVSPost2010Prop41ColorIndex
 90
       18
102
RTVSPost2010Prop41ColorRGB
 90
        0
102
RTVSPost2010PropOp41
 70
     1
102
RTVSPost2010Prop42
 90
       50
102
RTVSPost2010PropOp42
 70
     1
102
RTVSPost2010Prop43
 90
        3
102
RTVSPost2010PropOp43
 70
     1
102
RTVSPost2010Prop44ColorIndex
 90
        5
102
RTVSPost2010Prop44ColorRGB
 90
      255
102
RTVSPost2010PropOp44
 70
     1
102
RTVSPost2010Prop45
280
     0
102
RTVSPost2010PropOp45
 70
     1
102
RTVSPost2010Prop46
 90
       50
102
RTVSPost2010PropOp46
 70
     1
102
RTVSPost2010Prop47
 90
       50
102
RTVSPost2010PropOp47
 70
     1
102
RTVSPost2010Prop48
 90
       50
102
RTVSPost2010PropOp48
 70
     1
102
RTVSPost2010Prop49
280
     0
102
RTVSPost2010PropOp49
 70
     1
102
RTVSPost2010Prop50
 90
       50
102
RTVSPost2010PropOp50
 70
     1
102
RTVSPost2010Prop51ColorIndex
 90
      256
102
RTVSPost2010Prop51ColorRGB
 90
-16777216
102
RTVSPost2010PropOp51
 70
     0
102
RTVSPost2010Prop52
140
1.0
102
RTVSPost2010PropOp52
 70
     0
102
RTVSPost2010Prop53
 90
        2
102
RTVSPost2010PropOp53
 70
     1
102
RTVSPost2010Prop54
  1
strokes_ogs.tif
102
RTVSPost2010PropOp54
 70
     1
102
RTVSPost2010Prop55
280
     0
102
RTVSPost2010PropOp55
 70
     1
102
RTVSPost2010Prop56
140
1.0
102
RTVSPost2010PropOp56
 70
     1
102
RTVSPost2010Prop57
140
1.0
102
RTVSPost2010PropOp57
 70
     1
  0
XRECORD
  5
C1
102
{ACAD_REACTORS
330
C0
102
}
330
C0
100
AcDbXrecord
280
     1
102
RTVSPropertyOp0
 70
     1
102
RTVSPropertyOp1
 70
     1
102
RTVSPropertyOp2
 70
     1
102
RTVSPropertyOp3
 70
     1
102
RTVSPropertyOp4
 70
     1
102
RTVSPropertyOp5
 70
     1
102
RTVSPropertyOp6
 70
     1
102
RTVSPropertyOp7
 70
     1
102
RTVSPropertyOp8
 70
     1
102
RTVSPropertyOp9
 70
     1
102
RTVSPropertyOp10
 70
     1
102
RTVSPropertyOp11
 70
     1
102
RTVSPropertyOp12
 70
     1
102
RTVSPropertyOp13
 70
     1
102
RTVSPropertyOp14
 70
     1
102
RTVSPropertyOp15
 70
     1
102
RTVSPropertyOp16
 70
     1
102
RTVSPropertyOp17
 70
     1
102
RTVSPropertyOp18
 70
     1
102
RTVSPropertyOp19
 70
     1
102
RTVSPropertyOp20
 70
     1
102
RTVSPropertyOp21
 70
     1
102
RTVSPropertyOp22
 70
     1
102
RTVSPropertyOp23
 70
     1
102
RTVSPropertyOp24
 70
     1
102
RTVSPropertyOp25
 70
     1
102
RTVSPropertyOp26
 70
     1
102
RTVSPropertyOp27
 70
     1
102
RTVSPropertyOp28
 70
     1
102
RTVSPropertyOp29
 70
     1
102
RTVSPropertyOp30
 70
     1
102
RTVSPropertyOp31
 70
     1
102
RTVSPropertyOp32
 70
     1
102
RTVSPropertyOp33
 70
     1
102
RTVSPropertyOp34
 70
     1
102
RTVSPropertyOp35
 70
     1
102
RTVSPropertyOp36
 70
     1
102
RTVSPropertyOp37
 70
     1
102
RTVSPropertyOp38
 70
     1
102
RTVSPropertyOp39
 70
     1
102
RTVSPropertyOp40
 70
     1
102
RTVSPropertyOp41
 70
     1
102
RTVSPropertyOp42
 70
     1
102
RTVSPropertyOp43
 70
     1
102
RTVSPropertyOp44
 70
     1
102
RTVSPropertyOp45
 70
     1
102
RTVSPropertyOp46
 70
     1
102
RTVSPropertyOp47
 70
     1
102
RTVSPropertyOp48
 70
     1
102
RTVSPropertyOp49
 70
     1
102
RTVSPropertyOp50
 70
     1
102
RTVSPropertyOp51
 70
     0
102
RTVSPropertyOp52
 70
     0
102
RTVSPropertyOp53
 70
     1
102
RTVSPropertyOp54
 70
     1
102
RTVSPropertyOp55
 70
     1
102
RTVSPropertyOp56
 70
     1
102
RTVSPropertyOp57
 70
     1
102
RTVSPost2010Prop28
280
     0
102
RTVSPost2010PropOp28
 70
     1
102
RTVSPost2010Prop29
280
     1
102
RTVSPost2010PropOp29
 70
     1
102
RTVSPost2010Prop30
280
     1
102
RTVSPost2010PropOp30
 70
     1
102
RTVSPost2010Prop31
280
     0
102
RTVSPost2010PropOp31
 70
     1
102
RTVSPost2010Prop32
280
     0
102
RTVSPost2010PropOp32
 70
     1
102
RTVSPost2010Prop33
280
     0
102
RTVSPost2010PropOp33
 70
     1
102
RTVSPost2010Prop34
280
     0
102
RTVSPost2010PropOp34
 70
     1
102
RTVSPost2010Prop35
280
     0
102
RTVSPost2010PropOp35
 70
     1
102
RTVSPost2010Prop36
280
     0
102
RTVSPost2010PropOp36
 70
     1
102
RTVSPost2010Prop37
 90
       50
102
RTVSPost2010PropOp37
 70
     1
102
RTVSPost2010Prop38
140
0.0
102
RTVSPost2010PropOp38
 70
     1
102
RTVSPost2010Prop39
140
1.0
102
RTVSPost2010PropOp39
 70
     1
102
RTVSPost2010Prop40
 90
        0
102
RTVSPost2010PropOp40
 70
     1
102
RTVSPost2010Prop41ColorIndex
 90
       18
102
RTVSPost2010Prop41ColorRGB
 90
        0
102
RTVSPost2010PropOp41
 70
     1
102
RTVSPost2010Prop42
 90
       50
102
RTVSPost2010PropOp42
 70
     1
102
RTVSPost2010Prop43
 90
        3
102
RTVSPost2010PropOp43
 70
     1
102
RTVSPost2010Prop44ColorIndex
 90
        5
102
RTVSPost2010Prop44ColorRGB
 90
      255
102
RTVSPost2010PropOp44
 70
     1
102
RTVSPost2010Prop45
280
     0
102
RTVSPost2010PropOp45
 70
     1
102
RTVSPost2010Prop46
 90
       50
102
RTVSPost2010PropOp46
 70
     1
102
RTVSPost2010Prop47
 90
       50
102
RTVSPost2010PropOp47
 70
     1
102
RTVSPost2010Prop48
 90
       50
102
RTVSPost2010PropOp48
 70
     1
102
RTVSPost2010Prop49
280
     0
102
RTVSPost2010PropOp49
 70
     1
102
RTVSPost2010Prop50
 90
       50
102
RTVSPost2010PropOp50
 70
     1
102
RTVSPost2010Prop51ColorIndex
 90
      256
102
RTVSPost2010Prop51ColorRGB
 90
-16777216
102
RTVSPost2010PropOp51
 70
     0
102
RTVSPost2010Prop52
140
1.0
102
RTVSPost2010PropOp52
 70
     0
102
RTVSPost2010Prop53
 90
        2
102
RTVSPost2010PropOp53
 70
     1
102
RTVSPost2010Prop54
  1
strokes_ogs.tif
102
RTVSPost2010PropOp54
 70
     1
102
RTVSPost2010Prop55
280
     0
102
RTVSPost2010PropOp55
 70
     1
102
RTVSPost2010Prop56
140
1.0
102
RTVSPost2010PropOp56
 70
     1
102
RTVSPost2010Prop57
140
1.0
102
RTVSPost2010PropOp57
 70
     1
  0
XRECORD
  5
D1
102
{ACAD_REACTORS
330
D0
102
}
330
D0
100
AcDbXrecord
280
     1
102
RTVSPropertyOp0
 70
     0
102
RTVSPropertyOp1
 70
     0
102
RTVSPropertyOp2
 70
     0
102
RTVSPropertyOp3
 70
     0
102
RTVSPropertyOp4
 70
     0
102
RTVSPropertyOp5
 70
     0
102
RTVSPropertyOp6
 70
     0
102
RTVSPropertyOp7
 70
     0
102
RTVSPropertyOp8
 70
     0
102
RTVSPropertyOp9
 70
     0
102
RTVSPropertyOp10
 70
     0
102
RTVSPropertyOp11
 70
     0
102
RTVSPropertyOp12
 70
     0
102
RTVSPropertyOp13
 70
     0
102
RTVSPropertyOp14
 70
     2
102
RTVSPropertyOp15
 70
     0
102
RTVSPropertyOp16
 70
     0
102
RTVSPropertyOp17
 70
     0
102
RTVSPropertyOp18
 70
     0
102
RTVSPropertyOp19
 70
     0
102
RTVSPropertyOp20
 70
     0
102
RTVSPropertyOp21
 70
     0
102
RTVSPropertyOp22
 70
     0
102
RTVSPropertyOp23
 70
     0
102
RTVSPropertyOp24
 70
     0
102
RTVSPropertyOp25
 70
     0
102
RTVSPropertyOp26
 70
     0
102
RTVSPropertyOp27
 70
     0
102
RTVSPropertyOp28
 70
     0
102
RTVSPropertyOp29
 70
     0
102
RTVSPropertyOp30
 70
     0
102
RTVSPropertyOp31
 70
     0
102
RTVSPropertyOp32
 70
     0
102
RTVSPropertyOp33
 70
     0
102
RTVSPropertyOp34
 70
     0
102
RTVSPropertyOp35
 70
     0
102
RTVSPropertyOp36
 70
     0
102
RTVSPropertyOp37
 70
     0
102
RTVSPropertyOp38
 70
     0
102
RTVSPropertyOp39
 70
     0
102
RTVSPropertyOp40
 70
     0
102
RTVSPropertyOp41
 70
     0
102
RTVSPropertyOp42
 70
     0
102
RTVSPropertyOp43
 70
     0
102
RTVSPropertyOp44
 70
     0
102
RTVSPropertyOp45
 70
     0
102
RTVSPropertyOp46
 70
     0
102
RTVSPropertyOp47
 70
     0
102
RTVSPropertyOp48
 70
     0
102
RTVSPropertyOp49
 70
     0
102
RTVSPropertyOp50
 70
     0
102
RTVSPropertyOp51
 70
     0
102
RTVSPropertyOp52
 70
     0
102
RTVSPropertyOp53
 70
     0
102
RTVSPropertyOp54
 70
     0
102
RTVSPropertyOp55
 70
     0
102
RTVSPropertyOp56
 70
     0
102
RTVSPropertyOp57
 70
     0
102
RTVSPost2010Prop28
280
     0
102
RTVSPost2010PropOp28
 70
     0
102
RTVSPost2010Prop29
280
     1
102
RTVSPost2010PropOp29
 70
     0
102
RTVSPost2010Prop30
280
     1
102
RTVSPost2010PropOp30
 70
     0
102
RTVSPost2010Prop31
280
     0
102
RTVSPost2010PropOp31
 70
     0
102
RTVSPost2010Prop32
280
     0
102
RTVSPost2010PropOp32
 70
     0
102
RTVSPost2010Prop33
280
     0
102
RTVSPost2010PropOp33
 70
     0
102
RTVSPost2010Prop34
280
     0
102
RTVSPost2010PropOp34
 70
     0
102
RTVSPost2010Prop35
280
     0
102
RTVSPost2010PropOp35
 70
     0
102
RTVSPost2010Prop36
280
     0
102
RTVSPost2010PropOp36
 70
     0
102
RTVSPost2010Prop37
 90
       50
102
RTVSPost2010PropOp37
 70
     0
102
RTVSPost2010Prop38
140
0.0
102
RTVSPost2010PropOp38
 70
     0
102
RTVSPost2010Prop39
140
1.0
102
RTVSPost2010PropOp39
 70
     0
102
RTVSPost2010Prop40
 90
        0
102
RTVSPost2010PropOp40
 70
     0
102
RTVSPost2010Prop41ColorIndex
 90
       18
102
RTVSPost2010Prop41ColorRGB
 90
        0
102
RTVSPost2010PropOp41
 70
     0
102
RTVSPost2010Prop42
 90
       50
102
RTVSPost2010PropOp42
 70
     0
102
RTVSPost2010Prop43
 90
        3
102
RTVSPost2010PropOp43
 70
     0
102
RTVSPost2010Prop44ColorIndex
 90
        5
102
RTVSPost2010Prop44ColorRGB
 90
      255
102
RTVSPost2010PropOp44
 70
     0
102
RTVSPost2010Prop45
280
     0
102
RTVSPost2010PropOp45
 70
     0
102
RTVSPost2010Prop46
 90
       50
102
RTVSPost2010PropOp46
 70
     0
102
RTVSPost2010Prop47
 90
       50
102
RTVSPost2010PropOp47
 70
     0
102
RTVSPost2010Prop48
 90
       50
102
RTVSPost2010PropOp48
 70
     0
102
RTVSPost2010Prop49
280
     0
102
RTVSPost2010PropOp49
 70
     0
102
RTVSPost2010Prop50
 90
       50
102
RTVSPost2010PropOp50
 70
     0
102
RTVSPost2010Prop51ColorIndex
 90
      256
102
RTVSPost2010Prop51ColorRGB
 90
-16777216
102
RTVSPost2010PropOp51
 70
     0
102
RTVSPost2010Prop52
140
1.0
102
RTVSPost2010PropOp52
 70
     0
102
RTVSPost2010Prop53
 90
        2
102
RTVSPost2010PropOp53
 70
     0
102
RTVSPost2010Prop54
  1
strokes_ogs.tif
102
RTVSPost2010PropOp54
 70
     0
102
RTVSPost2010Prop55
280
     0
102
RTVSPost2010PropOp55
 70
     0
102
RTVSPost2010Prop56
140
1.0
102
RTVSPost2010PropOp56
 70
     0
102
RTVSPost2010Prop57
140
1.0
102
RTVSPost2010PropOp57
 70
     0
  0
XRECORD
  5
C9
102
{ACAD_REACTORS
330
C8
102
}
330
C8
100
AcDbXrecord
280
     1
102
RTVSPropertyOp0
 70
     1
102
RTVSPropertyOp1
 70
     1
102
RTVSPropertyOp2
 70
     1
102
RTVSPropertyOp3
 70
     1
102
RTVSPropertyOp4
 70
     1
102
RTVSPropertyOp5
 70
     1
102
RTVSPropertyOp6
 70
     1
102
RTVSPropertyOp7
 70
     1
102
RTVSPropertyOp8
 70
     1
102
RTVSPropertyOp9
 70
     1
102
RTVSPropertyOp10
 70
     1
102
RTVSPropertyOp11
 70
     1
102
RTVSPropertyOp12
 70
     1
102
RTVSPropertyOp13
 70
     1
102
RTVSPropertyOp14
 70
     1
102
RTVSPropertyOp15
 70
     1
102
RTVSPropertyOp16
 70
     1
102
RTVSPropertyOp17
 70
     1
102
RTVSPropertyOp18
 70
     1
102
RTVSPropertyOp19
 70
     1
102
RTVSPropertyOp20
 70
     1
102
RTVSPropertyOp21
 70
     1
102
RTVSPropertyOp22
 70
     1
102
RTVSPropertyOp23
 70
     1
102
RTVSPropertyOp24
 70
     1
102
RTVSPropertyOp25
 70
     1
102
RTVSPropertyOp26
 70
     1
102
RTVSPropertyOp27
 70
     1
102
RTVSPropertyOp28
 70
     1
102
RTVSPropertyOp29
 70
     1
102
RTVSPropertyOp30
 70
     1
102
RTVSPropertyOp31
 70
     1
102
RTVSPropertyOp32
 70
     1
102
RTVSPropertyOp33
 70
     1
102
RTVSPropertyOp34
 70
     1
102
RTVSPropertyOp35
 70
     1
102
RTVSPropertyOp36
 70
     1
102
RTVSPropertyOp37
 70
     1
102
RTVSPropertyOp38
 70
     1
102
RTVSPropertyOp39
 70
     1
102
RTVSPropertyOp40
 70
     1
102
RTVSPropertyOp41
 70
     1
102
RTVSPropertyOp42
 70
     1
102
RTVSPropertyOp43
 70
     1
102
RTVSPropertyOp44
 70
     1
102
RTVSPropertyOp45
 70
     1
102
RTVSPropertyOp46
 70
     1
102
RTVSPropertyOp47
 70
     1
102
RTVSPropertyOp48
 70
     1
102
RTVSPropertyOp49
 70
     1
102
RTVSPropertyOp50
 70
     1
102
RTVSPropertyOp51
 70
     0
102
RTVSPropertyOp52
 70
     0
102
RTVSPropertyOp53
 70
     1
102
RTVSPropertyOp54
 70
     1
102
RTVSPropertyOp55
 70
     1
102
RTVSPropertyOp56
 70
     1
102
RTVSPropertyOp57
 70
     1
102
RTVSPost2010Prop28
280
     0
102
RTVSPost2010PropOp28
 70
     1
102
RTVSPost2010Prop29
280
     1
102
RTVSPost2010PropOp29
 70
     1
102
RTVSPost2010Prop30
280
     1
102
RTVSPost2010PropOp30
 70
     1
102
RTVSPost2010Prop31
280
     0
102
RTVSPost2010PropOp31
 70
     1
102
RTVSPost2010Prop32
280
     0
102
RTVSPost2010PropOp32
 70
     1
102
RTVSPost2010Prop33
280
     0
102
RTVSPost2010PropOp33
 70
     1
102
RTVSPost2010Prop34
280
     0
102
RTVSPost2010PropOp34
 70
     1
102
RTVSPost2010Prop35
280
     0
102
RTVSPost2010PropOp35
 70
     1
102
RTVSPost2010Prop36
280
     0
102
RTVSPost2010PropOp36
 70
     1
102
RTVSPost2010Prop37
 90
       50
102
RTVSPost2010PropOp37
 70
     1
102
RTVSPost2010Prop38
140
0.0
102
RTVSPost2010PropOp38
 70
     1
102
RTVSPost2010Prop39
140
1.0
102
RTVSPost2010PropOp39
 70
     1
102
RTVSPost2010Prop40
 90
        0
102
RTVSPost2010PropOp40
 70
     1
102
RTVSPost2010Prop41ColorIndex
 90
       18
102
RTVSPost2010Prop41ColorRGB
 90
        0
102
RTVSPost2010PropOp41
 70
     1
102
RTVSPost2010Prop42
 90
       50
102
RTVSPost2010PropOp42
 70
     1
102
RTVSPost2010Prop43
 90
        3
102
RTVSPost2010PropOp43
 70
     1
102
RTVSPost2010Prop44ColorIndex
 90
        5
102
RTVSPost2010Prop44ColorRGB
 90
      255
102
RTVSPost2010PropOp44
 70
     1
102
RTVSPost2010Prop45
280
     0
102
RTVSPost2010PropOp45
 70
     1
102
RTVSPost2010Prop46
 90
       50
102
RTVSPost2010PropOp46
 70
     1
102
RTVSPost2010Prop47
 90
       50
102
RTVSPost2010PropOp47
 70
     1
102
RTVSPost2010Prop48
 90
       50
102
RTVSPost2010PropOp48
 70
     1
102
RTVSPost2010Prop49
280
     0
102
RTVSPost2010PropOp49
 70
     1
102
RTVSPost2010Prop50
 90
       50
102
RTVSPost2010PropOp50
 70
     1
102
RTVSPost2010Prop51ColorIndex
 90
      256
102
RTVSPost2010Prop51ColorRGB
 90
-16777216
102
RTVSPost2010PropOp51
 70
     0
102
RTVSPost2010Prop52
140
1.0
102
RTVSPost2010PropOp52
 70
     0
102
RTVSPost2010Prop53
 90
        2
102
RTVSPost2010PropOp53
 70
     1
102
RTVSPost2010Prop54
  1
strokes_ogs.tif
102
RTVSPost2010PropOp54
 70
     1
102
RTVSPost2010Prop55
280
     0
102
RTVSPost2010PropOp55
 70
     1
102
RTVSPost2010Prop56
140
1.0
102
RTVSPost2010PropOp56
 70
     1
102
RTVSPost2010Prop57
140
1.0
102
RTVSPost2010PropOp57
 70
     1
  0
XRECORD
  5
AD
102
{ACAD_REACTORS
330
AC
102
}
330
AC
100
AcDbXrecord
280
     1
102
RTVSPropertyOp0
 70
     1
102
RTVSPropertyOp1
 70
     1
102
RTVSPropertyOp2
 70
     1
102
RTVSPropertyOp3
 70
     1
102
RTVSPropertyOp4
 70
     1
102
RTVSPropertyOp5
 70
     1
102
RTVSPropertyOp6
 70
     1
102
RTVSPropertyOp7
 70
     1
102
RTVSPropertyOp8
 70
     1
102
RTVSPropertyOp9
 70
     1
102
RTVSPropertyOp10
 70
     1
102
RTVSPropertyOp11
 70
     1
102
RTVSPropertyOp12
 70
     1
102
RTVSPropertyOp13
 70
     1
102
RTVSPropertyOp14
 70
     1
102
RTVSPropertyOp15
 70
     1
102
RTVSPropertyOp16
 70
     1
102
RTVSPropertyOp17
 70
     1
102
RTVSPropertyOp18
 70
     1
102
RTVSPropertyOp19
 70
     1
102
RTVSPropertyOp20
 70
     1
102
RTVSPropertyOp21
 70
     1
102
RTVSPropertyOp22
 70
     1
102
RTVSPropertyOp23
 70
     1
102
RTVSPropertyOp24
 70
     1
102
RTVSPropertyOp25
 70
     1
102
RTVSPropertyOp26
 70
     1
102
RTVSPropertyOp27
 70
     1
102
RTVSPropertyOp28
 70
     1
102
RTVSPropertyOp29
 70
     1
102
RTVSPropertyOp30
 70
     1
102
RTVSPropertyOp31
 70
     1
102
RTVSPropertyOp32
 70
     1
102
RTVSPropertyOp33
 70
     1
102
RTVSPropertyOp34
 70
     1
102
RTVSPropertyOp35
 70
     1
102
RTVSPropertyOp36
 70
     1
102
RTVSPropertyOp37
 70
     1
102
RTVSPropertyOp38
 70
     1
102
RTVSPropertyOp39
 70
     1
102
RTVSPropertyOp40
 70
     1
102
RTVSPropertyOp41
 70
     1
102
RTVSPropertyOp42
 70
     1
102
RTVSPropertyOp43
 70
     1
102
RTVSPropertyOp44
 70
     1
102
RTVSPropertyOp45
 70
     1
102
RTVSPropertyOp46
 70
     1
102
RTVSPropertyOp47
 70
     1
102
RTVSPropertyOp48
 70
     1
102
RTVSPropertyOp49
 70
     1
102
RTVSPropertyOp50
 70
     1
102
RTVSPropertyOp51
 70
     0
102
RTVSPropertyOp52
 70
     0
102
RTVSPropertyOp53
 70
     1
102
RTVSPropertyOp54
 70
     1
102
RTVSPropertyOp55
 70
     1
102
RTVSPropertyOp56
 70
     1
102
RTVSPropertyOp57
 70
     1
102
RTVSPost2010Prop28
280
     0
102
RTVSPost2010PropOp28
 70
     1
102
RTVSPost2010Prop29
280
     1
102
RTVSPost2010PropOp29
 70
     1
102
RTVSPost2010Prop30
280
     1
102
RTVSPost2010PropOp30
 70
     1
102
RTVSPost2010Prop31
280
     0
102
RTVSPost2010PropOp31
 70
     1
102
RTVSPost2010Prop32
280
     0
102
RTVSPost2010PropOp32
 70
     1
102
RTVSPost2010Prop33
280
     0
102
RTVSPost2010PropOp33
 70
     1
102
RTVSPost2010Prop34
280
     0
102
RTVSPost2010PropOp34
 70
     1
102
RTVSPost2010Prop35
280
     0
102
RTVSPost2010PropOp35
 70
     1
102
RTVSPost2010Prop36
280
     0
102
RTVSPost2010PropOp36
 70
     1
102
RTVSPost2010Prop37
 90
       50
102
RTVSPost2010PropOp37
 70
     1
102
RTVSPost2010Prop38
140
0.0
102
RTVSPost2010PropOp38
 70
     1
102
RTVSPost2010Prop39
140
1.0
102
RTVSPost2010PropOp39
 70
     1
102
RTVSPost2010Prop40
 90
        0
102
RTVSPost2010PropOp40
 70
     1
102
RTVSPost2010Prop41ColorIndex
 90
       18
102
RTVSPost2010Prop41ColorRGB
 90
        0
102
RTVSPost2010PropOp41
 70
     1
102
RTVSPost2010Prop42
 90
       50
102
RTVSPost2010PropOp42
 70
     1
102
RTVSPost2010Prop43
 90
        3
102
RTVSPost2010PropOp43
 70
     1
102
RTVSPost2010Prop44ColorIndex
 90
        5
102
RTVSPost2010Prop44ColorRGB
 90
      255
102
RTVSPost2010PropOp44
 70
     1
102
RTVSPost2010Prop45
280
     0
102
RTVSPost2010PropOp45
 70
     1
102
RTVSPost2010Prop46
 90
       50
102
RTVSPost2010PropOp46
 70
     1
102
RTVSPost2010Prop47
 90
       50
102
RTVSPost2010PropOp47
 70
     1
102
RTVSPost2010Prop48
 90
       50
102
RTVSPost2010PropOp48
 70
     1
102
RTVSPost2010Prop49
280
     0
102
RTVSPost2010PropOp49
 70
     1
102
RTVSPost2010Prop50
 90
       50
102
RTVSPost2010PropOp50
 70
     1
102
RTVSPost2010Prop51ColorIndex
 90
      256
102
RTVSPost2010Prop51ColorRGB
 90
-16777216
102
RTVSPost2010PropOp51
 70
     0
102
RTVSPost2010Prop52
140
1.0
102
RTVSPost2010PropOp52
 70
     0
102
RTVSPost2010Prop53
 90
        2
102
RTVSPost2010PropOp53
 70
     1
102
RTVSPost2010Prop54
  1
strokes_ogs.tif
102
RTVSPost2010PropOp54
 70
     1
102
RTVSPost2010Prop55
280
     0
102
RTVSPost2010PropOp55
 70
     1
102
RTVSPost2010Prop56
140
1.0
102
RTVSPost2010PropOp56
 70
     1
102
RTVSPost2010Prop57
140
1.0
102
RTVSPost2010PropOp57
 70
     1
  0
XRECORD
  5
AF
102
{ACAD_REACTORS
330
AE
102
}
330
AE
100
AcDbXrecord
280
     1
102
RTVSPropertyOp0
 70
     1
102
RTVSPropertyOp1
 70
     1
102
RTVSPropertyOp2
 70
     1
102
RTVSPropertyOp3
 70
     1
102
RTVSPropertyOp4
 70
     1
102
RTVSPropertyOp5
 70
     1
102
RTVSPropertyOp6
 70
     1
102
RTVSPropertyOp7
 70
     1
102
RTVSPropertyOp8
 70
     1
102
RTVSPropertyOp9
 70
     1
102
RTVSPropertyOp10
 70
     1
102
RTVSPropertyOp11
 70
     1
102
RTVSPropertyOp12
 70
     1
102
RTVSPropertyOp13
 70
     1
102
RTVSPropertyOp14
 70
     1
102
RTVSPropertyOp15
 70
     1
102
RTVSPropertyOp16
 70
     1
102
RTVSPropertyOp17
 70
     1
102
RTVSPropertyOp18
 70
     1
102
RTVSPropertyOp19
 70
     1
102
RTVSPropertyOp20
 70
     1
102
RTVSPropertyOp21
 70
     1
102
RTVSPropertyOp22
 70
     1
102
RTVSPropertyOp23
 70
     1
102
RTVSPropertyOp24
 70
     1
102
RTVSPropertyOp25
 70
     1
102
RTVSPropertyOp26
 70
     1
102
RTVSPropertyOp27
 70
     1
102
RTVSPropertyOp28
 70
     1
102
RTVSPropertyOp29
 70
     1
102
RTVSPropertyOp30
 70
     1
102
RTVSPropertyOp31
 70
     1
102
RTVSPropertyOp32
 70
     1
102
RTVSPropertyOp33
 70
     1
102
RTVSPropertyOp34
 70
     1
102
RTVSPropertyOp35
 70
     1
102
RTVSPropertyOp36
 70
     1
102
RTVSPropertyOp37
 70
     1
102
RTVSPropertyOp38
 70
     1
102
RTVSPropertyOp39
 70
     1
102
RTVSPropertyOp40
 70
     1
102
RTVSPropertyOp41
 70
     1
102
RTVSPropertyOp42
 70
     1
102
RTVSPropertyOp43
 70
     1
102
RTVSPropertyOp44
 70
     1
102
RTVSPropertyOp45
 70
     1
102
RTVSPropertyOp46
 70
     1
102
RTVSPropertyOp47
 70
     1
102
RTVSPropertyOp48
 70
     1
102
RTVSPropertyOp49
 70
     1
102
RTVSPropertyOp50
 70
     1
102
RTVSPropertyOp51
 70
     0
102
RTVSPropertyOp52
 70
     0
102
RTVSPropertyOp53
 70
     1
102
RTVSPropertyOp54
 70
     1
102
RTVSPropertyOp55
 70
     1
102
RTVSPropertyOp56
 70
     1
102
RTVSPropertyOp57
 70
     1
102
RTVSPost2010Prop28
280
     0
102
RTVSPost2010PropOp28
 70
     1
102
RTVSPost2010Prop29
280
     1
102
RTVSPost2010PropOp29
 70
     1
102
RTVSPost2010Prop30
280
     1
102
RTVSPost2010PropOp30
 70
     1
102
RTVSPost2010Prop31
280
     0
102
RTVSPost2010PropOp31
 70
     1
102
RTVSPost2010Prop32
280
     0
102
RTVSPost2010PropOp32
 70
     1
102
RTVSPost2010Prop33
280
     0
102
RTVSPost2010PropOp33
 70
     1
102
RTVSPost2010Prop34
280
     0
102
RTVSPost2010PropOp34
 70
     1
102
RTVSPost2010Prop35
280
     0
102
RTVSPost2010PropOp35
 70
     1
102
RTVSPost2010Prop36
280
     0
102
RTVSPost2010PropOp36
 70
     1
102
RTVSPost2010Prop37
 90
       50
102
RTVSPost2010PropOp37
 70
     1
102
RTVSPost2010Prop38
140
0.0
102
RTVSPost2010PropOp38
 70
     1
102
RTVSPost2010Prop39
140
1.0
102
RTVSPost2010PropOp39
 70
     1
102
RTVSPost2010Prop40
 90
        0
102
RTVSPost2010PropOp40
 70
     1
102
RTVSPost2010Prop41ColorIndex
 90
       18
102
RTVSPost2010Prop41ColorRGB
 90
        0
102
RTVSPost2010PropOp41
 70
     1
102
RTVSPost2010Prop42
 90
       50
102
RTVSPost2010PropOp42
 70
     1
102
RTVSPost2010Prop43
 90
        3
102
RTVSPost2010PropOp43
 70
     1
102
RTVSPost2010Prop44ColorIndex
 90
        5
102
RTVSPost2010Prop44ColorRGB
 90
      255
102
RTVSPost2010PropOp44
 70
     1
102
RTVSPost2010Prop45
280
     0
102
RTVSPost2010PropOp45
 70
     1
102
RTVSPost2010Prop46
 90
       50
102
RTVSPost2010PropOp46
 70
     1
102
RTVSPost2010Prop47
 90
       50
102
RTVSPost2010PropOp47
 70
     1
102
RTVSPost2010Prop48
 90
       50
102
RTVSPost2010PropOp48
 70
     1
102
RTVSPost2010Prop49
280
     0
102
RTVSPost2010PropOp49
 70
     1
102
RTVSPost2010Prop50
 90
       50
102
RTVSPost2010PropOp50
 70
     1
102
RTVSPost2010Prop51ColorIndex
 90
      256
102
RTVSPost2010Prop51ColorRGB
 90
-16777216
102
RTVSPost2010PropOp51
 70
     0
102
RTVSPost2010Prop52
140
1.0
102
RTVSPost2010PropOp52
 70
     0
102
RTVSPost2010Prop53
 90
        2
102
RTVSPost2010PropOp53
 70
     1
102
RTVSPost2010Prop54
  1
strokes_ogs.tif
102
RTVSPost2010PropOp54
 70
     1
102
RTVSPost2010Prop55
280
     0
102
RTVSPost2010PropOp55
 70
     1
102
RTVSPost2010Prop56
140
1.0
102
RTVSPost2010PropOp56
 70
     1
102
RTVSPost2010Prop57
140
1.0
102
RTVSPost2010PropOp57
 70
     1
  0
XRECORD
  5
B1
102
{ACAD_REACTORS
330
B0
102
}
330
B0
100
AcDbXrecord
280
     1
102
RTVSPropertyOp0
 70
     1
102
RTVSPropertyOp1
 70
     1
102
RTVSPropertyOp2
 70
     1
102
RTVSPropertyOp3
 70
     1
102
RTVSPropertyOp4
 70
     1
102
RTVSPropertyOp5
 70
     1
102
RTVSPropertyOp6
 70
     1
102
RTVSPropertyOp7
 70
     1
102
RTVSPropertyOp8
 70
     1
102
RTVSPropertyOp9
 70
     1
102
RTVSPropertyOp10
 70
     1
102
RTVSPropertyOp11
 70
     1
102
RTVSPropertyOp12
 70
     1
102
RTVSPropertyOp13
 70
     1
102
RTVSPropertyOp14
 70
     1
102
RTVSPropertyOp15
 70
     1
102
RTVSPropertyOp16
 70
     1
102
RTVSPropertyOp17
 70
     1
102
RTVSPropertyOp18
 70
     1
102
RTVSPropertyOp19
 70
     1
102
RTVSPropertyOp20
 70
     1
102
RTVSPropertyOp21
 70
     1
102
RTVSPropertyOp22
 70
     1
102
RTVSPropertyOp23
 70
     1
102
RTVSPropertyOp24
 70
     1
102
RTVSPropertyOp25
 70
     1
102
RTVSPropertyOp26
 70
     1
102
RTVSPropertyOp27
 70
     1
102
RTVSPropertyOp28
 70
     1
102
RTVSPropertyOp29
 70
     1
102
RTVSPropertyOp30
 70
     1
102
RTVSPropertyOp31
 70
     1
102
RTVSPropertyOp32
 70
     1
102
RTVSPropertyOp33
 70
     1
102
RTVSPropertyOp34
 70
     1
102
RTVSPropertyOp35
 70
     1
102
RTVSPropertyOp36
 70
     1
102
RTVSPropertyOp37
 70
     1
102
RTVSPropertyOp38
 70
     1
102
RTVSPropertyOp39
 70
     1
102
RTVSPropertyOp40
 70
     1
102
RTVSPropertyOp41
 70
     1
102
RTVSPropertyOp42
 70
     1
102
RTVSPropertyOp43
 70
     1
102
RTVSPropertyOp44
 70
     1
102
RTVSPropertyOp45
 70
     1
102
RTVSPropertyOp46
 70
     1
102
RTVSPropertyOp47
 70
     1
102
RTVSPropertyOp48
 70
     1
102
RTVSPropertyOp49
 70
     1
102
RTVSPropertyOp50
 70
     1
102
RTVSPropertyOp51
 70
     0
102
RTVSPropertyOp52
 70
     0
102
RTVSPropertyOp53
 70
     1
102
RTVSPropertyOp54
 70
     1
102
RTVSPropertyOp55
 70
     1
102
RTVSPropertyOp56
 70
     1
102
RTVSPropertyOp57
 70
     1
102
RTVSPost2010Prop28
280
     0
102
RTVSPost2010PropOp28
 70
     1
102
RTVSPost2010Prop29
280
     1
102
RTVSPost2010PropOp29
 70
     1
102
RTVSPost2010Prop30
280
     1
102
RTVSPost2010PropOp30
 70
     1
102
RTVSPost2010Prop31
280
     0
102
RTVSPost2010PropOp31
 70
     1
102
RTVSPost2010Prop32
280
     0
102
RTVSPost2010PropOp32
 70
     1
102
RTVSPost2010Prop33
280
     0
102
RTVSPost2010PropOp33
 70
     1
102
RTVSPost2010Prop34
280
     0
102
RTVSPost2010PropOp34
 70
     1
102
RTVSPost2010Prop35
280
     0
102
RTVSPost2010PropOp35
 70
     1
102
RTVSPost2010Prop36
280
     0
102
RTVSPost2010PropOp36
 70
     1
102
RTVSPost2010Prop37
 90
       50
102
RTVSPost2010PropOp37
 70
     1
102
RTVSPost2010Prop38
140
0.0
102
RTVSPost2010PropOp38
 70
     1
102
RTVSPost2010Prop39
140
1.0
102
RTVSPost2010PropOp39
 70
     1
102
RTVSPost2010Prop40
 90
        0
102
RTVSPost2010PropOp40
 70
     1
102
RTVSPost2010Prop41ColorIndex
 90
       18
102
RTVSPost2010Prop41ColorRGB
 90
        0
102
RTVSPost2010PropOp41
 70
     1
102
RTVSPost2010Prop42
 90
       50
102
RTVSPost2010PropOp42
 70
     1
102
RTVSPost2010Prop43
 90
        3
102
RTVSPost2010PropOp43
 70
     1
102
RTVSPost2010Prop44ColorIndex
 90
        5
102
RTVSPost2010Prop44ColorRGB
 90
      255
102
RTVSPost2010PropOp44
 70
     1
102
RTVSPost2010Prop45
280
     0
102
RTVSPost2010PropOp45
 70
     1
102
RTVSPost2010Prop46
 90
       50
102
RTVSPost2010PropOp46
 70
     1
102
RTVSPost2010Prop47
 90
       50
102
RTVSPost2010PropOp47
 70
     1
102
RTVSPost2010Prop48
 90
       50
102
RTVSPost2010PropOp48
 70
     1
102
RTVSPost2010Prop49
280
     0
102
RTVSPost2010PropOp49
 70
     1
102
RTVSPost2010Prop50
 90
       50
102
RTVSPost2010PropOp50
 70
     1
102
RTVSPost2010Prop51ColorIndex
 90
      256
102
RTVSPost2010Prop51ColorRGB
 90
-16777216
102
RTVSPost2010PropOp51
 70
     0
102
RTVSPost2010Prop52
140
1.0
102
RTVSPost2010PropOp52
 70
     0
102
RTVSPost2010Prop53
 90
        2
102
RTVSPost2010PropOp53
 70
     1
102
RTVSPost2010Prop54
  1
strokes_ogs.tif
102
RTVSPost2010PropOp54
 70
     1
102
RTVSPost2010Prop55
280
     0
102
RTVSPost2010PropOp55
 70
     1
102
RTVSPost2010Prop56
140
1.0
102
RTVSPost2010PropOp56
 70
     1
102
RTVSPost2010Prop57
140
1.0
102
RTVSPost2010PropOp57
 70
     1
  0
XRECORD
  5
B3
102
{ACAD_REACTORS
330
B2
102
}
330
B2
100
AcDbXrecord
280
     1
102
RTVSPropertyOp0
 70
     1
102
RTVSPropertyOp1
 70
     1
102
RTVSPropertyOp2
 70
     1
102
RTVSPropertyOp3
 70
     1
102
RTVSPropertyOp4
 70
     1
102
RTVSPropertyOp5
 70
     1
102
RTVSPropertyOp6
 70
     1
102
RTVSPropertyOp7
 70
     1
102
RTVSPropertyOp8
 70
     1
102
RTVSPropertyOp9
 70
     1
102
RTVSPropertyOp10
 70
     1
102
RTVSPropertyOp11
 70
     1
102
RTVSPropertyOp12
 70
     1
102
RTVSPropertyOp13
 70
     1
102
RTVSPropertyOp14
 70
     1
102
RTVSPropertyOp15
 70
     1
102
RTVSPropertyOp16
 70
     1
102
RTVSPropertyOp17
 70
     1
102
RTVSPropertyOp18
 70
     1
102
RTVSPropertyOp19
 70
     1
102
RTVSPropertyOp20
 70
     1
102
RTVSPropertyOp21
 70
     1
102
RTVSPropertyOp22
 70
     1
102
RTVSPropertyOp23
 70
     1
102
RTVSPropertyOp24
 70
     1
102
RTVSPropertyOp25
 70
     1
102
RTVSPropertyOp26
 70
     1
102
RTVSPropertyOp27
 70
     1
102
RTVSPropertyOp28
 70
     1
102
RTVSPropertyOp29
 70
     1
102
RTVSPropertyOp30
 70
     1
102
RTVSPropertyOp31
 70
     1
102
RTVSPropertyOp32
 70
     1
102
RTVSPropertyOp33
 70
     1
102
RTVSPropertyOp34
 70
     1
102
RTVSPropertyOp35
 70
     1
102
RTVSPropertyOp36
 70
     1
102
RTVSPropertyOp37
 70
     1
102
RTVSPropertyOp38
 70
     1
102
RTVSPropertyOp39
 70
     1
102
RTVSPropertyOp40
 70
     1
102
RTVSPropertyOp41
 70
     1
102
RTVSPropertyOp42
 70
     1
102
RTVSPropertyOp43
 70
     1
102
RTVSPropertyOp44
 70
     1
102
RTVSPropertyOp45
 70
     1
102
RTVSPropertyOp46
 70
     1
102
RTVSPropertyOp47
 70
     1
102
RTVSPropertyOp48
 70
     1
102
RTVSPropertyOp49
 70
     1
102
RTVSPropertyOp50
 70
     1
102
RTVSPropertyOp51
 70
     0
102
RTVSPropertyOp52
 70
     0
102
RTVSPropertyOp53
 70
     1
102
RTVSPropertyOp54
 70
     1
102
RTVSPropertyOp55
 70
     1
102
RTVSPropertyOp56
 70
     1
102
RTVSPropertyOp57
 70
     1
102
RTVSPost2010Prop28
280
     0
102
RTVSPost2010PropOp28
 70
     1
102
RTVSPost2010Prop29
280
     1
102
RTVSPost2010PropOp29
 70
     1
102
RTVSPost2010Prop30
280
     1
102
RTVSPost2010PropOp30
 70
     1
102
RTVSPost2010Prop31
280
     0
102
RTVSPost2010PropOp31
 70
     1
102
RTVSPost2010Prop32
280
     0
102
RTVSPost2010PropOp32
 70
     1
102
RTVSPost2010Prop33
280
     0
102
RTVSPost2010PropOp33
 70
     1
102
RTVSPost2010Prop34
280
     0
102
RTVSPost2010PropOp34
 70
     1
102
RTVSPost2010Prop35
280
     0
102
RTVSPost2010PropOp35
 70
     1
102
RTVSPost2010Prop36
280
     0
102
RTVSPost2010PropOp36
 70
     1
102
RTVSPost2010Prop37
 90
       50
102
RTVSPost2010PropOp37
 70
     1
102
RTVSPost2010Prop38
140
0.0
102
RTVSPost2010PropOp38
 70
     1
102
RTVSPost2010Prop39
140
1.0
102
RTVSPost2010PropOp39
 70
     1
102
RTVSPost2010Prop40
 90
        0
102
RTVSPost2010PropOp40
 70
     1
102
RTVSPost2010Prop41ColorIndex
 90
       18
102
RTVSPost2010Prop41ColorRGB
 90
        0
102
RTVSPost2010PropOp41
 70
     1
102
RTVSPost2010Prop42
 90
       50
102
RTVSPost2010PropOp42
 70
     1
102
RTVSPost2010Prop43
 90
        3
102
RTVSPost2010PropOp43
 70
     1
102
RTVSPost2010Prop44ColorIndex
 90
        5
102
RTVSPost2010Prop44ColorRGB
 90
      255
102
RTVSPost2010PropOp44
 70
     1
102
RTVSPost2010Prop45
280
     0
102
RTVSPost2010PropOp45
 70
     1
102
RTVSPost2010Prop46
 90
       50
102
RTVSPost2010PropOp46
 70
     1
102
RTVSPost2010Prop47
 90
       50
102
RTVSPost2010PropOp47
 70
     1
102
RTVSPost2010Prop48
 90
       50
102
RTVSPost2010PropOp48
 70
     1
102
RTVSPost2010Prop49
280
     0
102
RTVSPost2010PropOp49
 70
     1
102
RTVSPost2010Prop50
 90
       50
102
RTVSPost2010PropOp50
 70
     1
102
RTVSPost2010Prop51ColorIndex
 90
      256
102
RTVSPost2010Prop51ColorRGB
 90
-16777216
102
RTVSPost2010PropOp51
 70
     0
102
RTVSPost2010Prop52
140
1.0
102
RTVSPost2010PropOp52
 70
     0
102
RTVSPost2010Prop53
 90
        2
102
RTVSPost2010PropOp53
 70
     1
102
RTVSPost2010Prop54
  1
strokes_ogs.tif
102
RTVSPost2010PropOp54
 70
     1
102
RTVSPost2010Prop55
280
     0
102
RTVSPost2010PropOp55
 70
     1
102
RTVSPost2010Prop56
140
1.0
102
RTVSPost2010PropOp56
 70
     1
102
RTVSPost2010Prop57
140
1.0
102
RTVSPost2010PropOp57
 70
     1
  0
XRECORD
  5
B9
102
{ACAD_REACTORS
330
B8
102
}
330
B8
100
AcDbXrecord
280
     1
102
RTVSPropertyOp0
 70
     1
102
RTVSPropertyOp1
 70
     1
102
RTVSPropertyOp2
 70
     1
102
RTVSPropertyOp3
 70
     1
102
RTVSPropertyOp4
 70
     1
102
RTVSPropertyOp5
 70
     1
102
RTVSPropertyOp6
 70
     1
102
RTVSPropertyOp7
 70
     1
102
RTVSPropertyOp8
 70
     1
102
RTVSPropertyOp9
 70
     1
102
RTVSPropertyOp10
 70
     1
102
RTVSPropertyOp11
 70
     1
102
RTVSPropertyOp12
 70
     1
102
RTVSPropertyOp13
 70
     1
102
RTVSPropertyOp14
 70
     1
102
RTVSPropertyOp15
 70
     1
102
RTVSPropertyOp16
 70
     1
102
RTVSPropertyOp17
 70
     1
102
RTVSPropertyOp18
 70
     1
102
RTVSPropertyOp19
 70
     1
102
RTVSPropertyOp20
 70
     1
102
RTVSPropertyOp21
 70
     1
102
RTVSPropertyOp22
 70
     1
102
RTVSPropertyOp23
 70
     1
102
RTVSPropertyOp24
 70
     1
102
RTVSPropertyOp25
 70
     1
102
RTVSPropertyOp26
 70
     1
102
RTVSPropertyOp27
 70
     1
102
RTVSPropertyOp28
 70
     1
102
RTVSPropertyOp29
 70
     1
102
RTVSPropertyOp30
 70
     1
102
RTVSPropertyOp31
 70
     1
102
RTVSPropertyOp32
 70
     1
102
RTVSPropertyOp33
 70
     1
102
RTVSPropertyOp34
 70
     1
102
RTVSPropertyOp35
 70
     1
102
RTVSPropertyOp36
 70
     1
102
RTVSPropertyOp37
 70
     1
102
RTVSPropertyOp38
 70
     1
102
RTVSPropertyOp39
 70
     1
102
RTVSPropertyOp40
 70
     1
102
RTVSPropertyOp41
 70
     1
102
RTVSPropertyOp42
 70
     1
102
RTVSPropertyOp43
 70
     1
102
RTVSPropertyOp44
 70
     1
102
RTVSPropertyOp45
 70
     1
102
RTVSPropertyOp46
 70
     1
102
RTVSPropertyOp47
 70
     1
102
RTVSPropertyOp48
 70
     1
102
RTVSPropertyOp49
 70
     1
102
RTVSPropertyOp50
 70
     1
102
RTVSPropertyOp51
 70
     0
102
RTVSPropertyOp52
 70
     0
102
RTVSPropertyOp53
 70
     1
102
RTVSPropertyOp54
 70
     1
102
RTVSPropertyOp55
 70
     1
102
RTVSPropertyOp56
 70
     1
102
RTVSPropertyOp57
 70
     1
102
RTVSPost2010Prop28
280
     0
102
RTVSPost2010PropOp28
 70
     1
102
RTVSPost2010Prop29
280
     1
102
RTVSPost2010PropOp29
 70
     1
102
RTVSPost2010Prop30
280
     1
102
RTVSPost2010PropOp30
 70
     1
102
RTVSPost2010Prop31
280
     0
102
RTVSPost2010PropOp31
 70
     1
102
RTVSPost2010Prop32
280
     0
102
RTVSPost2010PropOp32
 70
     1
102
RTVSPost2010Prop33
280
     0
102
RTVSPost2010PropOp33
 70
     1
102
RTVSPost2010Prop34
280
     0
102
RTVSPost2010PropOp34
 70
     1
102
RTVSPost2010Prop35
280
     0
102
RTVSPost2010PropOp35
 70
     1
102
RTVSPost2010Prop36
280
     0
102
RTVSPost2010PropOp36
 70
     1
102
RTVSPost2010Prop37
 90
       50
102
RTVSPost2010PropOp37
 70
     1
102
RTVSPost2010Prop38
140
0.0
102
RTVSPost2010PropOp38
 70
     1
102
RTVSPost2010Prop39
140
1.0
102
RTVSPost2010PropOp39
 70
     1
102
RTVSPost2010Prop40
 90
        0
102
RTVSPost2010PropOp40
 70
     1
102
RTVSPost2010Prop41ColorIndex
 90
       18
102
RTVSPost2010Prop41ColorRGB
 90
        0
102
RTVSPost2010PropOp41
 70
     1
102
RTVSPost2010Prop42
 90
       50
102
RTVSPost2010PropOp42
 70
     1
102
RTVSPost2010Prop43
 90
        3
102
RTVSPost2010PropOp43
 70
     1
102
RTVSPost2010Prop44ColorIndex
 90
        5
102
RTVSPost2010Prop44ColorRGB
 90
      255
102
RTVSPost2010PropOp44
 70
     1
102
RTVSPost2010Prop45
280
     0
102
RTVSPost2010PropOp45
 70
     1
102
RTVSPost2010Prop46
 90
       50
102
RTVSPost2010PropOp46
 70
     1
102
RTVSPost2010Prop47
 90
       50
102
RTVSPost2010PropOp47
 70
     1
102
RTVSPost2010Prop48
 90
       50
102
RTVSPost2010PropOp48
 70
     1
102
RTVSPost2010Prop49
280
     0
102
RTVSPost2010PropOp49
 70
     1
102
RTVSPost2010Prop50
 90
       50
102
RTVSPost2010PropOp50
 70
     1
102
RTVSPost2010Prop51ColorIndex
 90
      256
102
RTVSPost2010Prop51ColorRGB
 90
-16777216
102
RTVSPost2010PropOp51
 70
     0
102
RTVSPost2010Prop52
140
1.0
102
RTVSPost2010PropOp52
 70
     0
102
RTVSPost2010Prop53
 90
        2
102
RTVSPost2010PropOp53
 70
     1
102
RTVSPost2010Prop54
  1
strokes_ogs.tif
102
RTVSPost2010PropOp54
 70
     1
102
RTVSPost2010Prop55
280
     0
102
RTVSPost2010PropOp55
 70
     1
102
RTVSPost2010Prop56
140
1.0
102
RTVSPost2010PropOp56
 70
     1
102
RTVSPost2010Prop57
140
1.0
102
RTVSPost2010PropOp57
 70
     1
  0
XRECORD
  5
CD
102
{ACAD_REACTORS
330
CC
102
}
330
CC
100
AcDbXrecord
280
     1
102
RTVSPropertyOp0
 70
     0
102
RTVSPropertyOp1
 70
     0
102
RTVSPropertyOp2
 70
     0
102
RTVSPropertyOp3
 70
     0
102
RTVSPropertyOp4
 70
     0
102
RTVSPropertyOp5
 70
     0
102
RTVSPropertyOp6
 70
     0
102
RTVSPropertyOp7
 70
     0
102
RTVSPropertyOp8
 70
     0
102
RTVSPropertyOp9
 70
     0
102
RTVSPropertyOp10
 70
     0
102
RTVSPropertyOp11
 70
     0
102
RTVSPropertyOp12
 70
     0
102
RTVSPropertyOp13
 70
     0
102
RTVSPropertyOp14
 70
     2
102
RTVSPropertyOp15
 70
     0
102
RTVSPropertyOp16
 70
     0
102
RTVSPropertyOp17
 70
     0
102
RTVSPropertyOp18
 70
     0
102
RTVSPropertyOp19
 70
     0
102
RTVSPropertyOp20
 70
     0
102
RTVSPropertyOp21
 70
     0
102
RTVSPropertyOp22
 70
     0
102
RTVSPropertyOp23
 70
     0
102
RTVSPropertyOp24
 70
     0
102
RTVSPropertyOp25
 70
     0
102
RTVSPropertyOp26
 70
     0
102
RTVSPropertyOp27
 70
     0
102
RTVSPropertyOp28
 70
     0
102
RTVSPropertyOp29
 70
     0
102
RTVSPropertyOp30
 70
     0
102
RTVSPropertyOp31
 70
     0
102
RTVSPropertyOp32
 70
     0
102
RTVSPropertyOp33
 70
     0
102
RTVSPropertyOp34
 70
     0
102
RTVSPropertyOp35
 70
     0
102
RTVSPropertyOp36
 70
     0
102
RTVSPropertyOp37
 70
     0
102
RTVSPropertyOp38
 70
     0
102
RTVSPropertyOp39
 70
     0
102
RTVSPropertyOp40
 70
     0
102
RTVSPropertyOp41
 70
     0
102
RTVSPropertyOp42
 70
     0
102
RTVSPropertyOp43
 70
     0
102
RTVSPropertyOp44
 70
     0
102
RTVSPropertyOp45
 70
     0
102
RTVSPropertyOp46
 70
     0
102
RTVSPropertyOp47
 70
     0
102
RTVSPropertyOp48
 70
     0
102
RTVSPropertyOp49
 70
     0
102
RTVSPropertyOp50
 70
     0
102
RTVSPropertyOp51
 70
     0
102
RTVSPropertyOp52
 70
     0
102
RTVSPropertyOp53
 70
     0
102
RTVSPropertyOp54
 70
     0
102
RTVSPropertyOp55
 70
     0
102
RTVSPropertyOp56
 70
     0
102
RTVSPropertyOp57
 70
     0
102
RTVSPost2010Prop28
280
     0
102
RTVSPost2010PropOp28
 70
     0
102
RTVSPost2010Prop29
280
     1
102
RTVSPost2010PropOp29
 70
     0
102
RTVSPost2010Prop30
280
     1
102
RTVSPost2010PropOp30
 70
     0
102
RTVSPost2010Prop31
280
     0
102
RTVSPost2010PropOp31
 70
     0
102
RTVSPost2010Prop32
280
     0
102
RTVSPost2010PropOp32
 70
     0
102
RTVSPost2010Prop33
280
     0
102
RTVSPost2010PropOp33
 70
     0
102
RTVSPost2010Prop34
280
     0
102
RTVSPost2010PropOp34
 70
     0
102
RTVSPost2010Prop35
280
     0
102
RTVSPost2010PropOp35
 70
     0
102
RTVSPost2010Prop36
280
     0
102
RTVSPost2010PropOp36
 70
     0
102
RTVSPost2010Prop37
 90
       50
102
RTVSPost2010PropOp37
 70
     0
102
RTVSPost2010Prop38
140
0.0
102
RTVSPost2010PropOp38
 70
     0
102
RTVSPost2010Prop39
140
1.0
102
RTVSPost2010PropOp39
 70
     0
102
RTVSPost2010Prop40
 90
        0
102
RTVSPost2010PropOp40
 70
     0
102
RTVSPost2010Prop41ColorIndex
 90
       18
102
RTVSPost2010Prop41ColorRGB
 90
        0
102
RTVSPost2010PropOp41
 70
     0
102
RTVSPost2010Prop42
 90
       50
102
RTVSPost2010PropOp42
 70
     0
102
RTVSPost2010Prop43
 90
        3
102
RTVSPost2010PropOp43
 70
     0
102
RTVSPost2010Prop44ColorIndex
 90
        5
102
RTVSPost2010Prop44ColorRGB
 90
      255
102
RTVSPost2010PropOp44
 70
     0
102
RTVSPost2010Prop45
280
     0
102
RTVSPost2010PropOp45
 70
     0
102
RTVSPost2010Prop46
 90
       50
102
RTVSPost2010PropOp46
 70
     0
102
RTVSPost2010Prop47
 90
       50
102
RTVSPost2010PropOp47
 70
     0
102
RTVSPost2010Prop48
 90
       50
102
RTVSPost2010PropOp48
 70
     0
102
RTVSPost2010Prop49
280
     0
102
RTVSPost2010PropOp49
 70
     0
102
RTVSPost2010Prop50
 90
       50
102
RTVSPost2010PropOp50
 70
     0
102
RTVSPost2010Prop51ColorIndex
 90
      256
102
RTVSPost2010Prop51ColorRGB
 90
-16777216
102
RTVSPost2010PropOp51
 70
     0
102
RTVSPost2010Prop52
140
1.0
102
RTVSPost2010PropOp52
 70
     0
102
RTVSPost2010Prop53
 90
        2
102
RTVSPost2010PropOp53
 70
     0
102
RTVSPost2010Prop54
  1
strokes_ogs.tif
102
RTVSPost2010PropOp54
 70
     0
102
RTVSPost2010Prop55
280
     0
102
RTVSPost2010PropOp55
 70
     0
102
RTVSPost2010Prop56
140
1.0
102
RTVSPost2010PropOp56
 70
     0
102
RTVSPost2010Prop57
140
1.0
102
RTVSPost2010PropOp57
 70
     0
  0
XRECORD
  5
C7
102
{ACAD_REACTORS
330
C6
102
}
330
C6
100
AcDbXrecord
280
     1
102
RTVSPropertyOp0
 70
     1
102
RTVSPropertyOp1
 70
     1
102
RTVSPropertyOp2
 70
     1
102
RTVSPropertyOp3
 70
     1
102
RTVSPropertyOp4
 70
     1
102
RTVSPropertyOp5
 70
     1
102
RTVSPropertyOp6
 70
     1
102
RTVSPropertyOp7
 70
     1
102
RTVSPropertyOp8
 70
     1
102
RTVSPropertyOp9
 70
     1
102
RTVSPropertyOp10
 70
     1
102
RTVSPropertyOp11
 70
     1
102
RTVSPropertyOp12
 70
     1
102
RTVSPropertyOp13
 70
     1
102
RTVSPropertyOp14
 70
     1
102
RTVSPropertyOp15
 70
     1
102
RTVSPropertyOp16
 70
     1
102
RTVSPropertyOp17
 70
     1
102
RTVSPropertyOp18
 70
     1
102
RTVSPropertyOp19
 70
     1
102
RTVSPropertyOp20
 70
     1
102
RTVSPropertyOp21
 70
     1
102
RTVSPropertyOp22
 70
     1
102
RTVSPropertyOp23
 70
     1
102
RTVSPropertyOp24
 70
     1
102
RTVSPropertyOp25
 70
     1
102
RTVSPropertyOp26
 70
     1
102
RTVSPropertyOp27
 70
     1
102
RTVSPropertyOp28
 70
     1
102
RTVSPropertyOp29
 70
     1
102
RTVSPropertyOp30
 70
     1
102
RTVSPropertyOp31
 70
     1
102
RTVSPropertyOp32
 70
     1
102
RTVSPropertyOp33
 70
     1
102
RTVSPropertyOp34
 70
     1
102
RTVSPropertyOp35
 70
     1
102
RTVSPropertyOp36
 70
     1
102
RTVSPropertyOp37
 70
     1
102
RTVSPropertyOp38
 70
     1
102
RTVSPropertyOp39
 70
     1
102
RTVSPropertyOp40
 70
     1
102
RTVSPropertyOp41
 70
     1
102
RTVSPropertyOp42
 70
     1
102
RTVSPropertyOp43
 70
     1
102
RTVSPropertyOp44
 70
     1
102
RTVSPropertyOp45
 70
     1
102
RTVSPropertyOp46
 70
     1
102
RTVSPropertyOp47
 70
     1
102
RTVSPropertyOp48
 70
     1
102
RTVSPropertyOp49
 70
     1
102
RTVSPropertyOp50
 70
     1
102
RTVSPropertyOp51
 70
     0
102
RTVSPropertyOp52
 70
     0
102
RTVSPropertyOp53
 70
     1
102
RTVSPropertyOp54
 70
     1
102
RTVSPropertyOp55
 70
     1
102
RTVSPropertyOp56
 70
     1
102
RTVSPropertyOp57
 70
     1
102
RTVSPost2010Prop28
280
     0
102
RTVSPost2010PropOp28
 70
     1
102
RTVSPost2010Prop29
280
     1
102
RTVSPost2010PropOp29
 70
     1
102
RTVSPost2010Prop30
280
     1
102
RTVSPost2010PropOp30
 70
     1
102
RTVSPost2010Prop31
280
     0
102
RTVSPost2010PropOp31
 70
     1
102
RTVSPost2010Prop32
280
     0
102
RTVSPost2010PropOp32
 70
     1
102
RTVSPost2010Prop33
280
     0
102
RTVSPost2010PropOp33
 70
     1
102
RTVSPost2010Prop34
280
     0
102
RTVSPost2010PropOp34
 70
     1
102
RTVSPost2010Prop35
280
     0
102
RTVSPost2010PropOp35
 70
     1
102
RTVSPost2010Prop36
280
     0
102
RTVSPost2010PropOp36
 70
     1
102
RTVSPost2010Prop37
 90
       50
102
RTVSPost2010PropOp37
 70
     1
102
RTVSPost2010Prop38
140
0.0
102
RTVSPost2010PropOp38
 70
     1
102
RTVSPost2010Prop39
140
1.0
102
RTVSPost2010PropOp39
 70
     1
102
RTVSPost2010Prop40
 90
        0
102
RTVSPost2010PropOp40
 70
     1
102
RTVSPost2010Prop41ColorIndex
 90
       18
102
RTVSPost2010Prop41ColorRGB
 90
        0
102
RTVSPost2010PropOp41
 70
     1
102
RTVSPost2010Prop42
 90
       50
102
RTVSPost2010PropOp42
 70
     1
102
RTVSPost2010Prop43
 90
        3
102
RTVSPost2010PropOp43
 70
     1
102
RTVSPost2010Prop44ColorIndex
 90
        5
102
RTVSPost2010Prop44ColorRGB
 90
      255
102
RTVSPost2010PropOp44
 70
     1
102
RTVSPost2010Prop45
280
     0
102
RTVSPost2010PropOp45
 70
     1
102
RTVSPost2010Prop46
 90
       50
102
RTVSPost2010PropOp46
 70
     1
102
RTVSPost2010Prop47
 90
       50
102
RTVSPost2010PropOp47
 70
     1
102
RTVSPost2010Prop48
 90
       50
102
RTVSPost2010PropOp48
 70
     1
102
RTVSPost2010Prop49
280
     0
102
RTVSPost2010PropOp49
 70
     1
102
RTVSPost2010Prop50
 90
       50
102
RTVSPost2010PropOp50
 70
     1
102
RTVSPost2010Prop51ColorIndex
 90
      256
102
RTVSPost2010Prop51ColorRGB
 90
-16777216
102
RTVSPost2010PropOp51
 70
     0
102
RTVSPost2010Prop52
140
1.0
102
RTVSPost2010PropOp52
 70
     0
102
RTVSPost2010Prop53
 90
        2
102
RTVSPost2010PropOp53
 70
     1
102
RTVSPost2010Prop54
  1
strokes_ogs.tif
102
RTVSPost2010PropOp54
 70
     1
102
RTVSPost2010Prop55
280
     0
102
RTVSPost2010PropOp55
 70
     1
102
RTVSPost2010Prop56
140
1.0
102
RTVSPost2010PropOp56
 70
     1
102
RTVSPost2010Prop57
140
1.0
102
RTVSPost2010PropOp57
 70
     1
  0
XRECORD
  5
CF
102
{ACAD_REACTORS
330
CE
102
}
330
CE
100
AcDbXrecord
280
     1
102
RTVSPropertyOp0
 70
     0
102
RTVSPropertyOp1
 70
     0
102
RTVSPropertyOp2
 70
     0
102
RTVSPropertyOp3
 70
     0
102
RTVSPropertyOp4
 70
     0
102
RTVSPropertyOp5
 70
     0
102
RTVSPropertyOp6
 70
     0
102
RTVSPropertyOp7
 70
     0
102
RTVSPropertyOp8
 70
     0
102
RTVSPropertyOp9
 70
     0
102
RTVSPropertyOp10
 70
     0
102
RTVSPropertyOp11
 70
     0
102
RTVSPropertyOp12
 70
     0
102
RTVSPropertyOp13
 70
     0
102
RTVSPropertyOp14
 70
     2
102
RTVSPropertyOp15
 70
     0
102
RTVSPropertyOp16
 70
     0
102
RTVSPropertyOp17
 70
     0
102
RTVSPropertyOp18
 70
     0
102
RTVSPropertyOp19
 70
     0
102
RTVSPropertyOp20
 70
     0
102
RTVSPropertyOp21
 70
     0
102
RTVSPropertyOp22
 70
     0
102
RTVSPropertyOp23
 70
     0
102
RTVSPropertyOp24
 70
     0
102
RTVSPropertyOp25
 70
     0
102
RTVSPropertyOp26
 70
     0
102
RTVSPropertyOp27
 70
     0
102
RTVSPropertyOp28
 70
     0
102
RTVSPropertyOp29
 70
     0
102
RTVSPropertyOp30
 70
     0
102
RTVSPropertyOp31
 70
     0
102
RTVSPropertyOp32
 70
     0
102
RTVSPropertyOp33
 70
     0
102
RTVSPropertyOp34
 70
     0
102
RTVSPropertyOp35
 70
     0
102
RTVSPropertyOp36
 70
     0
102
RTVSPropertyOp37
 70
     0
102
RTVSPropertyOp38
 70
     0
102
RTVSPropertyOp39
 70
     0
102
RTVSPropertyOp40
 70
     0
102
RTVSPropertyOp41
 70
     0
102
RTVSPropertyOp42
 70
     0
102
RTVSPropertyOp43
 70
     0
102
RTVSPropertyOp44
 70
     0
102
RTVSPropertyOp45
 70
     0
102
RTVSPropertyOp46
 70
     0
102
RTVSPropertyOp47
 70
     0
102
RTVSPropertyOp48
 70
     0
102
RTVSPropertyOp49
 70
     0
102
RTVSPropertyOp50
 70
     0
102
RTVSPropertyOp51
 70
     0
102
RTVSPropertyOp52
 70
     0
102
RTVSPropertyOp53
 70
     0
102
RTVSPropertyOp54
 70
     0
102
RTVSPropertyOp55
 70
     0
102
RTVSPropertyOp56
 70
     0
102
RTVSPropertyOp57
 70
     0
102
RTVSPost2010Prop28
280
     0
102
RTVSPost2010PropOp28
 70
     0
102
RTVSPost2010Prop29
280
     1
102
RTVSPost2010PropOp29
 70
     0
102
RTVSPost2010Prop30
280
     1
102
RTVSPost2010PropOp30
 70
     0
102
RTVSPost2010Prop31
280
     0
102
RTVSPost2010PropOp31
 70
     0
102
RTVSPost2010Prop32
280
     0
102
RTVSPost2010PropOp32
 70
     0
102
RTVSPost2010Prop33
280
     0
102
RTVSPost2010PropOp33
 70
     0
102
RTVSPost2010Prop34
280
     0
102
RTVSPost2010PropOp34
 70
     0
102
RTVSPost2010Prop35
280
     0
102
RTVSPost2010PropOp35
 70
     0
102
RTVSPost2010Prop36
280
     0
102
RTVSPost2010PropOp36
 70
     0
102
RTVSPost2010Prop37
 90
       50
102
RTVSPost2010PropOp37
 70
     0
102
RTVSPost2010Prop38
140
0.0
102
RTVSPost2010PropOp38
 70
     0
102
RTVSPost2010Prop39
140
1.0
102
RTVSPost2010PropOp39
 70
     0
102
RTVSPost2010Prop40
 90
        0
102
RTVSPost2010PropOp40
 70
     0
102
RTVSPost2010Prop41ColorIndex
 90
       18
102
RTVSPost2010Prop41ColorRGB
 90
        0
102
RTVSPost2010PropOp41
 70
     0
102
RTVSPost2010Prop42
 90
       50
102
RTVSPost2010PropOp42
 70
     0
102
RTVSPost2010Prop43
 90
        3
102
RTVSPost2010PropOp43
 70
     0
102
RTVSPost2010Prop44ColorIndex
 90
        5
102
RTVSPost2010Prop44ColorRGB
 90
      255
102
RTVSPost2010PropOp44
 70
     0
102
RTVSPost2010Prop45
280
     0
102
RTVSPost2010PropOp45
 70
     0
102
RTVSPost2010Prop46
 90
       50
102
RTVSPost2010PropOp46
 70
     0
102
RTVSPost2010Prop47
 90
       50
102
RTVSPost2010PropOp47
 70
     0
102
RTVSPost2010Prop48
 90
       50
102
RTVSPost2010PropOp48
 70
     0
102
RTVSPost2010Prop49
280
     0
102
RTVSPost2010PropOp49
 70
     0
102
RTVSPost2010Prop50
 90
       50
102
RTVSPost2010PropOp50
 70
     0
102
RTVSPost2010Prop51ColorIndex
 90
      256
102
RTVSPost2010Prop51ColorRGB
 90
-16777216
102
RTVSPost2010PropOp51
 70
     0
102
RTVSPost2010Prop52
140
1.0
102
RTVSPost2010PropOp52
 70
     0
102
RTVSPost2010Prop53
 90
        2
102
RTVSPost2010PropOp53
 70
     0
102
RTVSPost2010Prop54
  1
strokes_ogs.tif
102
RTVSPost2010PropOp54
 70
     0
102
RTVSPost2010Prop55
280
     0
102
RTVSPost2010PropOp55
 70
     0
102
RTVSPost2010Prop56
140
1.0
102
RTVSPost2010PropOp56
 70
     0
102
RTVSPost2010Prop57
140
1.0
102
RTVSPost2010PropOp57
 70
     0
  0
XRECORD
  5
BD
102
{ACAD_REACTORS
330
BC
102
}
330
BC
100
AcDbXrecord
280
     1
102
RTVSPropertyOp0
 70
     1
102
RTVSPropertyOp1
 70
     1
102
RTVSPropertyOp2
 70
     1
102
RTVSPropertyOp3
 70
     1
102
RTVSPropertyOp4
 70
     1
102
RTVSPropertyOp5
 70
     1
102
RTVSPropertyOp6
 70
     1
102
RTVSPropertyOp7
 70
     1
102
RTVSPropertyOp8
 70
     1
102
RTVSPropertyOp9
 70
     1
102
RTVSPropertyOp10
 70
     1
102
RTVSPropertyOp11
 70
     1
102
RTVSPropertyOp12
 70
     1
102
RTVSPropertyOp13
 70
     1
102
RTVSPropertyOp14
 70
     1
102
RTVSPropertyOp15
 70
     1
102
RTVSPropertyOp16
 70
     1
102
RTVSPropertyOp17
 70
     1
102
RTVSPropertyOp18
 70
     1
102
RTVSPropertyOp19
 70
     1
102
RTVSPropertyOp20
 70
     1
102
RTVSPropertyOp21
 70
     1
102
RTVSPropertyOp22
 70
     1
102
RTVSPropertyOp23
 70
     1
102
RTVSPropertyOp24
 70
     1
102
RTVSPropertyOp25
 70
     1
102
RTVSPropertyOp26
 70
     1
102
RTVSPropertyOp27
 70
     1
102
RTVSPropertyOp28
 70
     1
102
RTVSPropertyOp29
 70
     1
102
RTVSPropertyOp30
 70
     1
102
RTVSPropertyOp31
 70
     1
102
RTVSPropertyOp32
 70
     1
102
RTVSPropertyOp33
 70
     1
102
RTVSPropertyOp34
 70
     1
102
RTVSPropertyOp35
 70
     1
102
RTVSPropertyOp36
 70
     1
102
RTVSPropertyOp37
 70
     1
102
RTVSPropertyOp38
 70
     1
102
RTVSPropertyOp39
 70
     1
102
RTVSPropertyOp40
 70
     1
102
RTVSPropertyOp41
 70
     1
102
RTVSPropertyOp42
 70
     1
102
RTVSPropertyOp43
 70
     1
102
RTVSPropertyOp44
 70
     1
102
RTVSPropertyOp45
 70
     1
102
RTVSPropertyOp46
 70
     1
102
RTVSPropertyOp47
 70
     1
102
RTVSPropertyOp48
 70
     1
102
RTVSPropertyOp49
 70
     1
102
RTVSPropertyOp50
 70
     1
102
RTVSPropertyOp51
 70
     0
102
RTVSPropertyOp52
 70
     0
102
RTVSPropertyOp53
 70
     1
102
RTVSPropertyOp54
 70
     1
102
RTVSPropertyOp55
 70
     1
102
RTVSPropertyOp56
 70
     1
102
RTVSPropertyOp57
 70
     1
102
RTVSPost2010Prop28
280
     0
102
RTVSPost2010PropOp28
 70
     1
102
RTVSPost2010Prop29
280
     1
102
RTVSPost2010PropOp29
 70
     1
102
RTVSPost2010Prop30
280
     1
102
RTVSPost2010PropOp30
 70
     1
102
RTVSPost2010Prop31
280
     0
102
RTVSPost2010PropOp31
 70
     1
102
RTVSPost2010Prop32
280
     0
102
RTVSPost2010PropOp32
 70
     1
102
RTVSPost2010Prop33
280
     0
102
RTVSPost2010PropOp33
 70
     1
102
RTVSPost2010Prop34
280
     0
102
RTVSPost2010PropOp34
 70
     1
102
RTVSPost2010Prop35
280
     0
102
RTVSPost2010PropOp35
 70
     1
102
RTVSPost2010Prop36
280
     0
102
RTVSPost2010PropOp36
 70
     1
102
RTVSPost2010Prop37
 90
       50
102
RTVSPost2010PropOp37
 70
     1
102
RTVSPost2010Prop38
140
0.0
102
RTVSPost2010PropOp38
 70
     1
102
RTVSPost2010Prop39
140
1.0
102
RTVSPost2010PropOp39
 70
     1
102
RTVSPost2010Prop40
 90
        0
102
RTVSPost2010PropOp40
 70
     1
102
RTVSPost2010Prop41ColorIndex
 90
       18
102
RTVSPost2010Prop41ColorRGB
 90
        0
102
RTVSPost2010PropOp41
 70
     1
102
RTVSPost2010Prop42
 90
       50
102
RTVSPost2010PropOp42
 70
     1
102
RTVSPost2010Prop43
 90
        3
102
RTVSPost2010PropOp43
 70
     1
102
RTVSPost2010Prop44ColorIndex
 90
        5
102
RTVSPost2010Prop44ColorRGB
 90
      255
102
RTVSPost2010PropOp44
 70
     1
102
RTVSPost2010Prop45
280
     0
102
RTVSPost2010PropOp45
 70
     1
102
RTVSPost2010Prop46
 90
       50
102
RTVSPost2010PropOp46
 70
     1
102
RTVSPost2010Prop47
 90
       50
102
RTVSPost2010PropOp47
 70
     1
102
RTVSPost2010Prop48
 90
       50
102
RTVSPost2010PropOp48
 70
     1
102
RTVSPost2010Prop49
280
     0
102
RTVSPost2010PropOp49
 70
     1
102
RTVSPost2010Prop50
 90
       50
102
RTVSPost2010PropOp50
 70
     1
102
RTVSPost2010Prop51ColorIndex
 90
      256
102
RTVSPost2010Prop51ColorRGB
 90
-16777216
102
RTVSPost2010PropOp51
 70
     0
102
RTVSPost2010Prop52
140
1.0
102
RTVSPost2010PropOp52
 70
     0
102
RTVSPost2010Prop53
 90
        2
102
RTVSPost2010PropOp53
 70
     1
102
RTVSPost2010Prop54
  1
strokes_ogs.tif
102
RTVSPost2010PropOp54
 70
     1
102
RTVSPost2010Prop55
280
     0
102
RTVSPost2010PropOp55
 70
     1
102
RTVSPost2010Prop56
140
1.0
102
RTVSPost2010PropOp56
 70
     1
102
RTVSPost2010Prop57
140
1.0
102
RTVSPost2010PropOp57
 70
     1
  0
XRECORD
  5
DB
102
{ACAD_REACTORS
330
DA
102
}
330
DA
100
AcDbXrecord
280
     1
102
RTVSPropertyOp0
 70
     1
102
RTVSPropertyOp1
 70
     1
102
RTVSPropertyOp2
 70
     1
102
RTVSPropertyOp3
 70
     1
102
RTVSPropertyOp4
 70
     1
102
RTVSPropertyOp5
 70
     1
102
RTVSPropertyOp6
 70
     1
102
RTVSPropertyOp7
 70
     1
102
RTVSPropertyOp8
 70
     1
102
RTVSPropertyOp9
 70
     1
102
RTVSPropertyOp10
 70
     1
102
RTVSPropertyOp11
 70
     1
102
RTVSPropertyOp12
 70
     1
102
RTVSPropertyOp13
 70
     1
102
RTVSPropertyOp14
 70
     1
102
RTVSPropertyOp15
 70
     1
102
RTVSPropertyOp16
 70
     1
102
RTVSPropertyOp17
 70
     1
102
RTVSPropertyOp18
 70
     1
102
RTVSPropertyOp19
 70
     1
102
RTVSPropertyOp20
 70
     1
102
RTVSPropertyOp21
 70
     1
102
RTVSPropertyOp22
 70
     1
102
RTVSPropertyOp23
 70
     1
102
RTVSPropertyOp24
 70
     1
102
RTVSPropertyOp25
 70
     1
102
RTVSPropertyOp26
 70
     1
102
RTVSPropertyOp27
 70
     1
102
RTVSPropertyOp28
 70
     1
102
RTVSPropertyOp29
 70
     1
102
RTVSPropertyOp30
 70
     1
102
RTVSPropertyOp31
 70
     1
102
RTVSPropertyOp32
 70
     1
102
RTVSPropertyOp33
 70
     1
102
RTVSPropertyOp34
 70
     1
102
RTVSPropertyOp35
 70
     1
102
RTVSPropertyOp36
 70
     1
102
RTVSPropertyOp37
 70
     1
102
RTVSPropertyOp38
 70
     1
102
RTVSPropertyOp39
 70
     1
102
RTVSPropertyOp40
 70
     1
102
RTVSPropertyOp41
 70
     1
102
RTVSPropertyOp42
 70
     1
102
RTVSPropertyOp43
 70
     1
102
RTVSPropertyOp44
 70
     1
102
RTVSPropertyOp45
 70
     1
102
RTVSPropertyOp46
 70
     1
102
RTVSPropertyOp47
 70
     1
102
RTVSPropertyOp48
 70
     1
102
RTVSPropertyOp49
 70
     1
102
RTVSPropertyOp50
 70
     1
102
RTVSPropertyOp51
 70
     0
102
RTVSPropertyOp52
 70
     0
102
RTVSPropertyOp53
 70
     1
102
RTVSPropertyOp54
 70
     1
102
RTVSPropertyOp55
 70
     1
102
RTVSPropertyOp56
 70
     1
102
RTVSPropertyOp57
 70
     1
102
RTVSPost2010Prop28
280
     0
102
RTVSPost2010PropOp28
 70
     1
102
RTVSPost2010Prop29
280
     1
102
RTVSPost2010PropOp29
 70
     1
102
RTVSPost2010Prop30
280
     1
102
RTVSPost2010PropOp30
 70
     1
102
RTVSPost2010Prop31
280
     0
102
RTVSPost2010PropOp31
 70
     1
102
RTVSPost2010Prop32
280
     0
102
RTVSPost2010PropOp32
 70
     1
102
RTVSPost2010Prop33
280
     0
102
RTVSPost2010PropOp33
 70
     1
102
RTVSPost2010Prop34
280
     0
102
RTVSPost2010PropOp34
 70
     1
102
RTVSPost2010Prop35
280
     0
102
RTVSPost2010PropOp35
 70
     1
102
RTVSPost2010Prop36
280
     0
102
RTVSPost2010PropOp36
 70
     1
102
RTVSPost2010Prop37
 90
       50
102
RTVSPost2010PropOp37
 70
     1
102
RTVSPost2010Prop38
140
0.0
102
RTVSPost2010PropOp38
 70
     1
102
RTVSPost2010Prop39
140
1.0
102
RTVSPost2010PropOp39
 70
     1
102
RTVSPost2010Prop40
 90
        0
102
RTVSPost2010PropOp40
 70
     1
102
RTVSPost2010Prop41ColorIndex
 90
       18
102
RTVSPost2010Prop41ColorRGB
 90
        0
102
RTVSPost2010PropOp41
 70
     1
102
RTVSPost2010Prop42
 90
       50
102
RTVSPost2010PropOp42
 70
     1
102
RTVSPost2010Prop43
 90
        3
102
RTVSPost2010PropOp43
 70
     1
102
RTVSPost2010Prop44ColorIndex
 90
        5
102
RTVSPost2010Prop44ColorRGB
 90
      255
102
RTVSPost2010PropOp44
 70
     1
102
RTVSPost2010Prop45
280
     0
102
RTVSPost2010PropOp45
 70
     1
102
RTVSPost2010Prop46
 90
       50
102
RTVSPost2010PropOp46
 70
     1
102
RTVSPost2010Prop47
 90
       50
102
RTVSPost2010PropOp47
 70
     1
102
RTVSPost2010Prop48
 90
       50
102
RTVSPost2010PropOp48
 70
     1
102
RTVSPost2010Prop49
280
     0
102
RTVSPost2010PropOp49
 70
     1
102
RTVSPost2010Prop50
 90
       50
102
RTVSPost2010PropOp50
 70
     1
102
RTVSPost2010Prop51ColorIndex
 90
      256
102
RTVSPost2010Prop51ColorRGB
 90
-16777216
102
RTVSPost2010PropOp51
 70
     0
102
RTVSPost2010Prop52
140
1.0
102
RTVSPost2010PropOp52
 70
     0
102
RTVSPost2010Prop53
 90
        2
102
RTVSPost2010PropOp53
 70
     1
102
RTVSPost2010Prop54
  1
strokes_ogs.tif
102
RTVSPost2010PropOp54
 70
     1
102
RTVSPost2010Prop55
280
     0
102
RTVSPost2010PropOp55
 70
     1
102
RTVSPost2010Prop56
140
1.0
102
RTVSPost2010PropOp56
 70
     1
102
RTVSPost2010Prop57
140
1.0
102
RTVSPost2010PropOp57
 70
     1
  0
XRECORD
  5
D9
102
{ACAD_REACTORS
330
D8
102
}
330
D8
100
AcDbXrecord
280
     1
102
RTVSPropertyOp0
 70
     1
102
RTVSPropertyOp1
 70
     1
102
RTVSPropertyOp2
 70
     1
102
RTVSPropertyOp3
 70
     1
102
RTVSPropertyOp4
 70
     1
102
RTVSPropertyOp5
 70
     1
102
RTVSPropertyOp6
 70
     1
102
RTVSPropertyOp7
 70
     1
102
RTVSPropertyOp8
 70
     1
102
RTVSPropertyOp9
 70
     1
102
RTVSPropertyOp10
 70
     1
102
RTVSPropertyOp11
 70
     1
102
RTVSPropertyOp12
 70
     1
102
RTVSPropertyOp13
 70
     1
102
RTVSPropertyOp14
 70
     1
102
RTVSPropertyOp15
 70
     1
102
RTVSPropertyOp16
 70
     1
102
RTVSPropertyOp17
 70
     1
102
RTVSPropertyOp18
 70
     1
102
RTVSPropertyOp19
 70
     1
102
RTVSPropertyOp20
 70
     1
102
RTVSPropertyOp21
 70
     1
102
RTVSPropertyOp22
 70
     1
102
RTVSPropertyOp23
 70
     1
102
RTVSPropertyOp24
 70
     1
102
RTVSPropertyOp25
 70
     1
102
RTVSPropertyOp26
 70
     1
102
RTVSPropertyOp27
 70
     1
102
RTVSPropertyOp28
 70
     1
102
RTVSPropertyOp29
 70
     1
102
RTVSPropertyOp30
 70
     1
102
RTVSPropertyOp31
 70
     1
102
RTVSPropertyOp32
 70
     1
102
RTVSPropertyOp33
 70
     1
102
RTVSPropertyOp34
 70
     1
102
RTVSPropertyOp35
 70
     1
102
RTVSPropertyOp36
 70
     1
102
RTVSPropertyOp37
 70
     1
102
RTVSPropertyOp38
 70
     1
102
RTVSPropertyOp39
 70
     1
102
RTVSPropertyOp40
 70
     1
102
RTVSPropertyOp41
 70
     1
102
RTVSPropertyOp42
 70
     1
102
RTVSPropertyOp43
 70
     1
102
RTVSPropertyOp44
 70
     1
102
RTVSPropertyOp45
 70
     1
102
RTVSPropertyOp46
 70
     1
102
RTVSPropertyOp47
 70
     1
102
RTVSPropertyOp48
 70
     1
102
RTVSPropertyOp49
 70
     1
102
RTVSPropertyOp50
 70
     1
102
RTVSPropertyOp51
 70
     0
102
RTVSPropertyOp52
 70
     0
102
RTVSPropertyOp53
 70
     1
102
RTVSPropertyOp54
 70
     1
102
RTVSPropertyOp55
 70
     1
102
RTVSPropertyOp56
 70
     1
102
RTVSPropertyOp57
 70
     1
102
RTVSPost2010Prop28
280
     0
102
RTVSPost2010PropOp28
 70
     1
102
RTVSPost2010Prop29
280
     1
102
RTVSPost2010PropOp29
 70
     1
102
RTVSPost2010Prop30
280
     1
102
RTVSPost2010PropOp30
 70
     1
102
RTVSPost2010Prop31
280
     0
102
RTVSPost2010PropOp31
 70
     1
102
RTVSPost2010Prop32
280
     0
102
RTVSPost2010PropOp32
 70
     1
102
RTVSPost2010Prop33
280
     0
102
RTVSPost2010PropOp33
 70
     1
102
RTVSPost2010Prop34
280
     0
102
RTVSPost2010PropOp34
 70
     1
102
RTVSPost2010Prop35
280
     0
102
RTVSPost2010PropOp35
 70
     1
102
RTVSPost2010Prop36
280
     0
102
RTVSPost2010PropOp36
 70
     1
102
RTVSPost2010Prop37
 90
       50
102
RTVSPost2010PropOp37
 70
     1
102
RTVSPost2010Prop38
140
0.0
102
RTVSPost2010PropOp38
 70
     1
102
RTVSPost2010Prop39
140
1.0
102
RTVSPost2010PropOp39
 70
     1
102
RTVSPost2010Prop40
 90
        0
102
RTVSPost2010PropOp40
 70
     1
102
RTVSPost2010Prop41ColorIndex
 90
       18
102
RTVSPost2010Prop41ColorRGB
 90
        0
102
RTVSPost2010PropOp41
 70
     1
102
RTVSPost2010Prop42
 90
       50
102
RTVSPost2010PropOp42
 70
     1
102
RTVSPost2010Prop43
 90
        3
102
RTVSPost2010PropOp43
 70
     1
102
RTVSPost2010Prop44ColorIndex
 90
        5
102
RTVSPost2010Prop44ColorRGB
 90
      255
102
RTVSPost2010PropOp44
 70
     1
102
RTVSPost2010Prop45
280
     0
102
RTVSPost2010PropOp45
 70
     1
102
RTVSPost2010Prop46
 90
       50
102
RTVSPost2010PropOp46
 70
     1
102
RTVSPost2010Prop47
 90
       50
102
RTVSPost2010PropOp47
 70
     1
102
RTVSPost2010Prop48
 90
       50
102
RTVSPost2010PropOp48
 70
     1
102
RTVSPost2010Prop49
280
     0
102
RTVSPost2010PropOp49
 70
     1
102
RTVSPost2010Prop50
 90
       50
102
RTVSPost2010PropOp50
 70
     1
102
RTVSPost2010Prop51ColorIndex
 90
      256
102
RTVSPost2010Prop51ColorRGB
 90
-16777216
102
RTVSPost2010PropOp51
 70
     0
102
RTVSPost2010Prop52
140
1.0
102
RTVSPost2010PropOp52
 70
     0
102
RTVSPost2010Prop53
 90
        2
102
RTVSPost2010PropOp53
 70
     1
102
RTVSPost2010Prop54
  1
strokes_ogs.tif
102
RTVSPost2010PropOp54
 70
     1
102
RTVSPost2010Prop55
280
     0
102
RTVSPost2010PropOp55
 70
     1
102
RTVSPost2010Prop56
140
1.0
102
RTVSPost2010PropOp56
 70
     1
102
RTVSPost2010Prop57
140
1.0
102
RTVSPost2010PropOp57
 70
     1
  0
XRECORD
  5
D3
102
{ACAD_REACTORS
330
D2
102
}
330
D2
100
AcDbXrecord
280
     1
102
RTVSPropertyOp0
 70
     1
102
RTVSPropertyOp1
 70
     1
102
RTVSPropertyOp2
 70
     1
102
RTVSPropertyOp3
 70
     1
102
RTVSPropertyOp4
 70
     1
102
RTVSPropertyOp5
 70
     1
102
RTVSPropertyOp6
 70
     1
102
RTVSPropertyOp7
 70
     1
102
RTVSPropertyOp8
 70
     1
102
RTVSPropertyOp9
 70
     1
102
RTVSPropertyOp10
 70
     1
102
RTVSPropertyOp11
 70
     1
102
RTVSPropertyOp12
 70
     1
102
RTVSPropertyOp13
 70
     1
102
RTVSPropertyOp14
 70
     1
102
RTVSPropertyOp15
 70
     1
102
RTVSPropertyOp16
 70
     1
102
RTVSPropertyOp17
 70
     1
102
RTVSPropertyOp18
 70
     1
102
RTVSPropertyOp19
 70
     1
102
RTVSPropertyOp20
 70
     1
102
RTVSPropertyOp21
 70
     1
102
RTVSPropertyOp22
 70
     1
102
RTVSPropertyOp23
 70
     1
102
RTVSPropertyOp24
 70
     1
102
RTVSPropertyOp25
 70
     1
102
RTVSPropertyOp26
 70
     1
102
RTVSPropertyOp27
 70
     1
102
RTVSPropertyOp28
 70
     1
102
RTVSPropertyOp29
 70
     1
102
RTVSPropertyOp30
 70
     1
102
RTVSPropertyOp31
 70
     1
102
RTVSPropertyOp32
 70
     1
102
RTVSPropertyOp33
 70
     1
102
RTVSPropertyOp34
 70
     1
102
RTVSPropertyOp35
 70
     1
102
RTVSPropertyOp36
 70
     1
102
RTVSPropertyOp37
 70
     1
102
RTVSPropertyOp38
 70
     1
102
RTVSPropertyOp39
 70
     1
102
RTVSPropertyOp40
 70
     1
102
RTVSPropertyOp41
 70
     1
102
RTVSPropertyOp42
 70
     1
102
RTVSPropertyOp43
 70
     1
102
RTVSPropertyOp44
 70
     1
102
RTVSPropertyOp45
 70
     1
102
RTVSPropertyOp46
 70
     1
102
RTVSPropertyOp47
 70
     1
102
RTVSPropertyOp48
 70
     1
102
RTVSPropertyOp49
 70
     1
102
RTVSPropertyOp50
 70
     1
102
RTVSPropertyOp51
 70
     0
102
RTVSPropertyOp52
 70
     0
102
RTVSPropertyOp53
 70
     1
102
RTVSPropertyOp54
 70
     1
102
RTVSPropertyOp55
 70
     1
102
RTVSPropertyOp56
 70
     1
102
RTVSPropertyOp57
 70
     1
102
RTVSPost2010Prop28
280
     0
102
RTVSPost2010PropOp28
 70
     1
102
RTVSPost2010Prop29
280
     1
102
RTVSPost2010PropOp29
 70
     1
102
RTVSPost2010Prop30
280
     1
102
RTVSPost2010PropOp30
 70
     1
102
RTVSPost2010Prop31
280
     0
102
RTVSPost2010PropOp31
 70
     1
102
RTVSPost2010Prop32
280
     0
102
RTVSPost2010PropOp32
 70
     1
102
RTVSPost2010Prop33
280
     0
102
RTVSPost2010PropOp33
 70
     1
102
RTVSPost2010Prop34
280
     0
102
RTVSPost2010PropOp34
 70
     1
102
RTVSPost2010Prop35
280
     0
102
RTVSPost2010PropOp35
 70
     1
102
RTVSPost2010Prop36
280
     0
102
RTVSPost2010PropOp36
 70
     1
102
RTVSPost2010Prop37
 90
       50
102
RTVSPost2010PropOp37
 70
     1
102
RTVSPost2010Prop38
140
0.0
102
RTVSPost2010PropOp38
 70
     1
102
RTVSPost2010Prop39
140
1.0
102
RTVSPost2010PropOp39
 70
     1
102
RTVSPost2010Prop40
 90
        0
102
RTVSPost2010PropOp40
 70
     1
102
RTVSPost2010Prop41ColorIndex
 90
       18
102
RTVSPost2010Prop41ColorRGB
 90
        0
102
RTVSPost2010PropOp41
 70
     1
102
RTVSPost2010Prop42
 90
       50
102
RTVSPost2010PropOp42
 70
     1
102
RTVSPost2010Prop43
 90
        3
102
RTVSPost2010PropOp43
 70
     1
102
RTVSPost2010Prop44ColorIndex
 90
        5
102
RTVSPost2010Prop44ColorRGB
 90
      255
102
RTVSPost2010PropOp44
 70
     1
102
RTVSPost2010Prop45
280
     0
102
RTVSPost2010PropOp45
 70
     1
102
RTVSPost2010Prop46
 90
       50
102
RTVSPost2010PropOp46
 70
     1
102
RTVSPost2010Prop47
 90
       50
102
RTVSPost2010PropOp47
 70
     1
102
RTVSPost2010Prop48
 90
       50
102
RTVSPost2010PropOp48
 70
     1
102
RTVSPost2010Prop49
280
     0
102
RTVSPost2010PropOp49
 70
     1
102
RTVSPost2010Prop50
 90
       50
102
RTVSPost2010PropOp50
 70
     1
102
RTVSPost2010Prop51ColorIndex
 90
      256
102
RTVSPost2010Prop51ColorRGB
 90
-16777216
102
RTVSPost2010PropOp51
 70
     0
102
RTVSPost2010Prop52
140
1.0
102
RTVSPost2010PropOp52
 70
     0
102
RTVSPost2010Prop53
 90
        2
102
RTVSPost2010PropOp53
 70
     1
102
RTVSPost2010Prop54
  1
strokes_ogs.tif
102
RTVSPost2010PropOp54
 70
     1
102
RTVSPost2010Prop55
280
     0
102
RTVSPost2010PropOp55
 70
     1
102
RTVSPost2010Prop56
140
1.0
102
RTVSPost2010PropOp56
 70
     1
102
RTVSPost2010Prop57
140
1.0
102
RTVSPost2010PropOp57
 70
     1
  0
XRECORD
  5
D5
102
{ACAD_REACTORS
330
D4
102
}
330
D4
100
AcDbXrecord
280
     1
102
RTVSPropertyOp0
 70
     1
102
RTVSPropertyOp1
 70
     1
102
RTVSPropertyOp2
 70
     1
102
RTVSPropertyOp3
 70
     1
102
RTVSPropertyOp4
 70
     1
102
RTVSPropertyOp5
 70
     1
102
RTVSPropertyOp6
 70
     1
102
RTVSPropertyOp7
 70
     1
102
RTVSPropertyOp8
 70
     1
102
RTVSPropertyOp9
 70
     1
102
RTVSPropertyOp10
 70
     1
102
RTVSPropertyOp11
 70
     1
102
RTVSPropertyOp12
 70
     1
102
RTVSPropertyOp13
 70
     1
102
RTVSPropertyOp14
 70
     1
102
RTVSPropertyOp15
 70
     1
102
RTVSPropertyOp16
 70
     1
102
RTVSPropertyOp17
 70
     1
102
RTVSPropertyOp18
 70
     1
102
RTVSPropertyOp19
 70
     1
102
RTVSPropertyOp20
 70
     1
102
RTVSPropertyOp21
 70
     1
102
RTVSPropertyOp22
 70
     1
102
RTVSPropertyOp23
 70
     1
102
RTVSPropertyOp24
 70
     1
102
RTVSPropertyOp25
 70
     1
102
RTVSPropertyOp26
 70
     1
102
RTVSPropertyOp27
 70
     1
102
RTVSPropertyOp28
 70
     1
102
RTVSPropertyOp29
 70
     1
102
RTVSPropertyOp30
 70
     1
102
RTVSPropertyOp31
 70
     1
102
RTVSPropertyOp32
 70
     1
102
RTVSPropertyOp33
 70
     1
102
RTVSPropertyOp34
 70
     1
102
RTVSPropertyOp35
 70
     1
102
RTVSPropertyOp36
 70
     1
102
RTVSPropertyOp37
 70
     1
102
RTVSPropertyOp38
 70
     1
102
RTVSPropertyOp39
 70
     1
102
RTVSPropertyOp40
 70
     1
102
RTVSPropertyOp41
 70
     1
102
RTVSPropertyOp42
 70
     1
102
RTVSPropertyOp43
 70
     1
102
RTVSPropertyOp44
 70
     1
102
RTVSPropertyOp45
 70
     1
102
RTVSPropertyOp46
 70
     1
102
RTVSPropertyOp47
 70
     1
102
RTVSPropertyOp48
 70
     1
102
RTVSPropertyOp49
 70
     1
102
RTVSPropertyOp50
 70
     1
102
RTVSPropertyOp51
 70
     0
102
RTVSPropertyOp52
 70
     0
102
RTVSPropertyOp53
 70
     1
102
RTVSPropertyOp54
 70
     1
102
RTVSPropertyOp55
 70
     1
102
RTVSPropertyOp56
 70
     1
102
RTVSPropertyOp57
 70
     1
102
RTVSPost2010Prop28
280
     0
102
RTVSPost2010PropOp28
 70
     1
102
RTVSPost2010Prop29
280
     1
102
RTVSPost2010PropOp29
 70
     1
102
RTVSPost2010Prop30
280
     1
102
RTVSPost2010PropOp30
 70
     1
102
RTVSPost2010Prop31
280
     0
102
RTVSPost2010PropOp31
 70
     1
102
RTVSPost2010Prop32
280
     0
102
RTVSPost2010PropOp32
 70
     1
102
RTVSPost2010Prop33
280
     0
102
RTVSPost2010PropOp33
 70
     1
102
RTVSPost2010Prop34
280
     0
102
RTVSPost2010PropOp34
 70
     1
102
RTVSPost2010Prop35
280
     0
102
RTVSPost2010PropOp35
 70
     1
102
RTVSPost2010Prop36
280
     0
102
RTVSPost2010PropOp36
 70
     1
102
RTVSPost2010Prop37
 90
       50
102
RTVSPost2010PropOp37
 70
     1
102
RTVSPost2010Prop38
140
0.0
102
RTVSPost2010PropOp38
 70
     1
102
RTVSPost2010Prop39
140
1.0
102
RTVSPost2010PropOp39
 70
     1
102
RTVSPost2010Prop40
 90
        0
102
RTVSPost2010PropOp40
 70
     1
102
RTVSPost2010Prop41ColorIndex
 90
       18
102
RTVSPost2010Prop41ColorRGB
 90
        0
102
RTVSPost2010PropOp41
 70
     1
102
RTVSPost2010Prop42
 90
       50
102
RTVSPost2010PropOp42
 70
     1
102
RTVSPost2010Prop43
 90
        3
102
RTVSPost2010PropOp43
 70
     1
102
RTVSPost2010Prop44ColorIndex
 90
        5
102
RTVSPost2010Prop44ColorRGB
 90
      255
102
RTVSPost2010PropOp44
 70
     1
102
RTVSPost2010Prop45
280
     0
102
RTVSPost2010PropOp45
 70
     1
102
RTVSPost2010Prop46
 90
       50
102
RTVSPost2010PropOp46
 70
     1
102
RTVSPost2010Prop47
 90
       50
102
RTVSPost2010PropOp47
 70
     1
102
RTVSPost2010Prop48
 90
       50
102
RTVSPost2010PropOp48
 70
     1
102
RTVSPost2010Prop49
280
     0
102
RTVSPost2010PropOp49
 70
     1
102
RTVSPost2010Prop50
 90
       50
102
RTVSPost2010PropOp50
 70
     1
102
RTVSPost2010Prop51ColorIndex
 90
      256
102
RTVSPost2010Prop51ColorRGB
 90
-16777216
102
RTVSPost2010PropOp51
 70
     0
102
RTVSPost2010Prop52
140
1.0
102
RTVSPost2010PropOp52
 70
     0
102
RTVSPost2010Prop53
 90
        2
102
RTVSPost2010PropOp53
 70
     1
102
RTVSPost2010Prop54
  1
strokes_ogs.tif
102
RTVSPost2010PropOp54
 70
     1
102
RTVSPost2010Prop55
280
     0
102
RTVSPost2010PropOp55
 70
     1
102
RTVSPost2010Prop56
140
1.0
102
RTVSPost2010PropOp56
 70
     1
102
RTVSPost2010Prop57
140
1.0
102
RTVSPost2010PropOp57
 70
     1
  0
XRECORD
  5
C5
102
{ACAD_REACTORS
330
C4
102
}
330
C4
100
AcDbXrecord
280
     1
102
RTVSPropertyOp0
 70
     1
102
RTVSPropertyOp1
 70
     1
102
RTVSPropertyOp2
 70
     1
102
RTVSPropertyOp3
 70
     1
102
RTVSPropertyOp4
 70
     1
102
RTVSPropertyOp5
 70
     1
102
RTVSPropertyOp6
 70
     1
102
RTVSPropertyOp7
 70
     1
102
RTVSPropertyOp8
 70
     1
102
RTVSPropertyOp9
 70
     1
102
RTVSPropertyOp10
 70
     1
102
RTVSPropertyOp11
 70
     1
102
RTVSPropertyOp12
 70
     1
102
RTVSPropertyOp13
 70
     1
102
RTVSPropertyOp14
 70
     1
102
RTVSPropertyOp15
 70
     1
102
RTVSPropertyOp16
 70
     1
102
RTVSPropertyOp17
 70
     1
102
RTVSPropertyOp18
 70
     1
102
RTVSPropertyOp19
 70
     1
102
RTVSPropertyOp20
 70
     1
102
RTVSPropertyOp21
 70
     1
102
RTVSPropertyOp22
 70
     1
102
RTVSPropertyOp23
 70
     1
102
RTVSPropertyOp24
 70
     1
102
RTVSPropertyOp25
 70
     1
102
RTVSPropertyOp26
 70
     1
102
RTVSPropertyOp27
 70
     1
102
RTVSPropertyOp28
 70
     1
102
RTVSPropertyOp29
 70
     1
102
RTVSPropertyOp30
 70
     1
102
RTVSPropertyOp31
 70
     1
102
RTVSPropertyOp32
 70
     1
102
RTVSPropertyOp33
 70
     1
102
RTVSPropertyOp34
 70
     1
102
RTVSPropertyOp35
 70
     1
102
RTVSPropertyOp36
 70
     1
102
RTVSPropertyOp37
 70
     1
102
RTVSPropertyOp38
 70
     1
102
RTVSPropertyOp39
 70
     1
102
RTVSPropertyOp40
 70
     1
102
RTVSPropertyOp41
 70
     1
102
RTVSPropertyOp42
 70
     1
102
RTVSPropertyOp43
 70
     1
102
RTVSPropertyOp44
 70
     1
102
RTVSPropertyOp45
 70
     1
102
RTVSPropertyOp46
 70
     1
102
RTVSPropertyOp47
 70
     1
102
RTVSPropertyOp48
 70
     1
102
RTVSPropertyOp49
 70
     1
102
RTVSPropertyOp50
 70
     1
102
RTVSPropertyOp51
 70
     0
102
RTVSPropertyOp52
 70
     0
102
RTVSPropertyOp53
 70
     1
102
RTVSPropertyOp54
 70
     1
102
RTVSPropertyOp55
 70
     1
102
RTVSPropertyOp56
 70
     1
102
RTVSPropertyOp57
 70
     1
102
RTVSPost2010Prop28
280
     0
102
RTVSPost2010PropOp28
 70
     1
102
RTVSPost2010Prop29
280
     1
102
RTVSPost2010PropOp29
 70
     1
102
RTVSPost2010Prop30
280
     1
102
RTVSPost2010PropOp30
 70
     1
102
RTVSPost2010Prop31
280
     0
102
RTVSPost2010PropOp31
 70
     1
102
RTVSPost2010Prop32
280
     0
102
RTVSPost2010PropOp32
 70
     1
102
RTVSPost2010Prop33
280
     0
102
RTVSPost2010PropOp33
 70
     1
102
RTVSPost2010Prop34
280
     0
102
RTVSPost2010PropOp34
 70
     1
102
RTVSPost2010Prop35
280
     0
102
RTVSPost2010PropOp35
 70
     1
102
RTVSPost2010Prop36
280
     0
102
RTVSPost2010PropOp36
 70
     1
102
RTVSPost2010Prop37
 90
       50
102
RTVSPost2010PropOp37
 70
     1
102
RTVSPost2010Prop38
140
0.0
102
RTVSPost2010PropOp38
 70
     1
102
RTVSPost2010Prop39
140
1.0
102
RTVSPost2010PropOp39
 70
     1
102
RTVSPost2010Prop40
 90
        0
102
RTVSPost2010PropOp40
 70
     1
102
RTVSPost2010Prop41ColorIndex
 90
       18
102
RTVSPost2010Prop41ColorRGB
 90
        0
102
RTVSPost2010PropOp41
 70
     1
102
RTVSPost2010Prop42
 90
       50
102
RTVSPost2010PropOp42
 70
     1
102
RTVSPost2010Prop43
 90
        3
102
RTVSPost2010PropOp43
 70
     1
102
RTVSPost2010Prop44ColorIndex
 90
        5
102
RTVSPost2010Prop44ColorRGB
 90
      255
102
RTVSPost2010PropOp44
 70
     1
102
RTVSPost2010Prop45
280
     0
102
RTVSPost2010PropOp45
 70
     1
102
RTVSPost2010Prop46
 90
       50
102
RTVSPost2010PropOp46
 70
     1
102
RTVSPost2010Prop47
 90
       50
102
RTVSPost2010PropOp47
 70
     1
102
RTVSPost2010Prop48
 90
       50
102
RTVSPost2010PropOp48
 70
     1
102
RTVSPost2010Prop49
280
     0
102
RTVSPost2010PropOp49
 70
     1
102
RTVSPost2010Prop50
 90
       50
102
RTVSPost2010PropOp50
 70
     1
102
RTVSPost2010Prop51ColorIndex
 90
      256
102
RTVSPost2010Prop51ColorRGB
 90
-16777216
102
RTVSPost2010PropOp51
 70
     0
102
RTVSPost2010Prop52
140
1.0
102
RTVSPost2010PropOp52
 70
     0
102
RTVSPost2010Prop53
 90
        2
102
RTVSPost2010PropOp53
 70
     1
102
RTVSPost2010Prop54
  1
strokes_ogs.tif
102
RTVSPost2010PropOp54
 70
     1
102
RTVSPost2010Prop55
280
     0
102
RTVSPost2010PropOp55
 70
     1
102
RTVSPost2010Prop56
140
1.0
102
RTVSPost2010PropOp56
 70
     1
102
RTVSPost2010Prop57
140
1.0
102
RTVSPost2010PropOp57
 70
     1
  0
XRECORD
  5
B7
102
{ACAD_REACTORS
330
B6
102
}
330
B6
100
AcDbXrecord
280
     1
102
RTVSPropertyOp0
 70
     1
102
RTVSPropertyOp1
 70
     1
102
RTVSPropertyOp2
 70
     1
102
RTVSPropertyOp3
 70
     1
102
RTVSPropertyOp4
 70
     1
102
RTVSPropertyOp5
 70
     1
102
RTVSPropertyOp6
 70
     1
102
RTVSPropertyOp7
 70
     1
102
RTVSPropertyOp8
 70
     1
102
RTVSPropertyOp9
 70
     1
102
RTVSPropertyOp10
 70
     1
102
RTVSPropertyOp11
 70
     1
102
RTVSPropertyOp12
 70
     1
102
RTVSPropertyOp13
 70
     1
102
RTVSPropertyOp14
 70
     1
102
RTVSPropertyOp15
 70
     1
102
RTVSPropertyOp16
 70
     1
102
RTVSPropertyOp17
 70
     1
102
RTVSPropertyOp18
 70
     1
102
RTVSPropertyOp19
 70
     1
102
RTVSPropertyOp20
 70
     1
102
RTVSPropertyOp21
 70
     1
102
RTVSPropertyOp22
 70
     1
102
RTVSPropertyOp23
 70
     1
102
RTVSPropertyOp24
 70
     1
102
RTVSPropertyOp25
 70
     1
102
RTVSPropertyOp26
 70
     1
102
RTVSPropertyOp27
 70
     1
102
RTVSPropertyOp28
 70
     1
102
RTVSPropertyOp29
 70
     1
102
RTVSPropertyOp30
 70
     1
102
RTVSPropertyOp31
 70
     1
102
RTVSPropertyOp32
 70
     1
102
RTVSPropertyOp33
 70
     1
102
RTVSPropertyOp34
 70
     1
102
RTVSPropertyOp35
 70
     1
102
RTVSPropertyOp36
 70
     1
102
RTVSPropertyOp37
 70
     1
102
RTVSPropertyOp38
 70
     1
102
RTVSPropertyOp39
 70
     1
102
RTVSPropertyOp40
 70
     1
102
RTVSPropertyOp41
 70
     1
102
RTVSPropertyOp42
 70
     1
102
RTVSPropertyOp43
 70
     1
102
RTVSPropertyOp44
 70
     1
102
RTVSPropertyOp45
 70
     1
102
RTVSPropertyOp46
 70
     1
102
RTVSPropertyOp47
 70
     1
102
RTVSPropertyOp48
 70
     1
102
RTVSPropertyOp49
 70
     1
102
RTVSPropertyOp50
 70
     1
102
RTVSPropertyOp51
 70
     0
102
RTVSPropertyOp52
 70
     0
102
RTVSPropertyOp53
 70
     1
102
RTVSPropertyOp54
 70
     1
102
RTVSPropertyOp55
 70
     1
102
RTVSPropertyOp56
 70
     1
102
RTVSPropertyOp57
 70
     1
102
RTVSPost2010Prop28
280
     0
102
RTVSPost2010PropOp28
 70
     1
102
RTVSPost2010Prop29
280
     1
102
RTVSPost2010PropOp29
 70
     1
102
RTVSPost2010Prop30
280
     1
102
RTVSPost2010PropOp30
 70
     1
102
RTVSPost2010Prop31
280
     0
102
RTVSPost2010PropOp31
 70
     1
102
RTVSPost2010Prop32
280
     0
102
RTVSPost2010PropOp32
 70
     1
102
RTVSPost2010Prop33
280
     0
102
RTVSPost2010PropOp33
 70
     1
102
RTVSPost2010Prop34
280
     0
102
RTVSPost2010PropOp34
 70
     1
102
RTVSPost2010Prop35
280
     0
102
RTVSPost2010PropOp35
 70
     1
102
RTVSPost2010Prop36
280
     0
102
RTVSPost2010PropOp36
 70
     1
102
RTVSPost2010Prop37
 90
       50
102
RTVSPost2010PropOp37
 70
     1
102
RTVSPost2010Prop38
140
0.0
102
RTVSPost2010PropOp38
 70
     1
102
RTVSPost2010Prop39
140
1.0
102
RTVSPost2010PropOp39
 70
     1
102
RTVSPost2010Prop40
 90
        0
102
RTVSPost2010PropOp40
 70
     1
102
RTVSPost2010Prop41ColorIndex
 90
       18
102
RTVSPost2010Prop41ColorRGB
 90
        0
102
RTVSPost2010PropOp41
 70
     1
102
RTVSPost2010Prop42
 90
       50
102
RTVSPost2010PropOp42
 70
     1
102
RTVSPost2010Prop43
 90
        3
102
RTVSPost2010PropOp43
 70
     1
102
RTVSPost2010Prop44ColorIndex
 90
        5
102
RTVSPost2010Prop44ColorRGB
 90
      255
102
RTVSPost2010PropOp44
 70
     1
102
RTVSPost2010Prop45
280
     0
102
RTVSPost2010PropOp45
 70
     1
102
RTVSPost2010Prop46
 90
       50
102
RTVSPost2010PropOp46
 70
     1
102
RTVSPost2010Prop47
 90
       50
102
RTVSPost2010PropOp47
 70
     1
102
RTVSPost2010Prop48
 90
       50
102
RTVSPost2010PropOp48
 70
     1
102
RTVSPost2010Prop49
280
     0
102
RTVSPost2010PropOp49
 70
     1
102
RTVSPost2010Prop50
 90
       50
102
RTVSPost2010PropOp50
 70
     1
102
RTVSPost2010Prop51ColorIndex
 90
      256
102
RTVSPost2010Prop51ColorRGB
 90
-16777216
102
RTVSPost2010PropOp51
 70
     0
102
RTVSPost2010Prop52
140
1.0
102
RTVSPost2010PropOp52
 70
     0
102
RTVSPost2010Prop53
 90
        2
102
RTVSPost2010PropOp53
 70
     1
102
RTVSPost2010Prop54
  1
strokes_ogs.tif
102
RTVSPost2010PropOp54
 70
     1
102
RTVSPost2010Prop55
280
     0
102
RTVSPost2010PropOp55
 70
     1
102
RTVSPost2010Prop56
140
1.0
102
RTVSPost2010PropOp56
 70
     1
102
RTVSPost2010Prop57
140
1.0
102
RTVSPost2010PropOp57
 70
     1
  0
XRECORD
  5
D7
102
{ACAD_REACTORS
330
D6
102
}
330
D6
100
AcDbXrecord
280
     1
102
RTVSPropertyOp0
 70
     1
102
RTVSPropertyOp1
 70
     1
102
RTVSPropertyOp2
 70
     1
102
RTVSPropertyOp3
 70
     1
102
RTVSPropertyOp4
 70
     1
102
RTVSPropertyOp5
 70
     1
102
RTVSPropertyOp6
 70
     1
102
RTVSPropertyOp7
 70
     1
102
RTVSPropertyOp8
 70
     1
102
RTVSPropertyOp9
 70
     1
102
RTVSPropertyOp10
 70
     1
102
RTVSPropertyOp11
 70
     1
102
RTVSPropertyOp12
 70
     1
102
RTVSPropertyOp13
 70
     1
102
RTVSPropertyOp14
 70
     1
102
RTVSPropertyOp15
 70
     1
102
RTVSPropertyOp16
 70
     1
102
RTVSPropertyOp17
 70
     1
102
RTVSPropertyOp18
 70
     1
102
RTVSPropertyOp19
 70
     1
102
RTVSPropertyOp20
 70
     1
102
RTVSPropertyOp21
 70
     1
102
RTVSPropertyOp22
 70
     1
102
RTVSPropertyOp23
 70
     1
102
RTVSPropertyOp24
 70
     1
102
RTVSPropertyOp25
 70
     1
102
RTVSPropertyOp26
 70
     1
102
RTVSPropertyOp27
 70
     1
102
RTVSPropertyOp28
 70
     1
102
RTVSPropertyOp29
 70
     1
102
RTVSPropertyOp30
 70
     1
102
RTVSPropertyOp31
 70
     1
102
RTVSPropertyOp32
 70
     1
102
RTVSPropertyOp33
 70
     1
102
RTVSPropertyOp34
 70
     1
102
RTVSPropertyOp35
 70
     1
102
RTVSPropertyOp36
 70
     1
102
RTVSPropertyOp37
 70
     1
102
RTVSPropertyOp38
 70
     1
102
RTVSPropertyOp39
 70
     1
102
RTVSPropertyOp40
 70
     1
102
RTVSPropertyOp41
 70
     1
102
RTVSPropertyOp42
 70
     1
102
RTVSPropertyOp43
 70
     1
102
RTVSPropertyOp44
 70
     1
102
RTVSPropertyOp45
 70
     1
102
RTVSPropertyOp46
 70
     1
102
RTVSPropertyOp47
 70
     1
102
RTVSPropertyOp48
 70
     1
102
RTVSPropertyOp49
 70
     1
102
RTVSPropertyOp50
 70
     1
102
RTVSPropertyOp51
 70
     0
102
RTVSPropertyOp52
 70
     0
102
RTVSPropertyOp53
 70
     1
102
RTVSPropertyOp54
 70
     1
102
RTVSPropertyOp55
 70
     1
102
RTVSPropertyOp56
 70
     1
102
RTVSPropertyOp57
 70
     1
102
RTVSPost2010Prop28
280
     0
102
RTVSPost2010PropOp28
 70
     1
102
RTVSPost2010Prop29
280
     1
102
RTVSPost2010PropOp29
 70
     1
102
RTVSPost2010Prop30
280
     1
102
RTVSPost2010PropOp30
 70
     1
102
RTVSPost2010Prop31
280
     0
102
RTVSPost2010PropOp31
 70
     1
102
RTVSPost2010Prop32
280
     0
102
RTVSPost2010PropOp32
 70
     1
102
RTVSPost2010Prop33
280
     0
102
RTVSPost2010PropOp33
 70
     1
102
RTVSPost2010Prop34
280
     0
102
RTVSPost2010PropOp34
 70
     1
102
RTVSPost2010Prop35
280
     0
102
RTVSPost2010PropOp35
 70
     1
102
RTVSPost2010Prop36
280
     0
102
RTVSPost2010PropOp36
 70
     1
102
RTVSPost2010Prop37
 90
       50
102
RTVSPost2010PropOp37
 70
     1
102
RTVSPost2010Prop38
140
0.0
102
RTVSPost2010PropOp38
 70
     1
102
RTVSPost2010Prop39
140
1.0
102
RTVSPost2010PropOp39
 70
     1
102
RTVSPost2010Prop40
 90
        0
102
RTVSPost2010PropOp40
 70
     1
102
RTVSPost2010Prop41ColorIndex
 90
       18
102
RTVSPost2010Prop41ColorRGB
 90
        0
102
RTVSPost2010PropOp41
 70
     1
102
RTVSPost2010Prop42
 90
       50
102
RTVSPost2010PropOp42
 70
     1
102
RTVSPost2010Prop43
 90
        3
102
RTVSPost2010PropOp43
 70
     1
102
RTVSPost2010Prop44ColorIndex
 90
        5
102
RTVSPost2010Prop44ColorRGB
 90
      255
102
RTVSPost2010PropOp44
 70
     1
102
RTVSPost2010Prop45
280
     0
102
RTVSPost2010PropOp45
 70
     1
102
RTVSPost2010Prop46
 90
       50
102
RTVSPost2010PropOp46
 70
     1
102
RTVSPost2010Prop47
 90
       50
102
RTVSPost2010PropOp47
 70
     1
102
RTVSPost2010Prop48
 90
       50
102
RTVSPost2010PropOp48
 70
     1
102
RTVSPost2010Prop49
280
     0
102
RTVSPost2010PropOp49
 70
     1
102
RTVSPost2010Prop50
 90
       50
102
RTVSPost2010PropOp50
 70
     1
102
RTVSPost2010Prop51ColorIndex
 90
      256
102
RTVSPost2010Prop51ColorRGB
 90
-16777216
102
RTVSPost2010PropOp51
 70
     0
102
RTVSPost2010Prop52
140
1.0
102
RTVSPost2010PropOp52
 70
     0
102
RTVSPost2010Prop53
 90
        2
102
RTVSPost2010PropOp53
 70
     1
102
RTVSPost2010Prop54
  1
strokes_ogs.tif
102
RTVSPost2010PropOp54
 70
     1
102
RTVSPost2010Prop55
280
     0
102
RTVSPost2010PropOp55
 70
     1
102
RTVSPost2010Prop56
140
1.0
102
RTVSPost2010PropOp56
 70
     1
102
RTVSPost2010Prop57
140
1.0
102
RTVSPost2010PropOp57
 70
     1
  0
ENDSEC
  0
EOF
