  0
SECTION
  2
HEADER
  9
$ACADVER
  1
AC1018
  9
$ACADMAINTVER
 70
     0
  9
$DWGCODEPAGE
  3
ANSI_1252
  9
$INSBASE
 10
0.0
 20
0.0
 30
0.0
  9
$EXTMIN
 10
-31.49610135995636
 20
-0.0000526687905271
 30
0.0
  9
$EXTMAX
 10
72.75394287668519
 20
72.88583370898762
 30
0.0
  9
$LIMMIN
 10
0.0
 20
0.0
  9
$LIMMAX
 10
12.0
 20
9.0
  9
$ORTHOMODE
 70
     0
  9
$REGENMODE
 70
     1
  9
$FILLMODE
 70
     1
  9
$QTEXTMODE
 70
     0
  9
$MIRRTEXT
 70
     1
  9
$LTSCALE
 40
0.0393700787401575
  9
$ATTMODE
 70
     1
  9
$TEXTSIZE
 40
0.2
  9
$TRACEWID
 40
0.05
  9
$TEXTSTYLE
  7
Standard
  9
$CLAYER
  8
Default
  9
$CELTYPE
  6
ByLayer
  9
$CECOLOR
 62
   256
  9
$CELTSCALE
 40
1.0
  9
$DISPSILH
 70
     0
  9
$DIMSCALE
 40
1.0
  9
$DIMASZ
 40
0.18
  9
$DIMEXO
 40
0.0625
  9
$DIMDLI
 40
0.38
  9
$DIMRND
 40
0.0
  9
$DIMDLE
 40
0.0
  9
$DIMEXE
 40
0.18
  9
$DIMTP
 40
0.0
  9
$DIMTM
 40
0.0
  9
$DIMTXT
 40
0.18
  9
$DIMCEN
 40
0.09
  9
$DIMTSZ
 40
0.0
  9
$DIMTOL
 70
     0
  9
$DIMLIM
 70
     0
  9
$DIMTIH
 70
     1
  9
$DIMTOH
 70
     1
  9
$DIMSE1
 70
     0
  9
$DIMSE2
 70
     0
  9
$DIMTAD
 70
     0
  9
$DIMZIN
 70
     0
  9
$DIMBLK
  1

  9
$DIMASO
 70
     1
  9
$DIMSHO
 70
     1
  9
$DIMPOST
  1

  9
$DIMAPOST
  1

  9
$DIMALT
 70
     0
  9
$DIMALTD
 70
     2
  9
$DIMALTF
 40
25.4
  9
$DIMLFAC
 40
1.0
  9
$DIMTOFL
 70
     0
  9
$DIMTVP
 40
0.0
  9
$DIMTIX
 70
     0
  9
$DIMSOXD
 70
     0
  9
$DIMSAH
 70
     0
  9
$DIMBLK1
  1

  9
$DIMBLK2
  1

  9
$DIMSTYLE
  2
Standard
  9
$DIMCLRD
 70
     0
  9
$DIMCLRE
 70
     0
  9
$DIMCLRT
 70
     0
  9
$DIMTFAC
 40
1.0
  9
$DIMGAP
 40
0.09
  9
$DIMJUST
 70
     0
  9
$DIMSD1
 70
     0
  9
$DIMSD2
 70
     0
  9
$DIMTOLJ
 70
     1
  9
$DIMTZIN
 70
     0
  9
$DIMALTZ
 70
     0
  9
$DIMALTTZ
 70
     0
  9
$DIMUPT
 70
     0
  9
$DIMDEC
 70
     4
  9
$DIMTDEC
 70
     4
  9
$DIMALTU
 70
     2
  9
$DIMALTTD
 70
     2
  9
$DIMTXSTY
  7
Standard
  9
$DIMAUNIT
 70
     0
  9
$DIMADEC
 70
     0
  9
$DIMALTRND
 40
0.0
  9
$DIMAZIN
 70
     0
  9
$DIMDSEP
 70
    46
  9
$DIMATFIT
 70
     3
  9
$DIMFRAC
 70
     0
  9
$DIMLDRBLK
  1

  9
$DIMLUNIT
 70
     2
  9
$DIMLWD
 70
    -2
  9
$DIMLWE
 70
    -2
  9
$DIMTMOVE
 70
     2
  9
$LUNITS
 70
     2
  9
$LUPREC
 70
     3
  9
$SKETCHINC
 40
0.1
  9
$FILLETRAD
 40
0.5
  9
$AUNITS
 70
     0
  9
$AUPREC
 70
     0
  9
$MENU
  1
.
  9
$ELEVATION
 40
0.0
  9
$PELEVATION
 40
0.0
  9
$THICKNESS
 40
0.0
  9
$LIMCHECK
 70
     0
  9
$CHAMFERA
 40
0.5
  9
$CHAMFERB
 40
0.5
  9
$CHAMFERC
 40
1.0
  9
$CHAMFERD
 40
0.0
  9
$SKPOLY
 70
     0
  9
$TDCREATE
 40
2457322.399891979
  9
$TDUCREATE
 40
2457322.566558646
  9
$TDUPDATE
 40
2457322.399891991
  9
$TDUUPDATE
 40
2457322.566558657
  9
$TDINDWG
 40
0.0000000116
  9
$TDUSRTIMER
 40
0.0000000116
  9
$USRTIMER
 70
     1
  9
$ANGBASE
 50
0.0
  9
$ANGDIR
 70
     0
  9
$PDMODE
 70
     0
  9
$PDSIZE
 40
0.0
  9
$PLINEWID
 40
0.0
  9
$SPLFRAME
 70
     0
  9
$SPLINETYPE
 70
     6
  9
$SPLINESEGS
 70
     8
  9
$HANDSEED
  5
9D
  9
$SURFTAB1
 70
     6
  9
$SURFTAB2
 70
     6
  9
$SURFTYPE
 70
     6
  9
$SURFU
 70
     6
  9
$SURFV
 70
     6
  9
$UCSBASE
  2

  9
$UCSNAME
  2

  9
$UCSORG
 10
0.0
 20
0.0
 30
0.0
  9
$UCSXDIR
 10
1.0
 20
0.0
 30
0.0
  9
$UCSYDIR
 10
0.0
 20
1.0
 30
0.0
  9
$UCSORTHOREF
  2

  9
$UCSORTHOVIEW
 70
     0
  9
$UCSORGTOP
 10
0.0
 20
0.0
 30
0.0
  9
$UCSORGBOTTOM
 10
0.0
 20
0.0
 30
0.0
  9
$UCSORGLEFT
 10
0.0
 20
0.0
 30
0.0
  9
$UCSORGRIGHT
 10
0.0
 20
0.0
 30
0.0
  9
$UCSORGFRONT
 10
0.0
 20
0.0
 30
0.0
  9
$UCSORGBACK
 10
0.0
 20
0.0
 30
0.0
  9
$PUCSBASE
  2

  9
$PUCSNAME
  2

  9
$PUCSORG
 10
0.0
 20
0.0
 30
0.0
  9
$PUCSXDIR
 10
1.0
 20
0.0
 30
0.0
  9
$PUCSYDIR
 10
0.0
 20
1.0
 30
0.0
  9
$PUCSORTHOREF
  2

  9
$PUCSORTHOVIEW
 70
     0
  9
$PUCSORGTOP
 10
0.0
 20
0.0
 30
0.0
  9
$PUCSORGBOTTOM
 10
0.0
 20
0.0
 30
0.0
  9
$PUCSORGLEFT
 10
0.0
 20
0.0
 30
0.0
  9
$PUCSORGRIGHT
 10
0.0
 20
0.0
 30
0.0
  9
$PUCSORGFRONT
 10
0.0
 20
0.0
 30
0.0
  9
$PUCSORGBACK
 10
0.0
 20
0.0
 30
0.0
  9
$USERI1
 70
     0
  9
$USERI2
 70
     0
  9
$USERI3
 70
     0
  9
$USERI4
 70
     0
  9
$USERI5
 70
     0
  9
$USERR1
 40
0.0
  9
$USERR2
 40
0.0
  9
$USERR3
 40
0.0
  9
$USERR4
 40
0.0
  9
$USERR5
 40
0.0
  9
$WORLDVIEW
 70
     1
  9
$SHADEDGE
 70
     3
  9
$SHADEDIF
 70
    70
  9
$TILEMODE
 70
     1
  9
$MAXACTVP
 70
    64
  9
$PINSBASE
 10
0.0
 20
0.0
 30
0.0
  9
$PLIMCHECK
 70
     0
  9
$PEXTMIN
 10
1.000000000000000E+20
 20
1.000000000000000E+20
 30
1.000000000000000E+20
  9
$PEXTMAX
 10
-1.000000000000000E+20
 20
-1.000000000000000E+20
 30
-1.000000000000000E+20
  9
$PLIMMIN
 10
0.0
 20
0.0
  9
$PLIMMAX
 10
12.0
 20
9.0
  9
$UNITMODE
 70
     0
  9
$VISRETAIN
 70
     1
  9
$PLINEGEN
 70
     0
  9
$PSLTSCALE
 70
     1
  9
$TREEDEPTH
 70
  3020
  9
$CMLSTYLE
  2
Standard
  9
$CMLJUST
 70
     0
  9
$CMLSCALE
 40
1.0
  9
$PROXYGRAPHICS
 70
     1
  9
$MEASUREMENT
 70
     0
  9
$CELWEIGHT
370
    -1
  9
$ENDCAPS
280
     0
  9
$JOINSTYLE
280
     0
  9
$LWDISPLAY
290
     0
  9
$INSUNITS
 70
     1
  9
$HYPERLINKBASE
  1

  9
$STYLESHEET
  1

  9
$XEDIT
290
     1
  9
$CEPSNTYPE
380
     0
  9
$PSTYLEMODE
290
     1
  9
$FINGERPRINTGUID
  2
{EC9893F5-6717-4B7A-BCCE-C16714B0C75E}
  9
$VERSIONGUID
  2
{FAEB1C32-E019-11D5-929B-00C0DF256EC4}
  9
$EXTNAMES
290
     1
  9
$PSVPSCALE
 40
0.0
  9
$OLESTARTUP
290
     0
  9
$SORTENTS
280
   127
  9
$INDEXCTL
280
     0
  9
$HIDETEXT
280
     1
  9
$XCLIPFRAME
290
     0
  9
$HALOGAP
280
     0
  9
$OBSCOLOR
 70
   257
  9
$OBSLTYPE
280
     0
  9
$INTERSECTIONDISPLAY
280
     0
  9
$INTERSECTIONCOLOR
 70
   257
  9
$DIMASSOC
280
     2
  9
$PROJECTNAME
  1

  0
ENDSEC
  0
SECTION
  2
CLASSES
  0
CLASS
  1
ACDBDICTIONARYWDFLT
  2
AcDbDictionaryWithDefault
  3
ObjectDBX Classes
 90
        0
 91
        4
280
     0
281
     0
  0
CLASS
  1
VISUALSTYLE
  2
AcDbVisualStyle
  3
ObjectDBX Classes
 90
     4095
 91
        4
280
     0
281
     0
  0
ENDSEC
  0
SECTION
  2
TABLES
  0
TABLE
  2
VPORT
  5
8
330
0
100
AcDbSymbolTable
 70
     1
  0
VPORT
  5
29
330
8
100
AcDbSymbolTableRecord
100
AcDbViewportTableRecord
  2
*Active
 70
     0
 10
0.0
 20
0.0
 11
1.0
 21
1.0
 12
20.62892075836442
 22
36.44289052009854
 13
0.0
 23
0.0
 14
0.5
 24
0.5
 15
0.5
 25
0.5
 16
0.0
 26
0.0
 36
1.0
 17
0.0
 27
0.0
 37
0.0
 40
74.34360410533371
 41
1.430318672346226
 42
50.0
 43
0.0
 44
0.0
 50
0.0
 51
0.0
 71
     0
 72
   100
 73
     1
 74
     3
 75
     0
 76
     0
 77
     0
 78
     0
281
     0
 65
     1
110
0.0
120
0.0
130
0.0
111
1.0
121
0.0
131
0.0
112
0.0
122
1.0
132
0.0
 79
     0
146
0.0
  0
ENDTAB
  0
TABLE
  2
LTYPE
  5
5
330
0
100
AcDbSymbolTable
 70
     1
  0
LTYPE
  5
14
330
5
100
AcDbSymbolTableRecord
100
AcDbLinetypeTableRecord
  2
ByBlock
 70
     0
  3

 72
    65
 73
     0
 40
0.0
  0
LTYPE
  5
15
330
5
100
AcDbSymbolTableRecord
100
AcDbLinetypeTableRecord
  2
ByLayer
 70
     0
  3

 72
    65
 73
     0
 40
0.0
  0
LTYPE
  5
16
330
5
100
AcDbSymbolTableRecord
100
AcDbLinetypeTableRecord
  2
Continuous
 70
     0
  3
Solid line
 72
    65
 73
     0
 40
0.0
  0
ENDTAB
  0
TABLE
  2
LAYER
  5
2
330
0
100
AcDbSymbolTable
 70
     2
  0
LAYER
  5
10
330
2
100
AcDbSymbolTableRecord
100
AcDbLayerTableRecord
  2
0
 70
     0
 62
     7
  6
Continuous
370
    -3
390
F
  0
LAYER
  5
3B
330
2
100
AcDbSymbolTableRecord
100
AcDbLayerTableRecord
  2
Default
 70
     0
 62
     7
  6
Continuous
370
    -3
390
F
  0
ENDTAB
  0
TABLE
  2
STYLE
  5
3
330
0
100
AcDbSymbolTable
 70
     1
  0
STYLE
  5
11
330
3
100
AcDbSymbolTableRecord
100
AcDbTextStyleTableRecord
  2
Standard
 70
     0
 40
0.0
 41
1.0
 50
0.0
 71
     0
 42
0.2
  3
txt
  4

  0
ENDTAB
  0
TABLE
  2
VIEW
  5
6
330
0
100
AcDbSymbolTable
 70
     0
  0
ENDTAB
  0
TABLE
  2
UCS
  5
7
330
0
100
AcDbSymbolTable
 70
     0
  0
ENDTAB
  0
TABLE
  2
APPID
  5
9
330
0
100
AcDbSymbolTable
 70
     1
  0
APPID
  5
12
330
9
100
AcDbSymbolTableRecord
100
AcDbRegAppTableRecord
  2
ACAD
 70
     0
  0
ENDTAB
  0
TABLE
  2
DIMSTYLE
  5
A
330
0
100
AcDbSymbolTable
 70
     1
100
AcDbDimStyleTable
  0
DIMSTYLE
105
27
330
A
100
AcDbSymbolTableRecord
100
AcDbDimStyleTableRecord
  2
Standard
 70
     0
340
11
  0
ENDTAB
  0
TABLE
  2
BLOCK_RECORD
  5
1
330
0
100
AcDbSymbolTable
 70
     1
  0
BLOCK_RECORD
  5
1F
330
1
100
AcDbSymbolTableRecord
100
AcDbBlockTableRecord
  2
*Model_Space
340
22
  0
BLOCK_RECORD
  5
1B
330
1
100
AcDbSymbolTableRecord
100
AcDbBlockTableRecord
  2
*Paper_Space
340
1E
  0
BLOCK_RECORD
  5
23
330
1
100
AcDbSymbolTableRecord
100
AcDbBlockTableRecord
  2
*Paper_Space0
340
26
  0
ENDTAB
  0
ENDSEC
  0
SECTION
  2
BLOCKS
  0
BLOCK
  5
20
330
1F
100
AcDbEntity
  8
0
100
AcDbBlockBegin
  2
*Model_Space
 70
     0
 10
0.0
 20
0.0
 30
0.0
  3
*Model_Space
  1

  0
ENDBLK
  5
21
330
1F
100
AcDbEntity
  8
0
100
AcDbBlockEnd
  0
BLOCK
  5
1C
330
1B
100
AcDbEntity
 67
     1
  8
0
100
AcDbBlockBegin
  2
*Paper_Space
 70
     0
 10
0.0
 20
0.0
 30
0.0
  3
*Paper_Space
  1

  0
ENDBLK
  5
1D
330
1B
100
AcDbEntity
 67
     1
  8
0
100
AcDbBlockEnd
  0
BLOCK
  5
24
330
23
100
AcDbEntity
  8
0
100
AcDbBlockBegin
  2
*Paper_Space0
 70
     0
 10
0.0
 20
0.0
 30
0.0
  3
*Paper_Space0
  1

  0
ENDBLK
  5
25
330
23
100
AcDbEntity
  8
0
100
AcDbBlockEnd
  0
ENDSEC
  0
SECTION
  2
ENTITIES
  0
SPLINE
  5
3C
330
1F
100
AcDbEntity
  8
Default
100
AcDbSpline
210
0.0
220
0.0
230
1.0
 70
    24
 71
     2
 72
     6
 73
     3
 74
     0
 42
0.0000000001
 43
0.0000000001
 40
0.0
 40
0.0
 40
0.0
 40
1.0
 40
1.0
 40
1.0
 10
23.75392564369008
 20
52.63977932543686
 30
0.0
 10
24.25392564369008
 20
52.63977932543686
 30
0.0
 10
24.75392564369008
 20
52.63977932543686
 30
0.0
  0
SPLINE
  5
3D
330
1F
100
AcDbEntity
  8
Default
100
AcDbSpline
210
0.0
220
0.0
230
1.0
 70
    24
 71
     2
 72
     6
 73
     3
 74
     0
 42
0.0000000001
 43
0.0000000001
 40
-10.03937007878633
 40
-10.03937007878633
 40
-10.03937007878633
 40
0.0
 40
0.0
 40
0.0
 10
51.12992762409795
 20
11.02363125427577
 30
0.0
 10
51.12992762409806
 20
6.00394576592841
 30
0.0
 10
51.12992762409817
 20
0.984260277581047
 30
0.0
  0
SPLINE
  5
3E
330
1F
100
AcDbEntity
  8
Default
100
AcDbSpline
210
0.0
220
0.0
230
1.0
 70
    12
 71
     2
 72
    12
 73
     9
 74
     0
 42
0.0000000001
 43
0.0000000001
 40
0.0
 40
0.0
 40
0.0
 40
0.7730450936832355
 40
0.7730450936832355
 40
1.546090187366471
 40
1.546090187366471
 40
2.319135281049706
 40
2.319135281049706
 40
3.092180374732942
 40
3.092180374732942
 40
3.092180374732942
 10
51.12992762409817
 20
0.984260277581047
 30
0.0
 41
1.0
 10
51.12994038469904
 20
0.5765598415026997
 30
0.0
 41
0.9238765377170371
 10
50.84165778747706
 20
0.2882682222596209
 30
0.0
 41
1.0
 10
50.5533751902549
 20
-0.0000233969833979
 30
0.0
 41
0.9238765377170371
 10
50.14567565188509
 20
-0.0000233954466857
 30
0.0
 41
1.0
 10
49.73797611351542
 20
-0.0000233939098745
 30
0.0
 41
0.9238765377170371
 10
49.4496935184668
 20
0.2882682275064958
 30
0.0
 41
1.0
 10
49.16141092341828
 20
0.5765598489229262
 30
0.0
 41
0.9238765377170371
 10
49.16142368709143
 20
0.9842602812913874
 30
0.0
 41
1.0
  0
SPLINE
  5
3F
330
1F
100
AcDbEntity
  8
Default
100
AcDbSpline
210
0.0
220
0.0
230
1.0
 70
    24
 71
     2
 72
     6
 73
     3
 74
     0
 42
0.0000000001
 43
0.0000000001
 40
0.0
 40
0.0
 40
0.0
 40
10.03937007878576
 40
10.03937007878576
 40
10.03937007878576
 10
49.16142368709143
 20
0.9842602812913874
 30
0.0
 10
49.16142368709075
 20
6.003945767783581
 30
0.0
 10
49.16142368709006
 20
11.02363125427577
 30
0.0
  0
SPLINE
  5
40
330
1F
100
AcDbEntity
  8
Default
100
AcDbSpline
210
0.0
220
0.0
230
1.0
 70
    24
 71
     2
 72
     6
 73
     3
 74
     0
 42
0.0000000001
 43
0.0000000001
 40
0.0
 40
0.0
 40
0.0
 40
1.0
 40
1.0
 40
1.0
 10
24.75392564369008
 20
64.45080294748409
 30
0.0
 10
24.25392564369008
 20
64.45080294748409
 30
0.0
 10
23.75392564369008
 20
64.45080294748409
 30
0.0
  0
SPLINE
  5
41
330
1F
100
AcDbEntity
  8
Default
100
AcDbSpline
210
0.0
220
0.0
230
1.0
 70
    24
 71
     2
 72
     6
 73
     3
 74
     0
 42
0.0000000001
 43
0.0000000001
 40
0.0
 40
0.0
 40
0.0
 40
1.0
 40
1.0
 40
1.0
 10
24.75392564369008
 20
63.66340137268095
 30
0.0
 10
24.25392564369008
 20
63.66340137268095
 30
0.0
 10
23.75392564369008
 20
63.66340137268095
 30
0.0
  0
SPLINE
  5
42
330
1F
100
AcDbEntity
  8
Default
100
AcDbSpline
210
0.0
220
0.0
230
1.0
 70
    24
 71
     2
 72
     6
 73
     3
 74
     0
 42
0.0000000001
 43
0.0000000001
 40
0.0
 40
0.0
 40
0.0
 40
0.5
 40
0.5
 40
0.5
 10
-21.6535319512825
 20
65.63583370898756
 30
0.0
 10
-21.6535319512825
 20
65.88583370898756
 30
0.0
 10
-21.6535319512825
 20
66.13583370898756
 30
0.0
  0
SPLINE
  5
43
330
1F
100
AcDbEntity
  8
Default
100
AcDbSpline
210
0.0
220
0.0
230
1.0
 70
    24
 71
     2
 72
     6
 73
     3
 74
     0
 42
0.0000000001
 43
0.0000000001
 40
0.0
 40
0.0
 40
0.0
 40
0.5
 40
0.5
 40
0.5
 10
22.44095623738167
 20
65.63583370898762
 30
0.0
 10
22.44095623738167
 20
65.88583370898762
 30
0.0
 10
22.44095623738167
 20
66.13583370898762
 30
0.0
  0
SPLINE
  5
44
330
1F
100
AcDbEntity
  8
Default
100
AcDbSpline
210
0.0
220
0.0
230
1.0
 70
    24
 71
     2
 72
     6
 73
     3
 74
     0
 42
0.0000000001
 43
0.0000000001
 40
0.0
 40
0.0
 40
0.0
 40
0.3937007874016096
 40
0.3937007874016096
 40
0.3937007874016096
 10
28.46455557401919
 20
12.99210591793976
 30
0.0
 10
28.46455557401919
 20
13.18895631164056
 30
0.0
 10
28.46455557401919
 20
13.38580670534136
 30
0.0
  0
SPLINE
  5
45
330
1F
100
AcDbEntity
  8
Default
100
AcDbSpline
210
0.0
220
0.0
230
1.0
 70
    24
 71
     2
 72
     6
 73
     3
 74
     0
 42
0.0000000001
 43
0.0000000001
 40
0.0
 40
0.0
 40
0.0
 40
2.397067146693189
 40
2.397067146693189
 40
2.397067146693189
 10
23.03153012978055
 20
13.38580670534136
 30
0.0
 10
24.23006370312714
 20
13.38580670534136
 30
0.0
 10
25.42859727647374
 20
13.38580670534136
 30
0.0
  0
SPLINE
  5
46
330
1F
100
AcDbEntity
  8
Default
100
AcDbSpline
210
0.0
220
0.0
230
1.0
 70
    24
 71
     2
 72
     6
 73
     3
 74
     0
 42
0.0000000001
 43
0.0000000001
 40
0.0
 40
0.0
 40
0.0
 40
2.362204724409445
 40
2.362204724409445
 40
2.362204724409445
 10
21.06302619277267
 20
11.02360198093193
 30
0.0
 10
21.06302619277267
 20
12.20470434313664
 30
0.0
 10
21.06302619277267
 20
13.38580670534136
 30
0.0
  0
SPLINE
  5
47
330
1F
100
AcDbEntity
  8
Default
100
AcDbSpline
210
0.0
220
0.0
230
1.0
 70
    24
 71
     2
 72
     6
 73
     3
 74
     0
 42
0.0000000001
 43
0.0000000001
 40
0.0
 40
0.0
 40
0.0
 40
5.755559983968134
 40
5.755559983968134
 40
5.755559983968134
 10
23.03153012978055
 20
11.09244667183511
 30
0.0
 10
25.74804285189987
 20
12.04227629488743
 30
0.0
 10
28.46455557401919
 20
12.99210591793976
 30
0.0
  0
SPLINE
  5
48
330
1F
100
AcDbEntity
  8
Default
100
AcDbSpline
210
0.0
220
0.0
230
1.0
 70
    24
 71
     2
 72
     6
 73
     3
 74
     0
 42
0.0000000001
 43
0.0000000001
 40
0.0
 40
0.0
 40
0.0
 40
1.968503937007881
 40
1.968503937007881
 40
1.968503937007881
 10
23.03150741848413
 20
11.02360198093193
 30
0.0
 10
22.04725544998018
 20
11.02360198093193
 30
0.0
 10
21.06300348147624
 20
11.02360198093193
 30
0.0
  0
ARC
  5
49
330
1F
100
AcDbEntity
  8
Default
100
AcDbCircle
 10
25.50392564367303
 20
14.13577970169498
 30
0.0
 40
0.75
100
AcDbArc
 50
180.0
 51
270.0
  0
SPLINE
  5
4A
330
1F
100
AcDbEntity
  8
Default
100
AcDbSpline
210
0.0
220
0.0
230
1.0
 70
    24
 71
     2
 72
     6
 73
     3
 74
     0
 42
0.0000000001
 43
0.0000000001
 40
0.75
 40
0.75
 40
0.75
 40
6.000000000016986
 40
6.000000000016986
 40
6.000000000016986
 10
25.50392564367303
 20
13.38577970169498
 30
0.0
 10
28.12892564368155
 20
13.38577970169498
 30
0.0
 10
30.75392564369008
 20
13.38577970169498
 30
0.0
  0
ARC
  5
4B
330
1F
100
AcDbEntity
  8
Default
100
AcDbCircle
 10
30.75392564369008
 20
14.13577970169498
 30
0.0
 40
0.75
100
AcDbArc
 50
270.0
 51
0.0
  0
SPLINE
  5
4C
330
1F
100
AcDbEntity
  8
Default
100
AcDbSpline
210
0.0
220
0.0
230
1.0
 70
    24
 71
     2
 72
     6
 73
     3
 74
     0
 42
0.0000000001
 43
0.0000000001
 40
7.500000000016986
 40
7.500000000016986
 40
7.500000000016986
 40
24.25005400730963
 40
24.25005400730963
 40
24.25005400730963
 10
31.50392564369008
 20
14.13577970169498
 30
0.0
 10
31.50392564369008
 20
22.5108067053413
 30
0.0
 10
31.50392564369008
 20
30.88583370898762
 30
0.0
  0
ARC
  5
4D
330
1F
100
AcDbEntity
  8
Default
100
AcDbCircle
 10
30.75392564369008
 20
30.88583370898762
 30
0.0
 40
0.75
100
AcDbArc
 50
0.0
 51
90.0
  0
SPLINE
  5
4E
330
1F
100
AcDbEntity
  8
Default
100
AcDbSpline
210
0.0
220
0.0
230
1.0
 70
    24
 71
     2
 72
     6
 73
     3
 74
     0
 42
0.0000000001
 43
0.0000000001
 40
25.75005400730963
 40
25.75005400730963
 40
25.75005400730963
 40
31.00005400732662
 40
31.00005400732662
 40
31.00005400732662
 10
30.75392564369008
 20
31.63583370898762
 30
0.0
 10
28.12892564368155
 20
31.63583370898762
 30
0.0
 10
25.50392564367303
 20
31.63583370898762
 30
0.0
  0
ARC
  5
4F
330
1F
100
AcDbEntity
  8
Default
100
AcDbCircle
 10
25.50392564367303
 20
30.88583370898762
 30
0.0
 40
0.75
100
AcDbArc
 50
90.0
 51
180.0
  0
SPLINE
  5
50
330
1F
100
AcDbEntity
  8
Default
100
AcDbSpline
210
0.0
220
0.0
230
1.0
 70
    24
 71
     2
 72
     6
 73
     3
 74
     0
 42
0.0000000001
 43
0.0000000001
 40
32.50005400732662
 40
32.50005400732662
 40
32.50005400732662
 40
49.25010801461926
 40
49.25010801461926
 40
49.25010801461926
 10
24.75392564367303
 20
30.88583370898762
 30
0.0
 10
24.75392564367303
 20
22.5108067053413
 30
0.0
 10
24.75392564367303
 20
14.13577970169498
 30
0.0
  0
SPLINE
  5
51
330
1F
100
AcDbEntity
  8
Default
100
AcDbSpline
210
0.0
220
0.0
230
1.0
 70
    24
 71
     2
 72
     6
 73
     3
 74
     0
 42
0.0000000001
 43
0.0000000001
 40
0.0
 40
0.0
 40
0.0
 40
2.362204724409445
 40
2.362204724409445
 40
2.362204724409445
 10
23.03153012978055
 20
13.38580670534136
 30
0.0
 10
23.03153012978055
 20
12.20470434313664
 30
0.0
 10
23.03153012978055
 20
11.02360198093193
 30
0.0
  0
SPLINE
  5
52
330
1F
100
AcDbEntity
  8
Default
100
AcDbSpline
210
0.0
220
0.0
230
1.0
 70
    24
 71
     2
 72
     6
 73
     3
 74
     0
 42
0.0000000001
 43
0.0000000001
 40
0.0
 40
0.0
 40
0.0
 40
42.12600696295243
 40
42.12600696295243
 40
42.12600696295243
 10
21.06300348147624
 20
11.02360198093193
 30
0.0
 10
0.0
 20
11.02360198093193
 30
0.0
 10
-21.06300348147624
 20
11.02360198093193
 30
0.0
  0
SPLINE
  5
53
330
1F
100
AcDbEntity
  8
Default
100
AcDbSpline
210
0.0
220
0.0
230
1.0
 70
    24
 71
     2
 72
     6
 73
     3
 74
     0
 42
0.0000000001
 43
0.0000000001
 40
0.0
 40
0.0
 40
0.0
 40
1.968503937007881
 40
1.968503937007881
 40
1.968503937007881
 10
-23.03150741848413
 20
11.02360198093193
 30
0.0
 10
-22.04725544998018
 20
11.02360198093193
 30
0.0
 10
-21.06300348147624
 20
11.02360198093193
 30
0.0
  0
LINE
  5
54
330
1F
100
AcDbEntity
  8
Default
100
AcDbLine
 10
25.50392564367303
 20
31.63583370898762
 30
0.0
 11
-30.49607435630992
 21
31.63583370898762
 31
0.0
  0
ARC
  5
55
330
1F
100
AcDbEntity
  8
Default
100
AcDbCircle
 10
-30.49607435630992
 20
30.63583370898762
 30
0.0
 40
1.0
100
AcDbArc
 50
90.0
 51
179.9999999999998
  0
LINE
  5
56
330
1F
100
AcDbEntity
  8
Default
100
AcDbLine
 10
-31.49607435630992
 20
30.63583370898762
 30
0.0
 11
-31.49607435630992
 21
17.1358067053413
 31
0.0
  0
SPLINE
  5
57
330
1F
100
AcDbEntity
  8
Default
100
AcDbSpline
210
0.0
220
0.0
230
1.0
 70
    24
 71
     2
 72
     6
 73
     3
 74
     0
 42
0.0000000001
 43
0.0000000001
 40
0.0
 40
0.0
 40
0.0
 40
1.0
 40
1.0
 40
1.0
 10
23.75392564369008
 20
51.85237775063366
 30
0.0
 10
24.25392564369008
 20
51.85237775063366
 30
0.0
 10
24.75392564369008
 20
51.85237775063366
 30
0.0
  0
SPLINE
  5
58
330
1F
100
AcDbEntity
  8
Default
100
AcDbSpline
210
0.0
220
0.0
230
1.0
 70
    24
 71
     2
 72
     6
 73
     3
 74
     0
 42
0.0000000001
 43
0.0000000001
 40
0.0
 40
0.0
 40
0.0
 40
0.5
 40
0.5
 40
0.5
 10
21.6535546625787
 20
65.63583370898762
 30
0.0
 10
21.6535546625787
 20
65.88583370898762
 30
0.0
 10
21.6535546625787
 20
66.13583370898762
 30
0.0
  0
SPLINE
  5
59
330
1F
100
AcDbEntity
  8
Default
100
AcDbSpline
210
0.0
220
0.0
230
1.0
 70
    24
 71
     2
 72
     6
 73
     3
 74
     0
 42
0.0000000001
 43
0.0000000001
 40
0.0
 40
0.0
 40
0.0
 40
2.362204724409445
 40
2.362204724409445
 40
2.362204724409445
 10
-21.06300348147624
 20
13.38580670534136
 30
0.0
 10
-21.06300348147624
 20
12.20470434313664
 30
0.0
 10
-21.06300348147624
 20
11.02360198093193
 30
0.0
  0
SPLINE
  5
5A
330
1F
100
AcDbEntity
  8
Default
100
AcDbSpline
210
0.0
220
0.0
230
1.0
 70
    24
 71
     2
 72
     6
 73
     3
 74
     0
 42
0.0000000001
 43
0.0000000001
 40
0.0
 40
0.0
 40
0.0
 40
2.362204724409445
 40
2.362204724409445
 40
2.362204724409445
 10
51.04775748531006
 20
13.3858359786852
 30
0.0
 10
51.04775748531017
 20
12.20473361648049
 30
0.0
 10
51.04775748531029
 20
11.02363125427577
 30
0.0
  0
SPLINE
  5
5B
330
1F
100
AcDbEntity
  8
Default
100
AcDbSpline
210
0.0
220
0.0
230
1.0
 70
    24
 71
     2
 72
     6
 73
     3
 74
     0
 42
0.0000000001
 43
0.0000000001
 40
-10.03937007878633
 40
-10.03937007878633
 40
-10.03937007878633
 40
0.0
 40
0.0
 40
0.0
 10
23.03153012978055
 20
11.02360198093193
 30
0.0
 10
23.03153012978066
 20
6.003916492584569
 30
0.0
 10
23.03153012978078
 20
0.9842310042372056
 30
0.0
  0
SPLINE
  5
5C
330
1F
100
AcDbEntity
  8
Default
100
AcDbSpline
210
0.0
220
0.0
230
1.0
 70
    12
 71
     2
 72
    12
 73
     9
 74
     0
 42
0.0000000001
 43
0.0000000001
 40
0.0
 40
0.0
 40
0.0
 40
0.7730450936832355
 40
0.7730450936832355
 40
1.546090187366471
 40
1.546090187366471
 40
2.319135281049706
 40
2.319135281049706
 40
3.092180374732942
 40
3.092180374732942
 40
3.092180374732942
 10
23.03153012978078
 20
0.9842310042372056
 30
0.0
 41
1.0
 10
23.03154289038157
 20
0.5765305681588396
 30
0.0
 41
0.9238765377170371
 10
22.74326029315944
 20
0.2882389489157795
 30
0.0
 41
1.0
 10
22.45497769593743
 20
-0.0000526703272579
 30
0.0
 41
0.9238765377170371
 10
22.04727815756769
 20
-0.0000526687905271
 30
0.0
 41
1.0
 10
21.63957861919794
 20
-0.0000526672537346
 30
0.0
 41
0.9238765377170371
 10
21.35129602414941
 20
0.2882389541626544
 30
0.0
 41
1.0
 10
21.06301342910081
 20
0.5765305755790662
 30
0.0
 41
0.9238765377170371
 10
21.06302619277403
 20
0.984231007947546
 30
0.0
 41
1.0
  0
SPLINE
  5
5D
330
1F
100
AcDbEntity
  8
Default
100
AcDbSpline
210
0.0
220
0.0
230
1.0
 70
    24
 71
     2
 72
     6
 73
     3
 74
     0
 42
0.0000000001
 43
0.0000000001
 40
0.0
 40
0.0
 40
0.0
 40
10.03937007878576
 40
10.03937007878576
 40
10.03937007878576
 10
21.06302619277403
 20
0.984231007947546
 30
0.0
 10
21.06302619277335
 20
6.003916494439739
 30
0.0
 10
21.06302619277267
 20
11.02360198093193
 30
0.0
  0
SPLINE
  5
5E
330
1F
100
AcDbEntity
  8
Default
100
AcDbSpline
210
0.0
220
0.0
230
1.0
 70
    24
 71
     2
 72
     6
 73
     3
 74
     0
 42
0.0000000001
 43
0.0000000001
 40
0.0
 40
0.0
 40
0.0
 40
0.5
 40
0.5
 40
0.5
 10
-22.44093352608547
 20
65.63583370898768
 30
0.0
 10
-22.44093352608547
 20
65.88583370898768
 30
0.0
 10
-22.44093352608547
 20
66.13583370898768
 30
0.0
  0
ARC
  5
5F
330
1F
100
AcDbEntity
  8
Default
100
AcDbCircle
 10
-30.49607457178536
 20
47.63583370898762
 30
0.0
 40
1.0
100
AcDbArc
 50
180.0
 51
270.0
  0
SPLINE
  5
60
330
1F
100
AcDbEntity
  8
Default
100
AcDbSpline
210
0.0
220
0.0
230
1.0
 70
    24
 71
     2
 72
     6
 73
     3
 74
     0
 42
0.0000000001
 43
0.0000000001
 40
1.0
 40
1.0
 40
1.0
 40
54.25000043095067
 40
54.25000043095067
 40
54.25000043095067
 10
-30.49607457178536
 20
46.63583370898762
 30
0.0
 10
-3.871074356310032
 20
46.63583370898762
 30
0.0
 10
22.75392585916529
 20
46.63583370898762
 30
0.0
  0
ARC
  5
61
330
1F
100
AcDbEntity
  8
Default
100
AcDbCircle
 10
22.75392585916529
 20
47.63583370898762
 30
0.0
 40
0.9999999999999964
100
AcDbArc
 50
270.0
 51
0.0
  0
SPLINE
  5
62
330
1F
100
AcDbEntity
  8
Default
100
AcDbSpline
210
0.0
220
0.0
230
1.0
 70
    24
 71
     2
 72
     6
 73
     3
 74
     0
 42
0.0000000001
 43
0.0000000001
 40
56.25000043095066
 40
56.25000043095066
 40
56.25000043095066
 40
73.25000064642603
 40
73.25000064642603
 40
73.25000064642603
 10
23.75392585916529
 20
47.63583370898762
 30
0.0
 10
23.75392585916529
 20
56.13583381672531
 30
0.0
 10
23.75392585916529
 20
64.635833924463
 30
0.0
  0
ARC
  5
63
330
1F
100
AcDbEntity
  8
Default
100
AcDbCircle
 10
22.75392585916529
 20
64.635833924463
 30
0.0
 40
1.0
100
AcDbArc
 50
0.0
 51
90.0
  0
SPLINE
  5
64
330
1F
100
AcDbEntity
  8
Default
100
AcDbSpline
210
0.0
220
0.0
230
1.0
 70
    24
 71
     2
 72
     6
 73
     3
 74
     0
 42
0.0000000001
 43
0.0000000001
 40
75.25000064642603
 40
75.25000064642603
 40
75.25000064642603
 40
128.5000010773767
 40
128.5000010773767
 40
128.5000010773767
 10
22.75392585916529
 20
65.635833924463
 30
0.0
 10
-3.871074356310032
 20
65.635833924463
 30
0.0
 10
-30.49607457178536
 20
65.635833924463
 30
0.0
  0
ARC
  5
65
330
1F
100
AcDbEntity
  8
Default
100
AcDbCircle
 10
-30.49607457178536
 20
64.635833924463
 30
0.0
 40
1.0
100
AcDbArc
 50
90.0
 51
180.0
  0
SPLINE
  5
66
330
1F
100
AcDbEntity
  8
Default
100
AcDbSpline
210
0.0
220
0.0
230
1.0
 70
    24
 71
     2
 72
     6
 73
     3
 74
     0
 42
0.0000000001
 43
0.0000000001
 40
130.5000010773767
 40
130.5000010773767
 40
130.5000010773767
 40
147.5000012928521
 40
147.5000012928521
 40
147.5000012928521
 10
-31.49607457178536
 20
64.635833924463
 30
0.0
 10
-31.49607457178536
 20
56.13583381672531
 30
0.0
 10
-31.49607457178536
 20
47.63583370898762
 30
0.0
  0
ARC
  5
67
330
1F
100
AcDbEntity
  8
Default
100
AcDbCircle
 10
25.50392564369008
 20
47.38580670534124
 30
0.0
 40
0.75
100
AcDbArc
 50
180.0
 51
270.0
  0
SPLINE
  5
68
330
1F
100
AcDbEntity
  8
Default
100
AcDbSpline
210
0.0
220
0.0
230
1.0
 70
    12
 71
     2
 72
    10
 73
     7
 74
     0
 42
0.0000000001
 43
0.0000000001
 40
-18.8927260853451
 40
-18.8927260853451
 40
-18.8927260853451
 40
-0.392699081698781
 40
-0.392699081698781
 40
0.0
 40
0.0
 40
55.25002700364627
 40
55.25002700364627
 40
55.25002700364627
 10
24.75392564369008
 20
47.38580670534124
 30
0.0
 41
1.0
 10
24.75392564369008
 20
56.6358202071644
 30
0.0
 41
1.0
 10
24.75392564369008
 20
65.88583370898756
 30
0.0
 41
1.0
 10
24.75392564369009
 20
66.13583370898763
 30
0.0
 41
0.7071067811864672
 10
24.50392564369008
 20
66.13583370898762
 30
0.0
 41
1.0
 10
-3.121087858133023
 20
66.13583370898762
 30
0.0
 41
1.0
 10
-30.74610135995636
 20
66.13583370898762
 30
0.0
 41
1.0
  0
ARC
  5
69
330
1F
100
AcDbEntity
  8
Default
100
AcDbCircle
 10
-30.74610135995636
 20
66.88583370898762
 30
0.0
 40
0.75
100
AcDbArc
 50
180.0
 51
270.0
  0
SPLINE
  5
6A
330
1F
100
AcDbEntity
  8
Default
100
AcDbSpline
210
0.0
220
0.0
230
1.0
 70
    28
 71
     2
 72
     6
 73
     3
 74
     0
 42
0.0000000001
 43
0.0000000001
 40
56.75002700364627
 40
56.75002700364627
 40
56.75002700364627
 40
62.00002700364627
 40
62.00002700364627
 40
62.00002700364627
 10
-31.49610135995636
 20
66.88583370898762
 30
0.0
 41
1.0
 10
-31.49610135995636
 20
69.51083370898762
 30
0.0
 41
1.0
 10
-31.49610135995636
 20
72.13583370898762
 30
0.0
 41
1.0
  0
ARC
  5
6B
330
1F
100
AcDbEntity
  8
Default
100
AcDbCircle
 10
-30.74610135995636
 20
72.13583370898762
 30
0.0
 40
0.75
100
AcDbArc
 50
90.0
 51
180.0
  0
SPLINE
  5
6C
330
1F
100
AcDbEntity
  8
Default
100
AcDbSpline
210
0.0
220
0.0
230
1.0
 70
    28
 71
     2
 72
     6
 73
     3
 74
     0
 42
0.0000000001
 43
0.0000000001
 40
63.50002700364627
 40
63.50002700364627
 40
63.50002700364627
 40
125.0000540073096
 40
125.0000540073096
 40
125.0000540073096
 10
-30.74610135995636
 20
72.88583370898762
 30
0.0
 41
1.0
 10
0.0039121418753894
 20
72.88583370898762
 30
0.0
 41
1.0
 10
30.75392564370713
 20
72.88583370898762
 30
0.0
 41
1.0
  0
ARC
  5
6D
330
1F
100
AcDbEntity
  8
Default
100
AcDbCircle
 10
30.75392564370713
 20
72.13583370898762
 30
0.0
 40
0.75
100
AcDbArc
 50
0.0
 51
90.0
  0
SPLINE
  5
6E
330
1F
100
AcDbEntity
  8
Default
100
AcDbSpline
210
0.0
220
0.0
230
1.0
 70
    28
 71
     2
 72
     6
 73
     3
 74
     0
 42
0.0000000001
 43
0.0000000001
 40
126.5000540073096
 40
126.5000540073096
 40
126.5000540073096
 40
151.250081010956
 40
151.250081010956
 40
151.250081010956
 10
31.50392564370713
 20
72.13583370898762
 30
0.0
 41
1.0
 10
31.50392564370713
 20
59.76082020716446
 30
0.0
 41
1.0
 10
31.50392564370713
 20
47.38580670534124
 30
0.0
 41
1.0
  0
ARC
  5
6F
330
1F
100
AcDbEntity
  8
Default
100
AcDbCircle
 10
30.75392564370713
 20
47.38580670534124
 30
0.0
 40
0.75
100
AcDbArc
 50
270.0
 51
0.0
  0
SPLINE
  5
70
330
1F
100
AcDbEntity
  8
Default
100
AcDbSpline
210
0.0
220
0.0
230
1.0
 70
    28
 71
     2
 72
     6
 73
     3
 74
     0
 42
0.0000000001
 43
0.0000000001
 40
152.750081010956
 40
152.750081010956
 40
152.750081010956
 40
158.000081010973
 40
158.000081010973
 40
158.000081010973
 10
30.75392564370713
 20
46.63580670534124
 30
0.0
 41
1.0
 10
28.12892564369849
 20
46.63580670534124
 30
0.0
 41
1.0
 10
25.50392564369008
 20
46.63580670534124
 30
0.0
 41
1.0
  0
ARC
  5
71
330
1F
100
AcDbEntity
  8
Default
100
AcDbCircle
 10
-30.74610135995636
 20
14.1358067053413
 30
0.0
 40
0.75
100
AcDbArc
 50
180.0
 51
270.0
  0
SPLINE
  5
72
330
1F
100
AcDbEntity
  8
Default
100
AcDbSpline
210
0.0
220
0.0
230
1.0
 70
    24
 71
     2
 72
     6
 73
     3
 74
     0
 42
0.0000000001
 43
0.0000000001
 40
0.75
 40
0.75
 40
0.75
 40
54.50005400729259
 40
54.50005400729259
 40
54.50005400729259
 10
-30.74610135995636
 20
13.3858067053413
 30
0.0
 10
-3.871074356310032
 20
13.3858067053413
 30
0.0
 10
23.00395264733629
 20
13.3858067053413
 30
0.0
  0
ARC
  5
73
330
1F
100
AcDbEntity
  8
Default
100
AcDbCircle
 10
23.00395264733629
 20
14.1358067053413
 30
0.0
 40
0.75
100
AcDbArc
 50
270.0
 51
0.0
  0
SPLINE
  5
74
330
1F
100
AcDbEntity
  8
Default
100
AcDbSpline
210
0.0
220
0.0
230
1.0
 70
    24
 71
     2
 72
     6
 73
     3
 74
     0
 42
0.0000000001
 43
0.0000000001
 40
56.00005400729259
 40
56.00005400729259
 40
56.00005400729259
 40
59.00005400729259
 40
59.00005400729259
 40
59.00005400729259
 10
23.75395264733629
 20
14.1358067053413
 30
0.0
 10
23.75395264733629
 20
15.6358067053413
 30
0.0
 10
23.75395264733629
 20
17.1358067053413
 30
0.0
  0
ARC
  5
75
330
1F
100
AcDbEntity
  8
Default
100
AcDbCircle
 10
23.00395264733629
 20
17.1358067053413
 30
0.0
 40
0.75
100
AcDbArc
 50
0.0
 51
90.0
  0
SPLINE
  5
76
330
1F
100
AcDbEntity
  8
Default
100
AcDbSpline
210
0.0
220
0.0
230
1.0
 70
    24
 71
     2
 72
     6
 73
     3
 74
     0
 42
0.0000000001
 43
0.0000000001
 40
60.50005400729259
 40
60.50005400729259
 40
60.50005400729259
 40
114.2501080145852
 40
114.2501080145852
 40
114.2501080145852
 10
23.00395264733629
 20
17.8858067053413
 30
0.0
 10
-3.871074356310032
 20
17.8858067053413
 30
0.0
 10
-30.74610135995636
 20
17.8858067053413
 30
0.0
  0
ARC
  5
77
330
1F
100
AcDbEntity
  8
Default
100
AcDbCircle
 10
-30.74610135995636
 20
17.1358067053413
 30
0.0
 40
0.75
100
AcDbArc
 50
90.0
 51
180.0
  0
SPLINE
  5
78
330
1F
100
AcDbEntity
  8
Default
100
AcDbSpline
210
0.0
220
0.0
230
1.0
 70
    24
 71
     2
 72
     6
 73
     3
 74
     0
 42
0.0000000001
 43
0.0000000001
 40
115.7501080145852
 40
115.7501080145852
 40
115.7501080145852
 40
118.7501080145852
 40
118.7501080145852
 40
118.7501080145852
 10
-31.49610135995636
 20
17.1358067053413
 30
0.0
 10
-31.49610135995636
 20
15.6358067053413
 30
0.0
 10
-31.49610135995636
 20
14.1358067053413
 30
0.0
  0
SPLINE
  5
79
330
1F
100
AcDbEntity
  8
Default
100
AcDbSpline
210
0.0
220
0.0
230
1.0
 70
    24
 71
     2
 72
     6
 73
     3
 74
     0
 42
0.0000000001
 43
0.0000000001
 40
0.0
 40
0.0
 40
0.0
 40
2.362204724409445
 40
2.362204724409445
 40
2.362204724409445
 10
68.7317993481729
 20
11.02363125427577
 30
0.0
 10
68.7317993481729
 20
12.20473361648049
 30
0.0
 10
68.7317993481729
 20
13.3858359786852
 30
0.0
  0
SPLINE
  5
7A
330
1F
100
AcDbEntity
  8
Default
100
AcDbSpline
210
0.0
220
0.0
230
1.0
 70
    24
 71
     2
 72
     6
 73
     3
 74
     0
 42
0.0000000001
 43
0.0000000001
 40
-10.03937007878633
 40
-10.03937007878633
 40
-10.03937007878633
 40
0.0
 40
0.0
 40
0.0
 10
-21.06300348147624
 20
11.02360198093193
 30
0.0
 10
-21.06300348147613
 20
6.003916492584569
 30
0.0
 10
-21.06300348147602
 20
0.9842310042372056
 30
0.0
  0
SPLINE
  5
7B
330
1F
100
AcDbEntity
  8
Default
100
AcDbSpline
210
0.0
220
0.0
230
1.0
 70
    12
 71
     2
 72
    12
 73
     9
 74
     0
 42
0.0000000001
 43
0.0000000001
 40
0.0
 40
0.0
 40
0.0
 40
0.7730450936832355
 40
0.7730450936832355
 40
1.546090187366471
 40
1.546090187366471
 40
2.319135281049706
 40
2.319135281049706
 40
3.092180374732942
 40
3.092180374732942
 40
3.092180374732942
 10
-21.06300348147602
 20
0.9842310042372056
 30
0.0
 41
1.0
 10
-21.06299072087517
 20
0.5765305681588396
 30
0.0
 41
0.9238765377170371
 10
-21.35127331809713
 20
0.2882389489157795
 30
0.0
 41
1.0
 10
-21.63955591531931
 20
-0.0000526703272579
 30
0.0
 41
0.9238765377170371
 10
-22.0472554536891
 20
-0.0000526687905271
 30
0.0
 41
1.0
 10
-22.45495499205879
 20
-0.0000526672537346
 30
0.0
 41
0.9238765377170371
 10
-22.74323758710739
 20
0.2882389541626544
 30
0.0
 41
1.0
 10
-23.03152018215593
 20
0.5765305755790662
 30
0.0
 41
0.9238765377170371
 10
-23.03150741848276
 20
0.984231007947546
 30
0.0
 41
1.0
  0
SPLINE
  5
7C
330
1F
100
AcDbEntity
  8
Default
100
AcDbSpline
210
0.0
220
0.0
230
1.0
 70
    24
 71
     2
 72
     6
 73
     3
 74
     0
 42
0.0000000001
 43
0.0000000001
 40
0.0
 40
0.0
 40
0.0
 40
10.03937007878576
 40
10.03937007878576
 40
10.03937007878576
 10
-23.03150741848276
 20
0.984231007947546
 30
0.0
 10
-23.03150741848344
 20
6.003916494439739
 30
0.0
 10
-23.03150741848413
 20
11.02360198093193
 30
0.0
  0
POLYLINE
  5
7D
330
1F
100
AcDbEntity
  8
Default
100
AcDb2dPolyline
 66
     1
 10
0.0
 20
0.0
 30
0.0
  0
VERTEX
  5
7E
330
7D
100
AcDbEntity
  8
Default
100
AcDbVertex
100
AcDb2dVertex
 10
49.16142368709006
 20
11.02363125427577
 30
0.0
  0
VERTEX
  5
7F
330
7D
100
AcDbEntity
  8
Default
100
AcDbVertex
100
AcDb2dVertex
 10
70.61813282676735
 20
11.02363125427577
 30
0.0
  0
SEQEND
  5
80
330
7D
100
AcDbEntity
  8
Default
  0
SPLINE
  5
81
330
1F
100
AcDbEntity
  8
Default
100
AcDbSpline
210
0.0
220
0.0
230
1.0
 70
    24
 71
     2
 72
     6
 73
     3
 74
     0
 42
0.0000000001
 43
0.0000000001
 40
-10.03937007878633
 40
-10.03937007878633
 40
-10.03937007878633
 40
0.0
 40
0.0
 40
0.0
 10
70.61813282676735
 20
11.02363125427577
 30
0.0
 10
70.61813282676746
 20
6.00394576592841
 30
0.0
 10
70.61813282676758
 20
0.984260277581047
 30
0.0
  0
SPLINE
  5
82
330
1F
100
AcDbEntity
  8
Default
100
AcDbSpline
210
0.0
220
0.0
230
1.0
 70
    12
 71
     2
 72
    12
 73
     9
 74
     0
 42
0.0000000001
 43
0.0000000001
 40
0.0
 40
0.0
 40
0.0
 40
0.7730450936832355
 40
0.7730450936832355
 40
1.546090187366471
 40
1.546090187366471
 40
2.319135281049706
 40
2.319135281049706
 40
3.092180374732942
 40
3.092180374732942
 40
3.092180374732942
 10
70.61813282676758
 20
0.984260277581047
 30
0.0
 41
1.0
 10
70.61814558736839
 20
0.5765598415026997
 30
0.0
 41
0.9238765377170371
 10
70.32986299014624
 20
0.2882682222596209
 30
0.0
 41
1.0
 10
70.04158039292425
 20
-0.0000233969833979
 30
0.0
 41
0.9238765377170371
 10
69.63388085455449
 20
-0.0000233954466857
 30
0.0
 41
1.0
 10
69.22618131618476
 20
-0.0000233939098745
 30
0.0
 41
0.9238765377170371
 10
68.93789872113621
 20
0.2882682275064958
 30
0.0
 41
1.0
 10
68.64961612608762
 20
0.5765598489229262
 30
0.0
 41
0.9238765377170371
 10
68.64962888976083
 20
0.9842602812913874
 30
0.0
 41
1.0
  0
SPLINE
  5
83
330
1F
100
AcDbEntity
  8
Default
100
AcDbSpline
210
0.0
220
0.0
230
1.0
 70
    24
 71
     2
 72
     6
 73
     3
 74
     0
 42
0.0000000001
 43
0.0000000001
 40
0.0
 40
0.0
 40
0.0
 40
10.03937007878576
 40
10.03937007878576
 40
10.03937007878576
 10
68.64962888976083
 20
0.9842602812913874
 30
0.0
 10
68.64962888976015
 20
6.003945767783581
 30
0.0
 10
68.64962888975947
 20
11.02363125427577
 30
0.0
  0
ARC
  5
84
330
1F
100
AcDbEntity
  8
Default
100
AcDbCircle
 10
52.50392564369008
 20
30.88583597868514
 30
0.0
 40
0.75
100
AcDbArc
 50
0.0
 51
90.0
  0
SPLINE
  5
85
330
1F
100
AcDbEntity
  8
Default
100
AcDbSpline
210
0.0
220
0.0
230
1.0
 70
    24
 71
     2
 72
     6
 73
     3
 74
     0
 42
0.0000000001
 43
0.0000000001
 40
64.75003446599018
 40
64.75003446599018
 40
64.75003446599018
 40
70.00003446599018
 40
70.00003446599018
 40
70.00003446599018
 10
52.50392564369008
 20
31.63583597868514
 30
0.0
 10
49.87892564369008
 20
31.63583597868514
 30
0.0
 10
47.25392564369008
 20
31.63583597868514
 30
0.0
  0
ARC
  5
86
330
1F
100
AcDbEntity
  8
Default
100
AcDbCircle
 10
47.25392564369008
 20
30.88583597868514
 30
0.0
 40
0.75
100
AcDbArc
 50
90.0
 51
180.0
  0
SPLINE
  5
87
330
1F
100
AcDbEntity
  8
Default
100
AcDbSpline
210
0.0
220
0.0
230
1.0
 70
    24
 71
     2
 72
     6
 73
     3
 74
     0
 42
0.0000000001
 43
0.0000000001
 40
71.50003446599018
 40
71.50003446599018
 40
71.50003446599018
 40
88.25003446599018
 40
88.25003446599018
 40
88.25003446599018
 10
46.50392564369008
 20
30.88583597868514
 30
0.0
 10
46.50392564369008
 20
22.51083597868514
 30
0.0
 10
46.50392564369008
 20
14.13583597868514
 30
0.0
  0
ARC
  5
88
330
1F
100
AcDbEntity
  8
Default
100
AcDbCircle
 10
47.25392564369008
 20
14.13583597868514
 30
0.0
 40
0.75
100
AcDbArc
 50
180.0
 51
270.0
  0
SPLINE
  5
89
330
1F
100
AcDbEntity
  8
Default
100
AcDbSpline
210
0.0
220
0.0
230
1.0
 70
    24
 71
     2
 72
     6
 73
     3
 74
     0
 42
0.0000000001
 43
0.0000000001
 40
89.75003446599018
 40
89.75003446599018
 40
89.75003446599018
 40
95.00003446599018
 40
95.00003446599018
 40
95.00003446599018
 10
47.25392564369008
 20
13.38583597868514
 30
0.0
 10
49.87892564369008
 20
13.38583597868514
 30
0.0
 10
52.50392564369008
 20
13.38583597868514
 30
0.0
  0
ARC
  5
8A
330
1F
100
AcDbEntity
  8
Default
100
AcDbCircle
 10
52.50392564369008
 20
14.13583597868514
 30
0.0
 40
0.75
100
AcDbArc
 50
270.0
 51
0.0
  0
SPLINE
  5
8B
330
1F
100
AcDbEntity
  8
Default
100
AcDbSpline
210
0.0
220
0.0
230
1.0
 70
    24
 71
     2
 72
     6
 73
     3
 74
     0
 42
0.0000000001
 43
0.0000000001
 40
96.50003446599018
 40
96.50003446599018
 40
96.50003446599018
 40
113.2500344659902
 40
113.2500344659902
 40
113.2500344659902
 10
53.25392564369008
 20
14.13583597868514
 30
0.0
 10
53.25392564369008
 20
22.51083597868514
 30
0.0
 10
53.25392564369008
 20
30.88583597868514
 30
0.0
  0
SPLINE
  5
8C
330
1F
100
AcDbEntity
  8
Default
100
AcDbSpline
210
0.0
220
0.0
230
1.0
 70
    24
 71
     2
 72
     6
 73
     3
 74
     0
 42
0.0000000001
 43
0.0000000001
 40
0.0
 40
0.0
 40
0.0
 40
2.362204724409445
 40
2.362204724409445
 40
2.362204724409445
 10
-23.03150741848413
 20
13.38580670534136
 30
0.0
 10
-23.03150741848413
 20
12.20470434313664
 30
0.0
 10
-23.03150741848413
 20
11.02360198093193
 30
0.0
  0
LINE
  5
8D
330
1F
100
AcDbEntity
  8
Default
100
AcDbLine
 10
52.50392564369008
 20
13.38583597868514
 30
0.0
 11
54.50394266120975
 21
13.38583597868514
 31
0.0
  0
LINE
  5
8E
330
1F
100
AcDbEntity
  8
Default
100
AcDbLine
 10
72.75394287668519
 20
17.13583597868514
 30
0.0
 11
72.75394287668519
 21
30.63583597868514
 31
0.0
  0
ARC
  5
8F
330
1F
100
AcDbEntity
  8
Default
100
AcDbCircle
 10
71.75394287668519
 20
30.63583597868514
 30
0.0
 40
1.0
100
AcDbArc
 50
0.0
 51
90.0
  0
LINE
  5
90
330
1F
100
AcDbEntity
  8
Default
100
AcDbLine
 10
71.75394287668519
 20
31.63583597868514
 30
0.0
 11
52.50392564369008
 21
31.63583597868514
 31
0.0
  0
ARC
  5
91
330
1F
100
AcDbEntity
  8
Default
100
AcDbCircle
 10
54.50394266120975
 20
14.13583597868514
 30
0.0
 40
0.75
100
AcDbArc
 50
180.0
 51
270.0
  0
SPLINE
  5
92
330
1F
100
AcDbEntity
  8
Default
100
AcDbSpline
210
0.0
220
0.0
230
1.0
 70
    24
 71
     2
 72
     6
 73
     3
 74
     0
 42
0.0000000001
 43
0.0000000001
 40
0.75
 40
0.75
 40
0.75
 40
18.25000021547537
 40
18.25000021547537
 40
18.25000021547537
 10
54.50394266120975
 20
13.38583597868514
 30
0.0
 10
63.25394276894747
 20
13.38583597868514
 30
0.0
 10
72.00394287668519
 20
13.38583597868514
 30
0.0
  0
ARC
  5
93
330
1F
100
AcDbEntity
  8
Default
100
AcDbCircle
 10
72.00394287668519
 20
14.13583597868514
 30
0.0
 40
0.75
100
AcDbArc
 50
270.0
 51
0.0
  0
SPLINE
  5
94
330
1F
100
AcDbEntity
  8
Default
100
AcDbSpline
210
0.0
220
0.0
230
1.0
 70
    24
 71
     2
 72
     6
 73
     3
 74
     0
 42
0.0000000001
 43
0.0000000001
 40
19.75000021547537
 40
19.75000021547537
 40
19.75000021547537
 40
22.75000021547537
 40
22.75000021547537
 40
22.75000021547537
 10
72.75394287668519
 20
14.13583597868514
 30
0.0
 10
72.75394287668519
 20
15.63583597868514
 30
0.0
 10
72.75394287668519
 20
17.13583597868514
 30
0.0
  0
ARC
  5
95
330
1F
100
AcDbEntity
  8
Default
100
AcDbCircle
 10
72.00394287668519
 20
17.13583597868514
 30
0.0
 40
0.75
100
AcDbArc
 50
0.0
 51
90.0
  0
SPLINE
  5
96
330
1F
100
AcDbEntity
  8
Default
100
AcDbSpline
210
0.0
220
0.0
230
1.0
 70
    24
 71
     2
 72
     6
 73
     3
 74
     0
 42
0.0000000001
 43
0.0000000001
 40
24.25000021547537
 40
24.25000021547537
 40
24.25000021547537
 40
41.75000043095073
 40
41.75000043095073
 40
41.75000043095073
 10
72.00394287668519
 20
17.88583597868514
 30
0.0
 10
63.25394276894747
 20
17.88583597868514
 30
0.0
 10
54.50394266120975
 20
17.88583597868514
 30
0.0
  0
ARC
  5
97
330
1F
100
AcDbEntity
  8
Default
100
AcDbCircle
 10
54.50394266120975
 20
17.13583597868514
 30
0.0
 40
0.75
100
AcDbArc
 50
90.0
 51
180.0
  0
SPLINE
  5
98
330
1F
100
AcDbEntity
  8
Default
100
AcDbSpline
210
0.0
220
0.0
230
1.0
 70
    24
 71
     2
 72
     6
 73
     3
 74
     0
 42
0.0000000001
 43
0.0000000001
 40
43.25000043095073
 40
43.25000043095073
 40
43.25000043095073
 40
46.25000043095073
 40
46.25000043095073
 40
46.25000043095073
 10
53.75394266120975
 20
17.13583597868514
 30
0.0
 10
53.75394266120975
 20
15.63583597868514
 30
0.0
 10
53.75394266120975
 20
14.13583597868514
 30
0.0
  0
SPLINE
  5
99
330
1F
100
AcDbEntity
  8
Default
100
AcDbSpline
210
0.0
220
0.0
230
1.0
 70
    24
 71
     2
 72
     6
 73
     3
 74
     0
 42
0.0000000001
 43
0.0000000001
 40
0.0
 40
0.0
 40
0.0
 40
2.362204724409445
 40
2.362204724409445
 40
2.362204724409445
 10
70.61813282676735
 20
13.3858359786852
 30
0.0
 10
70.61813282676735
 20
12.20473361648049
 30
0.0
 10
70.61813282676735
 20
11.02363125427577
 30
0.0
  0
SPLINE
  5
9A
330
1F
100
AcDbEntity
  8
Default
100
AcDbSpline
210
0.0
220
0.0
230
1.0
 70
    24
 71
     2
 72
     6
 73
     3
 74
     0
 42
0.0000000001
 43
0.0000000001
 40
0.0
 40
0.0
 40
0.0
 40
2.362204724409445
 40
2.362204724409445
 40
2.362204724409445
 10
49.16142368709006
 20
11.02363125427577
 30
0.0
 10
49.16142368709006
 20
12.20473361648049
 30
0.0
 10
49.16142368709006
 20
13.3858359786852
 30
0.0
  0
ENDSEC
  0
SECTION
  2
OBJECTS
  0
DICTIONARY
  5
C
330
0
100
AcDbDictionary
281
     1
  3
ACAD_GROUP
350
D
  3
ACAD_LAYOUT
350
1A
  3
ACAD_MLEADERSTYLE
350
9C
  3
ACAD_MLINESTYLE
350
17
  3
ACAD_PLOTSETTINGS
350
19
  3
ACAD_PLOTSTYLENAME
350
E
  3
ACAD_TABLESTYLE
350
9B
  3
ACAD_VISUALSTYLE
350
2A
  0
DICTIONARY
  5
D
102
{ACAD_REACTORS
330
C
102
}
330
C
100
AcDbDictionary
281
     1
  0
DICTIONARY
  5
1A
102
{ACAD_REACTORS
330
C
102
}
330
C
100
AcDbDictionary
281
     1
  3
Layout1
350
1E
  3
Layout2
350
26
  3
Model
350
22
  0
DICTIONARY
  5
9C
102
{ACAD_REACTORS
330
C
102
}
330
C
100
AcDbDictionary
281
     1
  0
DICTIONARY
  5
17
102
{ACAD_REACTORS
330
C
102
}
330
C
100
AcDbDictionary
281
     1
  3
Standard
350
18
  0
DICTIONARY
  5
19
102
{ACAD_REACTORS
330
C
102
}
330
C
100
AcDbDictionary
281
     1
  0
ACDBDICTIONARYWDFLT
  5
E
102
{ACAD_REACTORS
330
C
102
}
330
C
100
AcDbDictionary
281
     1
  3
Normal
350
F
100
AcDbDictionaryWithDefault
340
F
  0
DICTIONARY
  5
9B
102
{ACAD_REACTORS
330
C
102
}
330
C
100
AcDbDictionary
281
     1
  0
DICTIONARY
  5
2A
102
{ACAD_REACTORS
330
C
102
}
330
C
100
AcDbDictionary
281
     1
  3
2dWireframe
350
2F
  3
3D Hidden
350
31
  3
3dWireframe
350
30
  3
Basic
350
32
  3
Brighten
350
36
  3
ColorChange
350
3A
  3
Conceptual
350
34
  3
Dim
350
35
  3
Facepattern
350
39
  3
Flat
350
2B
  3
FlatWithEdges
350
2C
  3
Gouraud
350
2D
  3
GouraudWithEdges
350
2E
  3
Linepattern
350
38
  3
Realistic
350
33
  3
Thicken
350
37
  0
LAYOUT
  5
1E
102
{ACAD_REACTORS
330
1A
102
}
330
1A
100
AcDbPlotSettings
  1

  2
none_device
  4

  6

 40
0.0
 41
0.0
 42
0.0
 43
0.0
 44
0.0
 45
0.0
 46
0.0
 47
0.0
 48
0.0
 49
0.0
140
0.0
141
0.0
142
1.0
143
1.0
 70
   688
 72
     0
 73
     0
 74
     5
  7

 75
    16
 76
     0
 77
     2
 78
   300
147
1.0
148
0.0
149
0.0
100
AcDbLayout
  1
Layout1
 70
     1
 71
     1
 10
0.0
 20
0.0
 11
12.0
 21
9.0
 12
0.0
 22
0.0
 32
0.0
 14
1.000000000000000E+20
 24
1.000000000000000E+20
 34
1.000000000000000E+20
 15
-1.000000000000000E+20
 25
-1.000000000000000E+20
 35
-1.000000000000000E+20
146
0.0
 13
0.0
 23
0.0
 33
0.0
 16
1.0
 26
0.0
 36
0.0
 17
0.0
 27
1.0
 37
0.0
 76
     0
330
1B
  0
LAYOUT
  5
26
102
{ACAD_REACTORS
330
1A
102
}
330
1A
100
AcDbPlotSettings
  1

  2
none_device
  4

  6

 40
0.0
 41
0.0
 42
0.0
 43
0.0
 44
0.0
 45
0.0
 46
0.0
 47
0.0
 48
0.0
 49
0.0
140
0.0
141
0.0
142
1.0
143
1.0
 70
   688
 72
     0
 73
     0
 74
     5
  7

 75
    16
 76
     0
 77
     2
 78
   300
147
1.0
148
0.0
149
0.0
100
AcDbLayout
  1
Layout2
 70
     1
 71
     2
 10
0.0
 20
0.0
 11
0.0
 21
0.0
 12
0.0
 22
0.0
 32
0.0
 14
0.0
 24
0.0
 34
0.0
 15
0.0
 25
0.0
 35
0.0
146
0.0
 13
0.0
 23
0.0
 33
0.0
 16
1.0
 26
0.0
 36
0.0
 17
0.0
 27
1.0
 37
0.0
 76
     0
330
23
  0
LAYOUT
  5
22
102
{ACAD_REACTORS
330
1A
102
}
330
1A
100
AcDbPlotSettings
  1

  2
none_device
  4

  6

 40
0.0
 41
0.0
 42
0.0
 43
0.0
 44
0.0
 45
0.0
 46
0.0
 47
0.0
 48
0.0
 49
0.0
140
0.0
141
0.0
142
1.0
143
1.0
 70
  1712
 72
     0
 73
     0
 74
     0
  7

 75
     0
 76
     0
 77
     2
 78
   300
147
1.0
148
0.0
149
0.0
100
AcDbLayout
  1
Model
 70
     1
 71
     0
 10
0.0
 20
0.0
 11
12.0
 21
9.0
 12
0.0
 22
0.0
 32
0.0
 14
-31.49610135995636
 24
-0.0000526687905271
 34
0.0
 15
72.75394287668519
 25
72.88583370898762
 35
0.0
146
0.0
 13
0.0
 23
0.0
 33
0.0
 16
1.0
 26
0.0
 36
0.0
 17
0.0
 27
1.0
 37
0.0
 76
     0
330
1F
331
29
  0
MLINESTYLE
  5
18
102
{ACAD_REACTORS
330
17
102
}
330
17
100
AcDbMlineStyle
  2
Standard
 70
     0
  3

 62
   256
 51
90.0
 52
90.0
 71
     2
 49
0.5
 62
   256
  6
BYLAYER
 49
-0.5
 62
   256
  6
BYLAYER
  0
ACDBPLACEHOLDER
  5
F
102
{ACAD_REACTORS
330
E
102
}
330
E
  0
VISUALSTYLE
  5
2F
102
{ACAD_REACTORS
330
2A
102
}
330
2A
100
AcDbVisualStyle
  2
2dWireframe
 70
     4
 71
     0
 72
     2
 73
     0
 90
        0
 40
-0.6
 41
-30.0
 62
     5
 63
     7
421
 16777215
 74
     1
 91
        4
 64
     7
 65
   257
 75
     1
175
     1
 42
1.0
 92
        0
 66
   257
 43
1.0
 76
     1
 77
     6
 78
     2
 67
     7
 79
     5
170
     0
171
     0
290
     0
174
     0
 93
        1
 44
0.0
173
     0
291
     0
 45
0.0
1001
ACAD
1000
AcDbSavedByObjectVersion
1070
     0
  0
VISUALSTYLE
  5
31
102
{ACAD_REACTORS
330
2A
102
}
330
2A
100
AcDbVisualStyle
  2
3D Hidden
 70
     6
 71
     1
 72
     2
 73
     2
 90
        0
 40
-0.6
 41
-30.0
 62
     5
 63
     7
421
 16777215
 74
     2
 91
        2
 64
     7
 65
   257
 75
     2
175
     1
 42
40.0
 92
        0
 66
   257
 43
1.0
 76
     1
 77
     6
 78
     2
 67
     7
 79
     3
170
     0
171
     0
290
     0
174
     0
 93
        1
 44
0.0
173
     0
291
     0
 45
0.0
1001
ACAD
1000
AcDbSavedByObjectVersion
1070
     0
  0
VISUALSTYLE
  5
30
102
{ACAD_REACTORS
330
2A
102
}
330
2A
100
AcDbVisualStyle
  2
3dWireframe
 70
     5
 71
     0
 72
     2
 73
     0
 90
        0
 40
-0.6
 41
-30.0
 62
     5
 63
     7
421
 16777215
 74
     1
 91
        4
 64
     7
 65
   257
 75
     1
175
     1
 42
1.0
 92
        0
 66
   257
 43
1.0
 76
     1
 77
     6
 78
     2
 67
     7
 79
     5
170
     0
171
     0
290
     0
174
     0
 93
        1
 44
0.0
173
     0
291
     0
 45
0.0
1001
ACAD
1000
AcDbSavedByObjectVersion
1070
     0
  0
VISUALSTYLE
  5
32
102
{ACAD_REACTORS
330
2A
102
}
330
2A
100
AcDbVisualStyle
  2
Basic
 70
     7
 71
     1
 72
     0
 73
     1
 90
        0
 40
-0.6
 41
-30.0
 62
     5
 63
     7
421
 16777215
 74
     0
 91
        4
 64
     7
 65
   257
 75
     1
175
     1
 42
1.0
 92
        8
 66
     7
 43
1.0
 76
     1
 77
     6
 78
     2
 67
     7
 79
     5
170
     0
171
     0
290
     0
174
     0
 93
        1
 44
0.0
173
     0
291
     1
 45
0.0
1001
ACAD
1000
AcDbSavedByObjectVersion
1070
     0
  0
VISUALSTYLE
  5
36
102
{ACAD_REACTORS
330
2A
102
}
330
2A
100
AcDbVisualStyle
  2
Brighten
 70
    12
 71
     2
 72
     2
 73
     0
 90
        0
 40
-0.6
 41
-30.0
 62
     5
 63
     7
421
 16777215
 74
     1
 91
        4
 64
     7
 65
   257
 75
     1
175
     1
 42
1.0
 92
        8
 66
     7
 43
1.0
 76
     1
 77
     6
 78
     2
 67
     7
 79
     5
170
     0
171
     0
290
     0
174
     0
 93
        1
 44
50.0
173
     0
291
     1
 45
0.0
1001
ACAD
1000
AcDbSavedByObjectVersion
1070
     0
  0
VISUALSTYLE
  5
3A
102
{ACAD_REACTORS
330
2A
102
}
330
2A
100
AcDbVisualStyle
  2
ColorChange
 70
    16
 71
     2
 72
     2
 73
     3
 90
        0
 40
-0.6
 41
-30.0
 62
     5
 63
     8
421
  8421504
 74
     1
 91
        4
 64
     7
 65
   257
 75
     1
175
     1
 42
1.0
 92
        8
 66
     8
424
  8421504
 43
1.0
 76
     1
 77
     6
 78
     2
 67
     7
 79
     5
170
     0
171
     0
290
     0
174
     0
 93
        1
 44
0.0
173
     0
291
     1
 45
0.0
1001
ACAD
1000
AcDbSavedByObjectVersion
1070
     0
  0
VISUALSTYLE
  5
34
102
{ACAD_REACTORS
330
2A
102
}
330
2A
100
AcDbVisualStyle
  2
Conceptual
 70
     9
 71
     3
 72
     2
 73
     0
 90
        0
 40
-0.6
 41
-30.0
 62
     5
 63
     7
421
 16777215
 74
     2
 91
        2
 64
     7
 65
   257
 75
     1
175
     1
 42
40.0
 92
        8
 66
     7
 43
1.0
 76
     1
 77
     6
 78
     2
 67
     7
 79
     3
170
     0
171
     0
290
     0
174
     0
 93
        1
 44
0.0
173
     0
291
     0
 45
0.0
1001
ACAD
1000
AcDbSavedByObjectVersion
1070
     0
  0
VISUALSTYLE
  5
35
102
{ACAD_REACTORS
330
2A
102
}
330
2A
100
AcDbVisualStyle
  2
Dim
 70
    11
 71
     2
 72
     2
 73
     0
 90
        0
 40
-0.6
 41
-30.0
 62
     5
 63
     7
421
 16777215
 74
     1
 91
        4
 64
     7
 65
   257
 75
     1
175
     1
 42
1.0
 92
        8
 66
     7
 43
1.0
 76
     1
 77
     6
 78
     2
 67
     7
 79
     5
170
     0
171
     0
290
     0
174
     0
 93
        1
 44
-50.0
173
     0
291
     1
 45
0.0
1001
ACAD
1000
AcDbSavedByObjectVersion
1070
     0
  0
VISUALSTYLE
  5
39
102
{ACAD_REACTORS
330
2A
102
}
330
2A
100
AcDbVisualStyle
  2
Facepattern
 70
    15
 71
     2
 72
     2
 73
     0
 90
        0
 40
-0.6
 41
-30.0
 62
     5
 63
     7
421
 16777215
 74
     1
 91
        4
 64
     7
 65
   257
 75
     1
175
     1
 42
1.0
 92
        8
 66
     7
 43
1.0
 76
     1
 77
     6
 78
     2
 67
     7
 79
     5
170
     0
171
     0
290
     0
174
     0
 93
        1
 44
0.0
173
     0
291
     1
 45
0.0
1001
ACAD
1000
AcDbSavedByObjectVersion
1070
     0
  0
VISUALSTYLE
  5
2B
102
{ACAD_REACTORS
330
2A
102
}
330
2A
100
AcDbVisualStyle
  2
Flat
 70
     0
 71
     2
 72
     1
 73
     1
 90
        2
 40
-0.6
 41
30.0
 62
     5
 63
     7
421
 16777215
 74
     0
 91
        4
 64
     7
 65
   257
 75
     1
175
     1
 42
1.0
 92
        8
 66
     7
 43
1.0
 76
     1
 77
     6
 78
     2
 67
     7
 79
     5
170
     0
171
     0
290
     0
174
     0
 93
       13
 44
0.0
173
     0
291
     1
 45
0.0
1001
ACAD
1000
AcDbSavedByObjectVersion
1070
     0
  0
VISUALSTYLE
  5
2C
102
{ACAD_REACTORS
330
2A
102
}
330
2A
100
AcDbVisualStyle
  2
FlatWithEdges
 70
     1
 71
     2
 72
     1
 73
     1
 90
        2
 40
-0.6
 41
30.0
 62
     5
 63
     7
421
 16777215
 74
     1
 91
        4
 64
     7
 65
   257
 75
     1
175
     1
 42
1.0
 92
        0
 66
   257
 43
1.0
 76
     1
 77
     6
 78
     2
 67
     7
 79
     5
170
     0
171
     0
290
     0
174
     0
 93
       13
 44
0.0
173
     0
291
     1
 45
0.0
1001
ACAD
1000
AcDbSavedByObjectVersion
1070
     0
  0
VISUALSTYLE
  5
2D
102
{ACAD_REACTORS
330
2A
102
}
330
2A
100
AcDbVisualStyle
  2
Gouraud
 70
     2
 71
     2
 72
     2
 73
     1
 90
        2
 40
-0.6
 41
30.0
 62
     5
 63
     7
421
 16777215
 74
     0
 91
        4
 64
     7
 65
   257
 75
     1
175
     1
 42
1.0
 92
        0
 66
     7
 43
1.0
 76
     1
 77
     6
 78
     2
 67
     7
 79
     5
170
     0
171
     0
290
     0
174
     0
 93
       13
 44
0.0
173
     0
291
     1
 45
0.0
1001
ACAD
1000
AcDbSavedByObjectVersion
1070
     0
  0
VISUALSTYLE
  5
2E
102
{ACAD_REACTORS
330
2A
102
}
330
2A
100
AcDbVisualStyle
  2
GouraudWithEdges
 70
     3
 71
     2
 72
     2
 73
     1
 90
        2
 40
-0.6
 41
30.0
 62
     5
 63
     7
421
 16777215
 74
     1
 91
        4
 64
     7
 65
   257
 75
     1
175
     1
 42
1.0
 92
        0
 66
   257
 43
1.0
 76
     1
 77
     6
 78
     2
 67
     7
 79
     5
170
     0
171
     0
290
     0
174
     0
 93
       13
 44
0.0
173
     0
291
     1
 45
0.0
1001
ACAD
1000
AcDbSavedByObjectVersion
1070
     0
  0
VISUALSTYLE
  5
38
102
{ACAD_REACTORS
330
2A
102
}
330
2A
100
AcDbVisualStyle
  2
Linepattern
 70
    14
 71
     2
 72
     2
 73
     0
 90
        0
 40
-0.6
 41
-30.0
 62
     5
 63
     7
421
 16777215
 74
     1
 91
        4
 64
     7
 65
   257
 75
     7
175
     7
 42
1.0
 92
        8
 66
     7
 43
1.0
 76
     1
 77
     6
 78
     2
 67
     7
 79
     5
170
     0
171
     0
290
     0
174
     0
 93
        1
 44
0.0
173
     0
291
     1
 45
0.0
1001
ACAD
1000
AcDbSavedByObjectVersion
1070
     0
  0
VISUALSTYLE
  5
33
102
{ACAD_REACTORS
330
2A
102
}
330
2A
100
AcDbVisualStyle
  2
Realistic
 70
     8
 71
     2
 72
     2
 73
     0
 90
        0
 40
-0.6
 41
-30.0
 62
     5
 63
     7
421
 16777215
 74
     1
 91
        0
 64
     7
 65
   257
 75
     1
175
     1
 42
1.0
 92
        8
 66
     8
424
  7895160
 43
1.0
 76
     1
 77
     6
 78
     2
 67
     7
 79
     5
170
     0
171
     0
290
     0
174
     0
 93
       13
 44
0.0
173
     0
291
     0
 45
0.0
1001
ACAD
1000
AcDbSavedByObjectVersion
1070
     0
  0
VISUALSTYLE
  5
37
102
{ACAD_REACTORS
330
2A
102
}
330
2A
100
AcDbVisualStyle
  2
Thicken
 70
    13
 71
     2
 72
     2
 73
     0
 90
        0
 40
-0.6
 41
-30.0
 62
     5
 63
     7
421
 16777215
 74
     1
 91
        4
 64
     7
 65
   257
 75
     1
175
     1
 42
1.0
 92
       12
 66
     7
 43
1.0
 76
     1
 77
     6
 78
     2
 67
     7
 79
     5
170
     0
171
     0
290
     0
174
     0
 93
        1
 44
0.0
173
     0
291
     1
 45
0.0
1001
ACAD
1000
AcDbSavedByObjectVersion
1070
     0
  0
ENDSEC
  0
EOF
